  0
SECTION
  2
HEADER
  9
$ACADVER
  1
AC1021
  9
$ACADMAINTVER
 70
    25
  9
$DWGCODEPAGE
  3
UNDEFINED
  9
$INSBASE
 10
0.0
 20
0.0
 30
0.0
  9
$EXTMIN
 10
1.000000000000000E+20
 20
1.000000000000000E+20
 30
1.000000000000000E+20
  9
$EXTMAX
 10
-1.000000000000000E+20
 20
-1.000000000000000E+20
 30
-1.000000000000000E+20
  9
$LIMMIN
 10
0.0
 20
0.0
  9
$LIMMAX
 10
12.0
 20
9.0
  9
$ORTHOMODE
 70
     0
  9
$REGENMODE
 70
     1
  9
$FILLMODE
 70
     1
  9
$QTEXTMODE
 70
     0
  9
$MIRRTEXT
 70
     1
  9
$LTSCALE
 40
1.0
  9
$ATTMODE
 70
     1
  9
$TEXTSIZE
 40
0.2
  9
$TRACEWID
 40
0.05
  9
$TEXTSTYLE
  7
Standard
  9
$CLAYER
  8
0
  9
$CELTYPE
  6
ByLayer
  9
$CECOLOR
 62
   256
  9
$CELTSCALE
 40
1.0
  9
$DISPSILH
 70
     0
  9
$DIMSCALE
 40
1.0
  9
$DIMASZ
 40
0.18
  9
$DIMEXO
 40
0.0625
  9
$DIMDLI
 40
0.38
  9
$DIMRND
 40
0.0
  9
$DIMDLE
 40
0.0
  9
$DIMEXE
 40
0.18
  9
$DIMTP
 40
0.0
  9
$DIMTM
 40
0.0
  9
$DIMTXT
 40
0.18
  9
$DIMCEN
 40
0.09
  9
$DIMTSZ
 40
0.0
  9
$DIMTOL
 70
     0
  9
$DIMLIM
 70
     0
  9
$DIMTIH
 70
     1
  9
$DIMTOH
 70
     1
  9
$DIMSE1
 70
     0
  9
$DIMSE2
 70
     0
  9
$DIMTAD
 70
     0
  9
$DIMZIN
 70
     0
  9
$DIMBLK
  1

  9
$DIMASO
 70
     1
  9
$DIMSHO
 70
     1
  9
$DIMPOST
  1

  9
$DIMAPOST
  1

  9
$DIMALT
 70
     0
  9
$DIMALTD
 70
     2
  9
$DIMALTF
 40
25.4
  9
$DIMLFAC
 40
1.0
  9
$DIMTOFL
 70
     0
  9
$DIMTVP
 40
0.0
  9
$DIMTIX
 70
     0
  9
$DIMSOXD
 70
     0
  9
$DIMSAH
 70
     0
  9
$DIMBLK1
  1

  9
$DIMBLK2
  1

  9
$DIMSTYLE
  2
Standard
  9
$DIMCLRD
 70
     0
  9
$DIMCLRE
 70
     0
  9
$DIMCLRT
 70
     0
  9
$DIMTFAC
 40
1.0
  9
$DIMGAP
 40
0.09
  9
$DIMJUST
 70
     0
  9
$DIMSD1
 70
     0
  9
$DIMSD2
 70
     0
  9
$DIMTOLJ
 70
     1
  9
$DIMTZIN
 70
     0
  9
$DIMALTZ
 70
     0
  9
$DIMALTTZ
 70
     0
  9
$DIMUPT
 70
     0
  9
$DIMDEC
 70
     4
  9
$DIMTDEC
 70
     4
  9
$DIMALTU
 70
     2
  9
$DIMALTTD
 70
     2
  9
$DIMTXSTY
  7
Standard
  9
$DIMAUNIT
 70
     0
  9
$DIMADEC
 70
     0
  9
$DIMALTRND
 40
0.0
  9
$DIMAZIN
 70
     0
  9
$DIMDSEP
 70
    46
  9
$DIMATFIT
 70
     3
  9
$DIMFRAC
 70
     0
  9
$DIMLDRBLK
  1

  9
$DIMLUNIT
 70
     2
  9
$DIMLWD
 70
    -2
  9
$DIMLWE
 70
    -2
  9
$DIMTMOVE
 70
     0
  9
$DIMFXL
 40
1.0
  9
$DIMFXLON
 70
     0
  9
$DIMJOGANG
 40
0.7853981633974483
  9
$DIMTFILL
 70
     0
  9
$DIMTFILLCLR
 70
     0
  9
$DIMARCSYM
 70
     0
  9
$DIMLTYPE
  6

  9
$DIMLTEX1
  6

  9
$DIMLTEX2
  6

  9
$LUNITS
 70
     2
  9
$LUPREC
 70
     4
  9
$SKETCHINC
 40
0.1
  9
$FILLETRAD
 40
0.5
  9
$AUNITS
 70
     0
  9
$AUPREC
 70
     0
  9
$MENU
  1
.
  9
$ELEVATION
 40
0.0
  9
$PELEVATION
 40
0.0
  9
$THICKNESS
 40
0.0
  9
$LIMCHECK
 70
     0
  9
$CHAMFERA
 40
0.5
  9
$CHAMFERB
 40
0.5
  9
$CHAMFERC
 40
1.0
  9
$CHAMFERD
 40
0.0
  9
$SKPOLY
 70
     0
  9
$TDCREATE
 40
2459380.399988414
  9
$TDUCREATE
 40
2459380.358321759
  9
$TDUPDATE
 40
2459380.399988414
  9
$TDUUPDATE
 40
2459380.358321759
  9
$TDINDWG
 40
0.0000000116
  9
$TDUSRTIMER
 40
0.0000000116
  9
$USRTIMER
 70
     1
  9
$ANGBASE
 50
0.0
  9
$ANGDIR
 70
     0
  9
$PDMODE
 70
     0
  9
$PDSIZE
 40
0.0
  9
$PLINEWID
 40
0.0
  9
$SPLFRAME
 70
     0
  9
$SPLINETYPE
 70
     6
  9
$SPLINESEGS
 70
     8
  9
$HANDSEED
  5
289
  9
$SURFTAB1
 70
     6
  9
$SURFTAB2
 70
     6
  9
$SURFTYPE
 70
     6
  9
$SURFU
 70
     6
  9
$SURFV
 70
     6
  9
$UCSBASE
  2

  9
$UCSNAME
  2

  9
$UCSORG
 10
0.0
 20
0.0
 30
0.0
  9
$UCSXDIR
 10
1.0
 20
0.0
 30
0.0
  9
$UCSYDIR
 10
0.0
 20
1.0
 30
0.0
  9
$UCSORTHOREF
  2

  9
$UCSORTHOVIEW
 70
     0
  9
$UCSORGTOP
 10
0.0
 20
0.0
 30
0.0
  9
$UCSORGBOTTOM
 10
0.0
 20
0.0
 30
0.0
  9
$UCSORGLEFT
 10
0.0
 20
0.0
 30
0.0
  9
$UCSORGRIGHT
 10
0.0
 20
0.0
 30
0.0
  9
$UCSORGFRONT
 10
0.0
 20
0.0
 30
0.0
  9
$UCSORGBACK
 10
0.0
 20
0.0
 30
0.0
  9
$PUCSBASE
  2

  9
$PUCSNAME
  2

  9
$PUCSORG
 10
0.0
 20
0.0
 30
0.0
  9
$PUCSXDIR
 10
1.0
 20
0.0
 30
0.0
  9
$PUCSYDIR
 10
0.0
 20
1.0
 30
0.0
  9
$PUCSORTHOREF
  2

  9
$PUCSORTHOVIEW
 70
     0
  9
$PUCSORGTOP
 10
0.0
 20
0.0
 30
0.0
  9
$PUCSORGBOTTOM
 10
0.0
 20
0.0
 30
0.0
  9
$PUCSORGLEFT
 10
0.0
 20
0.0
 30
0.0
  9
$PUCSORGRIGHT
 10
0.0
 20
0.0
 30
0.0
  9
$PUCSORGFRONT
 10
0.0
 20
0.0
 30
0.0
  9
$PUCSORGBACK
 10
0.0
 20
0.0
 30
0.0
  9
$USERI1
 70
     0
  9
$USERI2
 70
     0
  9
$USERI3
 70
     0
  9
$USERI4
 70
     0
  9
$USERI5
 70
     0
  9
$USERR1
 40
0.0
  9
$USERR2
 40
0.0
  9
$USERR3
 40
0.0
  9
$USERR4
 40
0.0
  9
$USERR5
 40
0.0
  9
$WORLDVIEW
 70
     1
  9
$SHADEDGE
 70
     3
  9
$SHADEDIF
 70
    70
  9
$TILEMODE
 70
     1
  9
$MAXACTVP
 70
    64
  9
$PINSBASE
 10
0.0
 20
0.0
 30
0.0
  9
$PLIMCHECK
 70
     0
  9
$PEXTMIN
 10
1.000000000000000E+20
 20
1.000000000000000E+20
 30
1.000000000000000E+20
  9
$PEXTMAX
 10
-1.000000000000000E+20
 20
-1.000000000000000E+20
 30
-1.000000000000000E+20
  9
$PLIMMIN
 10
0.0
 20
0.0
  9
$PLIMMAX
 10
12.0
 20
9.0
  9
$UNITMODE
 70
     0
  9
$VISRETAIN
 70
     1
  9
$PLINEGEN
 70
     0
  9
$PSLTSCALE
 70
     1
  9
$TREEDEPTH
 70
  3020
  9
$CMLSTYLE
  2
Standard
  9
$CMLJUST
 70
     0
  9
$CMLSCALE
 40
1.0
  9
$PROXYGRAPHICS
 70
     1
  9
$MEASUREMENT
 70
     0
  9
$CELWEIGHT
370
    -1
  9
$ENDCAPS
280
     0
  9
$JOINSTYLE
280
     0
  9
$LWDISPLAY
290
     1
  9
$INSUNITS
 70
     1
  9
$HYPERLINKBASE
  1

  9
$STYLESHEET
  1

  9
$XEDIT
290
     1
  9
$CEPSNTYPE
380
     0
  9
$PSTYLEMODE
290
     1
  9
$FINGERPRINTGUID
  2
{80B50E9D-F280-9016-A235-04E28009553E}
  9
$VERSIONGUID
  2
{FAEB1C32-E019-11D5-929B-00C0DF256EC4}
  9
$EXTNAMES
290
     1
  9
$PSVPSCALE
 40
0.0
  9
$OLESTARTUP
290
     0
  9
$SORTENTS
280
   127
  9
$INDEXCTL
280
     0
  9
$HIDETEXT
280
     1
  9
$XCLIPFRAME
290
     0
  9
$HALOGAP
280
     0
  9
$OBSCOLOR
 70
   257
  9
$OBSLTYPE
280
     0
  9
$INTERSECTIONDISPLAY
280
     0
  9
$INTERSECTIONCOLOR
 70
   257
  9
$DIMASSOC
280
     2
  9
$PROJECTNAME
  1

  9
$CAMERADISPLAY
290
     0
  9
$LENSLENGTH
 40
50.0
  9
$CAMERAHEIGHT
 40
0.0
  9
$STEPSPERSEC
 40
2.0
  9
$STEPSIZE
 40
6.0
  9
$3DDWFPREC
 40
2.0
  9
$PSOLWIDTH
 40
0.25
  9
$PSOLHEIGHT
 40
4.0
  9
$LOFTANG1
 40
1.570796326794897
  9
$LOFTANG2
 40
1.570796326794897
  9
$LOFTMAG1
 40
0.0
  9
$LOFTMAG2
 40
0.0
  9
$LOFTPARAM
 70
     7
  9
$LOFTNORMALS
280
     1
  9
$LATITUDE
 40
37.795
  9
$LONGITUDE
 40
-122.394
  9
$NORTHDIRECTION
 40
0.0
  9
$TIMEZONE
 70
 -8000
  9
$LIGHTGLYPHDISPLAY
280
     1
  9
$TILEMODELIGHTSYNCH
280
     1
  9
$CMATERIAL
347
3C
  9
$SOLIDHIST
280
     1
  9
$SHOWHIST
280
     1
  9
$DWFFRAME
280
     2
  9
$DGNFRAME
280
     2
  9
$REALWORLDSCALE
290
     1
  9
$INTERFERECOLOR
 62
   256
  9
$CSHADOW
280
     0
  9
$SHADOWPLANELOCATION
 40
0.0
  0
ENDSEC
  0
SECTION
  2
CLASSES
  0
CLASS
  1
ACDBDICTIONARYWDFLT
  2
AcDbDictionaryWithDefault
  3
ObjectDBX Classes
 90
        0
 91
        4
280
     0
281
     0
  0
CLASS
  1
VISUALSTYLE
  2
AcDbVisualStyle
  3
ObjectDBX Classes
 90
     4095
 91
        4
280
     0
281
     0
  0
CLASS
  1
MATERIAL
  2
AcDbMaterial
  3
ObjectDBX Classes
 90
     1153
 91
        4
280
     0
281
     0
  0
CLASS
  1
SUN
  2
AcDbSun
  3
SCENEOE
 90
     1024
 91
        4
280
     0
281
     0
  0
ENDSEC
  0
SECTION
  2
TABLES
  0
TABLE
  2
VPORT
  5
8
330
0
100
AcDbSymbolTable
 70
     1
  0
VPORT
  5
29
330
8
100
AcDbSymbolTableRecord
100
AcDbViewportTableRecord
  2
*Active
 70
     0
 10
0.0
 20
0.0
 11
1.0
 21
1.0
 12
0.0
 22
0.0
 13
0.0
 23
0.0
 14
0.5
 24
0.5
 15
0.5
 25
0.5
 16
0.0
 26
0.0
 36
1.0
 17
105.0007777515277
 27
148.5000416295417
 37
0.0
 40
297.0000832590835
 41
0.7070757462376325
 42
50.0
 43
0.0
 44
0.0
 50
0.0
 51
0.0
 71
     0
 72
   100
 73
     1
 74
     3
 75
     0
 76
     0
 77
     0
 78
     0
281
     0
 65
     1
110
0.0
120
0.0
130
0.0
111
1.0
121
0.0
131
0.0
112
0.0
122
1.0
132
0.0
 79
     0
146
0.0
 60
     3
 61
     5
292
     1
282
     1
141
0.0
142
0.0
 63
   250
361
3F
  0
ENDTAB
  0
TABLE
  2
LTYPE
  5
5
330
0
100
AcDbSymbolTable
 70
    42
  0
LTYPE
  5
14
330
5
100
AcDbSymbolTableRecord
100
AcDbLinetypeTableRecord
  2
ByBlock
 70
     0
  3

 72
    65
 73
     0
 40
0.0
  0
LTYPE
  5
15
330
5
100
AcDbSymbolTableRecord
100
AcDbLinetypeTableRecord
  2
ByLayer
 70
     0
  3

 72
    65
 73
     0
 40
0.0
  0
LTYPE
  5
16
330
5
100
AcDbSymbolTableRecord
100
AcDbLinetypeTableRecord
  2
Continuous
 70
     0
  3
Solid line
 72
    65
 73
     0
 40
0.0
  0
LTYPE
  5
4A
330
5
100
AcDbSymbolTableRecord
100
AcDbLinetypeTableRecord
  2
AI-Linetype-1
 70
     0
  3
Adobe Illustrator Linetype No. 1
 72
    65
 73
     2
 40
7.270862246391072
 49
3.635375106750391
 74
     0
 49
-3.635487139640682
 74
     0
  0
LTYPE
  5
55
330
5
100
AcDbSymbolTableRecord
100
AcDbLinetypeTableRecord
  2
AI-Linetype-2
 70
     0
  3
Adobe Illustrator Linetype No. 2
 72
    65
 73
     2
 40
7.270862246391072
 49
3.635375106750391
 74
     0
 49
-3.635487139640682
 74
     0
  0
LTYPE
  5
5B
330
5
100
AcDbSymbolTableRecord
100
AcDbLinetypeTableRecord
  2
AI-Linetype-3
 70
     0
  3
Adobe Illustrator Linetype No. 3
 72
    65
 73
     2
 40
7.270862246391072
 49
3.635375106750391
 74
     0
 49
-3.635487139640682
 74
     0
  0
LTYPE
  5
66
330
5
100
AcDbSymbolTableRecord
100
AcDbLinetypeTableRecord
  2
AI-Linetype-4
 70
     0
  3
Adobe Illustrator Linetype No. 4
 72
    65
 73
     2
 40
7.270862246391072
 49
3.635375106750391
 74
     0
 49
-3.635487139640682
 74
     0
  0
LTYPE
  5
6C
330
5
100
AcDbSymbolTableRecord
100
AcDbLinetypeTableRecord
  2
AI-Linetype-5
 70
     0
  3
Adobe Illustrator Linetype No. 5
 72
    65
 73
     2
 40
7.270862246391072
 49
3.635375106750391
 74
     0
 49
-3.635487139640682
 74
     0
  0
LTYPE
  5
72
330
5
100
AcDbSymbolTableRecord
100
AcDbLinetypeTableRecord
  2
AI-Linetype-6
 70
     0
  3
Adobe Illustrator Linetype No. 6
 72
    65
 73
     2
 40
7.270862246391072
 49
3.635375106750391
 74
     0
 49
-3.635487139640682
 74
     0
  0
LTYPE
  5
78
330
5
100
AcDbSymbolTableRecord
100
AcDbLinetypeTableRecord
  2
AI-Linetype-7
 70
     0
  3
Adobe Illustrator Linetype No. 7
 72
    65
 73
     2
 40
7.270862246391072
 49
3.635375106750391
 74
     0
 49
-3.635487139640682
 74
     0
  0
LTYPE
  5
83
330
5
100
AcDbSymbolTableRecord
100
AcDbLinetypeTableRecord
  2
AI-Linetype-8
 70
     0
  3
Adobe Illustrator Linetype No. 8
 72
    65
 73
     2
 40
7.270862246391072
 49
3.635375106750391
 74
     0
 49
-3.635487139640682
 74
     0
  0
LTYPE
  5
89
330
5
100
AcDbSymbolTableRecord
100
AcDbLinetypeTableRecord
  2
AI-Linetype-9
 70
     0
  3
Adobe Illustrator Linetype No. 9
 72
    65
 73
     2
 40
7.270862246391072
 49
3.635375106750391
 74
     0
 49
-3.635487139640682
 74
     0
  0
LTYPE
  5
99
330
5
100
AcDbSymbolTableRecord
100
AcDbLinetypeTableRecord
  2
AI-Linetype-10
 70
     0
  3
Adobe Illustrator Linetype No. 10
 72
    65
 73
     2
 40
7.270862246391072
 49
3.635375106750391
 74
     0
 49
-3.635487139640682
 74
     0
  0
LTYPE
  5
9F
330
5
100
AcDbSymbolTableRecord
100
AcDbLinetypeTableRecord
  2
AI-Linetype-11
 70
     0
  3
Adobe Illustrator Linetype No. 11
 72
    65
 73
     2
 40
7.270862246391072
 49
3.635375106750391
 74
     0
 49
-3.635487139640682
 74
     0
  0
LTYPE
  5
A5
330
5
100
AcDbSymbolTableRecord
100
AcDbLinetypeTableRecord
  2
AI-Linetype-12
 70
     0
  3
Adobe Illustrator Linetype No. 12
 72
    65
 73
     2
 40
7.270862246391072
 49
3.635375106750391
 74
     0
 49
-3.635487139640682
 74
     0
  0
LTYPE
  5
AB
330
5
100
AcDbSymbolTableRecord
100
AcDbLinetypeTableRecord
  2
AI-Linetype-13
 70
     0
  3
Adobe Illustrator Linetype No. 13
 72
    65
 73
     2
 40
7.270862246391072
 49
3.635375106750391
 74
     0
 49
-3.635487139640682
 74
     0
  0
LTYPE
  5
BB
330
5
100
AcDbSymbolTableRecord
100
AcDbLinetypeTableRecord
  2
AI-Linetype-14
 70
     0
  3
Adobe Illustrator Linetype No. 14
 72
    65
 73
     2
 40
7.270862246391072
 49
3.635375106750391
 74
     0
 49
-3.635487139640682
 74
     0
  0
LTYPE
  5
C1
330
5
100
AcDbSymbolTableRecord
100
AcDbLinetypeTableRecord
  2
AI-Linetype-15
 70
     0
  3
Adobe Illustrator Linetype No. 15
 72
    65
 73
     2
 40
7.270862246391072
 49
3.635375106750391
 74
     0
 49
-3.635487139640682
 74
     0
  0
LTYPE
  5
EA
330
5
100
AcDbSymbolTableRecord
100
AcDbLinetypeTableRecord
  2
AI-Linetype-16
 70
     0
  3
Adobe Illustrator Linetype No. 16
 72
    65
 73
     2
 40
7.270862246391072
 49
3.635375106750391
 74
     0
 49
-3.635487139640682
 74
     0
  0
LTYPE
  5
F0
330
5
100
AcDbSymbolTableRecord
100
AcDbLinetypeTableRecord
  2
AI-Linetype-17
 70
     0
  3
Adobe Illustrator Linetype No. 17
 72
    65
 73
     2
 40
7.270862246391072
 49
3.635375106750391
 74
     0
 49
-3.635487139640682
 74
     0
  0
LTYPE
  5
103
330
5
100
AcDbSymbolTableRecord
100
AcDbLinetypeTableRecord
  2
AI-Linetype-18
 70
     0
  3
Adobe Illustrator Linetype No. 18
 72
    65
 73
     2
 40
7.270862246391072
 49
3.635375106750391
 74
     0
 49
-3.635487139640682
 74
     0
  0
LTYPE
  5
10E
330
5
100
AcDbSymbolTableRecord
100
AcDbLinetypeTableRecord
  2
AI-Linetype-19
 70
     0
  3
Adobe Illustrator Linetype No. 19
 72
    65
 73
     2
 40
7.270862246391072
 49
3.635375106750391
 74
     0
 49
-3.635487139640682
 74
     0
  0
LTYPE
  5
114
330
5
100
AcDbSymbolTableRecord
100
AcDbLinetypeTableRecord
  2
AI-Linetype-20
 70
     0
  3
Adobe Illustrator Linetype No. 20
 72
    65
 73
     2
 40
7.270862246391072
 49
3.635375106750391
 74
     0
 49
-3.635487139640682
 74
     0
  0
LTYPE
  5
11F
330
5
100
AcDbSymbolTableRecord
100
AcDbLinetypeTableRecord
  2
AI-Linetype-21
 70
     0
  3
Adobe Illustrator Linetype No. 21
 72
    65
 73
     2
 40
7.270862246391072
 49
3.635375106750391
 74
     0
 49
-3.635487139640682
 74
     0
  0
LTYPE
  5
12F
330
5
100
AcDbSymbolTableRecord
100
AcDbLinetypeTableRecord
  2
AI-Linetype-22
 70
     0
  3
Adobe Illustrator Linetype No. 22
 72
    65
 73
     2
 40
7.270862246391072
 49
3.635375106750391
 74
     0
 49
-3.635487139640682
 74
     0
  0
LTYPE
  5
13A
330
5
100
AcDbSymbolTableRecord
100
AcDbLinetypeTableRecord
  2
AI-Linetype-23
 70
     0
  3
Adobe Illustrator Linetype No. 23
 72
    65
 73
     2
 40
7.270862246391072
 49
3.635375106750391
 74
     0
 49
-3.635487139640682
 74
     0
  0
LTYPE
  5
159
330
5
100
AcDbSymbolTableRecord
100
AcDbLinetypeTableRecord
  2
AI-Linetype-24
 70
     0
  3
Adobe Illustrator Linetype No. 24
 72
    65
 73
     2
 40
7.270862246391072
 49
3.635375106750391
 74
     0
 49
-3.635487139640682
 74
     0
  0
LTYPE
  5
16E
330
5
100
AcDbSymbolTableRecord
100
AcDbLinetypeTableRecord
  2
AI-Linetype-25
 70
     0
  3
Adobe Illustrator Linetype No. 25
 72
    65
 73
     2
 40
7.270862246391072
 49
3.635375106750391
 74
     0
 49
-3.635487139640682
 74
     0
  0
LTYPE
  5
17E
330
5
100
AcDbSymbolTableRecord
100
AcDbLinetypeTableRecord
  2
AI-Linetype-26
 70
     0
  3
Adobe Illustrator Linetype No. 26
 72
    65
 73
     2
 40
7.270862246391072
 49
3.635375106750391
 74
     0
 49
-3.635487139640682
 74
     0
  0
LTYPE
  5
184
330
5
100
AcDbSymbolTableRecord
100
AcDbLinetypeTableRecord
  2
AI-Linetype-27
 70
     0
  3
Adobe Illustrator Linetype No. 27
 72
    65
 73
     2
 40
7.270862246391072
 49
3.635375106750391
 74
     0
 49
-3.635487139640682
 74
     0
  0
LTYPE
  5
18A
330
5
100
AcDbSymbolTableRecord
100
AcDbLinetypeTableRecord
  2
AI-Linetype-28
 70
     0
  3
Adobe Illustrator Linetype No. 28
 72
    65
 73
     2
 40
7.270862246391072
 49
3.635375106750391
 74
     0
 49
-3.635487139640682
 74
     0
  0
LTYPE
  5
190
330
5
100
AcDbSymbolTableRecord
100
AcDbLinetypeTableRecord
  2
AI-Linetype-29
 70
     0
  3
Adobe Illustrator Linetype No. 29
 72
    65
 73
     2
 40
7.270862246391072
 49
3.635375106750391
 74
     0
 49
-3.635487139640682
 74
     0
  0
LTYPE
  5
1AE
330
5
100
AcDbSymbolTableRecord
100
AcDbLinetypeTableRecord
  2
AI-Linetype-30
 70
     0
  3
Adobe Illustrator Linetype No. 30
 72
    65
 73
     2
 40
6.250008793433971
 49
3.125004396716986
 74
     0
 49
-3.125004396716986
 74
     0
  0
LTYPE
  5
1B3
330
5
100
AcDbSymbolTableRecord
100
AcDbLinetypeTableRecord
  2
AI-Linetype-31
 70
     0
  3
Adobe Illustrator Linetype No. 31
 72
    65
 73
     4
 40
28.12517818171654
 49
18.75016499156558
 74
     0
 49
-3.125004396716986
 74
     0
 49
3.125004396716986
 74
     0
 49
-3.125004396716986
 74
     0
  0
LTYPE
  5
1CC
330
5
100
AcDbSymbolTableRecord
100
AcDbLinetypeTableRecord
  2
AI-Linetype-32
 70
     0
  3
Adobe Illustrator Linetype No. 32
 72
    65
 73
     2
 40
6.249936796321292
 49
3.124968398160646
 74
     0
 49
-3.124968398160646
 74
     0
  0
LTYPE
  5
1D1
330
5
100
AcDbSymbolTableRecord
100
AcDbLinetypeTableRecord
  2
AI-Linetype-33
 70
     0
  3
Adobe Illustrator Linetype No. 33
 72
    65
 73
     4
 40
28.12485486757969
 49
18.74994967309775
 74
     0
 49
-3.124968398160646
 74
     0
 49
3.124968398160646
 74
     0
 49
-3.124968398160646
 74
     0
  0
LTYPE
  5
1DC
330
5
100
AcDbSymbolTableRecord
100
AcDbLinetypeTableRecord
  2
AI-Linetype-34
 70
     0
  3
Adobe Illustrator Linetype No. 34
 72
    65
 73
     2
 40
7.270862246391072
 49
3.635375106750391
 74
     0
 49
-3.635487139640682
 74
     0
  0
LTYPE
  5
1F0
330
5
100
AcDbSymbolTableRecord
100
AcDbLinetypeTableRecord
  2
AI-Linetype-35
 70
     0
  3
Adobe Illustrator Linetype No. 35
 72
    65
 73
     2
 40
6.249864799208612
 49
3.124932399604306
 74
     0
 49
-3.124932399604306
 74
     0
  0
LTYPE
  5
1F5
330
5
100
AcDbSymbolTableRecord
100
AcDbLinetypeTableRecord
  2
AI-Linetype-36
 70
     0
  3
Adobe Illustrator Linetype No. 36
 72
    65
 73
     4
 40
28.12453155344284
 49
18.74973435462992
 74
     0
 49
-3.124932399604306
 74
     0
 49
3.124932399604306
 74
     0
 49
-3.124932399604306
 74
     0
  0
LTYPE
  5
20E
330
5
100
AcDbSymbolTableRecord
100
AcDbLinetypeTableRecord
  2
AI-Linetype-37
 70
     0
  3
Adobe Illustrator Linetype No. 37
 72
    65
 73
     2
 40
6.249936796321292
 49
3.124968398160646
 74
     0
 49
-3.124968398160646
 74
     0
  0
LTYPE
  5
213
330
5
100
AcDbSymbolTableRecord
100
AcDbLinetypeTableRecord
  2
AI-Linetype-38
 70
     0
  3
Adobe Illustrator Linetype No. 38
 72
    65
 73
     4
 40
28.12485486757969
 49
18.74994967309775
 74
     0
 49
-3.124968398160646
 74
     0
 49
3.124968398160646
 74
     0
 49
-3.124968398160646
 74
     0
  0
LTYPE
  5
22C
330
5
100
AcDbSymbolTableRecord
100
AcDbLinetypeTableRecord
  2
AI-Linetype-39
 70
     0
  3
Adobe Illustrator Linetype No. 39
 72
    65
 73
     2
 40
8.020960800496862
 49
4.010480400248431
 74
     0
 49
-4.010480400248431
 74
     0
  0
LTYPE
  5
231
330
5
100
AcDbSymbolTableRecord
100
AcDbLinetypeTableRecord
  2
AI-Linetype-40
 70
     0
  3
Adobe Illustrator Linetype No. 40
 72
    65
 73
     4
 40
36.09450191284206
 49
24.06306071209676
 74
     0
 49
-4.010480400248431
 74
     0
 49
4.010480400248431
 74
     0
 49
-4.010480400248431
 74
     0
  0
LTYPE
  5
23C
330
5
100
AcDbSymbolTableRecord
100
AcDbLinetypeTableRecord
  2
AI-Linetype-41
 70
     0
  3
Adobe Illustrator Linetype No. 41
 72
    65
 73
     2
 40
7.270862246391072
 49
3.635375106750391
 74
     0
 49
-3.635487139640682
 74
     0
  0
ENDTAB
  0
TABLE
  2
LAYER
  5
2
330
0
100
AcDbSymbolTable
 70
     1
  0
LAYER
  5
10
330
2
100
AcDbSymbolTableRecord
100
AcDbLayerTableRecord
  2
0
 70
     0
 62
     7
  6
Continuous
370
    -3
390
F
347
3E
  0
ENDTAB
  0
TABLE
  2
STYLE
  5
3
330
0
100
AcDbSymbolTable
 70
     1
  0
STYLE
  5
11
330
3
100
AcDbSymbolTableRecord
100
AcDbTextStyleTableRecord
  2
Standard
 70
     0
 40
0.0
 41
1.0
 50
0.0
 71
     0
 42
0.2
  3
txt
  4

  0
ENDTAB
  0
TABLE
  2
VIEW
  5
6
330
0
100
AcDbSymbolTable
 70
     0
  0
ENDTAB
  0
TABLE
  2
UCS
  5
7
330
0
100
AcDbSymbolTable
 70
     0
  0
ENDTAB
  0
TABLE
  2
APPID
  5
9
330
0
100
AcDbSymbolTable
 70
     1
  0
APPID
  5
12
330
9
100
AcDbSymbolTableRecord
100
AcDbRegAppTableRecord
  2
ACAD
 70
     0
  0
ENDTAB
  0
TABLE
  2
DIMSTYLE
  5
A
330
0
100
AcDbSymbolTable
 70
     1
100
AcDbDimStyleTable
  0
DIMSTYLE
105
27
330
A
100
AcDbSymbolTableRecord
100
AcDbDimStyleTableRecord
  2
Standard
 70
     0
178
     0
340
11
  0
ENDTAB
  0
TABLE
  2
BLOCK_RECORD
  5
1
330
0
100
AcDbSymbolTable
 70
    87
  0
BLOCK_RECORD
  5
1F
330
1
100
AcDbSymbolTableRecord
100
AcDbBlockTableRecord
  2
*Model_Space
340
22
 70
     0
280
     1
281
     0
  0
BLOCK_RECORD
  5
1B
330
1
100
AcDbSymbolTableRecord
100
AcDbBlockTableRecord
  2
*Paper_Space
340
1E
 70
     0
280
     1
281
     0
  0
BLOCK_RECORD
  5
23
330
1
100
AcDbSymbolTableRecord
100
AcDbBlockTableRecord
  2
*Paper_Space0
340
26
 70
     0
280
     1
281
     0
  0
BLOCK_RECORD
  5
40
330
1
100
AcDbSymbolTableRecord
100
AcDbBlockTableRecord
  2
block 2
340
0
102
{BLKREFS
331
41
102
}
 70
     0
280
     1
281
     0
  0
BLOCK_RECORD
  5
45
330
1
100
AcDbSymbolTableRecord
100
AcDbBlockTableRecord
  2
block 3
340
0
102
{BLKREFS
331
46
102
}
 70
     0
280
     1
281
     0
  0
BLOCK_RECORD
  5
4B
330
1
100
AcDbSymbolTableRecord
100
AcDbBlockTableRecord
  2
block 4
340
0
102
{BLKREFS
331
4C
102
}
 70
     0
280
     1
281
     0
  0
BLOCK_RECORD
  5
50
330
1
100
AcDbSymbolTableRecord
100
AcDbBlockTableRecord
  2
block 5
340
0
102
{BLKREFS
331
51
102
}
 70
     0
280
     1
281
     0
  0
BLOCK_RECORD
  5
56
330
1
100
AcDbSymbolTableRecord
100
AcDbBlockTableRecord
  2
block 6
340
0
102
{BLKREFS
331
57
102
}
 70
     0
280
     1
281
     0
  0
BLOCK_RECORD
  5
5C
330
1
100
AcDbSymbolTableRecord
100
AcDbBlockTableRecord
  2
block 7
340
0
102
{BLKREFS
331
5D
102
}
 70
     0
280
     1
281
     0
  0
BLOCK_RECORD
  5
61
330
1
100
AcDbSymbolTableRecord
100
AcDbBlockTableRecord
  2
block 8
340
0
102
{BLKREFS
331
62
102
}
 70
     0
280
     1
281
     0
  0
BLOCK_RECORD
  5
67
330
1
100
AcDbSymbolTableRecord
100
AcDbBlockTableRecord
  2
block 9
340
0
102
{BLKREFS
331
68
102
}
 70
     0
280
     1
281
     0
  0
BLOCK_RECORD
  5
6D
330
1
100
AcDbSymbolTableRecord
100
AcDbBlockTableRecord
  2
block 10
340
0
102
{BLKREFS
331
6E
102
}
 70
     0
280
     1
281
     0
  0
BLOCK_RECORD
  5
73
330
1
100
AcDbSymbolTableRecord
100
AcDbBlockTableRecord
  2
block 11
340
0
102
{BLKREFS
331
74
102
}
 70
     0
280
     1
281
     0
  0
BLOCK_RECORD
  5
79
330
1
100
AcDbSymbolTableRecord
100
AcDbBlockTableRecord
  2
block 12
340
0
102
{BLKREFS
331
7A
102
}
 70
     0
280
     1
281
     0
  0
BLOCK_RECORD
  5
7E
330
1
100
AcDbSymbolTableRecord
100
AcDbBlockTableRecord
  2
block 13
340
0
102
{BLKREFS
331
7F
102
}
 70
     0
280
     1
281
     0
  0
BLOCK_RECORD
  5
84
330
1
100
AcDbSymbolTableRecord
100
AcDbBlockTableRecord
  2
block 14
340
0
102
{BLKREFS
331
85
102
}
 70
     0
280
     1
281
     0
  0
BLOCK_RECORD
  5
8A
330
1
100
AcDbSymbolTableRecord
100
AcDbBlockTableRecord
  2
block 15
340
0
102
{BLKREFS
331
8B
102
}
 70
     0
280
     1
281
     0
  0
BLOCK_RECORD
  5
8F
330
1
100
AcDbSymbolTableRecord
100
AcDbBlockTableRecord
  2
block 16
340
0
102
{BLKREFS
331
90
102
}
 70
     0
280
     1
281
     0
  0
BLOCK_RECORD
  5
94
330
1
100
AcDbSymbolTableRecord
100
AcDbBlockTableRecord
  2
block 17
340
0
102
{BLKREFS
331
95
102
}
 70
     0
280
     1
281
     0
  0
BLOCK_RECORD
  5
9A
330
1
100
AcDbSymbolTableRecord
100
AcDbBlockTableRecord
  2
block 18
340
0
102
{BLKREFS
331
9B
102
}
 70
     0
280
     1
281
     0
  0
BLOCK_RECORD
  5
A0
330
1
100
AcDbSymbolTableRecord
100
AcDbBlockTableRecord
  2
block 19
340
0
102
{BLKREFS
331
A1
102
}
 70
     0
280
     1
281
     0
  0
BLOCK_RECORD
  5
A6
330
1
100
AcDbSymbolTableRecord
100
AcDbBlockTableRecord
  2
block 20
340
0
102
{BLKREFS
331
A7
102
}
 70
     0
280
     1
281
     0
  0
BLOCK_RECORD
  5
AC
330
1
100
AcDbSymbolTableRecord
100
AcDbBlockTableRecord
  2
block 21
340
0
102
{BLKREFS
331
AD
102
}
 70
     0
280
     1
281
     0
  0
BLOCK_RECORD
  5
B1
330
1
100
AcDbSymbolTableRecord
100
AcDbBlockTableRecord
  2
block 22
340
0
102
{BLKREFS
331
B2
102
}
 70
     0
280
     1
281
     0
  0
BLOCK_RECORD
  5
B6
330
1
100
AcDbSymbolTableRecord
100
AcDbBlockTableRecord
  2
block 23
340
0
102
{BLKREFS
331
B7
102
}
 70
     0
280
     1
281
     0
  0
BLOCK_RECORD
  5
BC
330
1
100
AcDbSymbolTableRecord
100
AcDbBlockTableRecord
  2
block 24
340
0
102
{BLKREFS
331
BD
102
}
 70
     0
280
     1
281
     0
  0
BLOCK_RECORD
  5
C2
330
1
100
AcDbSymbolTableRecord
100
AcDbBlockTableRecord
  2
block 25
340
0
102
{BLKREFS
331
C3
102
}
 70
     0
280
     1
281
     0
  0
BLOCK_RECORD
  5
C7
330
1
100
AcDbSymbolTableRecord
100
AcDbBlockTableRecord
  2
block 26
340
0
102
{BLKREFS
331
C8
102
}
 70
     0
280
     1
281
     0
  0
BLOCK_RECORD
  5
CC
330
1
100
AcDbSymbolTableRecord
100
AcDbBlockTableRecord
  2
block 27
340
0
102
{BLKREFS
331
CD
102
}
 70
     0
280
     1
281
     0
  0
BLOCK_RECORD
  5
D1
330
1
100
AcDbSymbolTableRecord
100
AcDbBlockTableRecord
  2
block 28
340
0
102
{BLKREFS
331
D2
102
}
 70
     0
280
     1
281
     0
  0
BLOCK_RECORD
  5
D6
330
1
100
AcDbSymbolTableRecord
100
AcDbBlockTableRecord
  2
block 29
340
0
102
{BLKREFS
331
D7
102
}
 70
     0
280
     1
281
     0
  0
BLOCK_RECORD
  5
DB
330
1
100
AcDbSymbolTableRecord
100
AcDbBlockTableRecord
  2
block 30
340
0
102
{BLKREFS
331
DC
102
}
 70
     0
280
     1
281
     0
  0
BLOCK_RECORD
  5
E0
330
1
100
AcDbSymbolTableRecord
100
AcDbBlockTableRecord
  2
block 31
340
0
102
{BLKREFS
331
E1
102
}
 70
     0
280
     1
281
     0
  0
BLOCK_RECORD
  5
E5
330
1
100
AcDbSymbolTableRecord
100
AcDbBlockTableRecord
  2
block 32
340
0
102
{BLKREFS
331
E6
102
}
 70
     0
280
     1
281
     0
  0
BLOCK_RECORD
  5
EB
330
1
100
AcDbSymbolTableRecord
100
AcDbBlockTableRecord
  2
block 33
340
0
102
{BLKREFS
331
EC
102
}
 70
     0
280
     1
281
     0
  0
BLOCK_RECORD
  5
F1
330
1
100
AcDbSymbolTableRecord
100
AcDbBlockTableRecord
  2
block 34
340
0
102
{BLKREFS
331
F2
102
}
 70
     0
280
     1
281
     0
  0
BLOCK_RECORD
  5
F6
330
1
100
AcDbSymbolTableRecord
100
AcDbBlockTableRecord
  2
block 35
340
0
102
{BLKREFS
331
F7
102
}
 70
     0
280
     1
281
     0
  0
BLOCK_RECORD
  5
FE
330
1
100
AcDbSymbolTableRecord
100
AcDbBlockTableRecord
  2
block 36
340
0
102
{BLKREFS
331
FF
102
}
 70
     0
280
     1
281
     0
  0
BLOCK_RECORD
  5
104
330
1
100
AcDbSymbolTableRecord
100
AcDbBlockTableRecord
  2
block 37
340
0
102
{BLKREFS
331
105
102
}
 70
     0
280
     1
281
     0
  0
BLOCK_RECORD
  5
109
330
1
100
AcDbSymbolTableRecord
100
AcDbBlockTableRecord
  2
block 38
340
0
102
{BLKREFS
331
10A
102
}
 70
     0
280
     1
281
     0
  0
BLOCK_RECORD
  5
10F
330
1
100
AcDbSymbolTableRecord
100
AcDbBlockTableRecord
  2
block 39
340
0
102
{BLKREFS
331
110
102
}
 70
     0
280
     1
281
     0
  0
BLOCK_RECORD
  5
115
330
1
100
AcDbSymbolTableRecord
100
AcDbBlockTableRecord
  2
block 40
340
0
102
{BLKREFS
331
116
102
}
 70
     0
280
     1
281
     0
  0
BLOCK_RECORD
  5
11A
330
1
100
AcDbSymbolTableRecord
100
AcDbBlockTableRecord
  2
block 41
340
0
102
{BLKREFS
331
11B
102
}
 70
     0
280
     1
281
     0
  0
BLOCK_RECORD
  5
120
330
1
100
AcDbSymbolTableRecord
100
AcDbBlockTableRecord
  2
block 42
340
0
102
{BLKREFS
331
121
102
}
 70
     0
280
     1
281
     0
  0
BLOCK_RECORD
  5
125
330
1
100
AcDbSymbolTableRecord
100
AcDbBlockTableRecord
  2
block 43
340
0
102
{BLKREFS
331
126
102
}
 70
     0
280
     1
281
     0
  0
BLOCK_RECORD
  5
12A
330
1
100
AcDbSymbolTableRecord
100
AcDbBlockTableRecord
  2
block 44
340
0
102
{BLKREFS
331
12B
102
}
 70
     0
280
     1
281
     0
  0
BLOCK_RECORD
  5
130
330
1
100
AcDbSymbolTableRecord
100
AcDbBlockTableRecord
  2
block 45
340
0
102
{BLKREFS
331
131
102
}
 70
     0
280
     1
281
     0
  0
BLOCK_RECORD
  5
135
330
1
100
AcDbSymbolTableRecord
100
AcDbBlockTableRecord
  2
block 46
340
0
102
{BLKREFS
331
136
102
}
 70
     0
280
     1
281
     0
  0
BLOCK_RECORD
  5
13B
330
1
100
AcDbSymbolTableRecord
100
AcDbBlockTableRecord
  2
block 47
340
0
102
{BLKREFS
331
13C
102
}
 70
     0
280
     1
281
     0
  0
BLOCK_RECORD
  5
140
330
1
100
AcDbSymbolTableRecord
100
AcDbBlockTableRecord
  2
block 48
340
0
102
{BLKREFS
331
141
102
}
 70
     0
280
     1
281
     0
  0
BLOCK_RECORD
  5
145
330
1
100
AcDbSymbolTableRecord
100
AcDbBlockTableRecord
  2
block 49
340
0
102
{BLKREFS
331
146
102
}
 70
     0
280
     1
281
     0
  0
BLOCK_RECORD
  5
14A
330
1
100
AcDbSymbolTableRecord
100
AcDbBlockTableRecord
  2
block 50
340
0
102
{BLKREFS
331
14B
102
}
 70
     0
280
     1
281
     0
  0
BLOCK_RECORD
  5
14F
330
1
100
AcDbSymbolTableRecord
100
AcDbBlockTableRecord
  2
block 51
340
0
102
{BLKREFS
331
150
102
}
 70
     0
280
     1
281
     0
  0
BLOCK_RECORD
  5
154
330
1
100
AcDbSymbolTableRecord
100
AcDbBlockTableRecord
  2
block 52
340
0
102
{BLKREFS
331
155
102
}
 70
     0
280
     1
281
     0
  0
BLOCK_RECORD
  5
15A
330
1
100
AcDbSymbolTableRecord
100
AcDbBlockTableRecord
  2
block 53
340
0
102
{BLKREFS
331
15B
102
}
 70
     0
280
     1
281
     0
  0
BLOCK_RECORD
  5
15F
330
1
100
AcDbSymbolTableRecord
100
AcDbBlockTableRecord
  2
block 54
340
0
102
{BLKREFS
331
160
102
}
 70
     0
280
     1
281
     0
  0
BLOCK_RECORD
  5
164
330
1
100
AcDbSymbolTableRecord
100
AcDbBlockTableRecord
  2
block 55
340
0
102
{BLKREFS
331
165
102
}
 70
     0
280
     1
281
     0
  0
BLOCK_RECORD
  5
169
330
1
100
AcDbSymbolTableRecord
100
AcDbBlockTableRecord
  2
block 56
340
0
102
{BLKREFS
331
16A
102
}
 70
     0
280
     1
281
     0
  0
BLOCK_RECORD
  5
16F
330
1
100
AcDbSymbolTableRecord
100
AcDbBlockTableRecord
  2
block 57
340
0
102
{BLKREFS
331
170
102
}
 70
     0
280
     1
281
     0
  0
BLOCK_RECORD
  5
174
330
1
100
AcDbSymbolTableRecord
100
AcDbBlockTableRecord
  2
block 58
340
0
102
{BLKREFS
331
175
102
}
 70
     0
280
     1
281
     0
  0
BLOCK_RECORD
  5
179
330
1
100
AcDbSymbolTableRecord
100
AcDbBlockTableRecord
  2
block 59
340
0
102
{BLKREFS
331
17A
102
}
 70
     0
280
     1
281
     0
  0
BLOCK_RECORD
  5
17F
330
1
100
AcDbSymbolTableRecord
100
AcDbBlockTableRecord
  2
block 60
340
0
102
{BLKREFS
331
180
102
}
 70
     0
280
     1
281
     0
  0
BLOCK_RECORD
  5
185
330
1
100
AcDbSymbolTableRecord
100
AcDbBlockTableRecord
  2
block 61
340
0
102
{BLKREFS
331
186
102
}
 70
     0
280
     1
281
     0
  0
BLOCK_RECORD
  5
18B
330
1
100
AcDbSymbolTableRecord
100
AcDbBlockTableRecord
  2
block 62
340
0
102
{BLKREFS
331
18C
102
}
 70
     0
280
     1
281
     0
  0
BLOCK_RECORD
  5
191
330
1
100
AcDbSymbolTableRecord
100
AcDbBlockTableRecord
  2
block 63
340
0
102
{BLKREFS
331
192
102
}
 70
     0
280
     1
281
     0
  0
BLOCK_RECORD
  5
196
330
1
100
AcDbSymbolTableRecord
100
AcDbBlockTableRecord
  2
block 64
340
0
102
{BLKREFS
331
197
102
}
 70
     0
280
     1
281
     0
  0
BLOCK_RECORD
  5
19B
330
1
100
AcDbSymbolTableRecord
100
AcDbBlockTableRecord
  2
block 65
340
0
102
{BLKREFS
331
19C
102
}
 70
     0
280
     1
281
     0
  0
BLOCK_RECORD
  5
19F
330
1
100
AcDbSymbolTableRecord
100
AcDbBlockTableRecord
  2
block 66
340
0
102
{BLKREFS
331
1A0
102
}
 70
     0
280
     1
281
     0
  0
BLOCK_RECORD
  5
1A3
330
1
100
AcDbSymbolTableRecord
100
AcDbBlockTableRecord
  2
block 67
340
0
102
{BLKREFS
331
1A4
102
}
 70
     0
280
     1
281
     0
  0
BLOCK_RECORD
  5
1B9
330
1
100
AcDbSymbolTableRecord
100
AcDbBlockTableRecord
  2
block 68
340
0
102
{BLKREFS
331
1BA
102
}
 70
     0
280
     1
281
     0
  0
BLOCK_RECORD
  5
1BD
330
1
100
AcDbSymbolTableRecord
100
AcDbBlockTableRecord
  2
block 69
340
0
102
{BLKREFS
331
1BE
102
}
 70
     0
280
     1
281
     0
  0
BLOCK_RECORD
  5
1C1
330
1
100
AcDbSymbolTableRecord
100
AcDbBlockTableRecord
  2
block 70
340
0
102
{BLKREFS
331
1C2
102
}
 70
     0
280
     1
281
     0
  0
BLOCK_RECORD
  5
1D7
330
1
100
AcDbSymbolTableRecord
100
AcDbBlockTableRecord
  2
block 71
340
0
102
{BLKREFS
331
1D8
102
}
 70
     0
280
     1
281
     0
  0
BLOCK_RECORD
  5
1DD
330
1
100
AcDbSymbolTableRecord
100
AcDbBlockTableRecord
  2
block 72
340
0
102
{BLKREFS
331
1DE
102
}
 70
     0
280
     1
281
     0
  0
BLOCK_RECORD
  5
1E1
330
1
100
AcDbSymbolTableRecord
100
AcDbBlockTableRecord
  2
block 73
340
0
102
{BLKREFS
331
1E2
102
}
 70
     0
280
     1
281
     0
  0
BLOCK_RECORD
  5
1E5
330
1
100
AcDbSymbolTableRecord
100
AcDbBlockTableRecord
  2
block 74
340
0
102
{BLKREFS
331
1E6
102
}
 70
     0
280
     1
281
     0
  0
BLOCK_RECORD
  5
1FB
330
1
100
AcDbSymbolTableRecord
100
AcDbBlockTableRecord
  2
block 75
340
0
102
{BLKREFS
331
1FC
102
}
 70
     0
280
     1
281
     0
  0
BLOCK_RECORD
  5
1FF
330
1
100
AcDbSymbolTableRecord
100
AcDbBlockTableRecord
  2
block 76
340
0
102
{BLKREFS
331
200
102
}
 70
     0
280
     1
281
     0
  0
BLOCK_RECORD
  5
203
330
1
100
AcDbSymbolTableRecord
100
AcDbBlockTableRecord
  2
block 77
340
0
102
{BLKREFS
331
204
102
}
 70
     0
280
     1
281
     0
  0
BLOCK_RECORD
  5
219
330
1
100
AcDbSymbolTableRecord
100
AcDbBlockTableRecord
  2
block 78
340
0
102
{BLKREFS
331
21A
102
}
 70
     0
280
     1
281
     0
  0
BLOCK_RECORD
  5
21D
330
1
100
AcDbSymbolTableRecord
100
AcDbBlockTableRecord
  2
block 79
340
0
102
{BLKREFS
331
21E
102
}
 70
     0
280
     1
281
     0
  0
BLOCK_RECORD
  5
221
330
1
100
AcDbSymbolTableRecord
100
AcDbBlockTableRecord
  2
block 80
340
0
102
{BLKREFS
331
222
102
}
 70
     0
280
     1
281
     0
  0
BLOCK_RECORD
  5
237
330
1
100
AcDbSymbolTableRecord
100
AcDbBlockTableRecord
  2
block 81
340
0
102
{BLKREFS
331
238
102
}
 70
     0
280
     1
281
     0
  0
BLOCK_RECORD
  5
23D
330
1
100
AcDbSymbolTableRecord
100
AcDbBlockTableRecord
  2
block 82
340
0
102
{BLKREFS
331
23E
102
}
 70
     0
280
     1
281
     0
  0
BLOCK_RECORD
  5
245
330
1
100
AcDbSymbolTableRecord
100
AcDbBlockTableRecord
  2
block 83
340
0
102
{BLKREFS
331
246
102
}
 70
     0
280
     1
281
     0
  0
BLOCK_RECORD
  5
24D
330
1
100
AcDbSymbolTableRecord
100
AcDbBlockTableRecord
  2
block 84
340
0
102
{BLKREFS
331
24E
102
}
 70
     0
280
     1
281
     0
  0
BLOCK_RECORD
  5
255
330
1
100
AcDbSymbolTableRecord
100
AcDbBlockTableRecord
  2
block 85
340
0
102
{BLKREFS
331
256
102
}
 70
     0
280
     1
281
     0
  0
BLOCK_RECORD
  5
25D
330
1
100
AcDbSymbolTableRecord
100
AcDbBlockTableRecord
  2
block 86
340
0
102
{BLKREFS
331
25E
102
}
 70
     0
280
     1
281
     0
  0
BLOCK_RECORD
  5
262
330
1
100
AcDbSymbolTableRecord
100
AcDbBlockTableRecord
  2
block 87
340
0
102
{BLKREFS
331
263
102
}
 70
     0
280
     1
281
     0
  0
ENDTAB
  0
ENDSEC
  0
SECTION
  2
BLOCKS
  0
BLOCK
  5
20
330
1F
100
AcDbEntity
  8
0
100
AcDbBlockBegin
  2
*Model_Space
 70
     0
 10
0.0
 20
0.0
 30
0.0
  3
*Model_Space
  1

  0
ENDBLK
  5
21
330
1F
100
AcDbEntity
  8
0
100
AcDbBlockEnd
  0
BLOCK
  5
1C
330
1B
100
AcDbEntity
 67
     1
  8
0
100
AcDbBlockBegin
  2
*Paper_Space
 70
     0
 10
0.0
 20
0.0
 30
0.0
  3
*Paper_Space
  1

  0
ENDBLK
  5
1D
330
1B
100
AcDbEntity
 67
     1
  8
0
100
AcDbBlockEnd
  0
BLOCK
  5
24
330
23
100
AcDbEntity
  8
0
100
AcDbBlockBegin
  2
*Paper_Space0
 70
     0
 10
0.0
 20
0.0
 30
0.0
  3
*Paper_Space0
  1

  0
ENDBLK
  5
25
330
23
100
AcDbEntity
  8
0
100
AcDbBlockEnd
  0
BLOCK
  5
42
330
40
100
AcDbEntity
  8
0
100
AcDbBlockBegin
  2
block 2
 70
     0
 10
0.0
 20
0.0
 30
0.0
  3
block 2
  1

  0
SPLINE
  5
44
330
40
100
AcDbEntity
  8
0
 62
   250
370
    25
100
AcDbSpline
210
0.0
220
0.0
230
1.0
 70
     8
 71
     3
 72
    11
 73
     7
 74
     0
 42
0.0000000001
 43
0.0000000001
 12
1.0
 22
0.0
 32
0.0
 13
1.0
 23
0.0
 33
0.0
 40
0.0
 40
0.0
 40
0.0
 40
0.0
 40
1.0
 40
1.0
 40
1.0
 40
2.0
 40
2.0
 40
2.0
 40
2.0
 10
505.1595328557238
 20
571.1173157508289
 30
0.0
 10
505.1349443458732
 20
571.2066034386759
 30
0.0
 10
505.1082744557028
 20
571.2951855738746
 30
0.0
 10
505.0795937404833
 20
571.3832385445834
 30
0.0
 10
504.9543581451256
 20
571.7667416874469
 30
0.0
 10
504.7950090791416
 20
572.1288313073818
 30
0.0
 10
504.5962196200276
 20
572.4799495836177
 30
0.0
  0
ENDBLK
  5
43
330
40
100
AcDbEntity
  8
0
100
AcDbBlockEnd
  0
BLOCK
  5
47
330
45
100
AcDbEntity
  8
0
100
AcDbBlockBegin
  2
block 3
 70
     0
 10
0.0
 20
0.0
 30
0.0
  3
block 3
  1

  0
SPLINE
  5
49
330
45
100
AcDbEntity
  8
0
  6
AI-Linetype-1
 62
     6
370
    25
100
AcDbSpline
210
0.0
220
0.0
230
1.0
 70
     8
 71
     3
 72
     8
 73
     4
 74
     0
 42
0.0000000001
 43
0.0000000001
 12
1.0
 22
0.0
 32
0.0
 13
1.0
 23
0.0
 33
0.0
 40
0.0
 40
0.0
 40
0.0
 40
0.0
 40
1.0
 40
1.0
 40
1.0
 40
1.0
 10
91.81017412276825
 20
457.710278326409
 30
0.0
 10
85.90769704171275
 20
457.4015284868037
 30
0.0
 10
75.832791482833
 20
456.8801925958776
 30
0.0
 10
69.930279124136
 20
456.5714427562652
 30
0.0
  0
ENDBLK
  5
48
330
45
100
AcDbEntity
  8
0
100
AcDbBlockEnd
  0
BLOCK
  5
4D
330
4B
100
AcDbEntity
  8
0
100
AcDbBlockBegin
  2
block 4
 70
     0
 10
0.0
 20
0.0
 30
0.0
  3
block 4
  1

  0
SPLINE
  5
4F
330
4B
100
AcDbEntity
  8
0
 62
   250
370
    25
100
AcDbSpline
210
0.0
220
0.0
230
1.0
 70
     8
 71
     3
 72
    11
 73
     7
 74
     0
 42
0.0000000001
 43
0.0000000001
 12
1.0
 22
0.0
 32
0.0
 13
1.0
 23
0.0
 33
0.0
 40
0.0
 40
0.0
 40
0.0
 40
0.0
 40
1.0
 40
1.0
 40
1.0
 40
2.0
 40
2.0
 40
2.0
 40
2.0
 10
503.6916658451987
 20
573.6731096698976
 30
0.0
 10
503.6916658451987
 20
573.6731096698976
 30
0.0
 10
503.6927241741755
 20
573.6765668778844
 30
0.0
 10
503.6927241741755
 20
573.6765668778844
 30
0.0
 10
503.0400174177364
 20
574.3530154809932
 30
0.0
 10
502.3252925833658
 20
574.8189977286296
 30
0.0
 10
501.4428578841109
 20
575.1430580607419
 30
0.0
  0
ENDBLK
  5
4E
330
4B
100
AcDbEntity
  8
0
100
AcDbBlockEnd
  0
BLOCK
  5
52
330
50
100
AcDbEntity
  8
0
100
AcDbBlockBegin
  2
block 5
 70
     0
 10
0.0
 20
0.0
 30
0.0
  3
block 5
  1

  0
SPLINE
  5
54
330
50
100
AcDbEntity
  8
0
  6
AI-Linetype-2
 62
     6
370
    25
100
AcDbSpline
210
0.0
220
0.0
230
1.0
 70
     8
 71
     3
 72
     8
 73
     4
 74
     0
 42
0.0000000001
 43
0.0000000001
 12
1.0
 22
0.0
 32
0.0
 13
1.0
 23
0.0
 33
0.0
 40
0.0
 40
0.0
 40
0.0
 40
0.0
 40
1.0
 40
1.0
 40
1.0
 40
1.0
 10
-287.6179453500765
 20
530.5073632702321
 30
0.0
 10
-285.6667747743627
 20
530.578553532608
 30
0.0
 10
-283.8721310540268
 20
531.5945493484977
 30
0.0
 10
-282.8067818302832
 20
533.2306553883893
 30
0.0
  0
ENDBLK
  5
53
330
50
100
AcDbEntity
  8
0
100
AcDbBlockEnd
  0
BLOCK
  5
58
330
56
100
AcDbEntity
  8
0
100
AcDbBlockBegin
  2
block 6
 70
     0
 10
0.0
 20
0.0
 30
0.0
  3
block 6
  1

  0
SPLINE
  5
5A
330
56
100
AcDbEntity
  8
0
  6
AI-Linetype-3
 62
     6
370
    25
100
AcDbSpline
210
0.0
220
0.0
230
1.0
 70
     8
 71
     3
 72
    29
 73
    25
 74
     0
 42
0.0000000001
 43
0.0000000001
 12
1.0
 22
0.0
 32
0.0
 13
1.0
 23
0.0
 33
0.0
 40
0.0
 40
0.0
 40
0.0
 40
0.0
 40
1.0
 40
1.0
 40
1.0
 40
2.0
 40
2.0
 40
2.0
 40
3.0
 40
3.0
 40
3.0
 40
4.0
 40
4.0
 40
4.0
 40
5.0
 40
5.0
 40
5.0
 40
6.0
 40
6.0
 40
6.0
 40
7.0
 40
7.0
 40
7.0
 40
8.0
 40
8.0
 40
8.0
 40
8.0
 10
0.4947967429413284
 20
409.1420416931476
 30
0.0
 10
-0.8905911628009705
 20
409.1420416931476
 30
0.0
 10
-2.275979068546478
 20
409.1420416931476
 30
0.0
 10
-3.661366974298402
 20
409.1420416931476
 30
0.0
 10
-3.742858305364251
 20
409.1480036130406
 30
0.0
 10
-3.824914078551953
 20
409.1501555486193
 30
0.0
 10
-3.906264299085894
 20
409.1587632909514
 30
0.0
 10
-3.954594655605026
 20
409.1638785476636
 30
0.0
 10
-4.002713346327902
 20
409.1712868504866
 30
0.0
 10
-4.050443983094932
 20
409.1805295902011
 30
0.0
 10
-4.173739308669854
 20
409.2044125473996
 30
0.0
 10
-4.294600477600661
 20
409.2406426759715
 30
0.0
 10
-4.411016664836397
 20
409.2878088706234
 30
0.0
 10
-4.642649599806549
 20
409.3816826506926
 30
0.0
 10
-4.856608440894862
 20
409.5190184739949
 30
0.0
 10
-5.037900194291073
 20
409.690961654784
 30
0.0
 10
-5.223319430681234
 20
409.8667853751402
 30
0.0
 10
-5.374554641198353
 20
410.0788392240712
 30
0.0
 10
-5.480705037379828
 20
410.3113188222251
 30
0.0
 10
-5.586749600663174
 20
410.5435161993139
 30
0.0
 10
-5.64785046014535
 20
410.7961040479815
 30
0.0
 10
-5.659280413074528
 20
411.0512318861956
 30
0.0
 10
-5.949544773248966
 20
417.4429744523378
 30
0.0
 10
-6.220007469010372
 20
423.3994183846195
 30
0.0
 10
-6.510271829188338
 20
429.7911256731359
 30
0.0
  0
ENDBLK
  5
59
330
56
100
AcDbEntity
  8
0
100
AcDbBlockEnd
  0
BLOCK
  5
5E
330
5C
100
AcDbEntity
  8
0
100
AcDbBlockBegin
  2
block 7
 70
     0
 10
0.0
 20
0.0
 30
0.0
  3
block 7
  1

  0
SPLINE
  5
60
330
5C
100
AcDbEntity
  8
0
 62
   250
370
    25
100
AcDbSpline
210
0.0
220
0.0
230
1.0
 70
     8
 71
     3
 72
    17
 73
    13
 74
     0
 42
0.0000000001
 43
0.0000000001
 12
1.0
 22
0.0
 32
0.0
 13
1.0
 23
0.0
 33
0.0
 40
0.0
 40
0.0
 40
0.0
 40
0.0
 40
1.0
 40
1.0
 40
1.0
 40
2.0
 40
2.0
 40
2.0
 40
3.0
 40
3.0
 40
3.0
 40
4.0
 40
4.0
 40
4.0
 40
4.0
 10
-294.7530581881795
 20
570.2290249645769
 30
0.0
 10
-294.357666483163
 20
558.9070921465963
 30
0.0
 10
-294.0025618344619
 20
546.6507959543387
 30
0.0
 10
-293.6071701294451
 20
535.3288631363511
 30
0.0
 10
-293.5618736493223
 20
534.033785969793
 30
0.0
 10
-293.0155995101233
 20
532.8068651892144
 30
0.0
 10
-292.0834233490498
 20
531.9066858408197
 30
0.0
 10
-291.151141355075
 20
531.006365381889
 30
0.0
 10
-289.9056998174436
 20
530.5033768977588
 30
0.0
 10
-288.6097407100725
 20
530.5033768977588
 30
0.0
 10
-288.2800006791314
 20
530.5033768977588
 30
0.0
 10
-287.9484262113022
 20
530.5033768977588
 30
0.0
 10
-287.6179453500765
 20
530.5033768977588
 30
0.0
  0
ENDBLK
  5
5F
330
5C
100
AcDbEntity
  8
0
100
AcDbBlockEnd
  0
BLOCK
  5
63
330
61
100
AcDbEntity
  8
0
100
AcDbBlockBegin
  2
block 8
 70
     0
 10
0.0
 20
0.0
 30
0.0
  3
block 8
  1

  0
SPLINE
  5
65
330
61
100
AcDbEntity
  8
0
  6
AI-Linetype-4
 62
     6
370
    25
100
AcDbSpline
210
0.0
220
0.0
230
1.0
 70
     8
 71
     3
 72
     8
 73
     4
 74
     0
 42
0.0000000001
 43
0.0000000001
 12
1.0
 22
0.0
 32
0.0
 13
1.0
 23
0.0
 33
0.0
 40
0.0
 40
0.0
 40
0.0
 40
0.0
 40
1.0
 40
1.0
 40
1.0
 40
1.0
 10
-256.347216908291
 20
566.9981229924409
 30
0.0
 10
-245.9069426816536
 20
566.837221710631
 30
0.0
 10
-236.4189175889718
 20
562.8298237696179
 30
0.0
 10
-227.9697834956633
 20
557.2602969840532
 30
0.0
  0
ENDBLK
  5
64
330
61
100
AcDbEntity
  8
0
100
AcDbBlockEnd
  0
BLOCK
  5
69
330
67
100
AcDbEntity
  8
0
100
AcDbBlockBegin
  2
block 9
 70
     0
 10
0.0
 20
0.0
 30
0.0
  3
block 9
  1

  0
SPLINE
  5
6B
330
67
100
AcDbEntity
  8
0
  6
AI-Linetype-5
 62
     6
370
    25
100
AcDbSpline
210
0.0
220
0.0
230
1.0
 70
     8
 71
     3
 72
    11
 73
     7
 74
     0
 42
0.0000000001
 43
0.0000000001
 12
1.0
 22
0.0
 32
0.0
 13
1.0
 23
0.0
 33
0.0
 40
0.0
 40
0.0
 40
0.0
 40
0.0
 40
1.0
 40
1.0
 40
1.0
 40
2.0
 40
2.0
 40
2.0
 40
2.0
 10
65.15943793827991
 20
454.5140865067416
 30
0.0
 10
61.20273395516899
 20
450.5566769709776
 30
0.0
 10
57.24602997205809
 20
446.5993027128432
 30
0.0
 10
53.28936126658095
 20
442.6418931770826
 30
0.0
 10
53.28936126658095
 20
431.4752877749832
 30
0.0
 10
53.28936126658095
 20
420.3086470952471
 30
0.0
 10
53.28936126658095
 20
409.1420416931476
 30
0.0
  0
ENDBLK
  5
6A
330
67
100
AcDbEntity
  8
0
100
AcDbBlockEnd
  0
BLOCK
  5
6F
330
6D
100
AcDbEntity
  8
0
100
AcDbBlockBegin
  2
block 10
 70
     0
 10
0.0
 20
0.0
 30
0.0
  3
block 10
  1

  0
SPLINE
  5
71
330
6D
100
AcDbEntity
  8
0
  6
AI-Linetype-6
 62
     6
370
    25
100
AcDbSpline
210
0.0
220
0.0
230
1.0
 70
     8
 71
     3
 72
    11
 73
     7
 74
     0
 42
0.0000000001
 43
0.0000000001
 12
1.0
 22
0.0
 32
0.0
 13
1.0
 23
0.0
 33
0.0
 40
0.0
 40
0.0
 40
0.0
 40
0.0
 40
1.0
 40
1.0
 40
1.0
 40
2.0
 40
2.0
 40
2.0
 40
2.0
 10
-4.580314023188315
 20
454.5138748409428
 30
0.0
 10
-0.6236805953388639
 20
450.5565711380782
 30
0.0
 10
3.332917554877129
 20
446.599232157584
 30
0.0
 10
7.289550982723692
 20
442.6418931770826
 30
0.0
 10
7.289550982723692
 20
431.4752877749832
 30
0.0
 10
7.289550982723692
 20
420.3086470952471
 30
0.0
 10
7.289550982723692
 20
409.1420416931476
 30
0.0
  0
ENDBLK
  5
70
330
6D
100
AcDbEntity
  8
0
100
AcDbBlockEnd
  0
BLOCK
  5
75
330
73
100
AcDbEntity
  8
0
100
AcDbBlockBegin
  2
block 11
 70
     0
 10
0.0
 20
0.0
 30
0.0
  3
block 11
  1

  0
SPLINE
  5
77
330
73
100
AcDbEntity
  8
0
  6
AI-Linetype-7
 62
     6
370
    25
100
AcDbSpline
210
0.0
220
0.0
230
1.0
 70
    24
 71
     3
 72
    11
 73
     7
 74
     0
 42
0.0000000001
 43
0.0000000001
 12
1.0
 22
0.0
 32
0.0
 13
1.0
 23
0.0
 33
0.0
 40
0.0
 40
0.0
 40
0.0
 40
0.0
 40
1.0
 40
1.0
 40
1.0
 40
2.0
 40
2.0
 40
2.0
 40
2.0
 10
52.33777761087529
 20
442.6418931770826
 30
0.0
 10
45.60969809651805
 20
442.6418931770826
 30
0.0
 10
37.0175532778258
 20
442.6418931770826
 30
0.0
 10
30.28943848584025
 20
442.6418931770826
 30
0.0
 10
23.56132369384249
 20
442.6418931770826
 30
0.0
 10
14.54324458069598
 20
442.6418931770826
 30
0.0
 10
7.815129788704641
 20
442.6418931770826
 30
0.0
  0
ENDBLK
  5
76
330
73
100
AcDbEntity
  8
0
100
AcDbBlockEnd
  0
BLOCK
  5
7B
330
79
100
AcDbEntity
  8
0
100
AcDbBlockBegin
  2
block 12
 70
     0
 10
0.0
 20
0.0
 30
0.0
  3
block 12
  1

  0
SPLINE
  5
7D
330
79
100
AcDbEntity
  8
0
 62
   250
370
    25
100
AcDbSpline
210
0.0
220
0.0
230
1.0
 70
    24
 71
     3
 72
     8
 73
     4
 74
     0
 42
0.0000000001
 43
0.0000000001
 12
1.0
 22
0.0
 32
0.0
 13
1.0
 23
0.0
 33
0.0
 40
0.0
 40
0.0
 40
0.0
 40
0.0
 40
1.0
 40
1.0
 40
1.0
 40
1.0
 10
-288.6091762679507
 20
575.5353806117257
 30
0.0
 10
-288.578943336903
 20
575.5355217222547
 30
0.0
 10
-288.5487104058546
 20
575.5356628327837
 30
0.0
 10
-288.5184774748031
 20
575.5358039433198
 30
0.0
  0
ENDBLK
  5
7C
330
79
100
AcDbEntity
  8
0
100
AcDbBlockEnd
  0
BLOCK
  5
80
330
7E
100
AcDbEntity
  8
0
100
AcDbBlockBegin
  2
block 13
 70
     0
 10
0.0
 20
0.0
 30
0.0
  3
block 13
  1

  0
SPLINE
  5
82
330
7E
100
AcDbEntity
  8
0
  6
AI-Linetype-8
 62
     6
370
    25
100
AcDbSpline
210
0.0
220
0.0
230
1.0
 70
     8
 71
     3
 72
     8
 73
     4
 74
     0
 42
0.0000000001
 43
0.0000000001
 12
1.0
 22
0.0
 32
0.0
 13
1.0
 23
0.0
 33
0.0
 40
0.0
 40
0.0
 40
0.0
 40
0.0
 40
1.0
 40
1.0
 40
1.0
 40
1.0
 10
-227.9697834956633
 20
557.2602969840532
 30
0.0
 10
-219.3179794036631
 20
551.1977300067313
 30
0.0
 10
-205.5451330680303
 20
537.9866799685902
 30
0.0
 10
-198.0379470399984
 20
530.7285893036147
 30
0.0
  0
ENDBLK
  5
81
330
7E
100
AcDbEntity
  8
0
100
AcDbBlockEnd
  0
BLOCK
  5
86
330
84
100
AcDbEntity
  8
0
100
AcDbBlockBegin
  2
block 14
 70
     0
 10
0.0
 20
0.0
 30
0.0
  3
block 14
  1

  0
SPLINE
  5
88
330
84
100
AcDbEntity
  8
0
  6
AI-Linetype-9
 62
     6
370
    25
100
AcDbSpline
210
0.0
220
0.0
230
1.0
 70
     8
 71
     3
 72
     8
 73
     4
 74
     0
 42
0.0000000001
 43
0.0000000001
 12
1.0
 22
0.0
 32
0.0
 13
1.0
 23
0.0
 33
0.0
 40
0.0
 40
0.0
 40
0.0
 40
0.0
 40
1.0
 40
1.0
 40
1.0
 40
1.0
 10
-283.5909709505525
 20
572.8816736236632
 30
0.0
 10
-284.5860824079934
 20
574.756997289513
 30
0.0
 10
-286.3581458160181
 20
575.4016431069285
 30
0.0
 10
-288.4789665264066
 20
575.4979157660151
 30
0.0
  0
ENDBLK
  5
87
330
84
100
AcDbEntity
  8
0
100
AcDbBlockEnd
  0
BLOCK
  5
8C
330
8A
100
AcDbEntity
  8
0
100
AcDbBlockBegin
  2
block 15
 70
     0
 10
0.0
 20
0.0
 30
0.0
  3
block 15
  1

  0
SPLINE
  5
8E
330
8A
100
AcDbEntity
  8
0
 62
   250
370
    25
100
AcDbSpline
210
0.0
220
0.0
230
1.0
 70
     8
 71
     3
 72
    14
 73
    10
 74
     0
 42
0.0000000001
 43
0.0000000001
 12
1.0
 22
0.0
 32
0.0
 13
1.0
 23
0.0
 33
0.0
 40
0.0
 40
0.0
 40
0.0
 40
0.0
 40
1.0
 40
1.0
 40
1.0
 40
2.0
 40
2.0
 40
2.0
 40
3.0
 40
3.0
 40
3.0
 40
3.0
 10
499.1000304873164
 20
575.5813359312206
 30
0.0
 10
347.3042231192309
 20
576.2853010876804
 30
0.0
 10
182.0867980697514
 20
576.5847137903131
 30
0.0
 10
30.28943848584025
 20
576.4462490827716
 30
0.0
 10
-71.50745090101947
 20
576.3523400250692
 30
0.0
 10
-173.3032819588966
 20
576.0696250782414
 30
0.0
 10
-275.0991482944107
 20
575.5980336870357
 30
0.0
 10
-279.115753697499
 20
575.5794423747147
 30
0.0
 10
-284.4134663246832
 20
575.5253617640966
 30
0.0
 10
-288.4300717277711
 20
575.5057474004292
 30
0.0
  0
ENDBLK
  5
8D
330
8A
100
AcDbEntity
  8
0
100
AcDbBlockEnd
  0
BLOCK
  5
91
330
8F
100
AcDbEntity
  8
0
100
AcDbBlockBegin
  2
block 16
 70
     0
 10
0.0
 20
0.0
 30
0.0
  3
block 16
  1

  0
SPLINE
  5
93
330
8F
100
AcDbEntity
  8
0
 62
   250
370
    25
100
AcDbSpline
210
0.0
220
0.0
230
1.0
 70
     8
 71
     3
 72
     8
 73
     4
 74
     0
 42
0.0000000001
 43
0.0000000001
 12
1.0
 22
0.0
 32
0.0
 13
1.0
 23
0.0
 33
0.0
 40
0.0
 40
0.0
 40
0.0
 40
0.0
 40
1.0
 40
1.0
 40
1.0
 40
1.0
 10
499.3857838556418
 20
575.5150606954061
 30
0.0
 10
499.3920985518591
 20
575.5215165021524
 30
0.0
 10
499.39936574415
 20
575.526878702293
 30
0.0
 10
499.404798499553
 20
575.5343222827493
 30
0.0
  0
ENDBLK
  5
92
330
8F
100
AcDbEntity
  8
0
100
AcDbBlockEnd
  0
BLOCK
  5
96
330
94
100
AcDbEntity
  8
0
100
AcDbBlockBegin
  2
block 17
 70
     0
 10
0.0
 20
0.0
 30
0.0
  3
block 17
  1

  0
SPLINE
  5
98
330
94
100
AcDbEntity
  8
0
  6
AI-Linetype-10
 62
     6
370
    25
100
AcDbSpline
210
0.0
220
0.0
230
1.0
 70
     8
 71
     3
 72
    41
 73
    37
 74
     0
 42
0.0000000001
 43
0.0000000001
 12
1.0
 22
0.0
 32
0.0
 13
1.0
 23
0.0
 33
0.0
 40
0.0
 40
0.0
 40
0.0
 40
0.0
 40
1.0
 40
1.0
 40
1.0
 40
2.0
 40
2.0
 40
2.0
 40
3.0
 40
3.0
 40
3.0
 40
4.0
 40
4.0
 40
4.0
 40
5.0
 40
5.0
 40
5.0
 40
6.0
 40
6.0
 40
6.0
 40
7.0
 40
7.0
 40
7.0
 40
8.0
 40
8.0
 40
8.0
 40
9.0
 40
9.0
 40
9.0
 40
10.0
 40
10.0
 40
10.0
 40
11.0
 40
11.0
 40
11.0
 40
12.0
 40
12.0
 40
12.0
 40
12.0
 10
157.6556970162738
 20
471.5036179286212
 30
0.0
 10
165.5160474232276
 20
474.0984641868624
 30
0.0
 10
173.2248803986049
 20
477.0250613010866
 30
0.0
 10
180.8268574251541
 20
480.3003778125469
 30
0.0
 10
180.8369821056822
 20
480.3047522389738
 30
0.0
 10
180.8470715085772
 20
480.3090913877679
 30
0.0
 10
180.8571609114722
 20
480.3134305365651
 30
0.0
 10
180.8891224465105
 20
480.327188813239
 30
0.0
 10
180.9210487039209
 20
480.3409823675422
 30
0.0
 10
180.9529749613312
 20
480.3547406442196
 30
0.0
 10
180.9630643642262
 20
480.3590797930133
 30
0.0
 10
180.9731537671148
 20
480.3634542194476
 30
0.0
 10
180.9832431700098
 20
480.3677933682413
 30
0.0
 10
181.0151694274214
 20
480.3815869225483
 30
0.0
 10
181.0470956848317
 20
480.3953804768518
 30
0.0
 10
181.0790219422356
 20
480.4091740311585
 30
0.0
 10
181.0891113451306
 20
480.4135131799596
 30
0.0
 10
181.0992007480256
 20
480.417887606383
 30
0.0
 10
181.1092901509206
 20
480.4222267551838
 30
0.0
 10
181.1412164083245
 20
480.4360203094908
 30
0.0
 10
181.1731426657361
 20
480.4498138637942
 30
0.0
 10
181.2050336455121
 20
480.4636426957341
 30
0.0
 10
181.215123048407
 20
480.4679818445317
 30
0.0
 10
181.225212451302
 20
480.4723562709621
 30
0.0
 10
181.2353018541906
 20
480.4767306973928
 30
0.0
 10
181.2671928339742
 20
480.490524251696
 30
0.0
 10
181.2991190913781
 20
480.5043530836326
 30
0.0
 10
181.3310453487885
 20
480.5181466379393
 30
0.0
 10
189.0114092747426
 20
483.8436279428041
 30
0.0
 10
196.2127875939793
 20
488.0847345334031
 30
0.0
 10
203.8534148184366
 20
491.5005322431464
 30
0.0
 10
210.4782879749961
 20
494.4622297439914
 30
0.0
 10
241.6903861719701
 20
515.4944528349711
 30
0.0
 10
248.3614207536604
 20
521.0415220098213
 30
0.0
 10
255.0324553353518
 20
526.5885911846718
 30
0.0
 10
261.1602536688371
 20
533.2179202714392
 30
0.0
 10
263.4819270315514
 20
535.357473296301
 30
0.0
  0
ENDBLK
  5
97
330
94
100
AcDbEntity
  8
0
100
AcDbBlockEnd
  0
BLOCK
  5
9C
330
9A
100
AcDbEntity
  8
0
100
AcDbBlockBegin
  2
block 18
 70
     0
 10
0.0
 20
0.0
 30
0.0
  3
block 18
  1

  0
SPLINE
  5
9E
330
9A
100
AcDbEntity
  8
0
  6
AI-Linetype-11
 62
     6
370
    25
100
AcDbSpline
210
0.0
220
0.0
230
1.0
 70
     8
 71
     3
 72
    20
 73
    16
 74
     0
 42
0.0000000001
 43
0.0000000001
 12
1.0
 22
0.0
 32
0.0
 13
1.0
 23
0.0
 33
0.0
 40
0.0
 40
0.0
 40
0.0
 40
0.0
 40
1.0
 40
1.0
 40
1.0
 40
2.0
 40
2.0
 40
2.0
 40
3.0
 40
3.0
 40
3.0
 40
4.0
 40
4.0
 40
4.0
 40
5.0
 40
5.0
 40
5.0
 40
5.0
 10
499.1062086181093
 20
575.5001029792305
 30
0.0
 10
496.9647504927097
 20
575.4225980206373
 30
0.0
 10
495.0277615252564
 20
574.2087299640842
 30
0.0
 10
494.024253991272
 20
572.3153794280221
 30
0.0
 10
492.2907111304215
 20
569.0481414944148
 30
0.0
 10
488.8955917790178
 20
567.0049668531482
 30
0.0
 10
485.1969083999768
 20
567.003238249153
 30
0.0
 10
333.563801472965
 20
567.003238249153
 30
0.0
 10
181.9243798497345
 20
567.003238249153
 30
0.0
 10
30.28943848584025
 20
567.003238249153
 30
0.0
 10
-71.34662017447096
 20
567.003238249153
 30
0.0
 10
-172.9827141124063
 20
567.003238249153
 30
0.0
 10
-274.6188080503449
 20
567.003238249153
 30
0.0
 10
-278.3183380925602
 20
567.0048257426192
 30
0.0
 10
-280.9350565011003
 20
567.9837976832005
 30
0.0
 10
-282.669304914601
 20
571.2516706141934
 30
0.0
  0
ENDBLK
  5
9D
330
9A
100
AcDbEntity
  8
0
100
AcDbBlockEnd
  0
BLOCK
  5
A2
330
A0
100
AcDbEntity
  8
0
100
AcDbBlockBegin
  2
block 19
 70
     0
 10
0.0
 20
0.0
 30
0.0
  3
block 19
  1

  0
SPLINE
  5
A4
330
A0
100
AcDbEntity
  8
0
  6
AI-Linetype-12
 62
     6
370
    25
100
AcDbSpline
210
0.0
220
0.0
230
1.0
 70
    24
 71
     3
 72
    17
 73
    13
 74
     0
 42
0.0000000001
 43
0.0000000001
 12
1.0
 22
0.0
 32
0.0
 13
1.0
 23
0.0
 33
0.0
 40
0.0
 40
0.0
 40
0.0
 40
0.0
 40
1.0
 40
1.0
 40
1.0
 40
2.0
 40
2.0
 40
2.0
 40
3.0
 40
3.0
 40
3.0
 40
4.0
 40
4.0
 40
4.0
 40
4.0
 10
-278.5625049510749
 20
535.5033463066762
 30
0.0
 10
-278.5473708467324
 20
535.5033463066762
 30
0.0
 10
-269.4610770689089
 20
535.5033463066762
 30
0.0
 10
-269.4459429645664
 20
535.5033463066762
 30
0.0
 10
-269.3849832156161
 20
535.5033463066762
 30
0.0
 10
-269.3240234666623
 20
535.5033463066762
 30
0.0
 10
-269.2630284400751
 20
535.5033463066762
 30
0.0
 10
-267.6490767533869
 20
535.5033463066762
 30
0.0
 10
-266.0351250666983
 20
535.5033463066762
 30
0.0
 10
-264.421138102373
 20
535.5033463066762
 30
0.0
 10
-264.3487484004936
 20
535.5033463066762
 30
0.0
 10
-256.2071647072884
 20
535.5033463066762
 30
0.0
 10
-256.1347397277688
 20
535.5033463066762
 30
0.0
  0
ENDBLK
  5
A3
330
A0
100
AcDbEntity
  8
0
100
AcDbBlockEnd
  0
BLOCK
  5
A8
330
A6
100
AcDbEntity
  8
0
100
AcDbBlockBegin
  2
block 20
 70
     0
 10
0.0
 20
0.0
 30
0.0
  3
block 20
  1

  0
SPLINE
  5
AA
330
A6
100
AcDbEntity
  8
0
  6
AI-Linetype-13
 62
     6
370
    25
100
AcDbSpline
210
0.0
220
0.0
230
1.0
 70
     8
 71
     3
 72
     8
 73
     4
 74
     0
 42
0.0000000001
 43
0.0000000001
 12
1.0
 22
0.0
 32
0.0
 13
1.0
 23
0.0
 33
0.0
 40
0.0
 40
0.0
 40
0.0
 40
0.0
 40
1.0
 40
1.0
 40
1.0
 40
1.0
 10
-282.8080165474192
 20
533.2322781594851
 30
0.0
 10
-281.8852242365931
 20
534.6488162147228
 30
0.0
 10
-280.3091607272037
 20
535.5030993632479
 30
0.0
 10
-278.6185860227347
 20
535.5033463066762
 30
0.0
  0
ENDBLK
  5
A9
330
A6
100
AcDbEntity
  8
0
100
AcDbBlockEnd
  0
BLOCK
  5
AE
330
AC
100
AcDbEntity
  8
0
100
AcDbBlockBegin
  2
block 21
 70
     0
 10
0.0
 20
0.0
 30
0.0
  3
block 21
  1

  0
SPLINE
  5
B0
330
AC
100
AcDbEntity
  8
0
 62
   250
370
    25
100
AcDbSpline
210
0.0
220
0.0
230
1.0
 70
     8
 71
     3
 72
    14
 73
    10
 74
     0
 42
0.0000000001
 43
0.0000000001
 12
1.0
 22
0.0
 32
0.0
 13
1.0
 23
0.0
 33
0.0
 40
0.0
 40
0.0
 40
0.0
 40
0.0
 40
1.0
 40
1.0
 40
1.0
 40
2.0
 40
2.0
 40
2.0
 40
3.0
 40
3.0
 40
3.0
 40
3.0
 10
-294.7530581881795
 20
570.2290249645769
 30
0.0
 10
-294.7422279550033
 20
570.3186301511257
 30
0.0
 10
-294.727940513844
 20
570.4077414508071
 30
0.0
 10
-294.7169338925044
 20
570.4973466373488
 30
0.0
 10
-294.5100305779146
 20
571.7761255376975
 30
0.0
 10
-294.0211884244183
 20
572.7574787184635
 30
0.0
 10
-293.1233726773963
 20
573.6917715374883
 30
0.0
 10
-291.9991450850177
 20
574.8616483863221
 30
0.0
 10
-290.4490106355136
 20
575.5263495378065
 30
0.0
 10
-288.8265217617608
 20
575.5343222827493
 30
0.0
  0
ENDBLK
  5
AF
330
AC
100
AcDbEntity
  8
0
100
AcDbBlockEnd
  0
BLOCK
  5
B3
330
B1
100
AcDbEntity
  8
0
100
AcDbBlockBegin
  2
block 22
 70
     0
 10
0.0
 20
0.0
 30
0.0
  3
block 22
  1

  0
SPLINE
  5
B5
330
B1
100
AcDbEntity
  8
0
 62
   250
370
    25
100
AcDbSpline
210
0.0
220
0.0
230
1.0
 70
     8
 71
     3
 72
     8
 73
     4
 74
     0
 42
0.0000000001
 43
0.0000000001
 12
1.0
 22
0.0
 32
0.0
 13
1.0
 23
0.0
 33
0.0
 40
0.0
 40
0.0
 40
0.0
 40
0.0
 40
1.0
 40
1.0
 40
1.0
 40
1.0
 10
264.982108353441
 20
451.5641708774311
 30
0.0
 10
268.4692317704014
 20
452.3053539361693
 30
0.0
 10
271.9563551873617
 20
453.0465722725409
 30
0.0
 10
275.4434786043163
 20
453.7877906089124
 30
0.0
  0
ENDBLK
  5
B4
330
B1
100
AcDbEntity
  8
0
100
AcDbBlockEnd
  0
BLOCK
  5
B8
330
B6
100
AcDbEntity
  8
0
100
AcDbBlockBegin
  2
block 23
 70
     0
 10
0.0
 20
0.0
 30
0.0
  3
block 23
  1

  0
SPLINE
  5
BA
330
B6
100
AcDbEntity
  8
0
  6
AI-Linetype-14
 62
     6
370
    25
100
AcDbSpline
210
0.0
220
0.0
230
1.0
 70
     8
 71
     3
 72
     8
 73
     4
 74
     0
 42
0.0000000001
 43
0.0000000001
 12
1.0
 22
0.0
 32
0.0
 13
1.0
 23
0.0
 33
0.0
 40
0.0
 40
0.0
 40
0.0
 40
0.0
 40
1.0
 40
1.0
 40
1.0
 40
1.0
 10
299.173683655362
 20
563.0463931555157
 30
0.0
 10
304.2935970147619
 20
565.3103352209412
 30
0.0
 10
309.3953776710578
 20
566.613032356118
 30
0.0
 10
315.000570143072
 20
566.9304957709477
 30
0.0
  0
ENDBLK
  5
B9
330
B6
100
AcDbEntity
  8
0
100
AcDbBlockEnd
  0
BLOCK
  5
BE
330
BC
100
AcDbEntity
  8
0
100
AcDbBlockBegin
  2
block 24
 70
     0
 10
0.0
 20
0.0
 30
0.0
  3
block 24
  1

  0
SPLINE
  5
C0
330
BC
100
AcDbEntity
  8
0
  6
AI-Linetype-15
 62
     6
370
    25
100
AcDbSpline
210
0.0
220
0.0
230
1.0
 70
     8
 71
     3
 72
     8
 73
     4
 74
     0
 42
0.0000000001
 43
0.0000000001
 12
1.0
 22
0.0
 32
0.0
 13
1.0
 23
0.0
 33
0.0
 40
0.0
 40
0.0
 40
0.0
 40
0.0
 40
1.0
 40
1.0
 40
1.0
 40
1.0
 10
-9.147850212963966
 20
456.5545800479359
 30
0.0
 10
-9.170710118821681
 20
456.5558500427109
 30
0.0
 10
-9.193570024683245
 20
456.5570142045833
 30
0.0
 10
-9.216465208168323
 20
456.5581430888151
 30
0.0
  0
ENDBLK
  5
BF
330
BC
100
AcDbEntity
  8
0
100
AcDbBlockEnd
  0
BLOCK
  5
C4
330
C2
100
AcDbEntity
  8
0
100
AcDbBlockBegin
  2
block 25
 70
     0
 10
0.0
 20
0.0
 30
0.0
  3
block 25
  1

  0
SPLINE
  5
C6
330
C2
100
AcDbEntity
  8
0
 62
   250
370
    25
100
AcDbSpline
210
0.0
220
0.0
230
1.0
 70
     8
 71
     3
 72
    14
 73
    10
 74
     0
 42
0.0000000001
 43
0.0000000001
 12
1.0
 22
0.0
 32
0.0
 13
1.0
 23
0.0
 33
0.0
 40
0.0
 40
0.0
 40
0.0
 40
0.0
 40
1.0
 40
1.0
 40
1.0
 40
2.0
 40
2.0
 40
2.0
 40
3.0
 40
3.0
 40
3.0
 40
3.0
 10
-288.2074698667201
 20
575.5067704517721
 30
0.0
 10
-288.4005443493708
 20
575.5246209338148
 30
0.0
 10
-288.5933366109608
 20
575.533087565618
 30
0.0
 10
-288.7872224791602
 20
575.5321703471637
 30
0.0
 10
-288.7784383486656
 20
575.5238095482672
 30
0.0
 10
-288.7684900563025
 20
575.5169304099267
 30
0.0
 10
-288.759529537648
 20
575.5088518320916
 30
0.0
 10
-288.7401973950414
 20
575.5131204256156
 30
0.0
 10
-288.7212180287592
 20
575.5113212663615
 30
0.0
 10
-288.7019564414198
 20
575.511144878199
 30
0.0
  0
ENDBLK
  5
C5
330
C2
100
AcDbEntity
  8
0
100
AcDbBlockEnd
  0
BLOCK
  5
C9
330
C7
100
AcDbEntity
  8
0
100
AcDbBlockBegin
  2
block 26
 70
     0
 10
0.0
 20
0.0
 30
0.0
  3
block 26
  1

  0
SPLINE
  5
CB
330
C7
100
AcDbEntity
  8
0
 62
   250
370
    25
100
AcDbSpline
210
0.0
220
0.0
230
1.0
 70
     8
 71
     3
 72
     8
 73
     4
 74
     0
 42
0.0000000001
 43
0.0000000001
 12
1.0
 22
0.0
 32
0.0
 13
1.0
 23
0.0
 33
0.0
 40
0.0
 40
0.0
 40
0.0
 40
0.0
 40
1.0
 40
1.0
 40
1.0
 40
1.0
 10
-117.5794392209599
 20
429.3279382849533
 30
0.0
 10
-121.3809921763592
 20
429.2226345519546
 30
0.0
 10
-151.2779390534845
 20
428.3804163537449
 30
0.0
 10
-155.1204493402101
 20
427.1629852563127
 30
0.0
  0
ENDBLK
  5
CA
330
C7
100
AcDbEntity
  8
0
100
AcDbBlockEnd
  0
BLOCK
  5
CE
330
CC
100
AcDbEntity
  8
0
100
AcDbBlockBegin
  2
block 27
 70
     0
 10
0.0
 20
0.0
 30
0.0
  3
block 27
  1

  0
SPLINE
  5
D0
330
CC
100
AcDbEntity
  8
0
 62
   250
370
    25
100
AcDbSpline
210
0.0
220
0.0
230
1.0
 70
     8
 71
     3
 72
    11
 73
     7
 74
     0
 42
0.0000000001
 43
0.0000000001
 12
1.0
 22
0.0
 32
0.0
 13
1.0
 23
0.0
 33
0.0
 40
0.0
 40
0.0
 40
0.0
 40
0.0
 40
1.0
 40
1.0
 40
1.0
 40
2.0
 40
2.0
 40
2.0
 40
2.0
 10
293.9659021274366
 20
529.7251454940646
 30
0.0
 10
283.5867640379051
 20
500.2358669380536
 30
0.0
 10
270.4099248892679
 20
471.4009247404211
 30
0.0
 10
254.7669759773907
 20
444.333561488163
 30
0.0
 10
254.9944461517197
 20
444.3554688979488
 30
0.0
 10
255.2219163260563
 20
444.3772351971949
 30
0.0
 10
255.4494217780191
 20
444.3988251082789
 30
0.0
  0
ENDBLK
  5
CF
330
CC
100
AcDbEntity
  8
0
100
AcDbBlockEnd
  0
BLOCK
  5
D3
330
D1
100
AcDbEntity
  8
0
100
AcDbBlockBegin
  2
block 28
 70
     0
 10
0.0
 20
0.0
 30
0.0
  3
block 28
  1

  0
SPLINE
  5
D5
330
D1
100
AcDbEntity
  8
0
 62
   250
370
    25
100
AcDbSpline
210
0.0
220
0.0
230
1.0
 70
     8
 71
     3
 72
     8
 73
     4
 74
     0
 42
0.0000000001
 43
0.0000000001
 12
1.0
 22
0.0
 32
0.0
 13
1.0
 23
0.0
 33
0.0
 40
0.0
 40
0.0
 40
0.0
 40
0.0
 40
1.0
 40
1.0
 40
1.0
 40
1.0
 10
499.3462023519786
 20
575.5196467876317
 30
0.0
 10
499.2178623249588
 20
575.5198937310602
 30
0.0
 10
499.0898397966333
 20
575.5160131914866
 30
0.0
 10
498.9617114354084
 20
575.5080404465401
 30
0.0
  0
ENDBLK
  5
D4
330
D1
100
AcDbEntity
  8
0
100
AcDbBlockEnd
  0
BLOCK
  5
D8
330
D6
100
AcDbEntity
  8
0
100
AcDbBlockBegin
  2
block 29
 70
     0
 10
0.0
 20
0.0
 30
0.0
  3
block 29
  1

  0
SPLINE
  5
DA
330
D6
100
AcDbEntity
  8
0
 62
   250
370
    25
100
AcDbSpline
210
0.0
220
0.0
230
1.0
 70
     8
 71
     3
 72
     8
 73
     4
 74
     0
 42
0.0000000001
 43
0.0000000001
 12
1.0
 22
0.0
 32
0.0
 13
1.0
 23
0.0
 33
0.0
 40
0.0
 40
0.0
 40
0.0
 40
0.0
 40
1.0
 40
1.0
 40
1.0
 40
1.0
 10
505.3519723409873
 20
570.0491090388522
 30
0.0
 10
505.3473509711324
 20
570.1016374336408
 30
0.0
 10
505.3420593262542
 20
570.154059995527
 30
0.0
 10
505.3360621287318
 20
570.206447279783
 30
0.0
  0
ENDBLK
  5
D9
330
D6
100
AcDbEntity
  8
0
100
AcDbBlockEnd
  0
BLOCK
  5
DD
330
DB
100
AcDbEntity
  8
0
100
AcDbBlockBegin
  2
block 30
 70
     0
 10
0.0
 20
0.0
 30
0.0
  3
block 30
  1

  0
SPLINE
  5
DF
330
DB
100
AcDbEntity
  8
0
 62
   250
370
    25
100
AcDbSpline
210
0.0
220
0.0
230
1.0
 70
     8
 71
     3
 72
     8
 73
     4
 74
     0
 42
0.0000000001
 43
0.0000000001
 12
1.0
 22
0.0
 32
0.0
 13
1.0
 23
0.0
 33
0.0
 40
0.0
 40
0.0
 40
0.0
 40
0.0
 40
1.0
 40
1.0
 40
1.0
 40
1.0
 10
505.2362617063989
 20
570.8065903638073
 30
0.0
 10
505.2153420703304
 20
570.9022985807711
 30
0.0
 10
505.192058832884
 20
570.9973718003455
 30
0.0
 10
505.1664472716903
 20
571.0919864106933
 30
0.0
  0
ENDBLK
  5
DE
330
DB
100
AcDbEntity
  8
0
100
AcDbBlockEnd
  0
BLOCK
  5
E2
330
E0
100
AcDbEntity
  8
0
100
AcDbBlockBegin
  2
block 31
 70
     0
 10
0.0
 20
0.0
 30
0.0
  3
block 31
  1

  0
SPLINE
  5
E4
330
E0
100
AcDbEntity
  8
0
 62
   250
370
    25
100
AcDbSpline
210
0.0
220
0.0
230
1.0
 70
     8
 71
     3
 72
     8
 73
     4
 74
     0
 42
0.0000000001
 43
0.0000000001
 12
1.0
 22
0.0
 32
0.0
 13
1.0
 23
0.0
 33
0.0
 40
0.0
 40
0.0
 40
0.0
 40
0.0
 40
1.0
 40
1.0
 40
1.0
 40
1.0
 10
501.7267369928072
 20
575.0348968395052
 30
0.0
 10
501.2596611385612
 20
575.2338979644113
 30
0.0
 10
500.7862705880979
 20
575.368764353444
 30
0.0
 10
500.2844109882101
 20
575.4457401475544
 30
0.0
  0
ENDBLK
  5
E3
330
E0
100
AcDbEntity
  8
0
100
AcDbBlockEnd
  0
BLOCK
  5
E7
330
E5
100
AcDbEntity
  8
0
100
AcDbBlockBegin
  2
block 32
 70
     0
 10
0.0
 20
0.0
 30
0.0
  3
block 32
  1

  0
SPLINE
  5
E9
330
E5
100
AcDbEntity
  8
0
  6
AI-Linetype-16
 62
     6
370
    25
100
AcDbSpline
210
0.0
220
0.0
230
1.0
 70
     8
 71
     3
 72
     8
 73
     4
 74
     0
 42
0.0000000001
 43
0.0000000001
 12
1.0
 22
0.0
 32
0.0
 13
1.0
 23
0.0
 33
0.0
 40
0.0
 40
0.0
 40
0.0
 40
0.0
 40
1.0
 40
1.0
 40
1.0
 40
1.0
 10
69.7992579970494
 20
456.5583194769773
 30
0.0
 10
69.77565726090671
 20
456.5571905927419
 30
0.0
 10
69.7520918023978
 20
456.5559558756033
 30
0.0
 10
69.72849106626153
 20
456.5546858808353
 30
0.0
  0
ENDBLK
  5
E8
330
E5
100
AcDbEntity
  8
0
100
AcDbBlockEnd
  0
BLOCK
  5
ED
330
EB
100
AcDbEntity
  8
0
100
AcDbBlockBegin
  2
block 33
 70
     0
 10
0.0
 20
0.0
 30
0.0
  3
block 33
  1

  0
SPLINE
  5
EF
330
EB
100
AcDbEntity
  8
0
  6
AI-Linetype-17
 62
     6
370
    25
100
AcDbSpline
210
0.0
220
0.0
230
1.0
 70
     8
 71
     3
 72
     8
 73
     4
 74
     0
 42
0.0000000001
 43
0.0000000001
 12
1.0
 22
0.0
 32
0.0
 13
1.0
 23
0.0
 33
0.0
 40
0.0
 40
0.0
 40
0.0
 40
0.0
 40
1.0
 40
1.0
 40
1.0
 40
1.0
 10
153.7517403010776
 20
469.9949855971381
 30
0.0
 10
136.479705598169
 20
465.0026008792098
 30
0.0
 10
112.5599818980282
 20
459.94677135585
 30
0.0
 10
94.67637415816733
 20
458.1366407548496
 30
0.0
  0
ENDBLK
  5
EE
330
EB
100
AcDbEntity
  8
0
100
AcDbBlockEnd
  0
BLOCK
  5
F3
330
F1
100
AcDbEntity
  8
0
100
AcDbBlockBegin
  2
block 34
 70
     0
 10
0.0
 20
0.0
 30
0.0
  3
block 34
  1

  0
SPLINE
  5
F5
330
F1
100
AcDbEntity
  8
0
 62
   250
370
    25
100
AcDbSpline
210
0.0
220
0.0
230
1.0
 70
     8
 71
     3
 72
    17
 73
    13
 74
     0
 42
0.0000000001
 43
0.0000000001
 12
1.0
 22
0.0
 32
0.0
 13
1.0
 23
0.0
 33
0.0
 40
0.0
 40
0.0
 40
0.0
 40
0.0
 40
1.0
 40
1.0
 40
1.0
 40
2.0
 40
2.0
 40
2.0
 40
3.0
 40
3.0
 40
3.0
 40
4.0
 40
4.0
 40
4.0
 40
4.0
 10
213.3911460953028
 20
427.5358345541651
 30
0.0
 10
212.596411590435
 20
427.6312605500638
 30
0.0
 10
211.8003365355336
 20
427.7110232771352
 30
0.0
 10
211.0032384292834
 20
427.7833424237534
 30
0.0
 10
209.4286565804633
 20
427.9262521129917
 30
0.0
 10
207.8525930710733
 20
428.0440794055295
 30
0.0
 10
206.2748362353248
 20
428.1451498226268
 30
0.0
 10
203.119640062519
 20
428.3472906568355
 30
0.0
 10
199.9632091725809
 20
428.5196924468377
 30
0.0
 10
196.8047674575855
 20
428.6623904702842
 30
0.0
 10
190.4878487499666
 20
428.9477865171768
 30
0.0
 10
184.1691308830873
 20
429.1609692503544
 30
0.0
 10
177.8484374687908
 20
429.3366165825482
 30
0.0
  0
ENDBLK
  5
F4
330
F1
100
AcDbEntity
  8
0
100
AcDbBlockEnd
  0
BLOCK
  5
F8
330
F6
100
AcDbEntity
  8
0
100
AcDbBlockBegin
  2
block 35
 70
     0
 10
0.0
 20
0.0
 30
0.0
  3
block 35
  1

  0
POLYLINE
  5
FA
330
F6
100
AcDbEntity
  8
0
 62
   250
370
    25
100
AcDb2dPolyline
 66
     1
 10
0.0
 20
0.0
 30
0.0
  0
VERTEX
  5
FB
330
FA
100
AcDbEntity
  8
0
 62
   250
370
    25
100
AcDbVertex
100
AcDb2dVertex
 10
275.4434786043163
 20
453.7877906089124
 30
0.0
  0
VERTEX
  5
FC
330
FA
100
AcDbEntity
  8
0
 62
   250
370
    25
100
AcDbVertex
100
AcDb2dVertex
 10
423.3259734772603
 20
485.2211842141349
 30
0.0
  0
SEQEND
  5
FD
330
FA
100
AcDbEntity
  8
0
 62
   250
370
    25
  0
ENDBLK
  5
F9
330
F6
100
AcDbEntity
  8
0
100
AcDbBlockEnd
  0
BLOCK
  5
100
330
FE
100
AcDbEntity
  8
0
100
AcDbBlockBegin
  2
block 36
 70
     0
 10
0.0
 20
0.0
 30
0.0
  3
block 36
  1

  0
SPLINE
  5
102
330
FE
100
AcDbEntity
  8
0
  6
AI-Linetype-18
 62
     6
370
    25
100
AcDbSpline
210
0.0
220
0.0
230
1.0
 70
     8
 71
     3
 72
    74
 73
    70
 74
     0
 42
0.0000000001
 43
0.0000000001
 12
1.0
 22
0.0
 32
0.0
 13
1.0
 23
0.0
 33
0.0
 40
0.0
 40
0.0
 40
0.0
 40
0.0
 40
1.0
 40
1.0
 40
1.0
 40
2.0
 40
2.0
 40
2.0
 40
3.0
 40
3.0
 40
3.0
 40
4.0
 40
4.0
 40
4.0
 40
5.0
 40
5.0
 40
5.0
 40
6.0
 40
6.0
 40
6.0
 40
7.0
 40
7.0
 40
7.0
 40
8.0
 40
8.0
 40
8.0
 40
9.0
 40
9.0
 40
9.0
 40
10.0
 40
10.0
 40
10.0
 40
11.0
 40
11.0
 40
11.0
 40
12.0
 40
12.0
 40
12.0
 40
13.0
 40
13.0
 40
13.0
 40
14.0
 40
14.0
 40
14.0
 40
15.0
 40
15.0
 40
15.0
 40
16.0
 40
16.0
 40
16.0
 40
17.0
 40
17.0
 40
17.0
 40
18.0
 40
18.0
 40
18.0
 40
19.0
 40
19.0
 40
19.0
 40
20.0
 40
20.0
 40
20.0
 40
21.0
 40
21.0
 40
21.0
 40
22.0
 40
22.0
 40
22.0
 40
23.0
 40
23.0
 40
23.0
 40
23.0
 10
42.78939728575311
 20
533.4145929642204
 30
0.0
 10
42.78939728575311
 20
533.6464728426181
 30
0.0
 10
42.78939728575311
 20
533.8783174433826
 30
0.0
 10
42.78939728575311
 20
534.1101973217801
 30
0.0
 10
42.78939728575311
 20
534.4085049821626
 30
0.0
 10
42.77856705257314
 20
534.705824868838
 30
0.0
 10
42.75683603095978
 20
535.0033564213123
 30
0.0
 10
42.64638176361834
 20
536.5396620388783
 30
0.0
 10
42.24040676885519
 20
538.0536369150715
 30
0.0
 10
41.57140174620059
 20
539.4407887024449
 30
0.0
 10
40.89202509959232
 20
540.8494245680063
 30
0.0
 10
39.94143401435652
 20
542.127250972274
 30
0.0
 10
38.78796126464113
 20
543.1831105128812
 30
0.0
 10
37.6373812807785
 20
544.2363242310495
 30
0.0
 10
36.2849426837857
 20
545.0686646921553
 30
0.0
 10
34.82825868276425
 20
545.6269332264056
 30
0.0
 10
34.10623137846765
 20
545.9036509757002
 30
0.0
 10
33.35859251298383
 20
546.1130237245632
 30
0.0
 10
32.59814786689644
 20
546.2534287018948
 30
0.0
 10
31.83713877869426
 20
546.3939042344963
 30
0.0
 10
31.06328863226693
 20
546.465306162671
 30
0.0
 10
30.28943848584025
 20
546.4649181087136
 30
0.0
 10
29.51558833940073
 20
546.465306162671
 30
0.0
 10
28.74173819297404
 20
546.3939042344963
 30
0.0
 10
27.98072910477121
 20
546.2534287018948
 30
0.0
 10
27.22028445869024
 20
546.1130237245632
 30
0.0
 10
26.4726455932
 20
545.9036509757002
 30
0.0
 10
25.75061828890982
 20
545.6269332264056
 30
0.0
 10
24.29393428788196
 20
545.0686646921553
 30
0.0
 10
22.94149569088916
 20
544.2363242310495
 30
0.0
 10
21.79091570703294
 20
543.1831105128812
 30
0.0
 10
20.63747823494555
 20
542.127250972274
 30
0.0
 10
19.68685187208176
 20
540.8494245680063
 30
0.0
 10
19.00747522546738
 20
539.4407887024449
 30
0.0
 10
18.33847020281856
 20
538.0536369150715
 30
0.0
 10
17.93249520805252
 20
536.5396620388783
 30
0.0
 10
17.8220762183423
 20
535.0033564213123
 30
0.0
 10
17.80034519672797
 20
534.705824868838
 30
0.0
 10
17.78947968592097
 20
534.4085049821626
 30
0.0
 10
17.78947968592097
 20
534.1101973217801
 30
0.0
 10
17.78940913065341
 20
533.2988823296353
 30
0.0
 10
17.87097101698681
 20
532.4880259467137
 30
0.0
 10
18.03088452509109
 20
531.6927622773571
 30
0.0
 10
18.1908685884565
 20
530.8971458316836
 30
0.0
 10
18.42931010649475
 20
530.1171573771969
 30
0.0
 10
18.74282242648659
 20
529.368707126161
 30
0.0
 10
19.37027039805639
 20
527.8707835727525
 30
0.0
 10
20.2984954642955
 20
526.4992597765739
 30
0.0
 10
21.45334404168431
 20
525.3574639232104
 30
0.0
 10
22.61143816125693
 20
524.2124225276592
 30
0.0
 10
23.99749634202562
 20
523.2984496249508
 30
0.0
 10
25.50459207988183
 20
522.6810910562696
 30
0.0
 10
27.01814362448375
 20
522.0610513875267
 30
0.0
 10
28.65379105516216
 20
521.7402013199768
 30
0.0
 10
30.28943848584025
 20
521.7403424305055
 30
0.0
 10
31.92540341520374
 20
521.7402013199768
 30
0.0
 10
33.56136834456722
 20
522.0611924980558
 30
0.0
 10
35.0751668325995
 20
522.6814438325971
 30
0.0
 10
36.58194507177063
 20
523.2988024012786
 30
0.0
 10
37.96768575384141
 20
524.212669471084
 30
0.0
 10
39.12556820762354
 20
525.3574639232104
 30
0.0
 10
40.28041678501236
 20
526.4992597765739
 30
0.0
 10
41.20864185124505
 20
527.8708188503857
 30
0.0
 10
41.83608982281484
 20
529.368742403794
 30
0.0
 10
42.14960214280669
 20
530.1171926548301
 30
0.0
 10
42.38804366085136
 20
530.8971811093097
 30
0.0
 10
42.54802772421709
 20
531.6927975549938
 30
0.0
 10
42.70794123232104
 20
532.4880259467137
 30
0.0
 10
42.78946784102035
 20
533.2988823296353
 30
0.0
 10
42.78939728575311
 20
534.1101973217801
 30
0.0
  0
ENDBLK
  5
101
330
FE
100
AcDbEntity
  8
0
100
AcDbBlockEnd
  0
BLOCK
  5
106
330
104
100
AcDbEntity
  8
0
100
AcDbBlockBegin
  2
block 37
 70
     0
 10
0.0
 20
0.0
 30
0.0
  3
block 37
  1

  0
SPLINE
  5
108
330
104
100
AcDbEntity
  8
0
 62
   250
370
    25
100
AcDbSpline
210
0.0
220
0.0
230
1.0
 70
     8
 71
     3
 72
    14
 73
    10
 74
     0
 42
0.0000000001
 43
0.0000000001
 12
1.0
 22
0.0
 32
0.0
 13
1.0
 23
0.0
 33
0.0
 40
0.0
 40
0.0
 40
0.0
 40
0.0
 40
1.0
 40
1.0
 40
1.0
 40
2.0
 40
2.0
 40
2.0
 40
3.0
 40
3.0
 40
3.0
 40
3.0
 10
-291.9461933586408
 20
574.6167157838989
 30
0.0
 10
-290.950341070912
 20
575.2310051985544
 30
0.0
 10
-289.9728684297159
 20
575.5087812768219
 30
0.0
 10
-288.8027799150861
 20
575.5100512715898
 30
0.0
 10
-288.8103293284457
 20
575.5185179033929
 30
0.0
 10
-288.8196779010557
 20
575.5250442653984
 30
0.0
 10
-288.8265217617608
 20
575.5343222827493
 30
0.0
 10
-288.7769214104718
 20
575.5345692261741
 30
0.0
 10
-288.7273210591764
 20
575.5347808919764
 30
0.0
 10
-288.6777207078906
 20
575.5350278354014
 30
0.0
  0
ENDBLK
  5
107
330
104
100
AcDbEntity
  8
0
100
AcDbBlockEnd
  0
BLOCK
  5
10B
330
109
100
AcDbEntity
  8
0
100
AcDbBlockBegin
  2
block 38
 70
     0
 10
0.0
 20
0.0
 30
0.0
  3
block 38
  1

  0
SPLINE
  5
10D
330
109
100
AcDbEntity
  8
0
  6
AI-Linetype-19
 62
     6
370
    25
100
AcDbSpline
210
0.0
220
0.0
230
1.0
 70
     8
 71
     3
 72
     8
 73
     4
 74
     0
 42
0.0000000001
 43
0.0000000001
 12
1.0
 22
0.0
 32
0.0
 13
1.0
 23
0.0
 33
0.0
 40
0.0
 40
0.0
 40
0.0
 40
0.0
 40
1.0
 40
1.0
 40
1.0
 40
1.0
 10
299.9378324528576
 20
563.3682309967755
 30
0.0
 10
299.8946879083163
 20
563.3500630160346
 30
0.0
 10
299.851543363771
 20
563.3318244800415
 30
0.0
 10
299.8084693744909
 20
563.3135153887683
 30
0.0
  0
ENDBLK
  5
10C
330
109
100
AcDbEntity
  8
0
100
AcDbBlockEnd
  0
BLOCK
  5
111
330
10F
100
AcDbEntity
  8
0
100
AcDbBlockBegin
  2
block 39
 70
     0
 10
0.0
 20
0.0
 30
0.0
  3
block 39
  1

  0
SPLINE
  5
113
330
10F
100
AcDbEntity
  8
0
  6
AI-Linetype-20
 62
     6
370
    25
100
AcDbSpline
210
0.0
220
0.0
230
1.0
 70
     8
 71
     3
 72
     8
 73
     4
 74
     0
 42
0.0000000001
 43
0.0000000001
 12
1.0
 22
0.0
 32
0.0
 13
1.0
 23
0.0
 33
0.0
 40
0.0
 40
0.0
 40
0.0
 40
0.0
 40
1.0
 40
1.0
 40
1.0
 40
1.0
 10
316.5979060648561
 20
566.9918082962236
 30
0.0
 10
316.6644749573757
 20
566.9933605120566
 30
0.0
 10
316.7310791275298
 20
566.9947363397239
 30
0.0
 10
316.7976480200506
 20
566.9959710568622
 30
0.0
  0
ENDBLK
  5
112
330
10F
100
AcDbEntity
  8
0
100
AcDbBlockEnd
  0
BLOCK
  5
117
330
115
100
AcDbEntity
  8
0
100
AcDbBlockBegin
  2
block 40
 70
     0
 10
0.0
 20
0.0
 30
0.0
  3
block 40
  1

  0
SPLINE
  5
119
330
115
100
AcDbEntity
  8
0
 62
   250
370
    25
100
AcDbSpline
210
0.0
220
0.0
230
1.0
 70
     8
 71
     3
 72
    11
 73
     7
 74
     0
 42
0.0000000001
 43
0.0000000001
 12
1.0
 22
0.0
 32
0.0
 13
1.0
 23
0.0
 33
0.0
 40
0.0
 40
0.0
 40
0.0
 40
0.0
 40
1.0
 40
1.0
 40
1.0
 40
2.0
 40
2.0
 40
2.0
 40
2.0
 10
499.365499216955
 20
575.5344986709117
 30
0.0
 10
499.3786224962433
 20
575.5344633932856
 30
0.0
 10
499.3917104978978
 20
575.5343928380155
 30
0.0
 10
499.404798499553
 20
575.5343222827493
 30
0.0
 10
501.6654597451645
 20
575.5232803837807
 30
0.0
 10
503.7280018066704
 20
574.2424906583863
 30
0.0
 10
504.7402581935079
 20
572.2211175939955
 30
0.0
  0
ENDBLK
  5
118
330
115
100
AcDbEntity
  8
0
100
AcDbBlockEnd
  0
BLOCK
  5
11C
330
11A
100
AcDbEntity
  8
0
100
AcDbBlockBegin
  2
block 41
 70
     0
 10
0.0
 20
0.0
 30
0.0
  3
block 41
  1

  0
SPLINE
  5
11E
330
11A
100
AcDbEntity
  8
0
  6
AI-Linetype-21
 62
     6
370
    25
100
AcDbSpline
210
0.0
220
0.0
230
1.0
 70
     8
 71
     3
 72
   758
 73
   754
 74
     0
 42
0.0000000001
 43
0.0000000001
 12
1.0
 22
0.0
 32
0.0
 13
1.0
 23
0.0
 33
0.0
 40
0.0
 40
0.0
 40
0.0
 40
0.0
 40
1.0
 40
1.0
 40
1.0
 40
2.0
 40
2.0
 40
2.0
 40
3.0
 40
3.0
 40
3.0
 40
4.0
 40
4.0
 40
4.0
 40
5.0
 40
5.0
 40
5.0
 40
6.0
 40
6.0
 40
6.0
 40
7.0
 40
7.0
 40
7.0
 40
8.0
 40
8.0
 40
8.0
 40
9.0
 40
9.0
 40
9.0
 40
10.0
 40
10.0
 40
10.0
 40
11.0
 40
11.0
 40
11.0
 40
12.0
 40
12.0
 40
12.0
 40
13.0
 40
13.0
 40
13.0
 40
14.0
 40
14.0
 40
14.0
 40
15.0
 40
15.0
 40
15.0
 40
16.0
 40
16.0
 40
16.0
 40
17.0
 40
17.0
 40
17.0
 40
18.0
 40
18.0
 40
18.0
 40
19.0
 40
19.0
 40
19.0
 40
20.0
 40
20.0
 40
20.0
 40
21.0
 40
21.0
 40
21.0
 40
22.0
 40
22.0
 40
22.0
 40
23.0
 40
23.0
 40
23.0
 40
24.0
 40
24.0
 40
24.0
 40
25.0
 40
25.0
 40
25.0
 40
26.0
 40
26.0
 40
26.0
 40
27.0
 40
27.0
 40
27.0
 40
28.0
 40
28.0
 40
28.0
 40
29.0
 40
29.0
 40
29.0
 40
30.0
 40
30.0
 40
30.0
 40
31.0
 40
31.0
 40
31.0
 40
32.0
 40
32.0
 40
32.0
 40
33.0
 40
33.0
 40
33.0
 40
34.0
 40
34.0
 40
34.0
 40
35.0
 40
35.0
 40
35.0
 40
36.0
 40
36.0
 40
36.0
 40
37.0
 40
37.0
 40
37.0
 40
38.0
 40
38.0
 40
38.0
 40
39.0
 40
39.0
 40
39.0
 40
40.0
 40
40.0
 40
40.0
 40
41.0
 40
41.0
 40
41.0
 40
42.0
 40
42.0
 40
42.0
 40
43.0
 40
43.0
 40
43.0
 40
44.0
 40
44.0
 40
44.0
 40
45.0
 40
45.0
 40
45.0
 40
46.0
 40
46.0
 40
46.0
 40
47.0
 40
47.0
 40
47.0
 40
48.0
 40
48.0
 40
48.0
 40
49.0
 40
49.0
 40
49.0
 40
50.0
 40
50.0
 40
50.0
 40
51.0
 40
51.0
 40
51.0
 40
52.0
 40
52.0
 40
52.0
 40
53.0
 40
53.0
 40
53.0
 40
54.0
 40
54.0
 40
54.0
 40
55.0
 40
55.0
 40
55.0
 40
56.0
 40
56.0
 40
56.0
 40
57.0
 40
57.0
 40
57.0
 40
58.0
 40
58.0
 40
58.0
 40
59.0
 40
59.0
 40
59.0
 40
60.0
 40
60.0
 40
60.0
 40
61.0
 40
61.0
 40
61.0
 40
62.0
 40
62.0
 40
62.0
 40
63.0
 40
63.0
 40
63.0
 40
64.0
 40
64.0
 40
64.0
 40
65.0
 40
65.0
 40
65.0
 40
66.0
 40
66.0
 40
66.0
 40
67.0
 40
67.0
 40
67.0
 40
68.0
 40
68.0
 40
68.0
 40
69.0
 40
69.0
 40
69.0
 40
70.0
 40
70.0
 40
70.0
 40
71.0
 40
71.0
 40
71.0
 40
72.0
 40
72.0
 40
72.0
 40
73.0
 40
73.0
 40
73.0
 40
74.0
 40
74.0
 40
74.0
 40
75.0
 40
75.0
 40
75.0
 40
76.0
 40
76.0
 40
76.0
 40
77.0
 40
77.0
 40
77.0
 40
78.0
 40
78.0
 40
78.0
 40
79.0
 40
79.0
 40
79.0
 40
80.0
 40
80.0
 40
80.0
 40
81.0
 40
81.0
 40
81.0
 40
82.0
 40
82.0
 40
82.0
 40
83.0
 40
83.0
 40
83.0
 40
84.0
 40
84.0
 40
84.0
 40
85.0
 40
85.0
 40
85.0
 40
86.0
 40
86.0
 40
86.0
 40
87.0
 40
87.0
 40
87.0
 40
88.0
 40
88.0
 40
88.0
 40
89.0
 40
89.0
 40
89.0
 40
90.0
 40
90.0
 40
90.0
 40
91.0
 40
91.0
 40
91.0
 40
92.0
 40
92.0
 40
92.0
 40
93.0
 40
93.0
 40
93.0
 40
94.0
 40
94.0
 40
94.0
 40
95.0
 40
95.0
 40
95.0
 40
96.0
 40
96.0
 40
96.0
 40
97.0
 40
97.0
 40
97.0
 40
98.0
 40
98.0
 40
98.0
 40
99.0
 40
99.0
 40
99.0
 40
100.0
 40
100.0
 40
100.0
 40
101.0
 40
101.0
 40
101.0
 40
102.0
 40
102.0
 40
102.0
 40
103.0
 40
103.0
 40
103.0
 40
104.0
 40
104.0
 40
104.0
 40
105.0
 40
105.0
 40
105.0
 40
106.0
 40
106.0
 40
106.0
 40
107.0
 40
107.0
 40
107.0
 40
108.0
 40
108.0
 40
108.0
 40
109.0
 40
109.0
 40
109.0
 40
110.0
 40
110.0
 40
110.0
 40
111.0
 40
111.0
 40
111.0
 40
112.0
 40
112.0
 40
112.0
 40
113.0
 40
113.0
 40
113.0
 40
114.0
 40
114.0
 40
114.0
 40
115.0
 40
115.0
 40
115.0
 40
116.0
 40
116.0
 40
116.0
 40
117.0
 40
117.0
 40
117.0
 40
118.0
 40
118.0
 40
118.0
 40
119.0
 40
119.0
 40
119.0
 40
120.0
 40
120.0
 40
120.0
 40
121.0
 40
121.0
 40
121.0
 40
122.0
 40
122.0
 40
122.0
 40
123.0
 40
123.0
 40
123.0
 40
124.0
 40
124.0
 40
124.0
 40
125.0
 40
125.0
 40
125.0
 40
126.0
 40
126.0
 40
126.0
 40
127.0
 40
127.0
 40
127.0
 40
128.0
 40
128.0
 40
128.0
 40
129.0
 40
129.0
 40
129.0
 40
130.0
 40
130.0
 40
130.0
 40
131.0
 40
131.0
 40
131.0
 40
132.0
 40
132.0
 40
132.0
 40
133.0
 40
133.0
 40
133.0
 40
134.0
 40
134.0
 40
134.0
 40
135.0
 40
135.0
 40
135.0
 40
136.0
 40
136.0
 40
136.0
 40
137.0
 40
137.0
 40
137.0
 40
138.0
 40
138.0
 40
138.0
 40
139.0
 40
139.0
 40
139.0
 40
140.0
 40
140.0
 40
140.0
 40
141.0
 40
141.0
 40
141.0
 40
142.0
 40
142.0
 40
142.0
 40
143.0
 40
143.0
 40
143.0
 40
144.0
 40
144.0
 40
144.0
 40
145.0
 40
145.0
 40
145.0
 40
146.0
 40
146.0
 40
146.0
 40
147.0
 40
147.0
 40
147.0
 40
148.0
 40
148.0
 40
148.0
 40
149.0
 40
149.0
 40
149.0
 40
150.0
 40
150.0
 40
150.0
 40
151.0
 40
151.0
 40
151.0
 40
152.0
 40
152.0
 40
152.0
 40
153.0
 40
153.0
 40
153.0
 40
154.0
 40
154.0
 40
154.0
 40
155.0
 40
155.0
 40
155.0
 40
156.0
 40
156.0
 40
156.0
 40
157.0
 40
157.0
 40
157.0
 40
158.0
 40
158.0
 40
158.0
 40
159.0
 40
159.0
 40
159.0
 40
160.0
 40
160.0
 40
160.0
 40
161.0
 40
161.0
 40
161.0
 40
162.0
 40
162.0
 40
162.0
 40
163.0
 40
163.0
 40
163.0
 40
164.0
 40
164.0
 40
164.0
 40
165.0
 40
165.0
 40
165.0
 40
166.0
 40
166.0
 40
166.0
 40
167.0
 40
167.0
 40
167.0
 40
168.0
 40
168.0
 40
168.0
 40
169.0
 40
169.0
 40
169.0
 40
170.0
 40
170.0
 40
170.0
 40
171.0
 40
171.0
 40
171.0
 40
172.0
 40
172.0
 40
172.0
 40
173.0
 40
173.0
 40
173.0
 40
174.0
 40
174.0
 40
174.0
 40
175.0
 40
175.0
 40
175.0
 40
176.0
 40
176.0
 40
176.0
 40
177.0
 40
177.0
 40
177.0
 40
178.0
 40
178.0
 40
178.0
 40
179.0
 40
179.0
 40
179.0
 40
180.0
 40
180.0
 40
180.0
 40
181.0
 40
181.0
 40
181.0
 40
182.0
 40
182.0
 40
182.0
 40
183.0
 40
183.0
 40
183.0
 40
184.0
 40
184.0
 40
184.0
 40
185.0
 40
185.0
 40
185.0
 40
186.0
 40
186.0
 40
186.0
 40
187.0
 40
187.0
 40
187.0
 40
188.0
 40
188.0
 40
188.0
 40
189.0
 40
189.0
 40
189.0
 40
190.0
 40
190.0
 40
190.0
 40
191.0
 40
191.0
 40
191.0
 40
192.0
 40
192.0
 40
192.0
 40
193.0
 40
193.0
 40
193.0
 40
194.0
 40
194.0
 40
194.0
 40
195.0
 40
195.0
 40
195.0
 40
196.0
 40
196.0
 40
196.0
 40
197.0
 40
197.0
 40
197.0
 40
198.0
 40
198.0
 40
198.0
 40
199.0
 40
199.0
 40
199.0
 40
200.0
 40
200.0
 40
200.0
 40
201.0
 40
201.0
 40
201.0
 40
202.0
 40
202.0
 40
202.0
 40
203.0
 40
203.0
 40
203.0
 40
204.0
 40
204.0
 40
204.0
 40
205.0
 40
205.0
 40
205.0
 40
206.0
 40
206.0
 40
206.0
 40
207.0
 40
207.0
 40
207.0
 40
208.0
 40
208.0
 40
208.0
 40
209.0
 40
209.0
 40
209.0
 40
210.0
 40
210.0
 40
210.0
 40
211.0
 40
211.0
 40
211.0
 40
212.0
 40
212.0
 40
212.0
 40
213.0
 40
213.0
 40
213.0
 40
214.0
 40
214.0
 40
214.0
 40
215.0
 40
215.0
 40
215.0
 40
216.0
 40
216.0
 40
216.0
 40
217.0
 40
217.0
 40
217.0
 40
218.0
 40
218.0
 40
218.0
 40
219.0
 40
219.0
 40
219.0
 40
220.0
 40
220.0
 40
220.0
 40
221.0
 40
221.0
 40
221.0
 40
222.0
 40
222.0
 40
222.0
 40
223.0
 40
223.0
 40
223.0
 40
224.0
 40
224.0
 40
224.0
 40
225.0
 40
225.0
 40
225.0
 40
226.0
 40
226.0
 40
226.0
 40
227.0
 40
227.0
 40
227.0
 40
228.0
 40
228.0
 40
228.0
 40
229.0
 40
229.0
 40
229.0
 40
230.0
 40
230.0
 40
230.0
 40
231.0
 40
231.0
 40
231.0
 40
232.0
 40
232.0
 40
232.0
 40
233.0
 40
233.0
 40
233.0
 40
234.0
 40
234.0
 40
234.0
 40
235.0
 40
235.0
 40
235.0
 40
236.0
 40
236.0
 40
236.0
 40
237.0
 40
237.0
 40
237.0
 40
238.0
 40
238.0
 40
238.0
 40
239.0
 40
239.0
 40
239.0
 40
240.0
 40
240.0
 40
240.0
 40
241.0
 40
241.0
 40
241.0
 40
242.0
 40
242.0
 40
242.0
 40
243.0
 40
243.0
 40
243.0
 40
244.0
 40
244.0
 40
244.0
 40
245.0
 40
245.0
 40
245.0
 40
246.0
 40
246.0
 40
246.0
 40
247.0
 40
247.0
 40
247.0
 40
248.0
 40
248.0
 40
248.0
 40
249.0
 40
249.0
 40
249.0
 40
250.0
 40
250.0
 40
250.0
 40
251.0
 40
251.0
 40
251.0
 40
251.0
 10
67.10891518764167
 20
430.2263890293598
 30
0.0
 10
66.81868610510068
 20
423.834681740847
 30
0.0
 10
66.52842174491951
 20
417.4429744523378
 30
0.0
 10
66.23819266237918
 20
411.0512671638252
 30
0.0
 10
66.23244240827759
 20
410.9232093578737
 30
0.0
 10
66.21416859464975
 20
410.7956807163945
 30
0.0
 10
66.18400621886066
 20
410.6711153960488
 30
0.0
 10
66.15405550887296
 20
410.5475731270496
 30
0.0
 10
66.11242790252668
 20
410.4269589015443
 30
0.0
 10
66.05961728668126
 20
410.3113540998582
 30
0.0
 10
65.95343161286922
 20
410.0788745017082
 30
0.0
 10
65.80219640235852
 20
409.8667853751402
 30
0.0
 10
65.61677716596226
 20
409.690961654784
 30
0.0
 10
65.43548541256861
 20
409.5190184739949
 30
0.0
 10
65.22152657147389
 20
409.3817179283257
 30
0.0
 10
64.98989363650726
 20
409.2878088706234
 30
0.0
 10
64.87347744927153
 20
409.2406426759715
 30
0.0
 10
64.75261628034072
 20
409.2044125473996
 30
0.0
 10
64.6293209547658
 20
409.1805295902011
 30
0.0
 10
64.58159031799877
 20
409.1712868504866
 30
0.0
 10
64.533471627273
 20
409.1638785476636
 30
0.0
 10
64.48514127075676
 20
409.1587632909514
 30
0.0
 10
64.40379105021961
 20
409.1501555486193
 30
0.0
 10
64.32177055466569
 20
409.1480036130406
 30
0.0
 10
64.24024394596606
 20
409.1420416931476
 30
0.0
 10
64.23604590770167
 20
409.1420416931476
 30
0.0
 10
64.23184786943662
 20
409.1420416931476
 30
0.0
 10
64.22764983116582
 20
409.1420416931476
 30
0.0
 10
64.20355520817525
 20
409.1420416931476
 30
0.0
 10
64.17949586281205
 20
409.1420416931476
 30
0.0
 10
64.1554012398157
 20
409.1420416931476
 30
0.0
 10
64.1439007316254
 20
409.1420416931476
 30
0.0
 10
64.13240022342865
 20
409.1420416931476
 30
0.0
 10
64.12089971523191
 20
409.1420416931476
 30
0.0
 10
64.1164194559098
 20
409.1420416931476
 30
0.0
 10
64.11193919658095
 20
409.1420416931476
 30
0.0
 10
64.10742365962442
 20
409.1420416931476
 30
0.0
 10
64.09472371192284
 20
409.1420416931476
 30
0.0
 10
64.08198848659389
 20
409.1420416931476
 30
0.0
 10
64.06928853889872
 20
409.1420416931476
 30
0.0
 10
64.06240940055955
 20
409.1420416931476
 30
0.0
 10
64.05553026222036
 20
409.1420416931476
 30
0.0
 10
64.04868640151494
 20
409.1420416931476
 30
0.0
 10
64.03528090116923
 20
409.1420416931476
 30
0.0
 10
64.02187540082286
 20
409.1420416931476
 30
0.0
 10
64.00846990047074
 20
409.1420416931476
 30
0.0
 10
63.99869799627334
 20
409.1420416931476
 30
0.0
 10
63.98889081443639
 20
409.1420416931476
 30
0.0
 10
63.97908363259879
 20
409.1420416931476
 30
0.0
 10
63.96557229935848
 20
409.1420416931476
 30
0.0
 10
63.95206096611046
 20
409.1420416931476
 30
0.0
 10
63.93854963286309
 20
409.1420416931476
 30
0.0
 10
63.92524996541133
 20
409.1420416931476
 30
0.0
 10
63.91198557559431
 20
409.1420416931476
 30
0.0
 10
63.89868590814287
 20
409.1420416931476
 30
0.0
 10
63.88563318412275
 20
409.1420416931476
 30
0.0
 10
63.87258046010199
 20
409.1420416931476
 30
0.0
 10
63.85952773607481
 20
409.1420416931476
 30
0.0
 10
63.84217114088767
 20
409.1420416931476
 30
0.0
 10
63.82481454570118
 20
409.1420416931476
 30
0.0
 10
63.80742267288026
 20
409.1420416931476
 30
0.0
 10
63.79546355546366
 20
409.1420416931476
 30
0.0
 10
63.78346916041262
 20
409.1420416931476
 30
0.0
 10
63.77147476536192
 20
409.1420416931476
 30
0.0
 10
63.74441682123884
 20
409.1420416931476
 30
0.0
 10
63.71732359948231
 20
409.1420416931476
 30
0.0
 10
63.69023037772642
 20
409.1420416931476
 30
0.0
 10
63.68497401048555
 20
409.1420416931476
 30
0.0
 10
63.67975292087205
 20
409.1420416931476
 30
0.0
 10
63.67449655363087
 20
409.1420416931476
 30
0.0
 10
63.60097796750772
 20
409.1420416931476
 30
0.0
 10
63.5274241037572
 20
409.1420416931476
 30
0.0
 10
63.45390551763373
 20
409.1420416931476
 30
0.0
 10
63.36878059041923
 20
409.1420416931476
 30
0.0
 10
63.28365566321084
 20
409.1420416931476
 30
0.0
 10
63.19853073599604
 20
409.1420416931476
 30
0.0
 10
63.19853073599604
 20
409.1420416931476
 30
0.0
 10
63.19225131741248
 20
409.1420416931476
 30
0.0
 10
63.1891468857516
 20
409.1420416931476
 30
0.0
 10
63.14543789908649
 20
409.1420416931476
 30
0.0
 10
63.10169363480107
 20
409.1420416931476
 30
0.0
 10
63.05798464813596
 20
409.1420416931476
 30
0.0
 10
63.04976495976258
 20
409.1420416931476
 30
0.0
 10
63.04154527138986
 20
409.1420416931476
 30
0.0
 10
63.03332558301712
 20
409.1420416931476
 30
0.0
 10
62.99190964246679
 20
409.1420416931476
 30
0.0
 10
62.95049370191741
 20
409.1420416931476
 30
0.0
 10
62.90904248374003
 20
409.1420416931476
 30
0.0
 10
62.80888928508087
 20
409.1420416931476
 30
0.0
 10
62.70873608642169
 20
409.1420416931476
 30
0.0
 10
62.60861816540272
 20
409.1420416931476
 30
0.0
 10
62.57496330400203
 20
409.1420416931476
 30
0.0
 10
62.54130844259493
 20
409.1420416931476
 30
0.0
 10
62.50768885883443
 20
409.1420416931476
 30
0.0
 10
62.48768644120436
 20
409.1420416931476
 30
0.0
 10
62.46771930121063
 20
409.1420416931476
 30
0.0
 10
62.44771688358954
 20
409.1420416931476
 30
0.0
 10
62.43611054249789
 20
409.1420416931476
 30
0.0
 10
62.42450420140623
 20
409.1420416931476
 30
0.0
 10
62.41293313794836
 20
409.1420416931476
 30
0.0
 10
62.23167666218271
 20
409.1420416931476
 30
0.0
 10
62.05042018641707
 20
409.1420416931476
 30
0.0
 10
61.86916371065143
 20
409.1420416931476
 30
0.0
 10
61.84443409027146
 20
409.1420416931476
 30
0.0
 10
61.81973974752526
 20
409.1420416931476
 30
0.0
 10
61.79501012714561
 20
409.1420416931476
 30
0.0
 10
61.75909749726905
 20
409.1420416931476
 30
0.0
 10
61.72314958975391
 20
409.1420416931476
 30
0.0
 10
61.68723695986838
 20
409.1420416931476
 30
0.0
 10
61.65848568938648
 20
409.1420416931476
 30
0.0
 10
61.62973441890459
 20
409.1420416931476
 30
0.0
 10
61.60098314841628
 20
409.1420416931476
 30
0.0
 10
61.56020220525599
 20
409.1420416931476
 30
0.0
 10
61.51942126208929
 20
409.1420416931476
 30
0.0
 10
61.47864031892259
 20
409.1420416931476
 30
0.0
 10
61.4622362198109
 20
409.1420416931476
 30
0.0
 10
61.4457968430648
 20
409.1420416931476
 30
0.0
 10
61.42939274395921
 20
409.1420416931476
 30
0.0
 10
61.2864124994547
 20
409.1420416931476
 30
0.0
 10
61.14343225494409
 20
409.1420416931476
 30
0.0
 10
61.0004520104399
 20
409.1420416931476
 30
0.0
 10
60.9951250879318
 20
409.1420416931476
 30
0.0
 10
60.98979816542947
 20
409.1420416931476
 30
0.0
 10
60.98443596528695
 20
409.1420416931476
 30
0.0
 10
60.92665120325935
 20
409.1420416931476
 30
0.0
 10
60.86886644123111
 20
409.1420416931476
 30
0.0
 10
60.81104640156909
 20
409.1420416931476
 30
0.0
 10
60.7912203721047
 20
409.1420416931476
 30
0.0
 10
60.77139434263967
 20
409.1420416931476
 30
0.0
 10
60.75153303554792
 20
409.1420416931476
 30
0.0
 10
60.69272522217731
 20
409.1420416931476
 30
0.0
 10
60.63391740880991
 20
409.1420416931476
 30
0.0
 10
60.57510959543609
 20
409.1420416931476
 30
0.0
 10
60.55404884883949
 20
409.1420416931476
 30
0.0
 10
60.53298810223584
 20
409.1420416931476
 30
0.0
 10
60.51192735563892
 20
409.1420416931476
 30
0.0
 10
60.45220232382054
 20
409.1420416931476
 30
0.0
 10
60.39244201437576
 20
409.1420416931476
 30
0.0
 10
60.3327169825577
 20
409.1420416931476
 30
0.0
 10
60.3103862411871
 20
409.1420416931476
 30
0.0
 10
60.28805549981778
 20
409.1420416931476
 30
0.0
 10
60.26572475844814
 20
409.1420416931476
 30
0.0
 10
60.10955067938743
 20
409.1420416931476
 30
0.0
 10
59.95341187796114
 20
409.1420416931476
 30
0.0
 10
59.79723779890107
 20
409.1420416931476
 30
0.0
 10
59.78291508010822
 20
409.1420416931476
 30
0.0
 10
59.76859236131409
 20
409.1420416931476
 30
0.0
 10
59.75426964252092
 20
409.1420416931476
 30
0.0
 10
59.6854077038891
 20
409.1420416931476
 30
0.0
 10
59.61651048762382
 20
409.1420416931476
 30
0.0
 10
59.54764854899167
 20
409.1420416931476
 30
0.0
 10
59.52821057348666
 20
409.1420416931476
 30
0.0
 10
59.50880787561479
 20
409.1420416931476
 30
0.0
 10
59.48936990010914
 20
409.1420416931476
 30
0.0
 10
59.44608424503782
 20
409.1420416931476
 30
0.0
 10
59.40276331233208
 20
409.1420416931476
 30
0.0
 10
59.35947765725948
 20
409.1420416931476
 30
0.0
 10
59.31213507444541
 20
409.1420416931476
 30
0.0
 10
59.26479249163744
 20
409.1420416931476
 30
0.0
 10
59.21744990883332
 20
409.1420416931476
 30
0.0
 10
59.18965113442302
 20
409.1420416931476
 30
0.0
 10
59.16185236001562
 20
409.1420416931476
 30
0.0
 10
59.13405358560886
 20
409.1420416931476
 30
0.0
 10
59.06850774443418
 20
409.1420416931476
 30
0.0
 10
59.0029971808875
 20
409.1420416931476
 30
0.0
 10
58.93745133970704
 20
409.1420416931476
 30
0.0
 10
58.84844587291902
 20
409.1420416931476
 30
0.0
 10
58.75947568376476
 20
409.1420416931476
 30
0.0
 10
58.67047021697738
 20
409.1420416931476
 30
0.0
 10
58.66344996811591
 20
409.1420416931476
 30
0.0
 10
58.65642971924802
 20
409.1420416931476
 30
0.0
 10
58.64940947038014
 20
409.1420416931476
 30
0.0
 10
58.57709032376183
 20
409.1420416931476
 30
0.0
 10
58.50477117714449
 20
409.1420416931476
 30
0.0
 10
58.43245203053228
 20
409.1420416931476
 30
0.0
 10
58.40609963906072
 20
409.1420416931476
 30
0.0
 10
58.37971196994832
 20
409.1420416931476
 30
0.0
 10
58.35332430084298
 20
409.1420416931476
 30
0.0
 10
58.29903202443501
 20
409.1420416931476
 30
0.0
 10
58.24473974802093
 20
409.1420416931476
 30
0.0
 10
58.19044747160621
 20
409.1420416931476
 30
0.0
 10
58.14338710985659
 20
409.1420416931476
 30
0.0
 10
58.09629147047576
 20
409.1420416931476
 30
0.0
 10
58.04923110872936
 20
409.1420416931476
 30
0.0
 10
58.01430625255883
 20
409.1420416931476
 30
0.0
 10
57.97938139638253
 20
409.1420416931476
 30
0.0
 10
57.94449181784642
 20
409.1420416931476
 30
0.0
 10
57.87294877914686
 20
409.1420416931476
 30
0.0
 10
57.80144101807403
 20
409.1420416931476
 30
0.0
 10
57.72993325700889
 20
409.1420416931476
 30
0.0
 10
57.6336605979223
 20
409.1420416931476
 30
0.0
 10
57.53735266121541
 20
409.1420416931476
 30
0.0
 10
57.44108000212946
 20
409.1420416931476
 30
0.0
 10
57.4263339517425
 20
409.1420416931476
 30
0.0
 10
57.41162317899317
 20
409.1420416931476
 30
0.0
 10
57.39687712861647
 20
409.1420416931476
 30
0.0
 10
57.32586325439857
 20
409.1420416931476
 30
0.0
 10
57.25481410255331
 20
409.1420416931476
 30
0.0
 10
57.18380022834183
 20
409.1420416931476
 30
0.0
 10
57.14097318248301
 20
409.1420416931476
 30
0.0
 10
57.09814613663831
 20
409.1420416931476
 30
0.0
 10
57.05535436842385
 20
409.1420416931476
 30
0.0
 10
57.01118677253534
 20
409.1420416931476
 30
0.0
 10
56.9670544542838
 20
409.1420416931476
 30
0.0
 10
56.92292213603196
 20
409.1420416931476
 30
0.0
 10
56.86644264640412
 20
409.1420416931476
 30
0.0
 10
56.80992787914251
 20
409.1420416931476
 30
0.0
 10
56.75344838952109
 20
409.1420416931476
 30
0.0
 10
56.72180435317457
 20
409.1420416931476
 30
0.0
 10
56.69019559445541
 20
409.1420416931476
 30
0.0
 10
56.65855155810247
 20
409.1420416931476
 30
0.0
 10
56.57564912173488
 20
409.1420416931476
 30
0.0
 10
56.49278196300812
 20
409.1420416931476
 30
0.0
 10
56.40991480427431
 20
409.1420416931476
 30
0.0
 10
56.31314825833406
 20
409.1420416931476
 30
0.0
 10
56.21638171240055
 20
409.1420416931476
 30
0.0
 10
56.11961516646641
 20
409.1420416931476
 30
0.0
 10
56.07326035736735
 20
409.1420416931476
 30
0.0
 10
56.02690554826764
 20
409.1420416931476
 30
0.0
 10
55.9805507391689
 20
409.1420416931476
 30
0.0
 10
55.93546592483614
 20
409.1420416931476
 30
0.0
 10
55.89034583286896
 20
409.1420416931476
 30
0.0
 10
55.84526101854294
 20
409.1420416931476
 30
0.0
 10
55.7967542738639
 20
409.1420416931476
 30
0.0
 10
55.74824752917876
 20
409.1420416931476
 30
0.0
 10
55.69974078450004
 20
409.1420416931476
 30
0.0
 10
55.65574957677689
 20
409.1420416931476
 30
0.0
 10
55.61175836905438
 20
409.1420416931476
 30
0.0
 10
55.56776716133123
 20
409.1420416931476
 30
0.0
 10
55.48959192772317
 20
409.1420416931476
 30
0.0
 10
55.41145197174247
 20
409.1420416931476
 30
0.0
 10
55.33327673812798
 20
409.1420416931476
 30
0.0
 10
55.22342219053897
 20
409.1420416931476
 30
0.0
 10
55.11353236531683
 20
409.1420416931476
 30
0.0
 10
55.00367781772204
 20
409.1420416931476
 30
0.0
 10
54.9465280530768
 20
409.1420416931476
 30
0.0
 10
54.88937828843218
 20
409.1420416931476
 30
0.0
 10
54.83226380142713
 20
409.1420416931476
 30
0.0
 10
54.79391701489813
 20
409.1420416931476
 30
0.0
 10
54.755605506009
 20
409.1420416931476
 30
0.0
 10
54.71729399712051
 20
409.1420416931476
 30
0.0
 10
54.67086863275324
 20
409.1420416931476
 30
0.0
 10
54.62444326838662
 20
409.1420416931476
 30
0.0
 10
54.57805318165089
 20
409.1420416931476
 30
0.0
 10
54.52806477641217
 20
409.1420416931476
 30
0.0
 10
54.4780763711635
 20
409.1420416931476
 30
0.0
 10
54.4281232435499
 20
409.1420416931476
 30
0.0
 10
54.34857218226681
 20
409.1420416931476
 30
0.0
 10
54.26902112099719
 20
409.1420416931476
 30
0.0
 10
54.18947005971475
 20
409.1420416931476
 30
0.0
 10
54.17172541056888
 20
409.1420416931476
 30
0.0
 10
54.15398076142301
 20
409.1420416931476
 30
0.0
 10
54.13627138991028
 20
409.1420416931476
 30
0.0
 10
54.0220776935224
 20
409.1420416931476
 30
0.0
 10
53.90788399713388
 20
409.1420416931476
 30
0.0
 10
53.79372557837914
 20
409.1420416931476
 30
0.0
 10
53.71078786437776
 20
409.1420416931476
 30
0.0
 10
53.62785015037704
 20
409.1420416931476
 30
0.0
 10
53.5448771587483
 20
409.1420416931476
 30
0.0
 10
53.35698848807351
 20
409.1420416931476
 30
0.0
 10
53.16909981740578
 20
409.1420416931476
 30
0.0
 10
52.98117586909785
 20
409.1420416931476
 30
0.0
 10
52.9559170842298
 20
409.1420416931476
 30
0.0
 10
52.93065829936175
 20
409.1420416931476
 30
0.0
 10
52.90536423685992
 20
409.1420416931476
 30
0.0
 10
52.78630222718959
 20
409.1420416931476
 30
0.0
 10
52.66720493988549
 20
409.1420416931476
 30
0.0
 10
52.5481076525756
 20
409.1420416931476
 30
0.0
 10
52.47441267828933
 20
409.1420416931476
 30
0.0
 10
52.40075298163747
 20
409.1420416931476
 30
0.0
 10
52.32705800735826
 20
409.1420416931476
 30
0.0
 10
51.95992368596879
 20
409.1420416931476
 30
0.0
 10
51.59278936458637
 20
409.1420416931476
 30
0.0
 10
51.22565504320396
 20
409.1420416931476
 30
0.0
 10
51.18067606177222
 20
409.1420416931476
 30
0.0
 10
51.13573235796848
 20
409.1420416931476
 30
0.0
 10
51.09078865416475
 20
409.1420416931476
 30
0.0
 10
50.96714055227064
 20
409.1420416931476
 30
0.0
 10
50.84352772800455
 20
409.1420416931476
 30
0.0
 10
50.71987962610403
 20
409.1420416931476
 30
0.0
 10
50.62854583557323
 20
409.1420416931476
 30
0.0
 10
50.53717676740929
 20
409.1420416931476
 30
0.0
 10
50.44580769924502
 20
409.1420416931476
 30
0.0
 10
50.27411146188662
 20
409.1420416931476
 30
0.0
 10
50.1024152245279
 20
409.1420416931476
 30
0.0
 10
49.9306837095447
 20
409.1420416931476
 30
0.0
 10
49.89406552700572
 20
409.1420416931476
 30
0.0
 10
49.85744734448247
 20
409.1420416931476
 30
0.0
 10
49.82082916194638
 20
409.1420416931476
 30
0.0
 10
49.70413075364619
 20
409.1420416931476
 30
0.0
 10
49.58739706772538
 20
409.1420416931476
 30
0.0
 10
49.47069865942551
 20
409.1420416931476
 30
0.0
 10
49.37301489504359
 20
409.1420416931476
 30
0.0
 10
49.27533113066296
 20
409.1420416931476
 30
0.0
 10
49.17768264391546
 20
409.1420416931476
 30
0.0
 10
49.07474251228658
 20
409.1420416931476
 30
0.0
 10
48.97180238066412
 20
409.1420416931476
 30
0.0
 10
48.8688622490423
 20
409.1420416931476
 30
0.0
 10
48.75043523675561
 20
409.1420416931476
 30
0.0
 10
48.63197294683481
 20
409.1420416931476
 30
0.0
 10
48.51354593454459
 20
409.1420416931476
 30
0.0
 10
48.36171100428724
 20
409.1420416931476
 30
0.0
 10
48.20991135165469
 20
409.1420416931476
 30
0.0
 10
48.05811169902213
 20
409.1420416931476
 30
0.0
 10
47.99821027904095
 20
409.1420416931476
 30
0.0
 10
47.93830885906747
 20
409.1420416931476
 30
0.0
 10
47.87840743909271
 20
409.1420416931476
 30
0.0
 10
47.70978035575532
 20
409.1420416931476
 30
0.0
 10
47.5411532724298
 20
409.1420416931476
 30
0.0
 10
47.3725614667249
 20
409.1420416931476
 30
0.0
 10
47.32292583780921
 20
409.1420416931476
 30
0.0
 10
47.27329020888582
 20
409.1420416931476
 30
0.0
 10
47.22365457996692
 20
409.1420416931476
 30
0.0
 10
47.138529652755
 20
409.1420416931476
 30
0.0
 10
47.05344000316723
 20
409.1420416931476
 30
0.0
 10
46.96835035359583
 20
409.1420416931476
 30
0.0
 10
46.82985036841087
 20
409.1420416931476
 30
0.0
 10
46.69135038322911
 20
409.1420416931476
 30
0.0
 10
46.55285039805698
 20
409.1420416931476
 30
0.0
 10
46.39755825980737
 20
409.1420416931476
 30
0.0
 10
46.24226612156033
 20
409.1420416931476
 30
0.0
 10
46.0870092609477
 20
409.1420416931476
 30
0.0
 10
46.02499118302065
 20
409.1420416931476
 30
0.0
 10
45.96300838272127
 20
409.1420416931476
 30
0.0
 10
45.90099030478876
 20
409.1420416931476
 30
0.0
 10
45.79067714797988
 20
409.1420416931476
 30
0.0
 10
45.6803287135308
 20
409.1420416931476
 30
0.0
 10
45.5700155567155
 20
409.1420416931476
 30
0.0
 10
45.4539874234385
 20
409.1420416931476
 30
0.0
 10
45.33792401252867
 20
409.1420416931476
 30
0.0
 10
45.22189587924526
 20
409.1420416931476
 30
0.0
 10
45.01347562646163
 20
409.1420416931476
 30
0.0
 10
44.80505537367799
 20
409.1420416931476
 30
0.0
 10
44.59663512088859
 20
409.1420416931476
 30
0.0
 10
44.57236410972912
 20
409.1420416931476
 30
0.0
 10
44.5480578209423
 20
409.1420416931476
 30
0.0
 10
44.52375153215548
 20
409.1420416931476
 30
0.0
 10
44.34746920257235
 20
409.1420416931476
 30
0.0
 10
44.17122215062363
 20
409.1420416931476
 30
0.0
 10
43.99493982104114
 20
409.1420416931476
 30
0.0
 10
43.93771950112833
 20
409.1420416931476
 30
0.0
 10
43.88053445884994
 20
409.1420416931476
 30
0.0
 10
43.82331413894355
 20
409.1420416931476
 30
0.0
 10
43.67045615734062
 20
409.1420416931476
 30
0.0
 10
43.51759817573834
 20
409.1420416931476
 30
0.0
 10
43.36474019412579
 20
409.1420416931476
 30
0.0
 10
43.27795721819524
 20
409.1420416931476
 30
0.0
 10
43.19117424224801
 20
409.1420416931476
 30
0.0
 10
43.10439126631458
 20
409.1420416931476
 30
0.0
 10
42.9148798245421
 20
409.1420416931476
 30
0.0
 10
42.72536838277573
 20
409.1420416931476
 30
0.0
 10
42.53585694100294
 20
409.1420416931476
 30
0.0
 10
42.48149410933446
 20
409.1420416931476
 30
0.0
 10
42.42713127765186
 20
409.1420416931476
 30
0.0
 10
42.37276844597697
 20
409.1420416931476
 30
0.0
 10
42.19775611116687
 20
409.1420416931476
 30
0.0
 10
42.02270849871659
 20
409.1420416931476
 30
0.0
 10
41.84766088627946
 20
409.1420416931476
 30
0.0
 10
41.77474201990584
 20
409.1420416931476
 30
0.0
 10
41.70182315353831
 20
409.1420416931476
 30
0.0
 10
41.62886900953702
 20
409.1420416931476
 30
0.0
 10
41.40637298138416
 20
409.1420416931476
 30
0.0
 10
41.1838769532313
 20
409.1420416931476
 30
0.0
 10
40.96134564744466
 20
409.1420416931476
 30
0.0
 10
40.92529190704005
 20
409.1420416931476
 30
0.0
 10
40.88923816662999
 20
409.1420416931476
 30
0.0
 10
40.85318442621543
 20
409.1420416931476
 30
0.0
 10
40.6389080864353
 20
409.1420416931476
 30
0.0
 10
40.42466702428317
 20
409.1420416931476
 30
0.0
 10
40.21042596214324
 20
409.1420416931476
 30
0.0
 10
40.17553638360071
 20
409.1420416931476
 30
0.0
 10
40.14064680505755
 20
409.1420416931476
 30
0.0
 10
40.10575722652786
 20
409.1420416931476
 30
0.0
 10
39.86011907145283
 20
409.1420416931476
 30
0.0
 10
39.61444563875718
 20
409.1420416931476
 30
0.0
 10
39.36880748368183
 20
409.1420416931476
 30
0.0
 10
39.34090287637982
 20
409.1420416931476
 30
0.0
 10
39.31299826907718
 20
409.1420416931476
 30
0.0
 10
39.28509366176876
 20
409.1420416931476
 30
0.0
 10
39.10859966638937
 20
409.1420416931476
 30
0.0
 10
38.93210567101703
 20
409.1420416931476
 30
0.0
 10
38.75557639801028
 20
409.1420416931476
 30
0.0
 10
38.68325725139197
 20
409.1420416931476
 30
0.0
 10
38.61093810477399
 20
409.1420416931476
 30
0.0
 10
38.538618958156
 20
409.1420416931476
 30
0.0
 10
38.27234338807689
 20
409.1420416931476
 30
0.0
 10
38.00606781799777
 20
409.1420416931476
 30
0.0
 10
37.73979224791866
 20
409.1420416931476
 30
0.0
 10
37.60545502337393
 20
409.1420416931476
 30
0.0
 10
37.47111779882986
 20
409.1420416931476
 30
0.0
 10
37.33678057428449
 20
409.1420416931476
 30
0.0
 10
37.27596193585715
 20
409.1420416931476
 30
0.0
 10
37.21510801980821
 20
409.1420416931476
 30
0.0
 10
37.15428938138022
 20
409.1420416931476
 30
0.0
 10
37.06824723572439
 20
409.1420416931476
 30
0.0
 10
36.98216981243476
 20
409.1420416931476
 30
0.0
 10
36.89612766677892
 20
409.1420416931476
 30
0.0
 10
36.82768905973384
 20
409.1420416931476
 30
0.0
 10
36.75928573032895
 20
409.1420416931476
 30
0.0
 10
36.6908471232845
 20
409.1420416931476
 30
0.0
 10
36.36149514630186
 20
409.1420416931476
 30
0.0
 10
36.03210789168672
 20
409.1420416931476
 30
0.0
 10
35.70275591470761
 20
409.1420416931476
 30
0.0
 10
35.65019224228998
 20
409.1420416931476
 30
0.0
 10
35.59762856986915
 20
409.1420416931476
 30
0.0
 10
35.54502961981389
 20
409.1420416931476
 30
0.0
 10
35.44081949342544
 20
409.1420416931476
 30
0.0
 10
35.3365740893968
 20
409.1420416931476
 30
0.0
 10
35.23232868536815
 20
409.1420416931476
 30
0.0
 10
35.15796343607153
 20
409.1420416931476
 30
0.0
 10
35.08359818677233
 20
409.1420416931476
 30
0.0
 10
35.00926821509986
 20
409.1420416931476
 30
0.0
 10
34.85383496632733
 20
409.1420416931476
 30
0.0
 10
34.69840171754196
 20
409.1420416931476
 30
0.0
 10
34.54296846876687
 20
409.1420416931476
 30
0.0
 10
34.52017911817607
 20
409.1420416931476
 30
0.0
 10
34.49738976758591
 20
409.1420416931476
 30
0.0
 10
34.47456513936198
 20
409.1420416931476
 30
0.0
 10
34.31874383662686
 20
409.1420416931476
 30
0.0
 10
34.16288725625797
 20
409.1420416931476
 30
0.0
 10
34.00703067588972
 20
409.1420416931476
 30
0.0
 10
33.98519382137373
 20
409.1420416931476
 30
0.0
 10
33.96332168922461
 20
409.1420416931476
 30
0.0
 10
33.94148483470926
 20
409.1420416931476
 30
0.0
 10
33.81854228546635
 20
409.1420416931476
 30
0.0
 10
33.69556445858581
 20
409.1420416931476
 30
0.0
 10
33.57262190933328
 20
409.1420416931476
 30
0.0
 10
33.5185412987222
 20
409.1420416931476
 30
0.0
 10
33.46449596573142
 20
409.1420416931476
 30
0.0
 10
33.41041535512034
 20
409.1420416931476
 30
0.0
 10
33.33837842956007
 20
409.1420416931476
 30
0.0
 10
33.26634150400621
 20
409.1420416931476
 30
0.0
 10
33.19430457845172
 20
409.1420416931476
 30
0.0
 10
33.09016500731864
 20
409.1420416931476
 30
0.0
 10
32.98599015856397
 20
409.1420416931476
 30
0.0
 10
32.88181530979647
 20
409.1420416931476
 30
0.0
 10
32.84477379568006
 20
409.1420416931476
 30
0.0
 10
32.80769700393052
 20
409.1420416931476
 30
0.0
 10
32.77065548980128
 20
409.1420416931476
 30
0.0
 10
32.63247300332096
 20
409.1420416931476
 30
0.0
 10
32.49429051683359
 20
409.1420416931476
 30
0.0
 10
32.35607275270923
 20
409.1420416931476
 30
0.0
 10
32.19520674853047
 20
409.1420416931476
 30
0.0
 10
32.03434074435107
 20
409.1420416931476
 30
0.0
 10
31.87347474017231
 20
409.1420416931476
 30
0.0
 10
31.86017507272087
 20
409.1420416931476
 30
0.0
 10
31.84691068289743
 20
409.1420416931476
 30
0.0
 10
31.833611015446
 20
409.1420416931476
 30
0.0
 10
31.681246920698
 20
409.1420416931476
 30
0.0
 10
31.52888282594937
 20
409.1420416931476
 30
0.0
 10
31.37648345356055
 20
409.1420416931476
 30
0.0
 10
31.35591659382402
 20
409.1420416931476
 30
0.0
 10
31.3353497340753
 20
409.1420416931476
 30
0.0
 10
31.31478287432595
 20
409.1420416931476
 30
0.0
 10
31.15381103725163
 20
409.1420416931476
 30
0.0
 10
30.99283920017089
 20
409.1420416931476
 30
0.0
 10
30.83186736309656
 20
409.1420416931476
 30
0.0
 10
30.8212487957135
 20
409.1420416931476
 30
0.0
 10
30.81059495069665
 20
409.1420416931476
 30
0.0
 10
30.79994110567981
 20
409.1420416931476
 30
0.0
 10
30.4544319730229
 20
409.1420416931476
 30
0.0
 10
30.10888756271874
 20
409.1420416931476
 30
0.0
 10
29.76334315242805
 20
409.1420416931476
 30
0.0
 10
29.68827235047446
 20
409.1420416931476
 30
0.0
 10
29.61320154852086
 20
409.1420416931476
 30
0.0
 10
29.53809546893316
 20
409.1420416931476
 30
0.0
 10
29.44676167840268
 20
409.1420416931476
 30
0.0
 10
29.3554278878722
 20
409.1420416931476
 30
0.0
 10
29.26409409734171
 20
409.1420416931476
 30
0.0
 10
29.14556125215689
 20
409.1420416931476
 30
0.0
 10
29.02699312933155
 20
409.1420416931476
 30
0.0
 10
28.90846028414962
 20
409.1420416931476
 30
0.0
 10
28.8540621748403
 20
409.1420416931476
 30
0.0
 10
28.79966406553066
 20
409.1420416931476
 30
0.0
 10
28.74526595623129
 20
409.1420416931476
 30
0.0
 10
28.65541382625374
 20
409.1420416931476
 30
0.0
 10
28.56556169629288
 20
409.1420416931476
 30
0.0
 10
28.47567428869118
 20
409.1420416931476
 30
0.0
 10
28.39139602465594
 20
409.1420416931476
 30
0.0
 10
28.30708248299334
 20
409.1420416931476
 30
0.0
 10
28.22280421895843
 20
409.1420416931476
 30
0.0
 10
28.18435159954027
 20
409.1420416931476
 30
0.0
 10
28.14589898011635
 20
409.1420416931476
 30
0.0
 10
28.10744636069852
 20
409.1420416931476
 30
0.0
 10
27.92414378224782
 20
409.1420416931476
 30
0.0
 10
27.74084120379744
 20
409.1420416931476
 30
0.0
 10
27.55753862534706
 20
409.1420416931476
 30
0.0
 10
27.43025692730079
 20
409.1420416931476
 30
0.0
 10
27.30297522926126
 20
409.1420416931476
 30
0.0
 10
27.17572880884588
 20
409.1420416931476
 30
0.0
 10
27.11924931922415
 20
409.1420416931476
 30
0.0
 10
27.06273455196221
 20
409.1420416931476
 30
0.0
 10
27.00625506233438
 20
409.1420416931476
 30
0.0
 10
26.91823736925494
 20
409.1420416931476
 30
0.0
 10
26.83021967618192
 20
409.1420416931476
 30
0.0
 10
26.7422019831028
 20
409.1420416931476
 30
0.0
 10
26.68540499478314
 20
409.1420416931476
 30
0.0
 10
26.62864328410401
 20
409.1420416931476
 30
0.0
 10
26.57184629577794
 20
409.1420416931476
 30
0.0
 10
26.48414610139674
 20
409.1420416931476
 30
0.0
 10
26.39644590701521
 20
409.1420416931476
 30
0.0
 10
26.30874571262759
 20
409.1420416931476
 30
0.0
 10
26.21779997605648
 20
409.1420416931476
 30
0.0
 10
26.12685423947864
 20
409.1420416931476
 30
0.0
 10
26.03590850290111
 20
409.1420416931476
 30
0.0
 10
25.99078841094099
 20
409.1420416931476
 30
0.0
 10
25.94566831898056
 20
409.1420416931476
 30
0.0
 10
25.90054822701402
 20
409.1420416931476
 30
0.0
 10
25.71590509853651
 20
409.1420416931476
 30
0.0
 10
25.53122669241785
 20
409.1420416931476
 30
0.0
 10
25.3465482862995
 20
409.1420416931476
 30
0.0
 10
25.24233815991105
 20
409.1420416931476
 30
0.0
 10
25.13809275588241
 20
409.1420416931476
 30
0.0
 10
25.03384735185377
 20
409.1420416931476
 30
0.0
 10
24.95327323923537
 20
409.1420416931476
 30
0.0
 10
24.87269912661697
 20
409.1420416931476
 30
0.0
 10
24.79208973635805
 20
409.1420416931476
 30
0.0
 10
24.72072308582129
 20
409.1420416931476
 30
0.0
 10
24.64935643528421
 20
409.1420416931476
 30
0.0
 10
24.57795450710694
 20
409.1420416931476
 30
0.0
 10
24.52704888341788
 20
409.1420416931476
 30
0.0
 10
24.47610798209505
 20
409.1420416931476
 30
0.0
 10
24.42520235839957
 20
409.1420416931476
 30
0.0
 10
24.33231635204475
 20
409.1420416931476
 30
0.0
 10
24.23943034567772
 20
409.1420416931476
 30
0.0
 10
24.14654433931647
 20
409.1420416931476
 30
0.0
 10
23.80713823707358
 20
409.1420416931476
 30
0.0
 10
23.46773213483069
 20
409.1420416931476
 30
0.0
 10
23.12832603258748
 20
409.1420416931476
 30
0.0
 10
23.04863386078564
 20
409.1420416931476
 30
0.0
 10
22.96894168897128
 20
409.1420416931476
 30
0.0
 10
22.88924951715982
 20
409.1420416931476
 30
0.0
 10
22.78429856048672
 20
409.1420416931476
 30
0.0
 10
22.67934760381362
 20
409.1420416931476
 30
0.0
 10
22.57439664714052
 20
409.1420416931476
 30
0.0
 10
22.52606629061786
 20
409.1420416931476
 30
0.0
 10
22.4777359340952
 20
409.1420416931476
 30
0.0
 10
22.42937029994517
 20
409.1420416931476
 30
0.0
 10
22.37920550653435
 20
409.1420416931476
 30
0.0
 10
22.32900543549617
 20
409.1420416931476
 30
0.0
 10
22.27884064208502
 20
409.1420416931476
 30
0.0
 10
22.19297488459198
 20
409.1420416931476
 30
0.0
 10
22.10707384945874
 20
409.1420416931476
 30
0.0
 10
22.02120809196538
 20
409.1420416931476
 30
0.0
 10
21.65347405083375
 20
409.1420416931476
 30
0.0
 10
21.28574000968865
 20
409.1420416931476
 30
0.0
 10
20.91800596855701
 20
409.1420416931476
 30
0.0
 10
20.86777061987831
 20
409.1420416931476
 30
0.0
 10
20.81753527120603
 20
409.1420416931476
 30
0.0
 10
20.76729992253374
 20
409.1420416931476
 30
0.0
 10
20.63437380329076
 20
409.1420416931476
 30
0.0
 10
20.50141240641401
 20
409.1420416931476
 30
0.0
 10
20.36848628716493
 20
409.1420416931476
 30
0.0
 10
20.34901303403192
 20
409.1420416931476
 30
0.0
 10
20.32953978089313
 20
409.1420416931476
 30
0.0
 10
20.31006652775337
 20
409.1420416931476
 30
0.0
 10
19.96501600431024
 20
409.1420416931476
 30
0.0
 10
19.61993020323333
 20
409.1420416931476
 30
0.0
 10
19.27484440215643
 20
409.1420416931476
 30
0.0
 10
19.21335548871808
 20
409.1420416931476
 30
0.0
 10
19.1519018529132
 20
409.1420416931476
 30
0.0
 10
19.09041293946844
 20
409.1420416931476
 30
0.0
 10
18.97068065477492
 20
409.1420416931476
 30
0.0
 10
18.85094837008814
 20
409.1420416931476
 30
0.0
 10
18.73125136302872
 20
409.1420416931476
 30
0.0
 10
18.70239425964517
 20
409.1420416931476
 30
0.0
 10
18.67353715626803
 20
409.1420416931476
 30
0.0
 10
18.64471533051217
 20
409.1420416931476
 30
0.0
 10
18.49651399640089
 20
409.1420416931476
 30
0.0
 10
18.34834793991697
 20
409.1420416931476
 30
0.0
 10
18.2001466057996
 20
409.1420416931476
 30
0.0
 10
18.19679523071445
 20
409.1420416931476
 30
0.0
 10
18.19344385562963
 20
409.1420416931476
 30
0.0
 10
18.1900924805448
 20
409.1420416931476
 30
0.0
 10
18.02795648158979
 20
409.1420416931476
 30
0.0
 10
17.86582048264087
 20
409.1420416931476
 30
0.0
 10
17.70368448368265
 20
409.1420416931476
 30
0.0
 10
17.64353612028459
 20
409.1420416931476
 30
0.0
 10
17.58342303450747
 20
409.1420416931476
 30
0.0
 10
17.52327467110299
 20
409.1420416931476
 30
0.0
 10
17.42022870658561
 20
409.1420416931476
 30
0.0
 10
17.31718274206566
 20
409.1420416931476
 30
0.0
 10
17.21413677753866
 20
409.1420416931476
 30
0.0
 10
17.14717983106287
 20
409.1420416931476
 30
0.0
 10
17.08018760695331
 20
409.1420416931476
 30
0.0
 10
17.01323066047753
 20
409.1420416931476
 30
0.0
 10
16.69386225348951
 20
409.1420416931476
 30
0.0
 10
16.37449384650726
 20
409.1420416931476
 30
0.0
 10
16.05516071715301
 20
409.1420416931476
 30
0.0
 10
15.97532743481285
 20
409.1420416931476
 30
0.0
 10
15.89549415247878
 20
409.1420416931476
 30
0.0
 10
15.81566087013861
 20
409.1420416931476
 30
0.0
 10
15.72044654002881
 20
409.1420416931476
 30
0.0
 10
15.62523220992543
 20
409.1420416931476
 30
0.0
 10
15.53005315744909
 20
409.1420416931476
 30
0.0
 10
15.5118146214486
 20
409.1420416931476
 30
0.0
 10
15.49361136308222
 20
409.1420416931476
 30
0.0
 10
15.47537282708526
 20
409.1420416931476
 30
0.0
 10
15.31986902303876
 20
409.1420416931476
 30
0.0
 10
15.16440049662924
 20
409.1420416931476
 30
0.0
 10
15.00889669258594
 20
409.1420416931476
 30
0.0
 10
14.99669063174507
 20
409.1420416931476
 30
0.0
 10
14.98448457090099
 20
409.1420416931476
 30
0.0
 10
14.97231378769037
 20
409.1420416931476
 30
0.0
 10
14.81215333615574
 20
409.1420416931476
 30
0.0
 10
14.65202816226132
 20
409.1420416931476
 30
0.0
 10
14.49190298836015
 20
409.1420416931476
 30
0.0
 10
14.41404525344069
 20
409.1420416931476
 30
0.0
 10
14.33618751852059
 20
409.1420416931476
 30
0.0
 10
14.2583297836037
 20
409.1420416931476
 30
0.0
 10
14.18089538027387
 20
409.1420416931476
 30
0.0
 10
14.10349625457782
 20
409.1420416931476
 30
0.0
 10
14.02606185125409
 20
409.1420416931476
 30
0.0
 10
13.97624983416854
 20
409.1420416931476
 30
0.0
 10
13.92643781708331
 20
409.1420416931476
 30
0.0
 10
13.87662579999745
 20
409.1420416931476
 30
0.0
 10
13.58505616741651
 20
409.1420416931476
 30
0.0
 10
13.29348653483557
 20
409.1420416931476
 30
0.0
 10
13.00188162462662
 20
409.1420416931476
 30
0.0
 10
12.93919327168343
 20
409.1420416931476
 30
0.0
 10
12.87654019636728
 20
409.1420416931476
 30
0.0
 10
12.81385184342377
 20
409.1420416931476
 30
0.0
 10
12.7161680790425
 20
409.1420416931476
 30
0.0
 10
12.61848431466122
 20
409.1420416931476
 30
0.0
 10
12.52080055027995
 20
409.1420416931476
 30
0.0
 10
12.49166122583868
 20
409.1420416931476
 30
0.0
 10
12.46252190140062
 20
409.1420416931476
 30
0.0
 10
12.43338257695614
 20
409.1420416931476
 30
0.0
 10
12.1190941490526
 20
409.1420416931476
 30
0.0
 10
11.80480572114232
 20
409.1420416931476
 30
0.0
 10
11.49048201560468
 20
409.1420416931476
 30
0.0
 10
11.44955996190928
 20
409.1420416931476
 30
0.0
 10
11.40863790821356
 20
409.1420416931476
 30
0.0
 10
11.36771585451783
 20
409.1420416931476
 30
0.0
 10
11.28121509963827
 20
409.1420416931476
 30
0.0
 10
11.19471434475902
 20
409.1420416931476
 30
0.0
 10
11.10821358987946
 20
409.1420416931476
 30
0.0
 10
11.05392131346859
 20
409.1420416931476
 30
0.0
 10
10.99966431468797
 20
409.1420416931476
 30
0.0
 10
10.94540731591056
 20
409.1420416931476
 30
0.0
 10
10.65168574774996
 20
409.1420416931476
 30
0.0
 10
10.35796417958872
 20
409.1420416931476
 30
0.0
 10
10.06420733379113
 20
409.1420416931476
 30
0.0
 10
10.01178477190509
 20
409.1420416931476
 30
0.0
 10
9.959362210016163
 20
409.1420416931476
 30
0.0
 10
9.906939648126913
 20
409.1420416931476
 30
0.0
 10
9.85314125857034
 20
409.1420416931476
 30
0.0
 10
9.799342869013445
 20
409.1420416931476
 30
0.0
 10
9.74554447946008
 20
409.1420416931476
 30
0.0
 10
9.686595555557561
 20
409.1420416931476
 30
0.0
 10
9.62761135402415
 20
409.1420416931476
 30
0.0
 10
9.568662430121313
 20
409.1420416931476
 30
0.0
 10
9.427304956712232
 20
409.1420416931476
 30
0.0
 10
9.285982760937253
 20
409.1420416931476
 30
0.0
 10
9.144660565154895
 20
409.1420416931476
 30
0.0
 10
9.064580339387582
 20
409.1420416931476
 30
0.0
 10
8.984500113623477
 20
409.1420416931476
 30
0.0
 10
8.904419887856164
 20
409.1420416931476
 30
0.0
 10
8.836722111098616
 20
409.1420416931476
 30
0.0
 10
8.769059611969073
 20
409.1420416931476
 30
0.0
 10
8.701361835211523
 20
409.1420416931476
 30
0.0
 10
8.660298670987423
 20
409.1420416931476
 30
0.0
 10
8.61923550676589
 20
409.1420416931476
 30
0.0
 10
8.578172342535373
 20
409.1420416931476
 30
0.0
 10
8.32406755566656
 20
409.1420416931476
 30
0.0
 10
8.069962768797748
 20
409.1420416931476
 30
0.0
 10
7.815857981928934
 20
409.1420416931476
 30
0.0
 10
7.768409566223151
 20
409.1420416931476
 30
0.0
 10
7.720961150520576
 20
409.1420416931476
 30
0.0
 10
7.673512734807735
 20
409.1420416931476
 30
0.0
 10
7.299569830351126
 20
409.1420416931476
 30
0.0
 10
6.925591648263303
 20
409.1420416931476
 30
0.0
 10
6.551648743806052
 20
409.1420416931476
 30
0.0
 10
6.506140597886558
 20
409.1420416931476
 30
0.0
 10
6.460632451967064
 20
409.1420416931476
 30
0.0
 10
6.415159583678462
 20
409.1420416931476
 30
0.0
 10
6.406587118983343
 20
409.1420416931476
 30
0.0
 10
6.398014654288223
 20
409.1420416931476
 30
0.0
 10
6.389442189589897
 20
409.1420416931476
 30
0.0
 10
6.300824776761243
 20
409.1420416931476
 30
0.0
 10
6.212242641563161
 20
409.1420416931476
 30
0.0
 10
6.123625228734508
 20
409.1420416931476
 30
0.0
 10
6.082703175038786
 20
409.1420416931476
 30
0.0
 10
6.041781121343063
 20
409.1420416931476
 30
0.0
 10
6.000859067647661
 20
409.1420416931476
 30
0.0
 10
5.873753757763869
 20
409.1420416931476
 30
0.0
 10
5.74664844788072
 20
409.1420416931476
 30
0.0
 10
5.619543137997249
 20
409.1420416931476
 30
0.0
 10
5.531631277819789
 20
409.1420416931476
 30
0.0
 10
5.443754695271937
 20
409.1420416931476
 30
0.0
 10
5.355878112721519
 20
409.1420416931476
 30
0.0
 10
5.238050820190456
 20
409.1420416931476
 30
0.0
 10
5.120258805286755
 20
409.1420416931476
 30
0.0
 10
5.002431512749276
 20
409.1420416931476
 30
0.0
 10
4.992659608545782
 20
409.1420416931476
 30
0.0
 10
4.982852426711716
 20
409.1420416931476
 30
0.0
 10
4.97308052251143
 20
409.1420416931476
 30
0.0
 10
4.805053158935766
 20
409.1420416931476
 30
0.0
 10
4.637061072987464
 20
409.1420416931476
 30
0.0
 10
4.469068987045258
 20
409.1420416931476
 30
0.0
 10
4.389976534983327
 20
409.1420416931476
 30
0.0
 10
4.310884082927813
 20
409.1420416931476
 30
0.0
 10
4.231791630872299
 20
409.1420416931476
 30
0.0
 10
4.139187845572298
 20
409.1420416931476
 30
0.0
 10
4.046619337906076
 20
409.1420416931476
 30
0.0
 10
3.954015552599658
 20
409.1420416931476
 30
0.0
 10
3.927169274267067
 20
409.1420416931476
 30
0.0
 10
3.900322995940892
 20
409.1420416931476
 30
0.0
 10
3.873511995245608
 20
409.1420416931476
 30
0.0
 10
3.734765066636382
 20
409.1420416931476
 30
0.0
 10
3.596053415664785
 20
409.1420416931476
 30
0.0
 10
3.457341764689339
 20
409.1420416931476
 30
0.0
 10
3.365549364935771
 20
409.1420416931476
 30
0.0
 10
3.27379224281502
 20
409.1420416931476
 30
0.0
 10
3.181999843057603
 20
409.1420416931476
 30
0.0
 10
3.114372621565046
 20
409.1420416931476
 30
0.0
 10
3.046745400065751
 20
409.1420416931476
 30
0.0
 10
2.979082900942302
 20
409.1420416931476
 30
0.0
 10
2.935726690605995
 20
409.1420416931476
 30
0.0
 10
2.89233520263591
 20
409.1420416931476
 30
0.0
 10
2.848943714665503
 20
409.1420416931476
 30
0.0
 10
2.739053889439829
 20
409.1420416931476
 30
0.0
 10
2.629164064214474
 20
409.1420416931476
 30
0.0
 10
2.519274238992329
 20
409.1420416931476
 30
0.0
 10
2.421378808817364
 20
409.1420416931476
 30
0.0
 10
2.323448101006374
 20
409.1420416931476
 30
0.0
 10
2.22555267082788
 20
409.1420416931476
 30
0.0
 10
2.176340373495077
 20
409.1420416931476
 30
0.0
 10
2.127092798531704
 20
409.1420416931476
 30
0.0
 10
2.077880501201789
 20
409.1420416931476
 30
0.0
 10
2.028421260441839
 20
409.1420416931476
 30
0.0
 10
1.978926742050676
 20
409.1420416931476
 30
0.0
 10
1.929467501290726
 20
409.1420416931476
 30
0.0
 10
1.837922044963664
 20
409.1420416931476
 30
0.0
 10
1.746376588639811
 20
409.1420416931476
 30
0.0
 10
1.654831132313071
 20
409.1420416931476
 30
0.0
 10
1.637403981858377
 20
409.1420416931476
 30
0.0
 10
1.619941553770226
 20
409.1420416931476
 30
0.0
 10
1.602514403325478
 20
409.1420416931476
 30
0.0
 10
1.485039887106858
 20
409.1420416931476
 30
0.0
 10
1.367530093257987
 20
409.1420416931476
 30
0.0
 10
1.2500555770522
 20
409.1420416931476
 30
0.0
 10
1.196539408556232
 20
409.1420416931476
 30
0.0
 10
1.143023240057376
 20
409.1420416931476
 30
0.0
 10
1.089542349201604
 20
409.1420416931476
 30
0.0
 10
1.014154048546885
 20
409.1420416931476
 30
0.0
 10
0.9388010255384591
 20
409.1420416931476
 30
0.0
 10
0.8634127248962541
 20
409.1420416931476
 30
0.0
 10
0.8285231463569381
 20
409.1420416931476
 30
0.0
 10
0.7935982901934688
 20
409.1420416931476
 30
0.0
 10
0.7586734340165238
 20
409.1420416931476
 30
0.0
 10
0.6707262962017557
 20
409.1420416931476
 30
0.0
 10
0.5827791583901961
 20
409.1420416931476
 30
0.0
 10
0.4947967429413284
 20
409.1420416931476
 30
0.0
  0
ENDBLK
  5
11D
330
11A
100
AcDbEntity
  8
0
100
AcDbBlockEnd
  0
BLOCK
  5
122
330
120
100
AcDbEntity
  8
0
100
AcDbBlockBegin
  2
block 42
 70
     0
 10
0.0
 20
0.0
 30
0.0
  3
block 42
  1

  0
SPLINE
  5
124
330
120
100
AcDbEntity
  8
0
 62
   250
370
    25
100
AcDbSpline
210
0.0
220
0.0
230
1.0
 70
     8
 71
     3
 72
    11
 73
     7
 74
     0
 42
0.0000000001
 43
0.0000000001
 12
1.0
 22
0.0
 32
0.0
 13
1.0
 23
0.0
 33
0.0
 40
0.0
 40
0.0
 40
0.0
 40
0.0
 40
1.0
 40
1.0
 40
1.0
 40
2.0
 40
2.0
 40
2.0
 40
2.0
 10
-149.0105045024457
 20
419.5038231874852
 30
0.0
 10
-157.9714112103665
 20
419.5038231874852
 30
0.0
 10
-166.9323179182972
 20
419.5038231874852
 30
0.0
 10
-175.8932246262183
 20
419.5038231874852
 30
0.0
 10
-178.2822258988448
 20
419.5040701309171
 30
0.0
 10
-180.5060925737568
 20
420.72284177838
 30
0.0
 10
-181.791715334806
 20
422.7364184859867
 30
0.0
  0
ENDBLK
  5
123
330
120
100
AcDbEntity
  8
0
100
AcDbBlockEnd
  0
BLOCK
  5
127
330
125
100
AcDbEntity
  8
0
100
AcDbBlockBegin
  2
block 43
 70
     0
 10
0.0
 20
0.0
 30
0.0
  3
block 43
  1

  0
SPLINE
  5
129
330
125
100
AcDbEntity
  8
0
 62
   250
370
    25
100
AcDbSpline
210
0.0
220
0.0
230
1.0
 70
     8
 71
     3
 72
    11
 73
     7
 74
     0
 42
0.0000000001
 43
0.0000000001
 12
1.0
 22
0.0
 32
0.0
 13
1.0
 23
0.0
 33
0.0
 40
0.0
 40
0.0
 40
0.0
 40
0.0
 40
1.0
 40
1.0
 40
1.0
 40
2.0
 40
2.0
 40
2.0
 40
2.0
 10
-149.0105045024457
 20
419.5038231874852
 30
0.0
 10
-145.9504521044789
 20
419.5041759638095
 30
0.0
 10
-142.9632480176185
 20
420.4374810091202
 30
0.0
 10
-140.4472472680098
 20
422.179208280709
 30
0.0
 10
-140.0707290963798
 20
422.4398041519631
 30
0.0
 10
-139.6936112050005
 20
422.699553360029
 30
0.0
 10
-139.3158935938653
 20
422.9584559049139
 30
0.0
  0
ENDBLK
  5
128
330
125
100
AcDbEntity
  8
0
100
AcDbBlockEnd
  0
BLOCK
  5
12C
330
12A
100
AcDbEntity
  8
0
100
AcDbBlockBegin
  2
block 44
 70
     0
 10
0.0
 20
0.0
 30
0.0
  3
block 44
  1

  0
SPLINE
  5
12E
330
12A
100
AcDbEntity
  8
0
  6
AI-Linetype-22
 62
     6
370
    25
100
AcDbSpline
210
0.0
220
0.0
230
1.0
 70
     8
 71
     3
 72
    14
 73
    10
 74
     0
 42
0.0000000001
 43
0.0000000001
 12
1.0
 22
0.0
 32
0.0
 13
1.0
 23
0.0
 33
0.0
 40
0.0
 40
0.0
 40
0.0
 40
0.0
 40
1.0
 40
1.0
 40
1.0
 40
2.0
 40
2.0
 40
2.0
 40
3.0
 40
3.0
 40
3.0
 40
3.0
 10
-27.14903830193224
 20
457.5036894726069
 30
0.0
 10
-51.16541550778166
 20
459.4355984609817
 30
0.0
 10
-74.16689050435602
 20
463.9331791055246
 30
0.0
 10
-97.06690702987466
 20
471.5003371087965
 30
0.0
 10
-103.0043418365515
 20
473.6244049231418
 30
0.0
 10
-135.1720450256114
 20
486.9216175503587
 30
0.0
 10
-143.2800764350678
 20
491.503530841906
 30
0.0
 10
-163.120856303295
 20
502.7157139726851
 30
0.0
 10
-181.3525088102325
 20
515.1512215105425
 30
0.0
 10
-198.0379470399984
 20
530.7285893036147
 30
0.0
  0
ENDBLK
  5
12D
330
12A
100
AcDbEntity
  8
0
100
AcDbBlockEnd
  0
BLOCK
  5
132
330
130
100
AcDbEntity
  8
0
100
AcDbBlockBegin
  2
block 45
 70
     0
 10
0.0
 20
0.0
 30
0.0
  3
block 45
  1

  0
SPLINE
  5
134
330
130
100
AcDbEntity
  8
0
 62
   250
370
    25
100
AcDbSpline
210
0.0
220
0.0
230
1.0
 70
     8
 71
     3
 72
     8
 73
     4
 74
     0
 42
0.0000000001
 43
0.0000000001
 12
1.0
 22
0.0
 32
0.0
 13
1.0
 23
0.0
 33
0.0
 40
0.0
 40
0.0
 40
0.0
 40
0.0
 40
1.0
 40
1.0
 40
1.0
 40
1.0
 10
-139.3158935938653
 20
422.9584559049139
 30
0.0
 10
-136.338849465161
 20
424.998914168479
 30
0.0
 10
-133.3274449224151
 20
426.9840218266611
 30
0.0
 10
-130.2787871997469
 20
428.9157897045067
 30
0.0
  0
ENDBLK
  5
133
330
130
100
AcDbEntity
  8
0
100
AcDbBlockEnd
  0
BLOCK
  5
137
330
135
100
AcDbEntity
  8
0
100
AcDbBlockBegin
  2
block 46
 70
     0
 10
0.0
 20
0.0
 30
0.0
  3
block 46
  1

  0
SPLINE
  5
139
330
135
100
AcDbEntity
  8
0
  6
AI-Linetype-23
 62
     6
370
    25
100
AcDbSpline
210
0.0
220
0.0
230
1.0
 70
     8
 71
     3
 72
    20
 73
    16
 74
     0
 42
0.0000000001
 43
0.0000000001
 12
1.0
 22
0.0
 32
0.0
 13
1.0
 23
0.0
 33
0.0
 40
0.0
 40
0.0
 40
0.0
 40
0.0
 40
1.0
 40
1.0
 40
1.0
 40
2.0
 40
2.0
 40
2.0
 40
3.0
 40
3.0
 40
3.0
 40
4.0
 40
4.0
 40
4.0
 40
5.0
 40
5.0
 40
5.0
 40
5.0
 10
-4.518507611052057
 20
456.5485475727802
 30
0.0
 10
-6.129037367390795
 20
456.5453020305922
 30
0.0
 10
-7.739496568458766
 20
456.5501703438724
 30
0.0
 10
-9.349955769533475
 20
456.5630819573651
 30
0.0
 10
-9.349955769533475
 20
456.5630819573651
 30
0.0
 10
-9.352072427479674
 20
456.5633994560633
 30
0.0
 10
-9.352072427479674
 20
456.5633994560633
 30
0.0
 10
-11.13870812524164
 20
456.6094367664655
 30
0.0
 10
-12.92470882561419
 20
456.6698320733012
 30
0.0
 10
-14.71035674965473
 20
456.7445500989267
 30
0.0
 10
-18.83212477521874
 20
456.9166696678741
 30
0.0
 10
-22.94676671901386
 20
457.1676347454495
 30
0.0
 10
-27.0589039509066
 20
457.4976922750808
 30
0.0
 10
-21.15603881588851
 20
457.188942435479
 30
0.0
 10
-15.25320895850741
 20
456.8801573182406
 30
0.0
 10
-9.3503791011231
 20
456.5714074786321
 30
0.0
  0
ENDBLK
  5
138
330
135
100
AcDbEntity
  8
0
100
AcDbBlockEnd
  0
BLOCK
  5
13D
330
13B
100
AcDbEntity
  8
0
100
AcDbBlockBegin
  2
block 47
 70
     0
 10
0.0
 20
0.0
 30
0.0
  3
block 47
  1

  0
SPLINE
  5
13F
330
13B
100
AcDbEntity
  8
0
 62
   250
370
    25
100
AcDbSpline
210
0.0
220
0.0
230
1.0
 70
     8
 71
     3
 72
    11
 73
     7
 74
     0
 42
0.0000000001
 43
0.0000000001
 12
1.0
 22
0.0
 32
0.0
 13
1.0
 23
0.0
 33
0.0
 40
0.0
 40
0.0
 40
0.0
 40
0.0
 40
1.0
 40
1.0
 40
1.0
 40
2.0
 40
2.0
 40
2.0
 40
2.0
 10
504.439339988317
 20
572.7412862851497
 30
0.0
 10
504.2227353247928
 20
573.0822093255912
 30
0.0
 10
503.9780496657984
 20
573.3935344323689
 30
0.0
 10
503.6979452637797
 20
573.6845396228271
 30
0.0
 10
503.6979452637797
 20
573.6845396228271
 30
0.0
 10
503.700591086222
 20
573.6890198821499
 30
0.0
 10
503.7015083046624
 20
573.6914893164268
 30
0.0
  0
ENDBLK
  5
13E
330
13B
100
AcDbEntity
  8
0
100
AcDbBlockEnd
  0
BLOCK
  5
142
330
140
100
AcDbEntity
  8
0
100
AcDbBlockBegin
  2
block 48
 70
     0
 10
0.0
 20
0.0
 30
0.0
  3
block 48
  1

  0
SPLINE
  5
144
330
140
100
AcDbEntity
  8
0
 62
   250
370
    25
100
AcDbSpline
210
0.0
220
0.0
230
1.0
 70
     8
 71
     3
 72
    14
 73
    10
 74
     0
 42
0.0000000001
 43
0.0000000001
 12
1.0
 22
0.0
 32
0.0
 13
1.0
 23
0.0
 33
0.0
 40
0.0
 40
0.0
 40
0.0
 40
0.0
 40
1.0
 40
1.0
 40
1.0
 40
2.0
 40
2.0
 40
2.0
 40
3.0
 40
3.0
 40
3.0
 40
3.0
 10
499.3948149295606
 20
575.5236684377311
 30
0.0
 10
501.0189971296764
 20
575.5183415152306
 30
0.0
 10
502.5716010134486
 20
574.854733970345
 30
0.0
 10
503.6979452637797
 20
573.6845396228271
 30
0.0
 10
503.6979452637797
 20
573.6845396228271
 30
0.0
 10
503.6945938886959
 20
573.6791068674166
 30
0.0
 10
503.6945938886959
 20
573.6791068674166
 30
0.0
 10
504.7589906163618
 20
572.5748111373971
 30
0.0
 10
505.2591921675242
 20
571.445221344878
 30
0.0
 10
505.3613914688604
 20
569.9148776472088
 30
0.0
  0
ENDBLK
  5
143
330
140
100
AcDbEntity
  8
0
100
AcDbBlockEnd
  0
BLOCK
  5
147
330
145
100
AcDbEntity
  8
0
100
AcDbBlockBegin
  2
block 49
 70
     0
 10
0.0
 20
0.0
 30
0.0
  3
block 49
  1

  0
SPLINE
  5
149
330
145
100
AcDbEntity
  8
0
 62
   250
370
    25
100
AcDbSpline
210
0.0
220
0.0
230
1.0
 70
     8
 71
     3
 72
    11
 73
     7
 74
     0
 42
0.0000000001
 43
0.0000000001
 12
1.0
 22
0.0
 32
0.0
 13
1.0
 23
0.0
 33
0.0
 40
0.0
 40
0.0
 40
0.0
 40
0.0
 40
1.0
 40
1.0
 40
1.0
 40
2.0
 40
2.0
 40
2.0
 40
2.0
 10
-293.114553269274
 20
573.6756849370701
 30
0.0
 10
-293.114553269274
 20
573.6756849370701
 30
0.0
 10
-293.1162113179994
 20
573.6789657568947
 30
0.0
 10
-293.1171638140742
 20
573.680588527987
 30
0.0
 10
-293.1872957474788
 20
573.6078107721485
 30
0.0
 10
-293.2554521334626
 20
573.5333749675846
 30
0.0
 10
-293.321809360186
 20
573.4571752813854
 30
0.0
  0
ENDBLK
  5
148
330
145
100
AcDbEntity
  8
0
100
AcDbBlockEnd
  0
BLOCK
  5
14C
330
14A
100
AcDbEntity
  8
0
100
AcDbBlockBegin
  2
block 50
 70
     0
 10
0.0
 20
0.0
 30
0.0
  3
block 50
  1

  0
SPLINE
  5
14E
330
14A
100
AcDbEntity
  8
0
 62
   250
370
    25
100
AcDbSpline
210
0.0
220
0.0
230
1.0
 70
     8
 71
     3
 72
    11
 73
     7
 74
     0
 42
0.0000000001
 43
0.0000000001
 12
1.0
 22
0.0
 32
0.0
 13
1.0
 23
0.0
 33
0.0
 40
0.0
 40
0.0
 40
0.0
 40
0.0
 40
1.0
 40
1.0
 40
1.0
 40
2.0
 40
2.0
 40
2.0
 40
2.0
 10
-293.1232668445011
 20
573.6914540387936
 30
0.0
 10
-293.1217499063012
 20
573.687502943957
 30
0.0
 10
-293.1192804720272
 20
573.6841515688661
 30
0.0
 10
-293.1171638140742
 20
573.680588527987
 30
0.0
 10
-291.9894084584481
 20
574.850959263667
 30
0.0
 10
-290.4350759706762
 20
575.5137554230015
 30
0.0
 10
-288.8097648863235
 20
575.5173537415208
 30
0.0
  0
ENDBLK
  5
14D
330
14A
100
AcDbEntity
  8
0
100
AcDbBlockEnd
  0
BLOCK
  5
151
330
14F
100
AcDbEntity
  8
0
100
AcDbBlockBegin
  2
block 51
 70
     0
 10
0.0
 20
0.0
 30
0.0
  3
block 51
  1

  0
SPLINE
  5
153
330
14F
100
AcDbEntity
  8
0
 62
   250
370
    25
100
AcDbSpline
210
0.0
220
0.0
230
1.0
 70
     8
 71
     3
 72
     8
 73
     4
 74
     0
 42
0.0000000001
 43
0.0000000001
 12
1.0
 22
0.0
 32
0.0
 13
1.0
 23
0.0
 33
0.0
 40
0.0
 40
0.0
 40
0.0
 40
0.0
 40
1.0
 40
1.0
 40
1.0
 40
1.0
 10
447.5329787702742
 20
529.5958153928954
 30
0.0
 10
441.1852979671179
 20
515.9831647864194
 30
0.0
 10
435.2608198822255
 20
503.2780756848174
 30
0.0
 10
428.9131390790686
 20
489.6653898007118
 30
0.0
  0
ENDBLK
  5
152
330
14F
100
AcDbEntity
  8
0
100
AcDbBlockEnd
  0
BLOCK
  5
156
330
154
100
AcDbEntity
  8
0
100
AcDbBlockBegin
  2
block 52
 70
     0
 10
0.0
 20
0.0
 30
0.0
  3
block 52
  1

  0
SPLINE
  5
158
330
154
100
AcDbEntity
  8
0
  6
AI-Linetype-24
 62
     6
370
    25
100
AcDbSpline
210
0.0
220
0.0
230
1.0
 70
     8
 71
     3
 72
    35
 73
    31
 74
     0
 42
0.0000000001
 43
0.0000000001
 12
1.0
 22
0.0
 32
0.0
 13
1.0
 23
0.0
 33
0.0
 40
0.0
 40
0.0
 40
0.0
 40
0.0
 40
1.0
 40
1.0
 40
1.0
 40
2.0
 40
2.0
 40
2.0
 40
3.0
 40
3.0
 40
3.0
 40
4.0
 40
4.0
 40
4.0
 40
5.0
 40
5.0
 40
5.0
 40
6.0
 40
6.0
 40
6.0
 40
7.0
 40
7.0
 40
7.0
 40
8.0
 40
8.0
 40
8.0
 40
9.0
 40
9.0
 40
9.0
 40
10.0
 40
10.0
 40
10.0
 40
10.0
 10
299.309255597046
 20
563.0983218305449
 30
0.0
 10
298.9126997301566
 20
562.9250733773615
 30
0.0
 10
298.5185780199119
 20
562.7461452253395
 30
0.0
 10
298.1265729676157
 20
562.5628426468908
 30
0.0
 10
297.7226087979067
 20
562.373930924873
 30
0.0
 10
297.3208671190392
 20
562.1803272777372
 30
0.0
 10
296.9215595968196
 20
561.981784762044
 30
0.0
 10
296.1242498247796
 20
561.5853347280581
 30
0.0
 10
295.336711956944
 20
561.1691292198755
 30
0.0
 10
294.558628494612
 20
560.736096280986
 30
0.0
 10
292.8462522132544
 20
559.783071039108
 30
0.0
 10
291.1795957436192
 20
558.7485544661603
 30
0.0
 10
289.5552018777142
 20
557.652443146882
 30
0.0
 10
288.8909946130796
 20
557.2041702707589
 30
0.0
 10
288.2335606538823
 20
556.7465488220192
 30
0.0
 10
287.5824766685354
 20
556.279402412507
 30
0.0
 10
283.9068295835224
 20
553.6436693782083
 30
0.0
 10
280.4596757241756
 20
550.757359320285
 30
0.0
 10
277.0772915980995
 20
547.7655338635674
 30
0.0
 10
276.5593806754262
 20
547.3078065819387
 30
0.0
 10
276.0458441791876
 20
546.8482095857821
 30
0.0
 10
275.5336482329747
 20
546.3871662066923
 30
0.0
 10
274.8570232417024
 20
545.7781331592778
 30
0.0
 10
274.1826560189123
 20
545.1665601223309
 30
0.0
 10
273.510052677747
 20
544.5530468156007
 30
0.0
 10
271.0678174576858
 20
542.3254407116394
 30
0.0
 10
268.6486538092728
 20
540.0727169333443
 30
0.0
 10
266.2115338459228
 20
537.8395369634542
 30
0.0
 10
265.3048281355149
 20
537.0087134405409
 30
0.0
 10
264.3956529908285
 20
536.1805710176998
 30
0.0
 10
263.4819270315514
 20
535.357473296301
 30
0.0
  0
ENDBLK
  5
157
330
154
100
AcDbEntity
  8
0
100
AcDbBlockEnd
  0
BLOCK
  5
15C
330
15A
100
AcDbEntity
  8
0
100
AcDbBlockBegin
  2
block 53
 70
     0
 10
0.0
 20
0.0
 30
0.0
  3
block 53
  1

  0
SPLINE
  5
15E
330
15A
100
AcDbEntity
  8
0
 62
   250
370
    25
100
AcDbSpline
210
0.0
220
0.0
230
1.0
 70
     8
 71
     3
 72
     8
 73
     4
 74
     0
 42
0.0000000001
 43
0.0000000001
 12
1.0
 22
0.0
 32
0.0
 13
1.0
 23
0.0
 33
0.0
 40
0.0
 40
0.0
 40
0.0
 40
0.0
 40
1.0
 40
1.0
 40
1.0
 40
1.0
 10
428.9131390790686
 20
489.6653898007118
 30
0.0
 10
427.8516351172668
 20
487.3890652862797
 30
0.0
 10
425.7827430819103
 20
485.743399007972
 30
0.0
 10
423.3259734772603
 20
485.2211842141349
 30
0.0
  0
ENDBLK
  5
15D
330
15A
100
AcDbEntity
  8
0
100
AcDbBlockEnd
  0
BLOCK
  5
161
330
15F
100
AcDbEntity
  8
0
100
AcDbBlockBegin
  2
block 54
 70
     0
 10
0.0
 20
0.0
 30
0.0
  3
block 54
  1

  0
SPLINE
  5
163
330
15F
100
AcDbEntity
  8
0
 62
   250
370
    25
100
AcDbSpline
210
0.0
220
0.0
230
1.0
 70
     8
 71
     3
 72
    23
 73
    19
 74
     0
 42
0.0000000001
 43
0.0000000001
 12
1.0
 22
0.0
 32
0.0
 13
1.0
 23
0.0
 33
0.0
 40
0.0
 40
0.0
 40
0.0
 40
0.0
 40
1.0
 40
1.0
 40
1.0
 40
2.0
 40
2.0
 40
2.0
 40
3.0
 40
3.0
 40
3.0
 40
4.0
 40
4.0
 40
4.0
 40
5.0
 40
5.0
 40
5.0
 40
6.0
 40
6.0
 40
6.0
 40
6.0
 10
190.9499504580288
 20
428.9122619412571
 30
0.0
 10
182.9852840917859
 20
429.2189304005429
 30
0.0
 10
175.0174074609872
 20
429.4365228377766
 30
0.0
 10
167.0486136117475
 20
429.6051499211083
 30
0.0
 10
157.725158674662
 20
429.8024577196593
 30
0.0
 10
148.4004690204365
 20
429.9327732940957
 30
0.0
 10
139.0752854793574
 20
430.0103135303221
 30
0.0
 10
134.0528442185407
 20
430.0520822472038
 30
0.0
 10
129.0302265695672
 20
430.078540471568
 30
0.0
 10
124.0076441982217
 20
430.0982253905053
 30
0.0
 10
119.8425905175886
 20
430.1145589343482
 30
0.0
 10
115.6775368369556
 20
430.1262711083357
 30
0.0
 10
111.5125184339562
 20
430.137418840211
 30
0.0
 10
106.1938508930743
 20
430.1516357261048
 30
0.0
 10
100.8751833521907
 20
430.1650059488177
 30
0.0
 10
95.55651581130803
 20
430.176894510967
 30
0.0
 10
73.80087040632385
 20
430.2254718109124
 30
0.0
 10
-95.82375853835478
 20
429.3278677296906
 30
0.0
 10
-117.5794392209599
 20
429.3279382849533
 30
0.0
  0
ENDBLK
  5
162
330
15F
100
AcDbEntity
  8
0
100
AcDbBlockEnd
  0
BLOCK
  5
166
330
164
100
AcDbEntity
  8
0
100
AcDbBlockBegin
  2
block 55
 70
     0
 10
0.0
 20
0.0
 30
0.0
  3
block 55
  1

  0
SPLINE
  5
168
330
164
100
AcDbEntity
  8
0
 62
   250
370
    25
100
AcDbSpline
210
0.0
220
0.0
230
1.0
 70
     8
 71
     3
 72
    11
 73
     7
 74
     0
 42
0.0000000001
 43
0.0000000001
 12
1.0
 22
0.0
 32
0.0
 13
1.0
 23
0.0
 33
0.0
 40
0.0
 40
0.0
 40
0.0
 40
0.0
 40
1.0
 40
1.0
 40
1.0
 40
2.0
 40
2.0
 40
2.0
 40
2.0
 10
-275.0991482944107
 20
575.599021460742
 30
0.0
 10
-173.3033172365272
 20
576.0822897483092
 30
0.0
 10
-71.50748617865004
 20
576.3720249439959
 30
0.0
 10
30.28943848584025
 20
576.4682623254497
 30
0.0
 10
174.1618895953322
 20
576.6026701052552
 30
0.0
 10
318.0321182139772
 20
576.3497294802601
 30
0.0
 10
461.9031934958067
 20
575.7094051728271
 30
0.0
  0
ENDBLK
  5
167
330
164
100
AcDbEntity
  8
0
100
AcDbBlockEnd
  0
BLOCK
  5
16B
330
169
100
AcDbEntity
  8
0
100
AcDbBlockBegin
  2
block 56
 70
     0
 10
0.0
 20
0.0
 30
0.0
  3
block 56
  1

  0
SPLINE
  5
16D
330
169
100
AcDbEntity
  8
0
  6
AI-Linetype-25
 62
     6
370
    25
100
AcDbSpline
210
0.0
220
0.0
230
1.0
 70
     8
 71
     3
 72
     8
 73
     4
 74
     0
 42
0.0000000001
 43
0.0000000001
 12
1.0
 22
0.0
 32
0.0
 13
1.0
 23
0.0
 33
0.0
 40
0.0
 40
0.0
 40
0.0
 40
0.0
 40
1.0
 40
1.0
 40
1.0
 40
1.0
 10
-241.3361739987554
 20
531.3281366221408
 30
0.0
 10
-245.8151908864861
 20
533.9760825472059
 30
0.0
 10
-250.9145312323701
 20
535.4181900981191
 30
0.0
 10
-256.1347397277688
 20
535.4997127105273
 30
0.0
  0
ENDBLK
  5
16C
330
169
100
AcDbEntity
  8
0
100
AcDbBlockEnd
  0
BLOCK
  5
171
330
16F
100
AcDbEntity
  8
0
100
AcDbBlockBegin
  2
block 57
 70
     0
 10
0.0
 20
0.0
 30
0.0
  3
block 57
  1

  0
SPLINE
  5
173
330
16F
100
AcDbEntity
  8
0
 62
   250
370
    25
100
AcDbSpline
210
0.0
220
0.0
230
1.0
 70
     8
 71
     3
 72
    11
 73
     7
 74
     0
 42
0.0000000001
 43
0.0000000001
 12
1.0
 22
0.0
 32
0.0
 13
1.0
 23
0.0
 33
0.0
 40
0.0
 40
0.0
 40
0.0
 40
0.0
 40
1.0
 40
1.0
 40
1.0
 40
2.0
 40
2.0
 40
2.0
 40
2.0
 10
-181.791715334806
 20
422.7364184859867
 30
0.0
 10
-200.7234568137524
 20
452.3765089209159
 30
0.0
 10
-216.1354430656771
 20
483.1563491065181
 30
0.0
 10
-228.5262528706554
 20
516.0716149423644
 30
0.0
 10
-230.5611197672706
 20
521.4776329329761
 30
0.0
 10
-234.934504848193
 20
526.8384747704217
 30
0.0
 10
-239.5559903566672
 20
530.2663988581403
 30
0.0
  0
ENDBLK
  5
172
330
16F
100
AcDbEntity
  8
0
100
AcDbBlockEnd
  0
BLOCK
  5
176
330
174
100
AcDbEntity
  8
0
100
AcDbBlockBegin
  2
block 58
 70
     0
 10
0.0
 20
0.0
 30
0.0
  3
block 58
  1

  0
SPLINE
  5
178
330
174
100
AcDbEntity
  8
0
 62
   250
370
    25
100
AcDbSpline
210
0.0
220
0.0
230
1.0
 70
     8
 71
     3
 72
    26
 73
    22
 74
     0
 42
0.0000000001
 43
0.0000000001
 12
1.0
 22
0.0
 32
0.0
 13
1.0
 23
0.0
 33
0.0
 40
0.0
 40
0.0
 40
0.0
 40
0.0
 40
1.0
 40
1.0
 40
1.0
 40
2.0
 40
2.0
 40
2.0
 40
3.0
 40
3.0
 40
3.0
 40
4.0
 40
4.0
 40
4.0
 40
5.0
 40
5.0
 40
5.0
 40
6.0
 40
6.0
 40
6.0
 40
7.0
 40
7.0
 40
7.0
 40
7.0
 10
265.0574613764527
 20
451.5767649922292
 30
0.0
 10
260.996194490622
 20
450.6238455832506
 30
0.0
 10
257.5149977159253
 20
448.0231079603788
 30
0.0
 10
255.4494217780191
 20
444.3988251082789
 30
0.0
 10
251.270468710186
 20
437.0658400295123
 30
0.0
 10
246.9136105416724
 20
429.8496239143039
 30
0.0
 10
242.3705923064769
 20
422.7364184859867
 30
0.0
 10
241.0849695454305
 20
420.72284177838
 30
0.0
 10
238.8611028705189
 20
419.5040701309171
 30
0.0
 10
236.4721015978889
 20
419.5038231874852
 30
0.0
 10
227.5111948899678
 20
419.5038231874852
 30
0.0
 10
218.5502881820403
 20
419.5038231874852
 30
0.0
 10
209.5893814741127
 20
419.5038231874852
 30
0.0
 10
206.5293290761498
 20
419.5042112414458
 30
0.0
 10
203.5421249892919
 20
420.4374810091202
 30
0.0
 10
201.0261595173113
 20
422.179208280709
 30
0.0
 10
200.6496060680506
 20
422.4398041519631
 30
0.0
 10
200.2724881766675
 20
422.699553360029
 30
0.0
 10
199.8947705655365
 20
422.9584559049139
 30
0.0
 10
199.9158665897668
 20
422.9439920755914
 30
0.0
 10
199.9175951937604
 20
422.9727080684479
 30
0.0
 10
199.9272259874349
 20
422.9826563608071
 30
0.0
  0
ENDBLK
  5
177
330
174
100
AcDbEntity
  8
0
100
AcDbBlockEnd
  0
BLOCK
  5
17B
330
179
100
AcDbEntity
  8
0
100
AcDbBlockBegin
  2
block 59
 70
     0
 10
0.0
 20
0.0
 30
0.0
  3
block 59
  1

  0
SPLINE
  5
17D
330
179
100
AcDbEntity
  8
0
  6
AI-Linetype-26
 62
     6
370
    25
100
AcDbSpline
210
0.0
220
0.0
230
1.0
 70
     8
 71
     3
 72
     8
 73
     4
 74
     0
 42
0.0000000001
 43
0.0000000001
 12
1.0
 22
0.0
 32
0.0
 13
1.0
 23
0.0
 33
0.0
 40
0.0
 40
0.0
 40
0.0
 40
0.0
 40
1.0
 40
1.0
 40
1.0
 40
1.0
 10
-8.489851811651162
 20
456.562164738925
 30
0.0
 10
-5.678012835928988
 20
456.558989751996
 30
0.0
 10
66.91665209054
 20
456.5568730940507
 30
0.0
 10
69.72849106626153
 20
456.5558500427109
 30
0.0
  0
ENDBLK
  5
17C
330
179
100
AcDbEntity
  8
0
100
AcDbBlockEnd
  0
BLOCK
  5
181
330
17F
100
AcDbEntity
  8
0
100
AcDbBlockBegin
  2
block 60
 70
     0
 10
0.0
 20
0.0
 30
0.0
  3
block 60
  1

  0
SPLINE
  5
183
330
17F
100
AcDbEntity
  8
0
  6
AI-Linetype-27
 62
     6
370
    25
100
AcDbSpline
210
0.0
220
0.0
230
1.0
 70
     8
 71
     3
 72
     8
 73
     4
 74
     0
 42
0.0000000001
 43
0.0000000001
 12
1.0
 22
0.0
 32
0.0
 13
1.0
 23
0.0
 33
0.0
 40
0.0
 40
0.0
 40
0.0
 40
0.0
 40
1.0
 40
1.0
 40
1.0
 40
1.0
 10
447.5329787702742
 20
529.5958153928954
 30
0.0
 10
448.6096052762566
 20
533.0588141830792
 30
0.0
 10
451.6990677410943
 20
534.7402704738685
 30
0.0
 10
453.3044116854543
 20
534.7945274726417
 30
0.0
  0
ENDBLK
  5
182
330
17F
100
AcDbEntity
  8
0
100
AcDbBlockEnd
  0
BLOCK
  5
187
330
185
100
AcDbEntity
  8
0
100
AcDbBlockBegin
  2
block 61
 70
     0
 10
0.0
 20
0.0
 30
0.0
  3
block 61
  1

  0
SPLINE
  5
189
330
185
100
AcDbEntity
  8
0
  6
AI-Linetype-28
 62
     6
370
    25
100
AcDbSpline
210
0.0
220
0.0
230
1.0
 70
     8
 71
     3
 72
    29
 73
    25
 74
     0
 42
0.0000000001
 43
0.0000000001
 12
1.0
 22
0.0
 32
0.0
 13
1.0
 23
0.0
 33
0.0
 40
0.0
 40
0.0
 40
0.0
 40
0.0
 40
1.0
 40
1.0
 40
1.0
 40
2.0
 40
2.0
 40
2.0
 40
3.0
 40
3.0
 40
3.0
 40
4.0
 40
4.0
 40
4.0
 40
5.0
 40
5.0
 40
5.0
 40
6.0
 40
6.0
 40
6.0
 40
7.0
 40
7.0
 40
7.0
 40
8.0
 40
8.0
 40
8.0
 40
8.0
 10
487.5393784753389
 20
534.7973496832461
 30
0.0
 10
487.6038659875433
 20
534.7973496832461
 30
0.0
 10
487.6683534997482
 20
534.7973496832461
 30
0.0
 10
487.7328762895786
 20
534.7973496832461
 30
0.0
 10
487.735557389654
 20
534.7973496832461
 30
0.0
 10
487.7382737673562
 20
534.7973496832461
 30
0.0
 10
487.7409901450577
 20
534.7973496832461
 30
0.0
 10
487.8004329558094
 20
534.7973496832461
 30
0.0
 10
487.8598757665642
 20
534.7973496832461
 30
0.0
 10
487.9193185773269
 20
534.7973496832461
 30
0.0
 10
487.9211882918472
 20
534.7973496832461
 30
0.0
 10
487.9230580063681
 20
534.7973496832461
 30
0.0
 10
487.9249629985255
 20
534.7973496832461
 30
0.0
 10
487.9538201019035
 20
534.7973496832461
 30
0.0
 10
487.9826772052855
 20
534.7973496832461
 30
0.0
 10
488.0115343086675
 20
534.7973496832461
 30
0.0
 10
488.406502682094
 20
534.7973496832461
 30
0.0
 10
488.8015063331497
 20
534.7973496832461
 30
0.0
 10
489.1964747065724
 20
534.7973496832461
 30
0.0
 10
490.8873316321084
 20
534.7968557963895
 30
0.0
 10
492.4632540309595
 20
533.9420434833784
 30
0.0
 10
493.3853407891399
 20
532.5246587649559
 30
0.0
 10
494.446421419355
 20
530.8935974265064
 30
0.0
 10
496.2325279526238
 20
529.8786952172297
 30
0.0
 10
498.1768546676419
 20
529.8020369218174
 30
0.0
  0
ENDBLK
  5
188
330
185
100
AcDbEntity
  8
0
100
AcDbBlockEnd
  0
BLOCK
  5
18D
330
18B
100
AcDbEntity
  8
0
100
AcDbBlockBegin
  2
block 62
 70
     0
 10
0.0
 20
0.0
 30
0.0
  3
block 62
  1

  0
SPLINE
  5
18F
330
18B
100
AcDbEntity
  8
0
  6
AI-Linetype-29
 62
     6
370
    25
100
AcDbSpline
210
0.0
220
0.0
230
1.0
 70
    24
 71
     3
 72
    17
 73
    13
 74
     0
 42
0.0000000001
 43
0.0000000001
 12
1.0
 22
0.0
 32
0.0
 13
1.0
 23
0.0
 33
0.0
 40
0.0
 40
0.0
 40
0.0
 40
0.0
 40
1.0
 40
1.0
 40
1.0
 40
2.0
 40
2.0
 40
2.0
 40
3.0
 40
3.0
 40
3.0
 40
4.0
 40
4.0
 40
4.0
 40
4.0
 10
453.0499726946369
 20
534.7973496832461
 30
0.0
 10
453.3622855751245
 20
534.7973496832461
 30
0.0
 10
474.5300812174454
 20
534.7973496832461
 30
0.0
 10
474.8423940979298
 20
534.7973496832461
 30
0.0
 10
475.3083057903073
 20
534.7973496832461
 30
0.0
 10
475.7741822050446
 20
534.7973496832461
 30
0.0
 10
476.2400938974253
 20
534.7973496832461
 30
0.0
 10
476.2614015874551
 20
534.7973496832461
 30
0.0
 10
476.282709277474
 20
534.7973496832461
 30
0.0
 10
476.3039816898739
 20
534.7973496832461
 30
0.0
 10
476.3579564675927
 20
534.7973496832461
 30
0.0
 10
487.2423316311982
 20
534.7973496832461
 30
0.0
 10
487.2963064089138
 20
534.7973496832461
 30
0.0
  0
ENDBLK
  5
18E
330
18B
100
AcDbEntity
  8
0
100
AcDbBlockEnd
  0
BLOCK
  5
193
330
191
100
AcDbEntity
  8
0
100
AcDbBlockBegin
  2
block 63
 70
     0
 10
0.0
 20
0.0
 30
0.0
  3
block 63
  1

  0
SPLINE
  5
195
330
191
100
AcDbEntity
  8
0
 62
   250
370
    25
100
AcDbSpline
210
0.0
220
0.0
230
1.0
 70
     8
 71
     3
 72
     8
 73
     4
 74
     0
 42
0.0000000001
 43
0.0000000001
 12
1.0
 22
0.0
 32
0.0
 13
1.0
 23
0.0
 33
0.0
 40
0.0
 40
0.0
 40
0.0
 40
0.0
 40
1.0
 40
1.0
 40
1.0
 40
1.0
 10
190.6549248106058
 20
428.9122619412571
 30
0.0
 10
192.0442948396693
 20
428.8528237970073
 30
0.0
 10
198.657020658211
 20
423.9151059436434
 30
0.0
 10
199.8947705655365
 20
422.9584559049139
 30
0.0
  0
ENDBLK
  5
194
330
191
100
AcDbEntity
  8
0
100
AcDbBlockEnd
  0
BLOCK
  5
198
330
196
100
AcDbEntity
  8
0
100
AcDbBlockBegin
  2
block 64
 70
     0
 10
0.0
 20
0.0
 30
0.0
  3
block 64
  1

  0
SPLINE
  5
19A
330
196
100
AcDbEntity
  8
0
 62
   250
370
    25
100
AcDbSpline
210
0.0
220
0.0
230
1.0
 70
     8
 71
     3
 72
    17
 73
    13
 74
     0
 42
0.0000000001
 43
0.0000000001
 12
1.0
 22
0.0
 32
0.0
 13
1.0
 23
0.0
 33
0.0
 40
0.0
 40
0.0
 40
0.0
 40
0.0
 40
1.0
 40
1.0
 40
1.0
 40
2.0
 40
2.0
 40
2.0
 40
3.0
 40
3.0
 40
3.0
 40
4.0
 40
4.0
 40
4.0
 40
4.0
 10
505.3519723409873
 20
570.0491090388522
 30
0.0
 10
505.3519723409873
 20
570.0491090388522
 30
0.0
 10
504.8778762378754
 20
560.1466800514258
 30
0.0
 10
504.8778762378754
 20
560.1466800514258
 30
0.0
 10
504.8778762378754
 20
560.1466800514258
 30
0.0
 10
503.8629317893055
 20
537.8444567822194
 30
0.0
 10
503.6927309762848
 20
535.5531934056932
 30
0.0
 10
503.5225301632673
 20
533.261930029163
 30
0.0
 10
504.1479602925646
 20
529.5958153928954
 30
0.0
 10
498.5733173601696
 20
529.5958153928954
 30
0.0
 10
492.9986744277778
 20
529.5958153928954
 30
0.0
 10
-287.6179453500765
 20
530.5033768977588
 30
0.0
 10
-287.6179453500765
 20
530.5033768977588
 30
0.0
  0
ENDBLK
  5
199
330
196
100
AcDbEntity
  8
0
100
AcDbBlockEnd
  0
BLOCK
  5
19D
330
19B
100
AcDbEntity
  8
0
100
AcDbBlockBegin
  2
block 65
 70
     0
 10
0.0
 20
0.0
 30
0.0
  3
block 65
  1

  0
INSERT
  5
1A0
330
19B
100
AcDbEntity
  8
0
100
AcDbBlockReference
  2
block 66
 10
0.0
 20
0.0
 30
0.0
  0
ENDBLK
  5
19E
330
19B
100
AcDbEntity
  8
0
100
AcDbBlockEnd
  0
BLOCK
  5
1A1
330
19F
100
AcDbEntity
  8
0
100
AcDbBlockBegin
  2
block 66
 70
     0
 10
0.0
 20
0.0
 30
0.0
  3
block 66
  1

  0
INSERT
  5
1A4
330
19F
100
AcDbEntity
  8
0
100
AcDbBlockReference
  2
block 67
 10
0.0
 20
0.0
 30
0.0
  0
ENDBLK
  5
1A2
330
19F
100
AcDbEntity
  8
0
100
AcDbBlockEnd
  0
BLOCK
  5
1A5
330
1A3
100
AcDbEntity
  8
0
100
AcDbBlockBegin
  2
block 67
 70
     0
 10
0.0
 20
0.0
 30
0.0
  3
block 67
  1

  0
POLYLINE
  5
1A7
330
1A3
100
AcDbEntity
  8
0
 62
     4
370
    25
100
AcDb2dPolyline
 66
     1
 10
0.0
 20
0.0
 30
0.0
  0
VERTEX
  5
1A8
330
1A7
100
AcDbEntity
  8
0
 62
     4
370
    25
100
AcDbVertex
100
AcDb2dVertex
 10
140.9065800632434
 20
515.503633158341
 30
0.0
  0
VERTEX
  5
1A9
330
1A7
100
AcDbEntity
  8
0
 62
     4
370
    25
100
AcDbVertex
100
AcDb2dVertex
 10
152.1566577954841
 20
515.503633158341
 30
0.0
  0
SEQEND
  5
1AA
330
1A7
100
AcDbEntity
  8
0
 62
     4
370
    25
  0
POLYLINE
  5
1AB
330
1A3
100
AcDbEntity
  8
0
  6
AI-Linetype-30
 62
     4
370
    25
100
AcDb2dPolyline
 66
     1
 10
0.0
 20
0.0
 30
0.0
  0
VERTEX
  5
1AC
330
1AB
100
AcDbEntity
  8
0
  6
AI-Linetype-30
 62
     4
370
    25
100
AcDbVertex
100
AcDb2dVertex
 10
155.2816608464606
 20
515.503633158341
 30
0.0
  0
VERTEX
  5
1AD
330
1AB
100
AcDbEntity
  8
0
  6
AI-Linetype-30
 62
     4
370
    25
100
AcDbVertex
100
AcDb2dVertex
 10
159.9691761888488
 20
515.503633158341
 30
0.0
  0
SEQEND
  5
1AF
330
1AB
100
AcDbEntity
  8
0
  6
AI-Linetype-30
 62
     4
370
    25
  0
POLYLINE
  5
1B0
330
1A3
100
AcDbEntity
  8
0
  6
AI-Linetype-31
 62
     4
370
    25
100
AcDb2dPolyline
 66
     1
 10
0.0
 20
0.0
 30
0.0
  0
VERTEX
  5
1B1
330
1B0
100
AcDbEntity
  8
0
  6
AI-Linetype-31
 62
     4
370
    25
100
AcDbVertex
100
AcDb2dVertex
 10
161.5316777143371
 20
515.503633158341
 30
0.0
  0
VERTEX
  5
1B2
330
1B0
100
AcDbEntity
  8
0
  6
AI-Linetype-31
 62
     4
370
    25
100
AcDbVertex
100
AcDb2dVertex
 10
188.0943543705654
 20
515.503633158341
 30
0.0
  0
SEQEND
  5
1B4
330
1B0
100
AcDbEntity
  8
0
  6
AI-Linetype-31
 62
     4
370
    25
  0
POLYLINE
  5
1B5
330
1A3
100
AcDbEntity
  8
0
 62
     4
370
    25
100
AcDb2dPolyline
 66
     1
 10
0.0
 20
0.0
 30
0.0
  0
VERTEX
  5
1B6
330
1B5
100
AcDbEntity
  8
0
 62
     4
370
    25
100
AcDbVertex
100
AcDb2dVertex
 10
189.6568558960537
 20
515.503633158341
 30
0.0
  0
VERTEX
  5
1B7
330
1B5
100
AcDbEntity
  8
0
 62
     4
370
    25
100
AcDbVertex
100
AcDb2dVertex
 10
200.9069443942177
 20
515.503633158341
 30
0.0
  0
SEQEND
  5
1B8
330
1B5
100
AcDbEntity
  8
0
 62
     4
370
    25
  0
ENDBLK
  5
1A6
330
1A3
100
AcDbEntity
  8
0
100
AcDbBlockEnd
  0
BLOCK
  5
1BB
330
1B9
100
AcDbEntity
  8
0
100
AcDbBlockBegin
  2
block 68
 70
     0
 10
0.0
 20
0.0
 30
0.0
  3
block 68
  1

  0
INSERT
  5
1BE
330
1B9
100
AcDbEntity
  8
0
100
AcDbBlockReference
  2
block 69
 10
0.0
 20
0.0
 30
0.0
  0
ENDBLK
  5
1BC
330
1B9
100
AcDbEntity
  8
0
100
AcDbBlockEnd
  0
BLOCK
  5
1BF
330
1BD
100
AcDbEntity
  8
0
100
AcDbBlockBegin
  2
block 69
 70
     0
 10
0.0
 20
0.0
 30
0.0
  3
block 69
  1

  0
INSERT
  5
1C2
330
1BD
100
AcDbEntity
  8
0
100
AcDbBlockReference
  2
block 70
 10
0.0
 20
0.0
 30
0.0
  0
ENDBLK
  5
1C0
330
1BD
100
AcDbEntity
  8
0
100
AcDbBlockEnd
  0
BLOCK
  5
1C3
330
1C1
100
AcDbEntity
  8
0
100
AcDbBlockBegin
  2
block 70
 70
     0
 10
0.0
 20
0.0
 30
0.0
  3
block 70
  1

  0
POLYLINE
  5
1C5
330
1C1
100
AcDbEntity
  8
0
 62
     4
370
    25
100
AcDb2dPolyline
 66
     1
 10
0.0
 20
0.0
 30
0.0
  0
VERTEX
  5
1C6
330
1C5
100
AcDbEntity
  8
0
 62
     4
370
    25
100
AcDbVertex
100
AcDb2dVertex
 10
170.9063208258715
 20
485.503483290626
 30
0.0
  0
VERTEX
  5
1C7
330
1C5
100
AcDbEntity
  8
0
 62
     4
370
    25
100
AcDbVertex
100
AcDb2dVertex
 10
170.9063208258715
 20
496.753571788791
 30
0.0
  0
SEQEND
  5
1C8
330
1C5
100
AcDbEntity
  8
0
 62
     4
370
    25
  0
POLYLINE
  5
1C9
330
1C1
100
AcDbEntity
  8
0
  6
AI-Linetype-32
 62
     4
370
    25
100
AcDb2dPolyline
 66
     1
 10
0.0
 20
0.0
 30
0.0
  0
VERTEX
  5
1CA
330
1C9
100
AcDbEntity
  8
0
  6
AI-Linetype-32
 62
     4
370
    25
100
AcDbVertex
100
AcDb2dVertex
 10
170.9063208258715
 20
499.8785317760721
 30
0.0
  0
VERTEX
  5
1CB
330
1C9
100
AcDbEntity
  8
0
  6
AI-Linetype-32
 62
     4
370
    25
100
AcDbVertex
100
AcDb2dVertex
 10
170.9063208258715
 20
504.5659717569956
 30
0.0
  0
SEQEND
  5
1CD
330
1C9
100
AcDbEntity
  8
0
  6
AI-Linetype-32
 62
     4
370
    25
  0
POLYLINE
  5
1CE
330
1C1
100
AcDbEntity
  8
0
  6
AI-Linetype-33
 62
     4
370
    25
100
AcDb2dPolyline
 66
     1
 10
0.0
 20
0.0
 30
0.0
  0
VERTEX
  5
1CF
330
1CE
100
AcDbEntity
  8
0
  6
AI-Linetype-33
 62
     4
370
    25
100
AcDbVertex
100
AcDb2dVertex
 10
170.9063208258715
 20
506.128451750638
 30
0.0
  0
VERTEX
  5
1D0
330
1CE
100
AcDbEntity
  8
0
  6
AI-Linetype-33
 62
     4
370
    25
100
AcDbVertex
100
AcDb2dVertex
 10
170.9063208258715
 20
532.6908269610113
 30
0.0
  0
SEQEND
  5
1D2
330
1CE
100
AcDbEntity
  8
0
  6
AI-Linetype-33
 62
     4
370
    25
  0
POLYLINE
  5
1D3
330
1C1
100
AcDbEntity
  8
0
 62
     4
370
    25
100
AcDb2dPolyline
 66
     1
 10
0.0
 20
0.0
 30
0.0
  0
VERTEX
  5
1D4
330
1D3
100
AcDbEntity
  8
0
 62
     4
370
    25
100
AcDbVertex
100
AcDb2dVertex
 10
170.9063208258715
 20
534.2533069546538
 30
0.0
  0
VERTEX
  5
1D5
330
1D3
100
AcDbEntity
  8
0
 62
     4
370
    25
100
AcDbVertex
100
AcDb2dVertex
 10
170.9063208258715
 20
545.5033954528188
 30
0.0
  0
SEQEND
  5
1D6
330
1D3
100
AcDbEntity
  8
0
 62
     4
370
    25
  0
ENDBLK
  5
1C4
330
1C1
100
AcDbEntity
  8
0
100
AcDbBlockEnd
  0
BLOCK
  5
1D9
330
1D7
100
AcDbEntity
  8
0
100
AcDbBlockBegin
  2
block 71
 70
     0
 10
0.0
 20
0.0
 30
0.0
  3
block 71
  1

  0
SPLINE
  5
1DB
330
1D7
100
AcDbEntity
  8
0
  6
AI-Linetype-34
 62
     6
370
    25
100
AcDbSpline
210
0.0
220
0.0
230
1.0
 70
    11
 71
     3
 72
    23
 73
    19
 74
     0
 42
0.0000000001
 43
0.0000000001
 12
1.0
 22
0.0
 32
0.0
 13
1.0
 23
0.0
 33
0.0
 40
0.0
 40
0.0
 40
0.0
 40
0.0
 40
1.0
 40
1.0
 40
1.0
 40
2.0
 40
2.0
 40
2.0
 40
3.0
 40
3.0
 40
3.0
 40
4.0
 40
4.0
 40
4.0
 40
5.0
 40
5.0
 40
5.0
 40
6.0
 40
6.0
 40
6.0
 40
6.0
 10
165.9066543984291
 20
505.5034456188594
 30
0.0
 10
160.3837621129032
 20
505.5034456188594
 30
0.0
 10
155.9073125762148
 20
509.9798951555452
 30
0.0
 10
155.9073125762148
 20
515.5036487108246
 30
0.0
 10
155.9073125762148
 20
521.0256797265954
 30
0.0
 10
160.3837621129032
 20
525.5034211679128
 30
0.0
 10
165.9066543984291
 20
525.5034211679128
 30
0.0
 10
165.9066543984291
 20
525.5034211679128
 30
0.0
 10
175.9068574903957
 20
525.5034211679128
 30
0.0
 10
175.9068574903957
 20
525.5034211679128
 30
0.0
 10
181.4293191410451
 20
525.5034211679128
 30
0.0
 10
185.9070605823622
 20
521.0256797265954
 30
0.0
 10
185.9070605823622
 20
515.5036487108246
 30
0.0
 10
185.9070605823622
 20
509.9798951555452
 30
0.0
 10
181.4293191410451
 20
505.5034456188594
 30
0.0
 10
175.9068574903957
 20
505.5034456188594
 30
0.0
 10
170.3843958397462
 20
505.5034456188594
 30
0.0
 10
171.4291160490786
 20
505.5034456188594
 30
0.0
 10
165.9066543984291
 20
505.5034456188594
 30
0.0
  0
ENDBLK
  5
1DA
330
1D7
100
AcDbEntity
  8
0
100
AcDbBlockEnd
  0
BLOCK
  5
1DF
330
1DD
100
AcDbEntity
  8
0
100
AcDbBlockBegin
  2
block 72
 70
     0
 10
0.0
 20
0.0
 30
0.0
  3
block 72
  1

  0
INSERT
  5
1E2
330
1DD
100
AcDbEntity
  8
0
100
AcDbBlockReference
  2
block 73
 10
0.0
 20
0.0
 30
0.0
  0
ENDBLK
  5
1E0
330
1DD
100
AcDbEntity
  8
0
100
AcDbBlockEnd
  0
BLOCK
  5
1E3
330
1E1
100
AcDbEntity
  8
0
100
AcDbBlockBegin
  2
block 73
 70
     0
 10
0.0
 20
0.0
 30
0.0
  3
block 73
  1

  0
INSERT
  5
1E6
330
1E1
100
AcDbEntity
  8
0
100
AcDbBlockReference
  2
block 74
 10
0.0
 20
0.0
 30
0.0
  0
ENDBLK
  5
1E4
330
1E1
100
AcDbEntity
  8
0
100
AcDbBlockEnd
  0
BLOCK
  5
1E7
330
1E5
100
AcDbEntity
  8
0
100
AcDbBlockBegin
  2
block 74
 70
     0
 10
0.0
 20
0.0
 30
0.0
  3
block 74
  1

  0
POLYLINE
  5
1E9
330
1E5
100
AcDbEntity
  8
0
 62
     4
370
    25
100
AcDb2dPolyline
 66
     1
 10
0.0
 20
0.0
 30
0.0
  0
VERTEX
  5
1EA
330
1E9
100
AcDbEntity
  8
0
 62
     4
370
    25
100
AcDbVertex
100
AcDb2dVertex
 10
-139.6682943206873
 20
515.503633158341
 30
0.0
  0
VERTEX
  5
1EB
330
1E9
100
AcDbEntity
  8
0
 62
     4
370
    25
100
AcDbVertex
100
AcDb2dVertex
 10
-128.418216588447
 20
515.503633158341
 30
0.0
  0
SEQEND
  5
1EC
330
1E9
100
AcDbEntity
  8
0
 62
     4
370
    25
  0
POLYLINE
  5
1ED
330
1E5
100
AcDbEntity
  8
0
  6
AI-Linetype-35
 62
     4
370
    25
100
AcDb2dPolyline
 66
     1
 10
0.0
 20
0.0
 30
0.0
  0
VERTEX
  5
1EE
330
1ED
100
AcDbEntity
  8
0
  6
AI-Linetype-35
 62
     4
370
    25
100
AcDbVertex
100
AcDb2dVertex
 10
-125.2932781330105
 20
515.503633158341
 30
0.0
  0
VERTEX
  5
1EF
330
1ED
100
AcDbEntity
  8
0
  6
AI-Linetype-35
 62
     4
370
    25
100
AcDbVertex
100
AcDb2dVertex
 10
-120.6058812157795
 20
515.503633158341
 30
0.0
  0
SEQEND
  5
1F1
330
1ED
100
AcDbEntity
  8
0
  6
AI-Linetype-35
 62
     4
370
    25
  0
POLYLINE
  5
1F2
330
1E5
100
AcDbEntity
  8
0
  6
AI-Linetype-36
 62
     4
370
    25
100
AcDb2dPolyline
 66
     1
 10
0.0
 20
0.0
 30
0.0
  0
VERTEX
  5
1F3
330
1F2
100
AcDbEntity
  8
0
  6
AI-Linetype-36
 62
     4
370
    25
100
AcDbVertex
100
AcDb2dVertex
 10
-119.0434119880614
 20
515.503633158341
 30
0.0
  0
VERTEX
  5
1F4
330
1F2
100
AcDbEntity
  8
0
  6
AI-Linetype-36
 62
     4
370
    25
100
AcDbVertex
100
AcDb2dVertex
 10
-92.48134898946647
 20
515.503633158341
 30
0.0
  0
SEQEND
  5
1F6
330
1F2
100
AcDbEntity
  8
0
  6
AI-Linetype-36
 62
     4
370
    25
  0
POLYLINE
  5
1F7
330
1E5
100
AcDbEntity
  8
0
 62
     4
370
    25
100
AcDb2dPolyline
 66
     1
 10
0.0
 20
0.0
 30
0.0
  0
VERTEX
  5
1F8
330
1F7
100
AcDbEntity
  8
0
 62
     4
370
    25
100
AcDbVertex
100
AcDb2dVertex
 10
-90.91887976174837
 20
515.503633158341
 30
0.0
  0
VERTEX
  5
1F9
330
1F7
100
AcDbEntity
  8
0
 62
     4
370
    25
100
AcDbVertex
100
AcDb2dVertex
 10
-79.66879664654601
 20
515.503633158341
 30
0.0
  0
SEQEND
  5
1FA
330
1F7
100
AcDbEntity
  8
0
 62
     4
370
    25
  0
ENDBLK
  5
1E8
330
1E5
100
AcDbEntity
  8
0
100
AcDbBlockEnd
  0
BLOCK
  5
1FD
330
1FB
100
AcDbEntity
  8
0
100
AcDbBlockBegin
  2
block 75
 70
     0
 10
0.0
 20
0.0
 30
0.0
  3
block 75
  1

  0
INSERT
  5
200
330
1FB
100
AcDbEntity
  8
0
100
AcDbBlockReference
  2
block 76
 10
0.0
 20
0.0
 30
0.0
  0
ENDBLK
  5
1FE
330
1FB
100
AcDbEntity
  8
0
100
AcDbBlockEnd
  0
BLOCK
  5
201
330
1FF
100
AcDbEntity
  8
0
100
AcDbBlockBegin
  2
block 76
 70
     0
 10
0.0
 20
0.0
 30
0.0
  3
block 76
  1

  0
INSERT
  5
204
330
1FF
100
AcDbEntity
  8
0
100
AcDbBlockReference
  2
block 77
 10
0.0
 20
0.0
 30
0.0
  0
ENDBLK
  5
202
330
1FF
100
AcDbEntity
  8
0
100
AcDbBlockEnd
  0
BLOCK
  5
205
330
203
100
AcDbEntity
  8
0
100
AcDbBlockBegin
  2
block 77
 70
     0
 10
0.0
 20
0.0
 30
0.0
  3
block 77
  1

  0
POLYLINE
  5
207
330
203
100
AcDbEntity
  8
0
 62
     4
370
    25
100
AcDb2dPolyline
 66
     1
 10
0.0
 20
0.0
 30
0.0
  0
VERTEX
  5
208
330
207
100
AcDbEntity
  8
0
 62
     4
370
    25
100
AcDbVertex
100
AcDb2dVertex
 10
-109.6685427921361
 20
485.503483290626
 30
0.0
  0
VERTEX
  5
209
330
207
100
AcDbEntity
  8
0
 62
     4
370
    25
100
AcDbVertex
100
AcDb2dVertex
 10
-109.6685427921361
 20
496.753571788791
 30
0.0
  0
SEQEND
  5
20A
330
207
100
AcDbEntity
  8
0
 62
     4
370
    25
  0
POLYLINE
  5
20B
330
203
100
AcDbEntity
  8
0
  6
AI-Linetype-37
 62
     4
370
    25
100
AcDb2dPolyline
 66
     1
 10
0.0
 20
0.0
 30
0.0
  0
VERTEX
  5
20C
330
20B
100
AcDbEntity
  8
0
  6
AI-Linetype-37
 62
     4
370
    25
100
AcDbVertex
100
AcDb2dVertex
 10
-109.6685427921361
 20
499.8785317760721
 30
0.0
  0
VERTEX
  5
20D
330
20B
100
AcDbEntity
  8
0
  6
AI-Linetype-37
 62
     4
370
    25
100
AcDbVertex
100
AcDb2dVertex
 10
-109.6685427921361
 20
504.5659717569956
 30
0.0
  0
SEQEND
  5
20F
330
20B
100
AcDbEntity
  8
0
  6
AI-Linetype-37
 62
     4
370
    25
  0
POLYLINE
  5
210
330
203
100
AcDbEntity
  8
0
  6
AI-Linetype-38
 62
     4
370
    25
100
AcDb2dPolyline
 66
     1
 10
0.0
 20
0.0
 30
0.0
  0
VERTEX
  5
211
330
210
100
AcDbEntity
  8
0
  6
AI-Linetype-38
 62
     4
370
    25
100
AcDbVertex
100
AcDb2dVertex
 10
-109.6685427921361
 20
506.128451750638
 30
0.0
  0
VERTEX
  5
212
330
210
100
AcDbEntity
  8
0
  6
AI-Linetype-38
 62
     4
370
    25
100
AcDbVertex
100
AcDb2dVertex
 10
-109.6685427921361
 20
532.6908269610113
 30
0.0
  0
SEQEND
  5
214
330
210
100
AcDbEntity
  8
0
  6
AI-Linetype-38
 62
     4
370
    25
  0
POLYLINE
  5
215
330
203
100
AcDbEntity
  8
0
 62
     4
370
    25
100
AcDb2dPolyline
 66
     1
 10
0.0
 20
0.0
 30
0.0
  0
VERTEX
  5
216
330
215
100
AcDbEntity
  8
0
 62
     4
370
    25
100
AcDbVertex
100
AcDb2dVertex
 10
-109.6685427921361
 20
534.2533069546538
 30
0.0
  0
VERTEX
  5
217
330
215
100
AcDbEntity
  8
0
 62
     4
370
    25
100
AcDbVertex
100
AcDb2dVertex
 10
-109.6685427921361
 20
545.5033954528188
 30
0.0
  0
SEQEND
  5
218
330
215
100
AcDbEntity
  8
0
 62
     4
370
    25
  0
ENDBLK
  5
206
330
203
100
AcDbEntity
  8
0
100
AcDbBlockEnd
  0
BLOCK
  5
21B
330
219
100
AcDbEntity
  8
0
100
AcDbBlockBegin
  2
block 78
 70
     0
 10
0.0
 20
0.0
 30
0.0
  3
block 78
  1

  0
INSERT
  5
21E
330
219
100
AcDbEntity
  8
0
100
AcDbBlockReference
  2
block 79
 10
0.0
 20
0.0
 30
0.0
  0
ENDBLK
  5
21C
330
219
100
AcDbEntity
  8
0
100
AcDbBlockEnd
  0
BLOCK
  5
21F
330
21D
100
AcDbEntity
  8
0
100
AcDbBlockBegin
  2
block 79
 70
     0
 10
0.0
 20
0.0
 30
0.0
  3
block 79
  1

  0
INSERT
  5
222
330
21D
100
AcDbEntity
  8
0
100
AcDbBlockReference
  2
block 80
 10
0.0
 20
0.0
 30
0.0
  0
ENDBLK
  5
220
330
21D
100
AcDbEntity
  8
0
100
AcDbBlockEnd
  0
BLOCK
  5
223
330
221
100
AcDbEntity
  8
0
100
AcDbBlockBegin
  2
block 80
 70
     0
 10
0.0
 20
0.0
 30
0.0
  3
block 80
  1

  0
POLYLINE
  5
225
330
221
100
AcDbEntity
  8
0
 62
     4
370
    25
100
AcDb2dPolyline
 66
     1
 10
0.0
 20
0.0
 30
0.0
  0
VERTEX
  5
226
330
225
100
AcDbEntity
  8
0
 62
     4
370
    25
100
AcDbVertex
100
AcDb2dVertex
 10
30.0815510144794
 20
384.9609123115308
 30
0.0
  0
VERTEX
  5
227
330
225
100
AcDbEntity
  8
0
 62
     4
370
    25
100
AcDbVertex
100
AcDb2dVertex
 10
30.0815510144794
 20
396.2110008096919
 30
0.0
  0
SEQEND
  5
228
330
225
100
AcDbEntity
  8
0
 62
     4
370
    25
  0
POLYLINE
  5
229
330
221
100
AcDbEntity
  8
0
  6
AI-Linetype-39
 62
     4
370
    25
100
AcDb2dPolyline
 66
     1
 10
0.0
 20
0.0
 30
0.0
  0
VERTEX
  5
22A
330
229
100
AcDbEntity
  8
0
  6
AI-Linetype-39
 62
     4
370
    25
100
AcDbVertex
100
AcDb2dVertex
 10
30.0815510144794
 20
400.2214795277678
 30
0.0
  0
VERTEX
  5
22B
330
229
100
AcDbEntity
  8
0
  6
AI-Linetype-39
 62
     4
370
    25
100
AcDbVertex
100
AcDb2dVertex
 10
30.0815510144794
 20
406.2371760730294
 30
0.0
  0
SEQEND
  5
22D
330
229
100
AcDbEntity
  8
0
  6
AI-Linetype-39
 62
     4
370
    25
  0
POLYLINE
  5
22E
330
221
100
AcDbEntity
  8
0
  6
AI-Linetype-40
 62
     4
370
    25
100
AcDb2dPolyline
 66
     1
 10
0.0
 20
0.0
 30
0.0
  0
VERTEX
  5
22F
330
22E
100
AcDbEntity
  8
0
  6
AI-Linetype-40
 62
     4
370
    25
100
AcDbVertex
100
AcDb2dVertex
 10
30.0815510144794
 20
408.2424369639116
 30
0.0
  0
VERTEX
  5
230
330
22E
100
AcDbEntity
  8
0
  6
AI-Linetype-40
 62
     4
370
    25
100
AcDbVertex
100
AcDb2dVertex
 10
30.0815510144794
 20
586.7097088512619
 30
0.0
  0
SEQEND
  5
232
330
22E
100
AcDbEntity
  8
0
  6
AI-Linetype-40
 62
     4
370
    25
  0
POLYLINE
  5
233
330
221
100
AcDbEntity
  8
0
 62
     4
370
    25
100
AcDb2dPolyline
 66
     1
 10
0.0
 20
0.0
 30
0.0
  0
VERTEX
  5
234
330
233
100
AcDbEntity
  8
0
 62
     4
370
    25
100
AcDbVertex
100
AcDb2dVertex
 10
30.0815510144794
 20
588.7149266784515
 30
0.0
  0
VERTEX
  5
235
330
233
100
AcDbEntity
  8
0
 62
     4
370
    25
100
AcDbVertex
100
AcDb2dVertex
 10
30.0815510144794
 20
599.9650151766166
 30
0.0
  0
SEQEND
  5
236
330
233
100
AcDbEntity
  8
0
 62
     4
370
    25
  0
ENDBLK
  5
224
330
221
100
AcDbEntity
  8
0
100
AcDbBlockEnd
  0
BLOCK
  5
239
330
237
100
AcDbEntity
  8
0
100
AcDbBlockBegin
  2
block 81
 70
     0
 10
0.0
 20
0.0
 30
0.0
  3
block 81
  1

  0
SPLINE
  5
23B
330
237
100
AcDbEntity
  8
0
  6
AI-Linetype-41
 62
     6
370
    25
100
AcDbSpline
210
0.0
220
0.0
230
1.0
 70
    11
 71
     3
 72
    23
 73
    19
 74
     0
 42
0.0000000001
 43
0.0000000001
 12
1.0
 22
0.0
 32
0.0
 13
1.0
 23
0.0
 33
0.0
 40
0.0
 40
0.0
 40
0.0
 40
0.0
 40
1.0
 40
1.0
 40
1.0
 40
2.0
 40
2.0
 40
2.0
 40
3.0
 40
3.0
 40
3.0
 40
4.0
 40
4.0
 40
4.0
 40
5.0
 40
5.0
 40
5.0
 40
6.0
 40
6.0
 40
6.0
 40
6.0
 10
-114.6690795055372
 20
505.5034456188594
 30
0.0
 10
-120.1911105213109
 20
505.5034456188594
 30
0.0
 10
-124.668851962628
 20
509.9798951555452
 30
0.0
 10
-124.668851962628
 20
515.5036487108246
 30
0.0
 10
-124.668851962628
 20
521.0256797265954
 30
0.0
 10
-120.1911105213109
 20
525.5034211679128
 30
0.0
 10
-114.6690795055372
 20
525.5034211679128
 30
0.0
 10
-114.6690795055372
 20
525.5034211679128
 30
0.0
 10
-104.6688764135707
 20
525.5034211679128
 30
0.0
 10
-104.6688764135707
 20
525.5034211679128
 30
0.0
 10
-99.145553493169
 20
525.5034211679128
 30
0.0
 10
-94.66910395647994
 20
521.0256797265954
 30
0.0
 10
-94.66910395647994
 20
515.5036487108246
 30
0.0
 10
-94.66910395647994
 20
509.9798951555452
 30
0.0
 10
-99.145553493169
 20
505.5034456188594
 30
0.0
 10
-104.6688764135707
 20
505.5034456188594
 30
0.0
 10
-110.1913380642201
 20
505.5034456188594
 30
0.0
 10
-109.1457565851352
 20
505.5034456188594
 30
0.0
 10
-114.6690795055372
 20
505.5034456188594
 30
0.0
  0
ENDBLK
  5
23A
330
237
100
AcDbEntity
  8
0
100
AcDbBlockEnd
  0
BLOCK
  5
23F
330
23D
100
AcDbEntity
  8
0
100
AcDbBlockBegin
  2
block 82
 70
     0
 10
0.0
 20
0.0
 30
0.0
  3
block 82
  1

  0
POLYLINE
  5
241
330
23D
100
AcDbEntity
  8
0
 62
   250
370
    25
100
AcDb2dPolyline
 66
     1
 10
0.0
 20
0.0
 30
0.0
  0
VERTEX
  5
242
330
241
100
AcDbEntity
  8
0
 62
   250
370
    25
100
AcDbVertex
100
AcDb2dVertex
 10
-49.12062004796323
 20
13.23337509019476
 30
0.0
  0
VERTEX
  5
243
330
241
100
AcDbEntity
  8
0
 62
   250
370
    25
100
AcDbVertex
100
AcDb2dVertex
 10
-45.92169178127885
 20
-270.7986971059595
 30
0.0
  0
SEQEND
  5
244
330
241
100
AcDbEntity
  8
0
 62
   250
370
    25
  0
ENDBLK
  5
240
330
23D
100
AcDbEntity
  8
0
100
AcDbBlockEnd
  0
BLOCK
  5
247
330
245
100
AcDbEntity
  8
0
100
AcDbBlockBegin
  2
block 83
 70
     0
 10
0.0
 20
0.0
 30
0.0
  3
block 83
  1

  0
POLYLINE
  5
249
330
245
100
AcDbEntity
  8
0
 62
   250
370
    25
100
AcDb2dPolyline
 66
     1
 10
0.0
 20
0.0
 30
0.0
  0
VERTEX
  5
24A
330
249
100
AcDbEntity
  8
0
 62
   250
370
    25
100
AcDbVertex
100
AcDb2dVertex
 10
-54.20904268948672
 20
429.433290156953
 30
0.0
  0
VERTEX
  5
24B
330
249
100
AcDbEntity
  8
0
 62
   250
370
    25
100
AcDbVertex
100
AcDb2dVertex
 10
-49.36219669948596
 20
11.42888956574833
 30
0.0
  0
SEQEND
  5
24C
330
249
100
AcDbEntity
  8
0
 62
   250
370
    25
  0
ENDBLK
  5
248
330
245
100
AcDbEntity
  8
0
100
AcDbBlockEnd
  0
BLOCK
  5
24F
330
24D
100
AcDbEntity
  8
0
100
AcDbBlockBegin
  2
block 84
 70
     0
 10
0.0
 20
0.0
 30
0.0
  3
block 84
  1

  0
POLYLINE
  5
251
330
24D
100
AcDbEntity
  8
0
 62
   250
370
    25
100
AcDb2dPolyline
 66
     1
 10
0.0
 20
0.0
 30
0.0
  0
VERTEX
  5
252
330
251
100
AcDbEntity
  8
0
 62
   250
370
    25
100
AcDbVertex
100
AcDb2dVertex
 10
110.026461610373
 20
13.23725084443022
 30
0.0
  0
VERTEX
  5
253
330
251
100
AcDbEntity
  8
0
 62
   250
370
    25
100
AcDbVertex
100
AcDb2dVertex
 10
107.8942517712206
 20
-270.6637116355326
 30
0.0
  0
SEQEND
  5
254
330
251
100
AcDbEntity
  8
0
 62
   250
370
    25
  0
ENDBLK
  5
250
330
24D
100
AcDbEntity
  8
0
100
AcDbBlockEnd
  0
BLOCK
  5
257
330
255
100
AcDbEntity
  8
0
100
AcDbBlockBegin
  2
block 85
 70
     0
 10
0.0
 20
0.0
 30
0.0
  3
block 85
  1

  0
POLYLINE
  5
259
330
255
100
AcDbEntity
  8
0
 62
   250
370
    25
100
AcDb2dPolyline
 66
     1
 10
0.0
 20
0.0
 30
0.0
  0
VERTEX
  5
25A
330
259
100
AcDbEntity
  8
0
 62
   250
370
    25
100
AcDbVertex
100
AcDb2dVertex
 10
115.7832605958781
 20
430.0209556634463
 30
0.0
  0
VERTEX
  5
25B
330
259
100
AcDbEntity
  8
0
 62
   250
370
    25
100
AcDbVertex
100
AcDb2dVertex
 10
110.9372758845964
 20
11.43276531998379
 30
0.0
  0
SEQEND
  5
25C
330
259
100
AcDbEntity
  8
0
 62
   250
370
    25
  0
ENDBLK
  5
258
330
255
100
AcDbEntity
  8
0
100
AcDbBlockEnd
  0
BLOCK
  5
25F
330
25D
100
AcDbEntity
  8
0
100
AcDbBlockBegin
  2
block 86
 70
     0
 10
0.0
 20
0.0
 30
0.0
  3
block 86
  1

  0
SPLINE
  5
261
330
25D
100
AcDbEntity
  8
0
 62
   250
370
    25
100
AcDbSpline
210
0.0
220
0.0
230
1.0
 70
     8
 71
     3
 72
    11
 73
     7
 74
     0
 42
0.0000000001
 43
0.0000000001
 12
1.0
 22
0.0
 32
0.0
 13
1.0
 23
0.0
 33
0.0
 40
0.0
 40
0.0
 40
0.0
 40
0.0
 40
1.0
 40
1.0
 40
1.0
 40
2.0
 40
2.0
 40
2.0
 40
2.0
 10
-45.95941973442388
 20
-270.4584893977383
 30
0.0
 10
-45.95941973442388
 20
-277.3073777695714
 30
0.0
 10
-43.80966805231944
 20
-279.0777361760527
 30
0.0
 10
-37.20409091854604
 20
-279.0777361760527
 30
0.0
 10
-5.666217433189093
 20
-279.0777361760527
 30
0.0
 10
-5.458649261960492
 20
-279.0794587334895
 30
0.0
 10
30.97473246100833
 20
-279.0794587334895
 30
0.0
  0
ENDBLK
  5
260
330
25D
100
AcDbEntity
  8
0
100
AcDbBlockEnd
  0
BLOCK
  5
264
330
262
100
AcDbEntity
  8
0
100
AcDbBlockBegin
  2
block 87
 70
     0
 10
0.0
 20
0.0
 30
0.0
  3
block 87
  1

  0
SPLINE
  5
266
330
262
100
AcDbEntity
  8
0
 62
   250
370
    25
100
AcDbSpline
210
0.0
220
0.0
230
1.0
 70
     8
 71
     3
 72
    11
 73
     7
 74
     0
 42
0.0000000001
 43
0.0000000001
 12
1.0
 22
0.0
 32
0.0
 13
1.0
 23
0.0
 33
0.0
 40
0.0
 40
0.0
 40
0.0
 40
0.0
 40
1.0
 40
1.0
 40
1.0
 40
2.0
 40
2.0
 40
2.0
 40
2.0
 10
107.908454017078
 20
-270.457197479666
 30
0.0
 10
107.908454017078
 20
-277.3056552121379
 30
0.0
 10
105.7591329743335
 20
-279.0768748973308
 30
0.0
 10
99.15269456184176
 20
-279.0768748973308
 30
0.0
 10
67.61525171584417
 20
-279.0768748973308
 30
0.0
 10
67.40811418397523
 20
-279.0781668154102
 30
0.0
 10
30.97473246100833
 20
-279.0781668154102
 30
0.0
  0
ENDBLK
  5
265
330
262
100
AcDbEntity
  8
0
100
AcDbBlockEnd
  0
ENDSEC
  0
SECTION
  2
ENTITIES
  0
INSERT
  5
41
330
1F
100
AcDbEntity
  8
0
100
AcDbBlockReference
  2
block 2
 10
0.0
 20
0.0
 30
0.0
  0
INSERT
  5
46
330
1F
100
AcDbEntity
  8
0
100
AcDbBlockReference
  2
block 3
 10
0.0
 20
0.0
 30
0.0
  0
INSERT
  5
4C
330
1F
100
AcDbEntity
  8
0
100
AcDbBlockReference
  2
block 4
 10
0.0
 20
0.0
 30
0.0
  0
INSERT
  5
51
330
1F
100
AcDbEntity
  8
0
100
AcDbBlockReference
  2
block 5
 10
0.0
 20
0.0
 30
0.0
  0
INSERT
  5
57
330
1F
100
AcDbEntity
  8
0
100
AcDbBlockReference
  2
block 6
 10
0.0
 20
0.0
 30
0.0
  0
INSERT
  5
5D
330
1F
100
AcDbEntity
  8
0
100
AcDbBlockReference
  2
block 7
 10
0.0
 20
0.0
 30
0.0
  0
INSERT
  5
62
330
1F
100
AcDbEntity
  8
0
100
AcDbBlockReference
  2
block 8
 10
0.0
 20
0.0
 30
0.0
  0
INSERT
  5
68
330
1F
100
AcDbEntity
  8
0
100
AcDbBlockReference
  2
block 9
 10
0.0
 20
0.0
 30
0.0
  0
INSERT
  5
6E
330
1F
100
AcDbEntity
  8
0
100
AcDbBlockReference
  2
block 10
 10
0.0
 20
0.0
 30
0.0
  0
INSERT
  5
74
330
1F
100
AcDbEntity
  8
0
100
AcDbBlockReference
  2
block 11
 10
0.0
 20
0.0
 30
0.0
  0
INSERT
  5
7A
330
1F
100
AcDbEntity
  8
0
100
AcDbBlockReference
  2
block 12
 10
0.0
 20
0.0
 30
0.0
  0
INSERT
  5
7F
330
1F
100
AcDbEntity
  8
0
100
AcDbBlockReference
  2
block 13
 10
0.0
 20
0.0
 30
0.0
  0
INSERT
  5
85
330
1F
100
AcDbEntity
  8
0
100
AcDbBlockReference
  2
block 14
 10
0.0
 20
0.0
 30
0.0
  0
INSERT
  5
8B
330
1F
100
AcDbEntity
  8
0
100
AcDbBlockReference
  2
block 15
 10
0.0
 20
0.0
 30
0.0
  0
INSERT
  5
90
330
1F
100
AcDbEntity
  8
0
100
AcDbBlockReference
  2
block 16
 10
0.0
 20
0.0
 30
0.0
  0
INSERT
  5
95
330
1F
100
AcDbEntity
  8
0
100
AcDbBlockReference
  2
block 17
 10
0.0
 20
0.0
 30
0.0
  0
INSERT
  5
9B
330
1F
100
AcDbEntity
  8
0
100
AcDbBlockReference
  2
block 18
 10
0.0
 20
0.0
 30
0.0
  0
INSERT
  5
A1
330
1F
100
AcDbEntity
  8
0
100
AcDbBlockReference
  2
block 19
 10
0.0
 20
0.0
 30
0.0
  0
INSERT
  5
A7
330
1F
100
AcDbEntity
  8
0
100
AcDbBlockReference
  2
block 20
 10
0.0
 20
0.0
 30
0.0
  0
INSERT
  5
AD
330
1F
100
AcDbEntity
  8
0
100
AcDbBlockReference
  2
block 21
 10
0.0
 20
0.0
 30
0.0
  0
INSERT
  5
B2
330
1F
100
AcDbEntity
  8
0
100
AcDbBlockReference
  2
block 22
 10
0.0
 20
0.0
 30
0.0
  0
INSERT
  5
B7
330
1F
100
AcDbEntity
  8
0
100
AcDbBlockReference
  2
block 23
 10
0.0
 20
0.0
 30
0.0
  0
INSERT
  5
BD
330
1F
100
AcDbEntity
  8
0
100
AcDbBlockReference
  2
block 24
 10
0.0
 20
0.0
 30
0.0
  0
INSERT
  5
C3
330
1F
100
AcDbEntity
  8
0
100
AcDbBlockReference
  2
block 25
 10
0.0
 20
0.0
 30
0.0
  0
INSERT
  5
C8
330
1F
100
AcDbEntity
  8
0
100
AcDbBlockReference
  2
block 26
 10
0.0
 20
0.0
 30
0.0
  0
INSERT
  5
CD
330
1F
100
AcDbEntity
  8
0
100
AcDbBlockReference
  2
block 27
 10
0.0
 20
0.0
 30
0.0
  0
INSERT
  5
D2
330
1F
100
AcDbEntity
  8
0
100
AcDbBlockReference
  2
block 28
 10
0.0
 20
0.0
 30
0.0
  0
INSERT
  5
D7
330
1F
100
AcDbEntity
  8
0
100
AcDbBlockReference
  2
block 29
 10
0.0
 20
0.0
 30
0.0
  0
INSERT
  5
DC
330
1F
100
AcDbEntity
  8
0
100
AcDbBlockReference
  2
block 30
 10
0.0
 20
0.0
 30
0.0
  0
INSERT
  5
E1
330
1F
100
AcDbEntity
  8
0
100
AcDbBlockReference
  2
block 31
 10
0.0
 20
0.0
 30
0.0
  0
INSERT
  5
E6
330
1F
100
AcDbEntity
  8
0
100
AcDbBlockReference
  2
block 32
 10
0.0
 20
0.0
 30
0.0
  0
INSERT
  5
EC
330
1F
100
AcDbEntity
  8
0
100
AcDbBlockReference
  2
block 33
 10
0.0
 20
0.0
 30
0.0
  0
INSERT
  5
F2
330
1F
100
AcDbEntity
  8
0
100
AcDbBlockReference
  2
block 34
 10
0.0
 20
0.0
 30
0.0
  0
INSERT
  5
F7
330
1F
100
AcDbEntity
  8
0
100
AcDbBlockReference
  2
block 35
 10
0.0
 20
0.0
 30
0.0
  0
INSERT
  5
FF
330
1F
100
AcDbEntity
  8
0
100
AcDbBlockReference
  2
block 36
 10
0.0
 20
0.0
 30
0.0
  0
INSERT
  5
105
330
1F
100
AcDbEntity
  8
0
100
AcDbBlockReference
  2
block 37
 10
0.0
 20
0.0
 30
0.0
  0
INSERT
  5
10A
330
1F
100
AcDbEntity
  8
0
100
AcDbBlockReference
  2
block 38
 10
0.0
 20
0.0
 30
0.0
  0
INSERT
  5
110
330
1F
100
AcDbEntity
  8
0
100
AcDbBlockReference
  2
block 39
 10
0.0
 20
0.0
 30
0.0
  0
INSERT
  5
116
330
1F
100
AcDbEntity
  8
0
100
AcDbBlockReference
  2
block 40
 10
0.0
 20
0.0
 30
0.0
  0
INSERT
  5
11B
330
1F
100
AcDbEntity
  8
0
100
AcDbBlockReference
  2
block 41
 10
0.0
 20
0.0
 30
0.0
  0
INSERT
  5
121
330
1F
100
AcDbEntity
  8
0
100
AcDbBlockReference
  2
block 42
 10
0.0
 20
0.0
 30
0.0
  0
INSERT
  5
126
330
1F
100
AcDbEntity
  8
0
100
AcDbBlockReference
  2
block 43
 10
0.0
 20
0.0
 30
0.0
  0
INSERT
  5
12B
330
1F
100
AcDbEntity
  8
0
100
AcDbBlockReference
  2
block 44
 10
0.0
 20
0.0
 30
0.0
  0
INSERT
  5
131
330
1F
100
AcDbEntity
  8
0
100
AcDbBlockReference
  2
block 45
 10
0.0
 20
0.0
 30
0.0
  0
INSERT
  5
136
330
1F
100
AcDbEntity
  8
0
100
AcDbBlockReference
  2
block 46
 10
0.0
 20
0.0
 30
0.0
  0
INSERT
  5
13C
330
1F
100
AcDbEntity
  8
0
100
AcDbBlockReference
  2
block 47
 10
0.0
 20
0.0
 30
0.0
  0
INSERT
  5
141
330
1F
100
AcDbEntity
  8
0
100
AcDbBlockReference
  2
block 48
 10
0.0
 20
0.0
 30
0.0
  0
INSERT
  5
146
330
1F
100
AcDbEntity
  8
0
100
AcDbBlockReference
  2
block 49
 10
0.0
 20
0.0
 30
0.0
  0
INSERT
  5
14B
330
1F
100
AcDbEntity
  8
0
100
AcDbBlockReference
  2
block 50
 10
0.0
 20
0.0
 30
0.0
  0
INSERT
  5
150
330
1F
100
AcDbEntity
  8
0
100
AcDbBlockReference
  2
block 51
 10
0.0
 20
0.0
 30
0.0
  0
INSERT
  5
155
330
1F
100
AcDbEntity
  8
0
100
AcDbBlockReference
  2
block 52
 10
0.0
 20
0.0
 30
0.0
  0
INSERT
  5
15B
330
1F
100
AcDbEntity
  8
0
100
AcDbBlockReference
  2
block 53
 10
0.0
 20
0.0
 30
0.0
  0
INSERT
  5
160
330
1F
100
AcDbEntity
  8
0
100
AcDbBlockReference
  2
block 54
 10
0.0
 20
0.0
 30
0.0
  0
INSERT
  5
165
330
1F
100
AcDbEntity
  8
0
100
AcDbBlockReference
  2
block 55
 10
0.0
 20
0.0
 30
0.0
  0
INSERT
  5
16A
330
1F
100
AcDbEntity
  8
0
100
AcDbBlockReference
  2
block 56
 10
0.0
 20
0.0
 30
0.0
  0
INSERT
  5
170
330
1F
100
AcDbEntity
  8
0
100
AcDbBlockReference
  2
block 57
 10
0.0
 20
0.0
 30
0.0
  0
INSERT
  5
175
330
1F
100
AcDbEntity
  8
0
100
AcDbBlockReference
  2
block 58
 10
0.0
 20
0.0
 30
0.0
  0
INSERT
  5
17A
330
1F
100
AcDbEntity
  8
0
100
AcDbBlockReference
  2
block 59
 10
0.0
 20
0.0
 30
0.0
  0
INSERT
  5
180
330
1F
100
AcDbEntity
  8
0
100
AcDbBlockReference
  2
block 60
 10
0.0
 20
0.0
 30
0.0
  0
INSERT
  5
186
330
1F
100
AcDbEntity
  8
0
100
AcDbBlockReference
  2
block 61
 10
0.0
 20
0.0
 30
0.0
  0
INSERT
  5
18C
330
1F
100
AcDbEntity
  8
0
100
AcDbBlockReference
  2
block 62
 10
0.0
 20
0.0
 30
0.0
  0
INSERT
  5
192
330
1F
100
AcDbEntity
  8
0
100
AcDbBlockReference
  2
block 63
 10
0.0
 20
0.0
 30
0.0
  0
INSERT
  5
197
330
1F
100
AcDbEntity
  8
0
100
AcDbBlockReference
  2
block 64
 10
0.0
 20
0.0
 30
0.0
  0
INSERT
  5
19C
330
1F
100
AcDbEntity
  8
0
100
AcDbBlockReference
  2
block 65
 10
0.0
 20
0.0
 30
0.0
  0
INSERT
  5
1BA
330
1F
100
AcDbEntity
  8
0
100
AcDbBlockReference
  2
block 68
 10
0.0
 20
0.0
 30
0.0
  0
INSERT
  5
1D8
330
1F
100
AcDbEntity
  8
0
100
AcDbBlockReference
  2
block 71
 10
0.0
 20
0.0
 30
0.0
  0
INSERT
  5
1DE
330
1F
100
AcDbEntity
  8
0
100
AcDbBlockReference
  2
block 72
 10
0.0
 20
0.0
 30
0.0
  0
INSERT
  5
1FC
330
1F
100
AcDbEntity
  8
0
100
AcDbBlockReference
  2
block 75
 10
0.0
 20
0.0
 30
0.0
  0
INSERT
  5
21A
330
1F
100
AcDbEntity
  8
0
100
AcDbBlockReference
  2
block 78
 10
0.0
 20
0.0
 30
0.0
  0
INSERT
  5
238
330
1F
100
AcDbEntity
  8
0
100
AcDbBlockReference
  2
block 81
 10
0.0
 20
0.0
 30
0.0
  0
INSERT
  5
23E
330
1F
100
AcDbEntity
  8
0
100
AcDbBlockReference
  2
block 82
 10
0.0
 20
0.0
 30
0.0
  0
INSERT
  5
246
330
1F
100
AcDbEntity
  8
0
100
AcDbBlockReference
  2
block 83
 10
0.0
 20
0.0
 30
0.0
  0
INSERT
  5
24E
330
1F
100
AcDbEntity
  8
0
100
AcDbBlockReference
  2
block 84
 10
0.0
 20
0.0
 30
0.0
  0
INSERT
  5
256
330
1F
100
AcDbEntity
  8
0
100
AcDbBlockReference
  2
block 85
 10
0.0
 20
0.0
 30
0.0
  0
INSERT
  5
25E
330
1F
100
AcDbEntity
  8
0
100
AcDbBlockReference
  2
block 86
 10
0.0
 20
0.0
 30
0.0
  0
INSERT
  5
263
330
1F
100
AcDbEntity
  8
0
100
AcDbBlockReference
  2
block 87
 10
0.0
 20
0.0
 30
0.0
  0
ENDSEC
  0
SECTION
  2
OBJECTS
  0
DICTIONARY
  5
C
330
0
100
AcDbDictionary
281
     1
  3
ACAD_GROUP
350
D
  3
ACAD_LAYOUT
350
1A
  3
ACAD_MATERIAL
350
3B
  3
ACAD_MLEADERSTYLE
350
288
  3
ACAD_MLINESTYLE
350
17
  3
ACAD_PLOTSETTINGS
350
19
  3
ACAD_PLOTSTYLENAME
350
E
  3
ACAD_TABLESTYLE
350
287
  3
ACAD_VISUALSTYLE
350
2A
  0
SUN
  5
3F
330
29
100
AcDbSun
 90
        1
290
     0
 63
     7
421
 16777215
 40
1.0
291
     1
 91
  2455826
 92
 54000000
292
     0
 70
     2
 71
   256
280
     1
  0
DICTIONARY
  5
D
102
{ACAD_REACTORS
330
C
102
}
330
C
100
AcDbDictionary
281
     1
  0
DICTIONARY
  5
1A
102
{ACAD_REACTORS
330
C
102
}
330
C
100
AcDbDictionary
281
     1
  3
Layout1
350
1E
  3
Layout2
350
26
  3
Model
350
22
  0
DICTIONARY
  5
3B
102
{ACAD_REACTORS
330
C
102
}
330
C
100
AcDbDictionary
281
     1
  3
ByBlock
350
3D
  3
ByLayer
350
3C
  3
Global
350
3E
  0
DICTIONARY
  5
288
102
{ACAD_REACTORS
330
C
102
}
330
C
100
AcDbDictionary
281
     1
  0
DICTIONARY
  5
17
102
{ACAD_REACTORS
330
C
102
}
330
C
100
AcDbDictionary
281
     1
  3
Standard
350
18
  0
DICTIONARY
  5
19
102
{ACAD_REACTORS
330
C
102
}
330
C
100
AcDbDictionary
281
     1
  0
ACDBDICTIONARYWDFLT
  5
E
102
{ACAD_REACTORS
330
C
102
}
330
C
100
AcDbDictionary
281
     1
  3
Normal
350
F
100
AcDbDictionaryWithDefault
340
F
  0
DICTIONARY
  5
287
102
{ACAD_REACTORS
330
C
102
}
330
C
100
AcDbDictionary
281
     1
  0
DICTIONARY
  5
2A
102
{ACAD_REACTORS
330
C
102
}
330
C
100
AcDbDictionary
281
     1
  3
2dWireframe
350
2F
  3
3D Hidden
350
31
  3
3dWireframe
350
30
  3
Basic
350
32
  3
Brighten
350
36
  3
ColorChange
350
3A
  3
Conceptual
350
34
  3
Dim
350
35
  3
Facepattern
350
39
  3
Flat
350
2B
  3
FlatWithEdges
350
2C
  3
Gouraud
350
2D
  3
GouraudWithEdges
350
2E
  3
Linepattern
350
38
  3
Realistic
350
33
  3
Thicken
350
37
  0
LAYOUT
  5
1E
102
{ACAD_REACTORS
330
1A
102
}
330
1A
100
AcDbPlotSettings
  1

  2
none_device
  4

  6

 40
0.0
 41
0.0
 42
0.0
 43
0.0
 44
0.0
 45
0.0
 46
0.0
 47
0.0
 48
0.0
 49
0.0
140
0.0
141
0.0
142
1.0
143
1.0
 70
   688
 72
     0
 73
     0
 74
     5
  7

 75
    16
 76
     0
 77
     2
 78
   300
147
1.0
148
0.0
149
0.0
100
AcDbLayout
  1
Layout1
 70
     1
 71
     1
 10
0.0
 20
0.0
 11
12.0
 21
9.0
 12
0.0
 22
0.0
 32
0.0
 14
1.000000000000000E+20
 24
1.000000000000000E+20
 34
1.000000000000000E+20
 15
-1.000000000000000E+20
 25
-1.000000000000000E+20
 35
-1.000000000000000E+20
146
0.0
 13
0.0
 23
0.0
 33
0.0
 16
1.0
 26
0.0
 36
0.0
 17
0.0
 27
1.0
 37
0.0
 76
     0
330
1B
  0
LAYOUT
  5
26
102
{ACAD_REACTORS
330
1A
102
}
330
1A
100
AcDbPlotSettings
  1

  2
none_device
  4

  6

 40
0.0
 41
0.0
 42
0.0
 43
0.0
 44
0.0
 45
0.0
 46
0.0
 47
0.0
 48
0.0
 49
0.0
140
0.0
141
0.0
142
1.0
143
1.0
 70
   688
 72
     0
 73
     0
 74
     5
  7

 75
    16
 76
     0
 77
     2
 78
   300
147
1.0
148
0.0
149
0.0
100
AcDbLayout
  1
Layout2
 70
     1
 71
     2
 10
0.0
 20
0.0
 11
0.0
 21
0.0
 12
0.0
 22
0.0
 32
0.0
 14
0.0
 24
0.0
 34
0.0
 15
0.0
 25
0.0
 35
0.0
146
0.0
 13
0.0
 23
0.0
 33
0.0
 16
1.0
 26
0.0
 36
0.0
 17
0.0
 27
1.0
 37
0.0
 76
     0
330
23
  0
LAYOUT
  5
22
102
{ACAD_REACTORS
330
1A
102
}
330
1A
100
AcDbPlotSettings
  1

  2
none_device
  4

  6

 40
0.0
 41
0.0
 42
0.0
 43
0.0
 44
0.0
 45
0.0
 46
0.0
 47
0.0
 48
0.0
 49
0.0
140
0.0
141
0.0
142
1.0
143
1.0
 70
  1712
 72
     0
 73
     0
 74
     0
  7

 75
     0
 76
     0
 77
     2
 78
   300
147
1.0
148
0.0
149
0.0
100
AcDbLayout
  1
Model
 70
     1
 71
     0
 10
0.0
 20
0.0
 11
12.0
 21
9.0
 12
0.0
 22
0.0
 32
0.0
 14
1.000000000000000E+20
 24
1.000000000000000E+20
 34
1.000000000000000E+20
 15
-1.000000000000000E+20
 25
-1.000000000000000E+20
 35
-1.000000000000000E+20
146
0.0
 13
0.0
 23
0.0
 33
0.0
 16
1.0
 26
0.0
 36
0.0
 17
0.0
 27
1.0
 37
0.0
 76
     0
330
1F
331
29
  0
MATERIAL
  5
3D
102
{ACAD_REACTORS
330
3B
102
}
330
3B
100
AcDbMaterial
  1
ByBlock
 72
     1
 94
      127
  0
MATERIAL
  5
3C
102
{ACAD_REACTORS
330
3B
102
}
330
3B
100
AcDbMaterial
  1
ByLayer
 72
     1
 94
      127
  0
MATERIAL
  5
3E
102
{ACAD_REACTORS
330
3B
102
}
330
3B
100
AcDbMaterial
  1
Global
 72
     1
 94
      127
  0
MLINESTYLE
  5
18
102
{ACAD_REACTORS
330
17
102
}
330
17
100
AcDbMlineStyle
  2
Standard
 70
     0
  3

 62
   256
 51
90.0
 52
90.0
 71
     2
 49
0.5
 62
   256
  6
BYLAYER
 49
-0.5
 62
   256
  6
BYLAYER
  0
ACDBPLACEHOLDER
  5
F
102
{ACAD_REACTORS
330
E
102
}
330
E
  0
VISUALSTYLE
  5
2F
102
{ACAD_REACTORS
330
2A
102
}
102
{ACAD_XDICTIONARY
360
26F
102
}
330
2A
100
AcDbVisualStyle
  2
2dWireframe
 70
     4
 71
     0
 72
     2
 73
     0
 90
        0
 40
-0.6
 41
-30.0
 62
     5
 63
     7
421
 16777215
 74
     1
 91
        4
 64
     7
 65
   257
 75
     1
175
     1
 42
1.0
 92
        0
 66
   257
 43
1.0
 76
     1
 77
     6
 78
     2
 67
     7
 79
     5
170
     0
171
     0
290
     0
174
     0
 93
        1
 44
0.0
173
     0
291
     0
 45
0.0
  0
VISUALSTYLE
  5
31
102
{ACAD_REACTORS
330
2A
102
}
102
{ACAD_XDICTIONARY
360
273
102
}
330
2A
100
AcDbVisualStyle
  2
3D Hidden
 70
     6
 71
     1
 72
     2
 73
     2
 90
        0
 40
-0.6
 41
-30.0
 62
     5
 63
     7
421
 16777215
 74
     2
 91
        2
 64
     7
 65
   257
 75
     2
175
     1
 42
40.0
 92
        0
 66
   257
 43
1.0
 76
     1
 77
     6
 78
     2
 67
     7
 79
     3
170
     0
171
     0
290
     0
174
     0
 93
        1
 44
0.0
173
     0
291
     0
 45
0.0
  0
VISUALSTYLE
  5
30
102
{ACAD_REACTORS
330
2A
102
}
102
{ACAD_XDICTIONARY
360
271
102
}
330
2A
100
AcDbVisualStyle
  2
3dWireframe
 70
     5
 71
     0
 72
     2
 73
     0
 90
        0
 40
-0.6
 41
-30.0
 62
     5
 63
     7
421
 16777215
 74
     1
 91
        4
 64
     7
 65
   257
 75
     1
175
     1
 42
1.0
 92
        0
 66
   257
 43
1.0
 76
     1
 77
     6
 78
     2
 67
     7
 79
     5
170
     0
171
     0
290
     0
174
     0
 93
        1
 44
0.0
173
     0
291
     0
 45
0.0
  0
VISUALSTYLE
  5
32
102
{ACAD_REACTORS
330
2A
102
}
102
{ACAD_XDICTIONARY
360
275
102
}
330
2A
100
AcDbVisualStyle
  2
Basic
 70
     7
 71
     1
 72
     0
 73
     1
 90
        0
 40
-0.6
 41
-30.0
 62
     5
 63
     7
421
 16777215
 74
     0
 91
        4
 64
     7
 65
   257
 75
     1
175
     1
 42
1.0
 92
        8
 66
     7
 43
1.0
 76
     1
 77
     6
 78
     2
 67
     7
 79
     5
170
     0
171
     0
290
     0
174
     0
 93
        1
 44
0.0
173
     0
291
     1
 45
0.0
  0
VISUALSTYLE
  5
36
102
{ACAD_REACTORS
330
2A
102
}
102
{ACAD_XDICTIONARY
360
27D
102
}
330
2A
100
AcDbVisualStyle
  2
Brighten
 70
    12
 71
     2
 72
     2
 73
     0
 90
        0
 40
-0.6
 41
-30.0
 62
     5
 63
     7
421
 16777215
 74
     1
 91
        4
 64
     7
 65
   257
 75
     1
175
     1
 42
1.0
 92
        8
 66
     7
 43
1.0
 76
     1
 77
     6
 78
     2
 67
     7
 79
     5
170
     0
171
     0
290
     0
174
     0
 93
        1
 44
50.0
173
     0
291
     1
 45
0.0
  0
VISUALSTYLE
  5
3A
102
{ACAD_REACTORS
330
2A
102
}
102
{ACAD_XDICTIONARY
360
285
102
}
330
2A
100
AcDbVisualStyle
  2
ColorChange
 70
    16
 71
     2
 72
     2
 73
     3
 90
        0
 40
-0.6
 41
-30.0
 62
     5
 63
     8
421
  8421504
 74
     1
 91
        4
 64
     7
 65
   257
 75
     1
175
     1
 42
1.0
 92
        8
 66
     8
424
  8421504
 43
1.0
 76
     1
 77
     6
 78
     2
 67
     7
 79
     5
170
     0
171
     0
290
     0
174
     0
 93
        1
 44
0.0
173
     0
291
     1
 45
0.0
  0
VISUALSTYLE
  5
34
102
{ACAD_REACTORS
330
2A
102
}
102
{ACAD_XDICTIONARY
360
279
102
}
330
2A
100
AcDbVisualStyle
  2
Conceptual
 70
     9
 71
     3
 72
     2
 73
     0
 90
        0
 40
-0.6
 41
-30.0
 62
     5
 63
     7
421
 16777215
 74
     2
 91
        2
 64
     7
 65
   257
 75
     1
175
     1
 42
40.0
 92
        8
 66
     7
 43
1.0
 76
     1
 77
     6
 78
     2
 67
     7
 79
     3
170
     0
171
     0
290
     0
174
     0
 93
        1
 44
0.0
173
     0
291
     0
 45
0.0
  0
VISUALSTYLE
  5
35
102
{ACAD_REACTORS
330
2A
102
}
102
{ACAD_XDICTIONARY
360
27B
102
}
330
2A
100
AcDbVisualStyle
  2
Dim
 70
    11
 71
     2
 72
     2
 73
     0
 90
        0
 40
-0.6
 41
-30.0
 62
     5
 63
     7
421
 16777215
 74
     1
 91
        4
 64
     7
 65
   257
 75
     1
175
     1
 42
1.0
 92
        8
 66
     7
 43
1.0
 76
     1
 77
     6
 78
     2
 67
     7
 79
     5
170
     0
171
     0
290
     0
174
     0
 93
        1
 44
-50.0
173
     0
291
     1
 45
0.0
  0
VISUALSTYLE
  5
39
102
{ACAD_REACTORS
330
2A
102
}
102
{ACAD_XDICTIONARY
360
283
102
}
330
2A
100
AcDbVisualStyle
  2
Facepattern
 70
    15
 71
     2
 72
     2
 73
     0
 90
        0
 40
-0.6
 41
-30.0
 62
     5
 63
     7
421
 16777215
 74
     1
 91
        4
 64
     7
 65
   257
 75
     1
175
     1
 42
1.0
 92
        8
 66
     7
 43
1.0
 76
     1
 77
     6
 78
     2
 67
     7
 79
     5
170
     0
171
     0
290
     0
174
     0
 93
        1
 44
0.0
173
     0
291
     1
 45
0.0
  0
VISUALSTYLE
  5
2B
102
{ACAD_REACTORS
330
2A
102
}
102
{ACAD_XDICTIONARY
360
267
102
}
330
2A
100
AcDbVisualStyle
  2
Flat
 70
     0
 71
     2
 72
     1
 73
     1
 90
        2
 40
-0.6
 41
30.0
 62
     5
 63
     7
421
 16777215
 74
     0
 91
        4
 64
     7
 65
   257
 75
     1
175
     1
 42
1.0
 92
        8
 66
     7
 43
1.0
 76
     1
 77
     6
 78
     2
 67
     7
 79
     5
170
     0
171
     0
290
     0
174
     0
 93
       13
 44
0.0
173
     0
291
     1
 45
0.0
  0
VISUALSTYLE
  5
2C
102
{ACAD_REACTORS
330
2A
102
}
102
{ACAD_XDICTIONARY
360
269
102
}
330
2A
100
AcDbVisualStyle
  2
FlatWithEdges
 70
     1
 71
     2
 72
     1
 73
     1
 90
        2
 40
-0.6
 41
30.0
 62
     5
 63
     7
421
 16777215
 74
     1
 91
        4
 64
     7
 65
   257
 75
     1
175
     1
 42
1.0
 92
        0
 66
   257
 43
1.0
 76
     1
 77
     6
 78
     2
 67
     7
 79
     5
170
     0
171
     0
290
     0
174
     0
 93
       13
 44
0.0
173
     0
291
     1
 45
0.0
  0
VISUALSTYLE
  5
2D
102
{ACAD_REACTORS
330
2A
102
}
102
{ACAD_XDICTIONARY
360
26B
102
}
330
2A
100
AcDbVisualStyle
  2
Gouraud
 70
     2
 71
     2
 72
     2
 73
     1
 90
        2
 40
-0.6
 41
30.0
 62
     5
 63
     7
421
 16777215
 74
     0
 91
        4
 64
     7
 65
   257
 75
     1
175
     1
 42
1.0
 92
        0
 66
     7
 43
1.0
 76
     1
 77
     6
 78
     2
 67
     7
 79
     5
170
     0
171
     0
290
     0
174
     0
 93
       13
 44
0.0
173
     0
291
     1
 45
0.0
  0
VISUALSTYLE
  5
2E
102
{ACAD_REACTORS
330
2A
102
}
102
{ACAD_XDICTIONARY
360
26D
102
}
330
2A
100
AcDbVisualStyle
  2
GouraudWithEdges
 70
     3
 71
     2
 72
     2
 73
     1
 90
        2
 40
-0.6
 41
30.0
 62
     5
 63
     7
421
 16777215
 74
     1
 91
        4
 64
     7
 65
   257
 75
     1
175
     1
 42
1.0
 92
        0
 66
   257
 43
1.0
 76
     1
 77
     6
 78
     2
 67
     7
 79
     5
170
     0
171
     0
290
     0
174
     0
 93
       13
 44
0.0
173
     0
291
     1
 45
0.0
  0
VISUALSTYLE
  5
38
102
{ACAD_REACTORS
330
2A
102
}
102
{ACAD_XDICTIONARY
360
281
102
}
330
2A
100
AcDbVisualStyle
  2
Linepattern
 70
    14
 71
     2
 72
     2
 73
     0
 90
        0
 40
-0.6
 41
-30.0
 62
     5
 63
     7
421
 16777215
 74
     1
 91
        4
 64
     7
 65
   257
 75
     7
175
     7
 42
1.0
 92
        8
 66
     7
 43
1.0
 76
     1
 77
     6
 78
     2
 67
     7
 79
     5
170
     0
171
     0
290
     0
174
     0
 93
        1
 44
0.0
173
     0
291
     1
 45
0.0
  0
VISUALSTYLE
  5
33
102
{ACAD_REACTORS
330
2A
102
}
102
{ACAD_XDICTIONARY
360
277
102
}
330
2A
100
AcDbVisualStyle
  2
Realistic
 70
     8
 71
     2
 72
     2
 73
     0
 90
        0
 40
-0.6
 41
-30.0
 62
     5
 63
     7
421
 16777215
 74
     1
 91
        0
 64
     7
 65
   257
 75
     1
175
     1
 42
1.0
 92
        8
 66
     8
424
  7895160
 43
1.0
 76
     1
 77
     6
 78
     2
 67
     7
 79
     5
170
     0
171
     0
290
     0
174
     0
 93
       13
 44
0.0
173
     0
291
     0
 45
0.0
  0
VISUALSTYLE
  5
37
102
{ACAD_REACTORS
330
2A
102
}
102
{ACAD_XDICTIONARY
360
27F
102
}
330
2A
100
AcDbVisualStyle
  2
Thicken
 70
    13
 71
     2
 72
     2
 73
     0
 90
        0
 40
-0.6
 41
-30.0
 62
     5
 63
     7
421
 16777215
 74
     1
 91
        4
 64
     7
 65
   257
 75
     1
175
     1
 42
1.0
 92
       12
 66
     7
 43
1.0
 76
     1
 77
     6
 78
     2
 67
     7
 79
     5
170
     0
171
     0
290
     0
174
     0
 93
        1
 44
0.0
173
     0
291
     1
 45
0.0
  0
DICTIONARY
  5
26F
330
2F
100
AcDbDictionary
280
     1
281
     1
  3
ACAD_XREC_ROUNDTRIP
360
270
  0
DICTIONARY
  5
273
330
31
100
AcDbDictionary
280
     1
281
     1
  3
ACAD_XREC_ROUNDTRIP
360
274
  0
DICTIONARY
  5
271
330
30
100
AcDbDictionary
280
     1
281
     1
  3
ACAD_XREC_ROUNDTRIP
360
272
  0
DICTIONARY
  5
275
330
32
100
AcDbDictionary
280
     1
281
     1
  3
ACAD_XREC_ROUNDTRIP
360
276
  0
DICTIONARY
  5
27D
330
36
100
AcDbDictionary
280
     1
281
     1
  3
ACAD_XREC_ROUNDTRIP
360
27E
  0
DICTIONARY
  5
285
330
3A
100
AcDbDictionary
280
     1
281
     1
  3
ACAD_XREC_ROUNDTRIP
360
286
  0
DICTIONARY
  5
279
330
34
100
AcDbDictionary
280
     1
281
     1
  3
ACAD_XREC_ROUNDTRIP
360
27A
  0
DICTIONARY
  5
27B
330
35
100
AcDbDictionary
280
     1
281
     1
  3
ACAD_XREC_ROUNDTRIP
360
27C
  0
DICTIONARY
  5
283
330
39
100
AcDbDictionary
280
     1
281
     1
  3
ACAD_XREC_ROUNDTRIP
360
284
  0
DICTIONARY
  5
267
330
2B
100
AcDbDictionary
280
     1
281
     1
  3
ACAD_XREC_ROUNDTRIP
360
268
  0
DICTIONARY
  5
269
330
2C
100
AcDbDictionary
280
     1
281
     1
  3
ACAD_XREC_ROUNDTRIP
360
26A
  0
DICTIONARY
  5
26B
330
2D
100
AcDbDictionary
280
     1
281
     1
  3
ACAD_XREC_ROUNDTRIP
360
26C
  0
DICTIONARY
  5
26D
330
2E
100
AcDbDictionary
280
     1
281
     1
  3
ACAD_XREC_ROUNDTRIP
360
26E
  0
DICTIONARY
  5
281
330
38
100
AcDbDictionary
280
     1
281
     1
  3
ACAD_XREC_ROUNDTRIP
360
282
  0
DICTIONARY
  5
277
330
33
100
AcDbDictionary
280
     1
281
     1
  3
ACAD_XREC_ROUNDTRIP
360
278
  0
DICTIONARY
  5
27F
330
37
100
AcDbDictionary
280
     1
281
     1
  3
ACAD_XREC_ROUNDTRIP
360
280
  0
XRECORD
  5
270
102
{ACAD_REACTORS
330
26F
102
}
330
26F
100
AcDbXrecord
280
     1
102
RTVSPropertyOp0
 70
     1
102
RTVSPropertyOp1
 70
     1
102
RTVSPropertyOp2
 70
     1
102
RTVSPropertyOp3
 70
     1
102
RTVSPropertyOp4
 70
     1
102
RTVSPropertyOp5
 70
     1
102
RTVSPropertyOp6
 70
     1
102
RTVSPropertyOp7
 70
     1
102
RTVSPropertyOp8
 70
     1
102
RTVSPropertyOp9
 70
     1
102
RTVSPropertyOp10
 70
     1
102
RTVSPropertyOp11
 70
     1
102
RTVSPropertyOp12
 70
     1
102
RTVSPropertyOp13
 70
     1
102
RTVSPropertyOp14
 70
     1
102
RTVSPropertyOp15
 70
     1
102
RTVSPropertyOp16
 70
     1
102
RTVSPropertyOp17
 70
     1
102
RTVSPropertyOp18
 70
     1
102
RTVSPropertyOp19
 70
     1
102
RTVSPropertyOp20
 70
     1
102
RTVSPropertyOp21
 70
     1
102
RTVSPropertyOp22
 70
     1
102
RTVSPropertyOp23
 70
     1
102
RTVSPropertyOp24
 70
     1
102
RTVSPropertyOp25
 70
     1
102
RTVSPropertyOp26
 70
     1
102
RTVSPropertyOp27
 70
     1
102
RTVSPropertyOp28
 70
     1
102
RTVSPropertyOp29
 70
     1
102
RTVSPropertyOp30
 70
     1
102
RTVSPropertyOp31
 70
     1
102
RTVSPropertyOp32
 70
     1
  0
XRECORD
  5
274
102
{ACAD_REACTORS
330
273
102
}
330
273
100
AcDbXrecord
280
     1
102
RTVSPropertyOp0
 70
     1
102
RTVSPropertyOp1
 70
     1
102
RTVSPropertyOp2
 70
     1
102
RTVSPropertyOp3
 70
     1
102
RTVSPropertyOp4
 70
     1
102
RTVSPropertyOp5
 70
     1
102
RTVSPropertyOp6
 70
     1
102
RTVSPropertyOp7
 70
     1
102
RTVSPropertyOp8
 70
     1
102
RTVSPropertyOp9
 70
     1
102
RTVSPropertyOp10
 70
     1
102
RTVSPropertyOp11
 70
     1
102
RTVSPropertyOp12
 70
     1
102
RTVSPropertyOp13
 70
     1
102
RTVSPropertyOp14
 70
     1
102
RTVSPropertyOp15
 70
     1
102
RTVSPropertyOp16
 70
     1
102
RTVSPropertyOp17
 70
     1
102
RTVSPropertyOp18
 70
     1
102
RTVSPropertyOp19
 70
     1
102
RTVSPropertyOp20
 70
     1
102
RTVSPropertyOp21
 70
     1
102
RTVSPropertyOp22
 70
     1
102
RTVSPropertyOp23
 70
     1
102
RTVSPropertyOp24
 70
     1
102
RTVSPropertyOp25
 70
     1
102
RTVSPropertyOp26
 70
     1
102
RTVSPropertyOp27
 70
     1
102
RTVSPropertyOp28
 70
     1
102
RTVSPropertyOp29
 70
     1
102
RTVSPropertyOp30
 70
     1
102
RTVSPropertyOp31
 70
     1
102
RTVSPropertyOp32
 70
     1
  0
XRECORD
  5
272
102
{ACAD_REACTORS
330
271
102
}
330
271
100
AcDbXrecord
280
     1
102
RTVSPropertyOp0
 70
     1
102
RTVSPropertyOp1
 70
     1
102
RTVSPropertyOp2
 70
     1
102
RTVSPropertyOp3
 70
     1
102
RTVSPropertyOp4
 70
     1
102
RTVSPropertyOp5
 70
     1
102
RTVSPropertyOp6
 70
     1
102
RTVSPropertyOp7
 70
     1
102
RTVSPropertyOp8
 70
     1
102
RTVSPropertyOp9
 70
     1
102
RTVSPropertyOp10
 70
     1
102
RTVSPropertyOp11
 70
     1
102
RTVSPropertyOp12
 70
     1
102
RTVSPropertyOp13
 70
     1
102
RTVSPropertyOp14
 70
     1
102
RTVSPropertyOp15
 70
     1
102
RTVSPropertyOp16
 70
     1
102
RTVSPropertyOp17
 70
     1
102
RTVSPropertyOp18
 70
     1
102
RTVSPropertyOp19
 70
     1
102
RTVSPropertyOp20
 70
     1
102
RTVSPropertyOp21
 70
     1
102
RTVSPropertyOp22
 70
     1
102
RTVSPropertyOp23
 70
     1
102
RTVSPropertyOp24
 70
     1
102
RTVSPropertyOp25
 70
     1
102
RTVSPropertyOp26
 70
     1
102
RTVSPropertyOp27
 70
     1
102
RTVSPropertyOp28
 70
     1
102
RTVSPropertyOp29
 70
     1
102
RTVSPropertyOp30
 70
     1
102
RTVSPropertyOp31
 70
     1
102
RTVSPropertyOp32
 70
     1
  0
XRECORD
  5
276
102
{ACAD_REACTORS
330
275
102
}
330
275
100
AcDbXrecord
280
     1
102
RTVSPropertyOp0
 70
     1
102
RTVSPropertyOp1
 70
     1
102
RTVSPropertyOp2
 70
     1
102
RTVSPropertyOp3
 70
     1
102
RTVSPropertyOp4
 70
     1
102
RTVSPropertyOp5
 70
     1
102
RTVSPropertyOp6
 70
     1
102
RTVSPropertyOp7
 70
     1
102
RTVSPropertyOp8
 70
     1
102
RTVSPropertyOp9
 70
     1
102
RTVSPropertyOp10
 70
     1
102
RTVSPropertyOp11
 70
     1
102
RTVSPropertyOp12
 70
     1
102
RTVSPropertyOp13
 70
     1
102
RTVSPropertyOp14
 70
     1
102
RTVSPropertyOp15
 70
     1
102
RTVSPropertyOp16
 70
     1
102
RTVSPropertyOp17
 70
     1
102
RTVSPropertyOp18
 70
     1
102
RTVSPropertyOp19
 70
     1
102
RTVSPropertyOp20
 70
     1
102
RTVSPropertyOp21
 70
     1
102
RTVSPropertyOp22
 70
     1
102
RTVSPropertyOp23
 70
     1
102
RTVSPropertyOp24
 70
     1
102
RTVSPropertyOp25
 70
     1
102
RTVSPropertyOp26
 70
     1
102
RTVSPropertyOp27
 70
     1
102
RTVSPropertyOp28
 70
     1
102
RTVSPropertyOp29
 70
     1
102
RTVSPropertyOp30
 70
     1
102
RTVSPropertyOp31
 70
     1
102
RTVSPropertyOp32
 70
     1
  0
XRECORD
  5
27E
102
{ACAD_REACTORS
330
27D
102
}
330
27D
100
AcDbXrecord
280
     1
102
RTVSPropertyOp0
 70
     1
102
RTVSPropertyOp1
 70
     1
102
RTVSPropertyOp2
 70
     1
102
RTVSPropertyOp3
 70
     1
102
RTVSPropertyOp4
 70
     1
102
RTVSPropertyOp5
 70
     1
102
RTVSPropertyOp6
 70
     1
102
RTVSPropertyOp7
 70
     1
102
RTVSPropertyOp8
 70
     1
102
RTVSPropertyOp9
 70
     1
102
RTVSPropertyOp10
 70
     1
102
RTVSPropertyOp11
 70
     1
102
RTVSPropertyOp12
 70
     1
102
RTVSPropertyOp13
 70
     1
102
RTVSPropertyOp14
 70
     1
102
RTVSPropertyOp15
 70
     1
102
RTVSPropertyOp16
 70
     1
102
RTVSPropertyOp17
 70
     1
102
RTVSPropertyOp18
 70
     1
102
RTVSPropertyOp19
 70
     1
102
RTVSPropertyOp20
 70
     1
102
RTVSPropertyOp21
 70
     1
102
RTVSPropertyOp22
 70
     1
102
RTVSPropertyOp23
 70
     1
102
RTVSPropertyOp24
 70
     1
102
RTVSPropertyOp25
 70
     1
102
RTVSPropertyOp26
 70
     1
102
RTVSPropertyOp27
 70
     1
102
RTVSPropertyOp28
 70
     1
102
RTVSPropertyOp29
 70
     1
102
RTVSPropertyOp30
 70
     1
102
RTVSPropertyOp31
 70
     1
102
RTVSPropertyOp32
 70
     1
  0
XRECORD
  5
286
102
{ACAD_REACTORS
330
285
102
}
330
285
100
AcDbXrecord
280
     1
102
RTVSPropertyOp0
 70
     1
102
RTVSPropertyOp1
 70
     1
102
RTVSPropertyOp2
 70
     1
102
RTVSPropertyOp3
 70
     1
102
RTVSPropertyOp4
 70
     1
102
RTVSPropertyOp5
 70
     1
102
RTVSPropertyOp6
 70
     1
102
RTVSPropertyOp7
 70
     1
102
RTVSPropertyOp8
 70
     1
102
RTVSPropertyOp9
 70
     1
102
RTVSPropertyOp10
 70
     1
102
RTVSPropertyOp11
 70
     1
102
RTVSPropertyOp12
 70
     1
102
RTVSPropertyOp13
 70
     1
102
RTVSPropertyOp14
 70
     1
102
RTVSPropertyOp15
 70
     1
102
RTVSPropertyOp16
 70
     1
102
RTVSPropertyOp17
 70
     1
102
RTVSPropertyOp18
 70
     1
102
RTVSPropertyOp19
 70
     1
102
RTVSPropertyOp20
 70
     1
102
RTVSPropertyOp21
 70
     1
102
RTVSPropertyOp22
 70
     1
102
RTVSPropertyOp23
 70
     1
102
RTVSPropertyOp24
 70
     1
102
RTVSPropertyOp25
 70
     1
102
RTVSPropertyOp26
 70
     1
102
RTVSPropertyOp27
 70
     1
102
RTVSPropertyOp28
 70
     1
102
RTVSPropertyOp29
 70
     1
102
RTVSPropertyOp30
 70
     1
102
RTVSPropertyOp31
 70
     1
102
RTVSPropertyOp32
 70
     1
  0
XRECORD
  5
27A
102
{ACAD_REACTORS
330
279
102
}
330
279
100
AcDbXrecord
280
     1
102
RTVSPropertyOp0
 70
     1
102
RTVSPropertyOp1
 70
     1
102
RTVSPropertyOp2
 70
     1
102
RTVSPropertyOp3
 70
     1
102
RTVSPropertyOp4
 70
     1
102
RTVSPropertyOp5
 70
     1
102
RTVSPropertyOp6
 70
     1
102
RTVSPropertyOp7
 70
     1
102
RTVSPropertyOp8
 70
     1
102
RTVSPropertyOp9
 70
     1
102
RTVSPropertyOp10
 70
     1
102
RTVSPropertyOp11
 70
     1
102
RTVSPropertyOp12
 70
     1
102
RTVSPropertyOp13
 70
     1
102
RTVSPropertyOp14
 70
     1
102
RTVSPropertyOp15
 70
     1
102
RTVSPropertyOp16
 70
     1
102
RTVSPropertyOp17
 70
     1
102
RTVSPropertyOp18
 70
     1
102
RTVSPropertyOp19
 70
     1
102
RTVSPropertyOp20
 70
     1
102
RTVSPropertyOp21
 70
     1
102
RTVSPropertyOp22
 70
     1
102
RTVSPropertyOp23
 70
     1
102
RTVSPropertyOp24
 70
     1
102
RTVSPropertyOp25
 70
     1
102
RTVSPropertyOp26
 70
     1
102
RTVSPropertyOp27
 70
     1
102
RTVSPropertyOp28
 70
     1
102
RTVSPropertyOp29
 70
     1
102
RTVSPropertyOp30
 70
     1
102
RTVSPropertyOp31
 70
     1
102
RTVSPropertyOp32
 70
     1
  0
XRECORD
  5
27C
102
{ACAD_REACTORS
330
27B
102
}
330
27B
100
AcDbXrecord
280
     1
102
RTVSPropertyOp0
 70
     1
102
RTVSPropertyOp1
 70
     1
102
RTVSPropertyOp2
 70
     1
102
RTVSPropertyOp3
 70
     1
102
RTVSPropertyOp4
 70
     1
102
RTVSPropertyOp5
 70
     1
102
RTVSPropertyOp6
 70
     1
102
RTVSPropertyOp7
 70
     1
102
RTVSPropertyOp8
 70
     1
102
RTVSPropertyOp9
 70
     1
102
RTVSPropertyOp10
 70
     1
102
RTVSPropertyOp11
 70
     1
102
RTVSPropertyOp12
 70
     1
102
RTVSPropertyOp13
 70
     1
102
RTVSPropertyOp14
 70
     1
102
RTVSPropertyOp15
 70
     1
102
RTVSPropertyOp16
 70
     1
102
RTVSPropertyOp17
 70
     1
102
RTVSPropertyOp18
 70
     1
102
RTVSPropertyOp19
 70
     1
102
RTVSPropertyOp20
 70
     1
102
RTVSPropertyOp21
 70
     1
102
RTVSPropertyOp22
 70
     1
102
RTVSPropertyOp23
 70
     1
102
RTVSPropertyOp24
 70
     1
102
RTVSPropertyOp25
 70
     1
102
RTVSPropertyOp26
 70
     1
102
RTVSPropertyOp27
 70
     1
102
RTVSPropertyOp28
 70
     1
102
RTVSPropertyOp29
 70
     1
102
RTVSPropertyOp30
 70
     1
102
RTVSPropertyOp31
 70
     1
102
RTVSPropertyOp32
 70
     1
  0
XRECORD
  5
284
102
{ACAD_REACTORS
330
283
102
}
330
283
100
AcDbXrecord
280
     1
102
RTVSPropertyOp0
 70
     1
102
RTVSPropertyOp1
 70
     1
102
RTVSPropertyOp2
 70
     1
102
RTVSPropertyOp3
 70
     1
102
RTVSPropertyOp4
 70
     1
102
RTVSPropertyOp5
 70
     1
102
RTVSPropertyOp6
 70
     1
102
RTVSPropertyOp7
 70
     1
102
RTVSPropertyOp8
 70
     1
102
RTVSPropertyOp9
 70
     1
102
RTVSPropertyOp10
 70
     1
102
RTVSPropertyOp11
 70
     1
102
RTVSPropertyOp12
 70
     1
102
RTVSPropertyOp13
 70
     1
102
RTVSPropertyOp14
 70
     1
102
RTVSPropertyOp15
 70
     1
102
RTVSPropertyOp16
 70
     1
102
RTVSPropertyOp17
 70
     1
102
RTVSPropertyOp18
 70
     1
102
RTVSPropertyOp19
 70
     1
102
RTVSPropertyOp20
 70
     1
102
RTVSPropertyOp21
 70
     1
102
RTVSPropertyOp22
 70
     1
102
RTVSPropertyOp23
 70
     1
102
RTVSPropertyOp24
 70
     1
102
RTVSPropertyOp25
 70
     1
102
RTVSPropertyOp26
 70
     1
102
RTVSPropertyOp27
 70
     1
102
RTVSPropertyOp28
 70
     1
102
RTVSPropertyOp29
 70
     1
102
RTVSPropertyOp30
 70
     1
102
RTVSPropertyOp31
 70
     1
102
RTVSPropertyOp32
 70
     1
  0
XRECORD
  5
268
102
{ACAD_REACTORS
330
267
102
}
330
267
100
AcDbXrecord
280
     1
102
RTVSPropertyOp0
 70
     1
102
RTVSPropertyOp1
 70
     1
102
RTVSPropertyOp2
 70
     1
102
RTVSPropertyOp3
 70
     1
102
RTVSPropertyOp4
 70
     1
102
RTVSPropertyOp5
 70
     1
102
RTVSPropertyOp6
 70
     1
102
RTVSPropertyOp7
 70
     1
102
RTVSPropertyOp8
 70
     1
102
RTVSPropertyOp9
 70
     1
102
RTVSPropertyOp10
 70
     1
102
RTVSPropertyOp11
 70
     1
102
RTVSPropertyOp12
 70
     1
102
RTVSPropertyOp13
 70
     1
102
RTVSPropertyOp14
 70
     1
102
RTVSPropertyOp15
 70
     1
102
RTVSPropertyOp16
 70
     1
102
RTVSPropertyOp17
 70
     1
102
RTVSPropertyOp18
 70
     1
102
RTVSPropertyOp19
 70
     1
102
RTVSPropertyOp20
 70
     1
102
RTVSPropertyOp21
 70
     1
102
RTVSPropertyOp22
 70
     1
102
RTVSPropertyOp23
 70
     1
102
RTVSPropertyOp24
 70
     1
102
RTVSPropertyOp25
 70
     1
102
RTVSPropertyOp26
 70
     1
102
RTVSPropertyOp27
 70
     1
102
RTVSPropertyOp28
 70
     1
102
RTVSPropertyOp29
 70
     1
102
RTVSPropertyOp30
 70
     1
102
RTVSPropertyOp31
 70
     1
102
RTVSPropertyOp32
 70
     1
  0
XRECORD
  5
26A
102
{ACAD_REACTORS
330
269
102
}
330
269
100
AcDbXrecord
280
     1
102
RTVSPropertyOp0
 70
     1
102
RTVSPropertyOp1
 70
     1
102
RTVSPropertyOp2
 70
     1
102
RTVSPropertyOp3
 70
     1
102
RTVSPropertyOp4
 70
     1
102
RTVSPropertyOp5
 70
     1
102
RTVSPropertyOp6
 70
     1
102
RTVSPropertyOp7
 70
     1
102
RTVSPropertyOp8
 70
     1
102
RTVSPropertyOp9
 70
     1
102
RTVSPropertyOp10
 70
     1
102
RTVSPropertyOp11
 70
     1
102
RTVSPropertyOp12
 70
     1
102
RTVSPropertyOp13
 70
     1
102
RTVSPropertyOp14
 70
     1
102
RTVSPropertyOp15
 70
     1
102
RTVSPropertyOp16
 70
     1
102
RTVSPropertyOp17
 70
     1
102
RTVSPropertyOp18
 70
     1
102
RTVSPropertyOp19
 70
     1
102
RTVSPropertyOp20
 70
     1
102
RTVSPropertyOp21
 70
     1
102
RTVSPropertyOp22
 70
     1
102
RTVSPropertyOp23
 70
     1
102
RTVSPropertyOp24
 70
     1
102
RTVSPropertyOp25
 70
     1
102
RTVSPropertyOp26
 70
     1
102
RTVSPropertyOp27
 70
     1
102
RTVSPropertyOp28
 70
     1
102
RTVSPropertyOp29
 70
     1
102
RTVSPropertyOp30
 70
     1
102
RTVSPropertyOp31
 70
     1
102
RTVSPropertyOp32
 70
     1
  0
XRECORD
  5
26C
102
{ACAD_REACTORS
330
26B
102
}
330
26B
100
AcDbXrecord
280
     1
102
RTVSPropertyOp0
 70
     1
102
RTVSPropertyOp1
 70
     1
102
RTVSPropertyOp2
 70
     1
102
RTVSPropertyOp3
 70
     1
102
RTVSPropertyOp4
 70
     1
102
RTVSPropertyOp5
 70
     1
102
RTVSPropertyOp6
 70
     1
102
RTVSPropertyOp7
 70
     1
102
RTVSPropertyOp8
 70
     1
102
RTVSPropertyOp9
 70
     1
102
RTVSPropertyOp10
 70
     1
102
RTVSPropertyOp11
 70
     1
102
RTVSPropertyOp12
 70
     1
102
RTVSPropertyOp13
 70
     1
102
RTVSPropertyOp14
 70
     1
102
RTVSPropertyOp15
 70
     1
102
RTVSPropertyOp16
 70
     1
102
RTVSPropertyOp17
 70
     1
102
RTVSPropertyOp18
 70
     1
102
RTVSPropertyOp19
 70
     1
102
RTVSPropertyOp20
 70
     1
102
RTVSPropertyOp21
 70
     1
102
RTVSPropertyOp22
 70
     1
102
RTVSPropertyOp23
 70
     1
102
RTVSPropertyOp24
 70
     1
102
RTVSPropertyOp25
 70
     1
102
RTVSPropertyOp26
 70
     1
102
RTVSPropertyOp27
 70
     1
102
RTVSPropertyOp28
 70
     1
102
RTVSPropertyOp29
 70
     1
102
RTVSPropertyOp30
 70
     1
102
RTVSPropertyOp31
 70
     1
102
RTVSPropertyOp32
 70
     1
  0
XRECORD
  5
26E
102
{ACAD_REACTORS
330
26D
102
}
330
26D
100
AcDbXrecord
280
     1
102
RTVSPropertyOp0
 70
     1
102
RTVSPropertyOp1
 70
     1
102
RTVSPropertyOp2
 70
     1
102
RTVSPropertyOp3
 70
     1
102
RTVSPropertyOp4
 70
     1
102
RTVSPropertyOp5
 70
     1
102
RTVSPropertyOp6
 70
     1
102
RTVSPropertyOp7
 70
     1
102
RTVSPropertyOp8
 70
     1
102
RTVSPropertyOp9
 70
     1
102
RTVSPropertyOp10
 70
     1
102
RTVSPropertyOp11
 70
     1
102
RTVSPropertyOp12
 70
     1
102
RTVSPropertyOp13
 70
     1
102
RTVSPropertyOp14
 70
     1
102
RTVSPropertyOp15
 70
     1
102
RTVSPropertyOp16
 70
     1
102
RTVSPropertyOp17
 70
     1
102
RTVSPropertyOp18
 70
     1
102
RTVSPropertyOp19
 70
     1
102
RTVSPropertyOp20
 70
     1
102
RTVSPropertyOp21
 70
     1
102
RTVSPropertyOp22
 70
     1
102
RTVSPropertyOp23
 70
     1
102
RTVSPropertyOp24
 70
     1
102
RTVSPropertyOp25
 70
     1
102
RTVSPropertyOp26
 70
     1
102
RTVSPropertyOp27
 70
     1
102
RTVSPropertyOp28
 70
     1
102
RTVSPropertyOp29
 70
     1
102
RTVSPropertyOp30
 70
     1
102
RTVSPropertyOp31
 70
     1
102
RTVSPropertyOp32
 70
     1
  0
XRECORD
  5
282
102
{ACAD_REACTORS
330
281
102
}
330
281
100
AcDbXrecord
280
     1
102
RTVSPropertyOp0
 70
     1
102
RTVSPropertyOp1
 70
     1
102
RTVSPropertyOp2
 70
     1
102
RTVSPropertyOp3
 70
     1
102
RTVSPropertyOp4
 70
     1
102
RTVSPropertyOp5
 70
     1
102
RTVSPropertyOp6
 70
     1
102
RTVSPropertyOp7
 70
     1
102
RTVSPropertyOp8
 70
     1
102
RTVSPropertyOp9
 70
     1
102
RTVSPropertyOp10
 70
     1
102
RTVSPropertyOp11
 70
     1
102
RTVSPropertyOp12
 70
     1
102
RTVSPropertyOp13
 70
     1
102
RTVSPropertyOp14
 70
     1
102
RTVSPropertyOp15
 70
     1
102
RTVSPropertyOp16
 70
     1
102
RTVSPropertyOp17
 70
     1
102
RTVSPropertyOp18
 70
     1
102
RTVSPropertyOp19
 70
     1
102
RTVSPropertyOp20
 70
     1
102
RTVSPropertyOp21
 70
     1
102
RTVSPropertyOp22
 70
     1
102
RTVSPropertyOp23
 70
     1
102
RTVSPropertyOp24
 70
     1
102
RTVSPropertyOp25
 70
     1
102
RTVSPropertyOp26
 70
     1
102
RTVSPropertyOp27
 70
     1
102
RTVSPropertyOp28
 70
     1
102
RTVSPropertyOp29
 70
     1
102
RTVSPropertyOp30
 70
     1
102
RTVSPropertyOp31
 70
     1
102
RTVSPropertyOp32
 70
     1
  0
XRECORD
  5
278
102
{ACAD_REACTORS
330
277
102
}
330
277
100
AcDbXrecord
280
     1
102
RTVSPropertyOp0
 70
     1
102
RTVSPropertyOp1
 70
     1
102
RTVSPropertyOp2
 70
     1
102
RTVSPropertyOp3
 70
     1
102
RTVSPropertyOp4
 70
     1
102
RTVSPropertyOp5
 70
     1
102
RTVSPropertyOp6
 70
     1
102
RTVSPropertyOp7
 70
     1
102
RTVSPropertyOp8
 70
     1
102
RTVSPropertyOp9
 70
     1
102
RTVSPropertyOp10
 70
     1
102
RTVSPropertyOp11
 70
     1
102
RTVSPropertyOp12
 70
     1
102
RTVSPropertyOp13
 70
     1
102
RTVSPropertyOp14
 70
     1
102
RTVSPropertyOp15
 70
     1
102
RTVSPropertyOp16
 70
     1
102
RTVSPropertyOp17
 70
     1
102
RTVSPropertyOp18
 70
     1
102
RTVSPropertyOp19
 70
     1
102
RTVSPropertyOp20
 70
     1
102
RTVSPropertyOp21
 70
     1
102
RTVSPropertyOp22
 70
     1
102
RTVSPropertyOp23
 70
     1
102
RTVSPropertyOp24
 70
     1
102
RTVSPropertyOp25
 70
     1
102
RTVSPropertyOp26
 70
     1
102
RTVSPropertyOp27
 70
     1
102
RTVSPropertyOp28
 70
     1
102
RTVSPropertyOp29
 70
     1
102
RTVSPropertyOp30
 70
     1
102
RTVSPropertyOp31
 70
     1
102
RTVSPropertyOp32
 70
     1
  0
XRECORD
  5
280
102
{ACAD_REACTORS
330
27F
102
}
330
27F
100
AcDbXrecord
280
     1
102
RTVSPropertyOp0
 70
     1
102
RTVSPropertyOp1
 70
     1
102
RTVSPropertyOp2
 70
     1
102
RTVSPropertyOp3
 70
     1
102
RTVSPropertyOp4
 70
     1
102
RTVSPropertyOp5
 70
     1
102
RTVSPropertyOp6
 70
     1
102
RTVSPropertyOp7
 70
     1
102
RTVSPropertyOp8
 70
     1
102
RTVSPropertyOp9
 70
     1
102
RTVSPropertyOp10
 70
     1
102
RTVSPropertyOp11
 70
     1
102
RTVSPropertyOp12
 70
     1
102
RTVSPropertyOp13
 70
     1
102
RTVSPropertyOp14
 70
     1
102
RTVSPropertyOp15
 70
     1
102
RTVSPropertyOp16
 70
     1
102
RTVSPropertyOp17
 70
     1
102
RTVSPropertyOp18
 70
     1
102
RTVSPropertyOp19
 70
     1
102
RTVSPropertyOp20
 70
     1
102
RTVSPropertyOp21
 70
     1
102
RTVSPropertyOp22
 70
     1
102
RTVSPropertyOp23
 70
     1
102
RTVSPropertyOp24
 70
     1
102
RTVSPropertyOp25
 70
     1
102
RTVSPropertyOp26
 70
     1
102
RTVSPropertyOp27
 70
     1
102
RTVSPropertyOp28
 70
     1
102
RTVSPropertyOp29
 70
     1
102
RTVSPropertyOp30
 70
     1
102
RTVSPropertyOp31
 70
     1
102
RTVSPropertyOp32
 70
     1
  0
ENDSEC
  0
EOF
