  0
SECTION
  2
HEADER
  9
$ACADVER
  1
AC1015
  9
$ACADMAINTVER
 70
     6
  9
$DWGCODEPAGE
  3
ANSI_1252
  9
$INSBASE
 10
0.0
 20
0.0
 30
0.0
  9
$EXTMIN
 10
0.0
 20
0.0
 30
0.0
  9
$EXTMAX
 10
1500.0
 20
1000.0
 30
0.0
  9
$LIMMIN
 10
0.0
 20
0.0
  9
$LIMMAX
 10
1500.0
 20
1000.0
  9
$ORTHOMODE
 70
     0
  9
$REGENMODE
 70
     1
  9
$FILLMODE
 70
     1
  9
$QTEXTMODE
 70
     0
  9
$MIRRTEXT
 70
     1
  9
$LTSCALE
 40
1.0
  9
$ATTMODE
 70
     1
  9
$TEXTSIZE
 40
3.5
  9
$TRACEWID
 40
1.0
  9
$TEXTSTYLE
  7
Standard
  9
$CLAYER
  8
0
  9
$CELTYPE
  6
ByLayer
  9
$CECOLOR
 62
   256
  9
$CELTSCALE
 40
1.0
  9
$DISPSILH
 70
     0
  9
$DIMSCALE
 40
1.0
  9
$DIMASZ
 40
6.0
  9
$DIMEXO
 40
1.0
  9
$DIMDLI
 40
3.75
  9
$DIMRND
 40
0.0
  9
$DIMDLE
 40
0.0
  9
$DIMEXE
 40
1.0
  9
$DIMTP
 40
0.0
  9
$DIMTM
 40
0.0
  9
$DIMTXT
 40
3.5
  9
$DIMCEN
 40
2.5
  9
$DIMTSZ
 40
0.0
  9
$DIMTOL
 70
     0
  9
$DIMLIM
 70
     0
  9
$DIMTIH
 70
     1
  9
$DIMTOH
 70
     1
  9
$DIMSE1
 70
     0
  9
$DIMSE2
 70
     0
  9
$DIMTAD
 70
     1
  9
$DIMZIN
 70
     0
  9
$DIMBLK
  1

  9
$DIMASO
 70
     1
  9
$DIMSHO
 70
     1
  9
$DIMPOST
  1

  9
$DIMAPOST
  1

  9
$DIMALT
 70
     0
  9
$DIMALTD
 70
     3
  9
$DIMALTF
 40
0.0393700787
  9
$DIMLFAC
 40
1.0
  9
$DIMTOFL
 70
     1
  9
$DIMTVP
 40
0.0
  9
$DIMTIX
 70
     0
  9
$DIMSOXD
 70
     0
  9
$DIMSAH
 70
     0
  9
$DIMBLK1
  1

  9
$DIMBLK2
  1

  9
$DIMSTYLE
  2
ISO-25
  9
$DIMCLRD
 70
     0
  9
$DIMCLRE
 70
     0
  9
$DIMCLRT
 70
     0
  9
$DIMTFAC
 40
1.0
  9
$DIMGAP
 40
1.524
  9
$DIMJUST
 70
     0
  9
$DIMSD1
 70
     0
  9
$DIMSD2
 70
     0
  9
$DIMTOLJ
 70
     0
  9
$DIMTZIN
 70
     0
  9
$DIMALTZ
 70
     0
  9
$DIMALTTZ
 70
     0
  9
$DIMUPT
 70
     0
  9
$DIMDEC
 70
     3
  9
$DIMTDEC
 70
     3
  9
$DIMALTU
 70
     2
  9
$DIMALTTD
 70
     3
  9
$DIMTXSTY
  7
Standard
  9
$DIMAUNIT
 70
     0
  9
$DIMADEC
 70
     2
  9
$DIMALTRND
 40
0.0
  9
$DIMAZIN
 70
     0
  9
$DIMDSEP
 70
    44
  9
$DIMATFIT
 70
     3
  9
$DIMFRAC
 70
     0
  9
$DIMLDRBLK
  1

  9
$DIMLUNIT
 70
     2
  9
$DIMLWD
 70
    -2
  9
$DIMLWE
 70
    -2
  9
$DIMTMOVE
 70
     0
  9
$LUNITS
 70
     2
  9
$LUPREC
 70
     2
  9
$SKETCHINC
 40
1.0
  9
$FILLETRAD
 40
10.0
  9
$AUNITS
 70
     0
  9
$AUPREC
 70
     2
  9
$MENU
  1
.
  9
$ELEVATION
 40
0.0
  9
$PELEVATION
 40
0.0
  9
$THICKNESS
 40
0.0
  9
$LIMCHECK
 70
     0
  9
$CHAMFERA
 40
0.0
  9
$CHAMFERB
 40
0.0
  9
$CHAMFERC
 40
0.0
  9
$CHAMFERD
 40
0.0
  9
$SKPOLY
 70
     0
  9
$TDCREATE
 40
2457365.552060683
  9
$TDUCREATE
 40
2457365.510394016
  9
$TDUPDATE
 40
2457365.552061065
  9
$TDUUPDATE
 40
2457365.510394398
  9
$TDINDWG
 40
0.0000000116
  9
$TDUSRTIMER
 40
0.0000000116
  9
$USRTIMER
 70
     1
  9
$ANGBASE
 50
0.0
  9
$ANGDIR
 70
     0
  9
$PDMODE
 70
     0
  9
$PDSIZE
 40
-1.0
  9
$PLINEWID
 40
0.0
  9
$SPLFRAME
 70
     0
  9
$SPLINETYPE
 70
     6
  9
$SPLINESEGS
 70
     8
  9
$HANDSEED
  5
2F0
  9
$SURFTAB1
 70
     6
  9
$SURFTAB2
 70
     6
  9
$SURFTYPE
 70
     6
  9
$SURFU
 70
     6
  9
$SURFV
 70
     6
  9
$UCSBASE
  2

  9
$UCSNAME
  2

  9
$UCSORG
 10
0.0
 20
0.0
 30
0.0
  9
$UCSXDIR
 10
1.0
 20
0.0
 30
0.0
  9
$UCSYDIR
 10
0.0
 20
1.0
 30
0.0
  9
$UCSORTHOREF
  2

  9
$UCSORTHOVIEW
 70
     0
  9
$UCSORGTOP
 10
0.0
 20
0.0
 30
0.0
  9
$UCSORGBOTTOM
 10
0.0
 20
0.0
 30
0.0
  9
$UCSORGLEFT
 10
0.0
 20
0.0
 30
0.0
  9
$UCSORGRIGHT
 10
0.0
 20
0.0
 30
0.0
  9
$UCSORGFRONT
 10
0.0
 20
0.0
 30
0.0
  9
$UCSORGBACK
 10
0.0
 20
0.0
 30
0.0
  9
$PUCSBASE
  2

  9
$PUCSNAME
  2

  9
$PUCSORG
 10
0.0
 20
0.0
 30
0.0
  9
$PUCSXDIR
 10
1.0
 20
0.0
 30
0.0
  9
$PUCSYDIR
 10
0.0
 20
1.0
 30
0.0
  9
$PUCSORTHOREF
  2

  9
$PUCSORTHOVIEW
 70
     0
  9
$PUCSORGTOP
 10
0.0
 20
0.0
 30
0.0
  9
$PUCSORGBOTTOM
 10
0.0
 20
0.0
 30
0.0
  9
$PUCSORGLEFT
 10
0.0
 20
0.0
 30
0.0
  9
$PUCSORGRIGHT
 10
0.0
 20
0.0
 30
0.0
  9
$PUCSORGFRONT
 10
0.0
 20
0.0
 30
0.0
  9
$PUCSORGBACK
 10
0.0
 20
0.0
 30
0.0
  9
$USERI1
 70
     0
  9
$USERI2
 70
     0
  9
$USERI3
 70
     0
  9
$USERI4
 70
     0
  9
$USERI5
 70
     0
  9
$USERR1
 40
0.0
  9
$USERR2
 40
0.0
  9
$USERR3
 40
0.0
  9
$USERR4
 40
0.0
  9
$USERR5
 40
0.0
  9
$WORLDVIEW
 70
     1
  9
$SHADEDGE
 70
     3
  9
$SHADEDIF
 70
    70
  9
$TILEMODE
 70
     1
  9
$MAXACTVP
 70
    64
  9
$PINSBASE
 10
0.0
 20
0.0
 30
0.0
  9
$PLIMCHECK
 70
     0
  9
$PEXTMIN
 10
1.0000000000E+20
 20
1.0000000000E+20
 30
1.0000000000E+20
  9
$PEXTMAX
 10
-1.0000000000E+20
 20
-1.0000000000E+20
 30
-1.0000000000E+20
  9
$PLIMMIN
 10
0.0
 20
0.0
  9
$PLIMMAX
 10
420.0
 20
297.0
  9
$UNITMODE
 70
     0
  9
$VISRETAIN
 70
     1
  9
$PLINEGEN
 70
     0
  9
$PSLTSCALE
 70
     1
  9
$TREEDEPTH
 70
  3020
  9
$CMLSTYLE
  2
Standard
  9
$CMLJUST
 70
     0
  9
$CMLSCALE
 40
20.0
  9
$PROXYGRAPHICS
 70
     1
  9
$MEASUREMENT
 70
     1
  9
$CELWEIGHT
370
    -1
  9
$ENDCAPS
280
     0
  9
$JOINSTYLE
280
     0
  9
$LWDISPLAY
290
     1
  9
$INSUNITS
 70
     4
  9
$HYPERLINKBASE
  1

  9
$STYLESHEET
  1

  9
$XEDIT
290
     1
  9
$CEPSNTYPE
380
     0
  9
$PSTYLEMODE
290
     1
  9
$FINGERPRINTGUID
  2
{CD3AC8FF-382E-46F6-841F-FBC05EA2A186}
  9
$VERSIONGUID
  2
{FAEB1C32-E019-11D5-929B-00C0DF256EC4}
  9
$EXTNAMES
290
     1
  9
$PSVPSCALE
 40
0.0
  9
$OLESTARTUP
290
     0
  0
ENDSEC
  0
SECTION
  2
CLASSES
  0
CLASS
  1
ACDBDICTIONARYWDFLT
  2
AcDbDictionaryWithDefault
  3
ObjectDBX Classes
 90
        0
280
     0
281
     0
  0
CLASS
  1
VISUALSTYLE
  2
AcDbVisualStyle
  3
ObjectDBX Classes
 90
     4095
280
     0
281
     0
  0
CLASS
  1
MATERIAL
  2
AcDbMaterial
  3
ObjectDBX Classes
 90
     1153
280
     0
281
     0
  0
CLASS
  1
SCALE
  2
AcDbScale
  3
ObjectDBX Classes
 90
     1153
280
     0
281
     0
  0
CLASS
  1
SUN
  2
AcDbSun
  3
SCENEOE
 90
     1153
280
     0
281
     0
  0
CLASS
  1
ACDBPLACEHOLDER
  2
AcDbPlaceHolder
  3
ObjectDBX Classes
 90
        0
280
     0
281
     0
  0
CLASS
  1
LAYOUT
  2
AcDbLayout
  3
ObjectDBX Classes
 90
        0
280
     0
281
     0
  0
ENDSEC
  0
SECTION
  2
TABLES
  0
TABLE
  2
VPORT
  5
8
330
0
100
AcDbSymbolTable
 70
     1
  0
VPORT
  5
29
330
8
100
AcDbSymbolTableRecord
100
AcDbViewportTableRecord
  2
*Active
 70
     0
 10
0.0
 20
0.0
 11
1.0
 21
1.0
 12
750.0
 22
500.0
 13
0.0
 23
0.0
 14
10.0
 24
10.0
 15
10.0
 25
10.0
 16
0.0
 26
0.0
 36
1.0
 17
0.0
 27
0.0
 37
0.0
 40
1000.0
 41
1.5
 42
50.0
 43
0.0
 44
0.0
 50
0.0
 51
0.0
 71
     0
 72
  2000
 73
     1
 74
     3
 75
     0
 76
     0
 77
     0
 78
     0
281
     0
 65
     1
110
0.0
120
0.0
130
0.0
111
1.0
121
0.0
131
0.0
112
0.0
122
1.0
132
0.0
 79
     0
146
0.0
  0
ENDTAB
  0
TABLE
  2
LTYPE
  5
5
330
0
100
AcDbSymbolTable
 70
     6
  0
LTYPE
  5
14
330
5
100
AcDbSymbolTableRecord
100
AcDbLinetypeTableRecord
  2
ByBlock
 70
     0
  3

 72
    65
 73
     0
 40
0.0
  0
LTYPE
  5
15
330
5
100
AcDbSymbolTableRecord
100
AcDbLinetypeTableRecord
  2
ByLayer
 70
     0
  3

 72
    65
 73
     0
 40
0.0
  0
LTYPE
  5
16
330
5
100
AcDbSymbolTableRecord
100
AcDbLinetypeTableRecord
  2
Continuous
 70
     0
  3
Solid line
 72
    65
 73
     0
 40
0.0
  0
LTYPE
  5
6A
330
5
100
AcDbSymbolTableRecord
100
AcDbLinetypeTableRecord
  2
HIDDEN
 70
     0
  3
Hidden __ __ __ __ __ __ __ __ __ __ __ __ __ __
 72
    65
 73
     2
 40
1.905
 49
1.27
 74
     0
 49
-0.635
 74
     0
  0
LTYPE
  5
6B
330
5
100
AcDbSymbolTableRecord
100
AcDbLinetypeTableRecord
  2
PHANTOM
 70
     0
  3
Phantom ______  __  __  ______  __  __  ______
 72
    65
 73
     6
 40
12.7
 49
6.35
 74
     0
 49
-1.27
 74
     0
 49
1.27
 74
     0
 49
-1.27
 74
     0
 49
1.27
 74
     0
 49
-1.27
 74
     0
  0
LTYPE
  5
6C
330
5
100
AcDbSymbolTableRecord
100
AcDbLinetypeTableRecord
  2
CENTER
 70
     0
  3
Center ____ _ ____ _ ____ _ ____ _ ____ _ ____
 72
    65
 73
     4
 40
10.16
 49
6.35
 74
     0
 49
-1.27
 74
     0
 49
1.27
 74
     0
 49
-1.27
 74
     0
  0
LTYPE
  5
6D
330
5
100
AcDbSymbolTableRecord
100
AcDbLinetypeTableRecord
  2
CENTERX2
 70
     0
  3
Center (2x) ________  __  ________  __  _____
 72
    65
 73
     4
 40
20.32
 49
12.7
 74
     0
 49
-2.54
 74
     0
 49
2.54
 74
     0
 49
-2.54
 74
     0
  0
LTYPE
  5
6E
330
5
100
AcDbSymbolTableRecord
100
AcDbLinetypeTableRecord
  2
DOT2
 70
     0
  3
Dot (.5x) ........................................
 72
    65
 73
     2
 40
0.635
 49
0.0
 74
     0
 49
-0.635
 74
     0
  0
ENDTAB
  0
TABLE
  2
LAYER
  5
2
330
0
100
AcDbSymbolTable
 70
     1
  0
LAYER
  5
10
330
2
100
AcDbSymbolTableRecord
100
AcDbLayerTableRecord
  2
0
 70
     0
 62
     7
  6
Continuous
370
    -3
390
F
  0
ENDTAB
  0
TABLE
  2
STYLE
  5
3
330
0
100
AcDbSymbolTable
 70
     1
  0
STYLE
  5
11
330
3
100
AcDbSymbolTableRecord
100
AcDbTextStyleTableRecord
  2
Standard
 70
     0
 40
0.0
 41
1.0
 50
0.0
 71
     0
 42
3.5
  3
txt
  4

  0
ENDTAB
  0
TABLE
  2
VIEW
  5
6
330
0
100
AcDbSymbolTable
 70
     0
  0
ENDTAB
  0
TABLE
  2
UCS
  5
7
330
0
100
AcDbSymbolTable
 70
     0
  0
ENDTAB
  0
TABLE
  2
APPID
  5
9
330
0
100
AcDbSymbolTable
 70
     1
  0
APPID
  5
12
330
9
100
AcDbSymbolTableRecord
100
AcDbRegAppTableRecord
  2
ACAD
 70
     0
  0
ENDTAB
  0
TABLE
  2
DIMSTYLE
  5
A
330
0
100
AcDbSymbolTable
 70
     1
100
AcDbDimStyleTable
  0
DIMSTYLE
105
27
330
A
100
AcDbSymbolTableRecord
100
AcDbDimStyleTableRecord
  2
ISO-25
 70
     0
 41
2.5
 42
0.625
 43
3.75
 44
1.25
 73
     0
 74
     0
 77
     1
 78
     8
140
2.5
141
2.5
143
0.0393700787
147
0.625
171
     3
172
     1
178
     0
271
     2
272
     2
274
     3
278
    44
283
     0
284
     8
340
11
  0
ENDTAB
  0
TABLE
  2
BLOCK_RECORD
  5
1
330
0
100
AcDbSymbolTable
 70
     1
  0
BLOCK_RECORD
  5
1F
330
1
100
AcDbSymbolTableRecord
100
AcDbBlockTableRecord
  2
*Model_Space
340
22
  0
BLOCK_RECORD
  5
1B
330
1
100
AcDbSymbolTableRecord
100
AcDbBlockTableRecord
  2
*Paper_Space
340
1E
  0
BLOCK_RECORD
  5
23
330
1
100
AcDbSymbolTableRecord
100
AcDbBlockTableRecord
  2
*Paper_Space0
340
26
  0
ENDTAB
  0
ENDSEC
  0
SECTION
  2
BLOCKS
  0
BLOCK
  5
20
330
1F
100
AcDbEntity
  8
0
100
AcDbBlockBegin
  2
*Model_Space
 70
     0
 10
0.0
 20
0.0
 30
0.0
  3
*Model_Space
  1
*Model_Space
  0
ENDBLK
  5
21
330
1F
100
AcDbEntity
  8
0
100
AcDbBlockEnd
  0
BLOCK
  5
1C
330
1B
100
AcDbEntity
 67
     1
  8
0
100
AcDbBlockBegin
  2
*Paper_Space
 70
     0
 10
0.0
 20
0.0
 30
0.0
  3
*Paper_Space
  1
*Paper_Space
  0
ENDBLK
  5
1D
330
1B
100
AcDbEntity
 67
     1
  8
0
100
AcDbBlockEnd
  0
BLOCK
  5
24
330
23
100
AcDbEntity
  8
0
100
AcDbBlockBegin
  2
*Paper_Space0
 70
     0
 10
0.0
 20
0.0
 30
0.0
  3
*Paper_Space0
  1
*Paper_Space0
  0
ENDBLK
  5
25
330
23
100
AcDbEntity
  8
0
100
AcDbBlockEnd
  0
ENDSEC
  0
SECTION
  2
ENTITIES
  0
ARC
  5
6F
330
1F
100
AcDbEntity
  8
0
  6
Continuous
 62
     7
370
    15
100
AcDbCircle
 10
625.75
 20
884.5934466019
 30
0.0
 40
4.500000000000091
100
AcDbArc
 50
0.0
 51
83.6206297916
  0
ARC
  5
70
330
1F
100
AcDbEntity
  8
0
  6
Continuous
 62
     7
370
    15
100
AcDbCircle
 10
151.75
 20
884.5934466019
 30
0.0
 40
4.500000000000084
100
AcDbArc
 50
96.3793702084
 51
180.0
  0
SPLINE
  5
71
330
1F
100
AcDbEntity
  8
0
  6
Continuous
 62
     7
370
    15
100
AcDbSpline
210
0.0
220
0.0
230
1.0
 70
     8
 71
     3
 72
    17
 73
    13
 74
     0
 42
0.000000001
 43
0.00000001
 40
0.0
 40
0.0
 40
0.0
 40
0.0
 40
0.038309924739057
 40
0.1413222577201814
 40
0.244471764997417
 40
0.3491617118078638
 40
0.4624308953751869
 40
0.5823601175080222
 40
0.7031673930723129
 40
0.8054142545175186
 40
0.9134660663847366
 40
1.0
 40
1.0
 40
1.0
 40
1.0
 10
512.8119793534279
 20
823.6181524887219
 30
0.0
 10
512.8131449687372
 20
823.6156886686276
 30
0.0
 10
512.8174448306725
 20
823.6065998327533
 30
0.0
 10
512.8093893154146
 20
823.6557831542489
 30
0.0
 10
512.832534524908
 20
823.7589973421404
 30
0.0
 10
512.893107707991
 20
823.8994889787365
 30
0.0
 10
512.9957136302584
 20
824.0524513861997
 30
0.0
 10
513.1335626073112
 20
824.1968924516458
 30
0.0
 10
513.2799816503659
 20
824.3017601967788
 30
0.0
 10
513.405771265076
 20
824.3597526967181
 30
0.0
 10
513.4876923051233
 20
824.3727964640589
 30
0.0
 10
513.4910462217046
 20
824.37152471143
 30
0.0
 10
513.4925377368927
 20
824.3709591522351
 30
0.0
  0
SPLINE
  5
72
330
1F
100
AcDbEntity
  8
0
  6
Continuous
 62
     7
370
    15
100
AcDbSpline
210
0.0
220
0.0
230
1.0
 70
     8
 71
     3
 72
    17
 73
    13
 74
     0
 42
0.000000001
 43
0.00000001
 40
0.0
 40
0.0
 40
0.0
 40
0.0
 40
0.0383094637207117
 40
0.1413297133566683
 40
0.2444779060479982
 40
0.3491671416194654
 40
0.4624379779060377
 40
0.5823663852678259
 40
0.7031754027286757
 40
0.8054171250205326
 40
0.9134662017281604
 40
1.0
 40
1.0
 40
1.0
 40
1.0
 10
509.0648886561394
 20
815.1376706853047
 30
0.0
 10
509.0660511851943
 20
815.13520703065
 30
0.0
 10
509.070339940038
 20
815.1261182162337
 30
0.0
 10
509.0623059961246
 20
815.1752969415426
 30
0.0
 10
509.0854326201637
 20
815.278516114252
 30
0.0
 10
509.1460099144779
 20
815.4190089902527
 30
0.0
 10
509.2486223376631
 20
815.5719680290526
 30
0.0
 10
509.3864781419362
 20
815.716409337899
 30
0.0
 10
509.5328712750674
 20
815.8212878987495
 30
0.0
 10
509.6586895824441
 20
815.8792685553028
 30
0.0
 10
509.7405891509457
 20
815.8923152064144
 30
0.0
 10
509.7439516763006
 20
815.8910430811761
 30
0.0
 10
509.7454470396042
 20
815.8904773488179
 30
0.0
  0
LINE
  5
73
330
1F
100
AcDbEntity
  8
0
  6
Continuous
 62
     7
370
    15
100
AcDbLine
 10
527.459038496
 20
810.7011256113
 30
0.0
 11
533.0796819925
 21
823.4218520417
 31
0.0
  0
LINE
  5
74
330
1F
100
AcDbEntity
  8
0
  6
Continuous
 62
     7
370
    15
100
AcDbLine
 10
532.2350096703
 20
824.5434847965
 30
0.0
 11
531.745133996
 21
823.4347564473
 31
0.0
  0
SPLINE
  5
75
330
1F
100
AcDbEntity
  8
0
  6
Continuous
 62
     7
370
    15
100
AcDbSpline
210
0.0
220
0.0
230
1.0
 70
     8
 71
     3
 72
    17
 73
    13
 74
     0
 42
0.000000001
 43
0.00000001
 40
0.0
 40
0.0
 40
0.0
 40
0.0
 40
0.0383101018945376
 40
0.1413225679157417
 40
0.2444742613648706
 40
0.3491643433820297
 40
0.4624349140401704
 40
0.5823611909128437
 40
0.703174539173981
 40
0.8054170881226084
 40
0.9134655020749404
 40
1.0
 40
1.0
 40
1.0
 40
1.0
 10
539.9584305286407
 20
823.372141767992
 30
0.0
 10
539.9595932425029
 20
823.3696751159681
 30
0.0
 10
539.9638823908117
 20
823.360575855436
 30
0.0
 10
539.9558378670403
 20
823.4097658270672
 30
0.0
 10
539.9789681067383
 20
823.5129864173674
 30
0.0
 10
540.0395406507855
 20
823.6534815726787
 30
0.0
 10
540.1421686344332
 20
823.8064271016821
 30
0.0
 10
540.2800117392408
 20
823.9508781507443
 30
0.0
 10
540.4264126895624
 20
824.055750264049
 30
0.0
 10
540.5522327189749
 20
824.113729699585
 30
0.0
 10
540.6341220880404
 20
824.1267882751891
 30
0.0
 10
540.6374856329849
 20
824.1255147783193
 30
0.0
 10
540.638981461525
 20
824.1249484315052
 30
0.0
  0
SPLINE
  5
76
330
1F
100
AcDbEntity
  8
0
  6
Continuous
 62
     7
370
    15
100
AcDbSpline
210
0.0
220
0.0
230
1.0
 70
     8
 71
     3
 72
    17
 73
    13
 74
     0
 42
0.000000001
 43
0.00000001
 40
0.0
 40
0.0
 40
0.0
 40
0.0
 40
0.0383097299213865
 40
0.1413298152632764
 40
0.2444805071577615
 40
0.3491695726832442
 40
0.4624341987771606
 40
0.5823687562668796
 40
0.7031784958288795
 40
0.8054154400024831
 40
0.9134663422843966
 40
1.0
 40
1.0
 40
1.0
 40
1.0
 10
536.211324930191
 20
814.8916599645748
 30
0.0
 10
536.2124872797258
 20
814.8891934705484
 30
0.0
 10
536.2167753455866
 20
814.8800942379044
 30
0.0
 10
536.208753001888
 20
814.9292797534263
 30
0.0
 10
536.2318748246089
 20
815.0325055225013
 30
0.0
 10
536.2924530297526
 20
815.1729953241738
 30
0.0
 10
536.3950628330979
 20
815.3259544637942
 30
0.0
 10
536.5329162100774
 20
815.4704009198946
 30
0.0
 10
536.6793269842726
 20
815.5752615788709
 30
0.0
 10
536.8051216686529
 20
815.6332630507902
 30
0.0
 10
536.8870351174724
 20
815.6463034641199
 30
0.0
 10
536.890396101676
 20
815.6450320419617
 30
0.0
 10
536.8918907642365
 20
815.644466628088
 30
0.0
  0
SPLINE
  5
77
330
1F
100
AcDbEntity
  8
0
  6
Continuous
 62
     7
370
    15
100
AcDbSpline
210
0.0
220
0.0
230
1.0
 70
     8
 71
     3
 72
    18
 73
    14
 74
     0
 42
0.000000001
 43
0.00000001
 40
0.0
 40
0.0
 40
0.0
 40
0.0
 40
0.0197654708932219
 40
0.1301747644408408
 40
0.2352617937167733
 40
0.3394463309451149
 40
0.4520038106593294
 40
0.5715911120838743
 40
0.6836548126055235
 40
0.7044759393826023
 40
0.80663237873642
 40
0.9146429383897446
 40
1.0
 40
1.0
 40
1.0
 40
1.0
 10
264.0900146961213
 20
824.3735370531216
 30
0.0
 10
264.0882548048365
 20
824.3725640455128
 30
0.0
 10
264.0766642166503
 20
824.3661558482612
 30
0.0
 10
264.1214965346417
 20
824.3748906017128
 30
0.0
 10
264.2195718158647
 20
824.3422464007272
 30
0.0
 10
264.3520206788679
 20
824.2704021872128
 30
0.0
 10
264.4928214719474
 20
824.155224010255
 30
0.0
 10
264.6201535376073
 20
824.0084647094559
 30
0.0
 10
264.6889125703286
 20
823.8932235318151
 30
0.0
 10
264.7354703646097
 20
823.7925809990112
 30
0.0
 10
264.7659998085841
 20
823.7010923275143
 30
0.0
 10
264.7696146213456
 20
823.6192854914129
 30
0.0
 10
264.7680982825432
 20
823.6164680819942
 30
0.0
 10
264.7674289345741
 20
823.6152244105473
 30
0.0
  0
SPLINE
  5
78
330
1F
100
AcDbEntity
  8
0
  6
Continuous
 62
     7
370
    15
100
AcDbSpline
210
0.0
220
0.0
230
1.0
 70
     8
 71
     3
 72
    18
 73
    14
 74
     0
 42
0.000000001
 43
0.00000001
 40
0.0
 40
0.0
 40
0.0
 40
0.0
 40
0.0197572269938922
 40
0.1301754021774473
 40
0.2352625719401833
 40
0.3394453348171308
 40
0.4520055295669529
 40
0.5715929908631568
 40
0.6836568411984527
 40
0.7044763819732252
 40
0.8066400990136726
 40
0.9146427843576488
 40
1.0
 40
1.0
 40
1.0
 40
1.0
 10
267.8371128439904
 20
815.8930552497044
 30
0.0
 10
267.8353504534335
 20
815.8920822797579
 30
0.0
 10
267.8237385050763
 20
815.8856716253629
 30
0.0
 10
267.8685914049248
 20
815.8944102165577
 30
0.0
 10
267.9666566446589
 20
815.8617654128454
 30
0.0
 10
268.0991256708816
 20
815.7899177212859
 30
0.0
 10
268.2399175127855
 20
815.674744830097
 30
0.0
 10
268.3672469683229
 20
815.5279807908969
 30
0.0
 10
268.4360225603296
 20
815.41274665218
 30
0.0
 10
268.4825516618981
 20
815.3120914606111
 30
0.0
 10
268.513102556218
 20
815.2206229572628
 30
0.0
 10
268.5167143081509
 20
815.1388004501663
 30
0.0
 10
268.5151917522529
 20
815.1359853229965
 30
0.0
 10
268.5145196318627
 20
815.1347426071301
 30
0.0
  0
LINE
  5
79
330
1F
100
AcDbEntity
  8
0
  6
Continuous
 62
     7
370
    15
100
AcDbLine
 10
244.5024681091
 20
823.4218520417
 30
0.0
 11
250.1231116056
 21
810.7011256113
 31
0.0
  0
LINE
  5
7A
330
1F
100
AcDbEntity
  8
0
  6
Continuous
 62
     7
370
    15
100
AcDbLine
 10
245.8370161057
 20
823.4347564473
 30
0.0
 11
245.3471255302
 21
824.5434847965
 31
0.0
  0
SPLINE
  5
7B
330
1F
100
AcDbEntity
  8
0
  6
Continuous
 62
     7
370
    15
100
AcDbSpline
210
0.0
220
0.0
230
1.0
 70
     8
 71
     3
 72
    18
 73
    14
 74
     0
 42
0.000000001
 43
0.00000001
 40
0.0
 40
0.0
 40
0.0
 40
0.0
 40
0.019765463193926
 40
0.1301746237083186
 40
0.2352616120494238
 40
0.3394493276298922
 40
0.4520061598118772
 40
0.5715963583430137
 40
0.683657839474432
 40
0.7044789581410026
 40
0.8066322174921822
 40
0.9146429716391056
 40
0.9999999999999999
 40
0.9999999999999999
 40
0.9999999999999999
 40
0.9999999999999999
 10
236.943570971489
 20
824.1275188818112
 30
0.0
 10
236.9418110770631
 20
824.1265458231444
 30
0.0
 10
236.9302204762054
 20
824.1201372940575
 30
0.0
 10
236.9750534328564
 20
824.1288834298052
 30
0.0
 10
237.0731271034223
 20
824.0962328343668
 30
0.0
 10
237.2055870649319
 20
824.0243967762608
 30
0.0
 10
237.3463738613346
 20
823.9091994209908
 30
0.0
 10
237.4737206564644
 20
823.7624523092304
 30
0.0
 10
237.5424688573045
 20
823.6472043510748
 30
0.0
 10
237.5890262966213
 20
823.5465640776036
 30
0.0
 10
237.6195539995523
 20
823.4550821721842
 30
0.0
 10
237.6231802080792
 20
823.373274527132
 30
0.0
 10
237.6216625777726
 20
823.3704572856234
 30
0.0
 10
237.6209926605225
 20
823.3692136898175
 30
0.0
  0
SPLINE
  5
7C
330
1F
100
AcDbEntity
  8
0
  6
Continuous
 62
     7
370
    15
100
AcDbSpline
210
0.0
220
0.0
230
1.0
 70
     8
 71
     3
 72
    18
 73
    14
 74
     0
 42
0.000000001
 43
0.00000001
 40
0.0
 40
0.0
 40
0.0
 40
0.0
 40
0.0197575125733119
 40
0.1301759051475972
 40
0.2352632818054076
 40
0.3394462497968379
 40
0.4520100009563961
 40
0.5715950412428649
 40
0.6836538140275705
 40
0.7044750096321932
 40
0.8066399946482544
 40
0.9146426562284108
 40
1.0
 40
1.0
 40
1.0
 40
1.0
 10
240.6906765699386
 20
815.647037078394
 30
0.0
 10
240.6889114781937
 20
815.6460668046557
 30
0.0
 10
240.677281855552
 20
815.639673982602
 30
0.0
 10
240.7221526104589
 20
815.6483943061232
 30
0.0
 10
240.8202119095498
 20
815.6157563326171
 30
0.0
 10
240.9526825930149
 20
815.543904649813
 30
0.0
 10
241.0934799774636
 20
815.4287377367149
 30
0.0
 10
241.2208068796874
 20
815.2819745309666
 30
0.0
 10
241.2895610866047
 20
815.166728841878
 30
0.0
 10
241.3361181667612
 20
815.0660845365051
 30
0.0
 10
241.3666682388362
 20
814.9746116891682
 30
0.0
 10
241.3702662943656
 20
814.8927898680745
 30
0.0
 10
241.3687518833495
 20
814.8899746455535
 30
0.0
 10
241.368083357811
 20
814.8887318864003
 30
0.0
  0
LINE
  5
7D
330
1F
100
AcDbEntity
  8
0
  6
Continuous
 62
     7
370
    15
100
AcDbLine
 10
151.2500029802
 20
890.5934480324
 30
0.0
 11
151.2500029802
 21
889.0655872717
 31
0.0
  0
LINE
  5
7E
330
1F
100
AcDbEntity
  8
0
  6
Continuous
 62
     7
370
    15
100
AcDbLine
 10
626.2499970198
 20
889.0655872717
 30
0.0
 11
626.2499970198
 21
890.5934480324
 31
0.0
  0
ARC
  5
7F
330
1F
100
AcDbEntity
  8
0
  6
Continuous
 62
     7
370
    15
100
AcDbCircle
 10
154.75
 20
890.5934466019
 30
0.0
 40
3.5
100
AcDbArc
 50
90.0
 51
180.0
  0
ARC
  5
80
330
1F
100
AcDbEntity
  8
0
  6
Continuous
 62
     7
370
    15
100
AcDbCircle
 10
622.75
 20
890.5934466019
 30
0.0
 40
3.500000000000114
100
AcDbArc
 50
0.0
 51
90.0
  0
LINE
  5
81
330
1F
100
AcDbEntity
  8
0
  6
Continuous
 62
     7
370
    15
100
AcDbLine
 10
604.6119016409
 20
894.0934476748
 30
0.0
 11
604.6102923155
 21
894.0934476748
 31
0.0
  0
LINE
  5
82
330
1F
100
AcDbEntity
  8
0
  6
Continuous
 62
     7
370
    15
100
AcDbLine
 10
172.9067993164
 20
894.0934476748
 30
0.0
 11
172.9063671827
 21
894.0934476748
 31
0.0
  0
SPLINE
  5
83
330
1F
100
AcDbEntity
  8
0
  6
Continuous
 62
     7
370
    15
100
AcDbSpline
210
0.0
220
0.0
230
1.0
 70
     8
 71
     3
 72
    38
 73
    34
 74
     0
 42
0.000000001
 43
0.00000001
 40
0.0
 40
0.0
 40
0.0
 40
0.0
 40
0.0248870230034962
 40
0.0761188228544167
 40
0.1256741813217574
 40
0.1732421638247628
 40
0.2185452913681738
 40
0.2613435545854998
 40
0.3014345376445542
 40
0.3386524957569659
 40
0.3728674541550583
 40
0.4039795813211568
 40
0.4321116656682435
 40
0.4592787790962088
 40
0.4860081794774047
 40
0.5122774473340715
 40
0.5380666110552471
 40
0.5633577507663433
 40
0.6027471595955026
 40
0.6407716947828773
 40
0.6794290616420298
 40
0.7209180420270584
 40
0.7651106295372134
 40
0.8036888437858071
 40
0.8421503047271663
 40
0.8801193754020543
 40
0.906514901252273
 40
0.9289338508280116
 40
0.9370429771391181
 40
0.947645859169243
 40
0.9618021532072487
 40
0.9793757404615857
 40
1.0
 40
1.0
 40
1.0
 40
1.0
 10
176.8148076534271
 20
884.5934507742062
 30
0.0
 10
176.9442669888542
 20
882.3805035498954
 30
0.0
 10
177.3402280573532
 20
875.6120388070525
 30
0.0
 10
179.13192587642
 20
864.5266821785616
 30
0.0
 10
182.0180968067032
 20
851.6033248112319
 30
0.0
 10
185.7360330083406
 20
839.4290855179369
 30
0.0
 10
190.0585571356454
 20
828.0984968004651
 30
0.0
 10
194.8391349066964
 20
817.6792843874857
 30
0.0
 10
199.9102026830222
 20
808.2081746158437
 30
0.0
 10
205.115319331386
 20
799.6950983348704
 30
0.0
 10
210.3101825793875
 20
792.1290271664283
 30
0.0
 10
215.3731664490574
 20
785.4671084563332
 30
0.0
 10
220.3235101750043
 20
779.5146536302624
 30
0.0
 10
225.2481280779139
 20
774.0612111894167
 30
0.0
 10
230.2676875681496
 20
768.9287744111756
 30
0.0
 10
235.3924309796053
 20
764.0827076224983
 30
0.0
 10
240.6000065124703
 20
759.5229882048737
 30
0.0
 10
246.8842703291845
 20
754.4257155390175
 30
0.0
 10
254.2833562294931
 20
748.9859713337356
 30
0.0
 10
262.9710654396539
 20
743.3320008823513
 30
0.0
 10
272.1187937888362
 20
738.0870725787036
 30
0.0
 10
282.0427362803377
 20
733.1508925457242
 30
0.0
 10
292.2274886290484
 20
728.863159660416
 30
0.0
 10
302.3647580410615
 20
725.3052896656103
 30
0.0
 10
312.1059808548576
 20
722.4964545352885
 30
0.0
 10
320.8918265232872
 20
720.4900938765198
 30
0.0
 10
328.3285809172637
 20
719.1613428934697
 30
0.0
 10
333.1189099727079
 20
718.479365544727
 30
0.0
 10
336.6159461560205
 20
718.0614671257872
 30
0.0
 10
338.9614696632009
 20
717.813152586532
 30
0.0
 10
341.7134142798993
 20
717.5635359804334
 30
0.0
 10
345.0210984878678
 20
717.3158653350235
 30
0.0
 10
347.5399758924657
 20
717.1714312570498
 30
0.0
 10
348.8999997079373
 20
717.0934466018809
 30
0.0
  0
SPLINE
  5
84
330
1F
100
AcDbEntity
  8
0
  6
Continuous
 62
     7
370
    15
100
AcDbSpline
210
0.0
220
0.0
230
1.0
 70
     8
 71
     3
 72
    36
 73
    32
 74
     0
 42
0.000000001
 43
0.00000001
 40
0.0
 40
0.0
 40
0.0
 40
0.0
 40
0.0183107575538411
 40
0.0346240995022932
 40
0.0489631217072252
 40
0.0619060496854776
 40
0.1010847049453856
 40
0.1417900585399411
 40
0.1841091663512303
 40
0.2278193029898838
 40
0.2728456367895758
 40
0.3151303882110249
 40
0.3545333942110533
 40
0.3927805003120262
 40
0.432408859167128
 40
0.4578673906527583
 40
0.4838376956986428
 40
0.5103017787139909
 40
0.5372393494683039
 40
0.5646277139780037
 40
0.5928339194895713
 40
0.6239605118409017
 40
0.6582611550161803
 40
0.695636212176875
 40
0.7359549977506339
 40
0.7790496634485637
 40
0.8247143702778335
 40
0.8727040224113745
 40
0.9227342668250316
 40
0.9744859995106303
 40
1.0
 40
1.0
 40
1.0
 40
1.0
 10
428.6000002920628
 20
717.093446601881
 30
0.0
 10
429.6284670997051
 20
717.1454846904276
 30
0.0
 10
431.5732111649305
 20
717.2438843306636
 30
0.0
 10
434.521349580264
 20
717.4302271029875
 30
0.0
 10
437.5267086932223
 20
717.667088818927
 30
0.0
 10
443.0287879308286
 20
718.2067335067244
 30
0.0
 10
450.782414071234
 20
719.2606227990875
 30
0.0
 10
461.3197023013712
 20
721.3302647418326
 30
0.0
 10
472.1213478523362
 20
724.1604394072223
 30
0.0
 10
483.1592207480829
 20
727.8174136942404
 30
0.0
 10
493.9692945495104
 20
732.2087813995421
 30
0.0
 10
504.1532009450014
 20
737.1360958464192
 30
0.0
 10
513.502910717424
 20
742.3809831747452
 30
0.0
 10
522.3410897896324
 20
748.0297457554091
 30
0.0
 10
529.8384051209676
 20
753.4552362148048
 30
0.0
 10
536.2088567148312
 20
758.5498573074734
 30
0.0
 10
541.4908316572304
 20
763.1151369128055
 30
0.0
 10
546.690520590276
 20
767.9744979204975
 30
0.0
 10
551.7850771116231
 20
773.1280236482634
 30
0.0
 10
556.7741189078854
 20
778.5999306743265
 30
0.0
 10
561.7764730024699
 20
784.5621478295034
 30
0.0
 10
566.8843194627991
 20
791.227347792602
 30
0.0
 10
572.1287276545315
 20
798.8059393903029
 30
0.0
 10
577.3919096720083
 20
807.3524309108029
 30
0.0
 10
582.5251426554021
 20
816.8797932174093
 30
0.0
 10
587.3667857027531
 20
827.3793252359679
 30
0.0
 10
591.7435800065425
 20
838.8143539784708
 30
0.0
 10
595.503081692008
 20
851.1159971866665
 30
0.0
 10
598.4112383855016
 20
864.1868208607971
 30
0.0
 10
600.2086582005551
 20
875.4375411488617
 30
0.0
 10
600.5891450745946
 20
882.3205913851696
 30
0.0
 10
600.7147860527039
 20
884.5934507742062
 30
0.0
  0
ARC
  5
85
330
1F
100
AcDbEntity
  8
0
  6
Continuous
 62
     7
370
    15
100
AcDbCircle
 10
432.3681359877
 20
702.5744538277
 30
0.0
 40
15.00000000000003
100
AcDbArc
 50
104.5522805452
 51
124.8992284024
  0
ARC
  5
86
330
1F
100
AcDbEntity
  8
0
  6
Continuous
 62
     7
370
    15
100
AcDbCircle
 10
345.1318640123
 20
702.5744538277
 30
0.0
 40
15.00000000000003
100
AcDbArc
 50
55.1007715976
 51
75.4384381846
  0
LINE
  5
87
330
1F
100
AcDbEntity
  8
0
  6
Continuous
 62
     7
370
    15
100
AcDbLine
 10
353.7138868868
 20
714.8768476516
 30
0.0
 11
355.1029470563
 21
713.8186656709
 31
0.0
  0
LINE
  5
88
330
1F
100
AcDbEntity
  8
0
  6
Continuous
 62
     7
370
    15
100
AcDbLine
 10
422.3970529437
 20
713.8186656709
 30
0.0
 11
423.7861131132
 21
714.8768476516
 31
0.0
  0
ARC
  5
89
330
1F
100
AcDbEntity
  8
0
  6
Continuous
 62
     7
370
    15
100
AcDbCircle
 10
358.75
 20
696.8186656257
 30
0.0
 40
5.0
100
AcDbArc
 50
180.0
 51
256.2997665116
  0
ARC
  5
8A
330
1F
100
AcDbEntity
  8
0
  6
Continuous
 62
     7
370
    15
100
AcDbCircle
 10
418.75
 20
696.8186656257
 30
0.0
 40
5.0
100
AcDbArc
 50
283.7002334884
 51
0.0
  0
LINE
  5
8B
330
1F
100
AcDbEntity
  8
0
  6
Continuous
 62
     7
370
    15
100
AcDbLine
 10
423.750000149
 20
696.8186659112
 30
0.0
 11
423.750000149
 21
700.8186647042
 31
0.0
  0
LINE
  5
8C
330
1F
100
AcDbEntity
  8
0
  6
Continuous
 62
     7
370
    15
100
AcDbLine
 10
353.749999851
 20
700.8186647042
 30
0.0
 11
353.749999851
 21
696.8186659112
 31
0.0
  0
LINE
  5
8D
330
1F
100
AcDbEntity
  8
0
  6
Continuous
 62
     7
370
    15
100
AcDbLine
 10
356.5999996662
 20
669.3197761967
 30
0.0
 11
356.5999996662
 21
667.8186667457
 31
0.0
  0
LINE
  5
8E
330
1F
100
AcDbEntity
  8
0
  6
Continuous
 62
     7
370
    15
100
AcDbLine
 10
420.9000003338
 20
667.8186667457
 30
0.0
 11
420.9000003338
 21
669.3197761967
 31
0.0
  0
ARC
  5
8F
330
1F
100
AcDbEntity
  8
0
  6
Continuous
 62
     7
370
    15
100
AcDbCircle
 10
358.1
 20
669.3197768741
 30
0.0
 40
1.500000000077571
100
AcDbArc
 50
91.2733442282
 51
180.0
  0
ARC
  5
90
330
1F
100
AcDbEntity
  8
0
  6
Continuous
 62
     7
370
    15
100
AcDbCircle
 10
419.4
 20
669.3197768741
 30
0.0
 40
1.500000000077456
100
AcDbArc
 50
0.0
 51
88.7266557718
  0
ARC
  5
91
330
1F
100
AcDbEntity
  8
0
  6
Continuous
 62
     7
370
    15
100
AcDbCircle
 10
356.5
 20
687.5889581547
 30
0.0
 40
4.500000000000238
100
AcDbArc
 50
0.0
 51
76.2997665116
  0
ARC
  5
92
330
1F
100
AcDbEntity
  8
0
  6
Continuous
 62
     7
370
    15
100
AcDbCircle
 10
421.0
 20
687.5889581547
 30
0.0
 40
4.500000000000141
100
AcDbArc
 50
103.7002334884
 51
180.0
  0
ARC
  5
93
330
1F
100
AcDbEntity
  8
0
  6
Continuous
 62
     7
370
    15
100
AcDbCircle
 10
419.5
 20
673.8186656257
 30
0.0
 40
3.0
100
AcDbArc
 50
180.0
 51
268.726655572
  0
ARC
  5
94
330
1F
100
AcDbEntity
  8
0
  6
Continuous
 62
     7
370
    15
100
AcDbCircle
 10
358.0
 20
673.8186656257
 30
0.0
 40
3.0
100
AcDbArc
 50
271.273344428
 51
0.0
  0
LINE
  5
95
330
1F
100
AcDbEntity
  8
0
  6
Continuous
 62
     7
370
    15
100
AcDbLine
 10
416.5000003576
 20
673.8186640039
 30
0.0
 11
416.5000003576
 21
687.5889574483
 31
0.0
  0
LINE
  5
96
330
1F
100
AcDbEntity
  8
0
  6
Continuous
 62
     7
370
    15
100
AcDbLine
 10
360.9999996424
 20
687.5889574483
 30
0.0
 11
360.9999996424
 21
673.8186640039
 31
0.0
  0
ARC
  5
97
330
1F
100
AcDbEntity
  8
0
  6
Continuous
 62
     7
370
    15
100
AcDbCircle
 10
353.8618033989
 20
703.6186656257
 30
0.0
 40
0.1500000000000209
100
AcDbArc
 50
138.1896851042
 51
221.8103148958
  0
ARC
  5
98
330
1F
100
AcDbEntity
  8
0
  6
Continuous
 62
     7
370
    15
100
AcDbCircle
 10
423.6381966011
 20
703.6186656257
 30
0.0
 40
0.1500000000000209
100
AcDbArc
 50
318.1896851043
 51
41.8103148958
  0
ARC
  5
99
330
1F
100
AcDbEntity
  8
0
  6
Continuous
 62
     7
370
    15
100
AcDbCircle
 10
353.8618033989
 20
705.4186656257
 30
0.0
 40
0.1500000000000967
100
AcDbArc
 50
138.1896851042
 51
221.8103148958
  0
ARC
  5
9A
330
1F
100
AcDbEntity
  8
0
  6
Continuous
 62
     7
370
    15
100
AcDbCircle
 10
423.6381966011
 20
705.4186656257
 30
0.0
 40
0.1500000000000209
100
AcDbArc
 50
318.1896851042
 51
41.8103148958
  0
ARC
  5
9B
330
1F
100
AcDbEntity
  8
0
  6
Continuous
 62
     7
370
    15
100
AcDbCircle
 10
353.8618033989
 20
707.2186656257
 30
0.0
 40
0.1500000000000209
100
AcDbArc
 50
138.1896851042
 51
221.8103148958
  0
ARC
  5
9C
330
1F
100
AcDbEntity
  8
0
  6
Continuous
 62
     7
370
    15
100
AcDbCircle
 10
423.6381966011
 20
707.2186656257
 30
0.0
 40
0.1500000000000209
100
AcDbArc
 50
318.1896851042
 51
41.8103148958
  0
ARC
  5
9D
330
1F
100
AcDbEntity
  8
0
  6
Continuous
 62
     7
370
    15
100
AcDbCircle
 10
353.8618033989
 20
709.0186656257
 30
0.0
 40
0.1500000000000209
100
AcDbArc
 50
138.1896851042
 51
221.8103148958
  0
ARC
  5
9E
330
1F
100
AcDbEntity
  8
0
  6
Continuous
 62
     7
370
    15
100
AcDbCircle
 10
423.6381966011
 20
709.0186656257
 30
0.0
 40
0.1500000000000209
100
AcDbArc
 50
318.1896851043
 51
41.8103148958
  0
LINE
  5
9F
330
1F
100
AcDbEntity
  8
0
  6
Continuous
 62
     7
370
    15
100
AcDbLine
 10
353.749999851
 20
703.5186657056
 30
0.0
 11
353.749999851
 21
700.8186647042
 31
0.0
  0
LINE
  5
A0
330
1F
100
AcDbEntity
  8
0
  6
Continuous
 62
     7
370
    15
100
AcDbLine
 10
423.750000149
 20
700.8186647042
 30
0.0
 11
423.750000149
 21
703.5186657056
 31
0.0
  0
LINE
  5
A1
330
1F
100
AcDbEntity
  8
0
  6
Continuous
 62
     7
370
    15
100
AcDbLine
 10
353.749999851
 20
705.3186654418
 30
0.0
 11
353.749999851
 21
703.7186653658
 31
0.0
  0
LINE
  5
A2
330
1F
100
AcDbEntity
  8
0
  6
Continuous
 62
     7
370
    15
100
AcDbLine
 10
423.750000149
 20
703.7186653658
 30
0.0
 11
423.750000149
 21
705.3186654418
 31
0.0
  0
LINE
  5
A3
330
1F
100
AcDbEntity
  8
0
  6
Continuous
 62
     7
370
    15
100
AcDbLine
 10
353.749999851
 20
707.1186651781
 30
0.0
 11
353.749999851
 21
705.5186660334
 31
0.0
  0
LINE
  5
A4
330
1F
100
AcDbEntity
  8
0
  6
Continuous
 62
     7
370
    15
100
AcDbLine
 10
423.750000149
 20
705.5186660334
 30
0.0
 11
423.750000149
 21
707.1186651781
 31
0.0
  0
LINE
  5
A5
330
1F
100
AcDbEntity
  8
0
  6
Continuous
 62
     7
370
    15
100
AcDbLine
 10
353.749999851
 20
708.9186658456
 30
0.0
 11
353.749999851
 21
707.3186657697
 31
0.0
  0
LINE
  5
A6
330
1F
100
AcDbEntity
  8
0
  6
Continuous
 62
     7
370
    15
100
AcDbLine
 10
423.750000149
 20
707.3186657697
 30
0.0
 11
423.750000149
 21
708.9186658456
 31
0.0
  0
LINE
  5
A7
330
1F
100
AcDbEntity
  8
0
  6
Continuous
 62
     7
370
    15
100
AcDbLine
 10
353.749999851
 20
713.8186656709
 30
0.0
 11
353.749999851
 21
709.1186655059
 31
0.0
  0
LINE
  5
A8
330
1F
100
AcDbEntity
  8
0
  6
Continuous
 62
     7
370
    15
100
AcDbLine
 10
423.750000149
 20
709.1186655059
 30
0.0
 11
423.750000149
 21
713.8186656709
 31
0.0
  0
LINE
  5
A9
330
1F
100
AcDbEntity
  8
0
  6
Continuous
 62
     7
370
    15
100
AcDbLine
 10
626.2499970198
 20
889.0655872717
 30
0.0
 11
151.2500029802
 21
889.0655872717
 31
0.0
  0
LINE
  5
AA
330
1F
100
AcDbEntity
  8
0
  6
Continuous
 62
     7
370
    15
100
AcDbLine
 10
630.250005126
 20
884.5934507742
 30
0.0
 11
147.249994874
 21
884.5934507742
 31
0.0
  0
LINE
  5
AB
330
1F
100
AcDbEntity
  8
0
  6
Continuous
 62
     7
370
    15
100
AcDbLine
 10
545.7850378752
 20
825.593442966
 30
0.0
 11
545.1940578222
 21
826.1233282581
 31
0.0
  0
LINE
  5
AC
330
1F
100
AcDbEntity
  8
0
  6
Continuous
 62
     7
370
    15
100
AcDbLine
 10
537.5197958946
 20
825.6683511033
 30
0.0
 11
545.7850378752
 21
825.593442966
 31
0.0
  0
ARC
  5
AD
330
1F
100
AcDbEntity
  8
0
  6
Continuous
 62
     7
370
    15
100
AcDbCircle
 10
537.4563723226
 20
825.0369248721
 30
0.0
 40
0.6346035257881881
100
AcDbArc
 50
84.26416701
 51
125.6373061171
  0
LINE
  5
AE
330
1F
100
AcDbEntity
  8
0
  6
Continuous
 62
     7
370
    15
100
AcDbLine
 10
536.0841286182
 20
824.6092361703
 30
0.0
 11
537.0866191387
 21
825.5526808396
 31
0.0
  0
ARC
  5
AF
330
1F
100
AcDbEntity
  8
0
  6
Continuous
 62
     7
370
    15
100
AcDbCircle
 10
535.3446090988
 20
825.6408298612
 30
0.0
 40
1.269281159821725
100
AcDbArc
 50
264.2644236554
 51
305.6356383319
  0
LINE
  5
B0
330
1F
100
AcDbEntity
  8
0
  6
Continuous
 62
     7
370
    15
100
AcDbLine
 10
533.6066764593
 20
824.3924987807
 30
0.0
 11
535.2177602053
 21
824.3779030934
 31
0.0
  0
LWPOLYLINE
  5
B1
330
1F
100
AcDbEntity
  8
0
  6
Continuous
 62
     7
370
    15
100
AcDbPolyline
 90
        9
 70
   128
 43
0.0
 10
533.1122261286
 20
824.0363312259
 10
533.1024509668
 20
824.1154340401
 10
533.1143122911
 20
824.1864902272
 10
533.1476163864
 20
824.2483822003
 10
533.2018566132
 20
824.3001488342
 10
533.2761836052
 20
824.3409929171
 10
533.3694350719
 20
824.3702662482
 10
533.4801805019
 20
824.3875292435
 10
533.6066764593
 20
824.3924987807
  0
LWPOLYLINE
  5
B2
330
1F
100
AcDbEntity
  8
0
  6
Continuous
 62
     7
370
    15
100
AcDbPolyline
 90
        9
 70
   128
 43
0.0
 10
526.5064221621
 20
824.096196641
 10
527.7548712492
 20
823.5342365995
 10
529.0215444565
 20
823.1030938521
 10
530.2279275656
 20
822.8294787302
 10
531.2992465496
 20
822.7303636565
 10
532.1691167355
 20
822.8118879094
 10
532.7835810184
 20
823.0689999952
 10
533.1045818329
 20
823.4857556715
 10
533.1122261286
 20
824.0363312259
  0
ARC
  5
B3
330
1F
100
AcDbEntity
  8
0
  6
Continuous
 62
     7
370
    15
100
AcDbCircle
 10
525.0022137181
 20
821.2974616113
 30
0.0
 40
3.177351225384307
100
AcDbArc
 50
61.7437435345
 51
86.4441549633
  0
LINE
  5
B4
330
1F
100
AcDbEntity
  8
0
  6
Continuous
 62
     7
370
    15
100
AcDbLine
 10
523.5882085562
 20
824.4832915559
 30
0.0
 11
525.199277401
 21
824.4686958685
 31
0.0
  0
ARC
  5
B5
330
1F
100
AcDbEntity
  8
0
  6
Continuous
 62
     7
370
    15
100
AcDbCircle
 10
523.7657079704
 20
829.5192835689
 30
0.0
 40
5.03911912909134
100
AcDbArc
 50
251.6926665694
 51
267.9813790301
  0
LINE
  5
B6
330
1F
100
AcDbEntity
  8
0
  6
Continuous
 62
     7
370
    15
100
AcDbLine
 10
519.0339517593
 20
825.7162806883
 30
0.0
 11
522.1828502417
 21
824.7352180376
 31
0.0
  0
ARC
  5
B7
330
1F
100
AcDbEntity
  8
0
  6
Continuous
 62
     7
370
    15
100
AcDbCircle
 10
518.2424881261
 20
823.3241284386
 30
0.0
 40
2.519683922356212
100
AcDbArc
 50
71.6927694106
 51
87.9806875908
  0
LINE
  5
B8
330
1F
100
AcDbEntity
  8
0
  6
Continuous
 62
     7
370
    15
100
AcDbLine
 10
510.0660306215
 20
825.9171483412
 30
0.0
 11
518.3312726021
 21
825.8422476545
 31
0.0
  0
LINE
  5
B9
330
1F
100
AcDbEntity
  8
0
  6
Continuous
 62
     7
370
    15
100
AcDbLine
 10
509.4750580192
 20
826.4470261827
 30
0.0
 11
510.0660306215
 21
825.9171483412
 31
0.0
  0
LINE
  5
BA
330
1F
100
AcDbEntity
  8
0
  6
Continuous
 62
     7
370
    15
100
AcDbLine
 10
509.4750580192
 20
826.4470261827
 30
0.0
 11
517.6378619671
 21
826.3730493679
 31
0.0
  0
ARC
  5
BB
330
1F
100
AcDbEntity
  8
0
  6
Continuous
 62
     7
370
    15
100
AcDbCircle
 10
517.4604592763
 20
821.3375490682
 30
0.0
 40
5.038624314555546
100
AcDbArc
 50
71.6921419097
 51
87.9822812667
  0
LINE
  5
BC
330
1F
100
AcDbEntity
  8
0
  6
Continuous
 62
     7
370
    15
100
AcDbLine
 10
519.0432053804
 20
826.1211303368
 30
0.0
 11
522.1921038628
 21
825.1400602355
 31
0.0
  0
ARC
  5
BD
330
1F
100
AcDbEntity
  8
0
  6
Continuous
 62
     7
370
    15
100
AcDbCircle
 10
522.9835125233
 20
827.5320547624
 30
0.0
 40
2.519516914929412
100
AcDbArc
 50
251.6928296178
 51
267.981804581
  0
LINE
  5
BE
330
1F
100
AcDbEntity
  8
0
  6
Continuous
 62
     7
370
    15
100
AcDbLine
 10
522.89478302
 20
825.0141007199
 30
0.0
 11
524.4178456068
 21
825.0003022447
 31
0.0
  0
ARC
  5
BF
330
1F
100
AcDbEntity
  8
0
  6
Continuous
 62
     7
370
    15
100
AcDbCircle
 10
524.0406012299
 20
818.7404445309
 30
0.0
 40
6.271214548768482
100
AcDbArc
 50
62.5236873793
 51
86.5512952065
  0
LWPOLYLINE
  5
C0
330
1F
100
AcDbEntity
  8
0
  6
Continuous
 62
     7
370
    15
100
AcDbPolyline
 90
        9
 70
   128
 43
0.0
 10
526.9340258837
 20
824.3042764559
 10
527.9233586788
 20
823.873230566
 10
528.919903636
 20
823.544086267
 10
529.8663657904
 20
823.3357605829
 10
530.7082813978
 20
823.2602489486
 10
531.3972216845
 20
823.3218876019
 10
531.8935644627
 20
823.517137517
 10
532.1687740088
 20
823.8347557678
 10
532.2070103884
 20
824.2564884319
  0
LWPOLYLINE
  5
C1
330
1F
100
AcDbEntity
  8
0
  6
Continuous
 62
     7
370
    15
100
AcDbPolyline
 90
        9
 70
   128
 43
0.0
 10
533.2061630487
 20
824.9206555381
 10
532.9619479179
 20
824.9115136757
 10
532.7468645573
 20
824.8795655861
 10
532.5639826059
 20
824.8252657547
 10
532.4159544706
 20
824.7493964925
 10
532.3049259186
 20
824.6530604854
 10
532.232491374
 20
824.5376435413
 10
532.1996939182
 20
824.4048145905
 10
532.2070103884
 20
824.2564884319
  0
LINE
  5
C2
330
1F
100
AcDbEntity
  8
0
  6
Continuous
 62
     7
370
    15
100
AcDbLine
 10
533.2061630487
 20
824.9206555381
 30
0.0
 11
534.7292107344
 21
824.9068496122
 31
0.0
  0
ARC
  5
C3
330
1F
100
AcDbEntity
  8
0
  6
Continuous
 62
     7
370
    15
100
AcDbCircle
 10
534.7926131646
 20
825.5384026548
 30
0.0
 40
0.6347275902095538
100
AcDbArc
 50
264.2672099292
 51
305.6332806866
  0
LINE
  5
C4
330
1F
100
AcDbEntity
  8
0
  6
Continuous
 62
     7
370
    15
100
AcDbLine
 10
535.1624023914
 20
825.022519876
 30
0.0
 11
536.1648929119
 21
825.9659645453
 31
0.0
  0
ARC
  5
C5
330
1F
100
AcDbEntity
  8
0
  6
Continuous
 62
     7
370
    15
100
AcDbCircle
 10
536.9044124314
 20
824.9343708544
 30
0.0
 40
1.269281159821817
100
AcDbArc
 50
84.2644236554
 51
125.6356383319
  0
LINE
  5
C6
330
1F
100
AcDbEntity
  8
0
  6
Continuous
 62
     7
370
    15
100
AcDbLine
 10
537.0312613249
 20
826.1972976222
 30
0.0
 11
545.1940578222
 21
826.1233282581
 31
0.0
  0
LINE
  5
C7
330
1F
100
AcDbEntity
  8
0
  6
Continuous
 62
     7
370
    15
100
AcDbLine
 10
510.0660306215
 20
825.9171483412
 30
0.0
 11
504.4453945756
 21
813.1964293614
 31
0.0
  0
LINE
  5
C8
330
1F
100
AcDbEntity
  8
0
  6
Continuous
 62
     7
370
    15
100
AcDbLine
 10
512.7106291056
 20
813.121521224
 30
0.0
 11
518.3312726021
 21
825.8422476545
 31
0.0
  0
LINE
  5
C9
330
1F
100
AcDbEntity
  8
0
  6
Continuous
 62
     7
370
    15
100
AcDbLine
 10
504.4453945756
 20
813.1964293614
 30
0.0
 11
512.7106291056
 21
813.121521224
 31
0.0
  0
LWPOLYLINE
  5
CA
330
1F
100
AcDbEntity
  8
0
  6
Continuous
 62
     7
370
    15
100
AcDbPolyline
 90
       17
 70
   128
 43
0.0
 10
510.3828293085
 20
815.2712297931
 10
510.1850536466
 20
814.9471891418
 10
509.9086296558
 20
814.6734622612
 10
509.5956382155
 20
814.4917276993
 10
509.2937332392
 20
814.4296569123
 10
509.0488773584
 20
814.4966823354
 10
508.8983458281
 20
814.6826190248
 10
508.8650491834
 20
814.9591473236
 10
508.9540687203
 20
815.2841789022
 10
509.1518369317
 20
815.6082195535
 10
509.4282609224
 20
815.8819389835
 10
509.7412523627
 20
816.0636735454
 10
510.0431573391
 20
816.1257517829
 10
510.2880132198
 20
816.0587189093
 10
510.4385447502
 20
815.8727822199
 10
510.4718413949
 20
815.596253921
 10
510.3828293085
 20
815.2712297931
  0
LWPOLYLINE
  5
CB
330
1F
100
AcDbEntity
  8
0
  6
Continuous
 62
     7
370
    15
100
AcDbPolyline
 90
       17
 70
   128
 43
0.0
 10
514.1299200058
 20
823.7517115965
 10
513.9321517944
 20
823.4276709452
 10
513.6557203531
 20
823.1539440646
 10
513.3427363634
 20
822.9722095027
 10
513.040831387
 20
822.9101387158
 10
512.7959755063
 20
822.9771641388
 10
512.6454365253
 20
823.1631008282
 10
512.6121473312
 20
823.439629127
 10
512.7011594176
 20
823.7646607056
 10
512.8989350796
 20
824.0887013569
 10
513.1753590703
 20
824.3624207869
 10
513.48834306
 20
824.5441553488
 10
513.7902480364
 20
824.6062335863
 10
514.0351039171
 20
824.5392007127
 10
514.1856503487
 20
824.3532640233
 10
514.2189395428
 20
824.0767357245
 10
514.1299200058
 20
823.7517115965
  0
LINE
  5
CC
330
1F
100
AcDbEntity
  8
0
  6
Continuous
 62
     7
370
    15
100
AcDbLine
 10
509.4750580192
 20
826.4470261827
 30
0.0
 11
503.8544145226
 21
813.7263072028
 31
0.0
  0
LINE
  5
CD
330
1F
100
AcDbEntity
  8
0
  6
Continuous
 62
     7
370
    15
100
AcDbLine
 10
503.8544145226
 20
813.7263072028
 30
0.0
 11
504.4453945756
 21
813.1964293614
 31
0.0
  0
ARC
  5
CE
330
1F
100
AcDbEntity
  8
0
  6
Continuous
 62
     7
370
    15
100
AcDbCircle
 10
512.6909417761
 20
824.4055963527
 30
0.0
 40
0.6498465699767891
100
AcDbArc
 50
275.0082978967
 51
339.5788688981
  0
LINE
  5
CF
330
1F
100
AcDbEntity
  8
0
  6
Continuous
 62
     7
370
    15
100
AcDbLine
 10
516.5622067451
 20
812.0144916072
 30
0.0
 11
522.1828502417
 21
824.7352180376
 31
0.0
  0
LINE
  5
D0
330
1F
100
AcDbEntity
  8
0
  6
Continuous
 62
     7
370
    15
100
AcDbLine
 10
519.0339517593
 20
825.7162806883
 30
0.0
 11
513.4133082628
 21
812.9955617085
 31
0.0
  0
LINE
  5
D1
330
1F
100
AcDbEntity
  8
0
  6
Continuous
 62
     7
370
    15
100
AcDbLine
 10
513.4133082628
 20
812.9955617085
 30
0.0
 11
516.5622067451
 21
812.0144916072
 31
0.0
  0
ARC
  5
D2
330
1F
100
AcDbEntity
  8
0
  6
Continuous
 62
     7
370
    15
100
AcDbCircle
 10
512.6218848915
 20
810.6034851159
 30
0.0
 40
2.519599447788875
100
AcDbArc
 50
71.6930982129
 51
87.9815359859
  0
ARC
  5
D3
330
1F
100
AcDbEntity
  8
0
  6
Continuous
 62
     7
370
    15
100
AcDbCircle
 10
508.9438552256
 20
815.9251205716
 30
0.0
 40
0.6498447851155554
100
AcDbArc
 50
275.0079446708
 51
339.5782437244
  0
LINE
  5
D4
330
1F
100
AcDbEntity
  8
0
  6
Continuous
 62
     7
370
    15
100
AcDbLine
 10
523.5882085562
 20
824.4832915559
 30
0.0
 11
517.9675650597
 21
811.7625725761
 31
0.0
  0
ARC
  5
D5
330
1F
100
AcDbEntity
  8
0
  6
Continuous
 62
     7
370
    15
100
AcDbCircle
 10
518.1450527207
 20
816.7986405128
 30
0.0
 40
5.03919459168388
100
AcDbArc
 50
251.6930912098
 51
267.981542989
  0
LINE
  5
D6
330
1F
100
AcDbEntity
  8
0
  6
Continuous
 62
     7
370
    15
100
AcDbLine
 10
519.5786339045
 20
811.7479694381
 30
0.0
 11
525.199277401
 21
824.4686958685
 31
0.0
  0
LINE
  5
D7
330
1F
100
AcDbEntity
  8
0
  6
Continuous
 62
     7
370
    15
100
AcDbLine
 10
517.9675650597
 20
811.7625725761
 30
0.0
 11
519.5786339045
 21
811.7479694381
 31
0.0
  0
LINE
  5
D8
330
1F
100
AcDbEntity
  8
0
  6
Continuous
 62
     7
370
    15
100
AcDbLine
 10
526.5064221621
 20
824.096196641
 30
0.0
 11
520.8857786655
 21
811.3754702106
 31
0.0
  0
LWPOLYLINE
  5
D9
330
1F
100
AcDbEntity
  8
0
  6
Continuous
 62
     7
370
    15
100
AcDbPolyline
 90
        8
 70
   128
 43
0.0
 10
520.8857786655
 20
811.3754702106
 10
522.1342277527
 20
810.8135176196
 10
523.40090096
 20
810.3823674216
 10
524.6072840691
 20
810.1087597504
 10
525.6786179543
 20
810.0096446767
 10
526.5484732389
 20
810.0911689296
 10
527.1629375219
 20
810.3482735648
 10
527.459038496
 20
810.7011256113
  0
ARC
  5
DA
330
1F
100
AcDbEntity
  8
0
  6
Continuous
 62
     7
370
    15
100
AcDbCircle
 10
519.3816394528
 20
808.5769781216
 30
0.0
 40
3.177104458991271
100
AcDbArc
 50
61.7427691519
 51
86.445129346
  0
LINE
  5
DB
330
1F
100
AcDbEntity
  8
0
  6
Continuous
 62
     7
370
    15
100
AcDbLine
 10
533.6066764593
 20
824.3924987807
 30
0.0
 11
527.9860329628
 21
811.6717798009
 31
0.0
  0
LINE
  5
DC
330
1F
100
AcDbEntity
  8
0
  6
Continuous
 62
     7
370
    15
100
AcDbLine
 10
527.9860329628
 20
811.6717798009
 30
0.0
 11
527.8866869211
 21
811.6690007343
 31
0.0
  0
LINE
  5
DD
330
1F
100
AcDbEntity
  8
0
  6
Continuous
 62
     7
370
    15
100
AcDbLine
 10
529.5971167088
 20
811.6571841135
 30
0.0
 11
535.2177602053
 21
824.3779030934
 31
0.0
  0
LINE
  5
DE
330
1F
100
AcDbEntity
  8
0
  6
Continuous
 62
     7
370
    15
100
AcDbLine
 10
527.9860329628
 20
811.6717798009
 30
0.0
 11
529.5971167088
 21
811.6571841135
 31
0.0
  0
LINE
  5
DF
330
1F
100
AcDbEntity
  8
0
  6
Continuous
 62
     7
370
    15
100
AcDbLine
 10
536.0841286182
 20
824.6092361703
 30
0.0
 11
530.4634851217
 21
811.8885171905
 31
0.0
  0
ARC
  5
E0
330
1F
100
AcDbEntity
  8
0
  6
Continuous
 62
     7
370
    15
100
AcDbCircle
 10
529.7239656023
 20
812.9201108813
 30
0.0
 40
1.269281159821725
100
AcDbArc
 50
264.2644236554
 51
305.6356383319
  0
LINE
  5
E1
330
1F
100
AcDbEntity
  8
0
  6
Continuous
 62
     7
370
    15
100
AcDbLine
 10
531.4659756422
 20
812.8319618597
 30
0.0
 11
537.0866191387
 21
825.5526808396
 31
0.0
  0
LINE
  5
E2
330
1F
100
AcDbEntity
  8
0
  6
Continuous
 62
     7
370
    15
100
AcDbLine
 10
530.4634851217
 20
811.8885171905
 30
0.0
 11
531.4659756422
 21
812.8319618597
 31
0.0
  0
LINE
  5
E3
330
1F
100
AcDbEntity
  8
0
  6
Continuous
 62
     7
370
    15
100
AcDbLine
 10
537.5197958946
 20
825.6683511033
 30
0.0
 11
531.8991523981
 21
812.9476246729
 31
0.0
  0
ARC
  5
E4
330
1F
100
AcDbEntity
  8
0
  6
Continuous
 62
     7
370
    15
100
AcDbCircle
 10
531.8357213376
 20
812.3161932638
 30
0.0
 40
0.6346094261659546
100
AcDbArc
 50
84.2635410204
 51
125.6360923229
  0
LINE
  5
E5
330
1F
100
AcDbEntity
  8
0
  6
Continuous
 62
     7
370
    15
100
AcDbLine
 10
545.7850378752
 20
825.593442966
 30
0.0
 11
540.1643943787
 21
812.8727239862
 31
0.0
  0
LWPOLYLINE
  5
E6
330
1F
100
AcDbEntity
  8
0
  6
Continuous
 62
     7
370
    15
100
AcDbPolyline
 90
       17
 70
   128
 43
0.0
 10
541.2763637304
 20
823.5056934252
 10
541.0785955191
 20
823.1816527739
 10
540.8021640778
 20
822.9079333439
 10
540.489180088
 20
822.726198782
 10
540.1872676611
 20
822.6641205444
 10
539.9424117804
 20
822.7311534181
 10
539.79188025
 20
822.9170901075
 10
539.7585910559
 20
823.1936184063
 10
539.8475956917
 20
823.5186425343
 10
540.0453788042
 20
823.8426831856
 10
540.3217953444
 20
824.1164100661
 10
540.6347942352
 20
824.2981446281
 10
540.936691761
 20
824.360215415
 10
541.1815476418
 20
824.293189992
 10
541.3320791721
 20
824.1072533026
 10
541.3653832674
 20
823.8307250037
 10
541.2763637304
 20
823.5056934252
  0
LWPOLYLINE
  5
E7
330
1F
100
AcDbEntity
  8
0
  6
Continuous
 62
     7
370
    15
100
AcDbPolyline
 90
       17
 70
   128
 43
0.0
 10
537.5292730331
 20
815.0252190724
 10
537.3314899206
 20
814.7011709705
 10
537.0550733805
 20
814.4274515405
 10
536.7420893908
 20
814.2457169786
 10
536.4401769638
 20
814.183638741
 10
536.1953210831
 20
814.2506716147
 10
536.0447895527
 20
814.436608304
 10
536.0114854574
 20
814.7131366029
 10
536.1005049944
 20
815.0381607309
 10
536.2982881069
 20
815.3622013822
 10
536.5747046471
 20
815.6359282627
 10
536.8876886368
 20
815.8176628246
 10
537.1896010637
 20
815.8797410622
 10
537.4344569445
 20
815.8127081885
 10
537.5849884748
 20
815.6267714992
 10
537.618277669
 20
815.3502432003
 10
537.5292730331
 20
815.0252190724
  0
LINE
  5
E8
330
1F
100
AcDbEntity
  8
0
  6
Continuous
 62
     7
370
    15
100
AcDbLine
 10
531.8991523981
 20
812.9476246729
 30
0.0
 11
540.1643943787
 21
812.8727239862
 31
0.0
  0
LWPOLYLINE
  5
E9
330
1F
100
AcDbEntity
  8
0
  6
Continuous
 62
     7
370
    15
100
AcDbPolyline
 90
        8
 70
   128
 43
0.0
 10
539.9881583452
 20
823.5224646821
 10
540.0527995825
 20
823.5430878892
 10
540.2092915773
 20
823.6339551702
 10
540.3474998474
 20
823.7708148852
 10
540.4463839531
 20
823.9328352108
 10
540.4908937216
 20
824.0953472748
 10
540.4742491245
 20
824.2336151495
 10
540.42298913
 20
824.3083444729
  0
LINE
  5
EA
330
1F
100
AcDbEntity
  8
0
  6
Continuous
 62
     7
370
    15
100
AcDbLine
 10
267.516104579
 20
825.9171483412
 30
0.0
 11
268.1070846319
 21
826.4470261827
 31
0.0
  0
LINE
  5
EB
330
1F
100
AcDbEntity
  8
0
  6
Continuous
 62
     7
370
    15
100
AcDbLine
 10
259.2508625984
 20
825.8422476545
 30
0.0
 11
267.516104579
 21
825.9171483412
 31
0.0
  0
ARC
  5
EC
330
1F
100
AcDbEntity
  8
0
  6
Continuous
 62
     7
370
    15
100
AcDbCircle
 10
259.3396445799
 20
823.3242359776
 30
0.0
 40
2.51957636224944
100
AcDbArc
 50
92.0193418898
 51
108.3076231814
  0
LINE
  5
ED
330
1F
100
AcDbEntity
  8
0
  6
Continuous
 62
     7
370
    15
100
AcDbLine
 10
255.3992849588
 20
824.7352180376
 30
0.0
 11
258.5481983423
 21
825.7162806883
 31
0.0
  0
ARC
  5
EE
330
1F
100
AcDbEntity
  8
0
  6
Continuous
 62
     7
370
    15
100
AcDbCircle
 10
253.8164300642
 20
829.5192572594
 30
0.0
 40
5.039093261023779
100
AcDbArc
 50
272.0187686267
 51
288.307396802
  0
LINE
  5
EF
330
1F
100
AcDbEntity
  8
0
  6
Continuous
 62
     7
370
    15
100
AcDbLine
 10
252.3828577995
 20
824.4686958685
 30
0.0
 11
253.9939415455
 21
824.4832915559
 31
0.0
  0
ARC
  5
F0
330
1F
100
AcDbEntity
  8
0
  6
Continuous
 62
     7
370
    15
100
AcDbCircle
 10
252.5798878259
 20
821.2976398873
 30
0.0
 40
3.177171205188246
100
AcDbArc
 50
93.5554386547
 51
118.2570071543
  0
LWPOLYLINE
  5
F1
330
1F
100
AcDbEntity
  8
0
  6
Continuous
 62
     7
370
    15
100
AcDbPolyline
 90
        9
 70
   128
 43
0.0
 10
244.4699090719
 20
824.0363312259
 10
244.4775533676
 20
823.4857556715
 10
244.7985541821
 20
823.0689999952
 10
245.4130333662
 20
822.8118879094
 10
246.2828886509
 20
822.7303636565
 10
247.3542076349
 20
822.8294787302
 10
248.560590744
 20
823.1030938521
 10
249.8272639513
 20
823.5342365995
 10
251.0757279396
 20
824.096196641
  0
LWPOLYLINE
  5
F2
330
1F
100
AcDbEntity
  8
0
  6
Continuous
 62
     7
370
    15
100
AcDbPolyline
 90
        9
 70
   128
 43
0.0
 10
243.9754587412
 20
824.3924987807
 10
244.1019546986
 20
824.3875292435
 10
244.2127001286
 20
824.3702662482
 10
244.3059515953
 20
824.3409929171
 10
244.3802785873
 20
824.3001488342
 10
244.4345188141
 20
824.2483822003
 10
244.4678229094
 20
824.1864902272
 10
244.4796842337
 20
824.1154340401
 10
244.4699090719
 20
824.0363312259
  0
LINE
  5
F3
330
1F
100
AcDbEntity
  8
0
  6
Continuous
 62
     7
370
    15
100
AcDbLine
 10
242.3643898964
 20
824.3779030934
 30
0.0
 11
243.9754587412
 21
824.3924987807
 31
0.0
  0
ARC
  5
F4
330
1F
100
AcDbEntity
  8
0
  6
Continuous
 62
     7
370
    15
100
AcDbCircle
 10
242.2375486163
 20
825.6409060111
 30
0.0
 40
1.269356167694978
100
AcDbArc
 50
234.3655383439
 51
275.7348909028
  0
LINE
  5
F5
330
1F
100
AcDbEntity
  8
0
  6
Continuous
 62
     7
370
    15
100
AcDbLine
 10
240.4955309629
 20
825.5526808396
 30
0.0
 11
241.4980065823
 21
824.6092361703
 31
0.0
  0
ARC
  5
F6
330
1F
100
AcDbEntity
  8
0
  6
Continuous
 62
     7
370
    15
100
AcDbCircle
 10
240.1257571374
 20
825.0368557393
 30
0.0
 40
0.6346717388472887
100
AcDbArc
 50
54.364815775
 51
95.7346936092
  0
LINE
  5
F7
330
1F
100
AcDbEntity
  8
0
  6
Continuous
 62
     7
370
    15
100
AcDbLine
 10
231.7970973253
 20
825.593442966
 30
0.0
 11
240.0623393059
 21
825.6683511033
 31
0.0
  0
LINE
  5
F8
330
1F
100
AcDbEntity
  8
0
  6
Continuous
 62
     7
370
    15
100
AcDbLine
 10
232.3880773783
 20
826.1233282581
 30
0.0
 11
231.7970973253
 21
825.593442966
 31
0.0
  0
LINE
  5
F9
330
1F
100
AcDbEntity
  8
0
  6
Continuous
 62
     7
370
    15
100
AcDbLine
 10
232.3880773783
 20
826.1233282581
 30
0.0
 11
240.5508738756
 21
826.1972976222
 31
0.0
  0
ARC
  5
FA
330
1F
100
AcDbEntity
  8
0
  6
Continuous
 62
     7
370
    15
100
AcDbCircle
 10
240.6777151557
 20
824.9342947045
 30
0.0
 40
1.269356167695293
100
AcDbArc
 50
54.3655383439
 51
95.7348909028
  0
LINE
  5
FB
330
1F
100
AcDbEntity
  8
0
  6
Continuous
 62
     7
370
    15
100
AcDbLine
 10
241.4172571898
 20
825.9659645453
 30
0.0
 11
242.4197328091
 21
825.022519876
 31
0.0
  0
ARC
  5
FC
330
1F
100
AcDbEntity
  8
0
  6
Continuous
 62
     7
370
    15
100
AcDbCircle
 10
242.7895220359
 20
825.5384026548
 30
0.0
 40
0.6347275902094615
100
AcDbArc
 50
234.3667193134
 51
275.7327900708
  0
LINE
  5
FD
330
1F
100
AcDbEntity
  8
0
  6
Continuous
 62
     7
370
    15
100
AcDbLine
 10
242.8529244661
 20
824.9068496122
 30
0.0
 11
244.3759870529
 21
824.9206555381
 31
0.0
  0
LWPOLYLINE
  5
FE
330
1F
100
AcDbEntity
  8
0
  6
Continuous
 62
     7
370
    15
100
AcDbPolyline
 90
        9
 70
   128
 43
0.0
 10
245.3751397133
 20
824.2564884319
 10
245.3824561834
 20
824.4048145905
 10
245.3496438265
 20
824.5376435413
 10
245.2772092819
 20
824.6530604854
 10
245.1661807299
 20
824.7493964925
 10
245.0181525946
 20
824.8252657547
 10
244.8352855444
 20
824.8795655861
 10
244.6201872826
 20
824.9115136757
 10
244.3759870529
 20
824.9206555381
  0
LWPOLYLINE
  5
FF
330
1F
100
AcDbEntity
  8
0
  6
Continuous
 62
     7
370
    15
100
AcDbPolyline
 90
        9
 70
   128
 43
0.0
 10
245.3751397133
 20
824.2564884319
 10
245.4133611917
 20
823.8347557678
 10
245.6885707378
 20
823.517137517
 10
246.184913516
 20
823.3218876019
 10
246.8738687038
 20
823.2602489486
 10
247.7157843113
 20
823.3357605829
 10
248.6622315645
 20
823.544086267
 10
249.6587914228
 20
823.873230566
 10
250.648124218
 20
824.3042764559
  0
ARC
  5
100
330
1F
100
AcDbEntity
  8
0
  6
Continuous
 62
     7
370
    15
100
AcDbCircle
 10
253.5415107475
 20
818.7405904283
 30
0.0
 40
6.271067518628398
100
AcDbArc
 50
93.4485731859
 51
117.4766186078
  0
LINE
  5
101
330
1F
100
AcDbEntity
  8
0
  6
Continuous
 62
     7
370
    15
100
AcDbLine
 10
253.1642895937
 20
825.0003022447
 30
0.0
 11
254.6873521805
 21
825.0141007199
 31
0.0
  0
ARC
  5
102
330
1F
100
AcDbEntity
  8
0
  6
Continuous
 62
     7
370
    15
100
AcDbCircle
 10
254.5986226772
 20
827.5320547624
 30
0.0
 40
2.519516914929419
100
AcDbArc
 50
272.018195419
 51
288.3071703822
  0
LINE
  5
103
330
1F
100
AcDbEntity
  8
0
  6
Continuous
 62
     7
370
    15
100
AcDbLine
 10
255.3900313377
 20
825.1400602355
 30
0.0
 11
258.5389298201
 21
826.1211303368
 31
0.0
  0
ARC
  5
104
330
1F
100
AcDbEntity
  8
0
  6
Continuous
 62
     7
370
    15
100
AcDbCircle
 10
260.1217227382
 20
821.3372774177
 30
0.0
 40
5.03889692022927
100
AcDbArc
 50
92.0179726261
 51
108.3073931751
  0
LINE
  5
105
330
1F
100
AcDbEntity
  8
0
  6
Continuous
 62
     7
370
    15
100
AcDbLine
 10
259.9442881346
 20
826.3730493679
 30
0.0
 11
268.1070846319
 21
826.4470261827
 31
0.0
  0
LINE
  5
106
330
1F
100
AcDbEntity
  8
0
  6
Continuous
 62
     7
370
    15
100
AcDbLine
 10
267.516104579
 20
825.9171483412
 30
0.0
 11
273.1367480755
 21
813.1964293614
 31
0.0
  0
LINE
  5
107
330
1F
100
AcDbEntity
  8
0
  6
Continuous
 62
     7
370
    15
100
AcDbLine
 10
264.8715135455
 20
813.121521224
 30
0.0
 11
273.1367480755
 21
813.1964293614
 31
0.0
  0
LINE
  5
108
330
1F
100
AcDbEntity
  8
0
  6
Continuous
 62
     7
370
    15
100
AcDbLine
 10
259.2508625984
 20
825.8422476545
 30
0.0
 11
264.8715135455
 21
813.121521224
 31
0.0
  0
LWPOLYLINE
  5
109
330
1F
100
AcDbEntity
  8
0
  6
Continuous
 62
     7
370
    15
100
AcDbPolyline
 90
       17
 70
   128
 43
0.0
 10
264.8809832335
 20
823.7646607056
 10
264.9699953198
 20
823.439629127
 10
264.9367061257
 20
823.1631008282
 10
264.7861671448
 20
822.9771641388
 10
264.541311264
 20
822.9101387158
 10
264.2394062877
 20
822.9722095027
 10
263.9264148474
 20
823.1539440646
 10
263.6499983072
 20
823.4276709452
 10
263.4522151947
 20
823.7517115965
 10
263.3632105589
 20
824.0767357245
 10
263.396499753
 20
824.3532640233
 10
263.5470312834
 20
824.5392007127
 10
263.7918871641
 20
824.6062335863
 10
264.0937921405
 20
824.5441553488
 10
264.4067835808
 20
824.3624207869
 10
264.6832075715
 20
824.0887013569
 10
264.8809832335
 20
823.7646607056
  0
LWPOLYLINE
  5
10A
330
1F
100
AcDbEntity
  8
0
  6
Continuous
 62
     7
370
    15
100
AcDbPolyline
 90
       17
 70
   128
 43
0.0
 10
268.6280739307
 20
815.2841789022
 10
268.7170934677
 20
814.9591473236
 10
268.683796823
 20
814.6826190248
 10
268.5332652926
 20
814.4966823354
 10
268.2884019613
 20
814.4296569123
 10
267.986496985
 20
814.4917276993
 10
267.6735129952
 20
814.6734622612
 10
267.3970890045
 20
814.9471891418
 10
267.1993133426
 20
815.2712297931
 10
267.1103012562
 20
815.596253921
 10
267.1435904503
 20
815.8727822199
 10
267.2941294312
 20
816.0587189093
 10
267.538985312
 20
816.1257517829
 10
267.8408902884
 20
816.0636735454
 10
268.1538817286
 20
815.8819389835
 10
268.4302982688
 20
815.6082195535
 10
268.6280739307
 20
815.2841789022
  0
LINE
  5
10B
330
1F
100
AcDbEntity
  8
0
  6
Continuous
 62
     7
370
    15
100
AcDbLine
 10
268.1070846319
 20
826.4470261827
 30
0.0
 11
273.7277281284
 21
813.7263072028
 31
0.0
  0
LINE
  5
10C
330
1F
100
AcDbEntity
  8
0
  6
Continuous
 62
     7
370
    15
100
AcDbLine
 10
273.1367480755
 20
813.1964293614
 30
0.0
 11
273.7277281284
 21
813.7263072028
 31
0.0
  0
ARC
  5
10D
330
1F
100
AcDbEntity
  8
0
  6
Continuous
 62
     7
370
    15
100
AcDbCircle
 10
264.9478602886
 20
824.4609360333
 30
0.0
 40
0.7229667597709943
100
AcDbArc
 50
202.9653110077
 51
253.17353864
  0
LINE
  5
10E
330
1F
100
AcDbEntity
  8
0
  6
Continuous
 62
     7
370
    15
100
AcDbLine
 10
255.3992849588
 20
824.7352180376
 30
0.0
 11
261.0199284554
 21
812.0144916072
 31
0.0
  0
LINE
  5
10F
330
1F
100
AcDbEntity
  8
0
  6
Continuous
 62
     7
370
    15
100
AcDbLine
 10
264.1688343883
 20
812.9955617085
 30
0.0
 11
258.5481983423
 21
825.7162806883
 31
0.0
  0
LINE
  5
110
330
1F
100
AcDbEntity
  8
0
  6
Continuous
 62
     7
370
    15
100
AcDbLine
 10
261.0199284554
 20
812.0144916072
 30
0.0
 11
264.1688343883
 21
812.9955617085
 31
0.0
  0
ARC
  5
111
330
1F
100
AcDbEntity
  8
0
  6
Continuous
 62
     7
370
    15
100
AcDbCircle
 10
264.96023577
 20
810.6036077875
 30
0.0
 40
2.519476077917544
100
AcDbArc
 50
92.0180625124
 51
108.3073032888
  0
ARC
  5
112
330
1F
100
AcDbEntity
  8
0
  6
Continuous
 62
     7
370
    15
100
AcDbCircle
 10
268.6949803746
 20
815.9804869489
 30
0.0
 40
0.723006585549069
100
AcDbArc
 50
202.9667896796
 51
253.1720599682
  0
LINE
  5
113
330
1F
100
AcDbEntity
  8
0
  6
Continuous
 62
     7
370
    15
100
AcDbLine
 10
259.614585042
 20
811.7625725761
 30
0.0
 11
253.9939415455
 21
824.4832915559
 31
0.0
  0
ARC
  5
114
330
1F
100
AcDbEntity
  8
0
  6
Continuous
 62
     7
370
    15
100
AcDbCircle
 10
259.4370853145
 20
816.7986142002
 30
0.0
 40
5.039168720424528
100
AcDbArc
 50
272.0186046597
 51
288.3069721638
  0
LINE
  5
115
330
1F
100
AcDbEntity
  8
0
  6
Continuous
 62
     7
370
    15
100
AcDbLine
 10
252.3828577995
 20
824.4686958685
 30
0.0
 11
258.003501296
 21
811.7479694381
 31
0.0
  0
LINE
  5
116
330
1F
100
AcDbEntity
  8
0
  6
Continuous
 62
     7
370
    15
100
AcDbLine
 10
258.003501296
 20
811.7479694381
 30
0.0
 11
259.614585042
 21
811.7625725761
 31
0.0
  0
LINE
  5
117
330
1F
100
AcDbEntity
  8
0
  6
Continuous
 62
     7
370
    15
100
AcDbLine
 10
256.6963714361
 20
811.3754702106
 30
0.0
 11
251.0757279396
 21
824.096196641
 31
0.0
  0
LWPOLYLINE
  5
118
330
1F
100
AcDbEntity
  8
0
  6
Continuous
 62
     7
370
    15
100
AcDbPolyline
 90
        8
 70
   128
 43
0.0
 10
250.1231116056
 20
810.7011256113
 10
250.4191976786
 20
810.3482735648
 10
251.0336768627
 20
810.0911689296
 10
251.9035321474
 20
810.0096446767
 10
252.9748511314
 20
810.1087597504
 10
254.1812342405
 20
810.3823674216
 10
255.4479074478
 20
810.8135176196
 10
256.6963714361
 20
811.3754702106
  0
ARC
  5
119
330
1F
100
AcDbEntity
  8
0
  6
Continuous
 62
     7
370
    15
100
AcDbCircle
 10
258.2004620987
 20
808.5771563688
 30
0.0
 40
3.176924468476242
100
AcDbArc
 50
93.5544642869
 51
118.2579815221
  0
LINE
  5
11A
330
1F
100
AcDbEntity
  8
0
  6
Continuous
 62
     7
370
    15
100
AcDbLine
 10
249.5961022377
 20
811.6717798009
 30
0.0
 11
243.9754587412
 21
824.3924987807
 31
0.0
  0
LINE
  5
11B
330
1F
100
AcDbEntity
  8
0
  6
Continuous
 62
     7
370
    15
100
AcDbLine
 10
249.6954482794
 20
811.6690007343
 30
0.0
 11
249.5961022377
 21
811.6717798009
 31
0.0
  0
LINE
  5
11C
330
1F
100
AcDbEntity
  8
0
  6
Continuous
 62
     7
370
    15
100
AcDbLine
 10
242.3643898964
 20
824.3779030934
 30
0.0
 11
247.9850333929
 21
811.6571841135
 31
0.0
  0
LINE
  5
11D
330
1F
100
AcDbEntity
  8
0
  6
Continuous
 62
     7
370
    15
100
AcDbLine
 10
247.9850333929
 20
811.6571841135
 30
0.0
 11
249.5961022377
 21
811.6717798009
 31
0.0
  0
LINE
  5
11E
330
1F
100
AcDbEntity
  8
0
  6
Continuous
 62
     7
370
    15
100
AcDbLine
 10
247.1186500788
 20
811.8885171905
 30
0.0
 11
241.4980065823
 21
824.6092361703
 31
0.0
  0
ARC
  5
11F
330
1F
100
AcDbEntity
  8
0
  6
Continuous
 62
     7
370
    15
100
AcDbCircle
 10
247.8581921128
 20
812.9201870312
 30
0.0
 40
1.269356167694978
100
AcDbArc
 50
234.3655383439
 51
275.7348909028
  0
LINE
  5
120
330
1F
100
AcDbEntity
  8
0
  6
Continuous
 62
     7
370
    15
100
AcDbLine
 10
240.4955309629
 20
825.5526808396
 30
0.0
 11
246.1161744595
 21
812.8319618597
 31
0.0
  0
LINE
  5
121
330
1F
100
AcDbEntity
  8
0
  6
Continuous
 62
     7
370
    15
100
AcDbLine
 10
246.1161744595
 20
812.8319618597
 30
0.0
 11
247.1186500788
 21
811.8885171905
 31
0.0
  0
LINE
  5
122
330
1F
100
AcDbEntity
  8
0
  6
Continuous
 62
     7
370
    15
100
AcDbLine
 10
245.6829828024
 20
812.9476246729
 30
0.0
 11
240.0623393059
 21
825.6683511033
 31
0.0
  0
ARC
  5
123
330
1F
100
AcDbEntity
  8
0
  6
Continuous
 62
     7
370
    15
100
AcDbCircle
 10
245.7464125219
 20
812.3161406051
 30
0.0
 40
0.6346616872451016
100
AcDbArc
 50
54.3654857575
 51
95.7358633556
  0
LINE
  5
124
330
1F
100
AcDbEntity
  8
0
  6
Continuous
 62
     7
370
    15
100
AcDbLine
 10
231.7970973253
 20
825.593442966
 30
0.0
 11
237.4177408218
 21
812.8727239862
 31
0.0
  0
LWPOLYLINE
  5
125
330
1F
100
AcDbEntity
  8
0
  6
Continuous
 62
     7
370
    15
100
AcDbPolyline
 90
       17
 70
   128
 43
0.0
 10
241.4816302061
 20
815.0381607309
 10
241.5706497431
 20
814.7131366029
 10
241.537360549
 20
814.436608304
 10
241.3868141174
 20
814.2506716147
 10
241.1419582367
 20
814.183638741
 10
240.8400607109
 20
814.2457169786
 10
240.5270767212
 20
814.4274515405
 10
240.2506452799
 20
814.7011709705
 10
240.0528770685
 20
815.0252190724
 10
239.9638575315
 20
815.3502432003
 10
239.9971467257
 20
815.6267714992
 10
240.147678256
 20
815.8127081885
 10
240.3925490379
 20
815.8797410622
 10
240.6944465637
 20
815.8176628246
 10
241.0074305534
 20
815.6359282627
 10
241.2838619947
 20
815.3622013822
 10
241.4816302061
 20
815.0381607309
  0
LWPOLYLINE
  5
126
330
1F
100
AcDbEntity
  8
0
  6
Continuous
 62
     7
370
    15
100
AcDbPolyline
 90
       17
 70
   128
 43
0.0
 10
237.7345395088
 20
823.5186425343
 10
237.8235590458
 20
823.1936184063
 10
237.7902549505
 20
822.9170901075
 10
237.6397234201
 20
822.7311534181
 10
237.3948675394
 20
822.6641205444
 10
237.0929700136
 20
822.726198782
 10
236.7799711227
 20
822.9079333439
 10
236.5035545826
 20
823.1816527739
 10
236.3057714701
 20
823.5056934252
 10
236.2167668343
 20
823.8307250037
 10
236.2500560284
 20
824.1072533026
 10
236.4005875587
 20
824.293189992
 10
236.6454434395
 20
824.360215415
 10
236.9473558664
 20
824.2981446281
 10
237.2603398561
 20
824.1164100661
 10
237.5367563963
 20
823.8426831856
 10
237.7345395088
 20
823.5186425343
  0
LINE
  5
127
330
1F
100
AcDbEntity
  8
0
  6
Continuous
 62
     7
370
    15
100
AcDbLine
 10
237.4177408218
 20
812.8727239862
 30
0.0
 11
245.6829828024
 21
812.9476246729
 31
0.0
  0
ARC
  5
128
330
1F
100
AcDbEntity
  8
0
  6
Continuous
 62
     7
370
    15
100
AcDbCircle
 10
237.7884742295
 20
824.200948342
 30
0.0
 40
0.7058754642603828
100
AcDbArc
 50
189.7126898511
 51
253.8811610507
  0
ARC
  5
129
330
1F
100
AcDbEntity
  8
0
  6
Continuous
 62
     7
370
    15
100
AcDbCircle
 10
241.5356093138
 20
815.7205062208
 30
0.0
 40
0.7059259103626324
100
AcDbArc
 50
189.7152566629
 51
253.8785942389
  0
LINE
  5
12A
330
1F
100
AcDbEntity
  8
0
  6
Continuous
 62
     7
370
    15
100
AcDbLine
 10
154.7500026226
 20
894.0934476748
 30
0.0
 11
622.7499973774
 21
894.0934476748
 31
0.0
  0
LINE
  5
12B
330
1F
100
AcDbEntity
  8
0
  6
Continuous
 62
     7
370
    15
100
AcDbLine
 10
428.6000002921
 20
717.0934466019
 30
0.0
 11
348.8999997079
 21
717.0934466019
 31
0.0
  0
LINE
  5
12C
330
1F
100
AcDbEntity
  8
0
  6
Continuous
 62
     7
370
    15
100
AcDbLine
 10
423.7861131132
 20
714.8768476516
 30
0.0
 11
353.7138868868
 21
714.8768476516
 31
0.0
  0
ARC
  5
12D
330
1F
100
AcDbEntity
  8
0
  6
Continuous
 62
     7
370
    15
100
AcDbCircle
 10
388.75
 20
684.2186656257
 30
0.0
 40
19.99999999999989
100
AcDbArc
 50
270.0
 51
304.9152062474
  0
ARC
  5
12E
330
1F
100
AcDbEntity
  8
0
  6
Continuous
 62
     7
370
    15
100
AcDbCircle
 10
388.75
 20
684.2186656257
 30
0.0
 40
19.99999999999991
100
AcDbArc
 50
235.0847937526
 51
270.0
  0
ARC
  5
12F
330
1F
100
AcDbEntity
  8
0
  6
Continuous
 62
     7
370
    15
100
AcDbCircle
 10
388.75
 20
684.2186656257
 30
0.0
 40
18.79999999999989
100
AcDbArc
 50
270.0
 51
299.2682383253
  0
ARC
  5
130
330
1F
100
AcDbEntity
  8
0
  6
Continuous
 62
     7
370
    15
100
AcDbCircle
 10
388.75
 20
684.2186656257
 30
0.0
 40
18.79999999999989
100
AcDbArc
 50
240.7317616747
 51
270.0
  0
LWPOLYLINE
  5
131
330
1F
100
AcDbEntity
  8
0
  6
Continuous
 62
     7
370
    15
100
AcDbPolyline
 90
        3
 70
   128
 43
0.0
 10
388.75
 20
667.4186674252
 10
391.1960996501
 20
667.5976974263
 10
392.3941734992
 20
667.8186667457
  0
LWPOLYLINE
  5
132
330
1F
100
AcDbEntity
  8
0
  6
Continuous
 62
     7
370
    15
100
AcDbPolyline
 90
        3
 70
   128
 43
0.0
 10
385.1058265008
 20
667.8186667457
 10
386.3039003499
 20
667.5976974263
 10
388.75
 20
667.4186674252
  0
ARC
  5
133
330
1F
100
AcDbEntity
  8
0
  6
Continuous
 62
     7
370
    15
100
AcDbCircle
 10
388.75
 20
684.2186656257
 30
0.0
 40
17.59999999999991
100
AcDbArc
 50
270.0
 51
291.2799664684
  0
ARC
  5
134
330
1F
100
AcDbEntity
  8
0
  6
Continuous
 62
     7
370
    15
100
AcDbCircle
 10
388.75
 20
684.2186656257
 30
0.0
 40
17.59999999999991
100
AcDbArc
 50
248.7200335316
 51
270.0
  0
LINE
  5
135
330
1F
100
AcDbEntity
  8
0
  6
Continuous
 62
     7
370
    15
100
AcDbLine
 10
388.75
 20
667.4186674252
 30
0.0
 11
388.75
 21
667.58837675
 31
0.0
  0
LINE
  5
136
330
1F
100
AcDbEntity
  8
0
  6
Continuous
 62
     7
370
    15
100
AcDbLine
 10
353.749999851
 20
700.8186647042
 30
0.0
 11
423.750000149
 21
700.8186647042
 31
0.0
  0
LINE
  5
137
330
1F
100
AcDbEntity
  8
0
  6
Continuous
 62
     7
370
    15
100
AcDbLine
 10
420.9000003338
 20
667.8186667457
 30
0.0
 11
356.5999996662
 21
667.8186667457
 31
0.0
  0
LINE
  5
138
330
1F
100
AcDbEntity
  8
0
  6
Continuous
 62
     7
370
    15
100
AcDbLine
 10
391.0324485786
 20
667.8186667457
 30
0.0
 11
392.6625666954
 21
668.0329342678
 31
0.0
  0
LINE
  5
139
330
1F
100
AcDbEntity
  8
0
  6
Continuous
 62
     7
370
    15
100
AcDbLine
 10
353.749999851
 20
703.5186657056
 30
0.0
 11
423.750000149
 21
703.5186657056
 31
0.0
  0
LINE
  5
13A
330
1F
100
AcDbEntity
  8
0
  6
Continuous
 62
     7
370
    15
100
AcDbLine
 10
353.749999851
 20
703.7186653658
 30
0.0
 11
423.750000149
 21
703.7186653658
 31
0.0
  0
LINE
  5
13B
330
1F
100
AcDbEntity
  8
0
  6
Continuous
 62
     7
370
    15
100
AcDbLine
 10
353.749999851
 20
705.3186654418
 30
0.0
 11
423.750000149
 21
705.3186654418
 31
0.0
  0
LINE
  5
13C
330
1F
100
AcDbEntity
  8
0
  6
Continuous
 62
     7
370
    15
100
AcDbLine
 10
353.749999851
 20
705.5186660334
 30
0.0
 11
423.750000149
 21
705.5186660334
 31
0.0
  0
LINE
  5
13D
330
1F
100
AcDbEntity
  8
0
  6
Continuous
 62
     7
370
    15
100
AcDbLine
 10
353.749999851
 20
707.1186651781
 30
0.0
 11
423.750000149
 21
707.1186651781
 31
0.0
  0
LINE
  5
13E
330
1F
100
AcDbEntity
  8
0
  6
Continuous
 62
     7
370
    15
100
AcDbLine
 10
353.749999851
 20
707.3186657697
 30
0.0
 11
423.750000149
 21
707.3186657697
 31
0.0
  0
LINE
  5
13F
330
1F
100
AcDbEntity
  8
0
  6
Continuous
 62
     7
370
    15
100
AcDbLine
 10
353.749999851
 20
708.9186658456
 30
0.0
 11
423.750000149
 21
708.9186658456
 31
0.0
  0
LINE
  5
140
330
1F
100
AcDbEntity
  8
0
  6
Continuous
 62
     7
370
    15
100
AcDbLine
 10
353.749999851
 20
709.1186655059
 30
0.0
 11
423.750000149
 21
709.1186655059
 31
0.0
  0
LINE
  5
141
330
1F
100
AcDbEntity
  8
0
  6
Continuous
 62
     7
370
    15
100
AcDbLine
 10
353.749999851
 20
713.8186656709
 30
0.0
 11
423.750000149
 21
713.8186656709
 31
0.0
  0
ARC
  5
142
330
1F
100
AcDbEntity
  8
0
  6
Continuous
 62
     8
370
    15
100
AcDbCircle
 10
513.2068080704
 20
824.1918488875
 30
0.0
 40
0.3204761500987305
100
AcDbArc
 50
327.5488732193
 51
39.0144837653
  0
LWPOLYLINE
  5
143
330
1F
100
AcDbEntity
  8
0
  6
Continuous
 62
     8
370
    15
100
AcDbPolyline
 90
        7
 70
   128
 43
0.0
 10
512.7869454026
 20
823.6502421394
 10
512.8102657199
 20
823.6326140657
 10
512.9326936603
 20
823.5991013541
 10
513.0836498737
 20
823.6301404729
 10
513.2401418686
 20
823.7210077539
 10
513.3783575892
 20
823.8578674688
 10
513.4772416949
 20
824.0198877945
  0
ARC
  5
144
330
1F
100
AcDbEntity
  8
0
  6
Continuous
 62
     8
370
    15
100
AcDbCircle
 10
509.4596870331
 20
815.7113707366
 30
0.0
 40
0.3204974253230419
100
AcDbArc
 50
327.5505178885
 51
39.0105619683
  0
LWPOLYLINE
  5
145
330
1F
100
AcDbEntity
  8
0
  6
Continuous
 62
     8
370
    15
100
AcDbPolyline
 90
        7
 70
   128
 43
0.0
 10
509.0398547053
 20
815.1697603359
 10
509.0631750226
 20
815.1521322622
 10
509.185602963
 20
815.1186195507
 10
509.3365517259
 20
815.1496586695
 10
509.4930511713
 20
815.2405259504
 10
509.6312594414
 20
815.3773856654
 10
509.7301435471
 20
815.5394059911
  0
LINE
  5
146
330
1F
100
AcDbEntity
  8
0
  6
Continuous
 62
     8
370
    15
100
AcDbLine
 10
532.2070103884
 20
824.2564884319
 30
0.0
 11
531.8749976158
 21
823.5050824776
 31
0.0
  0
ARC
  5
147
330
1F
100
AcDbEntity
  8
0
  6
Continuous
 62
     8
370
    15
100
AcDbCircle
 10
540.3531880708
 20
823.9458448715
 30
0.0
 40
0.3205272351697964
100
AcDbArc
 50
327.5532594228
 51
39.0055433009
  0
LWPOLYLINE
  5
148
330
1F
100
AcDbEntity
  8
0
  6
Continuous
 62
     8
370
    15
100
AcDbPolyline
 90
        7
 70
   128
 43
0.0
 10
539.9333965778
 20
823.4042314186
 10
539.9567168951
 20
823.3866033449
 10
540.0791448355
 20
823.3530831828
 10
540.2300935984
 20
823.3841223016
 10
540.3865855932
 20
823.4749895826
 10
540.5247938633
 20
823.6118492975
 10
540.623677969
 20
823.7738770738
  0
ARC
  5
149
330
1F
100
AcDbEntity
  8
0
  6
Continuous
 62
     8
370
    15
100
AcDbCircle
 10
536.6061431603
 20
815.4653557621
 30
0.0
 40
0.3204846768685433
100
AcDbArc
 50
327.5499699307
 51
39.0133870539
  0
LWPOLYLINE
  5
14A
330
1F
100
AcDbEntity
  8
0
  6
Continuous
 62
     8
370
    15
100
AcDbPolyline
 90
        7
 70
   128
 43
0.0
 10
536.1862909794
 20
814.9237496152
 10
536.2096112967
 20
814.9061215415
 10
536.332039237
 20
814.87260883
 10
536.4830029011
 20
814.9036404982
 10
536.6394948959
 20
814.9945077791
 10
536.777703166
 20
815.1313749447
 10
536.8765872717
 20
815.2933952704
  0
LWPOLYLINE
  5
14B
330
1F
100
AcDbEntity
  8
0
  6
Continuous
 62
     8
370
    15
100
AcDbPolyline
 90
       10
 70
   128
 43
0.0
 10
264.1297486424
 20
824.3966785565
 10
264.0770357847
 20
824.3206677332
 10
264.0603911877
 20
824.1823998585
 10
264.1049009562
 20
824.0198877945
 10
264.2037850618
 20
823.8578674688
 10
264.3419933319
 20
823.7210077539
 10
264.4984927773
 20
823.6301404729
 10
264.6494415402
 20
823.5991013541
 10
264.7718694806
 20
823.6326140657
 10
264.7937369347
 20
823.6489606395
  0
LWPOLYLINE
  5
14C
330
1F
100
AcDbEntity
  8
0
  6
Continuous
 62
     8
370
    15
100
AcDbPolyline
 90
       10
 70
   128
 43
0.0
 10
267.8768467903
 20
815.916196753
 10
267.8241339326
 20
815.8401859298
 10
267.807481885
 20
815.7019180551
 10
267.8519916534
 20
815.5394059911
 10
267.9508832097
 20
815.3773856654
 10
268.0890914798
 20
815.2405259504
 10
268.2455834746
 20
815.1496586695
 10
268.3965396881
 20
815.1186195507
 10
268.5189676285
 20
815.1521322622
 10
268.540827632
 20
815.1684788361
  0
LINE
  5
14D
330
1F
100
AcDbEntity
  8
0
  6
Continuous
 62
     8
370
    15
100
AcDbLine
 10
245.7071375847
 20
823.5050824776
 30
0.0
 11
245.3751397133
 21
824.2564884319
 31
0.0
  0
LWPOLYLINE
  5
14E
330
1F
100
AcDbEntity
  8
0
  6
Continuous
 62
     8
370
    15
100
AcDbPolyline
 90
       10
 70
   128
 43
0.0
 10
236.9833123684
 20
824.1506678357
 10
236.9305920601
 20
824.0746495619
 10
236.913947463
 20
823.9363891378
 10
236.9584572315
 20
823.7738770738
 10
237.0573413372
 20
823.6118492975
 10
237.1955496073
 20
823.4749895826
 10
237.3520416021
 20
823.3841223016
 10
237.5030052662
 20
823.3530831828
 10
237.6254332066
 20
823.3866033449
 10
237.64729321
 20
823.4029499188
  0
LWPOLYLINE
  5
14F
330
1F
100
AcDbEntity
  8
0
  6
Continuous
 62
     8
370
    15
100
AcDbPolyline
 90
       10
 70
   128
 43
0.0
 10
240.7304030657
 20
815.6701860323
 10
240.6776827574
 20
815.5941677585
 10
240.6610381603
 20
815.4559073343
 10
240.7055479288
 20
815.2933952704
 10
240.8044320345
 20
815.1313749447
 10
240.9426552057
 20
814.9945077791
 10
241.0991472006
 20
814.9036404982
 10
241.2500959635
 20
814.87260883
 10
241.3725239038
 20
814.9061215415
 10
241.3943839073
 20
814.9224681153
  0
LINE
  5
150
330
1F
100
AcDbEntity
  8
0
  6
Continuous
 62
     8
370
    15
100
AcDbLine
 10
626.2499970198
 20
890.5934480324
 30
0.0
 11
151.2500029802
 21
890.5934480324
 31
0.0
  0
LINE
  5
151
330
1F
100
AcDbEntity
  8
0
  6
Continuous
 62
     8
370
    15
100
AcDbLine
 10
353.749999851
 20
696.8186659112
 30
0.0
 11
423.750000149
 21
696.8186659112
 31
0.0
  0
LINE
  5
152
330
1F
100
AcDbEntity
  8
0
  6
Continuous
 62
     8
370
    15
100
AcDbLine
 10
357.5657886267
 20
691.9609246149
 30
0.0
 11
419.9342113733
 21
691.9609246149
 31
0.0
  0
LINE
  5
153
330
1F
100
AcDbEntity
  8
0
  6
Continuous
 62
     8
370
    15
100
AcDbLine
 10
420.9000003338
 20
669.3197761967
 30
0.0
 11
356.5999996662
 21
669.3197761967
 31
0.0
  0
LINE
  5
154
330
1F
100
AcDbEntity
  8
0
  6
Continuous
 62
     8
370
    15
100
AcDbLine
 10
358.0666669458
 20
670.8194067075
 30
0.0
 11
419.4333330542
 21
670.8194067075
 31
0.0
  0
LINE
  5
155
330
1F
100
AcDbEntity
  8
0
  6
Continuous
 62
     8
370
    15
100
AcDbLine
 10
416.5000003576
 20
687.5889574483
 30
0.0
 11
360.9999996424
 21
687.5889574483
 31
0.0
  0
LINE
  5
156
330
1F
100
AcDbEntity
  8
0
  6
Continuous
 62
     8
370
    15
100
AcDbLine
 10
360.9999996424
 20
673.8186640039
 30
0.0
 11
416.5000003576
 21
673.8186640039
 31
0.0
  0
ARC
  5
157
330
1F
100
AcDbEntity
  8
0
  6
Continuous
 62
     7
370
    15
100
AcDbCircle
 10
1314.0138888889
 20
884.5934466019
 30
0.0
 40
4.500000000000078
100
AcDbArc
 50
0.0
 51
83.6206297916
  0
SPLINE
  5
158
330
1F
100
AcDbEntity
  8
0
  6
Continuous
 62
     7
370
    15
100
AcDbSpline
210
0.0
220
0.0
230
1.0
 70
     8
 71
     3
 72
    17
 73
    13
 74
     0
 42
0.000000001
 43
0.00000001
 40
0.0
 40
0.0
 40
0.0
 40
0.0
 40
0.033527357291455
 40
0.1355841604103511
 40
0.2372808713026745
 40
0.3424082522384327
 40
0.4572775501809541
 40
0.5796116297942788
 40
0.7031853683981378
 40
0.8069982139927726
 40
0.9041732121977085
 40
0.9999999999999999
 40
0.9999999999999999
 40
0.9999999999999999
 40
0.9999999999999999
 10
1188.671771221689
 20
823.3577472462788
 30
0.0
 10
1188.673181937005
 20
823.3549841779549
 30
0.0
 10
1188.678886849863
 20
823.3438103685909
 30
0.0
 10
1188.670099740423
 20
823.392610468803
 30
0.0
 10
1188.692791967604
 20
823.4923678319907
 30
0.0
 10
1188.750862760603
 20
823.6318398079497
 30
0.0
 10
1188.851171429146
 20
823.7867990918334
 30
0.0
 10
1188.987564001108
 20
823.9360543414899
 30
0.0
 10
1189.133473488181
 20
824.0467310637731
 30
0.0
 10
1189.255159948317
 20
824.1075967670344
 30
0.0
 10
1189.33826921527
 20
824.1266286565851
 30
0.0
 10
1189.345329700623
 20
824.1254809989493
 30
0.0
 10
1189.348835282854
 20
824.1249111786022
 30
0.0
  0
SPLINE
  5
159
330
1F
100
AcDbEntity
  8
0
  6
Continuous
 62
     7
370
    15
100
AcDbSpline
210
0.0
220
0.0
230
1.0
 70
     8
 71
     3
 72
    17
 73
    13
 74
     0
 42
0.000000001
 43
0.00000001
 40
0.0
 40
0.0
 40
0.0
 40
0.0
 40
0.0335278353921717
 40
0.1355846193071868
 40
0.2372813110633873
 40
0.3424056970076457
 40
0.4572797127978951
 40
0.5796076644513397
 40
0.7031914465525377
 40
0.8069982503096395
 40
0.9041732302292966
 40
0.9999999999999999
 40
0.9999999999999999
 40
0.9999999999999999
 40
0.9999999999999999
 10
1184.924680524401
 20
814.8772728934422
 30
0.0
 10
1184.926091263376
 20
814.8745069763438
 30
0.0
 10
1184.931796209866
 20
814.86332176822
 30
0.0
 10
1184.9230075497
 20
814.9121317181056
 30
0.0
 10
1184.94570660097
 20
815.0118822773062
 30
0.0
 10
1185.003749355548
 20
815.1513659546996
 30
0.0
 10
1185.104085899631
 20
815.3063062080254
 30
0.0
 10
1185.240459766689
 20
815.4555859261147
 30
0.0
 10
1185.386375519116
 20
815.5662402079212
 30
0.0
 10
1185.508072855094
 20
815.6271176150286
 30
0.0
 10
1185.591178059346
 20
815.6461463114368
 30
0.0
 10
1185.598238851169
 20
815.6449990157981
 30
0.0
 10
1185.601744585566
 20
815.644429375185
 30
0.0
  0
LINE
  5
15A
330
1F
100
AcDbEntity
  8
0
  6
Continuous
 62
     7
370
    15
100
AcDbLine
 10
1203.0407225423
 20
810.7011256113
 30
0.0
 11
1208.6613660389
 21
823.4218520417
 31
0.0
  0
LINE
  5
15B
330
1F
100
AcDbEntity
  8
0
  6
Continuous
 62
     7
370
    15
100
AcDbLine
 10
1207.8007196718
 20
824.6231240525
 30
0.0
 11
1207.2635775142
 21
823.40745752
 31
0.0
  0
SPLINE
  5
15C
330
1F
100
AcDbEntity
  8
0
  6
Continuous
 62
     7
370
    15
100
AcDbSpline
210
0.0
220
0.0
230
1.0
 70
     8
 71
     3
 72
    17
 73
    13
 74
     0
 42
0.000000001
 43
0.00000001
 40
0.0
 40
0.0
 40
0.0
 40
0.0
 40
0.0335242076291648
 40
0.1355861573038079
 40
0.2372812655303478
 40
0.3424065154618954
 40
0.4572767358673857
 40
0.5796117978899382
 40
0.7031865288581612
 40
0.8070017422840045
 40
0.9041769247624362
 40
0.9999999999999999
 40
0.9999999999999999
 40
0.9999999999999999
 40
0.9999999999999999
 10
1215.261433058314
 20
823.6037654175892
 30
0.0
 10
1215.262849778576
 20
823.6009997088431
 30
0.0
 10
1215.268579598011
 20
823.5898140061045
 30
0.0
 10
1215.259742978202
 20
823.6386209871011
 30
0.0
 10
1215.282482375248
 20
823.7383774072208
 30
0.0
 10
1215.340517313176
 20
823.8778533576359
 30
0.0
 10
1215.440835747395
 20
824.032809110104
 30
0.0
 10
1215.577224939625
 20
824.1820663042851
 30
0.0
 10
1215.723136884807
 20
824.2927382979359
 30
0.0
 10
1215.844820348849
 20
824.3536196764572
 30
0.0
 10
1215.927930170459
 20
824.3726362314602
 30
0.0
 10
1215.934991292743
 20
824.3714906681788
 30
0.0
 10
1215.938497119478
 20
824.3709218993321
 30
0.0
  0
SPLINE
  5
15D
330
1F
100
AcDbEntity
  8
0
  6
Continuous
 62
     7
370
    15
100
AcDbSpline
210
0.0
220
0.0
230
1.0
 70
     8
 71
     3
 72
    17
 73
    13
 74
     0
 42
0.000000001
 43
0.00000001
 40
0.0
 40
0.0
 40
0.0
 40
0.0
 40
0.0335233628603938
 40
0.1355858138589289
 40
0.2372825627661846
 40
0.3424035596380446
 40
0.4572776399846834
 40
0.5796058759094712
 40
0.7031888647451717
 40
0.8069987379374268
 40
0.904173176376994
 40
0.9999999999999999
 40
0.9999999999999999
 40
0.9999999999999999
 40
0.9999999999999999
 10
1211.514342361025
 20
815.123283614172
 30
0.0
 10
1211.515753062519
 20
815.1205177896533
 30
0.0
 10
1211.521458668815
 20
815.109331365131
 30
0.0
 10
1211.512669073052
 20
815.1581505163315
 30
0.0
 10
1211.535367462702
 20
815.2578996246735
 30
0.0
 10
1211.59341274994
 20
815.3973769591314
 30
0.0
 10
1211.693747905006
 20
815.552318169643
 30
0.0
 10
1211.830120342862
 20
815.7015930850494
 30
0.0
 10
1211.976040726789
 20
815.8122617438444
 30
0.0
 10
1212.09773223092
 20
815.8731370520733
 30
0.0
 10
1212.180840403135
 20
815.8921549216386
 30
0.0
 10
1212.187900848824
 20
815.8910090374767
 30
0.0
 10
1212.19140642219
 20
815.8904400959149
 30
0.0
  0
ARC
  5
15E
330
1F
100
AcDbEntity
  8
0
  6
Continuous
 62
     7
370
    15
100
AcDbCircle
 10
843.0138888889
 20
890.5934466019
 30
0.0
 40
3.5
100
AcDbArc
 50
90.0
 51
180.0
  0
ARC
  5
15F
330
1F
100
AcDbEntity
  8
0
  6
Continuous
 62
     7
370
    15
100
AcDbCircle
 10
1311.0138888889
 20
890.5934466019
 30
0.0
 40
3.5
100
AcDbArc
 50
0.0
 51
90.0
  0
LINE
  5
160
330
1F
100
AcDbEntity
  8
0
  6
Continuous
 62
     7
370
    15
100
AcDbLine
 10
839.5138865047
 20
890.5934480324
 30
0.0
 11
839.5138865047
 21
889.0655872717
 31
0.0
  0
LINE
  5
161
330
1F
100
AcDbEntity
  8
0
  6
Continuous
 62
     7
370
    15
100
AcDbLine
 10
1314.5138805442
 20
889.0655872717
 30
0.0
 11
1314.5138805442
 21
890.5934480324
 31
0.0
  0
SPLINE
  5
162
330
1F
100
AcDbEntity
  8
0
  6
Continuous
 62
     7
370
    15
100
AcDbSpline
210
0.0
220
0.0
230
1.0
 70
     8
 71
     3
 72
    10
 73
     6
 74
     0
 42
0.000000001
 43
0.00000001
 40
0.0
 40
0.0
 40
0.0
 40
0.0
 40
0.1031005434653485
 40
0.5180199094504943
 40
1.0
 40
1.0
 40
1.0
 40
1.0
 10
970.725957088999
 20
721.9997847757771
 30
0.0
 10
971.1958739327973
 20
721.8068752121612
 30
0.0
 10
973.556931136686
 20
720.8376175213909
 30
0.0
 10
978.1881208327884
 20
719.1481352176226
 30
0.0
 10
982.4003180479049
 20
717.8116521965323
 30
0.0
 10
984.6638885968249
 20
717.093446601881
 30
0.0
  0
SPLINE
  5
163
330
1F
100
AcDbEntity
  8
0
  6
Continuous
 62
     7
370
    15
100
AcDbSpline
210
0.0
220
0.0
230
1.0
 70
     8
 71
     3
 72
    34
 73
    30
 74
     0
 42
0.000000001
 43
0.00000001
 40
0.0
 40
0.0
 40
0.0
 40
0.0
 40
0.0315210339762715
 40
0.0600146892509651
 40
0.0862417345767514
 40
0.1103457707560809
 40
0.1345486260398421
 40
0.1595997197679735
 40
0.1855031900015472
 40
0.2325907824140069
 40
0.2799140002158487
 40
0.3269886157024115
 40
0.373719123946358
 40
0.3969288738587115
 40
0.4201759890935858
 40
0.4456622235597785
 40
0.4740990805270844
 40
0.5054790885803504
 40
0.5397828390230325
 40
0.57697604644962
 40
0.6170060052199676
 40
0.6597986438134023
 40
0.7052550699753056
 40
0.7532492242628525
 40
0.8036262465399421
 40
0.8562007575713345
 40
0.9107572696217026
 40
0.9670516904725481
 40
1.0
 40
1.0
 40
1.0
 40
1.0
 10
1064.36388918095
 20
717.093446601881
 30
0.0
 10
1067.491909386822
 20
717.1636192696362
 30
0.0
 10
1073.447524953478
 20
717.2972250026338
 30
0.0
 10
1081.998032819036
 20
717.906516159784
 30
0.0
 10
1089.787674567981
 20
718.7130686781553
 30
0.0
 10
1097.125326684227
 20
719.7153414110281
 30
0.0
 10
1104.313514829225
 20
720.9212961030972
 30
0.0
 10
1111.63599352612
 20
722.3867011765475
 30
0.0
 10
1121.121213093959
 20
724.6054465034067
 30
0.0
 10
1132.628252102576
 20
727.8658419989683
 30
0.0
 10
1145.905784014944
 20
732.5025465568701
 30
0.0
 10
1158.849319944286
 20
737.9114473957876
 30
0.0
 10
1169.296162444483
 20
743.0267440601624
 30
0.0
 10
1177.422731621547
 20
747.4629721766453
 30
0.0
 10
1183.593196980107
 20
751.07137586594
 30
0.0
 10
1190.089557822534
 20
755.1444165323445
 30
0.0
 10
1197.112502906528
 20
759.89017947711
 30
0.0
 10
1204.657848657156
 20
765.4164895600245
 30
0.0
 10
1212.646653424759
 20
771.7957499201686
 30
0.0
 10
1220.985525685748
 20
779.0969259248624
 30
0.0
 10
1229.563939766079
 20
787.3844863850105
 30
0.0
 10
1238.256175998414
 20
796.7120786702402
 30
0.0
 10
1246.919633586454
 20
807.120540668669
 30
0.0
 10
1255.399800389425
 20
818.6313592021736
 30
0.0
 10
1263.526510192008
 20
831.24488466167
 30
0.0
 10
1271.143256365895
 20
844.929098722172
 30
0.0
 10
1278.012483192891
 20
859.6469507283474
 30
0.0
 10
1283.305299289679
 20
872.9409883741953
 30
0.0
 10
1285.799433218499
 20
881.4514123873597
 30
0.0
 10
1286.720264487795
 20
884.5934507742062
 30
0.0
  0
SPLINE
  5
164
330
1F
100
AcDbEntity
  8
0
  6
Continuous
 62
     7
370
    15
100
AcDbSpline
210
0.0
220
0.0
230
1.0
 70
     8
 71
     3
 72
    23
 73
    19
 74
     0
 42
0.000000001
 43
0.00000001
 40
0.0
 40
0.0
 40
0.0
 40
0.0
 40
0.0607794105687956
 40
0.11009012695738
 40
0.1480938191777485
 40
0.1847820601694831
 40
0.2233381304304954
 40
0.2917355706534396
 40
0.3632096453573285
 40
0.4333771226110582
 40
0.4849078136834736
 40
0.5353804916422982
 40
0.5871648683428135
 40
0.6493665075947543
 40
0.7225180239147361
 40
0.8060125773787049
 40
0.8989306014826302
 40
1.0
 40
1.0
 40
1.0
 40
1.0
 10
933.0138897233527
 20
777.6898307099476
 30
0.0
 10
933.0435316544113
 20
776.2450321615019
 30
0.0
 10
933.097222269752
 20
773.6280595035294
 30
0.0
 10
933.4676103064469
 20
770.1228277073461
 30
0.0
 10
933.9162909794807
 20
767.2061755927664
 30
0.0
 10
934.4468381050824
 20
764.5634992348827
 30
0.0
 10
935.2681068660562
 20
761.2450378441339
 30
0.0
 10
936.5497539584495
 20
757.192598029809
 30
0.0
 10
938.4496876535038
 20
752.5641273248846
 30
0.0
 10
940.5493027656363
 20
748.4694025083634
 30
0.0
 10
942.6784033476614
 20
744.966983005252
 30
0.0
 10
944.7664384730911
 20
741.959554715294
 30
0.0
 10
947.1907312932508
 20
738.8850316914862
 30
0.0
 10
950.181133947637
 20
735.5810124479542
 30
0.0
 10
953.9780894848489
 20
732.0071835103151
 30
0.0
 10
958.674722322834
 20
728.3627103906605
 30
0.0
 10
964.2755223079733
 20
724.8274349616194
 30
0.0
 10
968.5034573451678
 20
722.9622544702673
 30
0.0
 10
970.7062540286105
 20
721.9904766723051
 30
0.0
  0
ARC
  5
165
330
1F
100
AcDbEntity
  8
0
  6
Continuous
 62
     7
370
    15
100
AcDbCircle
 10
1068.1320248766
 20
702.5744538277
 30
0.0
 40
15.00000000000003
100
AcDbArc
 50
104.5522805452
 51
124.8992284024
  0
ARC
  5
166
330
1F
100
AcDbEntity
  8
0
  6
Continuous
 62
     7
370
    15
100
AcDbCircle
 10
980.8957529012
 20
702.5744538277
 30
0.0
 40
15.00000000000003
100
AcDbArc
 50
55.1007715976
 51
75.4381939168
  0
LINE
  5
167
330
1F
100
AcDbEntity
  8
0
  6
Continuous
 62
     7
370
    15
100
AcDbLine
 10
989.4777757757
 20
714.8768476516
 30
0.0
 11
990.8668359452
 21
713.8186656709
 31
0.0
  0
LINE
  5
168
330
1F
100
AcDbEntity
  8
0
  6
Continuous
 62
     7
370
    15
100
AcDbLine
 10
1058.1609418326
 20
713.8186656709
 30
0.0
 11
1059.5500020021
 21
714.8768476516
 31
0.0
  0
ARC
  5
169
330
1F
100
AcDbEntity
  8
0
  6
Continuous
 62
     7
370
    15
100
AcDbCircle
 10
931.4417524886
 20
865.0506762529
 30
0.0
 40
1.579979121421293
100
AcDbArc
 50
306.0991273053
 51
354.2888291274
  0
ARC
  5
16A
330
1F
100
AcDbEntity
  8
0
  6
Continuous
 62
     7
370
    15
100
AcDbCircle
 10
931.4417524886
 20
823.1362169509
 30
0.0
 40
1.579979121421293
100
AcDbArc
 50
5.7111708726
 51
53.9008726947
  0
LINE
  5
16B
330
1F
100
AcDbEntity
  8
0
  6
Continuous
 62
     7
370
    15
100
AcDbLine
 10
932.3726480537
 20
863.7740549936
 30
0.0
 11
932.0802872711
 21
863.5795203343
 31
0.0
  0
ARC
  5
16C
330
1F
100
AcDbEntity
  8
0
  6
Continuous
 62
     7
370
    15
100
AcDbCircle
 10
934.9835260471
 20
828.65356126
 30
0.0
 40
4.979999999999963
100
AcDbArc
 50
180.6916465566
 51
238.3807456723
  0
ARC
  5
16D
330
1F
100
AcDbEntity
  8
0
  6
Continuous
 62
     7
370
    15
100
AcDbCircle
 10
918.1110739646
 20
710.369945278
 30
0.0
 40
18.75000000000001
100
AcDbArc
 50
328.8103148958
 51
0.0
  0
ARC
  5
16E
330
1F
100
AcDbEntity
  8
0
  6
Continuous
 62
     7
370
    15
100
AcDbCircle
 10
918.1110739646
 20
710.369945278
 30
0.0
 40
18.74999999999995
100
AcDbArc
 50
184.6053571478
 51
245.1896851042
  0
ARC
  5
16F
330
1F
100
AcDbEntity
  8
0
  6
Continuous
 62
     7
370
    15
100
AcDbCircle
 10
918.1110739646
 20
710.369945278
 30
0.0
 40
18.75
100
AcDbArc
 50
0.0
 51
29.3946428522
  0
LINE
  5
170
330
1F
100
AcDbEntity
  8
0
  6
Continuous
 62
     7
370
    15
100
AcDbLine
 10
910.243283742
 20
693.3505342647
 30
0.0
 11
911.4482139879
 21
689.4093727067
 31
0.0
  0
LINE
  5
171
330
1F
100
AcDbEntity
  8
0
  6
Continuous
 62
     7
370
    15
100
AcDbLine
 10
935.355838173
 20
696.7186660811
 30
0.0
 11
934.1509004765
 21
700.6598257765
 31
0.0
  0
ARC
  5
172
330
1F
100
AcDbEntity
  8
0
  6
Continuous
 62
     7
370
    15
100
AcDbCircle
 10
935.3558359516
 20
696.7186656257
 30
0.0
 40
25.00000000000005
100
AcDbArc
 50
197.0
 51
270.0
  0
LINE
  5
173
330
1F
100
AcDbEntity
  8
0
  6
Continuous
 62
     7
370
    15
100
AcDbLine
 10
972.1691494518
 20
696.7186660811
 30
0.0
 11
935.355838173
 21
696.7186660811
 31
0.0
  0
LINE
  5
174
330
1F
100
AcDbEntity
  8
0
  6
Continuous
 62
     7
370
    15
100
AcDbLine
 10
935.355838173
 20
671.7186657086
 30
0.0
 11
972.1691494518
 21
671.7186657086
 31
0.0
  0
LINE
  5
175
330
1F
100
AcDbEntity
  8
0
  6
Continuous
 62
     7
370
    15
100
AcDbLine
 10
861.8207161956
 20
884.5934507742
 30
0.0
 11
868.0716043048
 21
881.5063772097
 31
0.0
  0
LINE
  5
176
330
1F
100
AcDbEntity
  8
0
  6
Continuous
 62
     7
370
    15
100
AcDbLine
 10
857.7638899618
 20
884.5934507742
 30
0.0
 11
857.7638899618
 21
874.5934454098
 31
0.0
  0
LINE
  5
177
330
1F
100
AcDbEntity
  8
0
  6
Continuous
 62
     7
370
    15
100
AcDbLine
 10
984.5691507392
 20
664.2186654105
 30
0.0
 11
986.5691510671
 21
664.2186654105
 31
0.0
  0
LINE
  5
178
330
1F
100
AcDbEntity
  8
0
  6
Continuous
 62
     7
370
    15
100
AcDbLine
 10
986.5691510671
 20
704.2186654478
 30
0.0
 11
984.5691507392
 21
704.2186654478
 31
0.0
  0
ARC
  5
179
330
1F
100
AcDbEntity
  8
0
  6
Continuous
 62
     7
370
    15
100
AcDbCircle
 10
972.9691492481
 20
666.1686656257
 30
0.0
 40
0.7999999999999545
100
AcDbArc
 50
180.0
 51
270.0
  0
ARC
  5
17A
330
1F
100
AcDbEntity
  8
0
  6
Continuous
 62
     7
370
    15
100
AcDbCircle
 10
972.9691492481
 20
702.2686656257
 30
0.0
 40
0.8000000000000682
100
AcDbArc
 50
90.0
 51
180.0
  0
LINE
  5
17B
330
1F
100
AcDbEntity
  8
0
  6
Continuous
 62
     7
370
    15
100
AcDbLine
 10
1059.4205518895
 20
696.8186659112
 30
0.0
 11
1059.4205518895
 21
700.8186647042
 31
0.0
  0
LINE
  5
17C
330
1F
100
AcDbEntity
  8
0
  6
Continuous
 62
     7
370
    15
100
AcDbLine
 10
989.4205515914
 20
700.8186647042
 30
0.0
 11
989.4205515914
 21
698.8869340464
 31
0.0
  0
ARC
  5
17D
330
1F
100
AcDbEntity
  8
0
  6
Continuous
 62
     7
370
    15
100
AcDbCircle
 10
1054.4205511172
 20
696.8186656257
 30
0.0
 40
5.000000000000227
100
AcDbArc
 50
283.7002334884
 51
0.0
  0
ARC
  5
17E
330
1F
100
AcDbEntity
  8
0
  6
Continuous
 62
     7
370
    15
100
AcDbCircle
 10
993.7705511172
 20
669.3197768741
 30
0.0
 40
1.5
100
AcDbArc
 50
171.0522675431
 51
180.0
  0
ARC
  5
17F
330
1F
100
AcDbEntity
  8
0
  6
Continuous
 62
     7
370
    15
100
AcDbCircle
 10
1055.0705511172
 20
669.3197768741
 30
0.0
 40
1.500000000077458
100
AcDbArc
 50
0.0
 51
88.7266557718
  0
LINE
  5
180
330
1F
100
AcDbEntity
  8
0
  6
Continuous
 62
     7
370
    15
100
AcDbLine
 10
992.2705514067
 20
669.3197761967
 30
0.0
 11
992.2705514067
 21
667.8186667457
 31
0.0
  0
LINE
  5
181
330
1F
100
AcDbEntity
  8
0
  6
Continuous
 62
     7
370
    15
100
AcDbLine
 10
1056.5705520742
 20
667.8186667457
 30
0.0
 11
1056.5705520742
 21
669.3197761967
 31
0.0
  0
ARC
  5
182
330
1F
100
AcDbEntity
  8
0
  6
Continuous
 62
     7
370
    15
100
AcDbCircle
 10
1056.6705511172
 20
687.5889581547
 30
0.0
 40
4.500000000000266
100
AcDbArc
 50
103.7002334884
 51
180.0
  0
ARC
  5
183
330
1F
100
AcDbEntity
  8
0
  6
Continuous
 62
     7
370
    15
100
AcDbCircle
 10
1055.1705511172
 20
673.8186656257
 30
0.0
 40
2.999999999999773
100
AcDbArc
 50
180.0
 51
268.726655572
  0
LINE
  5
184
330
1F
100
AcDbEntity
  8
0
  6
Continuous
 62
     7
370
    15
100
AcDbLine
 10
1052.1705502354
 20
673.8186640039
 30
0.0
 11
1052.1705502354
 21
687.5889574483
 31
0.0
  0
LINE
  5
185
330
1F
100
AcDbEntity
  8
0
  6
Continuous
 62
     7
370
    15
100
AcDbLine
 10
984.5691507392
 20
699.8480570808
 30
0.0
 11
984.3162221544
 21
700.4680310681
 31
0.0
  0
LINE
  5
186
330
1F
100
AcDbEntity
  8
0
  6
Continuous
 62
     7
370
    15
100
AcDbLine
 10
984.4041762584
 20
669.5391287401
 30
0.0
 11
984.5691507392
 21
669.1272457435
 31
0.0
  0
LINE
  5
187
330
1F
100
AcDbEntity
  8
0
  6
Continuous
 62
     7
370
    15
100
AcDbLine
 10
989.4338210755
 20
698.9186660692
 30
0.0
 11
987.0205519431
 21
698.9186660692
 31
0.0
  0
LINE
  5
188
330
1F
100
AcDbEntity
  8
0
  6
Continuous
 62
     7
370
    15
100
AcDbLine
 10
986.5691510671
 20
669.5186657205
 30
0.0
 11
992.3032482796
 21
669.5186657205
 31
0.0
  0
ARC
  5
189
330
1F
100
AcDbEntity
  8
0
  6
Continuous
 62
     7
370
    15
100
AcDbCircle
 10
989.5323545161
 20
709.0186656257
 30
0.0
 40
0.1500000000000632
100
AcDbArc
 50
138.1896851042
 51
221.8103148957
  0
ARC
  5
18A
330
1F
100
AcDbEntity
  8
0
  6
Continuous
 62
     7
370
    15
100
AcDbCircle
 10
1059.3087477183
 20
709.0186656257
 30
0.0
 40
0.1500000000000632
100
AcDbArc
 50
318.1896851043
 51
41.8103148958
  0
ARC
  5
18B
330
1F
100
AcDbEntity
  8
0
  6
Continuous
 62
     7
370
    15
100
AcDbCircle
 10
989.5323545161
 20
705.4186656257
 30
0.0
 40
0.1500000000000543
100
AcDbArc
 50
138.1896851042
 51
221.8103148958
  0
ARC
  5
18C
330
1F
100
AcDbEntity
  8
0
  6
Continuous
 62
     7
370
    15
100
AcDbCircle
 10
1059.3087477183
 20
705.4186656257
 30
0.0
 40
0.1500000000002327
100
AcDbArc
 50
318.1896851043
 51
41.8103148957
  0
ARC
  5
18D
330
1F
100
AcDbEntity
  8
0
  6
Continuous
 62
     7
370
    15
100
AcDbCircle
 10
989.5323545161
 20
707.2186656257
 30
0.0
 40
0.1500000000000632
100
AcDbArc
 50
138.1896851043
 51
221.8103148958
  0
ARC
  5
18E
330
1F
100
AcDbEntity
  8
0
  6
Continuous
 62
     7
370
    15
100
AcDbCircle
 10
1059.3087477183
 20
707.2186656257
 30
0.0
 40
0.150000000000139
100
AcDbArc
 50
318.1896851042
 51
41.8103148957
  0
ARC
  5
18F
330
1F
100
AcDbEntity
  8
0
  6
Continuous
 62
     7
370
    15
100
AcDbCircle
 10
989.5323545161
 20
703.6186656257
 30
0.0
 40
0.1499999999999785
100
AcDbArc
 50
138.1896851042
 51
221.8103148958
  0
ARC
  5
190
330
1F
100
AcDbEntity
  8
0
  6
Continuous
 62
     7
370
    15
100
AcDbCircle
 10
1059.3087477183
 20
703.6186656257
 30
0.0
 40
0.1500000000002327
100
AcDbArc
 50
318.1896851043
 51
41.8103148957
  0
LINE
  5
191
330
1F
100
AcDbEntity
  8
0
  6
Continuous
 62
     7
370
    15
100
AcDbLine
 10
989.4205515914
 20
708.9186658456
 30
0.0
 11
989.4205515914
 21
707.3186657697
 31
0.0
  0
LINE
  5
192
330
1F
100
AcDbEntity
  8
0
  6
Continuous
 62
     7
370
    15
100
AcDbLine
 10
1059.4205518895
 20
707.3186657697
 30
0.0
 11
1059.4205518895
 21
708.9186658456
 31
0.0
  0
LINE
  5
193
330
1F
100
AcDbEntity
  8
0
  6
Continuous
 62
     7
370
    15
100
AcDbLine
 10
989.4205515914
 20
707.1186651781
 30
0.0
 11
989.4205515914
 21
705.5186660334
 31
0.0
  0
LINE
  5
194
330
1F
100
AcDbEntity
  8
0
  6
Continuous
 62
     7
370
    15
100
AcDbLine
 10
1059.4205518895
 20
705.5186660334
 30
0.0
 11
1059.4205518895
 21
707.1186651781
 31
0.0
  0
LINE
  5
195
330
1F
100
AcDbEntity
  8
0
  6
Continuous
 62
     7
370
    15
100
AcDbLine
 10
989.4205515914
 20
713.8186656709
 30
0.0
 11
989.4205515914
 21
709.1186655059
 31
0.0
  0
LINE
  5
196
330
1F
100
AcDbEntity
  8
0
  6
Continuous
 62
     7
370
    15
100
AcDbLine
 10
1059.4205518895
 20
709.1186655059
 30
0.0
 11
1059.4205518895
 21
713.8186656709
 31
0.0
  0
LINE
  5
197
330
1F
100
AcDbEntity
  8
0
  6
Continuous
 62
     7
370
    15
100
AcDbLine
 10
989.4205515914
 20
705.3186654418
 30
0.0
 11
989.4205515914
 21
703.7186653658
 31
0.0
  0
LINE
  5
198
330
1F
100
AcDbEntity
  8
0
  6
Continuous
 62
     7
370
    15
100
AcDbLine
 10
1059.4205518895
 20
703.7186653658
 30
0.0
 11
1059.4205518895
 21
705.3186654418
 31
0.0
  0
LINE
  5
199
330
1F
100
AcDbEntity
  8
0
  6
Continuous
 62
     7
370
    15
100
AcDbLine
 10
989.4205515914
 20
703.5186657056
 30
0.0
 11
989.4205515914
 21
700.8186647042
 31
0.0
  0
LINE
  5
19A
330
1F
100
AcDbEntity
  8
0
  6
Continuous
 62
     7
370
    15
100
AcDbLine
 10
1059.4205518895
 20
700.8186647042
 30
0.0
 11
1059.4205518895
 21
703.5186657056
 31
0.0
  0
LINE
  5
19B
330
1F
100
AcDbEntity
  8
0
  6
Continuous
 62
     7
370
    15
100
AcDbLine
 10
929.403889709
 20
824.59344839
 30
0.0
 11
930.0038924151
 21
824.59344839
 31
0.0
  0
ARC
  5
19C
330
1F
100
AcDbEntity
  8
0
  6
Continuous
 62
     7
370
    15
100
AcDbCircle
 10
926.7038888889
 20
823.5934466019
 30
0.0
 40
0.4999999999998863
100
AcDbArc
 50
180.0
 51
270.0
  0
LINE
  5
19D
330
1F
100
AcDbEntity
  8
0
  6
Continuous
 62
     7
370
    15
100
AcDbLine
 10
926.7038887077
 20
823.0934453502
 30
0.0
 11
929.403889709
 21
823.0934453502
 31
0.0
  0
ARC
  5
19E
330
1F
100
AcDbEntity
  8
0
  6
Continuous
 62
     7
370
    15
100
AcDbCircle
 10
925.7038888889
 20
825.8934466019
 30
0.0
 40
0.5000000000001137
100
AcDbArc
 50
0.0
 51
90.0
  0
LINE
  5
19F
330
1F
100
AcDbEntity
  8
0
  6
Continuous
 62
     7
370
    15
100
AcDbLine
 10
923.1038873725
 20
826.3934490576
 30
0.0
 11
925.7038866811
 21
826.3934490576
 31
0.0
  0
LINE
  5
1A0
330
1F
100
AcDbEntity
  8
0
  6
Continuous
 62
     7
370
    15
100
AcDbLine
 10
924.6466939979
 20
861.7934522524
 30
0.0
 11
920.6179937058
 21
861.7934522524
 31
0.0
  0
LINE
  5
1A1
330
1F
100
AcDbEntity
  8
0
  6
Continuous
 62
     7
370
    15
100
AcDbLine
 10
905.2124803596
 20
823.793449749
 30
0.0
 11
905.2124803596
 21
805.2934495106
 31
0.0
  0
LINE
  5
1A2
330
1F
100
AcDbEntity
  8
0
  6
Continuous
 62
     7
370
    15
100
AcDbLine
 10
922.9952951603
 20
805.2934495106
 30
0.0
 11
922.9952951603
 21
823.793449749
 31
0.0
  0
ARC
  5
1A3
330
1F
100
AcDbEntity
  8
0
  6
Continuous
 62
     7
370
    15
100
AcDbCircle
 10
923.1038888889
 20
825.8934466019
 30
0.0
 40
0.5000000000001137
100
AcDbArc
 50
90.0
 51
180.0
  0
ARC
  5
1A4
330
1F
100
AcDbEntity
  8
0
  6
Continuous
 62
     7
370
    15
100
AcDbCircle
 10
918.7538888889
 20
710.3947622775
 30
0.0
 40
16.95000000000005
100
AcDbArc
 50
153.5140475604
 51
182.6924993442
  0
ARC
  5
1A5
330
1F
100
AcDbEntity
  8
0
  6
Continuous
 62
     7
370
    15
100
AcDbCircle
 10
903.4038888889
 20
718.0432915479
 30
0.0
 40
0.2000000000000922
100
AcDbArc
 50
333.5140475603
 51
0.0
  0
LINE
  5
1A6
330
1F
100
AcDbEntity
  8
0
  6
Continuous
 62
     7
370
    15
100
AcDbLine
 10
932.6038917237
 20
719.0093084543
 30
0.0
 11
932.6038917237
 21
723.3093411967
 31
0.0
  0
LINE
  5
1A7
330
1F
100
AcDbEntity
  8
0
  6
Continuous
 62
     7
370
    15
100
AcDbLine
 10
903.6038925581
 20
723.7934463962
 30
0.0
 11
903.6038925581
 21
718.0432915527
 31
0.0
  0
LINE
  5
1A8
330
1F
100
AcDbEntity
  8
0
  6
Continuous
 62
     7
370
    15
100
AcDbLine
 10
903.4038891726
 20
795.2934441462
 30
0.0
 11
903.4038891726
 21
792.7934465304
 31
0.0
  0
LINE
  5
1A9
330
1F
100
AcDbEntity
  8
0
  6
Continuous
 62
     7
370
    15
100
AcDbLine
 10
903.4038891726
 20
762.1934463575
 30
0.0
 11
903.4038891726
 21
759.6934450164
 31
0.0
  0
LINE
  5
1AA
330
1F
100
AcDbEntity
  8
0
  6
Continuous
 62
     7
370
    15
100
AcDbLine
 10
903.4038891726
 20
792.7934465304
 30
0.0
 11
903.4038891726
 21
762.1934463575
 31
0.0
  0
ARC
  5
1AB
330
1F
100
AcDbEntity
  8
0
  6
Continuous
 62
     7
370
    15
100
AcDbCircle
 10
840.0138888889
 20
884.5934466019
 30
0.0
 40
4.500000000000114
100
AcDbArc
 50
96.3793702084
 51
180.0
  0
LINE
  5
1AC
330
1F
100
AcDbEntity
  8
0
  6
Continuous
 62
     7
370
    15
100
AcDbLine
 10
1314.5138805442
 20
889.0655872717
 30
0.0
 11
839.5138865047
 21
889.0655872717
 31
0.0
  0
LINE
  5
1AD
330
1F
100
AcDbEntity
  8
0
  6
Continuous
 62
     7
370
    15
100
AcDbLine
 10
1318.5138886505
 20
884.5934507742
 30
0.0
 11
835.5138932996
 21
884.5934507742
 31
0.0
  0
LINE
  5
1AE
330
1F
100
AcDbEntity
  8
0
  6
Continuous
 62
     7
370
    15
100
AcDbLine
 10
932.0802872711
 20
884.5934507742
 30
0.0
 11
932.0802872711
 21
861.093440403
 31
0.0
  0
LINE
  5
1AF
330
1F
100
AcDbEntity
  8
0
  6
Continuous
 62
     7
370
    15
100
AcDbLine
 10
931.2827547722
 20
861.093440403
 30
0.0
 11
932.0802872711
 21
861.093440403
 31
0.0
  0
LINE
  5
1B0
330
1F
100
AcDbEntity
  8
0
  6
Continuous
 62
     7
370
    15
100
AcDbLine
 10
931.2827547722
 20
884.5934507742
 30
0.0
 11
931.2827547722
 21
861.093440403
 31
0.0
  0
LWPOLYLINE
  5
1B1
330
1F
100
AcDbEntity
  8
0
  6
Continuous
 62
     7
370
    15
100
AcDbPolyline
 90
        9
 70
   128
 43
0.0
 10
932.0802872711
 20
861.093440403
 10
932.0339148574
 20
860.3130814924
 10
931.896600657
 20
859.5627186194
 10
931.6736047798
 20
858.8711706295
 10
931.3735028439
 20
858.2650211945
 10
931.0078283482
 20
857.7675608292
 10
930.5906330877
 20
857.3979226246
 10
930.1379432612
 20
857.1703073874
 10
929.6671708756
 20
857.0934471979
  0
LINE
  5
1B2
330
1F
100
AcDbEntity
  8
0
  6
Continuous
 62
     7
370
    15
100
AcDbLine
 10
929.6671708756
 20
857.0934471979
 30
0.0
 11
928.8696383768
 21
857.0934471979
 31
0.0
  0
LWPOLYLINE
  5
1B3
330
1F
100
AcDbEntity
  8
0
  6
Continuous
 62
     7
370
    15
100
AcDbPolyline
 90
        9
 70
   128
 43
0.0
 10
928.8696383768
 20
857.0934471979
 10
929.3404182129
 20
857.1703073874
 10
929.7931005889
 20
857.3979226246
 10
930.2102958494
 20
857.7675608292
 10
930.5759703451
 20
858.2650211945
 10
930.8760722809
 20
858.8711706295
 10
931.0990681582
 20
859.5627186194
 10
931.2363898092
 20
860.3130814924
 10
931.2827547722
 20
861.093440403
  0
LWPOLYLINE
  5
1B4
330
1F
100
AcDbEntity
  8
0
  6
Continuous
 62
     7
370
    15
100
AcDbPolyline
 90
        9
 70
   128
 43
0.0
 10
913.1844004326
 20
861.093440403
 10
913.2307653957
 20
860.3130814924
 10
913.3680870467
 20
859.5627186194
 10
913.5910829239
 20
858.8711706295
 10
913.8911848598
 20
858.2650211945
 10
914.2568593555
 20
857.7675608292
 10
914.674054616
 20
857.3979226246
 10
915.1267369919
 20
857.1703073874
 10
915.5975168281
 20
857.0934471979
  0
LINE
  5
1B5
330
1F
100
AcDbEntity
  8
0
  6
Continuous
 62
     7
370
    15
100
AcDbLine
 10
913.1844004326
 20
861.093440403
 30
0.0
 11
913.1844004326
 21
869.0934417143
 31
0.0
  0
LINE
  5
1B6
330
1F
100
AcDbEntity
  8
0
  6
Continuous
 62
     7
370
    15
100
AcDbLine
 10
913.1844004326
 20
869.0934417143
 30
0.0
 11
897.4991624885
 21
869.0934417143
 31
0.0
  0
LWPOLYLINE
  5
1B7
330
1F
100
AcDbEntity
  8
0
  6
Continuous
 62
     7
370
    15
100
AcDbPolyline
 90
        9
 70
   128
 43
0.0
 10
895.0860535436
 20
873.0934498205
 10
895.1324110561
 20
872.31309091
 10
895.2697401577
 20
871.5627131357
 10
895.4927360349
 20
870.8711651459
 10
895.7928305202
 20
870.2650157108
 10
896.1585050159
 20
869.7675702467
 10
896.575707727
 20
869.3979320421
 10
897.0283901029
 20
869.1703019037
 10
897.4991624885
 20
869.0934417143
  0
LINE
  5
1B8
330
1F
100
AcDbEntity
  8
0
  6
Continuous
 62
     7
370
    15
100
AcDbLine
 10
895.0860535436
 20
884.5934507742
 30
0.0
 11
895.0860535436
 21
873.0934498205
 31
0.0
  0
LINE
  5
1B9
330
1F
100
AcDbEntity
  8
0
  6
Continuous
 62
     7
370
    15
100
AcDbLine
 10
928.8696383768
 20
857.0934471979
 30
0.0
 11
915.5975168281
 21
857.0934471979
 31
0.0
  0
LWPOLYLINE
  5
1BA
330
1F
100
AcDbEntity
  8
0
  6
Continuous
 62
     7
370
    15
100
AcDbPolyline
 90
       19
 70
   128
 43
0.0
 10
924.0434130364
 20
877.0934430256
 10
923.9342694812
 20
876.0673788681
 10
923.6199890905
 20
875.1650837555
 10
923.1384953194
 20
874.4953659668
 10
922.5478505426
 20
874.139019598
 10
921.9193046623
 20
874.139019598
 10
921.3286598855
 20
874.4953659668
 10
920.8471661144
 20
875.1650837555
 10
920.5328857236
 20
876.0673788681
 10
920.4237421685
 20
877.0934430256
 10
920.5328857236
 20
878.1195071831
 10
920.8471661144
 20
879.0218022957
 10
921.3286598855
 20
879.6915200844
 10
921.9193046623
 20
880.0478664532
 10
922.5478505426
 20
880.0478664532
 10
923.1384953194
 20
879.6915200844
 10
923.6199890905
 20
879.0218022957
 10
923.9342694812
 20
878.1195071831
 10
924.0434130364
 20
877.0934430256
  0
LINE
  5
1BB
330
1F
100
AcDbEntity
  8
0
  6
Continuous
 62
     7
370
    15
100
AcDbLine
 10
906.5483396583
 20
879.0934470787
 30
0.0
 11
906.5483396583
 21
873.0934498205
 31
0.0
  0
LINE
  5
1BC
330
1F
100
AcDbEntity
  8
0
  6
Continuous
 62
     7
370
    15
100
AcDbLine
 10
901.7221143179
 20
879.0934470787
 30
0.0
 11
906.5483396583
 21
879.0934470787
 31
0.0
  0
LINE
  5
1BD
330
1F
100
AcDbEntity
  8
0
  6
Continuous
 62
     7
370
    15
100
AcDbLine
 10
901.7221143179
 20
873.0934498205
 30
0.0
 11
901.7221143179
 21
879.0934470787
 31
0.0
  0
LINE
  5
1BE
330
1F
100
AcDbEntity
  8
0
  6
Continuous
 62
     7
370
    15
100
AcDbLine
 10
906.5483396583
 20
873.0934498205
 30
0.0
 11
901.7221143179
 21
873.0934498205
 31
0.0
  0
LINE
  5
1BF
330
1F
100
AcDbEntity
  8
0
  6
Continuous
 62
     7
370
    15
100
AcDbLine
 10
924.6466939979
 20
867.0934525623
 30
0.0
 11
924.6466939979
 21
861.093440403
 31
0.0
  0
LINE
  5
1C0
330
1F
100
AcDbEntity
  8
0
  6
Continuous
 62
     7
370
    15
100
AcDbLine
 10
919.820461207
 20
867.0934525623
 30
0.0
 11
924.6466939979
 21
867.0934525623
 31
0.0
  0
LINE
  5
1C1
330
1F
100
AcDbEntity
  8
0
  6
Continuous
 62
     7
370
    15
100
AcDbLine
 10
919.820461207
 20
861.093440403
 30
0.0
 11
919.820461207
 21
867.0934525623
 31
0.0
  0
LINE
  5
1C2
330
1F
100
AcDbEntity
  8
0
  6
Continuous
 62
     7
370
    15
100
AcDbLine
 10
924.6466939979
 20
861.093440403
 30
0.0
 11
919.820461207
 21
861.093440403
 31
0.0
  0
ARC
  5
1C3
330
1F
100
AcDbEntity
  8
0
  6
Continuous
 62
     7
370
    15
100
AcDbCircle
 10
924.714400329
 20
877.0934430256
 30
0.0
 40
3.591387036641807
100
AcDbArc
 50
125.4320517586
 51
234.5679482414
  0
LINE
  5
1C4
330
1F
100
AcDbEntity
  8
0
  6
Continuous
 62
     7
370
    15
100
AcDbLine
 10
920.6179937058
 20
861.093440403
 30
0.0
 11
920.6179937058
 21
867.0934525623
 31
0.0
  0
LINE
  5
1C5
330
1F
100
AcDbEntity
  8
0
  6
Continuous
 62
     7
370
    15
100
AcDbLine
 10
902.5196393662
 20
873.0934498205
 30
0.0
 11
902.5196393662
 21
879.0934470787
 31
0.0
  0
LINE
  5
1C6
330
1F
100
AcDbEntity
  8
0
  6
Continuous
 62
     7
370
    15
100
AcDbLine
 10
932.0806150966
 20
884.5934507742
 30
0.0
 11
932.0806150966
 21
873.0934498205
 31
0.0
  0
ARC
  5
1C7
330
1F
100
AcDbEntity
  8
0
  6
Continuous
 62
     7
370
    15
100
AcDbCircle
 10
911.1333492493
 20
859.6088722686
 30
0.0
 40
2.552831687326132
100
AcDbArc
 50
279.8204749821
 51
343.666838118
  0
LINE
  5
1C8
330
1F
100
AcDbEntity
  8
0
  6
Continuous
 62
     7
370
    15
100
AcDbLine
 10
898.2963895135
 20
857.0934471979
 30
0.0
 11
911.5687643819
 21
857.0934471979
 31
0.0
  0
LWPOLYLINE
  5
1C9
330
1F
100
AcDbEntity
  8
0
  6
Continuous
 62
     7
370
    15
100
AcDbPolyline
 90
        9
 70
   128
 43
0.0
 10
895.883220964
 20
861.093440403
 10
895.9295933776
 20
860.3130814924
 10
896.0669224792
 20
859.5627186194
 10
896.2899183565
 20
858.8711706295
 10
896.5900277429
 20
858.2650211945
 10
896.9557022386
 20
857.7675608292
 10
897.3729049497
 20
857.3979226246
 10
897.8256022268
 20
857.1703073874
 10
898.2963895135
 20
857.0934471979
  0
LINE
  5
1CA
330
1F
100
AcDbEntity
  8
0
  6
Continuous
 62
     7
370
    15
100
AcDbLine
 10
895.883220964
 20
870.1227394238
 30
0.0
 11
895.883220964
 21
861.093440403
 31
0.0
  0
LWPOLYLINE
  5
1CB
330
1F
100
AcDbEntity
  8
0
  6
Continuous
 62
     7
370
    15
100
AcDbPolyline
 90
        9
 70
   128
 43
0.0
 10
903.1227042609
 20
877.0934430256
 10
903.2318552666
 20
876.0673788681
 10
903.5461356574
 20
875.1650837555
 10
904.027636879
 20
874.4953659668
 10
904.6182891064
 20
874.139019598
 10
905.2468498879
 20
874.139019598
 10
905.8375095659
 20
874.4953659668
 10
906.3190107875
 20
875.1650837555
 10
906.5483396583
 20
875.7418033972
  0
LWPOLYLINE
  5
1CC
330
1F
100
AcDbEntity
  8
0
  6
Continuous
 62
     7
370
    15
100
AcDbPolyline
 90
        3
 70
   128
 43
0.0
 10
906.5483396583
 20
878.445082654
 10
906.3190107875
 20
879.0218022957
 10
906.28157162
 20
879.0934470787
  0
ARC
  5
1CD
330
1F
100
AcDbEntity
  8
0
  6
Continuous
 62
     7
370
    15
100
AcDbCircle
 10
907.230841009
 20
877.1998876322
 30
0.0
 40
4.109515542658634
100
AcDbArc
 50
152.5629123429
 51
181.4842403722
  0
LINE
  5
1CE
330
1F
100
AcDbEntity
  8
0
  6
Continuous
 62
     7
370
    15
100
AcDbLine
 10
923.582549923
 20
879.0934470787
 30
0.0
 11
921.6821377807
 21
879.0934470787
 31
0.0
  0
LINE
  5
1CF
330
1F
100
AcDbEntity
  8
0
  6
Continuous
 62
     7
370
    15
100
AcDbLine
 10
907.3457305961
 20
867.0934525623
 30
0.0
 11
902.5194158488
 21
867.0934525623
 31
0.0
  0
LINE
  5
1D0
330
1F
100
AcDbEntity
  8
0
  6
Continuous
 62
     7
370
    15
100
AcDbLine
 10
902.5194158488
 20
867.0934525623
 30
0.0
 11
902.5194158488
 21
861.093440403
 31
0.0
  0
LINE
  5
1D1
330
1F
100
AcDbEntity
  8
0
  6
Continuous
 62
     7
370
    15
100
AcDbLine
 10
902.5194158488
 20
861.093440403
 30
0.0
 11
907.3457305961
 21
861.093440403
 31
0.0
  0
LINE
  5
1D2
330
1F
100
AcDbEntity
  8
0
  6
Continuous
 62
     7
370
    15
100
AcDbLine
 10
907.3457305961
 20
861.093440403
 30
0.0
 11
907.3457305961
 21
867.0934525623
 31
0.0
  0
LINE
  5
1D3
330
1F
100
AcDbEntity
  8
0
  6
Continuous
 62
     7
370
    15
100
AcDbLine
 10
895.0856959158
 20
861.093440403
 30
0.0
 11
895.883220964
 21
861.093440403
 31
0.0
  0
LINE
  5
1D4
330
1F
100
AcDbEntity
  8
0
  6
Continuous
 62
     7
370
    15
100
AcDbLine
 10
895.0856959158
 20
874.5934454098
 30
0.0
 11
895.0856959158
 21
861.093440403
 31
0.0
  0
LINE
  5
1D5
330
1F
100
AcDbEntity
  8
0
  6
Continuous
 62
     7
370
    15
100
AcDbLine
 10
898.2963895135
 20
857.0934471979
 30
0.0
 11
897.4988644653
 21
857.0934471979
 31
0.0
  0
LWPOLYLINE
  5
1D6
330
1F
100
AcDbEntity
  8
0
  6
Continuous
 62
     7
370
    15
100
AcDbPolyline
 90
        9
 70
   128
 43
0.0
 10
897.4988644653
 20
857.0934471979
 10
897.0280771785
 20
857.1703073874
 10
896.5753799015
 20
857.3979226246
 10
896.1581771904
 20
857.7675608292
 10
895.7925026947
 20
858.2650211945
 10
895.4923933082
 20
858.8711706295
 10
895.2693974309
 20
859.5627186194
 10
895.1320683294
 20
860.3130814924
 10
895.0856959158
 20
861.093440403
  0
LWPOLYLINE
  5
1D7
330
1F
100
AcDbEntity
  8
0
  6
Continuous
 62
     7
370
    15
100
AcDbPolyline
 90
        8
 70
   128
 43
0.0
 10
904.5338144236
 20
874.1671678915
 10
905.0399845176
 20
874.4953659668
 10
905.5214931899
 20
875.1650837555
 10
905.8357735806
 20
876.0673788681
 10
905.9449171358
 20
877.0934430256
 10
905.8357735806
 20
878.1195071831
 10
905.5214931899
 20
879.0218022957
 10
905.4840465718
 20
879.0934470787
  0
LINE
  5
1D8
330
1F
100
AcDbEntity
  8
0
  6
Continuous
 62
     7
370
    15
100
AcDbLine
 10
906.5482129984
 20
861.093440403
 30
0.0
 11
906.5482129984
 21
867.0934525623
 31
0.0
  0
LINE
  5
1D9
330
1F
100
AcDbEntity
  8
0
  6
Continuous
 62
     7
370
    15
100
AcDbLine
 10
1220.996815496
 20
825.9171483412
 30
0.0
 11
1220.3885649972
 21
826.4470261827
 31
0.0
  0
LINE
  5
1DA
330
1F
100
AcDbEntity
  8
0
  6
Continuous
 62
     7
370
    15
100
AcDbLine
 10
1212.9011040264
 20
825.8422476545
 30
0.0
 11
1220.996815496
 21
825.9171483412
 31
0.0
  0
ARC
  5
1DB
330
1F
100
AcDbEntity
  8
0
  6
Continuous
 62
     7
370
    15
100
AcDbCircle
 10
1212.8495724047
 20
825.2578804889
 30
0.0
 40
0.5866348883268833
100
AcDbArc
 50
84.960485845
 51
128.6104838609
  0
LINE
  5
1DC
330
1F
100
AcDbEntity
  8
0
  6
Continuous
 62
     7
370
    15
100
AcDbLine
 10
1211.5549629264
 20
824.7352180376
 30
0.0
 11
1212.4834989839
 21
825.7162806883
 31
0.0
  0
ARC
  5
1DD
330
1F
100
AcDbEntity
  8
0
  6
Continuous
 62
     7
370
    15
100
AcDbCircle
 10
1210.8228313586
 20
825.6520084608
 30
0.0
 40
1.17325245051887
100
AcDbArc
 50
264.9603929685
 51
308.6102050169
  0
LINE
  5
1DE
330
1F
100
AcDbEntity
  8
0
  6
Continuous
 62
     7
370
    15
100
AcDbLine
 10
1209.1417347723
 20
824.4686958685
 30
0.0
 11
1210.7197677427
 21
824.4832915559
 31
0.0
  0
LWPOLYLINE
  5
1DF
330
1F
100
AcDbEntity
  8
0
  6
Continuous
 62
     7
370
    15
100
AcDbPolyline
 90
        9
 70
   128
 43
0.0
 10
1208.6776381069
 20
824.096196641
 10
1208.6636310154
 20
824.1767374172
 10
1208.6712604099
 20
824.2494550839
 10
1208.7004070812
 20
824.3132246032
 10
1208.7505941921
 20
824.3670401468
 10
1208.8210766845
 20
824.4100747004
 10
1208.9107369714
 20
824.4416651621
 10
1209.0181743436
 20
824.4613048926
 10
1209.1417347723
 20
824.4686958685
  0
LWPOLYLINE
  5
1E0
330
1F
100
AcDbEntity
  8
0
  6
Continuous
 62
     7
370
    15
100
AcDbPolyline
 90
        9
 70
   128
 43
0.0
 10
1202.2073154979
 20
824.0363312259
 10
1203.461024695
 20
823.4857556715
 10
1204.7252392107
 20
823.0689999952
 10
1205.9216087394
 20
822.8118879094
 10
1206.975970202
 20
822.7303636565
 10
1207.8229671054
 20
822.8294787302
 10
1208.41011756
 20
823.1030938521
 10
1208.7010180288
 20
823.5342365995
 10
1208.6776381069
 20
824.096196641
  0
ARC
  5
1E1
330
1F
100
AcDbEntity
  8
0
  6
Continuous
 62
     7
370
    15
100
AcDbCircle
 10
1200.7574778372
 20
821.2948052836
 30
0.0
 40
3.101289044093349
100
AcDbArc
 50
62.1281746893
 51
87.2407506104
  0
LINE
  5
1E2
330
1F
100
AcDbEntity
  8
0
  6
Continuous
 62
     7
370
    15
100
AcDbLine
 10
1199.3287389808
 20
824.3779030934
 30
0.0
 11
1200.9067719513
 21
824.3924987807
 31
0.0
  0
ARC
  5
1E3
330
1F
100
AcDbEntity
  8
0
  6
Continuous
 62
     7
370
    15
100
AcDbCircle
 10
1199.4204046353
 20
829.2199575556
 30
0.0
 40
4.842922052554561
100
AcDbArc
 50
252.185800228
 51
268.9154546119
  0
LINE
  5
1E4
330
1F
100
AcDbEntity
  8
0
  6
Continuous
 62
     7
370
    15
100
AcDbLine
 10
1194.8010956579
 20
825.5526808396
 30
0.0
 11
1197.9388033681
 21
824.6092361703
 31
0.0
  0
ARC
  5
1E5
330
1F
100
AcDbEntity
  8
0
  6
Continuous
 62
     7
370
    15
100
AcDbCircle
 10
1194.0602933965
 20
823.247391291
 30
0.0
 40
2.421393791444533
100
AcDbArc
 50
72.1852485413
 51
88.9152096385
  0
LINE
  5
1E6
330
1F
100
AcDbEntity
  8
0
  6
Continuous
 62
     7
370
    15
100
AcDbLine
 10
1186.0104238325
 20
825.593442966
 30
0.0
 11
1194.1061353021
 21
825.6683511033
 31
0.0
  0
LINE
  5
1E7
330
1F
100
AcDbEntity
  8
0
  6
Continuous
 62
     7
370
    15
100
AcDbLine
 10
1185.4021584325
 20
826.1233282581
 30
0.0
 11
1186.0104238325
 21
825.593442966
 31
0.0
  0
LINE
  5
1E8
330
1F
100
AcDbEntity
  8
0
  6
Continuous
 62
     7
370
    15
100
AcDbLine
 10
1185.4021584325
 20
826.1233282581
 30
0.0
 11
1193.3975403839
 21
826.1972976222
 31
0.0
  0
ARC
  5
1E9
330
1F
100
AcDbEntity
  8
0
  6
Continuous
 62
     7
370
    15
100
AcDbCircle
 10
1193.3058747294
 20
821.35524316
 30
0.0
 40
4.842922052554758
100
AcDbArc
 50
72.1858002281
 51
88.9154546119
  0
LINE
  5
1EA
330
1F
100
AcDbEntity
  8
0
  6
Continuous
 62
     7
370
    15
100
AcDbLine
 10
1194.7874759965
 20
825.9659645453
 30
0.0
 11
1197.9251837068
 21
825.022519876
 31
0.0
  0
ARC
  5
1EB
330
1F
100
AcDbEntity
  8
0
  6
Continuous
 62
     7
370
    15
100
AcDbCircle
 10
1198.6660405902
 20
827.3281375999
 30
0.0
 40
2.421722942496216
100
AcDbArc
 50
252.1863936223
 51
268.9140645576
  0
LINE
  5
1EC
330
1F
100
AcDbEntity
  8
0
  6
Continuous
 62
     7
370
    15
100
AcDbLine
 10
1198.6201440626
 20
824.9068496122
 30
0.0
 11
1200.1119738155
 21
824.9206555381
 31
0.0
  0
ARC
  5
1ED
330
1F
100
AcDbEntity
  8
0
  6
Continuous
 62
     7
370
    15
100
AcDbCircle
 10
1199.8302747402
 20
818.8134785902
 30
0.0
 40
6.113670308552694
100
AcDbArc
 50
62.9111576191
 51
87.359052107
  0
LWPOLYLINE
  5
1EE
330
1F
100
AcDbEntity
  8
0
  6
Continuous
 62
     7
370
    15
100
AcDbPolyline
 90
        9
 70
   128
 43
0.0
 10
1202.6142662101
 20
824.2564884319
 10
1203.6069666677
 20
823.8347557678
 10
1204.6010231309
 20
823.517137517
 10
1205.5392598444
 20
823.3218876019
 10
1206.3677197032
 20
823.2602489486
 10
1207.0387189918
 20
823.3357605829
 10
1207.5136935049
 20
823.544086267
 10
1207.7653145128
 20
823.873230566
 10
1207.7790980869
 20
824.3042764559
  0
LWPOLYLINE
  5
1EF
330
1F
100
AcDbEntity
  8
0
  6
Continuous
 62
     7
370
    15
100
AcDbPolyline
 90
        9
 70
   128
 43
0.0
 10
1208.7200319105
 20
825.0003022447
 10
1208.4814643198
 20
824.9864963188
 10
1208.2726841503
 20
824.9499586716
 10
1208.0967014366
 20
824.8911959424
 10
1207.9560344749
 20
824.8110723987
 10
1207.8527396255
 20
824.7107428804
 10
1207.7882921033
 20
824.5916378989
 10
1207.7636306816
 20
824.4555008903
 10
1207.7790980869
 20
824.3042764559
  0
LINE
  5
1F0
330
1F
100
AcDbEntity
  8
0
  6
Continuous
 62
     7
370
    15
100
AcDbLine
 10
1208.7200319105
 20
825.0003022447
 30
0.0
 11
1210.2118467622
 21
825.0141007199
 31
0.0
  0
ARC
  5
1F1
330
1F
100
AcDbEntity
  8
0
  6
Continuous
 62
     7
370
    15
100
AcDbCircle
 10
1210.2633897475
 20
825.5984573256
 30
0.0
 40
0.5866253675942753
100
AcDbArc
 50
264.9592896518
 51
308.6098060981
  0
LINE
  5
1F2
330
1F
100
AcDbEntity
  8
0
  6
Continuous
 62
     7
370
    15
100
AcDbLine
 10
1210.6294518047
 20
825.1400602355
 30
0.0
 11
1211.5579878622
 21
826.1211303368
 31
0.0
  0
ARC
  5
1F3
330
1F
100
AcDbEntity
  8
0
  6
Continuous
 62
     7
370
    15
100
AcDbCircle
 10
1212.290092624
 20
825.2043942195
 30
0.0
 40
1.173193287961768
100
AcDbArc
 50
84.9588239486
 51
128.6108370426
  0
LINE
  5
1F4
330
1F
100
AcDbEntity
  8
0
  6
Continuous
 62
     7
370
    15
100
AcDbLine
 10
1212.3931830459
 20
826.3730493679
 30
0.0
 11
1220.3885649972
 21
826.4470261827
 31
0.0
  0
LINE
  5
1F5
330
1F
100
AcDbEntity
  8
0
  6
Continuous
 62
     7
370
    15
100
AcDbLine
 10
1186.0104238325
 20
825.593442966
 30
0.0
 11
1180.389780336
 21
812.8727239862
 31
0.0
  0
LINE
  5
1F6
330
1F
100
AcDbEntity
  8
0
  6
Continuous
 62
     7
370
    15
100
AcDbLine
 10
1188.4854918056
 20
812.9476246729
 30
0.0
 11
1194.1061353021
 21
825.6683511033
 31
0.0
  0
LINE
  5
1F7
330
1F
100
AcDbEntity
  8
0
  6
Continuous
 62
     7
370
    15
100
AcDbLine
 10
1180.389780336
 20
812.8727239862
 30
0.0
 11
1188.4854918056
 21
812.9476246729
 31
0.0
  0
LWPOLYLINE
  5
1F8
330
1F
100
AcDbEntity
  8
0
  6
Continuous
 62
     7
370
    15
100
AcDbPolyline
 90
       17
 70
   128
 43
0.0
 10
1186.2246429258
 20
815.0381607309
 10
1186.0279923015
 20
814.7131366029
 10
1185.7547348075
 20
814.436608304
 10
1185.4465042882
 20
814.2506716147
 10
1185.1502095991
 20
814.183638741
 10
1184.9109565549
 20
814.2457169786
 10
1184.765178495
 20
814.4274515405
 10
1184.7350632482
 20
814.7011709705
 10
1184.8251854711
 20
815.0252190724
 10
1185.0218509965
 20
815.3502432003
 10
1185.2950935894
 20
815.6267714992
 10
1185.6033241087
 20
815.8127081885
 10
1185.899633699
 20
815.8797410622
 10
1186.1388867431
 20
815.8176628246
 10
1186.2846648031
 20
815.6359282627
 10
1186.3147800499
 20
815.3622013822
 10
1186.2246429258
 20
815.0381607309
  0
LWPOLYLINE
  5
1F9
330
1F
100
AcDbEntity
  8
0
  6
Continuous
 62
     7
370
    15
100
AcDbPolyline
 90
       17
 70
   128
 43
0.0
 10
1189.9717485242
 20
823.5186425343
 10
1189.7750829988
 20
823.1936184063
 10
1189.501840406
 20
822.9170901075
 10
1189.1935949855
 20
822.7311534181
 10
1188.8973002964
 20
822.6641205444
 10
1188.6580472522
 20
822.726198782
 10
1188.5122691923
 20
822.9079333439
 10
1188.4821539455
 20
823.1816527739
 10
1188.5722910696
 20
823.5056934252
 10
1188.7689416938
 20
823.8307250037
 10
1189.0421842866
 20
824.1072533026
 10
1189.3504297071
 20
824.293189992
 10
1189.6467243963
 20
824.360215415
 10
1189.8859774404
 20
824.2981446281
 10
1190.0317555004
 20
824.1164100661
 10
1190.0618707471
 20
823.8426831856
 10
1189.9717485242
 20
823.5186425343
  0
LINE
  5
1FA
330
1F
100
AcDbEntity
  8
0
  6
Continuous
 62
     7
370
    15
100
AcDbLine
 10
1185.4021584325
 20
826.1233282581
 30
0.0
 11
1179.7815298372
 21
813.4026018276
 31
0.0
  0
LINE
  5
1FB
330
1F
100
AcDbEntity
  8
0
  6
Continuous
 62
     7
370
    15
100
AcDbLine
 10
1179.7815298372
 20
813.4026018276
 30
0.0
 11
1180.389780336
 21
812.8727239862
 31
0.0
  0
LINE
  5
1FC
330
1F
100
AcDbEntity
  8
0
  6
Continuous
 62
     7
370
    15
100
AcDbLine
 10
1189.1352718406
 20
823.9393097654
 30
0.0
 11
1189.1743277841
 21
824.0608659878
 31
0.0
  0
ARC
  5
1FD
330
1F
100
AcDbEntity
  8
0
  6
Continuous
 62
     7
370
    15
100
AcDbCircle
 10
1188.4439966779
 20
824.2349467549
 30
0.0
 40
0.7518394644179107
100
AcDbArc
 50
291.2035198462
 51
336.8451036201
  0
LINE
  5
1FE
330
1F
100
AcDbEntity
  8
0
  6
Continuous
 62
     7
370
    15
100
AcDbLine
 10
1192.3181598716
 20
811.8885171905
 30
0.0
 11
1197.9388033681
 21
824.6092361703
 31
0.0
  0
LINE
  5
1FF
330
1F
100
AcDbEntity
  8
0
  6
Continuous
 62
     7
370
    15
100
AcDbLine
 10
1194.8010956579
 20
825.5526808396
 30
0.0
 11
1189.1804670625
 21
812.8319618597
 31
0.0
  0
LINE
  5
200
330
1F
100
AcDbEntity
  8
0
  6
Continuous
 62
     7
370
    15
100
AcDbLine
 10
1189.1804670625
 20
812.8319618597
 30
0.0
 11
1192.3181598716
 21
811.8885171905
 31
0.0
  0
ARC
  5
201
330
1F
100
AcDbEntity
  8
0
  6
Continuous
 62
     7
370
    15
100
AcDbCircle
 10
1188.4396752676
 20
810.5265733465
 30
0.0
 40
2.421484809029756
100
AcDbArc
 50
72.1862007236
 51
88.9158507613
  0
LINE
  5
202
330
1F
100
AcDbEntity
  8
0
  6
Continuous
 62
     7
370
    15
100
AcDbLine
 10
1185.3881811433
 20
815.4588279619
 30
0.0
 11
1185.4272370868
 21
815.5803841844
 31
0.0
  0
ARC
  5
203
330
1F
100
AcDbEntity
  8
0
  6
Continuous
 62
     7
370
    15
100
AcDbCircle
 10
1184.6968559669
 20
815.7545166982
 30
0.0
 40
0.7519057974704144
100
AcDbArc
 50
291.2056467581
 51
336.8429767081
  0
LINE
  5
204
330
1F
100
AcDbEntity
  8
0
  6
Continuous
 62
     7
370
    15
100
AcDbLine
 10
1199.3287389808
 20
824.3779030934
 30
0.0
 11
1193.7080954843
 21
811.6571841135
 31
0.0
  0
ARC
  5
205
330
1F
100
AcDbEntity
  8
0
  6
Continuous
 62
     7
370
    15
100
AcDbCircle
 10
1193.7997611388
 20
816.4992385757
 30
0.0
 40
4.842922052554561
100
AcDbArc
 50
252.185800228
 51
268.9154546119
  0
LINE
  5
206
330
1F
100
AcDbEntity
  8
0
  6
Continuous
 62
     7
370
    15
100
AcDbLine
 10
1195.2861284547
 20
811.6717798009
 30
0.0
 11
1200.9067719513
 21
824.3924987807
 31
0.0
  0
LINE
  5
207
330
1F
100
AcDbEntity
  8
0
  6
Continuous
 62
     7
370
    15
100
AcDbLine
 10
1193.7080954843
 20
811.6571841135
 30
0.0
 11
1195.2861284547
 21
811.6717798009
 31
0.0
  0
LINE
  5
208
330
1F
100
AcDbEntity
  8
0
  6
Continuous
 62
     7
370
    15
100
AcDbLine
 10
1202.2073154979
 20
824.0363312259
 30
0.0
 11
1196.5866720014
 21
811.315612246
 31
0.0
  0
LWPOLYLINE
  5
209
330
1F
100
AcDbEntity
  8
0
  6
Continuous
 62
     7
370
    15
100
AcDbPolyline
 90
        8
 70
   128
 43
0.0
 10
1196.5866720014
 20
811.315612246
 10
1197.8403811985
 20
810.7650366917
 10
1199.1045957141
 20
810.3482735648
 10
1200.3009652429
 20
810.0911689296
 10
1201.3553267055
 20
810.0096446767
 10
1202.2023236089
 20
810.1087597504
 10
1202.7894740634
 20
810.3823674216
 10
1203.0407225423
 20
810.7011256113
  0
ARC
  5
20A
330
1F
100
AcDbEntity
  8
0
  6
Continuous
 62
     7
370
    15
100
AcDbCircle
 10
1195.1367964857
 20
808.5739480767
 30
0.0
 40
3.101428933274992
100
AcDbArc
 50
62.128750281
 51
87.2401750187
  0
LINE
  5
20B
330
1F
100
AcDbEntity
  8
0
  6
Continuous
 62
     7
370
    15
100
AcDbLine
 10
1209.1417347723
 20
824.4686958685
 30
0.0
 11
1203.5210912757
 21
811.7479694381
 31
0.0
  0
LINE
  5
20C
330
1F
100
AcDbEntity
  8
0
  6
Continuous
 62
     7
370
    15
100
AcDbLine
 10
1205.0991242462
 20
811.7625725761
 30
0.0
 11
1210.7197677427
 21
824.4832915559
 31
0.0
  0
LINE
  5
20D
330
1F
100
AcDbEntity
  8
0
  6
Continuous
 62
     7
370
    15
100
AcDbLine
 10
1203.5210912757
 20
811.7479694381
 30
0.0
 11
1205.0991242462
 21
811.7625725761
 31
0.0
  0
LINE
  5
20E
330
1F
100
AcDbEntity
  8
0
  6
Continuous
 62
     7
370
    15
100
AcDbLine
 10
1211.5549629264
 20
824.7352180376
 30
0.0
 11
1205.9343194299
 21
812.0144916072
 31
0.0
  0
ARC
  5
20F
330
1F
100
AcDbEntity
  8
0
  6
Continuous
 62
     7
370
    15
100
AcDbCircle
 10
1205.2021897253
 20
812.9313104182
 30
0.0
 40
1.173273470571083
100
AcDbArc
 50
264.9603921492
 51
308.609268842
  0
LINE
  5
210
330
1F
100
AcDbEntity
  8
0
  6
Continuous
 62
     7
370
    15
100
AcDbLine
 10
1206.8628554874
 20
812.9955617085
 30
0.0
 11
1212.4834989839
 21
825.7162806883
 31
0.0
  0
LINE
  5
211
330
1F
100
AcDbEntity
  8
0
  6
Continuous
 62
     7
370
    15
100
AcDbLine
 10
1205.9343194299
 20
812.0144916072
 30
0.0
 11
1206.8628554874
 21
812.9955617085
 31
0.0
  0
LINE
  5
212
330
1F
100
AcDbEntity
  8
0
  6
Continuous
 62
     7
370
    15
100
AcDbLine
 10
1212.9011040264
 20
825.8422476545
 30
0.0
 11
1207.2804605299
 21
813.121521224
 31
0.0
  0
ARC
  5
213
330
1F
100
AcDbEntity
  8
0
  6
Continuous
 62
     7
370
    15
100
AcDbCircle
 10
1207.2289175446
 20
812.5371646184
 30
0.0
 40
0.5866253675943686
100
AcDbArc
 50
84.9592896518
 51
128.6098060981
  0
LINE
  5
214
330
1F
100
AcDbEntity
  8
0
  6
Continuous
 62
     7
370
    15
100
AcDbLine
 10
1220.996815496
 20
825.9171483412
 30
0.0
 11
1215.3761719995
 21
813.1964293614
 31
0.0
  0
LWPOLYLINE
  5
215
330
1F
100
AcDbEntity
  8
0
  6
Continuous
 62
     7
370
    15
100
AcDbPolyline
 90
       17
 70
   128
 43
0.0
 10
1216.5614103609
 20
823.7646607056
 10
1216.3647448354
 20
823.439629127
 10
1216.0915022426
 20
823.1631008282
 10
1215.7832717233
 20
822.9771641388
 10
1215.486962133
 20
822.9101387158
 10
1215.2477090889
 20
822.9722095027
 10
1215.1019310289
 20
823.1539440646
 10
1215.0718157821
 20
823.4276709452
 10
1215.1619529062
 20
823.7517115965
 10
1215.3586035305
 20
824.0767357245
 10
1215.6318610244
 20
824.3532640233
 10
1215.9400915437
 20
824.5392007127
 10
1216.2363862329
 20
824.6062335863
 10
1216.475639277
 20
824.5441553488
 10
1216.621417337
 20
824.3624207869
 10
1216.6515325838
 20
824.0887013569
 10
1216.5614103609
 20
823.7646607056
  0
LWPOLYLINE
  5
216
330
1F
100
AcDbEntity
  8
0
  6
Continuous
 62
     7
370
    15
100
AcDbPolyline
 90
       17
 70
   128
 43
0.0
 10
1212.8143047624
 20
815.2841789022
 10
1212.6176541381
 20
814.9591473236
 10
1212.3444115453
 20
814.6826190248
 10
1212.0361661249
 20
814.4966823354
 10
1211.7398714357
 20
814.4296569123
 10
1211.5006183916
 20
814.4917276993
 10
1211.3548403316
 20
814.6734622612
 10
1211.3247250848
 20
814.9471891418
 10
1211.4148473077
 20
815.2712297931
 10
1211.6115128332
 20
815.596253921
 10
1211.884755426
 20
815.8727822199
 10
1212.1930008464
 20
816.0587189093
 10
1212.4892955356
 20
816.1257517829
 10
1212.7285485797
 20
816.0636735454
 10
1212.8743266397
 20
815.8819389835
 10
1212.9044418865
 20
815.6082195535
 10
1212.8143047624
 20
815.2841789022
  0
LINE
  5
217
330
1F
100
AcDbEntity
  8
0
  6
Continuous
 62
     7
370
    15
100
AcDbLine
 10
1207.2804605299
 20
813.121521224
 30
0.0
 11
1215.3761719995
 21
813.1964293614
 31
0.0
  0
ARC
  5
218
330
1F
100
AcDbEntity
  8
0
  6
Continuous
 62
     7
370
    15
100
AcDbCircle
 10
1215.043214126
 20
824.4711724298
 30
0.0
 40
0.7392621364376897
100
AcDbArc
 50
290.7347817842
 51
347.1544614839
  0
ARC
  5
219
330
1F
100
AcDbEntity
  8
0
  6
Continuous
 62
     7
370
    15
100
AcDbCircle
 10
1211.2961801217
 20
815.9906486461
 30
0.0
 40
0.7391975297186717
100
AcDbArc
 50
290.7307439328
 51
347.1566570145
  0
LINE
  5
21A
330
1F
100
AcDbEntity
  8
0
  6
Continuous
 62
     7
370
    15
100
AcDbLine
 10
1077.0138872498
 20
894.0934476748
 30
0.0
 11
1311.013895803
 21
894.0934476748
 31
0.0
  0
LINE
  5
21B
330
1F
100
AcDbEntity
  8
0
  6
Continuous
 62
     7
370
    15
100
AcDbLine
 10
843.0138861471
 20
894.0934476748
 30
0.0
 11
1077.0138872498
 21
894.0934476748
 31
0.0
  0
LINE
  5
21C
330
1F
100
AcDbEntity
  8
0
  6
Continuous
 62
     7
370
    15
100
AcDbLine
 10
1064.363889181
 20
717.0934466019
 30
0.0
 11
984.6638885968
 21
717.0934466019
 31
0.0
  0
SPLINE
  5
21D
330
1F
100
AcDbEntity
  8
0
  6
Continuous
 62
     7
370
    15
100
AcDbSpline
210
0.0
220
0.0
230
1.0
 70
    24
 71
     3
 72
    45
 73
    41
 74
     0
 42
0.000000001
 43
0.00000001
 40
0.0
 40
0.0
 40
0.0
 40
0.0
 40
0.0350605370178829
 40
0.0721639579488439
 40
0.1106612628388532
 40
0.1507148410848237
 40
0.2012760220090989
 40
0.2516328134325953
 40
0.3020473429519621
 40
0.338672579489083
 40
0.3751827216218027
 40
0.4116855993502575
 40
0.4482891402511935
 40
0.498549833521262
 40
0.5451961476620104
 40
0.5885430861028103
 40
0.6303965622384906
 40
0.6718556791240805
 40
0.7135470602281894
 40
0.7492049845029425
 40
0.7858085519562569
 40
0.7941915792497931
 40
0.8026419229154731
 40
0.8111629245694014
 40
0.8197577480792247
 40
0.8284296581573668
 40
0.8371817464873875
 40
0.8460170199266153
 40
0.8548035722889359
 40
0.8656695447383921
 40
0.8786191367578078
 40
0.893654751053813
 40
0.9107779190402737
 40
0.9299896547143854
 40
0.951290607074368
 40
0.9632822917057599
 40
0.9742888705190152
 40
0.9843144742742826
 40
0.9933648020657785
 40
1.0
 40
1.0
 40
1.0
 40
1.0
 10
933.0138897233527
 20
777.6947629943028
 30
0.0
 10
933.0138897233527
 20
777.7406667128571
 30
0.0
 10
933.0138897233527
 20
777.835148837126
 30
0.0
 10
933.0138897233527
 20
778.5389260245597
 30
0.0
 10
933.0138897233527
 20
779.6547097731593
 30
0.0
 10
933.0138897233527
 20
781.3386297539577
 30
0.0
 10
933.0138897233527
 20
783.6419261942367
 30
0.0
 10
933.0138897233527
 20
786.673197769356
 30
0.0
 10
933.0138897233527
 20
789.9167503767978
 30
0.0
 10
933.0138897233527
 20
793.2033576878595
 30
0.0
 10
933.0138897233527
 20
796.3982819892334
 30
0.0
 10
933.0138897233527
 20
799.8586871220938
 30
0.0
 10
933.0138897233527
 20
804.0487434360493
 30
0.0
 10
933.0138897233527
 20
808.9052497538514
 30
0.0
 10
933.0138897233527
 20
814.4164644692698
 30
0.0
 10
933.0138897233527
 20
820.0048563179688
 30
0.0
 10
933.0138897233527
 20
825.8215051541295
 30
0.0
 10
933.0138897233527
 20
831.9706323236197
 30
0.0
 10
933.0138897233527
 20
838.1057334404655
 30
0.0
 10
933.0138897233527
 20
844.1589848554025
 30
0.0
 10
933.0138897233527
 20
848.5085859298385
 30
0.0
 10
933.0138897233527
 20
851.3985308507039
 30
0.0
 10
933.0138897233527
 20
852.7709691370915
 30
0.0
 10
933.0138897233527
 20
854.1554393325874
 30
0.0
 10
933.0138897233527
 20
855.5519664840778
 30
0.0
 10
933.0138897233527
 20
856.960570556423
 30
0.0
 10
933.0138897233527
 20
858.3811493549138
 30
0.0
 10
933.0138897233527
 20
859.8068266971432
 30
0.0
 10
933.0138897233527
 20
861.3434611560604
 30
0.0
 10
933.0138897233527
 20
863.0973969335581
 30
0.0
 10
933.0138897233527
 20
865.1837052794643
 30
0.0
 10
933.0138897233527
 20
867.6022632967387
 30
0.0
 10
933.0138897233527
 20
870.3530503513772
 30
0.0
 10
933.0138897233527
 20
873.4365082600071
 30
0.0
 10
933.0138897233527
 20
876.2416205170068
 30
0.0
 10
933.0138897233527
 20
878.6104262382283
 30
0.0
 10
933.0138897233527
 20
880.3818100223483
 30
0.0
 10
933.0138897233527
 20
881.9997964875377
 30
0.0
 10
933.0138897233527
 20
883.3861575613603
 30
0.0
 10
933.0138897233527
 20
884.2345632419774
 30
0.0
 10
933.0138897233527
 20
884.5934507742062
 30
0.0
  0
LINE
  5
21E
330
1F
100
AcDbEntity
  8
0
  6
Continuous
 62
     7
370
    15
100
AcDbLine
 10
1059.5500020021
 20
714.8768476516
 30
0.0
 11
989.4777757757
 21
714.8768476516
 31
0.0
  0
LINE
  5
21F
330
1F
100
AcDbEntity
  8
0
  6
Continuous
 62
     7
370
    15
100
AcDbLine
 10
932.3726480537
 20
863.7740549936
 30
0.0
 11
932.3726480537
 21
824.4128388658
 31
0.0
  0
LWPOLYLINE
  5
220
330
1F
100
AcDbEntity
  8
0
  6
Continuous
 62
     7
370
    15
100
AcDbPolyline
 90
       24
 70
   128
 43
0.0
 10
934.4471951657
 20
719.5728633858
 10
934.2767631345
 20
719.5207565862
 10
933.7687750989
 20
719.3654506307
 10
932.9331328803
 20
719.1099685922
 10
931.7860936456
 20
718.759282802
 10
930.3499793344
 20
718.3202189233
 10
928.652744525
 20
717.8013231212
 10
926.7274325424
 20
717.212694956
 10
924.6115049058
 20
716.5657913617
 10
922.3461558753
 20
715.8732036666
 10
919.9754630857
 20
715.1484122339
 10
917.5455903345
 20
714.4055243887
 10
915.103819006
 20
713.6589994959
 10
912.697676354
 20
712.9233678177
 10
910.373996728
 20
712.2129479728
 10
908.1780051523
 20
711.541566842
 10
906.1524530583
 20
710.9222922779
 10
904.3367540174
 20
710.3671783886
 10
902.766253584
 20
709.887028516
 10
901.4715214901
 20
709.4911898791
 10
900.4777630501
 20
709.1873654469
 10
899.80430507
 20
708.9814695835
 10
899.4642680221
 20
708.8775107011
 10
899.4216059976
 20
708.8644675284
  0
LWPOLYLINE
  5
221
330
1F
100
AcDbEntity
  8
0
  6
Continuous
 62
     7
370
    15
100
AcDbPolyline
 90
       20
 70
   128
 43
0.0
 10
934.1509004765
 20
700.6598257765
 10
933.9789559775
 20
700.6072582051
 10
933.468069666
 20
700.4510642334
 10
932.6329340869
 20
700.1957384243
 10
931.4975848132
 20
699.8486251875
 10
930.0946702891
 20
699.4197120264
 10
928.4645652109
 20
698.9213371023
 10
926.6541486316
 20
698.3678390577
 10
924.7155150109
 20
697.7751379206
 10
922.7044244938
 20
697.1602880701
 10
920.67874574
 20
696.5409753218
 10
918.6967422896
 20
695.9350158765
 10
916.8154408865
 20
695.359844093
 10
915.0889625483
 20
694.8320058479
 10
913.5669653945
 20
694.3666854247
 10
912.293243938
 20
693.9772696539
 10
911.3044401341
 20
693.6749623462
 10
910.6290002995
 20
693.4684583291
 10
910.2863480979
 20
693.3636994406
 10
910.243283742
 20
693.3505342647
  0
SPLINE
  5
222
330
1F
100
AcDbEntity
  8
0
  6
Continuous
 62
     7
370
    15
100
AcDbSpline
210
0.0
220
0.0
230
1.0
 70
     8
 71
     3
 72
    12
 73
     8
 74
     0
 42
0.000000001
 43
0.00000001
 40
0.0
 40
0.0
 40
0.0
 40
0.0
 40
0.2192161944620994
 40
0.438608866259088
 40
0.6537135035473591
 40
0.8644858545005226
 40
0.9999999999999999
 40
0.9999999999999999
 40
0.9999999999999999
 40
0.9999999999999999
 10
871.0866605573218
 20
882.4399349584713
 30
0.0
 10
871.076370580935
 20
882.3241378175618
 30
0.0
 10
871.055782344341
 20
882.0924503146609
 30
0.0
 10
870.8935710543705
 20
881.7851939431018
 30
0.0
 10
870.656936828696
 20
881.5583032348516
 30
0.0
 10
870.4013145252613
 20
881.4430251272848
 30
0.0
 10
870.2363359220719
 20
881.4331985819663
 30
0.0
 10
870.1717739635031
 20
881.4293531074658
 30
0.0
  0
ELLIPSE
  5
223
330
1F
100
AcDbEntity
  8
0
  6
Continuous
 62
     7
370
    15
100
AcDbEllipse
 10
879.5138889053
 20
876.3798780782
 30
0.0
 11
21.74419394349297
 21
-2.481153645116819
 31
0.0
210
0.0
220
0.0
230
1.0
 40
0.2025361796
 41
2.037867007101915
 42
2.129853457660247
  0
SPLINE
  5
224
330
1F
100
AcDbEntity
  8
0
  6
Continuous
 62
     7
370
    15
100
AcDbSpline
210
0.0
220
0.0
230
1.0
 70
     8
 71
     3
 72
     9
 73
     5
 74
     0
 42
0.000000001
 43
0.00000001
 40
0.0
 40
0.0
 40
0.0
 40
0.0
 40
0.8258884772615354
 40
0.9999999999999999
 40
0.9999999999999999
 40
0.9999999999999999
 40
0.9999999999999999
 10
868.4070592456382
 20
881.4293531074658
 30
0.0
 10
868.3096420604351
 20
881.4321880099612
 30
0.0
 10
868.1916876538957
 20
881.4356205587542
 30
0.0
 10
868.0934095252488
 20
881.5025221747469
 30
0.0
 10
868.0762981706183
 20
881.5141705169812
 30
0.0
  0
LINE
  5
225
330
1F
100
AcDbEntity
  8
0
  6
Continuous
 62
     7
370
    15
100
AcDbLine
 10
871.0866605573
 20
884.5934507742
 30
0.0
 11
871.0866605573
 21
882.4399349585
 31
0.0
  0
LINE
  5
226
330
1F
100
AcDbEntity
  8
0
  6
Continuous
 62
     7
370
    15
100
AcDbLine
 10
857.7638899618
 20
874.5934454098
 30
0.0
 11
895.0856959158
 21
874.5934454098
 31
0.0
  0
LINE
  5
227
330
1F
100
AcDbEntity
  8
0
  6
Continuous
 62
     7
370
    15
100
AcDbLine
 10
984.5691507392
 20
704.2186654478
 30
0.0
 11
984.5691507392
 21
664.2186654105
 31
0.0
  0
LINE
  5
228
330
1F
100
AcDbEntity
  8
0
  6
Continuous
 62
     7
370
    15
100
AcDbLine
 10
986.5691510671
 20
704.2186654478
 30
0.0
 11
986.5691510671
 21
664.2186654105
 31
0.0
  0
LINE
  5
229
330
1F
100
AcDbEntity
  8
0
  6
Continuous
 62
     7
370
    15
100
AcDbLine
 10
972.9691480928
 20
683.4186663225
 30
0.0
 11
972.9691480928
 21
684.2186649635
 31
0.0
  0
LINE
  5
22A
330
1F
100
AcDbEntity
  8
0
  6
Continuous
 62
     7
370
    15
100
AcDbLine
 10
984.5691507392
 20
684.2186649635
 30
0.0
 11
972.9691480928
 21
684.2186649635
 31
0.0
  0
LINE
  5
22B
330
1F
100
AcDbEntity
  8
0
  6
Continuous
 62
     7
370
    15
100
AcDbLine
 10
984.5691507392
 20
683.4186663225
 30
0.0
 11
972.9691480928
 21
683.4186663225
 31
0.0
  0
LINE
  5
22C
330
1F
100
AcDbEntity
  8
0
  6
Continuous
 62
     7
370
    15
100
AcDbLine
 10
972.9691480928
 20
684.2186649635
 30
0.0
 11
972.9691480928
 21
685.0186673298
 31
0.0
  0
LINE
  5
22D
330
1F
100
AcDbEntity
  8
0
  6
Continuous
 62
     7
370
    15
100
AcDbLine
 10
984.5691507392
 20
685.0186673298
 30
0.0
 11
972.9691480928
 21
685.0186673298
 31
0.0
  0
LINE
  5
22E
330
1F
100
AcDbEntity
  8
0
  6
Continuous
 62
     7
370
    15
100
AcDbLine
 10
984.5691507392
 20
682.531682153
 30
0.0
 11
972.9691480928
 21
682.531682153
 31
0.0
  0
LINE
  5
22F
330
1F
100
AcDbEntity
  8
0
  6
Continuous
 62
     7
370
    15
100
AcDbLine
 10
984.5691507392
 20
681.8129320934
 30
0.0
 11
972.9691480928
 21
681.8129320934
 31
0.0
  0
LINE
  5
230
330
1F
100
AcDbEntity
  8
0
  6
Continuous
 62
     7
370
    15
100
AcDbLine
 10
972.9691480928
 20
681.8129320934
 30
0.0
 11
972.9691480928
 21
682.531682153
 31
0.0
  0
LINE
  5
231
330
1F
100
AcDbEntity
  8
0
  6
Continuous
 62
     7
370
    15
100
AcDbLine
 10
984.5691507392
 20
683.4070843949
 30
0.0
 11
972.9691480928
 21
683.4070843949
 31
0.0
  0
LINE
  5
232
330
1F
100
AcDbEntity
  8
0
  6
Continuous
 62
     7
370
    15
100
AcDbLine
 10
972.9691480928
 20
682.531682153
 30
0.0
 11
972.9691480928
 21
683.4070843949
 31
0.0
  0
LINE
  5
233
330
1F
100
AcDbEntity
  8
0
  6
Continuous
 62
     7
370
    15
100
AcDbLine
 10
972.9691480928
 20
680.2247812345
 30
0.0
 11
972.9691480928
 21
680.8570263281
 31
0.0
  0
LINE
  5
234
330
1F
100
AcDbEntity
  8
0
  6
Continuous
 62
     7
370
    15
100
AcDbLine
 10
984.5691507392
 20
680.8570263281
 30
0.0
 11
972.9691480928
 21
680.8570263281
 31
0.0
  0
LINE
  5
235
330
1F
100
AcDbEntity
  8
0
  6
Continuous
 62
     7
370
    15
100
AcDbLine
 10
984.5691507392
 20
680.2247812345
 30
0.0
 11
972.9691480928
 21
680.2247812345
 31
0.0
  0
LINE
  5
236
330
1F
100
AcDbEntity
  8
0
  6
Continuous
 62
     7
370
    15
100
AcDbLine
 10
972.9691480928
 20
680.8570263281
 30
0.0
 11
972.9691480928
 21
681.8014321222
 31
0.0
  0
LINE
  5
237
330
1F
100
AcDbEntity
  8
0
  6
Continuous
 62
     7
370
    15
100
AcDbLine
 10
984.5691507392
 20
681.8014321222
 30
0.0
 11
972.9691480928
 21
681.8014321222
 31
0.0
  0
LINE
  5
238
330
1F
100
AcDbEntity
  8
0
  6
Continuous
 62
     7
370
    15
100
AcDbLine
 10
972.9691480928
 20
678.6658254757
 30
0.0
 11
972.9691480928
 21
679.2069462433
 31
0.0
  0
LINE
  5
239
330
1F
100
AcDbEntity
  8
0
  6
Continuous
 62
     7
370
    15
100
AcDbLine
 10
984.5691507392
 20
679.2069462433
 30
0.0
 11
972.9691480928
 21
679.2069462433
 31
0.0
  0
LINE
  5
23A
330
1F
100
AcDbEntity
  8
0
  6
Continuous
 62
     7
370
    15
100
AcDbLine
 10
984.5691507392
 20
678.6658254757
 30
0.0
 11
972.9691480928
 21
678.6658254757
 31
0.0
  0
LINE
  5
23B
330
1F
100
AcDbEntity
  8
0
  6
Continuous
 62
     7
370
    15
100
AcDbLine
 10
972.9691480928
 20
679.2069462433
 30
0.0
 11
972.9691480928
 21
680.2134526267
 31
0.0
  0
LINE
  5
23C
330
1F
100
AcDbEntity
  8
0
  6
Continuous
 62
     7
370
    15
100
AcDbLine
 10
984.5691507392
 20
680.2134526267
 30
0.0
 11
972.9691480928
 21
680.2134526267
 31
0.0
  0
LINE
  5
23D
330
1F
100
AcDbEntity
  8
0
  6
Continuous
 62
     7
370
    15
100
AcDbLine
 10
972.1691494518
 20
666.168664892
 30
0.0
 11
972.1691494518
 21
702.2686659663
 31
0.0
  0
LINE
  5
23E
330
1F
100
AcDbEntity
  8
0
  6
Continuous
 62
     7
370
    15
100
AcDbLine
 10
972.9691480928
 20
701.6920878857
 30
0.0
 11
972.9691480928
 21
685.0186673298
 31
0.0
  0
LINE
  5
23F
330
1F
100
AcDbEntity
  8
0
  6
Continuous
 62
     7
370
    15
100
AcDbLine
 10
972.9691480928
 20
683.4186663225
 30
0.0
 11
972.9691480928
 21
683.4070843949
 31
0.0
  0
LINE
  5
240
330
1F
100
AcDbEntity
  8
0
  6
Continuous
 62
     7
370
    15
100
AcDbLine
 10
972.9691480928
 20
681.8129320934
 30
0.0
 11
972.9691480928
 21
681.8014321222
 31
0.0
  0
LINE
  5
241
330
1F
100
AcDbEntity
  8
0
  6
Continuous
 62
     7
370
    15
100
AcDbLine
 10
972.9691480928
 20
680.2247812345
 30
0.0
 11
972.9691480928
 21
680.2134526267
 31
0.0
  0
LINE
  5
242
330
1F
100
AcDbEntity
  8
0
  6
Continuous
 62
     7
370
    15
100
AcDbLine
 10
972.9691480928
 20
678.6658254757
 30
0.0
 11
972.9691480928
 21
678.6547464624
 31
0.0
  0
LINE
  5
243
330
1F
100
AcDbEntity
  8
0
  6
Continuous
 62
     7
370
    15
100
AcDbLine
 10
972.9691480928
 20
677.1474530294
 30
0.0
 11
972.9691480928
 21
665.3856498494
 31
0.0
  0
LINE
  5
244
330
1F
100
AcDbEntity
  8
0
  6
Continuous
 62
     7
370
    15
100
AcDbLine
 10
984.5691507392
 20
701.6920878857
 30
0.0
 11
972.9691480928
 21
701.6920878857
 31
0.0
  0
LINE
  5
245
330
1F
100
AcDbEntity
  8
0
  6
Continuous
 62
     7
370
    15
100
AcDbLine
 10
972.9691480928
 20
677.1474530294
 30
0.0
 11
972.9691480928
 21
677.593496938
 31
0.0
  0
LINE
  5
246
330
1F
100
AcDbEntity
  8
0
  6
Continuous
 62
     7
370
    15
100
AcDbLine
 10
984.5691507392
 20
677.593496938
 30
0.0
 11
972.9691480928
 21
677.593496938
 31
0.0
  0
LINE
  5
247
330
1F
100
AcDbEntity
  8
0
  6
Continuous
 62
     7
370
    15
100
AcDbLine
 10
984.5691507392
 20
677.1474530294
 30
0.0
 11
972.9691480928
 21
677.1474530294
 31
0.0
  0
LINE
  5
248
330
1F
100
AcDbEntity
  8
0
  6
Continuous
 62
     7
370
    15
100
AcDbLine
 10
984.5691507392
 20
678.6547464624
 30
0.0
 11
972.9691480928
 21
678.6547464624
 31
0.0
  0
LINE
  5
249
330
1F
100
AcDbEntity
  8
0
  6
Continuous
 62
     7
370
    15
100
AcDbLine
 10
972.9691480928
 20
677.593496938
 30
0.0
 11
972.9691480928
 21
678.6547464624
 31
0.0
  0
LINE
  5
24A
330
1F
100
AcDbEntity
  8
0
  6
Continuous
 62
     7
370
    15
100
AcDbLine
 10
984.5691507392
 20
665.3856498494
 30
0.0
 11
972.9691480928
 21
665.3856498494
 31
0.0
  0
LINE
  5
24B
330
1F
100
AcDbEntity
  8
0
  6
Continuous
 62
     7
370
    15
100
AcDbLine
 10
972.9691480928
 20
701.6920878857
 30
0.0
 11
972.9691480928
 21
702.8243004649
 31
0.0
  0
LINE
  5
24C
330
1F
100
AcDbEntity
  8
0
  6
Continuous
 62
     7
370
    15
100
AcDbLine
 10
984.5691507392
 20
702.8243004649
 30
0.0
 11
972.9691480928
 21
702.8243004649
 31
0.0
  0
LINE
  5
24D
330
1F
100
AcDbEntity
  8
0
  6
Continuous
 62
     7
370
    15
100
AcDbLine
 10
972.9691480928
 20
702.8243004649
 30
0.0
 11
972.9691480928
 21
703.3222041398
 31
0.0
  0
LINE
  5
24E
330
1F
100
AcDbEntity
  8
0
  6
Continuous
 62
     7
370
    15
100
AcDbLine
 10
984.5691507392
 20
703.3222041398
 30
0.0
 11
972.9691480928
 21
703.3222041398
 31
0.0
  0
LINE
  5
24F
330
1F
100
AcDbEntity
  8
0
  6
Continuous
 62
     7
370
    15
100
AcDbLine
 10
972.9691480928
 20
703.3222041398
 30
0.0
 11
972.9691480928
 21
703.680471827
 31
0.0
  0
LINE
  5
250
330
1F
100
AcDbEntity
  8
0
  6
Continuous
 62
     7
370
    15
100
AcDbLine
 10
984.5691507392
 20
703.680471827
 30
0.0
 11
972.9691480928
 21
703.680471827
 31
0.0
  0
LINE
  5
251
330
1F
100
AcDbEntity
  8
0
  6
Continuous
 62
     7
370
    15
100
AcDbLine
 10
972.9691480928
 20
703.680471827
 30
0.0
 11
972.9691480928
 21
703.896485579
 31
0.0
  0
LINE
  5
252
330
1F
100
AcDbEntity
  8
0
  6
Continuous
 62
     7
370
    15
100
AcDbLine
 10
984.5691507392
 20
703.896485579
 30
0.0
 11
972.9691480928
 21
703.896485579
 31
0.0
  0
LINE
  5
253
330
1F
100
AcDbEntity
  8
0
  6
Continuous
 62
     7
370
    15
100
AcDbLine
 10
972.9691480928
 20
703.896485579
 30
0.0
 11
972.9691480928
 21
703.9686658725
 31
0.0
  0
LINE
  5
254
330
1F
100
AcDbEntity
  8
0
  6
Continuous
 62
     7
370
    15
100
AcDbLine
 10
984.5691507392
 20
703.9686658725
 30
0.0
 11
972.9691480928
 21
703.9686658725
 31
0.0
  0
LINE
  5
255
330
1F
100
AcDbEntity
  8
0
  6
Continuous
 62
     7
370
    15
100
AcDbLine
 10
972.9691480928
 20
664.4686659172
 30
0.0
 11
972.9691480928
 21
665.3856498494
 31
0.0
  0
LINE
  5
256
330
1F
100
AcDbEntity
  8
0
  6
Continuous
 62
     7
370
    15
100
AcDbLine
 10
984.5691507392
 20
664.4686659172
 30
0.0
 11
972.9691480928
 21
664.4686659172
 31
0.0
  0
SPLINE
  5
257
330
1F
100
AcDbEntity
  8
0
  6
Continuous
 62
     7
370
    15
100
AcDbSpline
210
0.0
220
0.0
230
1.0
 70
     8
 71
     3
 72
    11
 73
     7
 74
     0
 42
0.000000001
 43
0.00000001
 40
0.0
 40
0.0
 40
0.0
 40
0.0
 40
0.1310821998395348
 40
0.4457888360718867
 40
0.771021164714388
 40
1.0
 40
1.0
 40
1.0
 40
1.0
 10
990.2493653529208
 20
696.818665911211
 30
0.0
 10
990.1856187954626
 20
696.9895467422496
 30
0.0
 10
989.9688273189107
 20
697.5706841267984
 30
0.0
 10
989.668354758746
 20
698.3231853028312
 30
0.0
 10
989.4477511232805
 20
698.8542853735734
 30
0.0
 10
989.4379095772676
 20
698.8773886550078
 30
0.0
 10
989.433843427233
 20
698.886934046401
 30
0.0
  0
LINE
  5
258
330
1F
100
AcDbEntity
  8
0
  6
Continuous
 62
     7
370
    15
100
AcDbLine
 10
989.4205515914
 20
700.8186647042
 30
0.0
 11
1059.4205518895
 21
700.8186647042
 31
0.0
  0
SPLINE
  5
259
330
1F
100
AcDbEntity
  8
0
  6
Continuous
 62
     7
370
    15
100
AcDbSpline
210
0.0
220
0.0
230
1.0
 70
     8
 71
     3
 72
    12
 73
     8
 74
     0
 42
0.000000001
 43
0.00000001
 40
0.0
 40
0.0
 40
0.0
 40
0.0
 40
0.2396124772860085
 40
0.496435165316542
 40
0.7277937287929264
 40
0.9345444013061511
 40
1.0
 40
1.0
 40
1.0
 40
1.0
 10
990.2493653529208
 20
696.818665911211
 30
0.0
 10
990.4223138133016
 20
696.4111250206386
 30
0.0
 10
990.7806327893954
 20
695.5667715392334
 30
0.0
 10
991.8788999843899
 20
694.1128368156716
 30
0.0
 10
993.4172189295148
 20
692.8675470741541
 30
0.0
 10
994.826537231246
 20
692.2060160245015
 30
0.0
 10
995.6511625049043
 20
692.0084354723155
 30
0.0
 10
995.8494545602124
 20
691.9609246149197
 30
0.0
  0
SPLINE
  5
25A
330
1F
100
AcDbEntity
  8
0
  6
Continuous
 62
     7
370
    15
100
AcDbSpline
210
0.0
220
0.0
230
1.0
 70
     8
 71
     3
 72
    13
 73
     9
 74
     0
 42
0.000000001
 43
0.00000001
 40
0.0
 40
0.0
 40
0.0
 40
0.0
 40
0.038295834766287
 40
0.0942130424527693
 40
0.1941117158674648
 40
0.3948900415633834
 40
0.8044034255178242
 40
1.0
 40
1.0
 40
1.0
 40
1.0
 10
994.338711508445
 20
670.8194067075386
 30
0.0
 10
994.2509506497057
 20
670.81306371838
 30
0.0
 10
994.0350468168072
 20
670.797459089038
 30
0.0
 10
993.6591412076905
 20
670.6897303301412
 30
0.0
 10
993.1435854311258
 20
670.4412832771709
 30
0.0
 10
992.5436610945475
 20
669.9419127827633
 30
0.0
 10
992.3030147481419
 20
669.5500844127438
 30
0.0
 10
992.3031996783874
 20
669.5505830235833
 30
0.0
 10
992.3032594554942
 20
669.5507441952362
 30
0.0
  0
LINE
  5
25B
330
1F
100
AcDbEntity
  8
0
  6
Continuous
 62
     7
370
    15
100
AcDbLine
 10
1024.4205511147
 20
667.8186667457
 30
0.0
 11
992.2705514067
 21
667.8186667457
 31
0.0
  0
LINE
  5
25C
330
1F
100
AcDbEntity
  8
0
  6
Continuous
 62
     7
370
    15
100
AcDbLine
 10
1056.5705520742
 20
667.8186667457
 30
0.0
 11
1024.4205511147
 21
667.8186667457
 31
0.0
  0
SPLINE
  5
25D
330
1F
100
AcDbEntity
  8
0
  6
Continuous
 62
     7
370
    15
100
AcDbSpline
210
0.0
220
0.0
230
1.0
 70
     8
 71
     3
 72
    11
 73
     7
 74
     0
 42
0.000000001
 43
0.00000001
 40
0.0
 40
0.0
 40
0.0
 40
0.0
 40
0.21517160548634
 40
0.4926926409403727
 40
0.7789725382083538
 40
1.0
 40
1.0
 40
1.0
 40
1.0
 10
1000.643852882914
 20
687.5889574482575
 30
0.0
 10
1000.510948939298
 20
688.0676509293024
 30
0.0
 10
1000.206629998964
 20
689.1637470189511
 30
0.0
 10
998.9804527127314
 20
690.4876720235792
 30
0.0
 10
997.4880879447292
 20
691.4912684664146
 30
0.0
 10
996.3467299443049
 20
691.8183982610408
 30
0.0
 10
995.8494545602124
 20
691.9609246149197
 30
0.0
  0
SPLINE
  5
25E
330
1F
100
AcDbEntity
  8
0
  6
Continuous
 62
     7
370
    15
100
AcDbSpline
210
0.0
220
0.0
230
1.0
 70
     8
 71
     3
 72
    11
 73
     7
 74
     0
 42
0.000000001
 43
0.00000001
 40
0.0
 40
0.0
 40
0.0
 40
0.0
 40
0.0838478658269167
 40
0.2206385218830452
 40
0.6164891405863014
 40
1.0
 40
1.0
 40
1.0
 40
1.0
 10
994.338711508445
 20
670.8194067075386
 30
0.0
 10
994.535527831016
 20
670.834936982612
 30
0.0
 10
995.053433231067
 20
670.8758035795472
 30
0.0
 10
996.242605009789
 20
671.2676479709132
 30
0.0
 10
997.6316275765503
 20
672.1062238585724
 30
0.0
 10
998.3400250123467
 20
673.2539077785924
 30
0.0
 10
998.6886156433146
 20
673.8186640038624
 30
0.0
  0
SPLINE
  5
25F
330
1F
100
AcDbEntity
  8
0
  6
Continuous
 62
     7
370
    15
100
AcDbSpline
210
0.0
220
0.0
230
1.0
 70
     8
 71
     3
 72
    13
 73
     9
 74
     0
 42
0.000000001
 43
0.00000001
 40
0.0
 40
0.0
 40
0.0
 40
0.0
 40
0.1922764792000182
 40
0.3681832922863691
 40
0.5439216937241727
 40
0.7053361313173719
 40
0.8666980019870402
 40
0.9999999999999999
 40
0.9999999999999999
 40
0.9999999999999999
 40
0.9999999999999999
 10
998.6886156433146
 20
673.8186640038624
 30
0.0
 10
998.9589718538441
 20
674.517095195263
 30
0.0
 10
999.4766672063749
 20
675.8544958828318
 30
0.0
 10
1000.164993489608
 20
678.2191298105176
 30
0.0
 10
1000.658640548799
 20
680.6428066136083
 30
0.0
 10
1000.895301177095
 20
683.1407276742281
 30
0.0
 10
1000.895348407092
 20
685.4711365230831
 30
0.0
 10
1000.7221882327
 20
686.9293025955487
 30
0.0
 10
1000.643852882914
 20
687.5889574482575
 30
0.0
  0
LINE
  5
260
330
1F
100
AcDbEntity
  8
0
  6
Continuous
 62
     7
370
    15
100
AcDbLine
 10
986.5691510671
 20
700.0471738472
 30
0.0
 11
987.0205519431
 21
698.9186660692
 31
0.0
  0
LINE
  5
261
330
1F
100
AcDbEntity
  8
0
  6
Continuous
 62
     7
370
    15
100
AcDbLine
 10
987.0205519431
 20
698.9186660692
 30
0.0
 11
986.5691510671
 21
698.9186660692
 31
0.0
  0
LINE
  5
262
330
1F
100
AcDbEntity
  8
0
  6
Continuous
 62
     7
370
    15
100
AcDbLine
 10
989.4205515914
 20
708.9186658456
 30
0.0
 11
1059.4205518895
 21
708.9186658456
 31
0.0
  0
LINE
  5
263
330
1F
100
AcDbEntity
  8
0
  6
Continuous
 62
     7
370
    15
100
AcDbLine
 10
989.4205515914
 20
709.1186655059
 30
0.0
 11
1059.4205518895
 21
709.1186655059
 31
0.0
  0
LINE
  5
264
330
1F
100
AcDbEntity
  8
0
  6
Continuous
 62
     7
370
    15
100
AcDbLine
 10
989.4205515914
 20
705.3186654418
 30
0.0
 11
1059.4205518895
 21
705.3186654418
 31
0.0
  0
LINE
  5
265
330
1F
100
AcDbEntity
  8
0
  6
Continuous
 62
     7
370
    15
100
AcDbLine
 10
989.4205515914
 20
705.5186660334
 30
0.0
 11
1059.4205518895
 21
705.5186660334
 31
0.0
  0
LINE
  5
266
330
1F
100
AcDbEntity
  8
0
  6
Continuous
 62
     7
370
    15
100
AcDbLine
 10
989.4205515914
 20
707.1186651781
 30
0.0
 11
1059.4205518895
 21
707.1186651781
 31
0.0
  0
LINE
  5
267
330
1F
100
AcDbEntity
  8
0
  6
Continuous
 62
     7
370
    15
100
AcDbLine
 10
989.4205515914
 20
707.3186657697
 30
0.0
 11
1059.4205518895
 21
707.3186657697
 31
0.0
  0
LINE
  5
268
330
1F
100
AcDbEntity
  8
0
  6
Continuous
 62
     7
370
    15
100
AcDbLine
 10
989.4205515914
 20
703.5186657056
 30
0.0
 11
1059.4205518895
 21
703.5186657056
 31
0.0
  0
LINE
  5
269
330
1F
100
AcDbEntity
  8
0
  6
Continuous
 62
     7
370
    15
100
AcDbLine
 10
989.4205515914
 20
703.7186653658
 30
0.0
 11
1059.4205518895
 21
703.7186653658
 31
0.0
  0
LINE
  5
26A
330
1F
100
AcDbEntity
  8
0
  6
Continuous
 62
     7
370
    15
100
AcDbLine
 10
989.4205515914
 20
713.8186656709
 30
0.0
 11
1059.4205518895
 21
713.8186656709
 31
0.0
  0
LINE
  5
26B
330
1F
100
AcDbEntity
  8
0
  6
Continuous
 62
     7
370
    15
100
AcDbLine
 10
930.0038924151
 20
824.59344839
 30
0.0
 11
930.0038924151
 21
857.1325776472
 31
0.0
  0
SPLINE
  5
26C
330
1F
100
AcDbEntity
  8
0
  6
Continuous
 62
     7
370
    15
100
AcDbSpline
210
0.0
220
0.0
230
1.0
 70
     8
 71
     3
 72
     9
 73
     5
 74
     0
 42
0.000000001
 43
0.00000001
 40
0.0
 40
0.0
 40
0.0
 40
0.0
 40
0.5141675698266607
 40
1.0
 40
1.0
 40
1.0
 40
1.0
 10
909.8499303393882
 20
843.50086127664
 30
0.0
 10
909.8956510516779
 20
843.6161517467363
 30
0.0
 10
909.9845728642792
 20
843.8403791715331
 30
0.0
 10
910.0596967566593
 20
844.0298271820517
 30
0.0
 10
910.0961943798583
 20
844.1218671693936
 30
0.0
  0
ARC
  5
26D
330
1F
100
AcDbEntity
  8
0
  6
Continuous
 62
     7
370
    15
100
AcDbCircle
 10
912.6204986577
 20
842.3508861278
 30
0.0
 40
3.083583294895673
100
AcDbArc
 50
67.2186289884
 51
144.9475778862
  0
SPLINE
  5
26E
330
1F
100
AcDbEntity
  8
0
  6
Continuous
 62
     7
370
    15
100
AcDbSpline
210
0.0
220
0.0
230
1.0
 70
     8
 71
     3
 72
     9
 73
     5
 74
     0
 42
0.000000001
 43
0.00000001
 40
0.0
 40
0.0
 40
0.0
 40
0.0
 40
0.4872165674163033
 40
1.0
 40
1.0
 40
1.0
 40
1.0
 10
913.8145109348815
 20
845.1939163103237
 30
0.0
 10
913.7123293257416
 20
844.7260209735296
 30
0.0
 10
913.5026040906546
 20
843.7656773233219
 30
0.0
 10
913.2312588733232
 20
842.6159319521917
 30
0.0
 10
913.0921175413649
 20
842.0263615741864
 30
0.0
  0
ARC
  5
26F
330
1F
100
AcDbEntity
  8
0
  6
Continuous
 62
     7
370
    15
100
AcDbCircle
 10
919.4978652092
 20
860.4133416972
 30
0.0
 40
19.47086647352706
100
AcDbArc
 50
240.2968653567
 51
250.792430836
  0
LINE
  5
270
330
1F
100
AcDbEntity
  8
0
  6
Continuous
 62
     7
370
    15
100
AcDbLine
 10
914.1038914853
 20
845.1794025793
 30
0.0
 11
914.1038914853
 21
841.9962165251
 31
0.0
  0
ELLIPSE
  5
271
330
1F
100
AcDbEntity
  8
0
  6
Continuous
 62
     7
370
    15
100
AcDbEllipse
 10
914.1038888889
 20
846.2357934847
 30
0.0
 11
8.5
 21
0.0
 31
0.0
210
0.0
220
0.0
230
1.0
 40
0.4987736341
 41
4.59307401900251
 42
4.712388980384697
  0
ELLIPSE
  5
272
330
1F
100
AcDbEntity
  8
0
  6
Continuous
 62
     7
370
    15
100
AcDbEllipse
 10
914.1038888889
 20
849.4189797455
 30
0.0
 11
0.0
 21
4.239575889438697
 31
0.0
210
0.0
220
0.0
230
1.0
 40
0.8255542751
 41
3.058817830944677
 42
3.141592653589793
  0
LINE
  5
273
330
1F
100
AcDbEntity
  8
0
  6
Continuous
 62
     7
370
    15
100
AcDbLine
 10
905.6038891607
 20
805.2934495106
 30
0.0
 11
905.6038891607
 21
823.793449749
 31
0.0
  0
LINE
  5
274
330
1F
100
AcDbEntity
  8
0
  6
Continuous
 62
     7
370
    15
100
AcDbLine
 10
905.6038891607
 20
823.793449749
 30
0.0
 11
905.6038891607
 21
832.0292917385
 31
0.0
  0
LWPOLYLINE
  5
275
330
1F
100
AcDbEntity
  8
0
  6
Continuous
 62
     7
370
    15
100
AcDbPolyline
 90
       10
 70
   128
 43
0.0
 10
913.0921175414
 20
842.0263615742
 10
911.7500444584
 20
840.2346385017
 10
910.4690586858
 20
838.5244769349
 10
909.2824121647
 20
836.940252532
 10
908.2208981448
 20
835.5230924978
 10
907.312068873
 20
834.3097728982
 10
906.5795054369
 20
833.3317798867
 10
906.0422366195
 20
832.6144975915
 10
905.7141950064
 20
832.1765450134
 10
905.6038891607
 20
832.0292917385
  0
ELLIPSE
  5
276
330
1F
100
AcDbEntity
  8
0
  6
Continuous
 62
     7
370
    15
100
AcDbEllipse
 10
914.1038888889
 20
846.2357934847
 30
0.0
 11
8.5
 21
0.0
 31
0.0
210
0.0
220
0.0
230
1.0
 40
0.4987736341
 41
4.712388980384697
 42
5.884577896435467
  0
SPLINE
  5
277
330
1F
100
AcDbEntity
  8
0
  6
Continuous
 62
     7
370
    15
100
AcDbSpline
210
0.0
220
0.0
230
1.0
 70
     8
 71
     3
 72
    11
 73
     7
 74
     0
 42
0.000000001
 43
0.00000001
 40
0.0
 40
0.0
 40
0.0
 40
0.0
 40
0.2540909705856131
 40
0.5159662847205468
 40
0.7549998621754668
 40
1.0
 40
1.0
 40
1.0
 40
1.0
 10
922.6038863592665
 20
833.362647642149
 30
0.0
 10
922.5705925022233
 20
834.2213283119734
 30
0.0
 10
922.5029847958851
 20
835.9649962351175
 30
0.0
 10
922.1965375540018
 20
838.7891349932843
 30
0.0
 10
921.9624138125284
 20
841.6899420431668
 30
0.0
 10
921.9458768403099
 20
843.6155819038693
 30
0.0
 10
921.9375064306777
 20
844.590270270361
 30
0.0
  0
LINE
  5
278
330
1F
100
AcDbEntity
  8
0
  6
Continuous
 62
     7
370
    15
100
AcDbLine
 10
922.6038863593
 20
833.3626476421
 30
0.0
 11
922.6038863593
 21
823.793449749
 31
0.0
  0
LINE
  5
279
330
1F
100
AcDbEntity
  8
0
  6
Continuous
 62
     7
370
    15
100
AcDbLine
 10
922.6038863593
 20
823.793449749
 30
0.0
 11
922.6038863593
 21
805.2934495106
 31
0.0
  0
ELLIPSE
  5
27A
330
1F
100
AcDbEntity
  8
0
  6
Continuous
 62
     7
370
    15
100
AcDbEllipse
 10
914.1038888889
 20
849.4189797455
 30
0.0
 11
0.0
 21
4.239575889438697
 31
0.0
210
0.0
220
0.0
230
1.0
 40
0.8255542751
 41
3.141592653589793
 42
4.35318637292162
  0
ARC
  5
27B
330
1F
100
AcDbEntity
  8
0
  6
Continuous
 62
     7
370
    15
100
AcDbCircle
 10
916.4899410894
 20
841.5130720961
 30
0.0
 40
6.477096074500118
100
AcDbArc
 50
32.7573034409
 51
82.0970957281
  0
LINE
  5
27C
330
1F
100
AcDbEntity
  8
0
  6
Continuous
 62
     7
370
    15
100
AcDbLine
 10
921.9375064307
 20
844.5902702704
 30
0.0
 11
921.93698489
 21
845.0177100792
 31
0.0
  0
LWPOLYLINE
  5
27D
330
1F
100
AcDbEntity
  8
0
  6
Continuous
 62
     7
370
    15
100
AcDbPolyline
 90
        9
 70
   128
 43
0.0
 10
905.8855807119
 20
833.503791441
 10
905.9594383174
 20
833.6900559559
 10
906.1786120468
 20
834.2427400246
 10
906.5358822876
 20
835.1437014833
 10
907.0195441776
 20
836.3633540764
 10
907.6136981779
 20
837.8616658344
 10
908.2988535696
 20
839.5894405737
 10
909.0525095993
 20
841.4899719253
 10
909.8499303394
 20
843.5008612766
  0
ARC
  5
27E
330
1F
100
AcDbEntity
  8
0
  6
Continuous
 62
     7
370
    15
100
AcDbCircle
 10
909.6038888889
 20
832.0292883481
 30
0.0
 40
4.000000000000028
100
AcDbArc
 50
158.3691131635
 51
180.0
  0
SPLINE
  5
27F
330
1F
100
AcDbEntity
  8
0
  6
Continuous
 62
     7
370
    15
100
AcDbSpline
210
0.0
220
0.0
230
1.0
 70
     8
 71
     3
 72
     9
 73
     5
 74
     0
 42
0.000000001
 43
0.00000001
 40
0.0
 40
0.0
 40
0.0
 40
0.0
 40
0.9849028262133184
 40
1.0
 40
1.0
 40
1.0
 40
1.0
 10
921.8130370312255
 20
854.3856677904263
 30
0.0
 10
922.0722982762961
 20
854.7063610978113
 30
0.0
 10
922.3355336312675
 20
855.0319701821287
 30
0.0
 10
922.5998952460259
 20
855.3570248602368
 30
0.0
 10
922.6038863592665
 20
855.3619322672024
 30
0.0
  0
SPLINE
  5
280
330
1F
100
AcDbEntity
  8
0
  6
Continuous
 62
     7
370
    15
100
AcDbSpline
210
0.0
220
0.0
230
1.0
 70
     8
 71
     3
 72
    10
 73
     6
 74
     0
 42
0.000000001
 43
0.00000001
 40
0.0
 40
0.0
 40
0.0
 40
0.0
 40
0.426193431994148
 40
0.7128258040900248
 40
1.0
 40
1.0
 40
1.0
 40
1.0
 10
917.3805078201812
 20
847.9286519184246
 30
0.0
 10
917.8201011067375
 20
848.9203747775751
 30
0.0
 10
918.5553387111651
 20
850.5790714900064
 30
0.0
 10
920.3192813481329
 20
852.6252408474586
 30
0.0
 10
921.3148051250595
 20
853.7984895246707
 30
0.0
 10
921.8130370312255
 20
854.3856677904263
 30
0.0
  0
LINE
  5
281
330
1F
100
AcDbEntity
  8
0
  6
Continuous
 62
     7
370
    15
100
AcDbLine
 10
917.8466459446
 20
855.3619322672
 30
0.0
 11
913.8145109349
 21
845.1939163103
 31
0.0
  0
LINE
  5
282
330
1F
100
AcDbEntity
  8
0
  6
Continuous
 62
     7
370
    15
100
AcDbLine
 10
922.6038863593
 20
855.3619322672
 30
0.0
 11
917.8466459446
 21
855.3619322672
 31
0.0
  0
LINE
  5
283
330
1F
100
AcDbEntity
  8
0
  6
Continuous
 62
     7
370
    15
100
AcDbLine
 10
910.0961943799
 20
844.1218671694
 30
0.0
 11
914.1283368402
 21
854.2898831263
 31
0.0
  0
ARC
  5
284
330
1F
100
AcDbEntity
  8
0
  6
Continuous
 62
     7
370
    15
100
AcDbCircle
 10
916.6526580268
 20
852.51883514
 30
0.0
 40
3.08363558524177
100
AcDbArc
 50
67.2195279376
 51
144.9467400574
  0
LINE
  5
285
330
1F
100
AcDbEntity
  8
0
  6
Continuous
 62
     7
370
    15
100
AcDbLine
 10
926.2038876944
 20
823.5934463635
 30
0.0
 11
926.2038876944
 21
857.0934471979
 31
0.0
  0
LINE
  5
286
330
1F
100
AcDbEntity
  8
0
  6
Continuous
 62
     7
370
    15
100
AcDbLine
 10
929.403889709
 20
857.0934471979
 30
0.0
 11
929.403889709
 21
823.0934453502
 31
0.0
  0
ARC
  5
287
330
1F
100
AcDbEntity
  8
0
  6
Continuous
 62
     7
370
    15
100
AcDbCircle
 10
918.2429473149
 20
846.9308627258
 30
0.0
 40
8.26557070833038
100
AcDbArc
 50
58.4565186851
 51
64.4103423361
  0
SPLINE
  5
288
330
1F
100
AcDbEntity
  8
0
  6
Continuous
 62
     7
370
    15
100
AcDbSpline
210
0.0
220
0.0
230
1.0
 70
     8
 71
     3
 72
    10
 73
     6
 74
     0
 42
0.000000001
 43
0.00000001
 40
0.0
 40
0.0
 40
0.0
 40
0.0
 40
0.3393972336513558
 40
0.6883159826127149
 40
1.0
 40
1.0
 40
1.0
 40
1.0
 10
921.9369848900359
 20
845.0177100792065
 30
0.0
 10
921.9701847999895
 20
846.0952429416944
 30
0.0
 10
922.0375160165602
 20
848.2805379809665
 30
0.0
 10
922.4144784260088
 20
851.3098856449149
 30
0.0
 10
922.5181358434257
 20
853.1207453188499
 30
0.0
 10
922.5670432382148
 20
853.9751407995358
 30
0.0
  0
ARC
  5
289
330
1F
100
AcDbEntity
  8
0
  6
Continuous
 62
     7
370
    15
100
AcDbCircle
 10
922.4406304512
 20
853.7905016074
 30
0.0
 40
9.213977991887345
100
AcDbArc
 50
266.8698397718
 51
269.7368351389
  0
SPLINE
  5
28A
330
1F
100
AcDbEntity
  8
0
  6
Continuous
 62
     7
370
    15
100
AcDbSpline
210
0.0
220
0.0
230
1.0
 70
     8
 71
     3
 72
    11
 73
     7
 74
     0
 42
0.000000001
 43
0.00000001
 40
0.0
 40
0.0
 40
0.0
 40
0.0
 40
0.237337445260288
 40
0.4815638680891028
 40
0.7368864425177395
 40
1.0
 40
1.0
 40
1.0
 40
1.0
 10
922.3983099394362
 20
844.5766208067074
 30
0.0
 10
922.4064986434029
 20
843.6521174779832
 30
0.0
 10
922.4231137373781
 20
841.7762761055719
 30
0.0
 10
922.6685203740269
 20
838.9759599389474
 30
0.0
 10
922.9945126850712
 20
836.2027718556562
 30
0.0
 10
923.067065704633
 20
834.5143498822621
 30
0.0
 10
923.1038873725455
 20
833.6574522152081
 30
0.0
  0
LWPOLYLINE
  5
28B
330
1F
100
AcDbEntity
  8
0
  6
Continuous
 62
     7
370
    15
100
AcDbPolyline
 90
        9
 70
   128
 43
0.0
 10
922.6038863593
 20
833.3626476421
 10
922.6134976082
 20
833.4201661244
 10
922.6419513755
 20
833.4754643335
 10
922.6881524258
 20
833.5264337554
 10
922.7503349715
 20
833.5711074367
 10
922.8261073762
 20
833.6077717438
 10
922.9125490122
 20
833.6350110665
 10
923.0063443714
 20
833.651789774
 10
923.1038873725
 20
833.6574522152
  0
ARC
  5
28C
330
1F
100
AcDbEntity
  8
0
  6
Continuous
 62
     7
370
    15
100
AcDbCircle
 10
922.6259688827
 20
854.8545767118
 30
0.0
 40
0.8814078257475046
100
AcDbArc
 50
266.1666884904
 51
271.0709672131
  0
SPLINE
  5
28D
330
1F
100
AcDbEntity
  8
0
  6
Continuous
 62
     7
370
    15
100
AcDbSpline
210
0.0
220
0.0
230
1.0
 70
     8
 71
     3
 72
    11
 73
     7
 74
     0
 42
0.000000001
 43
0.00000001
 40
0.0
 40
0.0
 40
0.0
 40
0.0
 40
0.2096745166897195
 40
0.5164787808902569
 40
0.83205659059603
 40
1.0
 40
1.0
 40
1.0
 40
1.0
 10
922.6424431138556
 20
853.9733228578701
 30
0.0
 10
922.6426760147162
 20
853.4064319515714
 30
0.0
 10
922.6432497055707
 20
852.0100432592051
 30
0.0
 10
922.473406146721
 20
849.5469326621479
 30
0.0
 10
922.3500178591702
 20
847.0882238276878
 30
0.0
 10
922.381646790498
 20
845.5522826253
 30
0.0
 10
922.3926325970214
 20
845.0187978639736
 30
0.0
  0
ARC
  5
28E
330
1F
100
AcDbEntity
  8
0
  6
Continuous
 62
     7
370
    15
100
AcDbCircle
 10
922.1529499868
 20
849.9856109892
 30
0.0
 40
4.972592922646078
100
AcDbArc
 50
267.5107992698
 51
272.7627689137
  0
LINE
  5
28F
330
1F
100
AcDbEntity
  8
0
  6
Continuous
 62
     7
370
    15
100
AcDbLine
 10
922.392632597
 20
845.018797864
 30
0.0
 11
922.3983099394
 21
844.5766208067
 31
0.0
  0
SPLINE
  5
290
330
1F
100
AcDbEntity
  8
0
  6
Continuous
 62
     7
370
    15
100
AcDbSpline
210
0.0
220
0.0
230
1.0
 70
     8
 71
     3
 72
    12
 73
     8
 74
     0
 42
0.000000001
 43
0.00000001
 40
0.0
 40
0.0
 40
0.0
 40
0.0
 40
0.0175894817598326
 40
0.0371217347290737
 40
0.1166415572449258
 40
0.434761935340372
 40
1.0
 40
1.0
 40
1.0
 40
1.0
 10
922.6038863592665
 20
855.3619322672024
 30
0.0
 10
922.6041129731548
 20
855.3540915541846
 30
0.0
 10
922.6045912306021
 20
855.3375441156242
 30
0.0
 10
922.6060682461931
 20
855.2854547159162
 30
0.0
 10
922.6114362025723
 20
855.0984110051804
 30
0.0
 10
922.6237135423952
 20
854.6607093460234
 30
0.0
 10
922.6351348905719
 20
854.241539028659
 30
0.0
 10
922.6424431138556
 20
853.9733228578701
 30
0.0
  0
LINE
  5
291
330
1F
100
AcDbEntity
  8
0
  6
Continuous
 62
     7
370
    15
100
AcDbLine
 10
905.6038891607
 20
823.793449749
 30
0.0
 11
905.2124803596
 21
823.793449749
 31
0.0
  0
LINE
  5
292
330
1F
100
AcDbEntity
  8
0
  6
Continuous
 62
     7
370
    15
100
AcDbLine
 10
922.9952951603
 20
823.793449749
 30
0.0
 11
922.6038863593
 21
823.793449749
 31
0.0
  0
SPLINE
  5
293
330
1F
100
AcDbEntity
  8
0
  6
Continuous
 62
     7
370
    15
100
AcDbSpline
210
0.0
220
0.0
230
1.0
 70
     8
 71
     3
 72
     9
 73
     5
 74
     0
 42
0.000000001
 43
0.00000001
 40
0.0
 40
0.0
 40
0.0
 40
0.0
 40
0.9823569031462132
 40
1.0
 40
1.0
 40
1.0
 40
1.0
 10
922.5670432382148
 20
853.9751407995358
 30
0.0
 10
922.5791251590609
 20
854.4374100646608
 30
0.0
 10
922.5914240707981
 20
854.9079816701991
 30
0.0
 10
922.6036702978957
 20
855.3540620282408
 30
0.0
 10
922.6038863592665
 20
855.3619322672024
 30
0.0
  0
LWPOLYLINE
  5
294
330
1F
100
AcDbEntity
  8
0
  6
Continuous
 62
     7
370
    15
100
AcDbPolyline
 90
        3
 70
   128
 43
0.0
 10
914.1283368402
 20
854.2898831263
 10
914.7520621949
 20
855.8627602949
 10
915.2560567194
 20
857.1336952343
  0
LINE
  5
295
330
1F
100
AcDbEntity
  8
0
  6
Continuous
 62
     7
370
    15
100
AcDbLine
 10
924.6038904124
 20
805.2934495106
 30
0.0
 11
924.6038904124
 21
729.7934464484
 31
0.0
  0
LINE
  5
296
330
1F
100
AcDbEntity
  8
0
  6
Continuous
 62
     7
370
    15
100
AcDbLine
 10
903.6038925581
 20
729.7934464484
 30
0.0
 11
924.6038904124
 21
729.7934464484
 31
0.0
  0
LINE
  5
297
330
1F
100
AcDbEntity
  8
0
  6
Continuous
 62
     7
370
    15
100
AcDbLine
 10
903.6038925581
 20
805.2934495106
 30
0.0
 11
903.6038925581
 21
729.7934464484
 31
0.0
  0
LINE
  5
298
330
1F
100
AcDbEntity
  8
0
  6
Continuous
 62
     7
370
    15
100
AcDbLine
 10
903.6038925581
 20
805.2934495106
 30
0.0
 11
924.6038904124
 21
805.2934495106
 31
0.0
  0
ARC
  5
299
330
1F
100
AcDbEntity
  8
0
  6
Continuous
 62
     7
370
    15
100
AcDbCircle
 10
918.6038888889
 20
729.7934466019
 30
0.0
 40
6.0
100
AcDbArc
 50
270.0
 51
0.0
  0
LINE
  5
29A
330
1F
100
AcDbEntity
  8
0
  6
Continuous
 62
     7
370
    15
100
AcDbLine
 10
918.6038857036
 20
723.7934463962
 30
0.0
 11
909.6038898163
 21
723.7934463962
 31
0.0
  0
ARC
  5
29B
330
1F
100
AcDbEntity
  8
0
  6
Continuous
 62
     7
370
    15
100
AcDbCircle
 10
909.6038888889
 20
729.7934466019
 30
0.0
 40
6.0
100
AcDbArc
 50
180.0
 51
270.0
  0
LINE
  5
29C
330
1F
100
AcDbEntity
  8
0
  6
Continuous
 62
     7
370
    15
100
AcDbLine
 10
924.6038904124
 20
729.7934464484
 30
0.0
 11
924.7127359443
 21
729.7934464484
 31
0.0
  0
SPLINE
  5
29D
330
1F
100
AcDbEntity
  8
0
  6
Continuous
 62
     7
370
    15
100
AcDbSpline
210
0.0
220
0.0
230
1.0
 70
     8
 71
     3
 72
    12
 73
     8
 74
     0
 42
0.000000001
 43
0.00000001
 40
0.0
 40
0.0
 40
0.0
 40
0.0
 40
0.19977941226671
 40
0.3984753244950986
 40
0.609612635799276
 40
0.8324600280418234
 40
1.0
 40
1.0
 40
1.0
 40
1.0
 10
924.7127359443228
 20
729.7934464483991
 30
0.0
 10
924.6527097778462
 20
729.1392860783195
 30
0.0
 10
924.5329829957241
 20
727.8345131651262
 30
0.0
 10
923.6066661366149
 20
726.067695751022
 30
0.0
 10
922.1876637328119
 20
724.6348450068426
 30
0.0
 10
920.4180471001116
 20
723.7409595060839
 30
0.0
 10
919.1439004452109
 20
723.6377433383678
 30
0.0
 10
918.5970833235305
 20
723.5934467359915
 30
0.0
  0
ARC
  5
29E
330
1F
100
AcDbEntity
  8
0
  6
Continuous
 62
     7
370
    15
100
AcDbCircle
 10
920.0746870203
 20
723.6433060521
 30
0.0
 40
1.478444667958506
100
AcDbArc
 50
174.171399593
 51
181.9326189356
  0
LINE
  5
29F
330
1F
100
AcDbEntity
  8
0
  6
Continuous
 62
     7
370
    15
100
AcDbLine
 10
918.5970833235
 20
723.593446736
 30
0.0
 11
909.7195377284
 21
723.593446736
 31
0.0
  0
LWPOLYLINE
  5
2A0
330
1F
100
AcDbEntity
  8
0
  6
Continuous
 62
     7
370
    15
100
AcDbPolyline
 90
        9
 70
   128
 43
0.0
 10
909.6038898163
 20
723.7934463962
 10
909.6264501744
 20
723.7896037593
 10
909.6481462651
 20
723.7782225318
 10
909.6681361728
 20
723.7597404353
 10
909.6856599384
 20
723.7348680689
 10
909.7000470095
 20
723.7045605041
 10
909.7107311421
 20
723.6699832908
 10
909.7173100048
 20
723.6324644953
 10
909.7195377284
 20
723.593446736
  0
SPLINE
  5
2A1
330
1F
100
AcDbEntity
  8
0
  6
Continuous
 62
     7
370
    15
100
AcDbSpline
210
0.0
220
0.0
230
1.0
 70
     8
 71
     3
 72
    14
 73
    10
 74
     0
 42
0.000000001
 43
0.00000001
 40
0.0
 40
0.0
 40
0.0
 40
0.0
 40
0.1782598786163145
 40
0.3616540147474244
 40
0.5494725232086074
 40
0.7432769671887741
 40
0.9742862348536955
 40
0.997809944151394
 40
1.0
 40
1.0
 40
1.0
 40
1.0
 10
909.3872641854804
 20
723.6026044308677
 30
0.0
 10
908.7730830508243
 20
723.6282197681221
 30
0.0
 10
907.5270310796536
 20
723.6801882179443
 30
0.0
 10
905.9970110303773
 20
723.712262479067
 30
0.0
 10
904.7670906627455
 20
723.7417035256307
 30
0.0
 10
903.8824978419282
 20
723.7664309623483
 30
0.0
 10
903.6190557127044
 20
723.7830584241578
 30
0.0
 10
903.6039422611441
 20
723.7924278843826
 30
0.0
 10
903.6038964591327
 20
723.7933664574488
 30
0.0
 10
903.6038925581496
 20
723.793446396245
 30
0.0
  0
LINE
  5
2A2
330
1F
100
AcDbEntity
  8
0
  6
Continuous
 62
     7
370
    15
100
AcDbLine
 10
909.7195377284
 20
723.593446736
 30
0.0
 11
909.3872641855
 21
723.6026044309
 31
0.0
  0
LINE
  5
2A3
330
1F
100
AcDbEntity
  8
0
  6
Continuous
 62
     7
370
    15
100
AcDbLine
 10
924.7127359443
 20
737.3490047946
 30
0.0
 11
924.7127359443
 21
729.7934464484
 31
0.0
  0
LWPOLYLINE
  5
2A4
330
1F
100
AcDbEntity
  8
0
  6
Continuous
 62
     7
370
    15
100
AcDbPolyline
 90
       11
 70
   128
 43
0.0
 10
932.6038917237
 20
723.3093411967
 10
932.5166454249
 20
723.4645665928
 10
932.2559570604
 20
723.9283750139
 10
931.824955874
 20
724.6951850436
 10
931.228842371
 20
725.755769138
 10
930.47478401
 20
727.0973635211
 10
929.571855598
 20
728.7038241818
 10
928.5309200817
 20
730.5558187261
 10
927.3645093375
 20
732.6310606047
 10
926.0866528087
 20
734.9045754715
 10
924.7127359443
 20
737.3490047946
  0
ARC
  5
2A5
330
1F
100
AcDbEntity
  8
0
  6
Continuous
 62
     7
370
    15
100
AcDbCircle
 10
924.8038888889
 20
737.8451701188
 30
0.0
 40
0.1999999999999324
100
AcDbArc
 50
180.0
 51
209.0
  0
SPLINE
  5
2A6
330
1F
100
AcDbEntity
  8
0
  6
Continuous
 62
     7
370
    15
100
AcDbSpline
210
0.0
220
0.0
230
1.0
 70
     8
 71
     3
 72
    15
 73
    11
 74
     0
 42
0.000000001
 43
0.00000001
 40
0.0
 40
0.0
 40
0.0
 40
0.0
 40
0.4996213250288108
 40
0.6815056473294586
 40
0.8393514736602804
 40
0.8864157042072838
 40
0.9196789360697308
 40
0.9592007089406582
 40
0.9948798019928576
 40
1.0
 40
1.0
 40
1.0
 40
1.0
 10
924.7127359443228
 20
737.349004794611
 30
0.0
 10
924.6955975662432
 20
737.4236772719321
 30
0.0
 10
924.6722200583941
 20
737.5255338429894
 30
0.0
 10
924.6452859834039
 20
737.6500066807025
 30
0.0
 10
924.6336883104183
 20
737.7067379713657
 30
0.0
 10
924.6289027389182
 20
737.734524091457
 30
0.0
 10
924.6275024015243
 20
737.7449400393168
 30
0.0
 10
924.6274066246236
 20
737.7498066759714
 30
0.0
 10
924.6282623666548
 20
737.7494314071
 30
0.0
 10
924.6288836471143
 20
737.748345094821
 30
0.0
 10
924.628961616091
 20
737.7482087656393
 30
0.0
  0
LINE
  5
2A7
330
1F
100
AcDbEntity
  8
0
  6
Continuous
 62
     7
370
    15
100
AcDbLine
 10
924.6038904124
 20
737.3490047946
 30
0.0
 11
924.7127359443
 21
737.3490047946
 31
0.0
  0
LWPOLYLINE
  5
2A8
330
1F
100
AcDbEntity
  8
0
  6
Continuous
 62
     7
370
    15
100
AcDbPolyline
 90
       11
 70
   128
 43
0.0
 10
924.6289616161
 20
737.7482087656
 10
926.0099788838
 20
735.256797944
 10
927.2957181268
 20
732.9372627034
 10
928.4703394108
 20
730.8181853339
 10
929.5193737083
 20
728.9256801202
 10
930.4298868113
 20
727.2830692425
 10
931.1906655961
 20
725.9105931341
 10
931.792322331
 20
724.8251655444
 10
932.2274585896
 20
724.0401625938
 10
932.4907025033
 20
723.5652574643
 10
932.5788130694
 20
723.4063081748
  0
LWPOLYLINE
  5
2A9
330
1F
100
AcDbEntity
  8
0
  6
Continuous
 62
     7
370
    15
100
AcDbPolyline
 90
        9
 70
   128
 43
0.0
 10
909.2778971129
 20
723.8023088619
 10
909.3006213837
 20
723.7973821654
 10
909.3221014076
 20
723.7852773003
 10
909.3415474229
 20
723.7664403699
 10
909.3582516246
 20
723.7415656752
 10
909.3715956145
 20
723.7115701034
 10
909.3810876542
 20
723.6775586687
 10
909.3863775664
 20
723.6407849311
 10
909.3872641855
 20
723.6026044309
  0
SPLINE
  5
2AA
330
1F
100
AcDbEntity
  8
0
  6
Continuous
 62
     7
370
    15
100
AcDbSpline
210
0.0
220
0.0
230
1.0
 70
     8
 71
     3
 72
    14
 73
    10
 74
     0
 42
0.000000001
 43
0.00000001
 40
0.0
 40
0.0
 40
0.0
 40
0.0
 40
0.0021794885471911
 40
0.0287146046496561
 40
0.2257953797570711
 40
0.4063880796045589
 40
0.5920185313031987
 40
0.7928655511421527
 40
1.0
 40
1.0
 40
1.0
 40
1.0
 10
903.6038925581496
 20
723.793446396245
 30
0.0
 10
903.6038965661651
 20
723.7935255573593
 30
0.0
 10
903.6039493714818
 20
723.79456849934
 30
0.0
 10
903.6184611291845
 20
723.8027749456649
 30
0.0
 10
903.8297821925167
 20
723.8172918375576
 30
0.0
 10
904.5503150974339
 20
723.8366646543432
 30
0.0
 10
905.6741489336389
 20
723.8497193741217
 30
0.0
 10
907.228044067383
 20
723.8636361688544
 30
0.0
 10
908.5876285493559
 20
723.8229602506043
 30
0.0
 10
909.2778971128981
 20
723.8023088618651
 30
0.0
  0
SPLINE
  5
2AB
330
1F
100
AcDbEntity
  8
0
  6
Continuous
 62
     7
370
    15
100
AcDbSpline
210
0.0
220
0.0
230
1.0
 70
    24
 71
     3
 72
    12
 73
     8
 74
     0
 42
0.000000001
 43
0.00000001
 40
0.0
 40
0.0
 40
0.0
 40
0.0
 40
0.0013703725773468
 40
0.3524442750357838
 40
0.5506773986455766
 40
0.7483479837125
 40
1.0
 40
1.0
 40
1.0
 40
1.0
 10
903.6038925581496
 20
723.793446396245
 30
0.0
 10
903.6038925581496
 20
723.7974001422624
 30
0.0
 10
903.6038925581499
 20
724.8142587483173
 30
0.0
 10
903.6038925581494
 20
726.4119666784861
 30
0.0
 10
903.6038925581496
 20
728.2076893532495
 30
0.0
 10
903.6038925581496
 20
729.458276532731
 30
0.0
 10
903.6038925581496
 20
729.6731194309094
 30
0.0
 10
903.6038925581496
 20
729.7934464483991
 30
0.0
  0
ARC
  5
2AC
330
1F
100
AcDbEntity
  8
0
  6
Continuous
 62
     7
370
    15
100
AcDbCircle
 10
903.6038888889
 20
795.2934466019
 30
0.0
 40
0.2000000000000455
100
AcDbArc
 50
90.0
 51
180.0
  0
ARC
  5
2AD
330
1F
100
AcDbEntity
  8
0
  6
Continuous
 62
     7
370
    15
100
AcDbCircle
 10
903.6038888889
 20
759.6934466019
 30
0.0
 40
0.2000000000000455
100
AcDbArc
 50
180.0000001735
 51
270.000000347
  0
ARC
  5
2AE
330
1F
100
AcDbEntity
  8
0
  6
Continuous
 62
     8
370
    15
100
AcDbCircle
 10
1189.0518313574
 20
823.952774477
 30
0.0
 40
0.3169317108838977
100
AcDbArc
 50
327.0394560879
 51
39.2410777319
  0
LWPOLYLINE
  5
2AF
330
1F
100
AcDbEntity
  8
0
  6
Continuous
 62
     8
370
    15
100
AcDbPolyline
 90
        7
 70
   128
 43
0.0
 10
1188.6403297716
 20
823.3993438378
 10
1188.6609082752
 20
823.3841223016
 10
1188.7805347972
 20
823.3530831828
 10
1188.9286821418
 20
823.3866033449
 10
1189.0828048521
 20
823.4795716896
 10
1189.2194186979
 20
823.6178321138
 10
1189.3177514606
 20
823.7803441777
  0
ARC
  5
2B0
330
1F
100
AcDbEntity
  8
0
  6
Continuous
 62
     8
370
    15
100
AcDbCircle
 10
1185.3047073842
 20
815.4722942929
 30
0.0
 40
0.3169564591623006
100
AcDbArc
 50
327.0436131834
 51
39.2370458679
  0
LWPOLYLINE
  5
2B1
330
1F
100
AcDbEntity
  8
0
  6
Continuous
 62
     8
370
    15
100
AcDbPolyline
 90
        7
 70
   128
 43
0.0
 10
1184.8932390743
 20
814.9188620343
 10
1184.9138175779
 20
814.9036404982
 10
1185.0334441
 20
814.87260883
 10
1185.1815914445
 20
814.9061215415
 10
1185.3356992536
 20
814.9990898862
 10
1185.4723280006
 20
815.1373503103
 10
1185.5706607633
 20
815.2998698249
  0
LINE
  5
2B2
330
1F
100
AcDbEntity
  8
0
  6
Continuous
 62
     8
370
    15
100
AcDbLine
 10
1207.7790980869
 20
824.3042764559
 30
0.0
 11
1207.4148988061
 21
823.4800038233
 31
0.0
  0
ARC
  5
2B3
330
1F
100
AcDbEntity
  8
0
  6
Continuous
 62
     8
370
    15
100
AcDbCircle
 10
1215.6414831915
 20
824.1987920995
 30
0.0
 40
0.316939804998143
100
AcDbArc
 50
327.0405231243
 51
39.2400106954
  0
LWPOLYLINE
  5
2B4
330
1F
100
AcDbEntity
  8
0
  6
Continuous
 62
     8
370
    15
100
AcDbPolyline
 90
        7
 70
   128
 43
0.0
 10
1215.2299916082
 20
823.6453620091
 10
1215.2505701118
 20
823.6301404729
 10
1215.3701966339
 20
823.5991013541
 10
1215.5183439785
 20
823.6326140657
 10
1215.6724666887
 20
823.7255824103
 10
1215.8090805345
 20
823.8638502851
 10
1215.9074132972
 20
824.026362349
  0
ARC
  5
2B5
330
1F
100
AcDbEntity
  8
0
  6
Continuous
 62
     8
370
    15
100
AcDbCircle
 10
1211.8943503668
 20
815.7183079849
 30
0.0
 40
0.316973895735456
100
AcDbArc
 50
327.0450165045
 51
39.2355173153
  0
LWPOLYLINE
  5
2B6
330
1F
100
AcDbEntity
  8
0
  6
Continuous
 62
     8
370
    15
100
AcDbPolyline
 90
        7
 70
   128
 43
0.0
 10
1211.4829009109
 20
815.1648802056
 10
1211.5034794145
 20
815.1496586695
 10
1211.6231059366
 20
815.1186195507
 10
1211.7712532812
 20
815.1521322622
 10
1211.9253610902
 20
815.2451006069
 10
1212.0619898372
 20
815.3833684816
 10
1212.1603225999
 20
815.5458805456
  0
LINE
  5
2B7
330
1F
100
AcDbEntity
  8
0
  6
Continuous
 62
     8
370
    15
100
AcDbLine
 10
1077.0138872498
 20
890.5934480324
 30
0.0
 11
839.5138865047
 21
890.5934480324
 31
0.0
  0
LINE
  5
2B8
330
1F
100
AcDbEntity
  8
0
  6
Continuous
 62
     8
370
    15
100
AcDbLine
 10
1314.5138805442
 20
890.5934480324
 30
0.0
 11
1077.0138872498
 21
890.5934480324
 31
0.0
  0
SPLINE
  5
2B9
330
1F
100
AcDbEntity
  8
0
  6
Continuous
 62
     8
370
    15
100
AcDbSpline
210
0.0
220
0.0
230
1.0
 70
     8
 71
     3
 72
    39
 73
    35
 74
     0
 42
0.000000001
 43
0.00000001
 40
0.0
 40
0.0
 40
0.0
 40
0.0
 40
0.0076407729611932
 40
0.0140242626988418
 40
0.0203167802370532
 40
0.0265082512759968
 40
0.0325976450201011
 40
0.038590367512013
 40
0.0700513682144537
 40
0.0945794901194669
 40
0.1182845386440952
 40
0.1415378145477985
 40
0.1760625803935279
 40
0.2104486401242239
 40
0.244531580678145
 40
0.2784097763129966
 40
0.3233021883502505
 40
0.3678209215514685
 40
0.4117521201202661
 40
0.4547591781579752
 40
0.4965497822495503
 40
0.5375245625416791
 40
0.5861575988629576
 40
0.6344557519219813
 40
0.6818079156453402
 40
0.7280777786176901
 40
0.7733688123667589
 40
0.8105606574924699
 40
0.8473241766877924
 40
0.88373598693521
 40
0.9204380487033594
 40
0.9584717016363542
 40
0.998422783238476
 40
1.0
 40
1.0
 40
1.0
 40
1.0
 10
1023.644212476339
 20
884.5934507742062
 30
0.0
 10
1023.765723848327
 20
883.848240564545
 30
0.0
 10
1023.988751990941
 20
882.4804439032354
 30
0.0
 10
1024.275514529214
 20
880.493524991936
 30
0.0
 10
1024.516746128709
 20
878.6456685571023
 30
0.0
 10
1024.726572553493
 20
876.8243503735498
 30
0.0
 10
1024.904474035141
 20
875.0307943326409
 30
0.0
 10
1025.259335405077
 20
870.7557099083609
 30
0.0
 10
1025.446798876539
 20
864.6627539256607
 30
0.0
 10
1024.993038499687
 20
856.9414427185054
 30
0.0
 10
1024.029195952447
 20
850.162363481812
 30
0.0
 10
1022.370420852176
 20
842.6575309488952
 30
0.0
 10
1019.829954234336
 20
834.5269730583537
 30
0.0
 10
1016.390373940501
 20
825.924037915047
 30
0.0
 10
1012.548131465662
 20
817.8448286881999
 30
0.0
 10
1008.054455365649
 20
809.4047423411703
 30
0.0
 10
1003.063613796819
 20
800.6822487980158
 30
0.0
 10
998.006912696693
 20
791.6603808986778
 30
0.0
 10
993.4772540319021
 20
783.1520803049451
 30
0.0
 10
989.5861326535888
 20
775.1644893403293
 30
0.0
 10
986.4221736380456
 20
767.686804805254
 30
0.0
 10
984.0932805232205
 20
760.1121066465196
 30
0.0
 10
982.3659678660093
 20
752.6640997437571
 30
0.0
 10
980.6965261615426
 20
745.7423361587839
 30
0.0
 10
979.1348538138521
 20
739.813753828333
 30
0.0
 10
977.7549712335398
 20
734.8272141302294
 30
0.0
 10
976.6042715205488
 20
730.936185579407
 30
0.0
 10
975.6156744208861
 20
727.9340810745728
 30
0.0
 10
974.6645659545076
 20
725.6804715466543
 30
0.0
 10
973.5905452901677
 20
723.9715055268457
 30
0.0
 10
972.2913769458431
 20
722.798165371399
 30
0.0
 10
971.1695017615106
 20
722.1739439565087
 30
0.0
 10
970.5294993182852
 20
721.9341592971192
 30
0.0
 10
970.7182663055037
 20
721.9961534369121
 30
0.0
 10
970.7254355483573
 20
721.9985079325273
 30
0.0
  0
LWPOLYLINE
  5
2BA
330
1F
100
AcDbEntity
  8
0
  6
Continuous
 62
     8
370
    15
100
AcDbPolyline
 90
       20
 70
   128
 43
0.0
 10
911.4482139879
 20
689.4093727067
 10
911.4912783437
 20
689.4225397452
 10
911.8339305454
 20
689.5272967711
 10
912.5093778306
 20
689.7338007882
 10
913.4981816345
 20
690.0361099585
 10
914.771903091
 20
690.4255257293
 10
916.2938927942
 20
690.8908461526
 10
918.020378583
 20
691.4186843976
 10
919.9016799861
 20
691.9938561812
 10
921.8836759859
 20
692.5998137638
 10
923.9093621903
 20
693.2191265121
 10
925.9204452568
 20
693.8339782252
 10
927.8590788775
 20
694.4266774997
 10
929.6694954567
 20
694.9801774069
 10
931.2996079855
 20
695.478552331
 10
932.702515059
 20
695.9074654921
 10
933.8378717833
 20
696.2545768663
 10
934.6730073624
 20
696.5099026754
 10
935.1838936739
 20
696.666096647
 10
935.355838173
 20
696.7186660811
  0
LINE
  5
2BB
330
1F
100
AcDbEntity
  8
0
  6
Continuous
 62
     8
370
    15
100
AcDbLine
 10
935.355838173
 20
671.7186657086
 30
0.0
 11
935.355838173
 21
696.7186660811
 31
0.0
  0
LINE
  5
2BC
330
1F
100
AcDbEntity
  8
0
  6
Continuous
 62
     8
370
    15
100
AcDbLine
 10
866.7261039548
 20
884.5934507742
 30
0.0
 11
871.0866605573
 21
882.4399349585
 31
0.0
  0
LINE
  5
2BD
330
1F
100
AcDbEntity
  8
0
  6
Continuous
 62
     8
370
    15
100
AcDbLine
 10
863.7649303012
 20
884.5934507742
 30
0.0
 11
870.1717739635
 21
881.4293531075
 31
0.0
  0
LINE
  5
2BE
330
1F
100
AcDbEntity
  8
0
  6
Continuous
 62
     8
370
    15
100
AcDbLine
 10
868.4070592456
 20
881.4293531075
 30
0.0
 11
862.0002304845
 21
884.5934507742
 31
0.0
  0
LINE
  5
2BF
330
1F
100
AcDbEntity
  8
0
  6
Continuous
 62
     8
370
    15
100
AcDbLine
 10
990.2493653529
 20
696.8186659112
 30
0.0
 11
1059.4205518895
 21
696.8186659112
 31
0.0
  0
LINE
  5
2C0
330
1F
100
AcDbEntity
  8
0
  6
Continuous
 62
     8
370
    15
100
AcDbLine
 10
995.8494545602
 20
691.9609246149
 30
0.0
 11
1055.6047612511
 21
691.9609246149
 31
0.0
  0
LINE
  5
2C1
330
1F
100
AcDbEntity
  8
0
  6
Continuous
 62
     8
370
    15
100
AcDbLine
 10
994.3387115084
 20
670.8194067075
 30
0.0
 11
1055.1038847946
 21
670.8194067075
 31
0.0
  0
LINE
  5
2C2
330
1F
100
AcDbEntity
  8
0
  6
Continuous
 62
     8
370
    15
100
AcDbLine
 10
1056.5705520742
 20
669.3197761967
 30
0.0
 11
992.2705514067
 21
669.3197761967
 31
0.0
  0
LINE
  5
2C3
330
1F
100
AcDbEntity
  8
0
  6
Continuous
 62
     8
370
    15
100
AcDbLine
 10
1052.1705502354
 20
687.5889574483
 30
0.0
 11
1000.6438528829
 21
687.5889574483
 31
0.0
  0
LINE
  5
2C4
330
1F
100
AcDbEntity
  8
0
  6
Continuous
 62
     8
370
    15
100
AcDbLine
 10
998.6886156433
 20
673.8186640039
 30
0.0
 11
1052.1705502354
 21
673.8186640039
 31
0.0
  0
LINE
  5
2C5
330
1F
100
AcDbEntity
  8
0
  6
Continuous
 62
     8
370
    15
100
AcDbLine
 10
914.1038914853
 20
841.9962165251
 30
0.0
 11
914.1038914853
 21
805.2934495106
 31
0.0
  0
LINE
  5
2C6
330
1F
100
AcDbEntity
  8
0
  6
Continuous
 62
     8
370
    15
100
AcDbLine
 10
926.7038887077
 20
857.0934471979
 30
0.0
 11
926.7038887077
 21
823.0934453502
 31
0.0
  0
LINE
  5
2C7
330
1F
100
AcDbEntity
  8
0
  6
Continuous
 62
     8
370
    15
100
AcDbLine
 10
925.7038866811
 20
826.3934490576
 30
0.0
 11
925.7038866811
 21
857.0934471979
 31
0.0
  0
LINE
  5
2C8
330
1F
100
AcDbEntity
  8
0
  6
Continuous
 62
     8
370
    15
100
AcDbLine
 10
923.1038873725
 20
833.6574522152
 30
0.0
 11
923.1038873725
 21
826.3934490576
 31
0.0
  0
LINE
  5
2C9
330
1F
100
AcDbEntity
  8
0
  6
Continuous
 62
     8
370
    15
100
AcDbLine
 10
918.3781107598
 20
857.0934471979
 30
0.0
 11
917.8466459446
 21
855.3619322672
 31
0.0
  0
LINE
  5
2CA
330
1F
100
AcDbEntity
  8
0
  6
Continuous
 62
     8
370
    15
100
AcDbLine
 10
929.1524475151
 20
717.9540958793
 30
0.0
 11
903.582896822
 21
717.9540958793
 31
0.0
  0
LINE
  5
2CB
330
1F
100
AcDbEntity
  8
0
  6
Continuous
 62
     8
370
    15
100
AcDbLine
 10
903.6038925581
 20
718.0432915527
 30
0.0
 11
929.4441898995
 21
718.0432915527
 31
0.0
  0
LINE
  5
2CC
330
1F
100
AcDbEntity
  8
0
  6
Continuous
 62
     8
370
    15
100
AcDbLine
 10
903.6038925581
 20
792.7934465304
 30
0.0
 11
903.4038891726
 21
792.7934465304
 31
0.0
  0
LINE
  5
2CD
330
1F
100
AcDbEntity
  8
0
  6
Continuous
 62
     8
370
    15
100
AcDbLine
 10
903.6038925581
 20
762.1934463575
 30
0.0
 11
903.4038891726
 21
762.1934463575
 31
0.0
  0
LINE
  5
2CE
330
1F
100
AcDbEntity
  8
0
  6
Continuous
 62
     7
370
    15
100
AcDbLine
 10
370.7500007749
 20
430.0000035763
 30
0.0
 11
370.7500007749
 21
429.5100012422
 31
0.0
  0
LINE
  5
2CF
330
1F
100
AcDbEntity
  8
0
  6
Continuous
 62
     7
370
    15
100
AcDbLine
 10
406.7499992251
 20
429.5100012422
 30
0.0
 11
406.7499992251
 21
430.0000035763
 31
0.0
  0
ARC
  5
2D0
330
1F
100
AcDbEntity
  8
0
  6
Continuous
 62
     7
370
    15
100
AcDbCircle
 10
388.75
 20
287.5
 30
0.0
 40
241.5
100
AcDbArc
 50
90.0
 51
89.9879122827
  0
ARC
  5
2D1
330
1F
100
AcDbEntity
  8
0
  6
Continuous
 62
     7
370
    15
100
AcDbCircle
 10
388.75
 20
287.5
 30
0.0
 40
237.5
100
AcDbArc
 50
90.0
 51
180.0
  0
LINE
  5
2D2
330
1F
100
AcDbEntity
  8
0
  6
Continuous
 62
     7
370
    15
100
AcDbLine
 10
388.8009493657
 20
528.9999955893
 30
0.0
 11
388.8001054856
 21
524.999987483
 31
0.0
  0
LINE
  5
2D3
330
1F
100
AcDbEntity
  8
0
  6
Continuous
 62
     7
370
    15
100
AcDbLine
 10
388.75
 20
528.9999955893
 30
0.0
 11
388.75
 21
525.0000023842
 31
0.0
  0
SPLINE
  5
2D4
330
1F
100
AcDbEntity
  8
0
  6
Continuous
 62
     7
370
    15
100
AcDbSpline
210
0.0
220
0.0
230
1.0
 70
     8
 71
     3
 72
     9
 73
     5
 74
     0
 42
0.000000001
 43
0.00000001
 40
0.0
 40
0.0
 40
0.0
 40
0.0
 40
0.7094678519662925
 40
1.0
 40
1.0
 40
1.0
 40
1.0
 10
184.6499872207641
 20
341.2322275433692
 30
0.0
 10
183.704654115221
 20
337.4584771886621
 30
0.0
 10
182.3722003572064
 20
332.1393491348002
 30
0.0
 10
181.4842459297176
 20
326.7309040410972
 30
0.0
 10
181.2262666225433
 20
325.1595768705013
 30
0.0
  0
SPLINE
  5
2D5
330
1F
100
AcDbEntity
  8
0
  6
Continuous
 62
     7
370
    15
100
AcDbSpline
210
0.0
220
0.0
230
1.0
 70
     8
 71
     3
 72
    10
 73
     6
 74
     0
 42
0.000000001
 43
0.00000001
 40
0.0
 40
0.0
 40
0.0
 40
0.0
 40
0.1136224357890286
 40
0.6218185145240414
 40
1.0
 40
1.0
 40
1.0
 40
1.0
 10
596.9002228975296
 20
321.772826984525
 30
0.0
 10
596.7932161485188
 20
322.5181714224538
 30
0.0
 10
596.2076031289427
 20
326.5971983151903
 30
0.0
 10
594.8677114880128
 20
333.0947491610752
 30
0.0
 10
593.4650233919309
 20
338.7981870953995
 30
0.0
 10
592.866553068161
 20
341.2316135689618
 30
0.0
  0
SPLINE
  5
2D6
330
1F
100
AcDbEntity
  8
0
  6
Continuous
 62
     7
370
    15
100
AcDbSpline
210
0.0
220
0.0
230
1.0
 70
     8
 71
     3
 72
    12
 73
     8
 74
     0
 42
0.000000001
 43
0.00000001
 40
0.0
 40
0.0
 40
0.0
 40
0.0
 40
0.275423724810917
 40
0.5117490892740127
 40
0.7447196275103072
 40
0.974036620361275
 40
1.0
 40
1.0
 40
1.0
 40
1.0
 10
184.5474672317505
 20
340.4935220931659
 30
0.0
 10
184.5443480871264
 20
340.3768508406433
 30
0.0
 10
184.5385525826839
 20
340.1600706512684
 30
0.0
 10
184.5734619067852
 20
339.8795313102701
 30
0.0
 10
184.6350742825321
 20
339.6440363182639
 30
0.0
 10
184.6913440238045
 20
339.491278416461
 30
0.0
 10
184.7340386382588
 20
339.4257993297854
 30
0.0
 10
184.7383809089661
 20
339.4191397563557
 30
0.0
  0
SPLINE
  5
2D7
330
1F
100
AcDbEntity
  8
0
  6
Continuous
 62
     7
370
    15
100
AcDbSpline
210
0.0
220
0.0
230
1.0
 70
     8
 71
     3
 72
    12
 73
     8
 74
     0
 42
0.000000001
 43
0.00000001
 40
0.0
 40
0.0
 40
0.0
 40
0.0
 40
0.1598162756486151
 40
0.3813329395803942
 40
0.6056894681728707
 40
0.8329686137297878
 40
0.9999999999999999
 40
0.9999999999999999
 40
0.9999999999999999
 40
0.9999999999999999
 10
592.8087216615677
 20
339.5585176802708
 30
0.0
 10
592.8299633918424
 20
339.59747523485
 30
0.0
 10
592.8806476629817
 20
339.6904307160501
 30
0.0
 10
592.9348046925465
 20
339.8657971792418
 30
0.0
 10
592.9730964311282
 20
340.0808673395732
 30
0.0
 10
592.9886151249957
 20
340.2966180402018
 30
0.0
 10
592.9796295891206
 20
340.4502158647212
 30
0.0
 10
592.9758232831955
 20
340.5152804660613
 30
0.0
  0
SPLINE
  5
2D8
330
1F
100
AcDbEntity
  8
0
  6
Continuous
 62
     7
370
    15
100
AcDbSpline
210
0.0
220
0.0
230
1.0
 70
    11
 71
     3
 72
    55
 73
    51
 74
     0
 42
0.000000001
 43
0.00000001
 40
0.0
 40
0.0
 40
0.0
 40
0.0
 40
0.0207587176636641
 40
0.0415196746268691
 40
0.0622849282938635
 40
0.0830564249496109
 40
0.1038359089932967
 40
0.1246247404998638
 40
0.1454234574223142
 40
0.1662300313239316
 40
0.1870506291313453
 40
0.2078934172716396
 40
0.2287433558185857
 40
0.2495944387000505
 40
0.270451122099497
 40
0.291313762591853
 40
0.3121800740221614
 40
0.3330479877193868
 40
0.3539167256324015
 40
0.3747860864608161
 40
0.3956559534615848
 40
0.416526175383805
 40
0.437396627696494
 40
0.4582670067678636
 40
0.4791369028593526
 40
0.5000061818360921
 40
0.5208753501316841
 40
0.5417449718781983
 40
0.56261492487918
 40
0.5834847052658054
 40
0.6043539273552646
 40
0.6252224622967679
 40
0.6460902901147322
 40
0.6669574603143515
 40
0.6878239071374882
 40
0.7086888155246498
 40
0.7295499094729404
 40
0.7504047693118825
 40
0.771254429179344
 40
0.7921015482919472
 40
0.8129437428276449
 40
0.8337716879989939
 40
0.8545818830781421
 40
0.8753796546056283
 40
0.8961672177834968
 40
0.916945565999861
 40
0.93771619936959
 40
0.9584808255566158
 40
0.9792414008485639
 40
1.0
 40
1.0
 40
1.0
 40
1.0
 10
388.7538317316467
 20
379.4441746175291
 30
0.0
 10
390.4749726036153
 20
379.3793371500405
 30
0.0
 10
393.9174400117167
 20
379.2496552208686
 30
0.0
 10
398.9942666829294
 20
378.2078198984952
 30
0.0
 10
403.8989585266469
 20
376.5635913657313
 30
0.0
 10
408.548546837075
 20
374.2827840143962
 30
0.0
 10
412.8649996339729
 20
371.4199954302388
 30
0.0
 10
416.7720594789927
 20
368.0163965859309
 30
0.0
 10
420.2093974567496
 20
364.1336391519891
 30
0.0
 10
423.0853496960431
 20
359.8190033337698
 30
0.0
 10
425.4493975099023
 20
355.1987833419807
 30
0.0
 10
427.1304158842691
 20
350.2806982861482
 30
0.0
 10
428.1377130535514
 20
345.1831219633139
 30
0.0
 10
428.4887124584565
 20
339.9975438375222
 30
0.0
 10
428.1619810705599
 20
334.8086947424667
 30
0.0
 10
427.1566304243789
 20
329.7062590613333
 30
0.0
 10
425.4875424679496
 20
324.7799287554535
 30
0.0
 10
423.1880771945017
 20
320.1140386328582
 30
0.0
 10
420.2986696205607
 20
315.7883152579977
 30
0.0
 10
416.8693042566172
 20
311.8765760400177
 30
0.0
 10
412.9582349036266
 20
308.4462425784444
 30
0.0
 10
408.6327527854151
 20
305.5558139802104
 30
0.0
 10
403.9668459480078
 20
303.2548494697266
 30
0.0
 10
399.040210698595
 20
301.583537191141
 30
0.0
 10
393.9375101421985
 20
300.5704499296272
 30
0.0
 10
388.7464259669455
 20
300.2321330351054
 30
0.0
 10
383.555476611728
 20
300.5718732543197
 30
0.0
 10
378.4530353122781
 20
301.5859192708531
 30
0.0
 10
373.52693935846
 20
303.2585062836059
 30
0.0
 10
368.8618181126346
 20
305.5606833319263
 30
0.0
 10
364.5374921990374
 20
308.4524036133967
 30
0.0
 10
360.627688835556
 20
311.8836651503809
 30
0.0
 10
357.1994186758871
 20
315.7958613984862
 30
0.0
 10
354.3109721564352
 20
320.1217373898223
 30
0.0
 10
352.0120173983003
 20
324.7874951992546
 30
0.0
 10
350.3442113196199
 20
329.7138442334589
 30
0.0
 10
349.3397202316879
 20
334.816186365576
 30
0.0
 10
349.0165118583994
 20
340.0046246646202
 30
0.0
 10
349.3627497343721
 20
345.190089020062
 30
0.0
 10
350.3790470064939
 20
350.2861564113311
 30
0.0
 10
352.0593927044195
 20
355.2024775871272
 30
0.0
 10
354.3901772733944
 20
359.8423643924101
 30
0.0
 10
357.3036845749232
 20
364.1337513328443
 30
0.0
 10
360.7330066374733
 20
368.0214657396659
 30
0.0
 10
364.6432802180967
 20
371.4221511220073
 30
0.0
 10
368.9588671955462
 20
374.2851390725039
 30
0.0
 10
373.6087665547189
 20
376.5651177723734
 30
0.0
 10
378.5134115882125
 20
378.2088382712686
 30
0.0
 10
383.5902548169665
 20
379.2502053360321
 30
0.0
 10
387.0326940420301
 20
379.3795202419813
 30
0.0
 10
388.7538317316467
 20
379.4441746175291
 30
0.0
  0
SPLINE
  5
2D9
330
1F
100
AcDbEntity
  8
0
  6
Continuous
 62
     7
370
    15
100
AcDbSpline
210
0.0
220
0.0
230
1.0
 70
     8
 71
     3
 72
    11
 73
     7
 74
     0
 42
0.000000001
 43
0.00000001
 40
0.0
 40
0.0
 40
0.0
 40
0.0
 40
0.2499995870584227
 40
0.5000002566795293
 40
0.7499989481212049
 40
1.0
 40
1.0
 40
1.0
 40
1.0
 10
597.7052879333496
 20
342.4912485387179
 30
0.0
 10
597.0714792639711
 20
342.3269419807379
 30
0.0
 10
595.803859180659
 20
341.9983281532882
 30
0.0
 10
594.2046772021865
 20
341.5837652016235
 30
0.0
 10
593.085183715494
 20
341.2935489424726
 30
0.0
 10
592.9385857821613
 20
341.2555445369236
 30
0.0
 10
592.8652864694595
 20
341.236542244442
 30
0.0
  0
SPLINE
  5
2DA
330
1F
100
AcDbEntity
  8
0
  6
Continuous
 62
     7
370
    15
100
AcDbSpline
210
0.0
220
0.0
230
1.0
 70
     8
 71
     3
 72
    62
 73
    58
 74
     0
 42
0.000000001
 43
0.00000001
 40
0.0
 40
0.0
 40
0.0
 40
0.0
 40
0.0187614164050765
 40
0.0375672177483915
 40
0.056372053485552
 40
0.0751321545963129
 40
0.0936432974419477
 40
0.1122181447211945
 40
0.1308146383338779
 40
0.1493895397701319
 40
0.1679007203926715
 40
0.186372114647517
 40
0.2049061954789099
 40
0.2234626551921168
 40
0.2419988242358688
 40
0.2604719650405048
 40
0.2606869137754347
 40
0.2790778276032472
 40
0.2975306020976357
 40
0.3160051488544662
 40
0.3344594089355041
 40
0.3528515595818724
 40
0.3712708783057769
 40
0.389753251146321
 40
0.4082572363947968
 40
0.4267400216612597
 40
0.4451596844718517
 40
0.4635811304750884
 40
0.4820655908448773
 40
0.5005709578119795
 40
0.519054525204824
 40
0.5374752200636591
 40
0.555988449996752
 40
0.5745656680671037
 40
0.5931637793570901
 40
0.6117394337659362
 40
0.6302513242674684
 40
0.6487854930179613
 40
0.6673832234620087
 40
0.6860020241677333
 40
0.7045987821905557
 40
0.7231321302452863
 40
0.7415816790508324
 40
0.7600937726255808
 40
0.7786266084458006
 40
0.7971378507300922
 40
0.8155867068218627
 40
0.8339483914155995
 40
0.8523721032126327
 40
0.8708175744791226
 40
0.8892426345014178
 40
0.9076054553850088
 40
0.9260412871831639
 40
0.9445404688335142
 40
0.9630620051739761
 40
0.9815628093280352
 40
1.0
 40
1.0
 40
1.0
 40
1.0
 10
597.7065992355347
 20
342.4862026330086
 30
0.0
 10
598.846378735507
 20
337.6974295166642
 30
0.0
 10
601.1286341759342
 20
328.1085542140152
 30
0.0
 10
603.2968359475075
 20
313.4658503217667
 30
0.0
 10
604.5348821342318
 20
298.7242951729883
 30
0.0
 10
604.7327679698275
 20
284.0052717123372
 30
0.0
 10
603.9078017485691
 20
269.3703221128816
 30
0.0
 10
602.0995217787591
 20
254.8675197568659
 30
0.0
 10
599.3226177652718
 20
240.5017887419536
 30
0.0
 10
595.5953327643479
 20
226.3700588073438
 30
0.0
 10
590.9323661011716
 20
212.5528781262059
 30
0.0
 10
585.3237561104875
 20
199.103306268557
 30
0.0
 10
578.8108494009927
 20
186.0551063884441
 30
0.0
 10
571.4342135270614
 20
173.4553278616963
 30
0.0
 10
563.2472825801183
 20
161.3865027519806
 30
0.0
 10
557.2339726954874
 20
153.6841499500937
 30
0.0
 10
550.9886091946524
 20
146.2297771450574
 30
0.0
 10
544.4840374830599
 20
138.995628280887
 30
0.0
 10
534.0717976351258
 20
128.8773912932573
 30
0.0
 10
522.9987101083088
 20
119.4604300749929
 30
0.0
 10
511.3402243492122
 20
110.8058020190397
 30
0.0
 10
499.1443164100265
 20
102.9522106082742
 30
0.0
 10
486.4310329213669
 20
95.95115760255482
 30
0.0
 10
473.2466250065687
 20
89.81506313372518
 30
0.0
 10
459.6669271541508
 20
84.56601728518342
 30
0.0
 10
445.783107170874
 20
80.23893737663657
 30
0.0
 10
431.659749811823
 20
76.8625113530872
 30
0.0
 10
417.3369762196392
 20
74.46698946996038
 30
0.0
 10
402.8638275077709
 20
73.03628107012861
 30
0.0
 10
388.3112604768833
 20
72.57186198888427
 30
0.0
 10
373.7766862144366
 20
73.07800093947503
 30
0.0
 10
359.3071489550219
 20
74.56753214639922
 30
0.0
 10
344.9511160690636
 20
77.05828108154283
 30
0.0
 10
330.7502488482989
 20
80.51918996539325
 30
0.0
 10
316.796949131376
 20
84.92696367744446
 30
0.0
 10
303.1861884227122
 20
90.25369410788493
 30
0.0
 10
289.9854448954027
 20
96.49023911271787
 30
0.0
 10
277.2448260697793
 20
103.6310817426322
 30
0.0
 10
264.9888327539099
 20
111.6253539092855
 30
0.0
 10
253.2800912748271
 20
120.429071784118
 30
0.0
 10
242.197805167614
 20
129.9837345804025
 30
0.0
 10
231.8201574545633
 20
140.2371514251745
 30
0.0
 10
222.189617064326
 20
151.1652808928718
 30
0.0
 10
213.3107175278563
 20
162.7115464022985
 30
0.0
 10
205.2076825663543
 20
174.8344597282235
 30
0.0
 10
197.9358711748858
 20
187.4543883161656
 30
0.0
 10
191.5481729760646
 20
200.4947859615327
 30
0.0
 10
186.0866369641833
 20
213.9245959993638
 30
0.0
 10
181.5439019571989
 20
227.6907850710845
 30
0.0
 10
177.9209744597405
 20
241.7441969922452
 30
0.0
 10
175.2403401779898
 20
255.9909903313799
 30
0.0
 10
173.513559559741
 20
270.3827311087053
 30
0.0
 10
172.7859402780183
 20
284.8789230629962
 30
0.0
 10
173.044841813693
 20
299.4334100679196
 30
0.0
 10
174.2976831672019
 20
313.9495702922345
 30
0.0
 10
176.4450159247844
 20
328.3526745253594
 30
0.0
 10
178.6895878548401
 20
337.7807405877359
 30
0.0
 10
179.8099410533905
 20
342.4866552557799
 30
0.0
  0
SPLINE
  5
2DB
330
1F
100
AcDbEntity
  8
0
  6
Continuous
 62
     7
370
    15
100
AcDbSpline
210
0.0
220
0.0
230
1.0
 70
     8
 71
     3
 72
    11
 73
     7
 74
     0
 42
0.000000001
 43
0.00000001
 40
0.0
 40
0.0
 40
0.0
 40
0.0
 40
0.2499984346966227
 40
0.4999996324254285
 40
0.7500003479379665
 40
0.9999999999999999
 40
0.9999999999999999
 40
0.9999999999999999
 40
0.9999999999999999
 10
179.8099559545517
 20
342.4867050815376
 30
0.0
 10
180.4425094531426
 20
342.3227466640716
 30
0.0
 10
181.7076234414309
 20
341.9948280170387
 30
0.0
 10
183.3048104949419
 20
341.5808464026589
 30
0.0
 10
184.4250347674615
 20
341.2904828259573
 30
0.0
 10
184.5749833077568
 20
341.2516159081902
 30
0.0
 10
184.6499574184417
 20
341.2321824906396
 30
0.0
  0
SPLINE
  5
2DC
330
1F
100
AcDbEntity
  8
0
  6
Continuous
 62
     7
370
    15
100
AcDbSpline
210
0.0
220
0.0
230
1.0
 70
     8
 71
     3
 72
    25
 73
    21
 74
     0
 42
0.000000001
 43
0.00000001
 40
0.0
 40
0.0
 40
0.0
 40
0.0
 40
0.0000003819575015
 40
0.0668190745314869
 40
0.1336377478774273
 40
0.2026457728609183
 40
0.2716538632527867
 40
0.3345466065847834
 40
0.3978760261735717
 40
0.4607687381814383
 40
0.5240981764585003
 40
0.5869909232457672
 40
0.650320334407453
 40
0.7132130516152148
 40
0.7765424931182197
 40
0.8317988483729049
 40
0.8870552076269976
 40
0.9435274043280009
 40
0.9999996156885986
 40
1.0
 40
1.0
 40
1.0
 40
1.0
 10
299.3636932969094
 20
430.0000035762789
 30
0.0
 10
299.3636734286944
 20
430.0000035762807
 30
0.0
 10
295.8879576047638
 20
430.0000038683332
 30
0.0
 10
288.9327865360929
 20
429.6920738643628
 30
0.0
 10
278.4703863649269
 20
428.3055126720766
 30
0.0
 10
268.0618123263473
 20
425.9591590639041
 30
0.0
 10
258.1023973468832
 20
422.745252253506
 30
0.0
 10
248.7354440416717
 20
418.7926884891018
 30
0.0
 10
240.0105195414921
 20
414.224201623943
 30
0.0
 10
231.6761962655597
 20
408.9347805932533
 30
0.0
 10
223.8277742179585
 20
402.9852058241512
 30
0.0
 10
216.4837861065429
 20
396.3893993561744
 30
0.0
 10
209.7282421625832
 20
389.2229307655836
 30
0.0
 10
203.5772820038411
 20
381.5026458980244
 30
0.0
 10
198.3216644981437
 20
373.6474384053372
 30
0.0
 10
193.8926809805473
 20
365.7548362814431
 30
0.0
 10
190.1974474790505
 20
357.8851727559023
 30
0.0
 10
187.075744325762
 20
349.7040308457053
 30
0.0
 10
185.3785041649506
 20
344.072393392906
 30
0.0
 10
184.6486212809862
 20
341.2269894747691
 30
0.0
 10
184.6486163139343
 20
341.2269701110201
 30
0.0
  0
SPLINE
  5
2DD
330
1F
100
AcDbEntity
  8
0
  6
Continuous
 62
     7
370
    15
100
AcDbSpline
210
0.0
220
0.0
230
1.0
 70
     8
 71
     3
 72
    22
 73
    18
 74
     0
 42
0.000000001
 43
0.00000001
 40
0.0
 40
0.0
 40
0.0
 40
0.0
 40
0.074415417299603
 40
0.1490111209991865
 40
0.2234265228477547
 40
0.2865415632251677
 40
0.3496566228864492
 40
0.4127716319071313
 40
0.475886651901545
 40
0.5390016558349007
 40
0.60211662797526
 40
0.6652316344826235
 40
0.7283466734666705
 40
0.7961236526761601
 40
0.8641732931873687
 40
0.9322229714708012
 40
1.0
 40
1.0
 40
1.0
 40
1.0
 10
179.8085403442383
 20
342.4812726769599
 30
0.0
 10
180.9336879584637
 20
346.3584611812426
 30
0.0
 10
183.1867090845869
 20
354.1222314631759
 30
0.0
 10
187.984917842175
 20
365.2743290900172
 30
0.0
 10
193.4704262111801
 20
375.3974346772061
 30
0.0
 10
199.5309139814383
 20
384.4454234577262
 30
0.0
 10
205.9300988130193
 20
392.4850870816812
 30
0.0
 10
212.979518728693
 20
399.9618248206727
 30
0.0
 10
220.6220937762007
 20
406.8308461109925
 30
0.0
 10
228.8114577289945
 20
413.0379238500836
 30
0.0
 10
237.4854772364014
 20
418.5473885093422
 30
0.0
 10
246.5894024260621
 20
423.3132606777867
 30
0.0
 10
256.2877919114333
 20
427.4106857570365
 30
0.0
 10
266.5653176225813
 20
430.7304712829431
 30
0.0
 10
277.3577336011082
 20
433.1607616347281
 30
0.0
 10
288.3231996838516
 20
434.7067611774338
 30
0.0
 10
295.688456939716
 20
434.9023838245031
 30
0.0
 10
299.3636932969094
 20
434.9999988079073
 30
0.0
  0
SPLINE
  5
2DE
330
1F
100
AcDbEntity
  8
0
  6
Continuous
 62
     7
370
    15
100
AcDbSpline
210
0.0
220
0.0
230
1.0
 70
    24
 71
     3
 72
    11
 73
     7
 74
     0
 42
0.000000001
 43
0.00000001
 40
0.0
 40
0.0
 40
0.0
 40
0.0
 40
0.2499999067347952
 40
0.500000490059604
 40
0.7500002795300114
 40
1.0
 40
1.0
 40
1.0
 40
1.0
 10
299.3636932969093
 20
434.9999988079074
 30
0.0
 10
299.3636932969094
 20
434.3448147616526
 30
0.0
 10
299.3636932969094
 20
433.0344448959785
 30
0.0
 10
299.3636932969093
 20
431.3817243480631
 30
0.0
 10
299.3636932969094
 20
430.2254708134767
 30
0.0
 10
299.3636932969094
 20
430.0751593150972
 30
0.0
 10
299.3636932969093
 20
430.000003576279
 30
0.0
  0
SPLINE
  5
2DF
330
1F
100
AcDbEntity
  8
0
  6
Continuous
 62
     7
370
    15
100
AcDbSpline
210
0.0
220
0.0
230
1.0
 70
     8
 71
     3
 72
    26
 73
    22
 74
     0
 42
0.000000001
 43
0.00000001
 40
0.0
 40
0.0
 40
0.0
 40
0.0
 40
0.0000003843374572
 40
0.0499467702145056
 40
0.0998931494621476
 40
0.1507309039450044
 40
0.2015687103196116
 40
0.2646839768821688
 40
0.3277993058154939
 40
0.3927482104663771
 40
0.4576971629822654
 40
0.5208125224889045
 40
0.5839277816014845
 40
0.6488767751536311
 40
0.7138256740423625
 40
0.7947932029405298
 40
0.8456244530484813
 40
0.8964557362555107
 40
0.9482276608172393
 40
0.9999995702686776
 40
1.0
 40
1.0
 40
1.0
 40
1.0
 10
592.8652864694595
 20
341.236542593688
 30
0.0
 10
592.8652815024076
 20
341.236561957437
 30
0.0
 10
592.2197857424981
 20
343.7529878316574
 30
0.0
 10
590.7400881140821
 20
348.7385792059586
 30
0.0
 10
588.0373850156066
 20
356.103271528549
 30
0.0
 10
584.826744408339
 20
363.3133089158689
 30
0.0
 10
580.824216554919
 20
370.8995374026128
 30
0.0
 10
575.9191844583261
 20
378.707620902665
 30
0.0
 10
569.9451749437583
 20
386.6710817815612
 30
0.0
 10
563.2541084143367
 20
394.1720070106875
 30
0.0
 10
555.9497597355683
 20
401.0770656024997
 30
0.0
 10
548.1621366908096
 20
407.2787893165984
 30
0.0
 10
539.8889238557432
 20
412.815986478853
 30
0.0
 10
531.0920043177612
 20
417.6794485474449
 30
0.0
 10
521.065678274202
 20
422.1556787924784
 30
0.0
 10
511.3426979708131
 20
425.4162687864394
 30
0.0
 10
502.1024206545047
 20
427.6452739173544
 30
0.0
 10
494.2306160460512
 20
428.9961197637827
 30
0.0
 10
486.2370717697638
 20
429.8156363497887
 30
0.0
 10
480.8496159147114
 20
430.0000038311675
 30
0.0
 10
478.1567659974098
 20
430.0000035762811
 30
0.0
 10
478.1567436456681
 20
430.000003576279
 30
0.0
  0
SPLINE
  5
2E0
330
1F
100
AcDbEntity
  8
0
  6
Continuous
 62
     7
370
    15
100
AcDbSpline
210
0.0
220
0.0
230
1.0
 70
    24
 71
     3
 72
    11
 73
     7
 74
     0
 42
0.000000001
 43
0.00000001
 40
0.0
 40
0.0
 40
0.0
 40
0.0
 40
0.2499999067347952
 40
0.500000490059604
 40
0.7500002795300114
 40
1.0
 40
1.0
 40
1.0
 40
1.0
 10
478.1268072128296
 20
434.9999988079074
 30
0.0
 10
478.1268072128296
 20
434.3448147616526
 30
0.0
 10
478.1268072128296
 20
433.0344448959785
 30
0.0
 10
478.1268072128296
 20
431.3817243480631
 30
0.0
 10
478.1268072128296
 20
430.2254708134767
 30
0.0
 10
478.1268072128296
 20
430.0751593150972
 30
0.0
 10
478.1268072128296
 20
430.000003576279
 30
0.0
  0
SPLINE
  5
2E1
330
1F
100
AcDbEntity
  8
0
  6
Continuous
 62
     7
370
    15
100
AcDbSpline
210
0.0
220
0.0
230
1.0
 70
     8
 71
     3
 72
    22
 73
    18
 74
     0
 42
0.000000001
 43
0.00000001
 40
0.0
 40
0.0
 40
0.0
 40
0.0
 40
0.0713791018384341
 40
0.1430769660822377
 40
0.2147748193815265
 40
0.2861539108290034
 40
0.3500756155089076
 40
0.4142258115485599
 40
0.4783760493399269
 40
0.5422977877028865
 40
0.6062195328942906
 40
0.670369739128273
 40
0.7345199592855504
 40
0.798441734522132
 40
0.865583777324998
 40
0.9328579722837115
 40
0.9999999999999999
 40
0.9999999999999999
 40
0.9999999999999999
 40
0.9999999999999999
 10
478.1567436456681
 20
434.9999988079073
 30
0.0
 10
482.0269937725413
 20
434.8913661293028
 30
0.0
 10
489.7847776598451
 20
434.6736156439114
 30
0.0
 10
501.3250086346681
 20
432.9573631714725
 30
0.0
 10
512.6631231423656
 20
430.2631951206971
 30
0.0
 10
523.2996756465287
 20
426.6340309519468
 30
0.0
 10
533.1816553647833
 20
422.2195936525954
 30
0.0
 10
542.3154167018208
 20
417.1816930737617
 30
0.0
 10
550.9990557448898
 20
411.4027892264232
 30
0.0
 10
559.1587674491768
 20
404.9237588238296
 30
0.0
 10
566.7286931218523
 20
397.7645865572946
 30
0.0
 10
573.680116934353
 20
389.9875581224067
 30
0.0
 10
579.9607108137861
 20
381.6598969048763
 30
0.0
 10
585.6117017217632
 20
372.6978801522686
 30
0.0
 10
590.5121166402669
 20
363.1168694196214
 30
0.0
 10
594.6885013339628
 20
352.9987445255104
 30
0.0
 10
596.70035179664
 20
345.99145098289
 30
0.0
 10
597.7052879333496
 20
342.4912492372098
 30
0.0
  0
CIRCLE
  5
2E2
330
1F
100
AcDbEntity
  8
0
  6
Continuous
 62
     7
370
    15
100
AcDbCircle
 10
388.75
 20
287.5
 30
0.0
 40
234.0
  0
LINE
  5
2E3
330
1F
100
AcDbEntity
  8
0
  6
Continuous
 62
     7
370
    15
100
AcDbLine
 10
299.3948888779
 20
434.9999988079
 30
0.0
 11
478.1268072128
 21
434.9999988079
 31
0.0
  0
CIRCLE
  5
2E4
330
1F
100
AcDbEntity
  8
0
  6
Continuous
 62
     7
370
    15
100
AcDbCircle
 10
388.75
 20
485.0
 30
0.0
 40
18.0
  0
LINE
  5
2E5
330
1F
100
AcDbEntity
  8
0
  6
Continuous
 62
     7
370
    15
100
AcDbLine
 10
478.1268072128
 20
430.0000035763
 30
0.0
 11
299.3948888779
 21
430.0000035763
 31
0.0
  0
CIRCLE
  5
2E6
330
1F
100
AcDbEntity
  8
0
  6
Continuous
 62
     7
370
    15
100
AcDbCircle
 10
388.75
 20
287.5
 30
0.0
 40
237.5
  0
CIRCLE
  5
2E7
330
1F
100
AcDbEntity
  8
0
  6
Continuous
 62
     7
370
    15
100
AcDbCircle
 10
388.75
 20
340.0
 30
0.0
 40
34.15153731090913
  0
CIRCLE
  5
2E8
330
1F
100
AcDbEntity
  8
0
  6
Continuous
 62
     7
370
    15
100
AcDbCircle
 10
388.75
 20
340.0
 30
0.0
 40
26.92243339986584
  0
CIRCLE
  5
2E9
330
1F
100
AcDbEntity
  8
0
  6
Continuous
 62
     7
370
    15
100
AcDbCircle
 10
388.75
 20
340.0
 30
0.0
 40
24.00000000000028
  0
CIRCLE
  5
2EA
330
1F
100
AcDbEntity
  8
0
  6
Continuous
 62
     7
370
    15
100
AcDbCircle
 10
388.75
 20
484.9999999836
 30
0.0
 40
17.5
  0
CIRCLE
  5
2EB
330
1F
100
AcDbEntity
  8
0
  6
Continuous
 62
     7
370
    15
100
AcDbCircle
 10
388.75
 20
340.0933377717
 30
0.0
 40
21.5
  0
CIRCLE
  5
2EC
330
1F
100
AcDbEntity
  8
0
  6
Continuous
 62
     7
370
    15
100
AcDbCircle
 10
388.75
 20
340.0933377717
 30
0.0
 40
22.0
  0
LINE
  5
2ED
330
1F
100
AcDbEntity
  8
0
  6
Continuous
 62
     7
370
    15
100
AcDbLine
 10
370.7500007749
 20
429.5100012422
 30
0.0
 11
406.7499992251
 21
429.5100012422
 31
0.0
  0
SPLINE
  5
2EE
330
1F
100
AcDbEntity
  8
0
  6
Continuous
 62
     8
370
    15
100
AcDbSpline
210
0.0
220
0.0
230
1.0
 70
     8
 71
     3
 72
    70
 73
    66
 74
     0
 42
0.000000001
 43
0.00000001
 40
0.0
 40
0.0
 40
0.0
 40
0.0
 40
0.0094114228507941
 40
0.0253290724882192
 40
0.0417107612675576
 40
0.0581060620766834
 40
0.0744877823470311
 40
0.0903487581971071
 40
0.1062216857822962
 40
0.122082715007546
 40
0.1383972267619251
 40
0.1547249075627827
 40
0.1710392426417726
 40
0.1869795944354871
 40
0.2029323400627168
 40
0.2188730236148169
 40
0.2352715670989093
 40
0.2516830729706191
 40
0.2680812472885696
 40
0.2840953052815095
 40
0.3001220747436358
 40
0.3161366481144942
 40
0.3326177359374452
 40
0.349112059338067
 40
0.3655927738162937
 40
0.3815870798312994
 40
0.3975939591565717
 40
0.4135882478435387
 40
0.4300547398289387
 40
0.446534839528824
 40
0.4630016439022074
 40
0.4789199082131292
 40
0.4948502690326908
 40
0.5107679913789267
 40
0.5271511092233346
 40
0.543547681789508
 40
0.5599311808525674
 40
0.5758465703534608
 40
0.5917740713705236
 40
0.6076891269517066
 40
0.6240696379760747
 40
0.6404637426648315
 40
0.6568444937431683
 40
0.6727389847978579
 40
0.6886454433612539
 40
0.7045399699357957
 40
0.7208897943513375
 40
0.7372529917041547
 40
0.7536028861538225
 40
0.7695976905387758
 40
0.7856046231089
 40
0.8015993876359157
 40
0.8180570649852156
 40
0.8345282378582248
 40
0.8509857233703501
 40
0.8669709204505627
 40
0.8829686372476522
 40
0.8989541423977374
 40
0.915404429584141
 40
0.9318679235487972
 40
0.9483177218650749
 40
0.9619659941378932
 40
0.9756297720306155
 40
0.9892936375912188
 40
1.0
 40
1.0
 40
1.0
 40
1.0
 10
181.2262666225433
 20
325.1595768705013
 30
0.0
 10
180.8157524885477
 20
322.8976004182445
 30
0.0
 10
179.7109309942571
 20
316.8099167136469
 30
0.0
 10
178.6063134922931
 20
306.6733689806447
 30
0.0
 10
177.8814843337285
 20
294.7990321878567
 30
0.0
 10
177.8692514764392
 20
282.7855928358164
 30
0.0
 10
178.5316834769174
 20
270.9192538127182
 30
0.0
 10
179.8513727108989
 20
259.2365164952668
 30
0.0
 10
181.7846843233557
 20
247.7688087888039
 30
0.0
 10
184.3654043919954
 20
236.3154933045569
 30
0.0
 10
187.6142551636617
 20
224.9174146837921
 30
0.0
 10
191.5408100862473
 20
213.6174559914946
 30
0.0
 10
196.0681907828013
 20
202.6431575094751
 30
0.0
 10
201.1721405846658
 20
192.0268130489815
 30
0.0
 10
206.8113565754018
 20
181.7890926693114
 30
0.0
 10
213.0646493548933
 20
171.782251040983
 30
0.0
 10
219.9310472565942
 20
162.0477558340916
 30
0.0
 10
227.4032050635083
 20
152.6271198976794
 30
0.0
 10
235.3331551573317
 20
143.7134152268538
 30
0.0
 10
243.6924760336895
 20
135.3336692422726
 30
0.0
 10
252.4371253544359
 20
127.4968204265493
 30
0.0
 10
261.6906963394831
 20
120.0841598829104
 30
0.0
 10
271.438661408613
 20
113.1353887444675
 30
0.0
 10
281.660674813016
 20
106.688910129334
 30
0.0
 10
292.1293625147302
 20
100.8924540264982
 30
0.0
 10
302.8041901146231
 20
95.7548463911082
 30
0.0
 10
313.6394579786339
 20
91.26698562552733
 30
0.0
 10
324.8175140624228
 20
87.3534133893547
 30
0.0
 10
336.3124029294933
 20
84.05278996818882
 30
0.0
 10
348.0891415864932
 20
81.38746381954698
 30
0.0
 10
359.8660940603621
 20
79.41663519079812
 30
0.0
 10
371.6010651437409
 20
78.12425499731074
 30
0.0
 10
383.2556428171818
 20
77.48908609683097
 30
0.0
 10
395.0412401221192
 20
77.5060205288744
 30
0.0
 10
406.9206113890103
 20
78.20395095078459
 30
0.0
 10
418.8540236147147
 20
79.58766060501155
 30
0.0
 10
430.5778186422164
 20
81.62313385269337
 30
0.0
 10
442.0572971734073
 20
84.28554355205375
 30
0.0
 10
453.2625431430163
 20
87.54525163900662
 30
0.0
 10
464.3772296421938
 20
91.45873171484963
 30
0.0
 10
475.355977675924
 20
96.04451406444906
 30
0.0
 10
486.1568238932615
 20
101.2999453533371
 30
0.0
 10
496.5369471211764
 20
107.1045912362706
 30
0.0
 10
506.4736040109053
 20
113.4189131650964
 30
0.0
 10
515.9541278197466
 20
120.1969525129229
 30
0.0
 10
525.1381292232298
 20
127.5511210974967
 30
0.0
 10
533.9774713980097
 20
135.4850266124085
 30
0.0
 10
542.4290722096882
 20
143.9881978941611
 30
0.0
 10
550.3258823340749
 20
152.8934054986932
 30
0.0
 10
557.6546546396105
 20
162.1603204531181
 30
0.0
 10
564.4149938727795
 20
171.7435840236319
 30
0.0
 10
570.6996462273011
 20
181.7791129230669
 30
0.0
 10
576.4629961695118
 20
192.2530744824471
 30
0.0
 10
581.6668175377764
 20
203.1413139107019
 30
0.0
 10
586.1946677748239
 20
214.2031193849142
 30
0.0
 10
590.044826017497
 20
225.3958814988083
 30
0.0
 10
593.2362794403015
 20
236.674026222378
 30
0.0
 10
595.824490529213
 20
248.2221583981074
 30
0.0
 10
597.7794314446338
 20
260.0099675601982
 30
0.0
 10
599.0758336155649
 20
272.0023748333061
 30
0.0
 10
599.6489973272643
 20
283.3657132206156
 30
0.0
 10
599.6224170284615
 20
294.057951172396
 30
0.0
 10
599.099767068408
 20
304.0543063259824
 30
0.0
 10
598.2248278039132
 20
313.3078143132418
 30
0.0
 10
597.3045295882113
 20
319.1890669190057
 30
0.0
 10
596.9002228975296
 20
321.772826984525
 30
0.0
  0
SPLINE
  5
2EF
330
1F
100
AcDbEntity
  8
0
  6
Continuous
 62
     8
370
    15
100
AcDbSpline
210
0.0
220
0.0
230
1.0
 70
     8
 71
     3
 72
    61
 73
    57
 74
     0
 42
0.000000001
 43
0.00000001
 40
0.0
 40
0.0
 40
0.0
 40
0.0
 40
0.0027626199031578
 40
0.0058347022171386
 40
0.0219593166779617
 40
0.034545719426106
 40
0.0467174640444712
 40
0.0586549692204412
 40
0.0763817818709421
 40
0.0940433701023919
 40
0.1115489537244155
 40
0.1289507105359616
 40
0.1520131315142375
 40
0.1748836052008804
 40
0.1974562023282276
 40
0.2195547635364942
 40
0.2410259709963869
 40
0.2620790063067339
 40
0.2870682331714161
 40
0.3118889233780361
 40
0.3362281928964672
 40
0.3600167070713787
 40
0.3833089403843377
 40
0.402440949281793
 40
0.4213572541640411
 40
0.4400971544943179
 40
0.4589773255350276
 40
0.4785300774412786
 40
0.499047310551953
 40
0.5197330306824534
 40
0.5395093937107068
 40
0.5584286688757438
 40
0.5770528467064859
 40
0.5958311572851583
 40
0.6149312289798983
 40
0.6384406186978825
 40
0.6623466258962011
 40
0.6866371849798703
 40
0.7114058887994569
 40
0.7366594684360185
 40
0.7579760719721589
 40
0.7795824969866362
 40
0.8017474459520666
 40
0.8243965203098906
 40
0.8474212475899372
 40
0.8707506386837506
 40
0.8883802972983968
 40
0.9060851533014675
 40
0.923870317882611
 40
0.941643869493707
 40
0.9536016588031196
 40
0.965815272032846
 40
0.9784564609130267
 40
0.9885941432021078
 40
0.9992281179215581
 40
1.0
 40
1.0
 40
1.0
 40
1.0
 10
184.7383809089661
 20
339.4191397563557
 30
0.0
 10
184.7698718434402
 20
339.3658915513617
 30
0.0
 10
184.8363812553887
 20
339.2534303983157
 30
0.0
 10
185.164502843589
 20
338.9143557347412
 30
0.0
 10
185.9168196205723
 20
338.7292984366482
 30
0.0
 10
187.4492651593339
 20
339.1862738720854
 30
0.0
 10
189.2142390213731
 20
340.1470279688704
 30
0.0
 10
191.6255735016462
 20
341.7992781350223
 30
0.0
 10
194.874965534139
 20
344.3273157209885
 30
0.0
 10
199.0821738044332
 20
347.7472331945737
 30
0.0
 10
203.7821588753619
 20
351.5677715067098
 30
0.0
 10
209.4889539658153
 20
356.0351748651148
 30
0.0
 10
216.3409773105908
 20
360.9956928990376
 30
0.0
 10
224.4589206422939
 20
366.0243644311117
 30
0.0
 10
233.1170325603343
 20
370.5293307331762
 30
0.0
 10
242.1656205024646
 20
374.401139192361
 30
0.0
 10
251.5230603193839
 20
377.5527135179681
 30
0.0
 10
261.7492738188773
 20
379.8764798100077
 30
0.0
 10
272.9624571201422
 20
381.605588497955
 30
0.0
 10
285.2413856863617
 20
383.2790043966963
 30
0.0
 10
297.7788563969137
 20
384.846653765074
 30
0.0
 10
310.4177042061675
 20
386.2343852880063
 30
0.0
 10
322.4059820211247
 20
387.3930704702778
 30
0.0
 10
333.6911434297115
 20
388.3885861294053
 30
0.0
 10
344.2603409554116
 20
389.3402174994758
 30
0.0
 10
354.8688798562126
 20
390.414401076025
 30
0.0
 10
365.65242826502
 20
391.6751188344135
 30
0.0
 10
376.8270908109124
 20
392.8658063924607
 30
0.0
 10
388.4256638228435
 20
393.4516512089731
 30
0.0
 10
400.0679743943859
 20
392.8545979640118
 30
0.0
 10
411.3250847849237
 20
391.6283960749178
 30
0.0
 10
422.1395412446055
 20
390.3453598111412
 30
0.0
 10
432.7148811904522
 20
389.2609292827661
 30
0.0
 10
443.2437259899401
 20
388.3135900526874
 30
0.0
 10
454.5531569154517
 20
387.336134248124
 30
0.0
 10
466.6149924409257
 20
386.2401287604104
 30
0.0
 10
479.3266949752914
 20
384.8913892235128
 30
0.0
 10
491.8915969045448
 20
383.3468044602901
 30
0.0
 10
504.2256371112788
 20
381.6706122338588
 30
0.0
 10
515.5294507294475
 20
379.996392361805
 30
0.0
 10
525.8751404010465
 20
377.7374230991459
 30
0.0
 10
535.3110045510056
 20
374.6240118294941
 30
0.0
 10
544.4092488755743
 20
370.7734157425591
 30
0.0
 10
553.1085823584793
 20
366.2860481769714
 30
0.0
 10
561.2863663040961
 20
361.277113346539
 30
0.0
 10
568.1945633003456
 20
356.350526412265
 30
0.0
 10
573.9486242287228
 20
351.9036651695937
 30
0.0
 10
578.6730031017402
 20
348.0916769892625
 30
0.0
 10
582.8723014842591
 20
344.6625943467164
 30
0.0
 10
586.0982119154347
 20
342.1049974491373
 30
0.0
 10
588.4786655659326
 20
340.4241350381488
 30
0.0
 10
590.2122746860731
 20
339.439132078097
 30
0.0
 10
591.4892724043223
 20
339.0231189072055
 30
0.0
 10
592.3386130289166
 20
339.0734908440047
 30
0.0
 10
592.6937375716324
 20
339.3258314441577
 30
0.0
 10
592.8014334318538
 20
339.5437689377186
 30
0.0
 10
592.8087216615677
 20
339.5585176802708
 30
0.0
  0
ENDSEC
  0
SECTION
  2
OBJECTS
  0
DICTIONARY
  5
C
330
0
100
AcDbDictionary
281
     1
  3
ACAD_GROUP
350
D
  3
ACAD_LAYOUT
350
1A
  3
ACAD_MLINESTYLE
350
17
  3
ACAD_PLOTSETTINGS
350
19
  3
ACAD_PLOTSTYLENAME
350
E
  3
ACAD_SCALELIST
350
47
  0
DICTIONARY
  5
D
102
{ACAD_REACTORS
330
C
102
}
330
C
100
AcDbDictionary
281
     1
  0
DICTIONARY
  5
1A
102
{ACAD_REACTORS
330
C
102
}
330
C
100
AcDbDictionary
281
     1
  3
Layout1
350
1E
  3
Layout2
350
26
  3
Model
350
22
  0
DICTIONARY
  5
17
102
{ACAD_REACTORS
330
C
102
}
330
C
100
AcDbDictionary
281
     1
  3
Standard
350
18
  0
DICTIONARY
  5
19
102
{ACAD_REACTORS
330
C
102
}
330
C
100
AcDbDictionary
281
     1
  0
ACDBDICTIONARYWDFLT
  5
E
102
{ACAD_REACTORS
330
C
102
}
330
C
100
AcDbDictionary
281
     1
  3
Normal
350
F
100
AcDbDictionaryWithDefault
340
F
  0
DICTIONARY
  5
47
102
{ACAD_REACTORS
330
C
102
}
330
C
100
AcDbDictionary
281
     1
  3
A0
350
48
  3
A1
350
49
  3
A2
350
4A
  3
A3
350
4B
  3
A4
350
4C
  3
A5
350
4D
  3
A6
350
4E
  3
A7
350
4F
  3
A8
350
50
  3
A9
350
51
  3
B0
350
52
  3
B1
350
53
  3
B2
350
54
  3
B3
350
55
  3
B4
350
56
  3
B5
350
57
  3
B6
350
58
  3
B7
350
59
  3
B8
350
5A
  3
B9
350
5B
  3
C0
350
5C
  3
C1
350
5D
  3
C2
350
5E
  3
C3
350
5F
  3
C4
350
60
  3
C5
350
61
  3
C6
350
62
  3
C7
350
63
  3
C8
350
64
  3
C9
350
65
  3
D0
350
66
  3
D1
350
67
  3
D2
350
68
  0
LAYOUT
  5
1E
102
{ACAD_REACTORS
330
1A
102
}
330
1A
100
AcDbPlotSettings
  1

  2
none_device
  4

  6

 40
0.0
 41
0.0
 42
0.0
 43
0.0
 44
0.0
 45
0.0
 46
0.0
 47
0.0
 48
0.0
 49
0.0
140
0.0
141
0.0
142
1.0
143
1.0
 70
   688
 72
     1
 73
     0
 74
     5
  7

 75
    16
147
1.0
148
0.0
149
0.0
100
AcDbLayout
  1
Layout1
 70
     1
 71
     1
 10
0.0
 20
0.0
 11
420.0
 21
297.0
 12
0.0
 22
0.0
 32
0.0
 14
1.0000000000E+20
 24
1.0000000000E+20
 34
1.0000000000E+20
 15
-1.0000000000E+20
 25
-1.0000000000E+20
 35
-1.0000000000E+20
146
0.0
 13
0.0
 23
0.0
 33
0.0
 16
1.0
 26
0.0
 36
0.0
 17
0.0
 27
1.0
 37
0.0
 76
     0
330
1B
  0
LAYOUT
  5
26
102
{ACAD_REACTORS
330
1A
102
}
330
1A
100
AcDbPlotSettings
  1

  2
none_device
  4

  6

 40
0.0
 41
0.0
 42
0.0
 43
0.0
 44
0.0
 45
0.0
 46
0.0
 47
0.0
 48
0.0
 49
0.0
140
0.0
141
0.0
142
1.0
143
1.0
 70
   688
 72
     1
 73
     0
 74
     5
  7

 75
    16
147
1.0
148
0.0
149
0.0
100
AcDbLayout
  1
Layout2
 70
     1
 71
     2
 10
0.0
 20
0.0
 11
0.0
 21
0.0
 12
0.0
 22
0.0
 32
0.0
 14
0.0
 24
0.0
 34
0.0
 15
0.0
 25
0.0
 35
0.0
146
0.0
 13
0.0
 23
0.0
 33
0.0
 16
1.0
 26
0.0
 36
0.0
 17
0.0
 27
1.0
 37
0.0
 76
     0
330
23
  0
LAYOUT
  5
22
102
{ACAD_REACTORS
330
1A
102
}
330
1A
100
AcDbPlotSettings
  1

  2
none_device
  4
Letter_(8.50_x_11.00_Inches)
  6

 40
6.35
 41
6.35
 42
6.35000508
 43
6.35000508
 44
215.9
 45
279.4
 46
0.0
 47
0.0
 48
0.0
 49
0.0
140
0.0
141
0.0
142
1.0
143
1.0
 70
  1712
 72
     1
 73
     0
 74
     0
  7

 75
     0
147
1.0
148
0.0
149
0.0
100
AcDbLayout
  1
Model
 70
     1
 71
     0
 10
0.0
 20
0.0
 11
1500.0
 21
1000.0
 12
0.0
 22
0.0
 32
0.0
 14
0.0
 24
0.0
 34
0.0
 15
1500.0
 25
1000.0
 35
0.0
146
0.0
 13
0.0
 23
0.0
 33
0.0
 16
1.0
 26
0.0
 36
0.0
 17
0.0
 27
1.0
 37
0.0
 76
     0
330
1F
331
29
  0
MLINESTYLE
  5
18
102
{ACAD_REACTORS
330
17
102
}
330
17
100
AcDbMlineStyle
  2
Standard
 70
     0
  3

 62
   256
 51
90.0
 52
90.0
 71
     2
 49
0.5
 62
   256
  6
BYLAYER
 49
-0.5
 62
   256
  6
BYLAYER
  0
ACDBPLACEHOLDER
  5
F
102
{ACAD_REACTORS
330
E
102
}
330
E
  0
SCALE
  5
48
102
{ACAD_REACTORS
330
47
102
}
330
47
100
AcDbScale
 70
     0
300
1:1
140
1.0
141
1.0
290
     1
  0
SCALE
  5
49
102
{ACAD_REACTORS
330
47
102
}
330
47
100
AcDbScale
 70
     0
300
1:2
140
1.0
141
2.0
290
     0
  0
SCALE
  5
4A
102
{ACAD_REACTORS
330
47
102
}
330
47
100
AcDbScale
 70
     0
300
1:4
140
1.0
141
4.0
290
     0
  0
SCALE
  5
4B
102
{ACAD_REACTORS
330
47
102
}
330
47
100
AcDbScale
 70
     0
300
1:5
140
1.0
141
5.0
290
     0
  0
SCALE
  5
4C
102
{ACAD_REACTORS
330
47
102
}
330
47
100
AcDbScale
 70
     0
300
1:8
140
1.0
141
8.0
290
     0
  0
SCALE
  5
4D
102
{ACAD_REACTORS
330
47
102
}
330
47
100
AcDbScale
 70
     0
300
1:10
140
1.0
141
10.0
290
     0
  0
SCALE
  5
4E
102
{ACAD_REACTORS
330
47
102
}
330
47
100
AcDbScale
 70
     0
300
1:16
140
1.0
141
16.0
290
     0
  0
SCALE
  5
4F
102
{ACAD_REACTORS
330
47
102
}
330
47
100
AcDbScale
 70
     0
300
1:20
140
1.0
141
20.0
290
     0
  0
SCALE
  5
50
102
{ACAD_REACTORS
330
47
102
}
330
47
100
AcDbScale
 70
     0
300
1:30
140
1.0
141
30.0
290
     0
  0
SCALE
  5
51
102
{ACAD_REACTORS
330
47
102
}
330
47
100
AcDbScale
 70
     0
300
1:40
140
1.0
141
40.0
290
     0
  0
SCALE
  5
52
102
{ACAD_REACTORS
330
47
102
}
330
47
100
AcDbScale
 70
     0
300
1:50
140
1.0
141
50.0
290
     0
  0
SCALE
  5
53
102
{ACAD_REACTORS
330
47
102
}
330
47
100
AcDbScale
 70
     0
300
1:100
140
1.0
141
100.0
290
     0
  0
SCALE
  5
54
102
{ACAD_REACTORS
330
47
102
}
330
47
100
AcDbScale
 70
     0
300
2:1
140
2.0
141
1.0
290
     0
  0
SCALE
  5
55
102
{ACAD_REACTORS
330
47
102
}
330
47
100
AcDbScale
 70
     0
300
4:1
140
4.0
141
1.0
290
     0
  0
SCALE
  5
56
102
{ACAD_REACTORS
330
47
102
}
330
47
100
AcDbScale
 70
     0
300
8:1
140
8.0
141
1.0
290
     0
  0
SCALE
  5
57
102
{ACAD_REACTORS
330
47
102
}
330
47
100
AcDbScale
 70
     0
300
10:1
140
10.0
141
1.0
290
     0
  0
SCALE
  5
58
102
{ACAD_REACTORS
330
47
102
}
330
47
100
AcDbScale
 70
     0
300
100:1
140
100.0
141
1.0
290
     0
  0
SCALE
  5
59
102
{ACAD_REACTORS
330
47
102
}
330
47
100
AcDbScale
 70
     0
300
1/128" = 1'-0"
140
0.0078125
141
12.0
290
     0
  0
SCALE
  5
5A
102
{ACAD_REACTORS
330
47
102
}
330
47
100
AcDbScale
 70
     0
300
1/64" = 1'-0"
140
0.015625
141
12.0
290
     0
  0
SCALE
  5
5B
102
{ACAD_REACTORS
330
47
102
}
330
47
100
AcDbScale
 70
     0
300
1/32" = 1'-0"
140
0.03125
141
12.0
290
     0
  0
SCALE
  5
5C
102
{ACAD_REACTORS
330
47
102
}
330
47
100
AcDbScale
 70
     0
300
1/16" = 1'-0"
140
0.0625
141
12.0
290
     0
  0
SCALE
  5
5D
102
{ACAD_REACTORS
330
47
102
}
330
47
100
AcDbScale
 70
     0
300
3/32" = 1'-0"
140
0.09375
141
12.0
290
     0
  0
SCALE
  5
5E
102
{ACAD_REACTORS
330
47
102
}
330
47
100
AcDbScale
 70
     0
300
1/8" = 1'-0"
140
0.125
141
12.0
290
     0
  0
SCALE
  5
5F
102
{ACAD_REACTORS
330
47
102
}
330
47
100
AcDbScale
 70
     0
300
3/16" = 1'-0"
140
0.1875
141
12.0
290
     0
  0
SCALE
  5
60
102
{ACAD_REACTORS
330
47
102
}
330
47
100
AcDbScale
 70
     0
300
1/4" = 1'-0"
140
0.25
141
12.0
290
     0
  0
SCALE
  5
61
102
{ACAD_REACTORS
330
47
102
}
330
47
100
AcDbScale
 70
     0
300
3/8" = 1'-0"
140
0.375
141
12.0
290
     0
  0
SCALE
  5
62
102
{ACAD_REACTORS
330
47
102
}
330
47
100
AcDbScale
 70
     0
300
1/2" = 1'-0"
140
0.5
141
12.0
290
     0
  0
SCALE
  5
63
102
{ACAD_REACTORS
330
47
102
}
330
47
100
AcDbScale
 70
     0
300
3/4" = 1'-0"
140
0.75
141
12.0
290
     0
  0
SCALE
  5
64
102
{ACAD_REACTORS
330
47
102
}
330
47
100
AcDbScale
 70
     0
300
1" = 1'-0"
140
1.0
141
12.0
290
     0
  0
SCALE
  5
65
102
{ACAD_REACTORS
330
47
102
}
330
47
100
AcDbScale
 70
     0
300
1-1/2" = 1'-0"
140
1.5
141
12.0
290
     0
  0
SCALE
  5
66
102
{ACAD_REACTORS
330
47
102
}
330
47
100
AcDbScale
 70
     0
300
3" = 1'-0"
140
3.0
141
12.0
290
     0
  0
SCALE
  5
67
102
{ACAD_REACTORS
330
47
102
}
330
47
100
AcDbScale
 70
     0
300
6" = 1'-0"
140
6.0
141
12.0
290
     0
  0
SCALE
  5
68
102
{ACAD_REACTORS
330
47
102
}
330
47
100
AcDbScale
 70
     0
300
1'-0" = 1'-0"
140
12.0
141
12.0
290
     0
  0
ENDSEC
  0
EOF
