  0
SECTION
  2
HEADER
  9
$ACADVER
  1
AC1018
  9
$ACADMAINTVER
 70
   104
  9
$DWGCODEPAGE
  3
ANSI_1252
  9
$LASTSAVEDBY
  1
Administrator
  9
$CUSTOMPROPERTYTAG
  1
AmdtFileType
  9
$CUSTOMPROPERTY
  1
84
  9
$INSBASE
 10
0.0
 20
0.0
 30
0.0
  9
$EXTMIN
 10
-575.016624489722
 20
-345.4576099130217
 30
0.0
  9
$EXTMAX
 10
9.502245574058633
 20
435.1216661642165
 30
0.0
  9
$LIMMIN
 10
0.0
 20
0.0
  9
$LIMMAX
 10
420.0
 20
297.0
  9
$ORTHOMODE
 70
     0
  9
$REGENMODE
 70
     1
  9
$FILLMODE
 70
     1
  9
$QTEXTMODE
 70
     0
  9
$MIRRTEXT
 70
     1
  9
$LTSCALE
 40
1.0
  9
$ATTMODE
 70
     1
  9
$TEXTSIZE
 40
2.5
  9
$TRACEWID
 40
1.0
  9
$TEXTSTYLE
  7
STANDARD
  9
$CLAYER
  8
0
  9
$CELTYPE
  6
ByLayer
  9
$CECOLOR
 62
   256
  9
$CELTSCALE
 40
1.0
  9
$DISPSILH
 70
     0
  9
$DIMSCALE
 40
1.0
  9
$DIMASZ
 40
3.5
  9
$DIMEXO
 40
1.0
  9
$DIMDLI
 40
10.0
  9
$DIMRND
 40
0.0
  9
$DIMDLE
 40
0.0
  9
$DIMEXE
 40
1.0
  9
$DIMTP
 40
0.1
  9
$DIMTM
 40
0.1
  9
$DIMTXT
 40
3.5
  9
$DIMCEN
 40
0.0
  9
$DIMTSZ
 40
0.0
  9
$DIMTOL
 70
     0
  9
$DIMLIM
 70
     0
  9
$DIMTIH
 70
     0
  9
$DIMTOH
 70
     0
  9
$DIMSE1
 70
     0
  9
$DIMSE2
 70
     0
  9
$DIMTAD
 70
     1
  9
$DIMZIN
 70
     8
  9
$DIMBLK
  1

  9
$DIMASO
 70
     1
  9
$DIMSHO
 70
     1
  9
$DIMPOST
  1

  9
$DIMAPOST
  1
"
  9
$DIMALT
 70
     0
  9
$DIMALTD
 70
     2
  9
$DIMALTF
 40
0.0393701
  9
$DIMLFAC
 40
1.0
  9
$DIMTOFL
 70
     1
  9
$DIMTVP
 40
0.0
  9
$DIMTIX
 70
     0
  9
$DIMSOXD
 70
     0
  9
$DIMSAH
 70
     0
  9
$DIMBLK1
  1

  9
$DIMBLK2
  1

  9
$DIMSTYLE
  2
AM_DIN
  9
$DIMCLRD
 70
   256
  9
$DIMCLRE
 70
   256
  9
$DIMCLRT
 70
   140
  9
$DIMTFAC
 40
0.71
  9
$DIMGAP
 40
1.5
  9
$DIMJUST
 70
     0
  9
$DIMSD1
 70
     0
  9
$DIMSD2
 70
     0
  9
$DIMTOLJ
 70
     0
  9
$DIMTZIN
 70
     8
  9
$DIMALTZ
 70
     0
  9
$DIMALTTZ
 70
     0
  9
$DIMUPT
 70
     0
  9
$DIMDEC
 70
     2
  9
$DIMTDEC
 70
     3
  9
$DIMALTU
 70
     2
  9
$DIMALTTD
 70
     4
  9
$DIMTXSTY
  7
STANDARD
  9
$DIMAUNIT
 70
     0
  9
$DIMADEC
 70
     0
  9
$DIMALTRND
 40
0.0
  9
$DIMAZIN
 70
     2
  9
$DIMDSEP
 70
    46
  9
$DIMATFIT
 70
     3
  9
$DIMFRAC
 70
     0
  9
$DIMLDRBLK
  1

  9
$DIMLUNIT
 70
     2
  9
$DIMLWD
 70
    -1
  9
$DIMLWE
 70
    -1
  9
$DIMTMOVE
 70
     0
  9
$LUNITS
 70
     2
  9
$LUPREC
 70
     2
  9
$SKETCHINC
 40
1.0
  9
$FILLETRAD
 40
0.0
  9
$AUNITS
 70
     0
  9
$AUPREC
 70
     0
  9
$MENU
  1
.
  9
$ELEVATION
 40
0.0
  9
$PELEVATION
 40
0.0
  9
$THICKNESS
 40
0.0
  9
$LIMCHECK
 70
     0
  9
$CHAMFERA
 40
2.5
  9
$CHAMFERB
 40
2.5
  9
$CHAMFERC
 40
20.0
  9
$CHAMFERD
 40
0.0
  9
$SKPOLY
 70
     0
  9
$TDCREATE
 40
2453918.262673241
  9
$TDUCREATE
 40
2453918.179339908
  9
$TDUPDATE
 40
2457541.649161088
  9
$TDUUPDATE
 40
2457541.565827755
  9
$TDINDWG
 40
0.9139050463
  9
$TDUSRTIMER
 40
0.9139008912
  9
$USRTIMER
 70
     1
  9
$ANGBASE
 50
0.0
  9
$ANGDIR
 70
     0
  9
$PDMODE
 70
     0
  9
$PDSIZE
 40
0.0
  9
$PLINEWID
 40
0.0
  9
$SPLFRAME
 70
     0
  9
$SPLINETYPE
 70
     6
  9
$SPLINESEGS
 70
     8
  9
$HANDSEED
  5
6180
  9
$SURFTAB1
 70
     6
  9
$SURFTAB2
 70
     6
  9
$SURFTYPE
 70
     6
  9
$SURFU
 70
     6
  9
$SURFV
 70
     6
  9
$UCSBASE
  2

  9
$UCSNAME
  2

  9
$UCSORG
 10
0.0
 20
0.0
 30
0.0
  9
$UCSXDIR
 10
1.0
 20
0.0
 30
0.0
  9
$UCSYDIR
 10
0.0
 20
1.0
 30
0.0
  9
$UCSORTHOREF
  2

  9
$UCSORTHOVIEW
 70
     0
  9
$UCSORGTOP
 10
0.0
 20
0.0
 30
0.0
  9
$UCSORGBOTTOM
 10
0.0
 20
0.0
 30
0.0
  9
$UCSORGLEFT
 10
0.0
 20
0.0
 30
0.0
  9
$UCSORGRIGHT
 10
0.0
 20
0.0
 30
0.0
  9
$UCSORGFRONT
 10
0.0
 20
0.0
 30
0.0
  9
$UCSORGBACK
 10
0.0
 20
0.0
 30
0.0
  9
$PUCSBASE
  2

  9
$PUCSNAME
  2

  9
$PUCSORG
 10
0.0
 20
0.0
 30
0.0
  9
$PUCSXDIR
 10
1.0
 20
0.0
 30
0.0
  9
$PUCSYDIR
 10
0.0
 20
1.0
 30
0.0
  9
$PUCSORTHOREF
  2

  9
$PUCSORTHOVIEW
 70
     0
  9
$PUCSORGTOP
 10
0.0
 20
0.0
 30
0.0
  9
$PUCSORGBOTTOM
 10
0.0
 20
0.0
 30
0.0
  9
$PUCSORGLEFT
 10
0.0
 20
0.0
 30
0.0
  9
$PUCSORGRIGHT
 10
0.0
 20
0.0
 30
0.0
  9
$PUCSORGFRONT
 10
0.0
 20
0.0
 30
0.0
  9
$PUCSORGBACK
 10
0.0
 20
0.0
 30
0.0
  9
$USERI1
 70
     0
  9
$USERI2
 70
     0
  9
$USERI3
 70
     0
  9
$USERI4
 70
     0
  9
$USERI5
 70
     0
  9
$USERR1
 40
0.0
  9
$USERR2
 40
0.0
  9
$USERR3
 40
0.0
  9
$USERR4
 40
0.0
  9
$USERR5
 40
0.0
  9
$WORLDVIEW
 70
     1
  9
$SHADEDGE
 70
     3
  9
$SHADEDIF
 70
    70
  9
$TILEMODE
 70
     1
  9
$MAXACTVP
 70
    64
  9
$PINSBASE
 10
0.0
 20
0.0
 30
0.0
  9
$PLIMCHECK
 70
     0
  9
$PEXTMIN
 10
1.000000000000000E+20
 20
1.000000000000000E+20
 30
1.000000000000000E+20
  9
$PEXTMAX
 10
-1.000000000000000E+20
 20
-1.000000000000000E+20
 30
-1.000000000000000E+20
  9
$PLIMMIN
 10
0.0
 20
0.0
  9
$PLIMMAX
 10
420.0
 20
297.0
  9
$UNITMODE
 70
     0
  9
$VISRETAIN
 70
     1
  9
$PLINEGEN
 70
     0
  9
$PSLTSCALE
 70
     1
  9
$TREEDEPTH
 70
  3020
  9
$CMLSTYLE
  2
Standard
  9
$CMLJUST
 70
     0
  9
$CMLSCALE
 40
20.0
  9
$PROXYGRAPHICS
 70
     1
  9
$MEASUREMENT
 70
     1
  9
$CELWEIGHT
370
    -1
  9
$ENDCAPS
280
     0
  9
$JOINSTYLE
280
     0
  9
$LWDISPLAY
290
     0
  9
$INSUNITS
 70
     4
  9
$HYPERLINKBASE
  1

  9
$STYLESHEET
  1

  9
$XEDIT
290
     1
  9
$CEPSNTYPE
380
     0
  9
$PSTYLEMODE
290
     1
  9
$FINGERPRINTGUID
  2
{E66C8CC1-E66B-408F-9010-06FD783B68A0}
  9
$VERSIONGUID
  2
{B9703660-1D86-4137-A789-96A84FFE7AEA}
  9
$EXTNAMES
290
     1
  9
$PSVPSCALE
 40
0.0
  9
$OLESTARTUP
290
     0
  9
$SORTENTS
280
   127
  9
$INDEXCTL
280
     0
  9
$HIDETEXT
280
     1
  9
$XCLIPFRAME
290
     0
  9
$HALOGAP
280
     0
  9
$OBSCOLOR
 70
   257
  9
$OBSLTYPE
280
     0
  9
$INTERSECTIONDISPLAY
280
     0
  9
$INTERSECTIONCOLOR
 70
   257
  9
$DIMASSOC
280
     2
  9
$PROJECTNAME
  1

  0
ENDSEC
  0
SECTION
  2
CLASSES
  0
CLASS
  1
ACDBDICTIONARYWDFLT
  2
AcDbDictionaryWithDefault
  3
ObjectDBX Classes
 90
        0
 91
        1
280
     0
281
     0
  0
CLASS
  1
ACME_DOCUMENT
  2
AcMeDbDoc
  3
AcMeServices
 90
     1024
 91
        2
280
     0
281
     0
  0
CLASS
  1
ACMESCOPE
  2
AcMeScope
  3
AcMeServices
 90
     1024
 91
        1
280
     0
281
     0
  0
CLASS
  1
ACMECOMMANDHISTORY
  2
AcMeCommandHistory
  3
AcMeServices
 90
     1024
 91
        1
280
     0
281
     0
  0
CLASS
  1
ACIMSYSVARMAN
  2
AcImSysVarManager
  3
AcMeServices
 90
     1024
 91
        4
280
     0
281
     0
  0
CLASS
  1
ACIMREALSYSVAR
  2
AcImRealSysVar
  3
AcMeServices
 90
     1024
 91
        1
280
     0
281
     0
  0
CLASS
  1
ACIMINTSYSVAR
  2
AcImIntSysVar
  3
AcMeServices
 90
     1024
 91
       27
280
     0
281
     0
  0
CLASS
  1
ACMEDRAWINGMAN
  2
AcMeDrawingMan
  3
AcMeServices
 90
     1024
 91
        0
280
     0
281
     0
  0
CLASS
  1
ACMEVIEW
  2
AcMeView
  3
AcMeServices
 90
     1024
 91
        0
280
     0
281
     0
  0
CLASS
  1
ACDBENTITYCACHE
  2
AcMeEntityCache
  3
AcMeServices
 90
     1024
 91
        1
280
     0
281
     0
  0
CLASS
  1
GSMANAGER
  2
AcMeGSManager
  3
AcMeServices
 90
     1024
 91
        0
280
     0
281
     0
  0
CLASS
  1
AMDTINTERNALREACTOR
  2
AmdtInternalReactor
  3
AcMeServices
 90
     1024
 91
        1
280
     0
281
     0
  0
CLASS
  1
ACMESTATEMGR
  2
AcMeStateMgr
  3
AcMeServices
 90
     1024
 91
        1
280
     0
281
     0
  0
CLASS
  1
ACGREFMASTER
  2
AcGrefMaster
  3
AcAttribServices
 90
     1024
 91
        1
280
     0
281
     0
  0
CLASS
  1
ACME_DATABASE
  2
AcMeDbDatabase
  3
AcMeServices
 90
     1024
 91
        2
280
     0
281
     0
  0
CLASS
  1
ACRFINSADJUSTERMGR
  2
AcRfInsAdjusterMgr
  3
AcMeServices
 90
     1024
 91
        1
280
     0
281
     0
  0
CLASS
  1
ACGREFACADMASTER
  2
AcGrefacadMaster
  3
AcGrefServices
 90
     1024
 91
        1
280
     0
281
     0
  0
CLASS
  1
AMIMASTER
  2
AmiMaster
  3
AmiServices
 90
     1024
 91
        1
280
     0
281
     0
  0
CLASS
  1
AMGSETTINGSOBJ
  2
AmgSettingsObj
  3
"AcadM|Product Description: AutoCAD Mechanical|Company: Autodesk, Inc."
 90
     1024
 91
        2
280
     0
281
     0
  0
CLASS
  1
ACMDATADICTIONARY
  2
AcmDataDictionary
  3
"AcmSymBB|Product Description: AutoCAD Mechanical|Company: Autodesk, Inc."
 90
     1024
 91
        1
280
     0
281
     0
  0
CLASS
  1
ACMDATAENTRYBLOCK
  2
AcmDataEntryBlock
  3
AcmSymBB|Product Description: AutoCAD Mechanical|Company: Autodesk, Inc.
 90
     1024
 91
        0
280
     0
281
     0
  0
CLASS
  1
ACIMSTRSYSVAR
  2
AcImStrSysVar
  3
AcMeServices
 90
     1024
 91
        5
280
     0
281
     0
  0
CLASS
  1
ACMSTANDARDDIN
  2
AcmStandardDIN
  3
"Amdt_StdImp|Product Description: AutoCAD Mechanical|Company: Autodesk, Inc."
 90
     1024
 91
        1
280
     0
281
     0
  0
CLASS
  1
AMGOBJPROPCFG
  2
AmgObjPropCfg
  3
"AmgLay|Product Description: AutoCAD Mechanical|Company: Autodesk, Inc."
 90
     1025
 91
        1
280
     0
281
     0
  0
CLASS
  1
AMDTEDGESTANDARDDIN
  2
AmdtEdgeStdDIN
  3
"Amdt_StdImp|Product Description: AutoCAD Mechanical|Company: Autodesk, Inc."
 90
     1024
 91
        0
280
     0
281
     0
  0
CLASS
  1
ACMSURFSTANDARDDIN
  2
AcmSurfTextStdDIN
  3
"Amdt_StdImp|Product Description: AutoCAD Mechanical|Company: Autodesk, Inc."
 90
     1024
 91
        0
280
     0
281
     0
  0
CLASS
  1
ACMFCFSTANDARDDIN
  2
AcmFCFStdDIN
  3
"Amdt_StdImp|Product Description: AutoCAD Mechanical|Company: Autodesk, Inc."
 90
     1024
 91
        1
280
     0
281
     0
  0
CLASS
  1
ACMWELDSTANDARDDIN
  2
AcmWeldingStdDIN
  3
"Amdt_StdImp|Product Description: AutoCAD Mechanical|Company: Autodesk, Inc."
 90
     1024
 91
        1
280
     0
281
     0
  0
CLASS
  1
ACMIDSTANDARDDIN
  2
AcmIdStdDIN
  3
"Amdt_StdImp|Product Description: AutoCAD Mechanical|Company: Autodesk, Inc."
 90
     1024
 91
        1
280
     0
281
     0
  0
CLASS
  1
ACMDATUMSTANDARDDIN
  2
AcmDatumStdDIN
  3
"Amdt_StdImp|Product Description: AutoCAD Mechanical|Company: Autodesk, Inc."
 90
     1024
 91
        1
280
     0
281
     0
  0
CLASS
  1
ACMBOMSTANDARDDIN
  2
AcmBOMStdDIN
  3
"Amdt_StdImp|Product Description: AutoCAD Mechanical|Company: Autodesk, Inc."
 90
     1024
 91
        1
280
     0
281
     0
  0
CLASS
  1
ACMDETAILSTANDARDDIN
  2
AmdtDetailSymStdDIN
  3
"Amdt_StdImp|Product Description: AutoCAD Mechanical|Company: Autodesk, Inc."
 90
     1024
 91
        1
280
     0
281
     0
  0
CLASS
  1
ACMSECTIONSTANDARDDIN
  2
AmdtSectionSymStdDIN
  3
"Amdt_StdImp|Product Description: AutoCAD Mechanical|Company: Autodesk, Inc."
 90
     1024
 91
        1
280
     0
281
     0
  0
CLASS
  1
ACMCENTERLINESTANDARDDIN
  2
AmdtCenterLineStdDIN
  3
"Amdt_StdImp|Product Description: AutoCAD Mechanical|Company: Autodesk, Inc."
 90
     1024
 91
        1
280
     0
281
     0
  0
CLASS
  1
ACMNOTESTANDARDDIN
  2
AmdtNoteStdDIN
  3
"Amdt_StdImp|Product Description: AutoCAD Mechanical|Company: Autodesk, Inc."
 90
     1024
 91
        1
280
     0
281
     0
  0
CLASS
  1
ACAMGLAYSTD
  2
AcAmgLayStd
  3
"AmgLay|Product Description: AutoCAD Mechanical|Company: Autodesk, Inc."
 90
     1024
 91
        1
280
     0
281
     0
  0
CLASS
  1
ACAMGDIMSTD
  2
AcAmgDimStd
  3
"AmgDim|Product Description: AutoCAD Mechanical|Company: Autodesk, Inc."
 90
     1024
 91
        1
280
     0
281
     0
  0
CLASS
  1
ACAMGHOLECHARTSTDDIN
  2
AcAmgHoleChartStdDIN
  3
AmgDim|Product Description: AutoCAD Mechanical|Company: Autodesk, Inc.
 90
     1024
 91
        1
280
     0
281
     0
  0
CLASS
  1
ACAMGTITLESTD
  2
AcAmgTitleStd
  3
"AmgTitle|Product Description: AutoCAD Mechanical|Company: Autodesk, Inc."
 90
     4095
 91
        1
280
     0
281
     0
  0
CLASS
  1
LAYER_INDEX
  2
AcDbLayerIndex
  3
ObjectDBX Classes
 90
        0
 91
        0
280
     0
281
     0
  0
CLASS
  1
IDBUFFER
  2
AcDbIdBuffer
  3
ObjectDBX Classes
 90
        0
 91
        0
280
     0
281
     0
  0
CLASS
  1
DICTIONARYVAR
  2
AcDbDictionaryVar
  3
ObjectDBX Classes
 90
        0
 91
       10
280
     0
281
     0
  0
CLASS
  1
ACAMGFILTERDAT
  2
AcAmgFilterDat
  3
"AcadM|Product Description: AutoCAD Mechanical|Company: Autodesk, Inc."
 90
     1024
 91
        0
280
     0
281
     0
  0
CLASS
  1
ACMSTANDARDANSI
  2
AcmStandardANSI
  3
"Amdt_StdImp|Product Description: AutoCAD Mechanical|Company: Autodesk, Inc."
 90
     1024
 91
        0
280
     0
281
     0
  0
CLASS
  1
ACMSURFSTANDARDANSI
  2
AcmSurfTextStdANSI
  3
"Amdt_StdImp|Product Description: AutoCAD Mechanical|Company: Autodesk, Inc."
 90
     1024
 91
        0
280
     0
281
     0
  0
CLASS
  1
ACMFCFSTANDARDANSI
  2
AcmFCFStdANSI
  3
"Amdt_StdImp|Product Description: AutoCAD Mechanical|Company: Autodesk, Inc."
 90
     1024
 91
        0
280
     0
281
     0
  0
CLASS
  1
ACMWELDSTANDARDANSI
  2
AcmWeldingStdANSI
  3
"Amdt_StdImp|Product Description: AutoCAD Mechanical|Company: Autodesk, Inc."
 90
     1024
 91
        0
280
     0
281
     0
  0
CLASS
  1
ACMIDSTANDARDANSI
  2
AcmIdStdANSI
  3
"Amdt_StdImp|Product Description: AutoCAD Mechanical|Company: Autodesk, Inc."
 90
     1024
 91
        0
280
     0
281
     0
  0
CLASS
  1
ACMDATUMSTANDARDANSI
  2
AcmDatumStdANSI
  3
"Amdt_StdImp|Product Description: AutoCAD Mechanical|Company: Autodesk, Inc."
 90
     1024
 91
        0
280
     0
281
     0
  0
CLASS
  1
ACMBOMSTANDARDANSI
  2
AcmBOMStdANSI
  3
"Amdt_StdImp|Product Description: AutoCAD Mechanical|Company: Autodesk, Inc."
 90
     1024
 91
        0
280
     0
281
     0
  0
CLASS
  1
ACMDETAILSTANDARDANSI
  2
AmdtDetailSymStdANSI
  3
"Amdt_StdImp|Product Description: AutoCAD Mechanical|Company: Autodesk, Inc."
 90
     1024
 91
        0
280
     0
281
     0
  0
CLASS
  1
ACMSECTIONSTANDARDANSI
  2
AmdtSectionSymStdANSI
  3
"Amdt_StdImp|Product Description: AutoCAD Mechanical|Company: Autodesk, Inc."
 90
     1024
 91
        0
280
     0
281
     0
  0
CLASS
  1
ACMCENTERLINESTANDARDANSI
  2
AmdtCenterLineStdANSI
  3
"Amdt_StdImp|Product Description: AutoCAD Mechanical|Company: Autodesk, Inc."
 90
     1024
 91
        0
280
     0
281
     0
  0
CLASS
  1
ACMNOTESTANDARDANSI
  2
AmdtNoteStdANSI
  3
"Amdt_StdImp|Product Description: AutoCAD Mechanical|Company: Autodesk, Inc."
 90
     1024
 91
        0
280
     0
281
     0
  0
CLASS
  1
ACAMGHOLECHARTSTDANSI
  2
AcAmgHoleChartStdANSI
  3
AmgDim|Product Description: AutoCAD Mechanical|Company: Autodesk, Inc.
 90
     1024
 91
        0
280
     0
281
     0
  0
CLASS
  1
AMDTFORMULAUPDATEDISPATCHER
  2
AmdtFormulaUpdateDispatcher
  3
AcMeServices
 90
     1024
 91
        0
280
     0
281
     0
  0
CLASS
  1
DIMASSOC
  2
AcDbDimAssoc
  3
"AcDbDimAssoc|Product Desc:     AcDim ARX App For Dimension|Company:          Autodesk, Inc.|WEB Address:      www.autodesk.com"
 90
        0
 91
        0
280
     0
281
     0
  0
CLASS
  1
MATERIAL
  2
AcDbMaterial
  3
ObjectDBX Classes
 90
     1153
 91
        3
280
     0
281
     0
  0
CLASS
  1
VISUALSTYLE
  2
AcDbVisualStyle
  3
ObjectDBX Classes
 90
     4095
 91
       26
280
     0
281
     0
  0
CLASS
  1
TABLESTYLE
  2
AcDbTableStyle
  3
ObjectDBX Classes
 90
     4095
 91
        1
280
     0
281
     0
  0
CLASS
  1
SCALE
  2
AcDbScale
  3
ObjectDBX Classes
 90
     1153
 91
       17
280
     0
281
     0
  0
CLASS
  1
MLEADERSTYLE
  2
AcDbMLeaderStyle
  3
ACDB_MLEADERSTYLE_CLASS
 90
     4095
 91
        1
280
     0
281
     0
  0
CLASS
  1
AM_DRAWING_MGR
  2
AcDmDwgMgr
  3
AcMechDwgViewMgmt
 90
     1024
 91
        1
280
     0
281
     0
  0
CLASS
  1
AM_DWG_DOCUMENT
  2
AcDmDwgDocument
  3
AcMechDwgViewMgmt
 90
     1024
 91
        1
280
     0
281
     0
  0
CLASS
  1
AM_DWG_SHEET
  2
AcDmSheet
  3
AcMechDwgViewMgmt
 90
     1024
 91
        2
280
     0
281
     0
  0
CLASS
  1
AM_VIEWDIMPARMAP
  2
AcDmViewDimParMap
  3
AcMechDwgViewMgmt
 90
     1024
 91
        2
280
     0
281
     0
  0
CLASS
  1
AM_DWGMGR_NAME
  2
AcDmDwgMgrName
  3
AcMechDwgViewMgmt
 90
     1024
 91
        1
280
     0
281
     0
  0
CLASS
  1
AMDTMENUSTATEMGR
  2
AmdtMenuStateMgr
  3
McadcomServices
 90
     1024
 91
        1
280
     0
281
     0
  0
CLASS
  1
AMDTMCOMMENUSTATE
  2
AmdtMcomMenuState
  3
McadcomServices
 90
     1024
 91
        1
280
     0
281
     0
  0
CLASS
  1
MAPIAMMOUDLE
  2
MApiAmModule
  3
MApiAmServices
 90
     1024
 91
        1
280
     0
281
     0
  0
CLASS
  1
AMDTADMENUSTATE
  2
AmdtAdMenuState
  3
DesignerServices
 90
     1024
 91
        0
280
     0
281
     0
  0
CLASS
  1
ADAPPL
  2
AcAdAppl
  3
DesignerAssemblies
 90
     1024
 91
        0
280
     0
281
     0
  0
CLASS
  1
DEPMGR
  2
AcAdDepMgr
  3
DesignerAssemblies
 90
     1024
 91
        0
280
     0
281
     0
  0
CLASS
  1
PARAMMGR
  2
AcAdParamMgr
  3
DesignerAssemblies
 90
     1024
 91
        0
280
     0
281
     0
  0
CLASS
  1
PARAMSCOPE
  2
AcAdParamScope
  3
DesignerAssemblies
 90
     1024
 91
        0
280
     0
281
     0
  0
CLASS
  1
NAMEDAPPL
  2
AcAdNamedAppl
  3
DesignerAssemblies
 90
     1024
 91
        0
280
     0
281
     0
  0
CLASS
  1
AMDTDMMENUSTATE
  2
AmdtDmMenuState
  3
AcMechDwgViewMgmt
 90
     1024
 91
        1
280
     0
281
     0
  0
CLASS
  1
AMDTAMMENUSTATE
  2
AmdtAmMenuState
  3
DesignerAssemblies
 90
     1024
 91
        1
280
     0
281
     0
  0
CLASS
  1
ACAMPROJECT
  2
AcAmProject
  3
DesignerAssemblies
 90
     1024
 91
        1
280
     0
281
     0
  0
CLASS
  1
ACAMGRCOMPDEF
  2
AcAmGrCompDef
  3
DesignerAssemblies
 90
     1024
 91
        1
280
     0
281
     0
  0
CLASS
  1
ACCMCONTEXT
  2
AcCmContext
  3
DesignerAssemblies
 90
     1024
 91
        0
280
     0
281
     0
  0
CLASS
  1
ACAMCOMPDEF
  2
AcAmCompDef
  3
DesignerAssemblies
 90
     1024
 91
        1
280
     0
281
     0
  0
CLASS
  1
ACAMCOMPDEFMGR
  2
AcAmCompDefMgr
  3
DesignerAssemblies
 90
     1024
 91
        1
280
     0
281
     0
  0
CLASS
  1
AMCONTEXTMGR
  2
AcAmContextMgr
  3
DesignerAssemblies
 90
     1024
 91
        1
280
     0
281
     0
  0
CLASS
  1
ACAMCONTEXTMODELER
  2
AcAmContextModeler
  3
DesignerAssemblies
 90
     1024
 91
        1
280
     0
281
     0
  0
CLASS
  1
ACRFATTGENMGR
  2
AcRfAttGeneralMgr
  3
AcAttribServices
 90
     1024
 91
        0
280
     0
281
     0
  0
CLASS
  1
ACRFOBJATTMGR
  2
AcRfObjAttGroupMgr
  3
AcAttribServices
 90
     1024
 91
        0
280
     0
281
     0
  0
CLASS
  1
ACRFMCADAPIATTHOLDER
  2
AcRfMCADAPIAttHolder
  3
AcAttribServices
 90
     1024
 91
        0
280
     0
281
     0
  0
CLASS
  1
AMDTSYSATTR
  2
AmdtSystemAttribute
  3
AcAttribServices
 90
     1024
 91
        0
280
     0
281
     0
  0
CLASS
  1
ACMTHREADLINESTANDARDDIN
  2
AmdtThreadLineStdDIN
  3
"Amdt_StdImp|Product Description: AutoCAD Mechanical|Company: Autodesk, Inc."
 90
     1024
 91
        1
280
     0
281
     0
  0
CLASS
  1
ACMTAPERSTANDARDDIN
  2
AcmTaperStdDIN
  3
"Amdt_StdImp|Product Description: AutoCAD Mechanical|Company: Autodesk, Inc."
 90
     1024
 91
        1
280
     0
281
     0
  0
CLASS
  1
ACMANOOTATIONVIEWSTANDARDDIN
  2
AmdtAnViewStdDIN
  3
"Amdt_StdImp|Product Description: AutoCAD Mechanical|Company: Autodesk, Inc."
 90
     1024
 91
        1
280
     0
281
     0
  0
CLASS
  1
ACMTHREADLINESTANDARDANSI
  2
AmdtThreadLineStdANSI
  3
"Amdt_StdImp|Product Description: AutoCAD Mechanical|Company: Autodesk, Inc."
 90
     1024
 91
        0
280
     0
281
     0
  0
CLASS
  1
ACMTAPERSTANDARDANSI
  2
AcmTaperStdANSI
  3
"Amdt_StdImp|Product Description: AutoCAD Mechanical|Company: Autodesk, Inc."
 90
     1024
 91
        0
280
     0
281
     0
  0
CLASS
  1
ACMANOOTATIONVIEWSTANDARDANSI
  2
AmdtAnViewStdANSI
  3
"Amdt_StdImp|Product Description: AutoCAD Mechanical|Company: Autodesk, Inc."
 90
     1024
 91
        0
280
     0
281
     0
  0
CLASS
  1
CATALOGSTATE
  2
AcAmCatalogState
  3
DesignerAssemblies
 90
     1024
 91
        0
280
     0
281
     0
  0
CLASS
  1
ACAMGRCOMPDEFSET
  2
AcAmGrCompDefSet
  3
DesignerAssemblies
 90
     1024
 91
        1
280
     0
281
     0
  0
CLASS
  1
AMDTBROWSERDBTAB
  2
AmdtBrowserDbTab
  3
McadcomServices
 90
     1024
 91
        1
280
     0
281
     0
  0
CLASS
  1
CBROWSERAPPOBJECT
  2
CBrowserAppObject
  3
McadcomServices
 90
     1024
 91
        2
280
     0
281
     0
  0
CLASS
  1
DM_PLACEHOLDER
  2
AcDmSelsetPlaceholder
  3
AcMechDwgViewMgmt
 90
     1024
 91
        1
280
     0
281
     0
  0
CLASS
  1
SORTENTSTABLE
  2
AcDbSortentsTable
  3
ObjectDBX Classes
 90
        0
 91
        3
280
     0
281
     0
  0
CLASS
  1
CELLSTYLEMAP
  2
AcDbCellStyleMap
  3
ObjectDBX Classes
 90
     1152
 91
        3
280
     0
281
     0
  0
CLASS
  1
AMDTEDGESTANDARDDIN13715
  2
AmdtEdgeStdDIN13715
  3
"Amdt_StdImp|Product Description: AutoCAD Mechanical|Company: Autodesk, Inc."
 90
     1024
 91
        1
280
     0
281
     0
  0
CLASS
  1
ACMSURFSTANDARDDIN2002
  2
AcmSurfTextStdDIN2002
  3
"Amdt_StdImp|Product Description: AutoCAD Mechanical|Company: Autodesk, Inc."
 90
     1024
 91
        1
280
     0
281
     0
  0
CLASS
  1
AMDTNOTETEMPLATEDB
  2
AmdtNoteTemplateDB
  3
AcmSymBB|Product Description: AutoCAD Mechanical|Company: Autodesk, Inc.
 90
     1024
 91
        6
280
     0
281
     0
  0
CLASS
  1
CAMSSTRUCTBTNSTATE
  2
StructBtnState
  3
DesignerAssemblies
 90
     1024
 91
        1
280
     0
281
     0
  0
CLASS
  1
AEC_REFEDIT_STATUS_TRACKER
  2
AecDbRefEditStatusTracker
  3
AecArchBase60|Product Desc: Autodesk Architectural Desktop 2007 |Company: Autodesk,Inc. |WEB Address: www.autodesk.com
 90
      129
 91
        1
280
     0
281
     0
  0
CLASS
  1
NPOCOLLECTION
  2
AcDbImpNonPersistentObjectsCollection
  3
ObjectDBX Classes
 90
     1153
 91
        1
280
     0
281
     0
  0
ENDSEC
  0
SECTION
  2
TABLES
  0
TABLE
  2
VPORT
  5
8
102
{ACAD_XDICTIONARY
360
2939
102
}
330
0
100
AcDbSymbolTable
 70
     1
  0
VPORT
  5
2861
330
8
100
AcDbSymbolTableRecord
100
AcDbViewportTableRecord
  2
*Active
 70
     0
 10
0.0
 20
0.0
 11
1.0
 21
1.0
 12
-256.2832789691758
 22
50.04186061783684
 13
0.0
 23
0.0
 14
2.5
 24
2.5
 15
10.0
 25
10.0
 16
0.0
 26
0.0
 36
1.0
 17
0.0
 27
0.0
 37
0.0
 40
836.4664337343352
 41
2.240997229916897
 42
50.0
 43
0.0
 44
0.0
 50
0.0
 51
0.0
 71
     0
 72
   100
 73
     1
 74
     3
 75
     0
 76
     0
 77
     0
 78
     0
281
     0
 65
     1
110
0.0
120
0.0
130
0.0
111
1.0
121
0.0
131
0.0
112
0.0
122
1.0
132
0.0
 79
     0
146
0.0
  0
ENDTAB
  0
TABLE
  2
LTYPE
  5
5
330
0
100
AcDbSymbolTable
 70
    25
  0
LTYPE
  5
14
330
5
100
AcDbSymbolTableRecord
100
AcDbLinetypeTableRecord
  2
ByBlock
 70
     0
  3

 72
    65
 73
     0
 40
0.0
  0
LTYPE
  5
15
330
5
100
AcDbSymbolTableRecord
100
AcDbLinetypeTableRecord
  2
ByLayer
 70
     0
  3

 72
    65
 73
     0
 40
0.0
  0
LTYPE
  5
16
330
5
100
AcDbSymbolTableRecord
100
AcDbLinetypeTableRecord
  2
Continuous
 70
     0
  3
Solid line
 72
    65
 73
     0
 40
0.0
  0
LTYPE
  5
50
330
5
100
AcDbSymbolTableRecord
100
AcDbLinetypeTableRecord
  2
Amconstr
 70
     0
  3
_______________________
 72
    65
 73
     2
 40
9999.0
 49
9999.0
 74
     0
 49
0.0
 74
     0
  0
LTYPE
  5
55
330
5
100
AcDbSymbolTableRecord
100
AcDbLinetypeTableRecord
  2
Amzigzag
 70
     0
  3
/\/-/\/-/\/-/\/-/\/-/\/
 72
    65
 73
     2
 40
11.0001
 49
0.0001
 74
     4
 75
   135
340
54
 46
0.04
 50
0.0
 44
0.0
 45
0.0
 49
-11.0
 74
     0
  0
LTYPE
  5
56
330
5
100
AcDbSymbolTableRecord
100
AcDbLinetypeTableRecord
  2
AM_DIN_F_W050
 70
     0
  3
__ __ __ __ __ __ __ __ __ __ __ __ __ __ __
 72
    65
 73
     2
 40
6.25
 49
4.75
 74
     0
 49
-1.5
 74
     0
  0
LTYPE
  5
57
330
5
100
AcDbSymbolTableRecord
100
AcDbLinetypeTableRecord
  2
AM_DIN_G_W050
 70
     0
  3
____ . ____ . ____ . ____ . ____ . ____ . ____
 72
    65
 73
     4
 40
13.75
 49
9.75
 74
     0
 49
-1.5
 74
     0
 49
1.0
 74
     0
 49
-1.5
 74
     0
  0
LTYPE
  5
58
330
5
100
AcDbSymbolTableRecord
100
AcDbLinetypeTableRecord
  2
AM_DIN_K_W050
 70
     0
  3
_____ . . _____ . . _____ . . ____ .. ____
 72
    65
 73
     6
 40
16.25
 49
9.75
 74
     0
 49
-1.5
 74
     0
 49
1.0
 74
     0
 49
-1.5
 74
     0
 49
1.0
 74
     0
 49
-1.5
 74
     0
  0
LTYPE
  5
59
330
5
100
AcDbSymbolTableRecord
100
AcDbLinetypeTableRecord
  2
AM_DIN_G_W050x2
 70
     0
  3
__ . __ . __ . __ . __ . __
 72
    65
 73
     4
 40
6.875
 49
4.75
 74
     0
 49
-0.875
 74
     0
 49
0.375
 74
     0
 49
-0.875
 74
     0
  0
LTYPE
  5
5A
330
5
100
AcDbSymbolTableRecord
100
AcDbLinetypeTableRecord
  2
AM_DIN_F_W050x2
 70
     0
  3
 _ _ _ _ _ _ _ _ _ _ _ _
 72
    65
 73
     2
 40
3.125
 49
2.25
 74
     0
 49
-0.875
 74
     0
  0
LTYPE
  5
68
330
5
100
AcDbSymbolTableRecord
100
AcDbLinetypeTableRecord
  2
ACDINWELD
 70
     0
  3
_ _ _ _ _
 72
    65
 73
     2
 40
2.0
 49
2.0
 74
     0
 49
-1.0
 74
     0
  0
LTYPE
  5
69
330
5
100
AcDbSymbolTableRecord
100
AcDbLinetypeTableRecord
  2
ACDINTGB
 70
     0
  3
__ . . __ . .
 72
    65
 73
     6
 40
9.0
 49
4.0
 74
     0
 49
-1.0
 74
     0
 49
1.0
 74
     0
 49
-1.0
 74
     0
 49
1.0
 74
     0
 49
-1.0
 74
     0
  0
LTYPE
  5
6A
330
5
100
AcDbSymbolTableRecord
100
AcDbLinetypeTableRecord
  2
ACDINTGL
 70
     0
  3
_ _ _ _ _
 72
    65
 73
     2
 40
3.0
 49
2.0
 74
     0
 49
-1.0
 74
     0
  0
LTYPE
  5
6C
330
5
100
AcDbSymbolTableRecord
100
AcDbLinetypeTableRecord
  2
CENTER
 70
     0
  3
__ . __
 72
    65
 73
     4
 40
7.0
 49
4.0
 74
     0
 49
-1.0
 74
     0
 49
1.0
 74
     0
 49
-1.0
 74
     0
  0
LTYPE
  5
33D
330
5
100
AcDbSymbolTableRecord
100
AcDbLinetypeTableRecord
  2
PHANTOM2
 70
     0
  3
Phantom (.5x) ___ _ _ ___ _ _ ___ _ _ ___ _ _
 72
    65
 73
     6
 40
1.25
 49
0.625
 74
     0
 49
-0.125
 74
     0
 49
0.125
 74
     0
 49
-0.125
 74
     0
 49
0.125
 74
     0
 49
-0.125
 74
     0
  0
LTYPE
  5
341
330
5
100
AcDbSymbolTableRecord
100
AcDbLinetypeTableRecord
  2
ACANSTGB
 70
     0
  3
__ . . __ . .
 72
    65
 73
     6
 40
0.35433070866
 49
0.15748031496
 74
     0
 49
-0.03937007874
 74
     0
 49
0.03937007874
 74
     0
 49
-0.03937007874
 74
     0
 49
0.03937007874
 74
     0
 49
-0.03937007874
 74
     0
  0
LTYPE
  5
342
330
5
100
AcDbSymbolTableRecord
100
AcDbLinetypeTableRecord
  2
ACANSTGL
 70
     0
  3
_ _ _ _ _
 72
    65
 73
     2
 40
0.11811023622
 49
0.07874015748
 74
     0
 49
-0.03937007874
 74
     0
  0
LTYPE
  5
28D2
330
5
100
AcDbSymbolTableRecord
100
AcDbLinetypeTableRecord
  2
HIDDEN
 70
     0
  3
Verdeckt
 72
    65
 73
     2
 40
9.525
 49
6.349999999999999
 74
     0
 49
-3.174999999999999
 74
     0
  0
LTYPE
  5
29BA
330
5
100
AcDbSymbolTableRecord
100
AcDbLinetypeTableRecord
  2
AM_ISO02W050
 70
     0
  3
__ __ __ __ __ __ __ __ __ __ __ __ __ __ __
 72
    65
 73
     2
 40
7.5
 49
6.0
 74
     0
 49
-1.5
 74
     0
  0
LTYPE
  5
29BB
330
5
100
AcDbSymbolTableRecord
100
AcDbLinetypeTableRecord
  2
AM_ISO08W050
 70
     0
  3
____ . ____ . ____ . ____ . ____ . ____ . ____
 72
    65
 73
     4
 40
18.0
 49
12.0
 74
     0
 49
-1.5
 74
     0
 49
3.0
 74
     0
 49
-1.5
 74
     0
  0
LTYPE
  5
29BC
330
5
100
AcDbSymbolTableRecord
100
AcDbLinetypeTableRecord
  2
AM_ISO09W050
 70
     0
  3
_____ . . _____ . . _____ . . ____ .. ____
 72
    65
 73
     6
 40
22.5
 49
12.0
 74
     0
 49
-1.5
 74
     0
 49
3.0
 74
     0
 49
-1.5
 74
     0
 49
3.0
 74
     0
 49
-1.5
 74
     0
  0
LTYPE
  5
29BD
330
5
100
AcDbSymbolTableRecord
100
AcDbLinetypeTableRecord
  2
AM_ISO08W050x2
 70
     0
  3
__ . __ . __ . __ . __ . __
 72
    65
 73
     4
 40
9.0
 49
6.0
 74
     0
 49
-0.75
 74
     0
 49
1.5
 74
     0
 49
-0.75
 74
     0
  0
LTYPE
  5
29BE
330
5
100
AcDbSymbolTableRecord
100
AcDbLinetypeTableRecord
  2
AM_ISO02W050x2
 70
     0
  3
 _ _ _ _ _ _ _ _ _ _ _ _
 72
    65
 73
     2
 40
3.75
 49
3.0
 74
     0
 49
-0.75
 74
     0
  0
LTYPE
  5
29C7
330
5
100
AcDbSymbolTableRecord
100
AcDbLinetypeTableRecord
  2
CENTER2
 70
     0
  3
Center (.5x) ___ _ ___ _ ___ _ ___ _ ___ _ ___
 72
    65
 73
     4
 40
1.125
 49
0.75
 74
     0
 49
-0.125
 74
     0
 49
0.125
 74
     0
 49
-0.125
 74
     0
  0
LTYPE
  5
29C8
330
5
100
AcDbSymbolTableRecord
100
AcDbLinetypeTableRecord
  2
HIDDEN2
 70
     0
  3
Hidden (.5x) _ _ _ _ _ _ _ _ _ _ _ _ _ _ _ _ _
 72
    65
 73
     2
 40
0.1875
 49
0.125
 74
     0
 49
-0.0625
 74
     0
  0
LTYPE
  5
29C9
330
5
100
AcDbSymbolTableRecord
100
AcDbLinetypeTableRecord
  2
Amzigzag2
 70
     0
  3
/\/-/\/-/\/-/\/-/\/-/\/
 72
    65
 73
     2
 40
0.4401
 49
0.0001
 74
     4
 75
   135
340
54
 46
0.0016
 50
0.0
 44
0.0
 45
0.0
 49
-0.4400000000000001
 74
     0
  0
ENDTAB
  0
TABLE
  2
LAYER
  5
2
102
{ACAD_XDICTIONARY
360
46A6
102
}
330
0
100
AcDbSymbolTable
 70
     1
  0
LAYER
  5
10
102
{ACAD_XDICTIONARY
360
2932
102
}
330
2
100
AcDbSymbolTableRecord
100
AcDbLayerTableRecord
  2
0
 70
     0
 62
     7
  6
Continuous
370
    -3
390
F
  0
ENDTAB
  0
TABLE
  2
STYLE
  5
3
330
0
100
AcDbSymbolTable
 70
     7
  0
STYLE
  5
11
330
3
100
AcDbSymbolTableRecord
100
AcDbTextStyleTableRecord
  2
STANDARD
 70
     0
 40
0.0
 41
1.0
 50
0.0
 71
     0
 42
2.5
  3
ISOCP.SHX
  4

  0
STYLE
  5
54
330
3
100
AcDbSymbolTableRecord
100
AcDbTextStyleTableRecord
  2

 70
     1
 40
0.0
 41
1.0
 50
0.0
 71
     0
 42
2.5
  3
ltypeshp.shx
  4

  0
STYLE
  5
5B
330
3
100
AcDbSymbolTableRecord
100
AcDbTextStyleTableRecord
  2
ACDINTS
 70
     0
 40
1.0
 41
1.0
 50
0.0
 71
     0
 42
2.5
  3
isocp.shx
  4

  0
STYLE
  5
67
330
3
100
AcDbSymbolTableRecord
100
AcDbTextStyleTableRecord
  2
ACDINGDT
 70
     0
 40
0.0
 41
1.0
 50
0.0
 71
     0
 42
2.5
  3
amgdt.shx
  4

  0
STYLE
  5
343
330
3
100
AcDbSymbolTableRecord
100
AcDbTextStyleTableRecord
  2
ACANSTS
 70
     0
 40
1.0
 41
1.0
 50
0.0
 71
     0
 42
0.2
  3
romans.shx
  4

  0
STYLE
  5
344
330
3
100
AcDbSymbolTableRecord
100
AcDbTextStyleTableRecord
  2
ACANSGDT
 70
     0
 40
0.0
 41
1.0
 50
0.0
 71
     0
 42
0.2
  3
amgdtans.shx
  4

  0
STYLE
  5
2B01
330
3
100
AcDbSymbolTableRecord
100
AcDbTextStyleTableRecord
  2

 70
     1
 40
0.0
 41
1.0
 50
0.0
 71
     0
 42
0.2
  3
genltshp.shx
  4

  0
ENDTAB
  0
TABLE
  2
VIEW
  5
6
330
0
100
AcDbSymbolTable
 70
     2
  0
ENDTAB
  0
TABLE
  2
UCS
  5
7
330
0
100
AcDbSymbolTable
 70
     0
  0
ENDTAB
  0
TABLE
  2
APPID
  5
9
330
0
100
AcDbSymbolTable
 70
    22
  0
APPID
  5
12
330
9
100
AcDbSymbolTableRecord
100
AcDbRegAppTableRecord
  2
ACAD
 70
     0
  0
APPID
  5
2C
330
9
100
AcDbSymbolTableRecord
100
AcDbRegAppTableRecord
  2
MCAD_NO_VIS
 70
     0
  0
APPID
  5
2D
330
9
100
AcDbSymbolTableRecord
100
AcDbRegAppTableRecord
  2
ACAD_TEMP_GRAPHIC
 70
     0
  0
APPID
  5
3E
330
9
100
AcDbSymbolTableRecord
100
AcDbRegAppTableRecord
  2
ACATTRIBSERVICES
 70
     0
  0
APPID
  5
428
330
9
100
AcDbSymbolTableRecord
100
AcDbRegAppTableRecord
  2
DCO15
 70
     0
  0
APPID
  5
217D
330
9
100
AcDbSymbolTableRecord
100
AcDbRegAppTableRecord
  2
GENIUS_GENREC_14
 70
     0
  0
APPID
  5
217E
330
9
100
AcDbSymbolTableRecord
100
AcDbRegAppTableRecord
  2
GENIUS_GENODEF_13
 70
     0
  0
APPID
  5
217F
330
9
100
AcDbSymbolTableRecord
100
AcDbRegAppTableRecord
  2
GENIUS_GENOBJ-N-REC_13
 70
     0
  0
APPID
  5
28A4
330
9
100
AcDbSymbolTableRecord
100
AcDbRegAppTableRecord
  2
ACAD_MLEADERVER
 70
     0
  0
APPID
  5
28D4
330
9
100
AcDbSymbolTableRecord
100
AcDbRegAppTableRecord
  2
AD_DRAW
 70
     0
  0
APPID
  5
28F3
330
9
100
AcDbSymbolTableRecord
100
AcDbRegAppTableRecord
  2
DESIGNERASSEMBLIES
 70
     0
  0
APPID
  5
2902
330
9
100
AcDbSymbolTableRecord
100
AcDbRegAppTableRecord
  2
ACADM_DIM_EDIT
 70
     0
  0
APPID
  5
2903
330
9
100
AcDbSymbolTableRecord
100
AcDbRegAppTableRecord
  2
AMDT_DM_ADJ
 70
     0
  0
APPID
  5
2A08
330
9
100
AcDbSymbolTableRecord
100
AcDbRegAppTableRecord
  2
ACAD_DSTYLE_DIMJOGGED_JOGANGLE_SYMBOL
 70
     0
  0
APPID
  5
2A09
330
9
100
AcDbSymbolTableRecord
100
AcDbRegAppTableRecord
  2
ACAD_DSTYLE_DIM_LINETYPE
 70
     0
  0
APPID
  5
2A0A
330
9
100
AcDbSymbolTableRecord
100
AcDbRegAppTableRecord
  2
ACAD_DSTYLE_DIM_EXT1_LINETYPE
 70
     0
  0
APPID
  5
2A0B
330
9
100
AcDbSymbolTableRecord
100
AcDbRegAppTableRecord
  2
ACAD_DSTYLE_DIM_EXT2_LINETYPE
 70
     0
  0
APPID
  5
37DA
330
9
100
AcDbSymbolTableRecord
100
AcDbRegAppTableRecord
  2
ACAD_EXEMPT_FROM_CAD_STANDARDS
 70
     0
  0
APPID
  5
37E8
330
9
100
AcDbSymbolTableRecord
100
AcDbRegAppTableRecord
  2
GENIUS_GENOBJ-N-FIL_13
 70
     0
  0
APPID
  5
4556
330
9
100
AcDbSymbolTableRecord
100
AcDbRegAppTableRecord
  2
ACAD_DSTYLE_DIMBREAK
 70
     0
  0
APPID
  5
4557
330
9
100
AcDbSymbolTableRecord
100
AcDbRegAppTableRecord
  2
ACAD_DSTYLE_DIMJAG
 70
     0
  0
APPID
  5
5DB5
330
9
100
AcDbSymbolTableRecord
100
AcDbRegAppTableRecord
  2
ACAD_PSEXT
 70
     0
  0
ENDTAB
  0
TABLE
  2
DIMSTYLE
  5
A
330
0
100
AcDbSymbolTable
 70
    15
100
AcDbDimStyleTable
 71
     1
340
6F
  0
DIMSTYLE
105
6F
102
{ACAD_REACTORS
330
601B
102
}
330
A
100
AcDbSymbolTableRecord
100
AcDbDimStyleTableRecord
  2
AM_DIN
 70
     0
  4
"
 41
3.5
 42
1.0
 43
10.0
 44
1.0
 47
0.1
 48
0.1
 73
     0
 74
     0
 77
     1
 78
     8
 79
     2
140
3.5
141
0.0
143
0.0393701
146
0.71
147
1.5
172
     1
176
   256
177
   256
178
   140
271
     2
272
     3
274
     4
283
     0
284
     8
340
11
371
    -1
372
    -1
1001
ACAD_DSTYLE_DIMJOGGED_JOGANGLE_SYMBOL
1070
   384
1040
1.570796326794896
1001
ACAD_DSTYLE_DIM_LINETYPE
1070
   380
1005
14
1001
ACAD_DSTYLE_DIM_EXT1_LINETYPE
1070
   381
1005
14
1001
ACAD_DSTYLE_DIM_EXT2_LINETYPE
1070
   382
1005
14
  0
DIMSTYLE
105
70
330
A
100
AcDbSymbolTableRecord
100
AcDbDimStyleTableRecord
  2
AM_DIN$3
 70
     0
  4
"
 41
3.5
 42
1.0
 43
10.0
 44
1.0
 47
0.1
 48
0.1
 73
     0
 77
     1
 78
     8
 79
     2
140
3.5
141
0.0
143
0.0393701
146
0.71
147
1.5
176
   256
177
   256
178
   140
271
     2
272
     3
274
     4
283
     0
284
     8
288
     1
289
     0
340
11
371
    -1
372
    -1
1001
ACAD_DSTYLE_DIMJOGGED_JOGANGLE_SYMBOL
1070
   384
1040
1.570796326794896
1001
ACAD_DSTYLE_DIM_LINETYPE
1070
   380
1005
14
1001
ACAD_DSTYLE_DIM_EXT1_LINETYPE
1070
   381
1005
14
1001
ACAD_DSTYLE_DIM_EXT2_LINETYPE
1070
   382
1005
14
  0
DIMSTYLE
105
71
330
A
100
AcDbSymbolTableRecord
100
AcDbDimStyleTableRecord
  2
AM_DIN$4
 70
     0
  4
"
 41
3.5
 42
1.0
 43
10.0
 44
1.0
 47
0.1
 48
0.1
 73
     0
 74
     0
 77
     1
 78
     8
 79
     2
140
3.5
141
0.0
143
0.0393701
146
0.71
147
1.5
172
     1
176
   256
177
   256
178
   140
271
     2
272
     3
274
     4
283
     0
284
     8
340
11
371
    -1
372
    -1
1001
ACAD_DSTYLE_DIMJOGGED_JOGANGLE_SYMBOL
1070
   384
1040
1.570796326794896
1001
ACAD_DSTYLE_DIM_LINETYPE
1070
   380
1005
14
1001
ACAD_DSTYLE_DIM_EXT1_LINETYPE
1070
   381
1005
14
1001
ACAD_DSTYLE_DIM_EXT2_LINETYPE
1070
   382
1005
14
  0
DIMSTYLE
105
72
330
A
100
AcDbSymbolTableRecord
100
AcDbDimStyleTableRecord
  2
AM_DIN$6
 70
     0
  4
"
 41
3.5
 42
1.0
 43
10.0
 44
1.0
 47
0.1
 48
0.1
 73
     0
 74
     0
 78
     8
 79
     2
140
3.5
141
0.0
143
0.0393701
146
0.71
147
1.5
172
     1
176
   256
177
   256
178
   140
271
     2
272
     3
274
     4
283
     0
284
     8
340
11
371
    -1
372
    -1
1001
ACAD_DSTYLE_DIMJOGGED_JOGANGLE_SYMBOL
1070
   384
1040
1.570796326794896
1001
ACAD_DSTYLE_DIM_LINETYPE
1070
   380
1005
14
1001
ACAD_DSTYLE_DIM_EXT1_LINETYPE
1070
   381
1005
14
1001
ACAD_DSTYLE_DIM_EXT2_LINETYPE
1070
   382
1005
14
  0
DIMSTYLE
105
73
330
A
100
AcDbSymbolTableRecord
100
AcDbDimStyleTableRecord
  2
AM_DIN$7
 70
     0
  4
"
 41
3.5
 42
1.0
 43
10.0
 44
1.0
 47
0.1
 48
0.1
 73
     0
 74
     0
 77
     1
 78
     8
 79
     2
140
3.5
141
0.0
143
0.0393701
146
0.71
147
1.5
172
     1
176
   256
177
   256
178
   140
271
     2
272
     3
274
     4
283
     0
284
     8
340
11
371
    -1
372
    -1
1001
ACAD_DSTYLE_DIMJOGGED_JOGANGLE_SYMBOL
1070
   384
1040
1.570796326794896
1001
ACAD_DSTYLE_DIM_LINETYPE
1070
   380
1005
14
1001
ACAD_DSTYLE_DIM_EXT1_LINETYPE
1070
   381
1005
14
1001
ACAD_DSTYLE_DIM_EXT2_LINETYPE
1070
   382
1005
14
  0
DIMSTYLE
105
74
330
A
100
AcDbSymbolTableRecord
100
AcDbDimStyleTableRecord
  2
AM_DIN$SF
 70
     0
  4
"
 41
3.5
 42
1.0
 43
10.0
 44
1.0
 47
0.1
 48
0.1
 73
     0
 74
     0
 75
     1
 76
     1
 77
     1
 78
     8
 79
     2
140
3.5
141
0.0
143
0.0393701
146
0.71
147
1.5
172
     1
176
   256
177
   256
178
   140
271
     2
272
     3
274
     4
283
     0
284
     8
340
11
371
    -1
372
    -1
1001
ACAD_DSTYLE_DIMJOGGED_JOGANGLE_SYMBOL
1070
   384
1040
1.570796326794896
1001
ACAD_DSTYLE_DIM_LINETYPE
1070
   380
1005
14
1001
ACAD_DSTYLE_DIM_EXT1_LINETYPE
1070
   381
1005
14
1001
ACAD_DSTYLE_DIM_EXT2_LINETYPE
1070
   382
1005
14
  0
DIMSTYLE
105
79
330
A
100
AcDbSymbolTableRecord
100
AcDbDimStyleTableRecord
  2
AM_DIN$SH
 70
     0
  4
"
 41
3.5
 42
1.0
 43
10.0
 44
1.0
 47
0.1
 48
0.1
 73
     0
 74
     0
 75
     1
 76
     1
 77
     1
 78
     8
 79
     2
140
3.5
141
0.0
143
0.0393701
144
2.0
146
0.71
147
1.5
172
     1
173
     1
176
   256
177
   256
178
   140
271
     2
272
     3
274
     4
283
     0
284
     8
340
11
343
75
371
    -1
372
    -1
1001
ACAD_DSTYLE_DIMJOGGED_JOGANGLE_SYMBOL
1070
   384
1040
1.570796326794896
1001
ACAD_DSTYLE_DIM_LINETYPE
1070
   380
1005
14
1001
ACAD_DSTYLE_DIM_EXT1_LINETYPE
1070
   381
1005
14
1001
ACAD_DSTYLE_DIM_EXT2_LINETYPE
1070
   382
1005
14
  0
DIMSTYLE
105
92
330
A
100
AcDbSymbolTableRecord
100
AcDbDimStyleTableRecord
  2
STANDARD
 70
     0
279
     2
340
11
  0
DIMSTYLE
105
345
330
A
100
AcDbSymbolTableRecord
100
AcDbDimStyleTableRecord
  2
AM_ANSI
 70
     0
  4
mm
 41
0.1
 42
0.05
 43
0.5
 44
0.1
 47
0.1
 48
0.1
 78
     7
 79
     2
140
0.12
141
0.0
146
0.71
147
0.06
176
   256
177
   256
178
     2
274
     4
284
     7
340
11
371
    -1
372
    -1
  0
DIMSTYLE
105
346
330
A
100
AcDbSymbolTableRecord
100
AcDbDimStyleTableRecord
  2
AM_ANSI$3
 70
     0
  4
mm
 41
0.1
 42
0.05
 43
0.5
 44
0.1
 47
0.1
 48
0.1
 78
     7
 79
     2
140
0.12
141
0.0
146
0.71
147
0.06
176
   256
177
   256
178
     2
274
     4
284
     7
288
     1
289
     0
340
11
371
    -1
372
    -1
  0
DIMSTYLE
105
347
330
A
100
AcDbSymbolTableRecord
100
AcDbDimStyleTableRecord
  2
AM_ANSI$4
 70
     0
  4
mm
 41
0.1
 42
0.05
 43
0.5
 44
0.1
 47
0.1
 48
0.1
 78
     7
 79
     2
140
0.12
141
0.0
146
0.71
147
0.06
176
   256
177
   256
178
     2
274
     4
284
     7
288
     1
289
     0
340
11
371
    -1
372
    -1
  0
DIMSTYLE
105
348
330
A
100
AcDbSymbolTableRecord
100
AcDbDimStyleTableRecord
  2
AM_ANSI$7
 70
     0
  4
mm
 41
0.1
 42
0.05
 43
0.5
 44
0.1
 47
0.1
 48
0.1
 78
     7
 79
     2
140
0.24
141
0.0
146
0.71
147
0.06
176
   256
177
   256
178
     2
274
     4
284
     7
340
11
371
    -1
372
    -1
  0
DIMSTYLE
105
349
330
A
100
AcDbSymbolTableRecord
100
AcDbDimStyleTableRecord
  2
AM_ANSI$SF
 70
     0
  4
mm
 41
0.1
 42
0.05
 43
0.5
 44
0.1
 47
0.1
 48
0.1
 75
     1
 76
     1
 78
     7
 79
     2
140
0.12
141
0.0
146
0.71
147
0.06
176
   256
177
   256
178
     2
274
     4
284
     7
340
11
371
    -1
372
    -1
  0
DIMSTYLE
105
34A
330
A
100
AcDbSymbolTableRecord
100
AcDbDimStyleTableRecord
  2
AM_ANSI$SH
 70
     0
  4
mm
 41
0.1
 42
0.05
 43
0.5
 44
0.1
 47
0.1
 48
0.1
 75
     1
 76
     1
 78
     7
 79
     2
140
0.12
141
0.0
146
0.71
147
0.06
173
     1
176
   256
177
   256
178
     2
274
     4
284
     7
340
11
343
75
371
    -1
372
    -1
  0
ENDTAB
  0
TABLE
  2
BLOCK_RECORD
  5
1
330
0
100
AcDbSymbolTable
 70
    60
  0
BLOCK_RECORD
  5
1F
102
{ACAD_XDICTIONARY
360
81
102
}
330
1
100
AcDbSymbolTableRecord
100
AcDbBlockTableRecord
  2
*Model_Space
340
22
  0
BLOCK_RECORD
  5
1B
330
1
100
AcDbSymbolTableRecord
100
AcDbBlockTableRecord
  2
*Paper_Space
340
1E
  0
BLOCK_RECORD
  5
23
330
1
100
AcDbSymbolTableRecord
100
AcDbBlockTableRecord
  2
*Paper_Space0
340
26
  0
BLOCK_RECORD
  5
75
330
1
100
AcDbSymbolTableRecord
100
AcDbBlockTableRecord
  2
GENAXEH
340
0
  0
BLOCK_RECORD
  5
4562
330
1
100
AcDbSymbolTableRecord
100
AcDbBlockTableRecord
  2
AI9-BLK1
340
0
  0
BLOCK_RECORD
  5
4566
330
1
100
AcDbSymbolTableRecord
100
AcDbBlockTableRecord
  2
AI9-BLK2
340
0
102
{BLKREFS
331
4564
102
}
  0
BLOCK_RECORD
  5
458C
330
1
100
AcDbSymbolTableRecord
100
AcDbBlockTableRecord
  2
AI9-BLK3
340
0
102
{BLKREFS
331
458A
102
}
  0
BLOCK_RECORD
  5
4590
330
1
100
AcDbSymbolTableRecord
100
AcDbBlockTableRecord
  2
AI9-BLK4
340
0
102
{BLKREFS
331
458E
102
}
  0
BLOCK_RECORD
  5
4594
330
1
100
AcDbSymbolTableRecord
100
AcDbBlockTableRecord
  2
AI9-BLK5
340
0
102
{BLKREFS
331
4589
102
}
  0
BLOCK_RECORD
  5
459A
330
1
100
AcDbSymbolTableRecord
100
AcDbBlockTableRecord
  2
AI9-BLK6
340
0
102
{BLKREFS
331
4598
102
}
  0
BLOCK_RECORD
  5
459E
330
1
100
AcDbSymbolTableRecord
100
AcDbBlockTableRecord
  2
AI9-BLK7
340
0
102
{BLKREFS
331
4597
102
}
  0
BLOCK_RECORD
  5
45A2
330
1
100
AcDbSymbolTableRecord
100
AcDbBlockTableRecord
  2
AI9-BLK8
340
0
102
{BLKREFS
331
4596
102
}
  0
BLOCK_RECORD
  5
45A6
330
1
100
AcDbSymbolTableRecord
100
AcDbBlockTableRecord
  2
AI9-BLK9
340
0
102
{BLKREFS
331
4588
102
}
  0
BLOCK_RECORD
  5
45AA
330
1
100
AcDbSymbolTableRecord
100
AcDbBlockTableRecord
  2
AI9-BLK10
340
0
102
{BLKREFS
331
4587
102
}
  0
BLOCK_RECORD
  5
45AE
330
1
100
AcDbSymbolTableRecord
100
AcDbBlockTableRecord
  2
AI9-BLK11
340
0
102
{BLKREFS
331
4586
102
}
  0
BLOCK_RECORD
  5
45B2
330
1
100
AcDbSymbolTableRecord
100
AcDbBlockTableRecord
  2
AI9-BLK12
340
0
102
{BLKREFS
331
4585
102
}
  0
BLOCK_RECORD
  5
45B6
330
1
100
AcDbSymbolTableRecord
100
AcDbBlockTableRecord
  2
AI9-BLK13
340
0
102
{BLKREFS
331
4584
102
}
  0
BLOCK_RECORD
  5
45BA
330
1
100
AcDbSymbolTableRecord
100
AcDbBlockTableRecord
  2
AI9-BLK14
340
0
102
{BLKREFS
331
4583
102
}
  0
BLOCK_RECORD
  5
45BE
330
1
100
AcDbSymbolTableRecord
100
AcDbBlockTableRecord
  2
AI9-BLK15
340
0
102
{BLKREFS
331
4582
102
}
  0
BLOCK_RECORD
  5
45C2
330
1
100
AcDbSymbolTableRecord
100
AcDbBlockTableRecord
  2
AI9-BLK16
340
0
102
{BLKREFS
331
4581
102
}
  0
BLOCK_RECORD
  5
45C6
330
1
100
AcDbSymbolTableRecord
100
AcDbBlockTableRecord
  2
AI9-BLK17
340
0
102
{BLKREFS
331
4580
102
}
  0
BLOCK_RECORD
  5
45CA
330
1
100
AcDbSymbolTableRecord
100
AcDbBlockTableRecord
  2
AI9-BLK18
340
0
102
{BLKREFS
331
45C8
102
}
  0
BLOCK_RECORD
  5
45CE
330
1
100
AcDbSymbolTableRecord
100
AcDbBlockTableRecord
  2
AI9-BLK19
340
0
102
{BLKREFS
331
457F
102
}
  0
BLOCK_RECORD
  5
45D2
330
1
100
AcDbSymbolTableRecord
100
AcDbBlockTableRecord
  2
AI9-BLK20
340
0
102
{BLKREFS
331
457E
102
}
  0
BLOCK_RECORD
  5
45D6
330
1
100
AcDbSymbolTableRecord
100
AcDbBlockTableRecord
  2
AI9-BLK21
340
0
102
{BLKREFS
331
457D
102
}
  0
BLOCK_RECORD
  5
45DA
330
1
100
AcDbSymbolTableRecord
100
AcDbBlockTableRecord
  2
AI9-BLK22
340
0
102
{BLKREFS
331
457C
102
}
  0
BLOCK_RECORD
  5
45E1
330
1
100
AcDbSymbolTableRecord
100
AcDbBlockTableRecord
  2
AI9-BLK23
340
0
102
{BLKREFS
331
45DF
102
}
  0
BLOCK_RECORD
  5
45E5
330
1
100
AcDbSymbolTableRecord
100
AcDbBlockTableRecord
  2
AI9-BLK24
340
0
102
{BLKREFS
331
45DE
102
}
  0
BLOCK_RECORD
  5
45E9
330
1
100
AcDbSymbolTableRecord
100
AcDbBlockTableRecord
  2
AI9-BLK25
340
0
102
{BLKREFS
331
45DD
102
}
  0
BLOCK_RECORD
  5
45EE
330
1
100
AcDbSymbolTableRecord
100
AcDbBlockTableRecord
  2
AI9-BLK26
340
0
102
{BLKREFS
331
45EC
102
}
  0
BLOCK_RECORD
  5
45F2
330
1
100
AcDbSymbolTableRecord
100
AcDbBlockTableRecord
  2
AI9-BLK27
340
0
102
{BLKREFS
331
45F0
102
}
  0
BLOCK_RECORD
  5
45F6
330
1
100
AcDbSymbolTableRecord
100
AcDbBlockTableRecord
  2
AI9-BLK28
340
0
102
{BLKREFS
331
45EB
102
}
  0
BLOCK_RECORD
  5
45FA
330
1
100
AcDbSymbolTableRecord
100
AcDbBlockTableRecord
  2
AI9-BLK29
340
0
102
{BLKREFS
331
45DC
102
}
  0
BLOCK_RECORD
  5
45FF
330
1
100
AcDbSymbolTableRecord
100
AcDbBlockTableRecord
  2
AI9-BLK30
340
0
102
{BLKREFS
331
45FD
102
}
  0
BLOCK_RECORD
  5
4603
330
1
100
AcDbSymbolTableRecord
100
AcDbBlockTableRecord
  2
AI9-BLK31
340
0
102
{BLKREFS
331
4601
102
}
  0
BLOCK_RECORD
  5
4607
330
1
100
AcDbSymbolTableRecord
100
AcDbBlockTableRecord
  2
AI9-BLK32
340
0
102
{BLKREFS
331
45FC
102
}
  0
BLOCK_RECORD
  5
460B
330
1
100
AcDbSymbolTableRecord
100
AcDbBlockTableRecord
  2
AI9-BLK33
340
0
102
{BLKREFS
331
457B
102
}
  0
BLOCK_RECORD
  5
460F
330
1
100
AcDbSymbolTableRecord
100
AcDbBlockTableRecord
  2
AI9-BLK34
340
0
102
{BLKREFS
331
457A
102
}
  0
BLOCK_RECORD
  5
4613
330
1
100
AcDbSymbolTableRecord
100
AcDbBlockTableRecord
  2
AI9-BLK35
340
0
102
{BLKREFS
331
4579
102
}
  0
BLOCK_RECORD
  5
4617
330
1
100
AcDbSymbolTableRecord
100
AcDbBlockTableRecord
  2
AI9-BLK36
340
0
102
{BLKREFS
331
4578
102
}
  0
BLOCK_RECORD
  5
461B
330
1
100
AcDbSymbolTableRecord
100
AcDbBlockTableRecord
  2
AI9-BLK37
340
0
102
{BLKREFS
331
4577
102
}
  0
BLOCK_RECORD
  5
4623
330
1
100
AcDbSymbolTableRecord
100
AcDbBlockTableRecord
  2
AI9-BLK38
340
0
102
{BLKREFS
331
4576
102
}
  0
BLOCK_RECORD
  5
4627
330
1
100
AcDbSymbolTableRecord
100
AcDbBlockTableRecord
  2
AI9-BLK39
340
0
102
{BLKREFS
331
4575
102
}
  0
BLOCK_RECORD
  5
462A
330
1
100
AcDbSymbolTableRecord
100
AcDbBlockTableRecord
  2
AI9-BLK40
340
0
102
{BLKREFS
331
4574
102
}
  0
BLOCK_RECORD
  5
462D
330
1
100
AcDbSymbolTableRecord
100
AcDbBlockTableRecord
  2
AI9-BLK41
340
0
102
{BLKREFS
331
4573
102
}
  0
BLOCK_RECORD
  5
4631
330
1
100
AcDbSymbolTableRecord
100
AcDbBlockTableRecord
  2
AI9-BLK42
340
0
102
{BLKREFS
331
462F
102
}
  0
BLOCK_RECORD
  5
4635
330
1
100
AcDbSymbolTableRecord
100
AcDbBlockTableRecord
  2
AI9-BLK43
340
0
102
{BLKREFS
331
4572
102
}
  0
BLOCK_RECORD
  5
4639
330
1
100
AcDbSymbolTableRecord
100
AcDbBlockTableRecord
  2
AI9-BLK44
340
0
102
{BLKREFS
331
4637
102
}
  0
BLOCK_RECORD
  5
4644
330
1
100
AcDbSymbolTableRecord
100
AcDbBlockTableRecord
  2
AI9-BLK45
340
0
102
{BLKREFS
331
4571
102
}
  0
BLOCK_RECORD
  5
4648
330
1
100
AcDbSymbolTableRecord
100
AcDbBlockTableRecord
  2
AI9-BLK46
340
0
102
{BLKREFS
331
4570
102
}
  0
BLOCK_RECORD
  5
4652
330
1
100
AcDbSymbolTableRecord
100
AcDbBlockTableRecord
  2
AI9-BLK47
340
0
102
{BLKREFS
331
456F
102
}
  0
BLOCK_RECORD
  5
4656
330
1
100
AcDbSymbolTableRecord
100
AcDbBlockTableRecord
  2
AI9-BLK48
340
0
102
{BLKREFS
331
456E
102
}
  0
BLOCK_RECORD
  5
465A
330
1
100
AcDbSymbolTableRecord
100
AcDbBlockTableRecord
  2
AI9-BLK49
340
0
102
{BLKREFS
331
456D
102
}
  0
BLOCK_RECORD
  5
465E
330
1
100
AcDbSymbolTableRecord
100
AcDbBlockTableRecord
  2
AI9-BLK50
340
0
102
{BLKREFS
331
456C
102
}
  0
BLOCK_RECORD
  5
4662
330
1
100
AcDbSymbolTableRecord
100
AcDbBlockTableRecord
  2
AI9-BLK51
340
0
102
{BLKREFS
331
456B
102
}
  0
BLOCK_RECORD
  5
4666
330
1
100
AcDbSymbolTableRecord
100
AcDbBlockTableRecord
  2
AI9-BLK52
340
0
102
{BLKREFS
331
456A
102
}
  0
BLOCK_RECORD
  5
466A
330
1
100
AcDbSymbolTableRecord
100
AcDbBlockTableRecord
  2
AI9-BLK53
340
0
102
{BLKREFS
331
4569
102
}
  0
BLOCK_RECORD
  5
466E
330
1
100
AcDbSymbolTableRecord
100
AcDbBlockTableRecord
  2
AI9-BLK54
340
0
102
{BLKREFS
331
4568
102
}
  0
BLOCK_RECORD
  5
4D14
102
{ACAD_XDICTIONARY
360
4D30
102
}
330
1
100
AcDbSymbolTableRecord
100
AcDbBlockTableRecord
  2
A$C64062470
340
0
1001
ACAD
1000
DesignCenter Data
1002
{
1070
     1
1070
     4
1002
}
  0
ENDTAB
  0
ENDSEC
  0
SECTION
  2
BLOCKS
  0
BLOCK
  5
20
330
1F
100
AcDbEntity
  8
0
100
AcDbBlockBegin
  2
*Model_Space
 70
     0
 10
0.0
 20
0.0
 30
0.0
  3
*Model_Space
  1

  0
ENDBLK
  5
21
330
1F
100
AcDbEntity
  8
0
100
AcDbBlockEnd
  0
BLOCK
  5
1C
330
1B
100
AcDbEntity
 67
     1
  8
0
100
AcDbBlockBegin
  2
*Paper_Space
 70
     0
 10
0.0
 20
0.0
 30
0.0
  3
*Paper_Space
  1

  0
ENDBLK
  5
1D
330
1B
100
AcDbEntity
 67
     1
  8
0
100
AcDbBlockEnd
  0
BLOCK
  5
24
330
23
100
AcDbEntity
 67
     1
  8
0
100
AcDbBlockBegin
  2
*Paper_Space0
 70
     0
 10
0.0
 20
0.0
 30
0.0
  3
*Paper_Space0
  1

  0
ENDBLK
  5
25
330
23
100
AcDbEntity
 67
     1
  8
0
100
AcDbBlockEnd
  0
BLOCK
  5
77
330
75
100
AcDbEntity
  8
0
100
AcDbBlockBegin
  2
GENAXEH
 70
     0
 10
0.0
 20
0.0
 30
0.0
  3
GENAXEH
  1

  0
LINE
  5
76
330
75
100
AcDbEntity
  8
0
100
AcDbLine
 10
-1.0
 20
0.0
 30
0.0
 11
1.0
 21
0.0
 31
0.0
  0
ENDBLK
  5
78
330
75
100
AcDbEntity
  8
0
100
AcDbBlockEnd
  0
BLOCK
  5
4563
330
4562
100
AcDbEntity
  8
0
 62
     7
100
AcDbBlockBegin
  2
AI9-BLK1
 70
     0
 10
0.0
 20
0.0
 30
0.0
  3
AI9-BLK1
  1

  0
INSERT
  5
4564
330
4562
100
AcDbEntity
  8
0
 62
     7
100
AcDbBlockReference
  2
AI9-BLK2
 10
0.0
 20
0.0
 30
0.0
  0
ENDBLK
  5
4565
330
4562
100
AcDbEntity
  8
0
100
AcDbBlockEnd
  0
BLOCK
  5
4567
330
4566
100
AcDbEntity
  8
0
 62
     7
100
AcDbBlockBegin
  2
AI9-BLK2
 70
     0
 10
0.0
 20
0.0
 30
0.0
  3
AI9-BLK2
  1

  0
INSERT
  5
4568
330
4566
100
AcDbEntity
  8
0
 62
     7
100
AcDbBlockReference
  2
AI9-BLK54
 10
337.1230916341145
 20
-151.206016031901
 30
0.0
  0
INSERT
  5
4569
330
4566
100
AcDbEntity
  8
0
 62
     7
100
AcDbBlockReference
  2
AI9-BLK53
 10
-287.1493116590711
 20
-114.232390001085
 30
0.0
  0
INSERT
  5
456A
330
4566
100
AcDbEntity
  8
0
 62
     7
100
AcDbBlockReference
  2
AI9-BLK52
 10
-150.7492824978298
 20
-171.5105475531684
 30
0.0
  0
INSERT
  5
456B
330
4566
100
AcDbEntity
  8
0
 62
     7
100
AcDbBlockReference
  2
AI9-BLK51
 10
-14.65405815972222
 20
-298.5183851453993
 30
0.0
  0
INSERT
  5
456C
330
4566
100
AcDbEntity
  8
0
 62
     7
100
AcDbBlockReference
  2
AI9-BLK50
 10
86.96768900553385
 20
-228.9487297905816
 30
0.0
  0
INSERT
  5
456D
330
4566
100
AcDbEntity
  8
0
 62
     7
100
AcDbBlockReference
  2
AI9-BLK49
 10
154.3444118923611
 20
-21.05849066840278
 30
0.0
  0
INSERT
  5
456E
330
4566
100
AcDbEntity
  8
0
 62
     7
100
AcDbBlockReference
  2
AI9-BLK48
 10
203.46044921875
 20
59.7269314236111
 30
0.0
  0
INSERT
  5
456F
330
4566
100
AcDbEntity
  8
0
 62
     7
100
AcDbBlockReference
  2
AI9-BLK47
 10
319.3279676649305
 20
59.73037651909722
 30
0.0
  0
INSERT
  5
4570
330
4566
100
AcDbEntity
  8
0
 62
     7
100
AcDbBlockReference
  2
AI9-BLK46
 10
189.0254991319444
 20
296.3333333333333
 30
0.0
  0
INSERT
  5
4571
330
4566
100
AcDbEntity
  8
0
 62
     7
100
AcDbBlockReference
  2
AI9-BLK45
 10
344.1641777886284
 20
179.8527601453993
 30
0.0
  0
INSERT
  5
4572
330
4566
100
AcDbEntity
  8
0
 62
     7
100
AcDbBlockReference
  2
AI9-BLK43
 10
351.2550455729166
 20
296.5048990885417
 30
0.0
  0
INSERT
  5
4573
330
4566
100
AcDbEntity
  8
0
 62
     7
100
AcDbBlockReference
  2
AI9-BLK41
 10
311.6074225531684
 20
-340.934228515625
 30
0.0
  0
INSERT
  5
4574
330
4566
100
AcDbEntity
  8
0
 62
     7
100
AcDbBlockReference
  2
AI9-BLK40
 10
-351.6767252604166
 20
35.60850694444444
 30
0.0
  0
INSERT
  5
4575
330
4566
100
AcDbEntity
  8
0
 62
     7
100
AcDbBlockReference
  2
AI9-BLK39
 10
-318.6837348090277
 20
43.60526258680555
 30
0.0
  0
INSERT
  5
4576
330
4566
100
AcDbEntity
  8
0
 62
     7
100
AcDbBlockReference
  2
AI9-BLK38
 10
-131.1850158691406
 20
38.97367621527778
 30
0.0
  0
INSERT
  5
4577
330
4566
100
AcDbEntity
  8
0
 62
     7
100
AcDbBlockReference
  2
AI9-BLK37
 10
42.74665866427951
 20
-246.6264621310764
 30
0.0
  0
INSERT
  5
4578
330
4566
100
AcDbEntity
  8
0
 62
     7
100
AcDbBlockReference
  2
AI9-BLK36
 10
-300.8671220567491
 20
-49.14049750434028
 30
0.0
  0
INSERT
  5
4579
330
4566
100
AcDbEntity
  8
0
 62
     7
100
AcDbBlockReference
  2
AI9-BLK35
 10
-235.1384467230903
 20
-133.2902275933159
 30
0.0
  0
INSERT
  5
457A
330
4566
100
AcDbEntity
  8
0
 62
     7
100
AcDbBlockReference
  2
AI9-BLK34
 10
-127.3333991156684
 20
-3.809586588541666
 30
0.0
  0
INSERT
  5
457B
330
4566
100
AcDbEntity
  8
0
 62
     7
100
AcDbBlockReference
  2
AI9-BLK33
 10
261.0417751736111
 20
54.23200412326388
 30
0.0
  0
INSERT
  5
457C
330
4566
100
AcDbEntity
  8
0
 62
     7
100
AcDbBlockReference
  2
AI9-BLK22
 10
269.6076605902778
 20
335.6866590711805
 30
0.0
  0
INSERT
  5
457D
330
4566
100
AcDbEntity
  8
0
 62
     7
100
AcDbBlockReference
  2
AI9-BLK21
 10
-174.3391432020399
 20
-176.9081509060329
 30
0.0
  0
INSERT
  5
457E
330
4566
100
AcDbEntity
  8
0
 62
     7
100
AcDbBlockReference
  2
AI9-BLK20
 10
-105.958605617947
 20
-232.9608018663194
 30
0.0
  0
INSERT
  5
457F
330
4566
100
AcDbEntity
  8
0
 62
     7
100
AcDbBlockReference
  2
AI9-BLK19
 10
-112.05517578125
 20
-232.2683376736111
 30
0.0
  0
INSERT
  5
4580
330
4566
100
AcDbEntity
  8
0
 62
     7
100
AcDbBlockReference
  2
AI9-BLK17
 10
137.1003309461805
 20
-339.8779622395833
 30
0.0
  0
INSERT
  5
4581
330
4566
100
AcDbEntity
  8
0
 62
     7
100
AcDbBlockReference
  2
AI9-BLK16
 10
278.8067545572916
 20
-327.4632161458333
 30
0.0
  0
INSERT
  5
4582
330
4566
100
AcDbEntity
  8
0
 62
     7
100
AcDbBlockReference
  2
AI9-BLK15
 10
184.4772840711805
 20
-327.5686360677083
 30
0.0
  0
INSERT
  5
4583
330
4566
100
AcDbEntity
  8
0
 62
     7
100
AcDbBlockReference
  2
AI9-BLK14
 10
-15.06781412760416
 20
-165.1997355143229
 30
0.0
  0
INSERT
  5
4584
330
4566
100
AcDbEntity
  8
0
 62
     7
100
AcDbBlockReference
  2
AI9-BLK13
 10
187.8555447048611
 20
-10.16156751844618
 30
0.0
  0
INSERT
  5
4585
330
4566
100
AcDbEntity
  8
0
 62
     7
100
AcDbBlockReference
  2
AI9-BLK12
 10
-324.1975240071614
 20
-0.977459716796875
 30
0.0
  0
INSERT
  5
4586
330
4566
100
AcDbEntity
  8
0
 62
     7
100
AcDbBlockReference
  2
AI9-BLK11
 10
-319.7247134738498
 20
-11.86456434461805
 30
0.0
  0
INSERT
  5
4587
330
4566
100
AcDbEntity
  8
0
 62
     7
100
AcDbBlockReference
  2
AI9-BLK10
 10
60.17892795138888
 20
-345.0097764756944
 30
0.0
  0
INSERT
  5
4588
330
4566
100
AcDbEntity
  8
0
 62
     7
100
AcDbBlockReference
  2
AI9-BLK9
 10
59.65527343749999
 20
-327.45908203125
 30
0.0
  0
INSERT
  5
4589
330
4566
100
AcDbEntity
  8
0
 62
     7
100
AcDbBlockReference
  2
AI9-BLK5
 10
59.86404622395832
 20
-337.7757649739583
 30
0.0
  0
INSERT
  5
458A
330
4566
100
AcDbEntity
  8
0
 62
     7
100
AcDbBlockReference
  2
AI9-BLK3
 10
284.8411838107639
 20
-203.4632052951389
 30
0.0
  0
ENDBLK
  5
458B
330
4566
100
AcDbEntity
  8
0
100
AcDbBlockEnd
  0
BLOCK
  5
458D
330
458C
100
AcDbEntity
  8
0
 62
     7
100
AcDbBlockBegin
  2
AI9-BLK3
 70
     0
 10
0.0
 20
0.0
 30
0.0
  3
AI9-BLK3
  1

  0
INSERT
  5
458E
330
458C
100
AcDbEntity
  8
0
 62
     7
100
AcDbBlockReference
  2
AI9-BLK4
 10
0.0
 20
0.0
 30
0.0
  0
ENDBLK
  5
458F
330
458C
100
AcDbEntity
  8
0
100
AcDbBlockEnd
  0
BLOCK
  5
4591
330
4590
100
AcDbEntity
  8
0
 62
     7
100
AcDbBlockBegin
  2
AI9-BLK4
 70
     0
 10
0.0
 20
0.0
 30
0.0
  3
AI9-BLK4
  1

  0
CIRCLE
  5
4592
330
4590
100
AcDbEntity
  8
0
 62
     7
100
AcDbCircle
 10
0.0
 20
0.0
 30
0.0
 40
17.71399197048611
  0
ENDBLK
  5
4593
330
4590
100
AcDbEntity
  8
0
100
AcDbBlockEnd
  0
BLOCK
  5
4595
330
4594
100
AcDbEntity
  8
0
 62
     7
100
AcDbBlockBegin
  2
AI9-BLK5
 70
     0
 10
0.0
 20
0.0
 30
0.0
  3
AI9-BLK5
  1

  0
INSERT
  5
4596
330
4594
100
AcDbEntity
  8
0
 62
     7
100
AcDbBlockReference
  2
AI9-BLK8
 10
0.0
 20
-9.797162543402777
 30
0.0
  0
INSERT
  5
4597
330
4594
100
AcDbEntity
  8
0
 62
     7
100
AcDbBlockReference
  2
AI9-BLK7
 10
-31.18431532118056
 20
-0.0034450954861111
 30
0.0
  0
INSERT
  5
4598
330
4594
100
AcDbEntity
  8
0
 62
     7
100
AcDbBlockReference
  2
AI9-BLK6
 10
30.08050672743055
 20
0.1391818576388889
 30
0.0
  0
ENDBLK
  5
4599
330
4594
100
AcDbEntity
  8
0
100
AcDbBlockEnd
  0
BLOCK
  5
459B
330
459A
100
AcDbEntity
  8
0
 62
     7
100
AcDbBlockBegin
  2
AI9-BLK6
 70
     0
 10
0.0
 20
0.0
 30
0.0
  3
AI9-BLK6
  1

  0
LINE
  5
459C
330
459A
100
AcDbEntity
  8
0
 62
     7
100
AcDbLine
 10
0.0
 20
10.18163519965277
 30
0.0
 11
0.0
 21
-10.18163519965277
 31
0.0
  0
ENDBLK
  5
459D
330
459A
100
AcDbEntity
  8
0
100
AcDbBlockEnd
  0
BLOCK
  5
459F
330
459E
100
AcDbEntity
  8
0
 62
     7
100
AcDbBlockBegin
  2
AI9-BLK7
 70
     0
 10
0.0
 20
0.0
 30
0.0
  3
AI9-BLK7
  1

  0
LINE
  5
45A0
330
459E
100
AcDbEntity
  8
0
 62
     7
100
AcDbLine
 10
0.0
 20
10.31737196180555
 30
0.0
 11
0.0
 21
-10.31737196180555
 31
0.0
  0
ENDBLK
  5
45A1
330
459E
100
AcDbEntity
  8
0
100
AcDbBlockEnd
  0
BLOCK
  5
45A3
330
45A2
100
AcDbEntity
  8
0
 62
     7
100
AcDbBlockBegin
  2
AI9-BLK8
 70
     0
 10
0.0
 20
0.0
 30
0.0
  3
AI9-BLK8
  1

  0
LINE
  5
45A4
330
45A2
100
AcDbEntity
  8
0
 62
     7
100
AcDbLine
 10
-34.87607964409722
 20
0.0
 30
0.0
 11
34.87607964409722
 21
0.0
 31
0.0
  0
ENDBLK
  5
45A5
330
45A2
100
AcDbEntity
  8
0
100
AcDbBlockEnd
  0
BLOCK
  5
45A7
330
45A6
100
AcDbEntity
  8
0
 62
     7
100
AcDbBlockBegin
  2
AI9-BLK9
 70
     0
 10
0.0
 20
0.0
 30
0.0
  3
AI9-BLK9
  1

  0
LINE
  5
45A8
330
45A6
100
AcDbEntity
  8
0
 62
     7
100
AcDbLine
 10
35.25021701388889
 20
0.0041341145833333
 30
0.0
 11
-35.25021701388889
 21
-0.0041341145833333
 31
0.0
  0
ENDBLK
  5
45A9
330
45A6
100
AcDbEntity
  8
0
100
AcDbBlockEnd
  0
BLOCK
  5
45AB
330
45AA
100
AcDbEntity
  8
0
 62
     7
100
AcDbBlockBegin
  2
AI9-BLK10
 70
     0
 10
0.0
 20
0.0
 30
0.0
  3
AI9-BLK10
  1

  0
LINE
  5
45AC
330
45AA
100
AcDbEntity
  8
0
 62
     7
100
AcDbLine
 10
0.0
 20
30.86805555555555
 30
0.0
 11
0.0
 21
-30.86805555555555
 31
0.0
  0
ENDBLK
  5
45AD
330
45AA
100
AcDbEntity
  8
0
100
AcDbBlockEnd
  0
BLOCK
  5
45AF
330
45AE
100
AcDbEntity
  8
0
 62
     7
100
AcDbBlockBegin
  2
AI9-BLK11
 70
     0
 10
0.0
 20
0.0
 30
0.0
  3
AI9-BLK11
  1

  0
SPLINE
  5
45B0
330
45AE
100
AcDbEntity
  8
0
 62
     7
100
AcDbSpline
210
0.0
220
0.0
230
1.0
 70
     8
 71
     3
 72
    11
 73
     7
 74
     0
 42
0.0000000001
 43
0.0000000001
 40
0.0
 40
0.0
 40
0.0
 40
0.0
 40
1.0
 40
1.0
 40
1.0
 40
2.0
 40
2.0
 40
2.0
 40
2.0
 10
-12.12066413031684
 20
-5.061878797743054
 30
0.0
 10
-13.55382385253906
 20
-1.203371853298611
 30
0.0
 10
-11.87261725531684
 20
0.3441650390625
 30
0.0
 10
-10.31543409559461
 20
0.6101264105902777
 30
0.0
 10
-1.079822116427951
 20
2.193492296006944
 30
0.0
 10
0.4925194634331597
 20
2.838414171006944
 30
0.0
 10
12.81080288357205
 20
4.949568684895832
 30
0.0
  0
ENDBLK
  5
45B1
330
45AE
100
AcDbEntity
  8
0
100
AcDbBlockEnd
  0
BLOCK
  5
45B3
330
45B2
100
AcDbEntity
  8
0
 62
     7
100
AcDbBlockBegin
  2
AI9-BLK12
 70
     0
 10
0.0
 20
0.0
 30
0.0
  3
AI9-BLK12
  1

  0
SPLINE
  5
45B4
330
45B2
100
AcDbEntity
  8
0
 62
     7
100
AcDbSpline
210
0.0
220
0.0
230
1.0
 70
     8
 71
     3
 72
    11
 73
     7
 74
     0
 42
0.0000000001
 43
0.0000000001
 40
0.0
 40
0.0
 40
0.0
 40
0.0
 40
1.0
 40
1.0
 40
1.0
 40
2.0
 40
2.0
 40
2.0
 40
2.0
 10
-12.49854804144965
 20
0.8079610188802082
 30
0.0
 10
-11.94733276367187
 20
-1.617386203342013
 30
0.0
 10
-10.84628024631076
 20
-2.163089328342013
 30
0.0
 10
-9.202280680338541
 20
-1.904018147786458
 30
0.0
 10
-1.033270263671874
 20
-0.625198703342014
 30
0.0
 10
0.3654385036892361
 20
-0.2214335123697916
 30
0.0
 10
12.6396247016059
 20
1.965513102213541
 30
0.0
  0
ENDBLK
  5
45B5
330
45B2
100
AcDbEntity
  8
0
100
AcDbBlockEnd
  0
BLOCK
  5
45B7
330
45B6
100
AcDbEntity
  8
0
 62
     7
100
AcDbBlockBegin
  2
AI9-BLK13
 70
     0
 10
0.0
 20
0.0
 30
0.0
  3
AI9-BLK13
  1

  0
SPLINE
  5
45B8
330
45B6
100
AcDbEntity
  8
0
 62
     7
100
AcDbSpline
210
0.0
220
0.0
230
1.0
 70
     8
 71
     3
 72
    23
 73
    19
 74
     0
 42
0.0000000001
 43
0.0000000001
 40
0.0
 40
0.0
 40
0.0
 40
0.0
 40
1.0
 40
1.0
 40
1.0
 40
2.0
 40
2.0
 40
2.0
 40
3.0
 40
3.0
 40
3.0
 40
4.0
 40
4.0
 40
4.0
 40
5.0
 40
5.0
 40
5.0
 40
6.0
 40
6.0
 40
6.0
 40
6.0
 10
-149.4220594618055
 20
-76.46604749891491
 30
0.0
 10
-82.51417100694444
 20
-76.02094116210937
 30
0.0
 10
-53.57950303819444
 20
-31.11205444335937
 30
0.0
 10
-6.629741753472221
 20
-5.882931179470485
 30
0.0
 10
18.98661024305555
 20
7.882292344835068
 30
0.0
 10
67.92074652777777
 20
27.48350762261285
 30
0.0
 10
114.28759765625
 20
32.26530015733507
 30
0.0
 10
126.4143337673611
 20
33.51380276150174
 30
0.0
 10
129.7491861979166
 20
34.88357272677951
 30
0.0
 10
133.4974500868055
 20
45.68739217122395
 30
0.0
 10
136.1432834201389
 20
54.5068366156684
 30
0.0
 10
136.6531575520833
 20
60.48890041775173
 30
0.0
 10
144.1827582465277
 20
62.24727715386284
 30
0.0
 10
146.4193142361111
 20
62.77093166775173
 30
0.0
 10
146.8520182291666
 20
62.90597941080728
 30
0.0
 10
148.5911024305555
 20
62.90873548719617
 30
0.0
 10
148.5911024305555
 20
62.90873548719617
 30
0.0
 10
149.2470486111111
 20
76.63399590386283
 30
0.0
 10
149.2470486111111
 20
76.63399590386283
 30
0.0
  0
ENDBLK
  5
45B9
330
45B6
100
AcDbEntity
  8
0
100
AcDbBlockEnd
  0
BLOCK
  5
45BB
330
45BA
100
AcDbEntity
  8
0
 62
     7
100
AcDbBlockBegin
  2
AI9-BLK14
 70
     0
 10
0.0
 20
0.0
 30
0.0
  3
AI9-BLK14
  1

  0
SPLINE
  5
45BC
330
45BA
100
AcDbEntity
  8
0
 62
     7
100
AcDbSpline
210
0.0
220
0.0
230
1.0
 70
     8
 71
     3
 72
     8
 73
     4
 74
     0
 42
0.0000000001
 43
0.0000000001
 40
0.0
 40
0.0
 40
0.0
 40
0.0
 40
1.0
 40
1.0
 40
1.0
 40
1.0
 10
-5.496649848090277
 20
6.97201199001736
 30
0.0
 10
-6.047865125868055
 20
-0.6347588433159723
 30
0.0
 10
-5.45117458767361
 20
-6.808369954427083
 30
0.0
 10
5.811531575520833
 20
-6.808369954427083
 30
0.0
  0
ENDBLK
  5
45BD
330
45BA
100
AcDbEntity
  8
0
100
AcDbBlockEnd
  0
BLOCK
  5
45BF
330
45BE
100
AcDbEntity
  8
0
 62
     7
100
AcDbBlockBegin
  2
AI9-BLK15
 70
     0
 10
0.0
 20
0.0
 30
0.0
  3
AI9-BLK15
  1

  0
LINE
  5
45C0
330
45BE
100
AcDbEntity
  8
0
 62
     7
100
AcDbLine
 10
8.540391710069442
 20
0.1123101128472222
 30
0.0
 11
-8.540391710069442
 21
-0.1123101128472222
 31
0.0
  0
ENDBLK
  5
45C1
330
45BE
100
AcDbEntity
  8
0
100
AcDbBlockEnd
  0
BLOCK
  5
45C3
330
45C2
100
AcDbEntity
  8
0
 62
     7
100
AcDbBlockBegin
  2
AI9-BLK16
 70
     0
 10
0.0
 20
0.0
 30
0.0
  3
AI9-BLK16
  1

  0
LINE
  5
45C4
330
45C2
100
AcDbEntity
  8
0
 62
     7
100
AcDbLine
 10
9.386507161458332
 20
0.0041341145833333
 30
0.0
 11
-9.386507161458332
 21
-0.0041341145833333
 31
0.0
  0
ENDBLK
  5
45C5
330
45C2
100
AcDbEntity
  8
0
100
AcDbBlockEnd
  0
BLOCK
  5
45C7
330
45C6
100
AcDbEntity
  8
0
 62
     7
100
AcDbBlockBegin
  2
AI9-BLK17
 70
     0
 10
0.0
 20
0.0
 30
0.0
  3
AI9-BLK17
  1

  0
INSERT
  5
45C8
330
45C6
100
AcDbEntity
  8
0
 62
     7
100
AcDbBlockReference
  2
AI9-BLK18
 10
0.0
 20
0.0
 30
0.0
  0
ENDBLK
  5
45C9
330
45C6
100
AcDbEntity
  8
0
100
AcDbBlockEnd
  0
BLOCK
  5
45CB
330
45CA
100
AcDbEntity
  8
0
 62
     7
100
AcDbBlockBegin
  2
AI9-BLK18
 70
     0
 10
0.0
 20
0.0
 30
0.0
  3
AI9-BLK18
  1

  0
SPLINE
  5
45CC
330
45CA
100
AcDbEntity
  8
0
 62
     7
100
AcDbSpline
210
0.0
220
0.0
230
1.0
 70
    11
 71
     3
 72
    41
 73
    37
 74
     0
 42
0.0000000001
 43
0.0000000001
 40
0.0
 40
0.0
 40
0.0
 40
0.0
 40
1.0
 40
1.0
 40
1.0
 40
2.0
 40
2.0
 40
2.0
 40
3.0
 40
3.0
 40
3.0
 40
4.0
 40
4.0
 40
4.0
 40
5.0
 40
5.0
 40
5.0
 40
6.0
 40
6.0
 40
6.0
 40
7.0
 40
7.0
 40
7.0
 40
8.0
 40
8.0
 40
8.0
 40
9.0
 40
9.0
 40
9.0
 40
10.0
 40
10.0
 40
10.0
 40
11.0
 40
11.0
 40
11.0
 40
12.0
 40
12.0
 40
12.0
 40
12.0
 10
2.931776258680555
 20
12.56219618055555
 30
0.0
 10
2.931776258680555
 20
12.56219618055555
 30
0.0
 10
41.14890950520833
 20
11.96826171875
 30
0.0
 10
41.14890950520833
 20
11.96826171875
 30
0.0
 10
41.14890950520833
 20
11.96826171875
 30
0.0
 10
37.771337890625
 20
-13.06518012152777
 30
0.0
 10
37.771337890625
 20
-13.06518012152777
 30
0.0
 10
37.771337890625
 20
-13.06518012152777
 30
0.0
 10
25.48337131076389
 20
-13.06518012152777
 30
0.0
 10
25.48337131076389
 20
-13.06518012152777
 30
0.0
 10
24.93215603298611
 20
-8.597580295138888
 30
0.0
 10
24.83431532118056
 20
-7.799696180555554
 30
0.0
 10
24.20730794270833
 20
-2.728515624999999
 30
0.0
 10
23.87657877604167
 20
-0.0537434895833333
 30
0.0
 10
23.53206922743055
 20
0.2315104166666666
 30
0.0
 10
17.85592990451388
 20
0.5071180555555556
 30
0.0
 10
-0.0199815538194445
 20
0.5071180555555556
 30
0.0
 10
2.931776258680555
 20
0.5029839409722223
 30
0.0
 10
2.931776258680555
 20
0.5029839409722223
 30
0.0
 10
2.931776258680555
 20
0.5029839409722223
 30
0.0
 10
-4.167876519097221
 20
0.6407877604166666
 30
0.0
 10
-24.18525933159722
 20
0.5029839409722223
 30
0.0
 10
-29.86277669270833
 20
0.2273763020833333
 30
0.0
 10
-30.20728624131944
 20
-0.0564995659722222
 30
0.0
 10
-30.53801540798611
 20
-2.731271701388888
 30
0.0
 10
-31.16640082465278
 20
-7.802452256944444
 30
0.0
 10
-31.26424153645833
 20
-8.600336371527777
 30
0.0
 10
-31.81545681423611
 20
-13.06931423611111
 30
0.0
 10
-31.81545681423611
 20
-13.06931423611111
 30
0.0
 10
-41.14890950520833
 20
-13.06931423611111
 30
0.0
 10
-41.14890950520833
 20
-13.06931423611111
 30
0.0
 10
-41.14890950520833
 20
-13.06931423611111
 30
0.0
 10
-41.14890950520833
 20
13.06931423611111
 30
0.0
 10
-41.14890950520833
 20
13.06931423611111
 30
0.0
 10
-41.14890950520833
 20
13.06931423611111
 30
0.0
 10
2.931776258680555
 20
12.56219618055555
 30
0.0
 10
2.931776258680555
 20
12.56219618055555
 30
0.0
  0
ENDBLK
  5
45CD
330
45CA
100
AcDbEntity
  8
0
100
AcDbBlockEnd
  0
BLOCK
  5
45CF
330
45CE
100
AcDbEntity
  8
0
 62
     7
100
AcDbBlockBegin
  2
AI9-BLK19
 70
     0
 10
0.0
 20
0.0
 30
0.0
  3
AI9-BLK19
  1

  0
LINE
  5
45D0
330
45CE
100
AcDbEntity
  8
0
 62
     7
100
AcDbLine
 10
-6.338975694444443
 20
2.149739583333333
 30
0.0
 11
6.338975694444443
 21
-2.149739583333333
 31
0.0
  0
ENDBLK
  5
45D1
330
45CE
100
AcDbEntity
  8
0
100
AcDbBlockEnd
  0
BLOCK
  5
45D3
330
45D2
100
AcDbEntity
  8
0
 62
     7
100
AcDbBlockBegin
  2
AI9-BLK20
 70
     0
 10
0.0
 20
0.0
 30
0.0
  3
AI9-BLK20
  1

  0
SPLINE
  5
45D4
330
45D2
100
AcDbEntity
  8
0
 62
     7
100
AcDbSpline
210
0.0
220
0.0
230
1.0
 70
     8
 71
     3
 72
    14
 73
    10
 74
     0
 42
0.0000000001
 43
0.0000000001
 40
0.0
 40
0.0
 40
0.0
 40
0.0
 40
1.0
 40
1.0
 40
1.0
 40
2.0
 40
2.0
 40
2.0
 40
3.0
 40
3.0
 40
3.0
 40
3.0
 10
-19.79702589246961
 20
3.024104817708332
 30
0.0
 10
-15.74283752441406
 20
1.188557942708333
 30
0.0
 10
-12.24951070149739
 20
2.592778862847222
 30
0.0
 10
-11.12503153483073
 20
4.894102647569443
 30
0.0
 10
-8.455771552191839
 20
4.123779296875
 30
0.0
 10
-2.293184746636284
 20
2.399853515624999
 30
0.0
 10
-2.293184746636284
 20
2.399853515624999
 30
0.0
 10
-0.4851986355251736
 20
-1.210606553819444
 30
0.0
 10
5.75455830891927
 20
-5.205539279513888
 30
0.0
 10
19.86566942003038
 20
-4.874810112847221
 30
0.0
  0
ENDBLK
  5
45D5
330
45D2
100
AcDbEntity
  8
0
100
AcDbBlockEnd
  0
BLOCK
  5
45D7
330
45D6
100
AcDbEntity
  8
0
 62
     7
100
AcDbBlockBegin
  2
AI9-BLK21
 70
     0
 10
0.0
 20
0.0
 30
0.0
  3
AI9-BLK21
  1

  0
SPLINE
  5
45D8
330
45D6
100
AcDbEntity
  8
0
 62
     7
100
AcDbSpline
210
0.0
220
0.0
230
1.0
 70
     8
 71
     3
 72
    20
 73
    16
 74
     0
 42
0.0000000001
 43
0.0000000001
 40
0.0
 40
0.0
 40
0.0
 40
0.0
 40
1.0
 40
1.0
 40
1.0
 40
2.0
 40
2.0
 40
2.0
 40
3.0
 40
3.0
 40
3.0
 40
4.0
 40
4.0
 40
4.0
 40
5.0
 40
5.0
 40
5.0
 40
5.0
 10
-82.29428778754339
 20
63.74641045464409
 30
0.0
 10
-47.83230862087672
 20
44.20445081922742
 30
0.0
 10
-30.50623440212673
 20
34.96608276367187
 30
0.0
 10
3.319091118706596
 20
25.5719963921441
 30
0.0
 10
10.31952514648437
 20
23.27480672200521
 30
0.0
 10
14.31032375759548
 20
20.08051418728298
 30
0.0
 10
14.73475952148437
 20
14.4815450032552
 30
0.0
 10
16.14724867078993
 20
-4.16193372938368
 30
0.0
 10
16.85004814995659
 20
-9.869767930772567
 30
0.0
 10
18.02138061523437
 20
-26.09065551757812
 30
0.0
 10
18.57259589301215
 20
-32.48475273980034
 30
0.0
 10
21.72141316731771
 20
-39.21095716688368
 30
0.0
 10
28.27398478190104
 20
-43.717142062717
 30
0.0
 10
48.00749172634549
 20
-57.28944023980034
 30
0.0
 10
60.35057983398437
 20
-63.72350056966145
 30
0.0
 10
82.38127644856771
 20
-63.72350056966145
 30
0.0
  0
ENDBLK
  5
45D9
330
45D6
100
AcDbEntity
  8
0
100
AcDbBlockEnd
  0
BLOCK
  5
45DB
330
45DA
100
AcDbEntity
  8
0
 62
     7
100
AcDbBlockBegin
  2
AI9-BLK22
 70
     0
 10
0.0
 20
0.0
 30
0.0
  3
AI9-BLK22
  1

  0
INSERT
  5
45DC
330
45DA
100
AcDbEntity
  8
0
 62
     7
100
AcDbBlockReference
  2
AI9-BLK29
 10
-50.14198676215277
 20
-11.93036566840278
 30
0.0
  0
INSERT
  5
45DD
330
45DA
100
AcDbEntity
  8
0
 62
     7
100
AcDbBlockReference
  2
AI9-BLK25
 10
53.61119791666666
 20
-11.92967664930555
 30
0.0
  0
INSERT
  5
45DE
330
45DA
100
AcDbEntity
  8
0
 62
     7
100
AcDbBlockReference
  2
AI9-BLK24
 10
3.334852430555555
 20
15.16599934895833
 30
0.0
  0
INSERT
  5
45DF
330
45DA
100
AcDbEntity
  8
0
 62
     7
100
AcDbBlockReference
  2
AI9-BLK23
 10
0.942578125
 20
-39.73917643229166
 30
0.0
  0
ENDBLK
  5
45E0
330
45DA
100
AcDbEntity
  8
0
100
AcDbBlockEnd
  0
BLOCK
  5
45E2
330
45E1
100
AcDbEntity
  8
0
 62
     7
100
AcDbBlockBegin
  2
AI9-BLK23
 70
     0
 10
0.0
 20
0.0
 30
0.0
  3
AI9-BLK23
  1

  0
LINE
  5
45E3
330
45E1
100
AcDbEntity
  8
0
 62
     7
100
AcDbLine
 10
-69.4255642361111
 20
0.0
 30
0.0
 11
69.4255642361111
 21
0.0
 31
0.0
  0
ENDBLK
  5
45E4
330
45E1
100
AcDbEntity
  8
0
100
AcDbBlockEnd
  0
BLOCK
  5
45E6
330
45E5
100
AcDbEntity
  8
0
 62
     7
100
AcDbBlockBegin
  2
AI9-BLK24
 70
     0
 10
0.0
 20
0.0
 30
0.0
  3
AI9-BLK24
  1

  0
LINE
  5
45E7
330
45E5
100
AcDbEntity
  8
0
 62
     7
100
AcDbLine
 10
0.0
 20
-25.02517361111111
 30
0.0
 11
0.0
 21
25.02517361111111
 31
0.0
  0
ENDBLK
  5
45E8
330
45E5
100
AcDbEntity
  8
0
100
AcDbBlockEnd
  0
BLOCK
  5
45EA
330
45E9
100
AcDbEntity
  8
0
 62
     7
100
AcDbBlockBegin
  2
AI9-BLK25
 70
     0
 10
0.0
 20
0.0
 30
0.0
  3
AI9-BLK25
  1

  0
INSERT
  5
45EB
330
45E9
100
AcDbEntity
  8
0
 62
     7
100
AcDbBlockReference
  2
AI9-BLK28
 10
0.0
 20
4.606092664930555
 30
0.0
  0
INSERT
  5
45EC
330
45E9
100
AcDbEntity
  8
0
 62
     7
100
AcDbBlockReference
  2
AI9-BLK26
 10
14.963427734375
 20
-25.35728081597222
 30
0.0
  0
ENDBLK
  5
45ED
330
45E9
100
AcDbEntity
  8
0
100
AcDbBlockEnd
  0
BLOCK
  5
45EF
330
45EE
100
AcDbEntity
  8
0
 62
     7
100
AcDbBlockBegin
  2
AI9-BLK26
 70
     0
 10
0.0
 20
0.0
 30
0.0
  3
AI9-BLK26
  1

  0
INSERT
  5
45F0
330
45EE
100
AcDbEntity
  8
0
 62
     7
100
AcDbBlockReference
  2
AI9-BLK27
 10
0.0
 20
0.0
 30
0.0
  0
ENDBLK
  5
45F1
330
45EE
100
AcDbEntity
  8
0
100
AcDbBlockEnd
  0
BLOCK
  5
45F3
330
45F2
100
AcDbEntity
  8
0
 62
     7
100
AcDbBlockBegin
  2
AI9-BLK27
 70
     0
 10
0.0
 20
0.0
 30
0.0
  3
AI9-BLK27
  1

  0
SPLINE
  5
45F4
330
45F2
100
AcDbEntity
  8
0
 62
     7
100
AcDbSpline
210
0.0
220
0.0
230
1.0
 70
    11
 71
     3
 72
    23
 73
    19
 74
     0
 42
0.0000000001
 43
0.0000000001
 40
0.0
 40
0.0
 40
0.0
 40
0.0
 40
1.0
 40
1.0
 40
1.0
 40
2.0
 40
2.0
 40
2.0
 40
3.0
 40
3.0
 40
3.0
 40
4.0
 40
4.0
 40
4.0
 40
5.0
 40
5.0
 40
5.0
 40
6.0
 40
6.0
 40
6.0
 40
6.0
 10
5.59690212673611
 20
2.672705078124999
 30
0.0
 10
5.59690212673611
 20
2.672705078124999
 30
0.0
 10
-5.59690212673611
 20
2.727826605902777
 30
0.0
 10
-5.59690212673611
 20
2.727826605902777
 30
0.0
 10
-5.59690212673611
 20
2.727826605902777
 30
0.0
 10
-4.77834743923611
 20
-1.207850477430555
 30
0.0
 10
-4.77834743923611
 20
-1.207850477430555
 30
0.0
 10
-4.490337456597221
 20
-2.50871853298611
 30
0.0
 10
-3.502284071180555
 20
-2.727826605902777
 30
0.0
 10
-3.502284071180555
 20
-2.727826605902777
 30
0.0
 10
-1.513774956597222
 20
-2.727826605902777
 30
0.0
 10
-0.5215874565972222
 20
-2.727826605902777
 30
0.0
 10
1.238167317708333
 20
-2.727826605902777
 30
0.0
 10
2.042941623263888
 20
-2.727826605902777
 30
0.0
 10
2.565218098958333
 20
-2.729204644097221
 30
0.0
 10
3.07922634548611
 20
-1.800406901041666
 30
0.0
 10
3.07922634548611
 20
-1.800406901041666
 30
0.0
 10
5.59690212673611
 20
2.672705078124999
 30
0.0
 10
5.59690212673611
 20
2.672705078124999
 30
0.0
  0
ENDBLK
  5
45F5
330
45F2
100
AcDbEntity
  8
0
100
AcDbBlockEnd
  0
BLOCK
  5
45F7
330
45F6
100
AcDbEntity
  8
0
 62
     7
100
AcDbBlockBegin
  2
AI9-BLK28
 70
     0
 10
0.0
 20
0.0
 30
0.0
  3
AI9-BLK28
  1

  0
SPLINE
  5
45F8
330
45F6
100
AcDbEntity
  8
0
 62
     7
100
AcDbSpline
210
0.0
220
0.0
230
1.0
 70
     8
 71
     3
 72
    26
 73
    22
 74
     0
 42
0.0000000001
 43
0.0000000001
 40
0.0
 40
0.0
 40
0.0
 40
0.0
 40
1.0
 40
1.0
 40
1.0
 40
2.0
 40
2.0
 40
2.0
 40
3.0
 40
3.0
 40
3.0
 40
4.0
 40
4.0
 40
4.0
 40
5.0
 40
5.0
 40
5.0
 40
6.0
 40
6.0
 40
6.0
 40
7.0
 40
7.0
 40
7.0
 40
7.0
 10
-30.31684027777778
 20
23.47901475694444
 30
0.0
 10
-6.246647135416665
 20
23.47901475694444
 30
0.0
 10
1.322916666666666
 20
23.03666449652778
 30
0.0
 10
25.90711805555555
 20
20.39083116319444
 30
0.0
 10
29.10416666666666
 20
19.94985894097222
 30
0.0
 10
29.58785807291667
 20
18.32377387152778
 30
0.0
 10
29.65538194444444
 20
15.74546440972222
 30
0.0
 10
30.02194010416666
 20
1.628841145833333
 30
0.0
 10
29.87449001736111
 20
-0.9949435763888887
 30
0.0
 10
30.14045138888889
 20
-21.54838324652778
 30
0.0
 10
30.14045138888889
 20
-23.32467447916666
 30
0.0
 10
30.05639105902778
 20
-23.32605251736111
 30
0.0
 10
28.19879557291667
 20
-23.32605251736111
 30
0.0
 10
22.68664279513889
 20
-23.32605251736111
 30
0.0
 10
20.28472222222222
 20
-23.47901475694444
 30
0.0
 10
13.22916666666666
 20
-23.47901475694444
 30
0.0
 10
13.22916666666666
 20
-23.47901475694444
 30
0.0
 10
5.291666666666666
 20
11.46114366319444
 30
0.0
 10
5.291666666666666
 20
11.46114366319444
 30
0.0
 10
3.968749999999999
 20
16.97329644097222
 30
0.0
 10
-0.0096462673611111
 20
22.65908203125
 30
0.0
 10
-6.720692274305554
 20
23.04079861111111
 30
0.0
  0
ENDBLK
  5
45F9
330
45F6
100
AcDbEntity
  8
0
100
AcDbBlockEnd
  0
BLOCK
  5
45FB
330
45FA
100
AcDbEntity
  8
0
 62
     7
100
AcDbBlockBegin
  2
AI9-BLK29
 70
     0
 10
0.0
 20
0.0
 30
0.0
  3
AI9-BLK29
  1

  0
INSERT
  5
45FC
330
45FA
100
AcDbEntity
  8
0
 62
     7
100
AcDbBlockReference
  2
AI9-BLK32
 10
0.0
 20
4.601958550347221
 30
0.0
  0
INSERT
  5
45FD
330
45FA
100
AcDbEntity
  8
0
 62
     7
100
AcDbBlockReference
  2
AI9-BLK30
 10
-16.71353624131944
 20
-25.35521375868055
 30
0.0
  0
ENDBLK
  5
45FE
330
45FA
100
AcDbEntity
  8
0
100
AcDbBlockEnd
  0
BLOCK
  5
4600
330
45FF
100
AcDbEntity
  8
0
 62
     7
100
AcDbBlockBegin
  2
AI9-BLK30
 70
     0
 10
0.0
 20
0.0
 30
0.0
  3
AI9-BLK30
  1

  0
INSERT
  5
4601
330
45FF
100
AcDbEntity
  8
0
 62
     7
100
AcDbBlockReference
  2
AI9-BLK31
 10
0.0
 20
0.0
 30
0.0
  0
ENDBLK
  5
4602
330
45FF
100
AcDbEntity
  8
0
100
AcDbBlockEnd
  0
BLOCK
  5
4604
330
4603
100
AcDbEntity
  8
0
 62
     7
100
AcDbBlockBegin
  2
AI9-BLK31
 70
     0
 10
0.0
 20
0.0
 30
0.0
  3
AI9-BLK31
  1

  0
SPLINE
  5
4605
330
4603
100
AcDbEntity
  8
0
 62
     7
100
AcDbSpline
210
0.0
220
0.0
230
1.0
 70
    11
 71
     3
 72
    23
 73
    19
 74
     0
 42
0.0000000001
 43
0.0000000001
 40
0.0
 40
0.0
 40
0.0
 40
0.0
 40
1.0
 40
1.0
 40
1.0
 40
2.0
 40
2.0
 40
2.0
 40
3.0
 40
3.0
 40
3.0
 40
4.0
 40
4.0
 40
4.0
 40
5.0
 40
5.0
 40
5.0
 40
6.0
 40
6.0
 40
6.0
 40
6.0
 10
-5.596213107638888
 20
2.672705078124999
 30
0.0
 10
-5.596213107638888
 20
2.672705078124999
 30
0.0
 10
5.596213107638888
 20
2.727826605902777
 30
0.0
 10
5.596213107638888
 20
2.727826605902777
 30
0.0
 10
5.596213107638888
 20
2.727826605902777
 30
0.0
 10
4.779036458333332
 20
-1.206472439236111
 30
0.0
 10
4.779036458333332
 20
-1.206472439236111
 30
0.0
 10
4.491026475694444
 20
-2.50871853298611
 30
0.0
 10
3.501595052083333
 20
-2.727826605902777
 30
0.0
 10
3.501595052083333
 20
-2.727826605902777
 30
0.0
 10
1.514463975694444
 20
-2.727826605902777
 30
0.0
 10
0.5222764756944444
 20
-2.727826605902777
 30
0.0
 10
-1.238856336805555
 20
-2.727826605902777
 30
0.0
 10
-2.042252604166666
 20
-2.727826605902777
 30
0.0
 10
-2.56452907986111
 20
-2.729204644097221
 30
0.0
 10
-3.079915364583333
 20
-1.799028862847221
 30
0.0
 10
-3.079915364583333
 20
-1.799028862847221
 30
0.0
 10
-5.596213107638888
 20
2.672705078124999
 30
0.0
 10
-5.596213107638888
 20
2.672705078124999
 30
0.0
  0
ENDBLK
  5
4606
330
4603
100
AcDbEntity
  8
0
100
AcDbBlockEnd
  0
BLOCK
  5
4608
330
4607
100
AcDbEntity
  8
0
 62
     7
100
AcDbBlockBegin
  2
AI9-BLK32
 70
     0
 10
0.0
 20
0.0
 30
0.0
  3
AI9-BLK32
  1

  0
SPLINE
  5
4609
330
4607
100
AcDbEntity
  8
0
 62
     7
100
AcDbSpline
210
0.0
220
0.0
230
1.0
 70
     8
 71
     3
 72
    26
 73
    22
 74
     0
 42
0.0000000001
 43
0.0000000001
 40
0.0
 40
0.0
 40
0.0
 40
0.0
 40
1.0
 40
1.0
 40
1.0
 40
2.0
 40
2.0
 40
2.0
 40
3.0
 40
3.0
 40
3.0
 40
4.0
 40
4.0
 40
4.0
 40
5.0
 40
5.0
 40
5.0
 40
6.0
 40
6.0
 40
6.0
 40
7.0
 40
7.0
 40
7.0
 40
7.0
 10
33.78605143229167
 20
23.48108181423611
 30
0.0
 10
9.715858289930555
 20
23.48108181423611
 30
0.0
 10
-3.182579210069444
 20
22.60051540798611
 30
0.0
 10
-28.097509765625
 20
19.95468207465277
 30
0.0
 10
-31.29455837673611
 20
19.51370985243055
 30
0.0
 10
-31.94912651909722
 20
17.24132486979166
 30
0.0
 10
-32.066259765625
 20
14.66439344618055
 30
0.0
 10
-32.72771809895833
 20
0.1109320746527778
 30
0.0
 10
-32.98127712673611
 20
-2.351622178819444
 30
0.0
 10
-33.60966254340278
 20
-21.54769422743056
 30
0.0
 10
-33.60966254340278
 20
-23.322607421875
 30
0.0
 10
-33.52560221354167
 20
-23.32536349826389
 30
0.0
 10
-31.66800672743055
 20
-23.32536349826389
 30
0.0
 10
-26.15585394965278
 20
-23.32536349826389
 30
0.0
 10
-22.03414171006944
 20
-23.48108181423611
 30
0.0
 10
-14.97858615451389
 20
-23.48108181423611
 30
0.0
 10
-14.97858615451389
 20
-23.48108181423611
 30
0.0
 10
-7.151329210069444
 20
11.57620985243055
 30
0.0
 10
-7.151329210069444
 20
11.57620985243055
 30
0.0
 10
-5.828412543402777
 20
17.08836263020833
 30
0.0
 10
-1.16926540798611
 20
22.36211480034722
 30
0.0
 10
5.541780598958332
 20
22.74520941840278
 30
0.0
  0
ENDBLK
  5
460A
330
4607
100
AcDbEntity
  8
0
100
AcDbBlockEnd
  0
BLOCK
  5
460C
330
460B
100
AcDbEntity
  8
0
 62
     7
100
AcDbBlockBegin
  2
AI9-BLK33
 70
     0
 10
0.0
 20
0.0
 30
0.0
  3
AI9-BLK33
  1

  0
LINE
  5
460D
330
460B
100
AcDbEntity
  8
0
 62
     7
100
AcDbLine
 10
0.0
 20
29.48795030381944
 30
0.0
 11
0.0
 21
-29.48795030381944
 31
0.0
  0
ENDBLK
  5
460E
330
460B
100
AcDbEntity
  8
0
100
AcDbBlockEnd
  0
BLOCK
  5
4610
330
460F
100
AcDbEntity
  8
0
 62
     7
100
AcDbBlockBegin
  2
AI9-BLK34
 70
     0
 10
0.0
 20
0.0
 30
0.0
  3
AI9-BLK34
  1

  0
LINE
  5
4611
330
460F
100
AcDbEntity
  8
0
 62
     7
100
AcDbLine
 10
-176.8366651746961
 20
-3.301090494791666
 30
0.0
 11
176.8366651746961
 21
3.301090494791666
 31
0.0
  0
ENDBLK
  5
4612
330
460F
100
AcDbEntity
  8
0
100
AcDbBlockEnd
  0
BLOCK
  5
4614
330
4613
100
AcDbEntity
  8
0
 62
     7
100
AcDbBlockBegin
  2
AI9-BLK35
 70
     0
 10
0.0
 20
0.0
 30
0.0
  3
AI9-BLK35
  1

  0
SPLINE
  5
4615
330
4613
100
AcDbEntity
  8
0
 62
     7
100
AcDbSpline
210
0.0
220
0.0
230
1.0
 70
     8
 71
     3
 72
     8
 73
     4
 74
     0
 42
0.0000000001
 43
0.0000000001
 40
0.0
 40
0.0
 40
0.0
 40
0.0
 40
1.0
 40
1.0
 40
1.0
 40
1.0
 10
-9.062323676215276
 20
-6.373943413628471
 30
0.0
 10
-8.450474717881943
 20
6.560323079427083
 30
0.0
 10
-0.2704399956597222
 20
9.013231065538192
 30
0.0
 10
9.147073025173609
 20
3.301262749565971
 30
0.0
  0
ENDBLK
  5
4616
330
4613
100
AcDbEntity
  8
0
100
AcDbBlockEnd
  0
BLOCK
  5
4618
330
4617
100
AcDbEntity
  8
0
 62
     7
100
AcDbBlockBegin
  2
AI9-BLK36
 70
     0
 10
0.0
 20
0.0
 30
0.0
  3
AI9-BLK36
  1

  0
SPLINE
  5
4619
330
4617
100
AcDbEntity
  8
0
 62
     7
100
AcDbSpline
210
0.0
220
0.0
230
1.0
 70
     8
 71
     3
 72
    35
 73
    31
 74
     0
 42
0.0000000001
 43
0.0000000001
 40
0.0
 40
0.0
 40
0.0
 40
0.0
 40
1.0
 40
1.0
 40
1.0
 40
2.0
 40
2.0
 40
2.0
 40
3.0
 40
3.0
 40
3.0
 40
4.0
 40
4.0
 40
4.0
 40
5.0
 40
5.0
 40
5.0
 40
6.0
 40
6.0
 40
6.0
 40
7.0
 40
7.0
 40
7.0
 40
8.0
 40
8.0
 40
8.0
 40
9.0
 40
9.0
 40
9.0
 40
10.0
 40
10.0
 40
10.0
 40
10.0
 10
55.01132778591579
 20
-87.73039008246525
 30
0.0
 10
54.75363464355468
 20
-78.42449815538194
 30
0.0
 10
52.38754306369357
 20
-69.42728678385416
 30
0.0
 10
46.19188334147135
 20
-65.24080674913193
 30
0.0
 10
40.64252353244357
 20
-61.48840874565972
 30
0.0
 10
-10.4730472140842
 20
-33.71129286024306
 30
0.0
 10
-23.37837490505642
 20
0.7782470703125
 30
0.0
 10
-34.40268046061198
 20
29.44144151475694
 30
0.0
 10
-37.81332499186198
 20
40.15155436197916
 30
0.0
 10
-46.4122833251953
 20
70.79912380642361
 30
0.0
 10
-46.4122833251953
 20
70.79912380642361
 30
0.0
 10
-48.26987881130642
 20
74.98009168836805
 30
0.0
 10
-49.49908888075086
 20
77.63419325086805
 30
0.0
 10
-52.82016092936197
 20
78.27498101128471
 30
0.0
 10
-55.01124165852864
 20
80.24695366753471
 30
0.0
 10
-55.01124165852864
 20
83.37510036892359
 30
0.0
 10
-55.01124165852864
 20
87.55606825086806
 30
0.0
 10
-52.5045901828342
 20
87.55606825086806
 30
0.0
 10
-47.29422776963975
 20
87.55606825086806
 30
0.0
 10
-37.15186665852864
 20
87.55606825086806
 30
0.0
 10
-24.56762186686198
 20
87.55882432725694
 30
0.0
 10
-16.63149990505642
 20
87.55882432725694
 30
0.0
 10
-12.49600728352864
 20
87.55882432725694
 30
0.0
 10
-11.78631761338975
 20
87.33558213975694
 30
0.0
 10
-11.00772603352864
 20
81.69802788628471
 30
0.0
 10
-11.00772603352864
 20
81.69802788628471
 30
0.0
 10
-8.479025946723089
 20
49.19148491753471
 30
0.0
 10
-8.479025946723089
 20
49.19148491753471
 30
0.0
 10
-8.258539835611978
 20
45.66370713975693
 30
0.0
 10
-10.36418219672309
 20
45.66646321614583
 30
0.0
 10
-16.09544304741753
 20
44.56127658420139
 30
0.0
  0
ENDBLK
  5
461A
330
4617
100
AcDbEntity
  8
0
100
AcDbBlockEnd
  0
BLOCK
  5
461C
330
461B
100
AcDbEntity
  8
0
 62
     7
100
AcDbBlockBegin
  2
AI9-BLK37
 70
     0
 10
0.0
 20
0.0
 30
0.0
  3
AI9-BLK37
  1

  0
POLYLINE
  5
461D
330
461B
100
AcDbEntity
  8
0
 62
     7
100
AcDb2dPolyline
 66
     1
 10
0.0
 20
0.0
 30
0.0
  0
VERTEX
  5
461E
330
461D
100
AcDbEntity
  8
0
 62
     7
100
AcDbVertex
100
AcDb2dVertex
 10
-288.6024529351128
 20
109.7555745442708
 30
0.0
  0
VERTEX
  5
461F
330
461D
100
AcDbEntity
  8
0
 62
     7
100
AcDbVertex
100
AcDb2dVertex
 10
-294.5555779351128
 20
-109.5840087890625
 30
0.0
  0
VERTEX
  5
4620
330
461D
100
AcDbEntity
  8
0
 62
     7
100
AcDbVertex
100
AcDb2dVertex
 10
294.7319668240017
 20
-109.5840087890625
 30
0.0
  0
SEQEND
  5
4621
330
461D
100
AcDbEntity
  8
0
 62
     7
  0
ENDBLK
  5
4622
330
461B
100
AcDbEntity
  8
0
100
AcDbBlockEnd
  0
BLOCK
  5
4624
330
4623
100
AcDbEntity
  8
0
 62
     7
100
AcDbBlockBegin
  2
AI9-BLK38
 70
     0
 10
0.0
 20
0.0
 30
0.0
  3
AI9-BLK38
  1

  0
LINE
  5
4625
330
4623
100
AcDbEntity
  8
0
 62
     7
100
AcDbLine
 10
-186.1427293565538
 20
-0.5002278645833333
 30
0.0
 11
186.1427293565538
 21
0.5002278645833333
 31
0.0
  0
ENDBLK
  5
4626
330
4623
100
AcDbEntity
  8
0
100
AcDbBlockEnd
  0
BLOCK
  5
4628
330
4627
100
AcDbEntity
  8
0
 62
     7
100
AcDbBlockBegin
  2
AI9-BLK39
 70
     0
 10
0.0
 20
0.0
 30
0.0
  3
AI9-BLK39
  1

  0
ENDBLK
  5
4629
330
4627
100
AcDbEntity
  8
0
100
AcDbBlockEnd
  0
BLOCK
  5
462B
330
462A
100
AcDbEntity
  8
0
 62
     7
100
AcDbBlockBegin
  2
AI9-BLK40
 70
     0
 10
0.0
 20
0.0
 30
0.0
  3
AI9-BLK40
  1

  0
ENDBLK
  5
462C
330
462A
100
AcDbEntity
  8
0
100
AcDbBlockEnd
  0
BLOCK
  5
462E
330
462D
100
AcDbEntity
  8
0
 62
     7
100
AcDbBlockBegin
  2
AI9-BLK41
 70
     0
 10
0.0
 20
0.0
 30
0.0
  3
AI9-BLK41
  1

  0
INSERT
  5
462F
330
462D
100
AcDbEntity
  8
0
 62
     7
100
AcDbBlockReference
  2
AI9-BLK42
 10
0.0
 20
0.0
 30
0.0
  0
ENDBLK
  5
4630
330
462D
100
AcDbEntity
  8
0
100
AcDbBlockEnd
  0
BLOCK
  5
4632
330
4631
100
AcDbEntity
  8
0
 62
     7
100
AcDbBlockBegin
  2
AI9-BLK42
 70
     0
 10
0.0
 20
0.0
 30
0.0
  3
AI9-BLK42
  1

  0
SPLINE
  5
4633
330
4631
100
AcDbEntity
  8
0
 62
     7
100
AcDbSpline
210
0.0
220
0.0
230
1.0
 70
    11
 71
     3
 72
    38
 73
    34
 74
     0
 42
0.0000000001
 43
0.0000000001
 40
0.0
 40
0.0
 40
0.0
 40
0.0
 40
1.0
 40
1.0
 40
1.0
 40
2.0
 40
2.0
 40
2.0
 40
3.0
 40
3.0
 40
3.0
 40
4.0
 40
4.0
 40
4.0
 40
5.0
 40
5.0
 40
5.0
 40
6.0
 40
6.0
 40
6.0
 40
7.0
 40
7.0
 40
7.0
 40
8.0
 40
8.0
 40
8.0
 40
9.0
 40
9.0
 40
9.0
 40
10.0
 40
10.0
 40
10.0
 40
11.0
 40
11.0
 40
11.0
 40
11.0
 10
-25.87120293511285
 20
13.47376844618055
 30
0.0
 10
-25.87120293511285
 20
13.47376844618055
 30
0.0
 10
-23.04346856011285
 20
-14.22066514756944
 30
0.0
 10
-23.04346856011285
 20
-14.22066514756944
 30
0.0
 10
-23.04346856011285
 20
-14.22066514756944
 30
0.0
 10
-14.28879191080729
 20
-13.97537434895833
 30
0.0
 10
-14.28879191080729
 20
-13.97537434895833
 30
0.0
 10
-13.81061265733507
 20
-9.110899522569443
 30
0.0
 10
-13.96081882052951
 20
-11.08976236979166
 30
0.0
 10
-13.09265475802951
 20
-4.484825303819444
 30
0.0
 10
-12.70956013997396
 20
-1.582676866319444
 30
0.0
 10
-11.98057793511284
 20
1.289154730902777
 30
0.0
 10
-8.292947726779512
 20
1.61574978298611
 30
0.0
 10
-6.081196424696179
 20
1.61574978298611
 30
0.0
 10
8.887054443359375
 20
1.612993706597221
 30
0.0
 10
8.887054443359375
 20
1.612993706597221
 30
0.0
 10
8.887054443359375
 20
1.612993706597221
 30
0.0
 10
6.793642171223957
 20
1.612993706597221
 30
0.0
 10
7.900206841362846
 20
1.612993706597221
 30
0.0
 10
12.83633965386284
 20
1.311203342013888
 30
0.0
 10
13.42338392469618
 20
-3.110921223958333
 30
0.0
 10
13.42338392469618
 20
-6.040630425347221
 30
0.0
 10
13.42338392469618
 20
-11.68231879340277
 30
0.0
 10
13.43578626844618
 20
-9.827479383680554
 30
0.0
 10
13.43578626844618
 20
-14.22479926215278
 30
0.0
 10
13.43578626844618
 20
-14.22479926215278
 30
0.0
 10
25.87120293511285
 20
-14.22479926215278
 30
0.0
 10
25.87120293511285
 20
-14.22479926215278
 30
0.0
 10
25.87120293511285
 20
-14.22479926215278
 30
0.0
 10
25.87120293511285
 20
14.22479926215278
 30
0.0
 10
25.87120293511285
 20
14.22479926215278
 30
0.0
 10
25.87120293511285
 20
14.22479926215278
 30
0.0
 10
-25.87120293511285
 20
13.47376844618055
 30
0.0
 10
-25.87120293511285
 20
13.47376844618055
 30
0.0
  0
ENDBLK
  5
4634
330
4631
100
AcDbEntity
  8
0
100
AcDbBlockEnd
  0
BLOCK
  5
4636
330
4635
100
AcDbEntity
  8
0
 62
     7
100
AcDbBlockBegin
  2
AI9-BLK43
 70
     0
 10
0.0
 20
0.0
 30
0.0
  3
AI9-BLK43
  1

  0
INSERT
  5
4637
330
4635
100
AcDbEntity
  8
0
 62
     7
100
AcDbBlockReference
  2
AI9-BLK44
 10
0.0
 20
0.0
 30
0.0
  0
ENDBLK
  5
4638
330
4635
100
AcDbEntity
  8
0
100
AcDbBlockEnd
  0
BLOCK
  5
463A
330
4639
100
AcDbEntity
  8
0
 62
     7
100
AcDbBlockBegin
  2
AI9-BLK44
 70
     0
 10
0.0
 20
0.0
 30
0.0
  3
AI9-BLK44
  1

  0
POLYLINE
  5
463B
330
4639
100
AcDbEntity
  8
0
 62
     7
100
AcDb2dPolyline
 66
     1
 10
0.0
 20
0.0
 30
0.0
 70
     1
  0
VERTEX
  5
463C
330
463B
100
AcDbEntity
  8
0
 62
     7
100
AcDbVertex
100
AcDb2dVertex
 10
-4.62331814236111
 20
-2.886300998263888
 30
0.0
  0
VERTEX
  5
463D
330
463B
100
AcDbEntity
  8
0
 62
     7
100
AcDbVertex
100
AcDb2dVertex
 10
4.52685546875
 20
-3.037885199652777
 30
0.0
  0
VERTEX
  5
463E
330
463B
100
AcDbEntity
  8
0
 62
     7
100
AcDbVertex
100
AcDb2dVertex
 10
4.62331814236111
 20
0.0764811197916667
 30
0.0
  0
VERTEX
  5
463F
330
463B
100
AcDbEntity
  8
0
 62
     7
100
AcDbVertex
100
AcDb2dVertex
 10
2.600358072916666
 20
3.037885199652777
 30
0.0
  0
VERTEX
  5
4640
330
463B
100
AcDbEntity
  8
0
 62
     7
100
AcDbVertex
100
AcDb2dVertex
 10
-4.113444010416666
 20
2.915239800347221
 30
0.0
  0
VERTEX
  5
4641
330
463B
100
AcDbEntity
  8
0
 62
     7
100
AcDbVertex
100
AcDb2dVertex
 10
-4.444173177083333
 20
-0.3644911024305555
 30
0.0
  0
SEQEND
  5
4642
330
463B
100
AcDbEntity
  8
0
 62
     7
  0
ENDBLK
  5
4643
330
4639
100
AcDbEntity
  8
0
100
AcDbBlockEnd
  0
BLOCK
  5
4645
330
4644
100
AcDbEntity
  8
0
 62
     7
100
AcDbBlockBegin
  2
AI9-BLK45
 70
     0
 10
0.0
 20
0.0
 30
0.0
  3
AI9-BLK45
  1

  0
SPLINE
  5
4646
330
4644
100
AcDbEntity
  8
0
 62
     7
100
AcDbSpline
210
0.0
220
0.0
230
1.0
 70
     8
 71
     3
 72
     8
 73
     4
 74
     0
 42
0.0000000001
 43
0.0000000001
 40
0.0
 40
0.0
 40
0.0
 40
0.0
 40
1.0
 40
1.0
 40
1.0
 40
1.0
 10
7.055038791232638
 20
113.8374959309895
 30
0.0
 10
-3.124529351128471
 20
-42.85784912109374
 30
0.0
 10
-7.054694281684026
 20
-113.4078925238715
 30
0.0
 10
-7.054694281684026
 20
-113.8488647460937
 30
0.0
  0
ENDBLK
  5
4647
330
4644
100
AcDbEntity
  8
0
100
AcDbBlockEnd
  0
BLOCK
  5
4649
330
4648
100
AcDbEntity
  8
0
 62
     7
100
AcDbBlockBegin
  2
AI9-BLK46
 70
     0
 10
0.0
 20
0.0
 30
0.0
  3
AI9-BLK46
  1

  0
POLYLINE
  5
464A
330
4648
100
AcDbEntity
  8
0
 62
     7
100
AcDb2dPolyline
 66
     1
 10
0.0
 20
0.0
 30
0.0
 70
     1
  0
VERTEX
  5
464B
330
464A
100
AcDbEntity
  8
0
 62
     7
100
AcDbVertex
100
AcDb2dVertex
 10
4.513075086805555
 20
-3.252170138888888
 30
0.0
  0
VERTEX
  5
464C
330
464A
100
AcDbEntity
  8
0
 62
     7
100
AcDbVertex
100
AcDb2dVertex
 10
-4.602647569444443
 20
-3.114366319444444
 30
0.0
  0
VERTEX
  5
464D
330
464A
100
AcDbEntity
  8
0
 62
     7
100
AcDbVertex
100
AcDb2dVertex
 10
-4.57370876736111
 20
0.0551215277777778
 30
0.0
  0
VERTEX
  5
464E
330
464A
100
AcDbEntity
  8
0
 62
     7
100
AcDbVertex
100
AcDb2dVertex
 10
-2.535590277777777
 20
3.252170138888888
 30
0.0
  0
VERTEX
  5
464F
330
464A
100
AcDbEntity
  8
0
 62
     7
100
AcDbVertex
100
AcDb2dVertex
 10
4.602647569444443
 20
3.19704861111111
 30
0.0
  0
SEQEND
  5
4650
330
464A
100
AcDbEntity
  8
0
 62
     7
  0
ENDBLK
  5
4651
330
4648
100
AcDbEntity
  8
0
100
AcDbBlockEnd
  0
BLOCK
  5
4653
330
4652
100
AcDbEntity
  8
0
 62
     7
100
AcDbBlockBegin
  2
AI9-BLK47
 70
     0
 10
0.0
 20
0.0
 30
0.0
  3
AI9-BLK47
  1

  0
SPLINE
  5
4654
330
4652
100
AcDbEntity
  8
0
 62
     7
100
AcDbSpline
210
0.0
220
0.0
230
1.0
 70
     8
 71
     3
 72
    11
 73
     7
 74
     0
 42
0.0000000001
 43
0.0000000001
 40
0.0
 40
0.0
 40
0.0
 40
0.0
 40
1.0
 40
1.0
 40
1.0
 40
2.0
 40
2.0
 40
2.0
 40
2.0
 10
-17.95790473090277
 20
-6.097129991319444
 30
0.0
 10
-17.95790473090277
 20
-6.097129991319444
 30
0.0
 10
6.724137369791666
 20
-6.097129991319444
 30
0.0
 10
6.724137369791666
 20
-6.097129991319444
 30
0.0
 10
11.79531792534722
 20
-6.097129991319444
 30
0.0
 10
17.78151584201389
 20
-0.1977484809027778
 30
0.0
 10
17.78151584201389
 20
6.273518880208333
 30
0.0
  0
ENDBLK
  5
4655
330
4652
100
AcDbEntity
  8
0
100
AcDbBlockEnd
  0
BLOCK
  5
4657
330
4656
100
AcDbEntity
  8
0
 62
     7
100
AcDbBlockBegin
  2
AI9-BLK48
 70
     0
 10
0.0
 20
0.0
 30
0.0
  3
AI9-BLK48
  1

  0
SPLINE
  5
4658
330
4656
100
AcDbEntity
  8
0
 62
     7
100
AcDbSpline
210
0.0
220
0.0
230
1.0
 70
     8
 71
     3
 72
    11
 73
     7
 74
     0
 42
0.0000000001
 43
0.0000000001
 40
0.0
 40
0.0
 40
0.0
 40
0.0
 40
1.0
 40
1.0
 40
1.0
 40
2.0
 40
2.0
 40
2.0
 40
2.0
 10
16.71146918402778
 20
-6.097819010416666
 30
0.0
 10
16.71146918402778
 20
-6.097819010416666
 30
0.0
 10
-5.477701822916666
 20
-6.097819010416666
 30
0.0
 10
-5.477701822916666
 20
-6.097819010416666
 30
0.0
 10
-10.54888237847222
 20
-6.097819010416666
 30
0.0
 10
-16.53508029513888
 20
-0.1970594618055555
 30
0.0
 10
-16.53508029513888
 20
6.274207899305555
 30
0.0
  0
ENDBLK
  5
4659
330
4656
100
AcDbEntity
  8
0
100
AcDbBlockEnd
  0
BLOCK
  5
465B
330
465A
100
AcDbEntity
  8
0
 62
     7
100
AcDbBlockBegin
  2
AI9-BLK49
 70
     0
 10
0.0
 20
0.0
 30
0.0
  3
AI9-BLK49
  1

  0
SPLINE
  5
465C
330
465A
100
AcDbEntity
  8
0
 62
     7
100
AcDbSpline
210
0.0
220
0.0
230
1.0
 70
     8
 71
     3
 72
    65
 73
    61
 74
     0
 42
0.0000000001
 43
0.0000000001
 40
0.0
 40
0.0
 40
0.0
 40
0.0
 40
1.0
 40
1.0
 40
1.0
 40
2.0
 40
2.0
 40
2.0
 40
3.0
 40
3.0
 40
3.0
 40
4.0
 40
4.0
 40
4.0
 40
5.0
 40
5.0
 40
5.0
 40
6.0
 40
6.0
 40
6.0
 40
7.0
 40
7.0
 40
7.0
 40
8.0
 40
8.0
 40
8.0
 40
9.0
 40
9.0
 40
9.0
 40
10.0
 40
10.0
 40
10.0
 40
11.0
 40
11.0
 40
11.0
 40
12.0
 40
12.0
 40
12.0
 40
13.0
 40
13.0
 40
13.0
 40
14.0
 40
14.0
 40
14.0
 40
15.0
 40
15.0
 40
15.0
 40
16.0
 40
16.0
 40
16.0
 40
17.0
 40
17.0
 40
17.0
 40
18.0
 40
18.0
 40
18.0
 40
19.0
 40
19.0
 40
19.0
 40
20.0
 40
20.0
 40
20.0
 40
20.0
 10
34.65490451388889
 20
314.9099772135417
 30
0.0
 10
34.37791883680556
 20
201.2507649739583
 30
0.0
 10
32.61402994791666
 20
89.01782226562499
 30
0.0
 10
32.61402994791666
 20
88.57685004340277
 30
0.0
 10
32.61402994791666
 20
74.47400716145833
 30
0.0
 10
24.14874131944444
 20
60.59440646701388
 30
0.0
 10
4.853450520833332
 20
60.59440646701388
 30
0.0
 10
4.853450520833332
 20
60.59440646701388
 30
0.0
 10
-94.47554253472221
 20
60.59440646701388
 30
0.0
 10
-94.47554253472221
 20
60.59440646701388
 30
0.0
 10
-101.5310980902777
 20
60.59440646701388
 30
0.0
 10
-106.4355360243055
 20
62.18052842881943
 30
0.0
 10
-108.0437065972222
 20
55.11257052951388
 30
0.0
 10
-109.1916124131944
 20
50.06068250868055
 30
0.0
 10
-109.9412651909722
 20
41.72906358506944
 30
0.0
 10
-111.1828776041666
 20
31.89676106770833
 30
0.0
 10
-111.7189344618055
 20
29.14344075520833
 30
0.0
 10
-112.6821831597222
 20
25.26564127604166
 30
0.0
 10
-110.2706163194444
 20
24.76541341145833
 30
0.0
 10
-104.6316840277777
 20
23.59270290798611
 30
0.0
 10
-99.51227213541665
 20
22.36900499131944
 30
0.0
 10
-92.38092447916665
 20
21.127392578125
 30
0.0
 10
-88.19168836805555
 20
20.35569118923611
 30
0.0
 10
-85.49073350694444
 20
16.94229058159722
 30
0.0
 10
-86.60143229166665
 20
10.53854709201389
 30
0.0
 10
-98.72816840277778
 20
-59.35141601562499
 30
0.0
 10
-146.9512369791666
 20
-100.4706976996528
 30
0.0
 10
-165.0310980902777
 20
-109.2901421440972
 30
0.0
 10
-169.5786241319444
 20
-111.5087836371527
 30
0.0
 10
-175.9300021701388
 20
-117.5377007378472
 30
0.0
 10
-176.3709743923611
 20
-121.8413140190972
 30
0.0
 10
-176.3709743923611
 20
-121.8413140190972
 30
0.0
 10
-177.4734049479166
 20
-150.7608235677083
 30
0.0
 10
-177.4734049479166
 20
-150.7608235677083
 30
0.0
 10
-159.4293728298611
 20
-153.7360080295139
 30
0.0
 10
-134.9512803819444
 20
-154.1742241753472
 30
0.0
 10
-134.9512803819444
 20
-154.1742241753472
 30
0.0
 10
-134.9512803819444
 20
-154.1742241753472
 30
0.0
 10
-96.59083116319443
 20
-154.6193305121527
 30
0.0
 10
-96.59083116319443
 20
-154.6193305121527
 30
0.0
 10
-58.44673394097221
 20
-154.6193305121527
 30
0.0
 10
-15.56769748263889
 20
-126.3888400607639
 30
0.0
 10
1.265039062499999
 20
-103.7228678385416
 30
0.0
 10
23.81663411458333
 20
-73.3509060329861
 30
0.0
 10
42.08804253472222
 20
-48.784619140625
 30
0.0
 10
87.51507161458333
 20
-48.784619140625
 30
0.0
 10
131.8327799479166
 20
-48.784619140625
 30
0.0
 10
177.4734049479166
 20
-90.8974663628472
 30
0.0
 10
177.4734049479166
 20
-169.1700358072916
 30
0.0
 10
174.8069010416666
 20
-254.4044542100694
 30
0.0
 10
126.7409288194444
 20
-316.6077202690972
 30
0.0
 10
78.03416883680554
 20
-314.6908691406249
 30
0.0
 10
57.61302083333333
 20
-313.8860948350694
 30
0.0
 10
45.24650607638888
 20
-308.9926812065972
 30
0.0
 10
28.20430772569444
 20
-297.4929524739583
 30
0.0
 10
14.684375
 20
-288.3538031684027
 30
0.0
 10
2.15525173611111
 20
-279.021728515625
 30
0.0
 10
-20.74360894097222
 20
-281.3974663628472
 30
0.0
 10
-40.32277560763889
 20
-283.4286946614583
 30
0.0
 10
-64.39985894097222
 20
-290.9017957899305
 30
0.0
 10
-64.39985894097222
 20
-306.2021538628472
 30
0.0
  0
ENDBLK
  5
465D
330
465A
100
AcDbEntity
  8
0
100
AcDbBlockEnd
  0
BLOCK
  5
465F
330
465E
100
AcDbEntity
  8
0
 62
     7
100
AcDbBlockBegin
  2
AI9-BLK50
 70
     0
 10
0.0
 20
0.0
 30
0.0
  3
AI9-BLK50
  1

  0
SPLINE
  5
4660
330
465E
100
AcDbEntity
  8
0
 62
     7
100
AcDbSpline
210
0.0
220
0.0
230
1.0
 70
     8
 71
     3
 72
    38
 73
    34
 74
     0
 42
0.0000000001
 43
0.0000000001
 40
0.0
 40
0.0
 40
0.0
 40
0.0
 40
1.0
 40
1.0
 40
1.0
 40
2.0
 40
2.0
 40
2.0
 40
3.0
 40
3.0
 40
3.0
 40
4.0
 40
4.0
 40
4.0
 40
5.0
 40
5.0
 40
5.0
 40
6.0
 40
6.0
 40
6.0
 40
7.0
 40
7.0
 40
7.0
 40
8.0
 40
8.0
 40
8.0
 40
9.0
 40
9.0
 40
9.0
 40
10.0
 40
10.0
 40
10.0
 40
11.0
 40
11.0
 40
11.0
 40
11.0
 10
-183.7900305853949
 20
-11.71737263997395
 30
0.0
 10
-129.7792015923394
 20
-14.69944729275173
 30
0.0
 10
-26.59307963053385
 20
-10.66868557400173
 30
0.0
 10
-26.59307963053385
 20
-10.66868557400173
 30
0.0
 10
12.77333747016059
 20
-7.984267171223957
 30
0.0
 10
47.31662089029947
 20
8.641763644748262
 30
0.0
 10
75.53884311252168
 20
28.26502753363715
 30
0.0
 10
98.41565517849392
 20
44.17172241210937
 30
0.0
 10
116.3287736680772
 20
63.32231920030381
 30
0.0
 10
131.874422539605
 20
86.78479749891492
 30
0.0
 10
136.6134958902994
 20
95.29280531141493
 30
0.0
 10
145.4949520534939
 20
98.9570088704427
 30
0.0
 10
154.8917945014105
 20
98.25145331488714
 30
0.0
 10
163.711238945855
 20
97.58999498155382
 30
0.0
 10
170.9872806125217
 20
93.40075887044269
 30
0.0
 10
175.3970028347439
 20
81.27402275933159
 30
0.0
 10
178.693270195855
 20
72.30161607530381
 30
0.0
 10
185.539363945855
 20
48.86256442599826
 30
0.0
 10
183.1140167236328
 20
21.52228664822048
 30
0.0
 10
181.4507246229383
 20
2.772698974609374
 30
0.0
 10
174.4309980604383
 20
-15.14730970594618
 30
0.0
 10
158.6400583902994
 20
-38.44993557400174
 30
0.0
 10
154.992391289605
 20
-43.41087307400173
 30
0.0
 10
149.6263105604383
 20
-46.09391343858506
 30
0.0
 10
144.772860039605
 20
-46.09391343858506
 30
0.0
 10
138.7563452826606
 20
-46.09391343858506
 30
0.0
 10
136.8904815673828
 20
-43.44532402886284
 30
0.0
 10
131.961238945855
 20
-40.43431057400173
 30
0.0
 10
98.92552931043837
 20
-17.56438869900173
 30
0.0
 10
66.6835696750217
 20
-9.51388956705729
 30
0.0
 10
36.27026672363281
 20
-13.53500501844618
 30
0.0
 10
-10.58165384928385
 20
-19.72928670247395
 30
0.0
 10
-58.20803188747829
 20
-44.91017862955728
 30
0.0
 10
-58.20803188747829
 20
-98.51310831705729
 30
0.0
  0
ENDBLK
  5
4661
330
465E
100
AcDbEntity
  8
0
100
AcDbBlockEnd
  0
BLOCK
  5
4663
330
4662
100
AcDbEntity
  8
0
 62
     7
100
AcDbBlockBegin
  2
AI9-BLK51
 70
     0
 10
0.0
 20
0.0
 30
0.0
  3
AI9-BLK51
  1

  0
SPLINE
  5
4664
330
4662
100
AcDbEntity
  8
0
 62
     7
100
AcDbSpline
210
0.0
220
0.0
230
1.0
 70
    11
 71
     3
 72
    47
 73
    43
 74
     0
 42
0.0000000001
 43
0.0000000001
 40
0.0
 40
0.0
 40
0.0
 40
0.0
 40
1.0
 40
1.0
 40
1.0
 40
2.0
 40
2.0
 40
2.0
 40
3.0
 40
3.0
 40
3.0
 40
4.0
 40
4.0
 40
4.0
 40
5.0
 40
5.0
 40
5.0
 40
6.0
 40
6.0
 40
6.0
 40
7.0
 40
7.0
 40
7.0
 40
8.0
 40
8.0
 40
8.0
 40
9.0
 40
9.0
 40
9.0
 40
10.0
 40
10.0
 40
10.0
 40
11.0
 40
11.0
 40
11.0
 40
12.0
 40
12.0
 40
12.0
 40
13.0
 40
13.0
 40
13.0
 40
14.0
 40
14.0
 40
14.0
 40
14.0
 10
28.75827907986111
 20
-55.13306884765625
 30
0.0
 10
28.75827907986111
 20
-55.13306884765625
 30
0.0
 10
37.37239583333333
 20
-55.31221381293402
 30
0.0
 10
37.37239583333333
 20
-55.31221381293402
 30
0.0
 10
37.37239583333333
 20
-55.31221381293402
 30
0.0
 10
37.35034722222222
 20
-28.94207492404514
 30
0.0
 10
37.35034722222222
 20
-28.94207492404514
 30
0.0
 10
37.35034722222222
 20
-28.94207492404514
 30
0.0
 10
-6.724826388888888
 20
-28.30128716362847
 30
0.0
 10
-6.724826388888888
 20
-28.30128716362847
 30
0.0
 10
-10.58333333333333
 20
-28.30128716362847
 30
0.0
 10
-13.05002170138888
 20
-25.97791476779514
 30
0.0
 10
-13.11754557291666
 20
-22.45840521918402
 30
0.0
 10
-13.8162109375
 20
13.62276882595486
 30
0.0
 10
-14.0642578125
 20
21.26950276692708
 30
0.0
 10
-14.74363064236111
 20
47.67271457248263
 30
0.0
 10
-14.74363064236111
 20
52.50687255859375
 30
0.0
 10
-8.8056640625
 20
54.48849148220485
 30
0.0
 10
-6.305902777777776
 20
54.71173366970486
 30
0.0
 10
9.33620876736111
 20
56.1145765516493
 30
0.0
 10
-19.40277777777777
 20
54.61940511067708
 30
0.0
 10
-37.37239583333333
 20
54.61940511067708
 30
0.0
 10
-34.17672526041666
 20
54.61940511067708
 30
0.0
 10
-32.75734592013889
 20
54.16603054470485
 30
0.0
 10
-29.92685546875
 20
53.35298800998263
 30
0.0
 10
-27.61588541666667
 20
52.69015163845486
 30
0.0
 10
-25.89884982638889
 20
50.81601969401042
 30
0.0
 10
-25.89884982638889
 20
48.65249972873264
 30
0.0
 10
-25.89884982638889
 20
48.65249972873264
 30
0.0
 10
-22.91264105902778
 20
-33.3655775282118
 30
0.0
 10
-22.91264105902778
 20
-33.3655775282118
 30
0.0
 10
-22.75830078125
 20
-37.65541042751736
 30
0.0
 10
-20.20203993055555
 20
-39.37520209418403
 30
0.0
 10
-16.87269965277777
 20
-39.39587266710069
 30
0.0
 10
0.3307291666666666
 20
-39.50611572265625
 30
0.0
 10
2.425347222222221
 20
-39.52403021918403
 30
0.0
 10
21.49188368055555
 20
-39.67148030598958
 30
0.0
 10
26.89930555555556
 20
-39.96913655598958
 30
0.0
 10
27.22590060763889
 20
-41.11290825737847
 30
0.0
 10
27.54284939236111
 20
-43.99714219835068
 30
0.0
 10
28.13953993055556
 20
-49.45968560112847
 30
0.0
 10
28.23186848958333
 20
-50.31820339626736
 30
0.0
 10
28.75827907986111
 20
-55.13306884765625
 30
0.0
  0
ENDBLK
  5
4665
330
4662
100
AcDbEntity
  8
0
100
AcDbBlockEnd
  0
BLOCK
  5
4667
330
4666
100
AcDbEntity
  8
0
 62
     7
100
AcDbBlockBegin
  2
AI9-BLK52
 70
     0
 10
0.0
 20
0.0
 30
0.0
  3
AI9-BLK52
  1

  0
SPLINE
  5
4668
330
4666
100
AcDbEntity
  8
0
 62
     7
100
AcDbSpline
210
0.0
220
0.0
230
1.0
 70
     8
 71
     3
 72
    14
 73
    10
 74
     0
 42
0.0000000001
 43
0.0000000001
 40
0.0
 40
0.0
 40
0.0
 40
0.0
 40
1.0
 40
1.0
 40
1.0
 40
2.0
 40
2.0
 40
2.0
 40
3.0
 40
3.0
 40
3.0
 40
3.0
 10
-28.69058295355903
 20
22.61214260525173
 30
0.0
 10
-12.20373399522569
 20
17.22125718858507
 30
0.0
 10
9.844877115885415
 20
13.47299329969618
 30
0.0
 10
9.844877115885415
 20
13.47299329969618
 30
0.0
 10
16.89905463324652
 20
11.71186048719618
 30
0.0
 10
21.38870307074653
 20
7.477149115668401
 30
0.0
 10
23.29452989366319
 20
-0.1971455891927083
 30
0.0
 10
25.98859456380208
 20
-11.03541598849826
 30
0.0
 10
26.16773952907986
 20
-12.59122111002604
 30
0.0
 10
28.57379421657986
 20
-22.73909437391493
 30
0.0
  0
ENDBLK
  5
4669
330
4666
100
AcDbEntity
  8
0
100
AcDbBlockEnd
  0
BLOCK
  5
466B
330
466A
100
AcDbEntity
  8
0
 62
     7
100
AcDbBlockBegin
  2
AI9-BLK53
 70
     0
 10
0.0
 20
0.0
 30
0.0
  3
AI9-BLK53
  1

  0
SPLINE
  5
466C
330
466A
100
AcDbEntity
  8
0
 62
     7
100
AcDbSpline
210
0.0
220
0.0
230
1.0
 70
     8
 71
     3
 72
    11
 73
     7
 74
     0
 42
0.0000000001
 43
0.0000000001
 40
0.0
 40
0.0
 40
0.0
 40
0.0
 40
1.0
 40
1.0
 40
1.0
 40
2.0
 40
2.0
 40
2.0
 40
2.0
 10
40.30959811740451
 20
-74.44859958224826
 30
0.0
 10
40.53008422851561
 20
-61.66040513780381
 30
0.0
 10
34.94489542643229
 20
-56.49413994683159
 30
0.0
 10
28.61556599934896
 20
-47.66504923502604
 30
0.0
 10
-1.260302056206597
 20
-5.991796196831596
 30
0.0
 10
-18.78894788953993
 20
14.62365519205729
 30
0.0
 10
-40.32630683051215
 20
74.39192776150173
 30
0.0
  0
ENDBLK
  5
466D
330
466A
100
AcDbEntity
  8
0
100
AcDbBlockEnd
  0
BLOCK
  5
466F
330
466E
100
AcDbEntity
  8
0
 62
     7
100
AcDbBlockBegin
  2
AI9-BLK54
 70
     0
 10
0.0
 20
0.0
 30
0.0
  3
AI9-BLK54
  1

  0
LINE
  5
4670
330
466E
100
AcDbEntity
  8
0
 62
     7
100
AcDbLine
 10
0.0
 20
-203.953184000651
 30
0.0
 11
0.0
 21
203.953184000651
 31
0.0
  0
ENDBLK
  5
4671
330
466E
100
AcDbEntity
  8
0
100
AcDbBlockEnd
  0
BLOCK
  5
4D32
330
4D14
100
AcDbEntity
  8
0
100
AcDbBlockBegin
  2
A$C64062470
 70
     0
 10
0.0
 20
0.0
 30
0.0
  3
A$C64062470
  1

  0
ARC
  5
4D15
330
4D14
100
AcDbEntity
  8
0
100
AcDbCircle
 10
530.857272919033
 20
429.9999992234482
 30
0.0
 40
30.0
100
AcDbArc
 50
270.0
 51
329.9999999999988
  0
LINE
  5
4D16
330
4D14
100
AcDbEntity
  8
0
100
AcDbLine
 10
530.9163041076002
 20
399.999999223448
 30
0.0
 11
7.600480970149362
 21
399.999999223448
 31
0.0
  0
ARC
  5
4D17
330
4D14
100
AcDbEntity
  8
0
100
AcDbCircle
 10
571.573496172844
 20
515.4059633140644
 30
0.0
 40
573.7270599055305
100
AcDbArc
 50
193.7951913491005
 51
215.7322243042766
  0
ARC
  5
4D18
330
4D14
100
AcDbEntity
  8
0
100
AcDbCircle
 10
98.12198628707893
 20
174.0011558234343
 30
0.0
 40
10.00000000000006
100
AcDbArc
 50
355.4515252704915
 51
39.41581126291895
  0
LINE
  5
4D19
330
4D14
100
AcDbEntity
  8
0
100
AcDbLine
 10
108.0904922583885
 20
173.2081307923255
 30
0.0
 11
105.341257504353
 21
-0.0000007765520044
 31
0.0
  0
LINE
  5
4D1A
330
4D14
100
AcDbEntity
  8
0
100
AcDbLine
 10
705.341257504353
 20
-0.0000007765520755
 30
0.0
 11
705.007717714793
 21
383.6586669294645
 31
0.0
  0
LINE
  5
4D1B
330
4D14
100
AcDbEntity
  8
0
100
AcDbLine
 10
705.341257504353
 20
-0.0000007765520755
 30
0.0
 11
105.341257504353
 21
-0.0000007765520044
 31
0.0
  0
LINE
  5
4D1C
330
4D14
100
AcDbEntity
  8
0
100
AcDbLine
 10
705.007717714793
 20
383.6586669294645
 30
0.0
 11
704.9865508982691
 21
408.0060847829337
 31
0.0
  0
ARC
  5
4D1D
330
4D14
100
AcDbEntity
  8
0
100
AcDbCircle
 10
697.9865535435576
 20
407.9999992234479
 30
0.0
 40
7.0
100
AcDbArc
 50
0.0498109883484209
 51
90.0
1001
GENIUS_GENODEF_13
1002
{
1000
HIER
1070
     0
1002
}
1002
{
1000
MANEDIT
1070
     0
1002
}
1002
{
1000
NOSEL
1070
     0
1002
}
1002
{
1000
BEHIND
1070
     0
1002
}
1002
{
1000
OTHER
1070
     0
1002
}
1002
{
1000
REACTOR
1002
}
1001
GENIUS_GENOBJ-N-FIL_13
1002
{
1000
OWNER
1000
GEN
1002
}
  0
LINE
  5
4D1E
330
4D14
100
AcDbEntity
  8
0
100
AcDbLine
 10
534.6881910382184
 20
754.5085092234478
 30
0.0
 11
549.8459570781398
 21
421.6670639756477
 31
0.0
  0
ARC
  5
4D1F
330
4D14
100
AcDbEntity
  8
0
100
AcDbCircle
 10
556.8380350325659
 20
421.9999992234478
 30
0.0
 40
8.585966783435861
100
AcDbArc
 50
182.7261405661868
 51
270.0
1001
GENIUS_GENOBJ-N-FIL_13
1002
{
1000
OWNER
1000
GEN
1002
}
1001
GENIUS_GENODEF_13
1002
{
1000
HIER
1070
     0
1002
}
1002
{
1000
MANEDIT
1070
     0
1002
}
1002
{
1000
NOSEL
1070
     0
1002
}
1002
{
1000
BEHIND
1070
     0
1002
}
1002
{
1000
OTHER
1070
     0
1002
}
1002
{
1000
REACTOR
1002
}
  0
LINE
  5
4D20
330
4D14
100
AcDbEntity
  8
0
100
AcDbLine
 10
704.9743797746978
 20
422.0060847829338
 30
0.0
 11
704.6979266870143
 21
754.5085092234478
 31
0.0
  0
ARC
  5
4D21
330
4D14
100
AcDbEntity
  8
0
100
AcDbCircle
 10
697.9743824199863
 20
421.9999992234479
 30
0.0
 40
7.0
100
AcDbArc
 50
270.0
 51
0.0498109883490325
1001
GENIUS_GENODEF_13
1002
{
1000
HIER
1070
     0
1002
}
1002
{
1000
MANEDIT
1070
     0
1002
}
1002
{
1000
NOSEL
1070
     0
1002
}
1002
{
1000
BEHIND
1070
     0
1002
}
1002
{
1000
OTHER
1070
     0
1002
}
1002
{
1000
REACTOR
1002
}
1001
GENIUS_GENOBJ-N-FIL_13
1002
{
1000
OWNER
1000
GEN
1002
}
  0
LINE
  5
4D22
330
4D14
100
AcDbEntity
  8
0
100
AcDbLine
 10
704.6979266870143
 20
754.5085092234478
 30
0.0
 11
699.2963300912498
 21
754.5085092234479
 31
0.0
  0
LINE
  5
4D23
330
4D14
100
AcDbEntity
  8
0
100
AcDbLine
 10
699.2963300912498
 20
754.5085092234479
 30
0.0
 11
699.2963300912498
 21
758.2442408765687
 31
0.0
  0
LINE
  5
4D24
330
4D14
100
AcDbEntity
  8
0
100
AcDbLine
 10
699.2963300912498
 20
758.2442408765687
 30
0.0
 11
704.6137907897047
 21
758.2442408765687
 31
0.0
  0
LINE
  5
4D25
330
4D14
100
AcDbEntity
  8
0
100
AcDbLine
 10
704.6137907897047
 20
758.2442408765687
 30
0.0
 11
702.4185296877814
 21
795.7624002665975
 31
0.0
  0
ARC
  5
4D26
330
4D14
100
AcDbEntity
  8
0
100
AcDbCircle
 10
692.7151260221993
 20
795.1946350838302
 30
0.0
 40
9.719999999999711
100
AcDbArc
 50
3.348670375970198
 51
81.79111044729692
  0
ARC
  5
4D27
330
4D14
100
AcDbEntity
  8
0
100
AcDbCircle
 10
619.6651748568268
 20
273.0752695893441
 30
0.0
 40
536.924737937358
100
AcDbArc
 50
82.03099953901173
 51
97.97150965003172
  0
ARC
  5
4D28
330
4D14
100
AcDbEntity
  8
0
100
AcDbCircle
 10
546.5923682193662
 20
795.1914368978812
 30
0.0
 40
9.719999999999796
100
AcDbArc
 50
98.2114580001661
 51
176.6429456309419
  0
LINE
  5
4D29
330
4D14
100
AcDbEntity
  8
0
100
AcDbLine
 10
536.889047737773
 20
795.7606219569711
 30
0.0
 11
534.6881958992416
 21
758.2410659167728
 31
0.0
  0
LINE
  5
4D2A
330
4D14
100
AcDbEntity
  8
0
100
AcDbLine
 10
534.6881958992416
 20
758.2410659167728
 30
0.0
 11
539.5410274946008
 21
758.2410659167728
 31
0.0
  0
LINE
  5
4D2B
330
4D14
100
AcDbEntity
  8
0
100
AcDbLine
 10
539.5410274946008
 20
758.2410659167728
 30
0.0
 11
539.5410274946008
 21
754.5085092234478
 31
0.0
  0
LINE
  5
4D2C
330
4D14
100
AcDbEntity
  8
0
100
AcDbLine
 10
539.5410274946008
 20
754.5085092234478
 30
0.0
 11
534.6881910382184
 21
754.5085092234478
 31
0.0
  0
ARC
  5
4D2D
330
4D14
100
AcDbEntity
  8
0
100
AcDbCircle
 10
7.997964827545899
 20
392.0098799137561
 30
0.0
 40
8.000000000000076
100
AcDbArc
 50
92.83597055788996
 51
181.2928844346685
  0
ARC
  5
4D2E
330
4D14
100
AcDbEntity
  8
0
100
AcDbCircle
 10
7.997964827546013
 20
391.6488691086329
 30
0.0
 40
8.00000000000009
100
AcDbArc
 50
178.7071155653477
 51
267.1640294423514
  0
ARC
  5
4D2F
330
4D14
100
AcDbEntity
  8
0
100
AcDbCircle
 10
8.074438419285797
 20
377.2016184727182
 30
0.0
 40
6.474297709819683
100
AcDbArc
 50
12.47020345554978
 51
94.18333760412235
  0
ENDBLK
  5
4D33
330
4D14
100
AcDbEntity
  8
0
100
AcDbBlockEnd
  0
ENDSEC
  0
SECTION
  2
ENTITIES
  0
ARC
  5
5BD8
330
1F
100
AcDbEntity
  8
0
  6
AM_DIN_F_W050
 62
     6
 48
3.0
100
AcDbCircle
 10
-527.6237249415268
 20
-69.07520072864724
 30
0.0
 40
11.99999983163386
100
AcDbArc
 50
28.03938268906352
 51
86.99999983756576
  0
LINE
  5
5BDE
330
1F
100
AcDbEntity
  8
0
  6
AM_DIN_F_W050
 62
     6
 48
3.0
100
AcDbLine
 10
-535.4499409354872
 20
-56.6485782226826
 30
0.0
 11
-526.9956934455189
 21
-57.0916465591464
 31
0.0
  0
ARC
  5
5BDF
330
1F
100
AcDbEntity
  8
0
  6
AM_DIN_F_W050
 62
     6
 48
3.0
100
AcDbCircle
 10
-182.6662709968294
 20
-67.60933296675216
 30
0.0
 40
5.152199744876523
100
AcDbArc
 50
0.6149403129450798
 51
89.56307001717682
  0
LINE
  5
5BE0
330
1F
100
AcDbEntity
  8
0
  6
AM_DIN_F_W050
 62
     6
 48
3.0
100
AcDbLine
 10
-178.1835142049828
 20
-26.26814694642562
 30
0.0
 11
-182.6269813886524
 21
-62.4572830312609
 31
0.0
  0
ARC
  5
5BE2
330
1F
100
AcDbEntity
  8
0
  6
AM_DIN_F_W050
 62
     6
 48
3.0
100
AcDbCircle
 10
-535.0835892451056
 20
-49.65817147913719
 30
0.0
 40
7.000000001049286
100
AcDbArc
 50
193.2067314978546
 51
267.0000000272332
  0
ARC
  5
5BE4
330
1F
100
AcDbEntity
  8
0
  6
AM_DIN_F_W050
 62
     6
 48
3.0
100
AcDbCircle
 10
177.9389414407101
 20
117.6683361992162
 30
0.0
 40
739.3928518213674
100
AcDbArc
 50
190.723027090196
 51
193.2067466846595
  0
LINE
  5
5BE5
330
1F
100
AcDbEntity
  8
0
  6
AM_DIN_F_W050
 62
     6
 48
3.0
100
AcDbLine
 10
-520.0143679940984
 20
-6.45752232251209
 30
0.0
 11
-520.0143679940984
 21
-6.661664048561988
 31
0.0
  0
ARC
  5
5BE7
330
1F
100
AcDbEntity
  8
0
  6
AM_DIN_F_W050
 62
     6
 48
3.0
100
AcDbCircle
 10
-541.664937255096
 20
-18.60178702241035
 30
0.0
 40
6.999999997310176
100
AcDbArc
 50
93.00000020164224
 51
190.7230051721842
  0
ARC
  5
5BE8
330
1F
100
AcDbEntity
  8
0
  6
AM_DIN_F_W050
 62
     6
 48
3.0
100
AcDbCircle
 10
-526.0143812497142
 20
-6.457522594166675
 30
0.0
 40
6.000000271654726
100
AcDbArc
 50
0.0000024148358875
 51
90.00000260106148
  0
ARC
  5
5BE9
330
1F
100
AcDbEntity
  8
0
  6
AM_DIN_F_W050
 62
     6
 48
3.0
100
AcDbCircle
 10
-524.014367582046
 20
-6.661664065572495
 30
0.0
 40
3.999999983937565
100
AcDbArc
 50
273.0000001523697
 51
0.0
  0
LINE
  5
5BEA
330
1F
100
AcDbEntity
  8
0
  6
AM_DIN_F_W050
 62
     6
 48
3.0
100
AcDbLine
 10
-523.8050237480998
 20
-10.65618217257576
 30
0.0
 11
-542.0312889745857
 21
-11.61138025775824
 31
0.0
  0
ARC
  5
5BEF
330
1F
100
AcDbEntity
  8
0
  6
AM_DIN_F_W050
 62
     6
 48
3.0
100
AcDbCircle
 10
-3.014367832843618
 20
-7.082189768623919
 30
0.0
 40
2.999999838745216
100
AcDbArc
 50
272.2149759380446
 51
0.0000020913096617
  0
ARC
  5
5BF0
330
1F
100
AcDbEntity
  8
0
  6
AM_DIN_F_W050
 62
     6
 48
3.0
100
AcDbCircle
 10
-100.0321334630414
 20
2501.190791412132
 30
0.0
 40
2513.148559813239
100
AcDbArc
 50
271.2519264840809
 51
272.2124029838298
  0
ARC
  5
5BF1
330
1F
100
AcDbEntity
  8
0
  6
AM_DIN_F_W050
 62
     6
 48
3.0
100
AcDbCircle
 10
-100.0321307508931
 20
2501.190721312911
 30
0.0
 40
2513.148489661572
100
AcDbArc
 50
272.2124054217407
 51
272.2150454708503
  0
ARC
  5
5BF2
330
1F
100
AcDbEntity
  8
0
  6
AM_DIN_F_W050
 62
     6
 48
3.0
100
AcDbCircle
 10
-427.8428102690007
 20
-285.4584205504235
 30
0.0
 40
4.999999938685213
100
AcDbArc
 50
270.0000006291331
 51
358.0000000685092
  0
LINE
  5
5BF4
330
1F
100
AcDbEntity
  8
0
  6
AM_DIN_F_W050
 62
     6
 48
3.0
100
AcDbLine
 10
-422.4844628658681
 20
-275.2839230201164
 30
0.0
 11
-422.8458577330562
 21
-285.6329179721102
 31
0.0
  0
ARC
  5
5BFF
330
1F
100
AcDbEntity
  8
0
  6
AM_DIN_F_W050
 62
     6
 48
3.0
100
AcDbCircle
 10
-417.4875199213786
 20
-275.458420339078
 30
0.0
 40
4.999999850969235
100
AcDbArc
 50
90.00000146356079
 51
177.9999974091302
  0
ARC
  5
5C00
330
1F
100
AcDbEntity
  8
0
  6
AM_DIN_F_W050
 62
     6
 48
3.0
100
AcDbCircle
 10
-83.57815324209093
 20
-237.9842142077281
 30
0.0
 40
5.000001035584943
100
AcDbArc
 50
4.999989528091155
 51
92.0033138057316
  0
LINE
  5
5C0C
330
1F
100
AcDbEntity
  8
0
  6
AM_DIN_F_W050
 62
     6
 48
3.0
100
AcDbLine
 10
-132.5780653058557
 20
-234.6951175589474
 30
0.0
 11
-20.05861685159834
 21
-230.7593127819955
 31
0.0
  0
LINE
  5
5C0D
330
1F
100
AcDbEntity
  8
0
  6
AM_DIN_F_W050
 62
     6
 48
3.0
100
AcDbLine
 10
-163.0794446460406
 20
-84.438565660313
 30
0.0
 11
-50.01436799409828
 21
-83.58792362581249
 31
0.0
  0
LINE
  5
5C13
330
1F
100
AcDbEntity
  8
0
  6
AM_DIN_F_W050
 62
     6
 48
3.0
100
AcDbLine
 10
-65.05556033359869
 20
-128.5816216335213
 30
0.0
 11
-160.0391831112625
 21
-125.2589196892016
 31
0.0
  0
LINE
  5
5C1D
330
1F
100
AcDbEntity
  8
0
  6
AM_DIN_F_W050
 62
     6
 48
3.0
100
AcDbLine
 10
-144.0853435132293
 20
-272.3009260567002
 30
0.0
 11
-142.1986851368601
 21
-243.9175044326309
 31
0.0
  0
LINE
  5
5C23
330
1F
100
AcDbEntity
  8
0
  6
AM_DIN_F_W050
 62
     6
 48
3.0
100
AcDbLine
 10
-20.05861685159834
 20
-129.4574469181826
 30
0.0
 11
-65.05556033359869
 21
-128.5816216335213
 31
0.0
  0
LINE
  5
5C28
330
1F
100
AcDbEntity
  8
0
  6
AM_DIN_F_W050
 62
     6
 48
3.0
100
AcDbLine
 10
-21.88430384827041
 20
-220.2980783197972
 30
0.0
 11
-30.02056383243667
 21
-219.5862523855173
 31
0.0
  0
LINE
  5
5C29
330
1F
100
AcDbEntity
  8
0
  6
AM_DIN_F_W050
 62
     6
 48
3.0
100
AcDbLine
 10
-21.88430647894745
 20
-140.6169358354018
 30
0.0
 11
-30.0205638324984
 21
-141.3287615385119
 31
0.0
  0
ELLIPSE
  5
5C4C
330
1F
100
AcDbEntity
  8
0
  6
AM_DIN_F_W050
 62
     6
 48
3.0
100
AcDbEllipse
 10
-45.01436807121854
 20
-16.41439338846493
 30
0.0
 11
-4.999999922879717
 21
0.0000004316019528
 31
0.0
210
0.0
220
0.0
230
-1.0
 40
0.9999979496600928
 41
6.283185154850526
 42
7.834226055434636
  0
LINE
  5
5C4E
330
1F
100
AcDbEntity
  8
0
  6
AM_DIN_F_W050
 62
     6
 48
3.0
100
AcDbLine
 10
-100.0143786809369
 20
-11.957522322512
 30
0.0
 11
-160.7026580297859
 21
-10.59017050842368
 31
0.0
  0
LINE
  5
5C5B
330
1F
100
AcDbEntity
  8
0
  6
AM_DIN_F_W050
 62
     6
 48
3.0
100
AcDbLine
 10
-50.01436799409839
 20
-16.41439371850634
 30
0.0
 11
-50.01436799409827
 21
-83.58792362581249
 31
0.0
  0
ELLIPSE
  5
5C89
330
1F
100
AcDbEntity
  8
0
  6
AM_DIN_F_W050
 62
     6
 48
3.0
100
AcDbEllipse
 10
-61.16828821003878
 20
-265.0508588609926
 30
0.0
 11
-14.80677330706045
 21
-2.400781267320679
 31
0.0
210
0.0
220
0.0
230
-0.9999999999999998
 40
0.9999891329139829
 41
4.960404474480057
 42
6.356663902876015
  0
LINE
  5
5C8D
330
1F
100
AcDbEntity
  8
0
  6
AM_DIN_F_W050
 62
     6
 48
3.0
100
AcDbLine
 10
-62.47576906568077
 20
-279.9937563279333
 30
0.0
 11
-0.0143679940985067
 21
-285.4584204881088
 31
0.0
  0
LINE
  5
5C8F
330
1F
100
AcDbEntity
  8
0
  6
AM_DIN_F_W050
 62
     6
 48
3.0
100
AcDbLine
 10
-177.514367935992
 20
-67.55404225442321
 30
0.0
 11
-177.514367935992
 21
-78.59401764349772
 31
0.0
  0
ARC
  5
5CBF
330
1F
100
AcDbEntity
  8
0
  6
AM_DIN_F_W050
 62
     6
 48
3.0
100
AcDbCircle
 10
-172.5143679359919
 20
-78.59401764349772
 30
0.0
 40
5.0
100
AcDbArc
 50
180.0
 51
264.9999999970579
  0
LINE
  5
5CC0
330
1F
100
AcDbEntity
  8
0
  6
AM_DIN_F_W050
 62
     6
 48
3.0
100
AcDbLine
 10
-172.9501466499856
 20
-83.57499113392535
 30
0.0
 11
-163.0794446460406
 21
-84.438565660313
 31
0.0
  0
ARC
  5
5CCB
330
1F
100
AcDbEntity
  8
0
  6
AM_DIN_F_W050
 62
     6
 48
3.0
100
AcDbCircle
 10
-100.0461415762035
 20
2501.553450147163
 30
0.0
 40
2513.511488990941
100
AcDbArc
 50
272.2124029279913
 51
272.2124053428327
  0
LINE
  5
5D00
330
1F
100
AcDbEntity
  8
0
  6
AM_DIN_F_W050
 62
     6
 48
3.0
100
AcDbLine
 10
-76.11135326799852
 20
-266.3581716691088
 30
0.0
 11
-78.59717864034109
 21
-237.5484363141018
 31
0.0
  0
ARC
  5
5D03
330
1F
100
AcDbEntity
  8
0
  6
AM_DIN_F_W050
 62
     6
 48
3.0
100
AcDbCircle
 10
-377.5419718558604
 20
17.92242394697118
 30
0.0
 40
161.4820172765399
100
AcDbArc
 50
210.2525657066313
 51
238.9744107820885
  0
ARC
  5
5D04
330
1F
100
AcDbEntity
  8
0
  6
AM_DIN_F_W050
 62
     6
 48
3.0
100
AcDbCircle
 10
-334.4368241394037
 20
70.83791808143203
 30
0.0
 40
229.2483758933696
100
AcDbArc
 50
236.5582186595445
 51
260.6926748866215
  0
ARC
  5
5D05
330
1F
100
AcDbEntity
  8
0
  6
AM_DIN_F_W050
 62
     6
 48
3.0
100
AcDbCircle
 10
-374.7926451231248
 20
-170.1783550591951
 30
0.0
 40
15.1452656997128
100
AcDbArc
 50
6.646323720667416
 51
77.49438614505383
  0
LINE
  5
5D12
330
1F
100
AcDbEntity
  8
0
100
AcDbLine
 10
-3.014367994098392
 20
-290.4575223225119
 30
0.0
 11
-3.014367994098392
 21
1.424187517369318
 31
0.0
  0
ARC
  5
5D1C
330
1F
100
AcDbEntity
  8
0
  6
AM_DIN_F_W050
 62
     6
 48
3.0
100
AcDbCircle
 10
-100.0143786809369
 20
2500.596622585693
 30
0.0
 40
2512.554144908204
100
AcDbArc
 50
270.0
 51
271.2518177362724
  0
LINE
  5
5D2B
330
1F
100
AcDbEntity
  8
0
  6
AM_DIN_F_W050
 62
     6
 48
3.0
100
AcDbLine
 10
-230.6577891916104
 20
-10.85697847625192
 30
0.0
 11
-506.0238819590286
 21
-10.85697847625189
 31
0.0
  0
LINE
  5
5D2C
330
1F
100
AcDbEntity
  8
0
  6
AM_DIN_F_W050
 62
     6
 48
3.0
100
AcDbLine
 10
-230.8430600477349
 20
-59.14208391021114
 30
0.0
 11
-498.926224572252
 21
-59.14208391021109
 31
0.0
  0
ARC
  5
5D2E
330
1F
100
AcDbEntity
  8
0
  6
AM_DIN_F_W050
 62
     6
 48
3.0
100
AcDbCircle
 10
-230.8430600477349
 20
-49.14208391021111
 30
0.0
 40
10.0
100
AcDbArc
 50
270.0
 51
359.6247110925897
1001
GENIUS_GENOBJ-N-FIL_13
1002
{
1000
OWNER
1000
GEN
1002
}
1001
GENIUS_GENODEF_13
1002
{
1000
HIER
1070
     0
1002
}
1002
{
1000
MANEDIT
1070
     0
1002
}
1002
{
1000
NOSEL
1070
     0
1002
}
1002
{
1000
BEHIND
1070
     0
1002
}
1002
{
1000
OTHER
1070
     0
1002
}
1002
{
1000
REACTOR
1002
}
  0
ARC
  5
5D2F
330
1F
100
AcDbEntity
  8
0
  6
AM_DIN_F_W050
 62
     6
 48
3.0
100
AcDbCircle
 10
-230.6577891916104
 20
-20.85697847625192
 30
0.0
 40
10.0
100
AcDbArc
 50
359.6247110925897
 51
90.0
1001
GENIUS_GENOBJ-N-FIL_13
1002
{
1000
OWNER
1000
GEN
1002
}
1001
GENIUS_GENODEF_13
1002
{
1000
HIER
1070
     0
1002
}
1002
{
1000
MANEDIT
1070
     0
1002
}
1002
{
1000
NOSEL
1070
     0
1002
}
1002
{
1000
BEHIND
1070
     0
1002
}
1002
{
1000
OTHER
1070
     0
1002
}
1002
{
1000
REACTOR
1002
}
  0
LINE
  5
5D30
330
1F
100
AcDbEntity
  8
0
  6
AM_DIN_F_W050
 62
     6
 48
3.0
100
AcDbLine
 10
-218.5457728152892
 20
-60.16816015214954
 30
0.0
 11
-182.6269813886524
 21
-62.4572830312609
 31
0.0
  0
LINE
  5
5D31
330
1F
100
AcDbEntity
  8
0
  6
AM_DIN_F_W050
 62
     6
 48
3.0
100
AcDbLine
 10
-220.6580037051172
 20
-20.92247827870005
 30
0.0
 11
-220.8432745612417
 21
-49.20758371265907
 31
0.0
  0
LINE
  5
5D32
330
1F
100
AcDbEntity
  8
0
  6
CENTER2
 62
     4
 48
30.0
100
AcDbLine
 10
-64.95301550502915
 20
-180.4575223225119
 30
0.0
 11
-5.421740297618725
 21
-180.4575223225119
 31
0.0
  0
LINE
  5
5D33
330
1F
100
AcDbEntity
  8
0
  6
AM_DIN_F_W050
 62
     6
 48
3.0
100
AcDbLine
 10
-359.7491629681996
 20
-168.425438127523
 30
0.0
 11
-352.6377372751152
 21
-233.3655664055938
 31
0.0
  0
LINE
  5
5D3B
330
1F
100
AcDbEntity
  8
0
  6
AM_DIN_F_W050
 62
     6
 48
3.0
100
AcDbLine
 10
-417.4875199213786
 20
-270.4584204881087
 30
0.0
 11
-310.1373616948356
 21
-270.4584204881086
 31
0.0
  0
LINE
  5
5D3C
330
1F
100
AcDbEntity
  8
0
  6
AM_DIN_F_W050
 62
     6
 48
3.0
100
AcDbLine
 10
-324.332906400232
 20
-248.5619334481792
 30
0.0
 11
-339.6240706149091
 21
-246.6122544204135
 31
0.0
  0
ARC
  5
5D3E
330
1F
100
AcDbEntity
  8
0
  6
AM_DIN_F_W050
 62
     6
 48
3.0
100
AcDbCircle
 10
-337.726875428825
 20
-231.7327164428452
 30
0.0
 40
15.0
100
AcDbArc
 50
186.249411474106
 51
262.7337865886159
1001
GENIUS_GENOBJ-N-FIL_13
1002
{
1000
OWNER
1000
GEN
1002
}
1001
GENIUS_GENODEF_13
1002
{
1000
HIER
1070
     0
1002
}
1002
{
1000
MANEDIT
1070
     0
1002
}
1002
{
1000
NOSEL
1070
     0
1002
}
1002
{
1000
BEHIND
1070
     0
1002
}
1002
{
1000
OTHER
1070
     0
1002
}
1002
{
1000
REACTOR
1002
}
  0
ARC
  5
5D40
330
1F
100
AcDbEntity
  8
0
  6
AM_DIN_F_W050
 62
     6
 48
3.0
100
AcDbCircle
 10
-326.2301015863161
 20
-263.4414714257475
 30
0.0
 40
15.0
100
AcDbArc
 50
8.713973749046623
 51
82.7337865886159
1001
GENIUS_GENODEF_13
1002
{
1000
HIER
1070
     0
1002
}
1002
{
1000
MANEDIT
1070
     0
1002
}
1002
{
1000
NOSEL
1070
     0
1002
}
1002
{
1000
BEHIND
1070
     0
1002
}
1002
{
1000
OTHER
1070
     0
1002
}
1002
{
1000
REACTOR
1002
}
1001
GENIUS_GENOBJ-N-FIL_13
1002
{
1000
OWNER
1000
GEN
1002
}
  0
ARC
  5
5D4D
330
1F
100
AcDbEntity
  8
0
  6
AM_DIN_F_W050
 62
     6
 48
3.0
100
AcDbCircle
 10
-245.028747720114
 20
-264.3853024220677
 30
0.0
 40
101.2532861214867
100
AcDbArc
 50
345.0785210088467
 51
355.5162436357791
  0
ARC
  5
5D4E
330
1F
100
AcDbEntity
  8
0
  6
AM_DIN_F_W050
 62
     6
 48
3.0
100
AcDbCircle
 10
-59.26942969859829
 20
-258.2114459511201
 30
0.0
 40
169.7472816146352
100
AcDbArc
 50
147.7870960094268
 51
181.327137720175
  0
ARC
  5
5D4F
330
1F
100
AcDbEntity
  8
0
  6
AM_DIN_F_W050
 62
     6
 48
3.0
100
AcDbCircle
 10
111.4327912216207
 20
-360.8018109410527
 30
0.0
 40
368.8852394963776
100
AcDbArc
 50
138.9051218636249
 51
148.4389540087205
  0
ARC
  5
5D50
330
1F
100
AcDbEntity
  8
0
  6
AM_DIN_F_W050
 62
     6
 48
3.0
100
AcDbCircle
 10
-202.0075971024068
 20
-90.68343658367437
 30
0.0
 40
44.94866494557864
100
AcDbArc
 50
325.8791607849758
 51
358.004501494721
  0
LINE
  5
5D58
330
1F
100
AcDbEntity
  8
0
  6
AM_DIN_F_W050
 62
     6
 48
3.0
100
AcDbLine
 10
-20.05861685159834
 20
-230.7593127819955
 30
0.0
 11
-20.05861685159834
 21
-129.4574469181826
 31
0.0
  0
LINE
  5
5D59
330
1F
100
AcDbEntity
  8
0
  6
AM_DIN_F_W050
 62
     6
 48
3.0
100
AcDbLine
 10
-30.02056383243667
 20
-219.5862523855173
 30
0.0
 11
-30.0205638324984
 21
-141.3287615385119
 31
0.0
  0
ARC
  5
5D5C
330
1F
100
AcDbEntity
  8
0
  6
AM_DIN_F_W050
 62
     6
 48
3.0
100
AcDbCircle
 10
-132.2284902532181
 20
-244.6890055552466
 30
0.0
 40
10.0
100
AcDbArc
 50
92.0033256750151
 51
175.5752272754735
1001
GENIUS_GENODEF_13
1002
{
1000
HIER
1070
     0
1002
}
1002
{
1000
MANEDIT
1070
     0
1002
}
1002
{
1000
NOSEL
1070
     0
1002
}
1002
{
1000
BEHIND
1070
     0
1002
}
1002
{
1000
OTHER
1070
     0
1002
}
1002
{
1000
REACTOR
1002
}
1001
GENIUS_GENOBJ-N-FIL_13
1002
{
1000
OWNER
1000
GEN
1002
}
  0
ARC
  5
5D65
330
1F
100
AcDbEntity
  8
0
  6
AM_DIN_F_W050
 62
     6
 48
3.0
100
AcDbCircle
 10
-162.8208734591864
 20
-90.48410673313725
 30
0.0
 40
6.0
100
AcDbArc
 50
342.8975582205337
 51
85.00000000000026
1001
GENIUS_GENODEF_13
1002
{
1000
HIER
1070
     0
1002
}
1002
{
1000
MANEDIT
1070
     0
1002
}
1002
{
1000
NOSEL
1070
     0
1002
}
1002
{
1000
BEHIND
1070
     0
1002
}
1002
{
1000
OTHER
1070
     0
1002
}
1002
{
1000
REACTOR
1002
}
1001
GENIUS_GENOBJ-N-FIL_13
1002
{
1000
OWNER
1000
GEN
1002
}
  0
LINE
  5
5D6D
330
1F
100
AcDbEntity
  8
0
  6
CENTER2
 62
     4
 48
30.0
100
AcDbLine
 10
-89.75732977313782
 20
-45.45840716711189
 30
0.0
 11
-38.61601811086848
 21
-45.45840716711189
 31
0.0
  0
LINE
  5
5D6E
330
1F
100
AcDbEntity
  8
0
  6
AM_DIN_F_W050
 62
     6
 48
3.0
100
AcDbLine
 10
-80.01322568142404
 20
-18.21999123160338
 30
0.0
 11
-80.01322565180613
 21
-72.69682309158778
 31
0.0
  0
LINE
  5
5D6F
330
1F
100
AcDbEntity
  8
0
  6
AM_DIN_F_W050
 62
     6
 48
3.0
100
AcDbLine
 10
-80.01322568142404
 20
-18.21999123160338
 30
0.0
 11
-50.01436799409839
 21
-17.95819304729682
 31
0.0
  0
LINE
  5
5D70
330
1F
100
AcDbEntity
  8
0
  6
AM_DIN_F_W050
 62
     6
 48
3.0
100
AcDbLine
 10
-80.01322565180613
 20
-72.69682309158778
 30
0.0
 11
-50.01436799409816
 21
-72.95862162334223
 31
0.0
  0
ARC
  5
5D72
330
1F
100
AcDbEntity
  8
0
  6
AM_DIN_F_W050
 62
     6
 48
3.0
100
AcDbCircle
 10
-111.2159965758521
 20
-87.17667219232088
 30
0.0
 40
91.69598624433964
100
AcDbArc
 50
108.963709073926
 51
135.3947311979931
  0
ARC
  5
5D73
330
1F
100
AcDbEntity
  8
0
  6
AM_DIN_F_W050
 62
     6
 48
3.0
100
AcDbCircle
 10
-172.2282372951357
 20
-26.99936300686258
 30
0.0
 40
6.0
100
AcDbArc
 50
135.3947311979931
 51
172.9999999999419
1001
GENIUS_GENODEF_13
1002
{
1000
HIER
1070
     0
1002
}
1002
{
1000
MANEDIT
1070
     0
1002
}
1002
{
1000
NOSEL
1070
     0
1002
}
1002
{
1000
BEHIND
1070
     0
1002
}
1002
{
1000
OTHER
1070
     0
1002
}
1002
{
1000
REACTOR
1002
}
1001
GENIUS_GENOBJ-N-FIL_13
1002
{
1000
OWNER
1000
GEN
1002
}
  0
LINE
  5
5D74
330
1F
100
AcDbEntity
  8
0
100
AcDbLine
 10
-563.8514955140469
 20
-16.45752232251192
 30
0.0
 11
-0.0082940491967065
 21
-16.45752232251192
 31
0.0
  0
LINE
  5
5D85
330
1F
100
AcDbEntity
  8
0
  6
CENTER2
 62
     4
 48
30.0
100
AcDbLine
 10
-17.16858564661925
 20
-80.45752232251194
 30
0.0
 11
9.502245574058633
 21
-80.45752232251194
 31
0.0
  0
ARC
  5
5D98
330
1F
100
AcDbEntity
  8
0
  6
AM_DIN_F_W050
 62
     6
 48
3.0
100
AcDbCircle
 10
-159.8294203752713
 20
-119.2625875107287
 30
0.0
 40
6.0
100
AcDbArc
 50
145.8791607849757
 51
267.9965051569287
1001
GENIUS_GENODEF_13
1002
{
1000
HIER
1070
     0
1002
}
1002
{
1000
MANEDIT
1070
     0
1002
}
1002
{
1000
NOSEL
1070
     0
1002
}
1002
{
1000
BEHIND
1070
     0
1002
}
1002
{
1000
OTHER
1070
     0
1002
}
1002
{
1000
REACTOR
1002
}
1001
GENIUS_GENOBJ-N-FIL_13
1002
{
1000
OWNER
1000
GEN
1002
}
  0
ARC
  5
5DB1
330
1F
100
AcDbEntity
  8
0
  6
AM_DIN_F_W050
 62
     6
 48
3.0
100
AcDbCircle
 10
-191.4214556211054
 20
-249.5499076170257
 30
0.0
 40
120.543072241365
100
AcDbArc
 50
185.531274943251
 51
199.8379460965728
  0
LINE
  5
5DB4
330
1F
100
AcDbEntity
  8
0
100
AcDbLine
 10
-304.8110465212161
 20
-290.4575223225119
 30
0.0
 11
-147.1897611152716
 21
-290.4575223225119
 31
0.0
  0
LWPOLYLINE
  5
5DF9
330
1F
100
AcDbEntity
  8
0
100
AcDbPolyline
 90
       14
 70
     1
 43
0.0
 10
-0.0166247137271967
 20
-1.573555763001763
 10
-3.014367994098392
 20
1.424187517369318
 42
-0.0096988486543062
 10
-100.0166247137424
 20
-0.4576099130213152
 10
-563.0166242939721
 20
-0.4576099130209741
 42
0.414213562373095
 10
-570.0166242687186
 20
-7.457609887767375
 10
-570.016624710727
 20
-9.457608353607128
 42
0.355927956750002
 10
-564.4279696382531
 20
-16.31385569142617
 42
-0.3298824154148633
 10
-558.8697060692187
 20
-22.51852057350175
 42
0.1258911267083808
 10
-449.9307993317481
 20
-286.6292580659271
 42
0.2304740225605279
 10
-442.0583389984517
 20
-290.457609913021
 10
-304.8133032408448
 20
-290.457609913021
 42
0.3208578414465157
 10
-230.8852927668083
 20
-345.4576099130217
 42
0.3058343194390533
 10
-147.1920178349003
 20
-290.457609913021
 10
-0.0166247137212849
 20
-290.457609913021
  0
LINE
  5
608F
330
1F
100
AcDbEntity
  8
0
  6
AM_DIN_F_W050
 62
     6
 48
5.0
100
AcDbLine
 10
-108.2083642498784
 20
2.69948582432687
 30
0.0
 11
-92.21146131594673
 21
2.697802988778192
 31
0.0
  0
LINE
  5
6090
330
1F
100
AcDbEntity
  8
0
  6
AM_DIN_F_W050
 62
     6
 48
5.0
100
AcDbLine
 10
-91.21135612389748
 20
3.697908194446398
 30
0.0
 11
-91.21551114456924
 21
43.19009715116215
 31
0.0
  0
ARC
  5
6091
330
1F
100
AcDbEntity
  8
0
  6
AM_DIN_F_W050
 62
     6
 48
5.0
100
AcDbCircle
 10
-92.21135611836279
 20
3.697802983244912
 30
0.0
 40
1.0
100
AcDbArc
 50
269.9939726224145
 51
0.0060281578137754
1001
GENIUS_GENODEF_13
1002
{
1000
HIER
1070
     0
1002
}
1002
{
1000
MANEDIT
1070
     0
1002
}
1002
{
1000
NOSEL
1070
     0
1002
}
1002
{
1000
BEHIND
1070
     0
1002
}
1002
{
1000
OTHER
1070
     0
1002
}
1002
{
1000
REACTOR
1002
}
1001
GENIUS_GENOBJ-N-FIL_13
1002
{
1000
OWNER
1000
GEN
1002
}
  0
ARC
  5
6092
330
1F
100
AcDbEntity
  8
0
  6
AM_DIN_F_W050
 62
     6
 48
5.0
100
AcDbCircle
 10
-92.21551113903457
 20
43.18999193996066
 30
0.0
 40
1.0
100
AcDbArc
 50
0.0060281578137754
 51
89.99397262254474
1001
GENIUS_GENOBJ-N-FIL_13
1002
{
1000
OWNER
1000
GEN
1002
}
1001
GENIUS_GENODEF_13
1002
{
1000
HIER
1070
     0
1002
}
1002
{
1000
MANEDIT
1070
     0
1002
}
1002
{
1000
NOSEL
1070
     0
1002
}
1002
{
1000
BEHIND
1070
     0
1002
}
1002
{
1000
OTHER
1070
     0
1002
}
1002
{
1000
REACTOR
1002
}
  0
LINE
  5
6093
330
1F
100
AcDbEntity
  8
0
  6
AM_DIN_F_W050
 62
     6
 48
5.0
100
AcDbLine
 10
-109.2124140674316
 20
43.1915695642715
 30
0.0
 11
-109.2082590467597
 21
3.699380607592132
 31
0.0
  0
ARC
  5
6094
330
1F
100
AcDbEntity
  8
0
  6
AM_DIN_F_W050
 62
     6
 48
5.0
100
AcDbCircle
 10
-108.2082590522944
 20
3.699485818793618
 30
0.0
 40
1.0
100
AcDbArc
 50
180.0060281578121
 51
269.9939726224145
1001
GENIUS_GENOBJ-N-FIL_13
1002
{
1000
OWNER
1000
GEN
1002
}
1001
GENIUS_GENODEF_13
1002
{
1000
HIER
1070
     0
1002
}
1002
{
1000
MANEDIT
1070
     0
1002
}
1002
{
1000
NOSEL
1070
     0
1002
}
1002
{
1000
BEHIND
1070
     0
1002
}
1002
{
1000
OTHER
1070
     0
1002
}
1002
{
1000
REACTOR
1002
}
  0
ARC
  5
6095
330
1F
100
AcDbEntity
  8
0
  6
AM_DIN_F_W050
 62
     6
 48
5.0
100
AcDbCircle
 10
-108.2124140729663
 20
43.19167477547296
 30
0.0
 40
1.0
100
AcDbArc
 50
89.99397262254474
 51
180.0060281578121
1001
GENIUS_GENODEF_13
1002
{
1000
HIER
1070
     0
1002
}
1002
{
1000
MANEDIT
1070
     0
1002
}
1002
{
1000
NOSEL
1070
     0
1002
}
1002
{
1000
BEHIND
1070
     0
1002
}
1002
{
1000
OTHER
1070
     0
1002
}
1002
{
1000
REACTOR
1002
}
1001
GENIUS_GENOBJ-N-FIL_13
1002
{
1000
OWNER
1000
GEN
1002
}
  0
LINE
  5
6096
330
1F
100
AcDbEntity
  8
0
  6
AM_DIN_F_W050
 62
     6
 48
5.0
100
AcDbLine
 10
-92.2154059414529
 20
44.18999193442738
 30
0.0
 11
-108.2123088753847
 21
44.19167476993971
 31
0.0
  0
LINE
  5
6097
330
1F
100
AcDbEntity
  8
0
  6
AM_DIN_F_W050
 62
     6
 48
5.0
100
AcDbLine
 10
-189.7843492279326
 20
30.83187775618132
 30
0.0
 11
-191.9624412695638
 21
35.11233069611944
 31
0.0
  0
CIRCLE
  5
6098
330
1F
100
AcDbEntity
  8
0
  6
AM_DIN_F_W050
 62
     6
 48
5.0
100
AcDbCircle
 10
-157.3145355446559
 20
30.49182059565737
 30
0.0
 40
8.000000000309997
  0
CIRCLE
  5
6099
330
1F
100
AcDbEntity
  8
0
  6
AM_DIN_F_W050
 62
     6
 48
5.0
100
AcDbCircle
 10
-157.3145355446559
 20
30.49182059565737
 30
0.0
 40
9.900000000489999
  0
LINE
  5
609A
330
1F
100
AcDbEntity
  8
0
100
AcDbLine
 10
-138.8937123793558
 20
29.06964362211738
 30
0.0
 11
-143.9586484978275
 21
54.60163878162143
 31
0.0
  0
ARC
  5
609B
330
1F
100
AcDbEntity
  8
0
  6
AM_DIN_F_W050
 62
     6
 48
5.0
100
AcDbCircle
 10
-7810.48430752478
 20
-3657.265256217882
 30
0.0
 40
8461.083544421926
100
AcDbArc
 50
25.82504673079951
 51
25.85770031130418
  0
LINE
  5
609C
330
1F
100
AcDbEntity
  8
0
100
AcDbLine
 10
-535.0121653364515
 20
4.491727904420145
 30
0.0
 11
-246.6964754011907
 21
4.491727904456837
 31
0.0
  0
ARC
  5
609D
330
1F
100
AcDbEntity
  8
0
100
AcDbCircle
 10
-246.6964754012024
 20
98.10172790445623
 30
0.0
 40
93.6099999999994
100
AcDbArc
 50
270.0000000000065
 51
291.9534437431752
1001
GENIUS_GENODEF_13
1002
{
1000
HIER
1070
     0
1002
}
1002
{
1000
MANEDIT
1070
     0
1002
}
1002
{
1000
NOSEL
1070
     0
1002
}
1002
{
1000
BEHIND
1070
     0
1002
}
1002
{
1000
OTHER
1070
     0
1002
}
1002
{
1000
REACTOR
1002
}
1001
GENIUS_GENOBJ-N-FIL_13
1002
{
1000
OWNER
1000
GEN
1002
}
  0
LINE
  5
609E
330
1F
100
AcDbEntity
  8
0
  6
AM_DIN_F_W050
 62
     6
 48
5.0
100
AcDbLine
 10
-493.3465976774098
 20
-0.4576099130209741
 30
0.0
 11
-474.4540962509566
 21
-0.4577225382801089
 31
0.0
  0
ARC
  5
609F
330
1F
100
AcDbEntity
  8
0
  6
AM_DIN_F_W050
 62
     6
 48
5.0
100
AcDbCircle
 10
-493.4752755845304
 20
7.592810282104608
 30
0.0
 40
8.05144852320792
100
AcDbArc
 50
202.6535692421067
 51
270.9157376922869
  0
ARC
  5
60A0
330
1F
100
AcDbEntity
  8
0
  6
AM_DIN_F_W050
 62
     6
 48
5.0
100
AcDbCircle
 10
-474.3253577089829
 20
7.592696122289794
 30
0.0
 40
8.05144852320792
100
AcDbArc
 50
269.0835791846316
 51
337.3457476347966
  0
LINE
  5
60A1
330
1F
100
AcDbEntity
  8
0
  6
AM_DIN_F_W050
 62
     6
 48
5.0
100
AcDbLine
 10
-335.8848709833615
 20
-0.4576099130209741
 30
0.0
 11
-312.4978189494292
 21
-0.4577225382801089
 31
0.0
  0
ARC
  5
60A2
330
1F
100
AcDbEntity
  8
0
  6
AM_DIN_F_W050
 62
     6
 48
5.0
100
AcDbCircle
 10
-336.013548890482
 20
7.592810282104608
 30
0.0
 40
8.05144852320792
100
AcDbArc
 50
202.6535692421067
 51
270.9157376922803
  0
ARC
  5
60A3
330
1F
100
AcDbEntity
  8
0
  6
AM_DIN_F_W050
 62
     6
 48
5.0
100
AcDbCircle
 10
-312.3690804074555
 20
7.592696122289794
 30
0.0
 40
8.05144852320792
100
AcDbArc
 50
269.0835791846316
 51
337.3457476347966
  0
ARC
  5
60A4
330
1F
100
AcDbEntity
  8
0
  6
AM_DIN_F_W050
 62
     6
 48
5.0
100
AcDbCircle
 10
-528.8764926299394
 20
-15.69243154696217
 30
0.0
 40
27.45388197233431
100
AcDbArc
 50
8.766622941704321
 51
93.22038267790942
  0
LINE
  5
60A5
330
1F
100
AcDbEntity
  8
0
100
AcDbLine
 10
-52.29650708210681
 20
98.85609604515515
 30
0.0
 11
-164.883430866091
 21
44.49915947268573
 31
0.0
  0
ARC
  5
60A6
330
1F
100
AcDbEntity
  8
0
100
AcDbCircle
 10
-158.345999923053
 20
29.51752660792869
 30
0.0
 40
16.34586573508295
100
AcDbArc
 50
113.5746777617976
 51
176.2651938455168
  0
ARC
  5
60A7
330
1F
100
AcDbEntity
  8
0
100
AcDbCircle
 10
-177.575232745485
 20
30.84759870241069
 30
0.0
 40
2.930119508267274
100
AcDbArc
 50
295.1120137260465
 51
354.8046646321831
  0
ARC
  5
60A8
330
1F
100
AcDbEntity
  8
0
  6
AM_DIN_F_W050
 62
     6
 48
5.0
100
AcDbCircle
 10
-203.1805218756194
 20
-12.04676448963803
 30
0.0
 40
32.68480725725732
100
AcDbArc
 50
134.4573492489895
 51
179.0558332761987
  0
ARC
  5
60A9
330
1F
100
AcDbEntity
  8
0
  6
AM_DIN_F_W050
 62
     6
 48
5.0
100
AcDbCircle
 10
-201.3486782352533
 20
-13.82623964460275
 30
0.0
 40
35.23799902076594
100
AcDbArc
 50
112.4069007904181
 51
134.586501156904
  0
ARC
  5
60AA
330
1F
100
AcDbEntity
  8
0
  6
AM_DIN_F_W050
 62
     6
 48
5.0
100
AcDbCircle
 10
-198.8954206461436
 20
31.7823655079078
 30
0.0
 40
2.634647753676065
100
AcDbArc
 50
25.84779144501287
 51
109.0156034447209
  0
ARC
  5
60AB
330
1F
100
AcDbEntity
  8
0
  6
AM_DIN_F_W050
 62
     6
 48
5.0
100
AcDbCircle
 10
-189.5273133903701
 20
36.24515914350494
 30
0.0
 40
2.685730455431485
100
AcDbArc
 50
117.9349271428096
 51
204.9479834266711
  0
ARC
  5
60AC
330
1F
100
AcDbEntity
  8
0
100
AcDbCircle
 10
-147.8267474503419
 20
56.52249995988285
 30
0.0
 40
2.634647753676065
100
AcDbArc
 50
25.84779144501287
 51
109.0156034447209
  0
ARC
  5
60AD
330
1F
100
AcDbEntity
  8
0
100
AcDbCircle
 10
-138.4586401945683
 20
60.98529359547995
 30
0.0
 40
2.685730455431485
100
AcDbArc
 50
117.9349271428096
 51
204.9479834266711
  0
LINE
  5
60AE
330
1F
100
AcDbEntity
  8
0
100
AcDbLine
 10
-145.4556819137754
 20
57.67115874614479
 30
0.0
 11
-143.9517075065016
 21
54.56664944572011
 31
0.0
  0
LINE
  5
60AF
330
1F
100
AcDbEntity
  8
0
100
AcDbLine
 10
-140.893768073762
 20
59.85246514809446
 30
0.0
 11
-139.3761317065723
 21
56.81407665799915
 31
0.0
  0
LINE
  5
60B0
330
1F
100
AcDbEntity
  8
0
100
AcDbLine
 10
-194.015999164475
 20
3.937936937426457
 30
0.0
 11
-206.3184609148107
 21
3.016071153185976
 31
0.0
  0
ARC
  5
60B1
330
1F
100
AcDbEntity
  8
0
100
AcDbCircle
 10
-124.5324737011921
 20
8.439796052757401
 30
0.0
 40
3.0
100
AcDbArc
 50
270.0
 51
358.9993608586503
1001
GENIUS_GENOBJ-N-FIL_13
1002
{
1000
OWNER
1000
GEN
1002
}
1001
GENIUS_GENODEF_13
1002
{
1000
HIER
1070
     0
1002
}
1002
{
1000
MANEDIT
1070
     0
1002
}
1002
{
1000
NOSEL
1070
     0
1002
}
1002
{
1000
BEHIND
1070
     0
1002
}
1002
{
1000
OTHER
1070
     0
1002
}
1002
{
1000
REACTOR
1002
}
  0
ARC
  5
60B2
330
1F
100
AcDbEntity
  8
0
100
AcDbCircle
 10
-183.5391347536418
 20
-0.4578576767566603
 30
0.0
 40
11.3616767324662
100
AcDbArc
 50
130.3110237843118
 51
157.238463093295
  0
ARC
  5
60B3
330
1F
100
AcDbEntity
  8
0
100
AcDbCircle
 10
-203.9544025480851
 20
21.51460831032108
 30
0.0
 40
18.64979944388926
100
AcDbArc
 50
314.47057615759
 51
330.7227359223322
  0
ARC
  5
60B4
330
1F
100
AcDbEntity
  8
0
100
AcDbCircle
 10
-199.4701241102838
 20
18.93461133673645
 30
0.0
 40
13.47673766163869
100
AcDbArc
 50
330.9670327227101
 51
13.14669483749374
  0
ARC
  5
60B5
330
1F
100
AcDbEntity
  8
0
100
AcDbCircle
 10
-190.158104033207
 20
-0.2150309371516244
 30
0.0
 40
5.668376929169348
100
AcDbArc
 50
86.03755274220699
 51
132.8905165246835
  0
LINE
  5
60B6
330
1F
100
AcDbEntity
  8
0
100
AcDbLine
 10
-121.5329311999606
 20
8.387405373182957
 30
0.0
 11
-120.5281610828071
 21
65.91387181433066
 31
0.0
  0
LINE
  5
60B7
330
1F
100
AcDbEntity
  8
0
  6
AM_DIN_G_W050
 62
     4
 48
2.0
100
AcDbLine
 10
-157.2834232888656
 20
42.8801959823827
 30
0.0
 11
-157.2745082858039
 21
18.10347080589801
 31
0.0
  0
LINE
  5
60B8
330
1F
100
AcDbEntity
  8
0
  6
AM_DIN_G_W050
 62
     4
 48
2.0
100
AcDbLine
 10
-144.8906023971642
 20
30.49184619262334
 30
0.0
 11
-169.6673291775054
 21
30.49182059565737
 31
0.0
  0
LWPOLYLINE
  5
60B9
330
1F
100
AcDbEntity
  8
0
100
AcDbPolyline
 90
        8
 70
     1
 43
0.0
 10
-108.2145355439559
 20
45.39182059565741
 10
-92.25004121636629
 20
45.39182059565741
 42
0.4142135623730951
 10
-91.2500412163663
 20
46.3918205956574
 10
-91.2500412163663
 20
57.74067663385995
 42
0.4142135623730951
 10
-92.25004121636629
 20
58.74067663385995
 10
-108.2145355439559
 20
58.74067663385995
 42
0.4142135623730951
 10
-109.2145355439559
 20
57.74067663385995
 10
-109.2145355439559
 20
46.3918205956574
 42
0.4142135623730951
1001
GENIUS_GENREC_14
1002
{
1000
PYDIR
1011
-109.2145355439559
1021
58.74067663385995
1031
0.0
1002
}
1002
{
1000
PXDIR
1011
-91.2500412163663
1021
45.39182059565741
1031
0.0
1002
}
1002
{
1000
PORI
1011
-109.2145355439559
1021
45.39182059565741
1031
0.0
1002
}
1002
{
1000
PINS
1011
-109.2145355439559
1021
45.39182059565741
1031
0.0
1002
}
1002
{
1000
PINS2
1011
-91.2500412163663
1021
58.74067663385995
1031
0.0
1002
}
1002
{
1000
C
1070
     1
1002
}
1001
GENIUS_GENODEF_13
1002
{
1000
HIER
1070
     0
1002
}
1002
{
1000
MANEDIT
1070
     0
1002
}
1002
{
1000
NOSEL
1070
     0
1002
}
1002
{
1000
BEHIND
1070
     0
1002
}
1002
{
1000
OTHER
1070
     0
1002
}
1002
{
1000
REACTOR
1002
}
1001
GENIUS_GENOBJ-N-REC_13
1002
{
1000
OWNER
1000
GEN
1002
}
  0
CIRCLE
  5
60BA
330
1F
100
AcDbEntity
  8
0
  6
AM_DIN_F_W050
 62
     6
 48
5.0
100
AcDbCircle
 10
-100.2143935941558
 20
37.59807458519742
 30
0.0
 40
4.842439800186997
  0
CIRCLE
  5
60BB
330
1F
100
AcDbEntity
  8
0
  6
AM_DIN_F_W050
 62
     6
 48
5.0
100
AcDbCircle
 10
-100.2055663039558
 20
24.61386909932736
 30
0.0
 40
4.842439800186997
  0
CIRCLE
  5
60BC
330
1F
100
AcDbEntity
  8
0
  6
AM_DIN_F_W050
 62
     6
 48
5.0
100
AcDbCircle
 10
-100.2041988158557
 20
11.6163159217574
 30
0.0
 40
4.842439800186997
  0
LWPOLYLINE
  5
60BD
330
1F
100
AcDbEntity
  8
0
  6
AM_DIN_F_W050
 62
     6
 48
5.0
100
AcDbPolyline
 90
        4
 70
     1
 43
0.0
 10
-157.1494389722954
 20
5.439796052757401
 10
-146.4819489932652
 20
5.439796052757401
 10
-146.4819489932652
 20
11.98251102192762
 10
-157.1494389722954
 20
12.87896983737664
1001
GENIUS_GENREC_14
1002
{
1000
PYDIR
1011
-157.1494389722954
1021
12.87896983737664
1031
0.0
1002
}
1002
{
1000
PXDIR
1011
-146.4819489932652
1021
5.439796052757401
1031
0.0
1002
}
1002
{
1000
PORI
1011
-157.1494389722954
1021
5.439796052757401
1031
0.0
1002
}
1002
{
1000
PINS
1011
-157.1494389722954
1021
5.439796052757401
1031
0.0
1002
}
1002
{
1000
PINS2
1011
-146.4819489932652
1021
11.98251102192762
1031
0.0
1002
}
1002
{
1000
C
1070
     1
1002
}
1001
GENIUS_GENODEF_13
1002
{
1000
HIER
1070
     0
1002
}
1002
{
1000
MANEDIT
1070
     0
1002
}
1002
{
1000
NOSEL
1070
     0
1002
}
1002
{
1000
BEHIND
1070
     0
1002
}
1002
{
1000
OTHER
1070
     0
1002
}
1002
{
1000
REACTOR
1002
}
1001
GENIUS_GENOBJ-N-REC_13
1002
{
1000
OWNER
1000
GEN
1002
}
  0
ARC
  5
60BE
330
1F
100
AcDbEntity
  8
0
100
AcDbCircle
 10
-157.8412836170513
 20
28.54321999689543
 30
0.0
 40
15.95617044214916
100
AcDbArc
 50
1.885140748609999
 51
117.0764963519697
  0
LINE
  5
60BF
330
1F
100
AcDbEntity
  8
0
100
AcDbLine
 10
-124.5324737011921
 20
5.439796052757401
 30
0.0
 11
-189.7664042433989
 21
5.439796052757401
 31
0.0
  0
LINE
  5
60C0
330
1F
100
AcDbEntity
  8
0
100
AcDbLine
 10
-138.8937123793558
 20
29.06964362211738
 30
0.0
 11
-141.893748959274
 21
29.06811381273474
 31
0.0
  0
ARC
  5
60C1
330
1F
100
AcDbEntity
  8
0
100
AcDbCircle
 10
-157.2789657873347
 20
30.49183339414037
 30
0.0
 40
15.47232192379394
100
AcDbArc
 50
238.1840214543083
 51
354.720375507376
  0
ARC
  5
60C2
330
1F
100
AcDbEntity
  8
0
100
AcDbCircle
 10
-181.7763192756674
 20
-6.62577361842689
 30
0.0
 40
29.00990673162061
100
AcDbArc
 50
55.71764521988912
 51
104.2109710885651
  0
LINE
  5
60C3
330
1F
100
AcDbEntity
  8
0
  6
AM_DIN_F_W050
 62
     6
 48
5.0
100
AcDbLine
 10
-170.9487739174164
 20
39.92701335206528
 30
0.0
 11
-214.7807595689343
 21
18.7512950385632
 31
0.0
  0
LINE
  5
60C4
330
1F
100
AcDbEntity
  8
0
100
AcDbLine
 10
-170.9487739174164
 20
39.92701335206528
 30
0.0
 11
-165.1042083219564
 21
42.75058780060184
 31
0.0
  0
LINE
  5
60C5
330
1F
100
AcDbEntity
  8
0
100
AcDbLine
 10
-186.7522383053199
 20
-17.66604328343445
 30
0.0
 11
-161.2447350427587
 21
-0.5135943595279571
 31
0.0
  0
LINE
  5
60C6
330
1F
100
AcDbEntity
  8
0
  6
AM_DIN_F_W050
 62
     6
 48
5.0
100
AcDbLine
 10
-241.0711345472626
 20
11.71809642975455
 30
0.0
 11
-565.9157850113774
 21
11.71809642975455
 31
0.0
  0
ELLIPSE
  5
60C7
330
1F
100
AcDbEntity
  8
0
  6
AM_DIN_F_W050
 62
     6
 48
5.0
100
AcDbEllipse
 10
-232.3305283567425
 20
0.8087257050818834
 30
0.0
 11
3.683002233017375
 21
335.684010257567
 31
0.0
210
0.0
220
0.0
230
1.0
 40
0.9999999908555269
 41
1.55506594165708
 42
1.570796326794674
  0
ARC
  5
60C8
330
1F
100
AcDbEntity
  8
0
  6
AM_DIN_F_W050
 62
     6
 48
5.0
100
AcDbCircle
 10
-565.9157850113531
 20
9.718096429753984
 30
0.0
 40
2.0
100
AcDbArc
 50
90.00000000070999
 51
178.4701122067572
1001
GENIUS_GENODEF_13
1002
{
1000
HIER
1070
     0
1002
}
1002
{
1000
MANEDIT
1070
     0
1002
}
1002
{
1000
NOSEL
1070
     0
1002
}
1002
{
1000
BEHIND
1070
     0
1002
}
1002
{
1000
OTHER
1070
     0
1002
}
1002
{
1000
REACTOR
1002
}
1001
GENIUS_GENOBJ-N-FIL_13
1002
{
1000
OWNER
1000
GEN
1002
}
  0
ARC
  5
60C9
330
1F
100
AcDbEntity
  8
0
  6
AM_DIN_F_W050
 62
     6
 48
5.0
100
AcDbCircle
 10
-245.5901157519388
 20
81.26405797339405
 30
0.0
 40
69.69262484766662
100
AcDbArc
 50
273.7177582234342
 51
296.2363393920607
  0
ELLIPSE
  5
60CA
330
1F
100
AcDbEntity
  8
0
  6
AM_DIN_F_W050
 62
     6
 48
5.0
100
AcDbEllipse
 10
-159.6193423813872
 20
117.6826117863141
 30
0.0
 11
317.4390572807155
 21
-109.2234597546762
 31
0.0
210
0.0
220
0.0
230
1.0
 40
0.9999999908555269
 41
1.534397580045986
 42
1.570796326794674
  0
LINE
  5
60CB
330
1F
100
AcDbEntity
  8
0
  6
AM_DIN_F_W050
 62
     6
 48
5.0
100
AcDbLine
 10
-37.13820189175886
 20
427.2216620677373
 30
0.0
 11
-140.753461394711
 21
110.5294469985866
 31
0.0
  0
ARC
  5
60CC
330
1F
100
AcDbEntity
  8
0
  6
AM_DIN_F_W050
 62
     6
 48
5.0
100
AcDbCircle
 10
-93.23229808952817
 20
94.98148770734374
 30
0.0
 40
50.0
100
AcDbArc
 50
161.8829550170176
 51
187.4892356834884
1001
GENIUS_GENODEF_13
1002
{
1000
HIER
1070
     0
1002
}
1002
{
1000
MANEDIT
1070
     0
1002
}
1002
{
1000
NOSEL
1070
     0
1002
}
1002
{
1000
BEHIND
1070
     0
1002
}
1002
{
1000
OTHER
1070
     0
1002
}
1002
{
1000
REACTOR
1002
}
1001
GENIUS_GENOBJ-N-FIL_13
1002
{
1000
OWNER
1000
GEN
1002
}
  0
ARC
  5
60CD
330
1F
100
AcDbEntity
  8
0
  6
AM_DIN_F_W050
 62
     6
 48
5.0
100
AcDbCircle
 10
-39.99505076915682
 20
428.1373118325082
 30
0.0
 40
3.0
100
AcDbArc
 50
342.2288051547773
 51
68.92734656627462
  0
LINE
  5
60CE
330
1F
100
AcDbEntity
  8
0
  6
AM_DIN_F_W050
 62
     6
 48
5.0
100
AcDbLine
 10
-62.99513399074055
 20
397.155253211341
 30
0.0
 11
-153.8037921480613
 21
123.5136542785173
 31
0.0
  0
ARC
  5
60CF
330
1F
100
AcDbEntity
  8
0
  6
AM_DIN_F_W050
 62
     6
 48
5.0
100
AcDbCircle
 10
-64.95815880131829
 20
94.03000567092496
 30
0.0
 40
93.6099999999994
100
AcDbArc
 50
161.6414442384795
 51
183.5948879816485
1001
GENIUS_GENODEF_13
1002
{
1000
HIER
1070
     0
1002
}
1002
{
1000
MANEDIT
1070
     0
1002
}
1002
{
1000
NOSEL
1070
     0
1002
}
1002
{
1000
BEHIND
1070
     0
1002
}
1002
{
1000
OTHER
1070
     0
1002
}
1002
{
1000
REACTOR
1002
}
1001
GENIUS_GENOBJ-N-FIL_13
1002
{
1000
OWNER
1000
GEN
1002
}
  0
LINE
  5
60D0
330
1F
100
AcDbEntity
  8
0
  6
AM_DIN_F_W050
 62
     6
 48
5.0
100
AcDbLine
 10
-142.805766399187
 20
88.46449148582872
 30
0.0
 11
-132.926965531033
 21
13.3184571582193
 31
0.0
  0
LINE
  5
60D1
330
1F
100
AcDbEntity
  8
0
  6
AM_DIN_F_W050
 62
     6
 48
5.0
100
AcDbLine
 10
-50.39588362550205
 20
435.1216661642165
 30
0.0
 11
-62.99513399074055
 21
397.155253211341
 31
0.0
  0
LINE
  5
60D2
330
1F
100
AcDbEntity
  8
0
  6
AM_DIN_F_W050
 62
     6
 48
5.0
100
AcDbLine
 10
-155.9625670692994
 20
68.99536604792491
 30
0.0
 11
-158.3839649059008
 21
88.16052070980351
 31
0.0
  0
ARC
  5
60D3
330
1F
100
AcDbEntity
  8
0
  6
AM_DIN_F_W050
 62
     6
 48
5.0
100
AcDbCircle
 10
-135.5614400494396
 20
13.28824461419154
 30
0.0
 40
2.634647753676065
100
AcDbArc
 50
277.4892356834916
 51
0.657047683195418
  0
LINE
  5
60D4
330
1F
100
AcDbEntity
  8
0
  6
AM_DIN_F_W050
 62
     6
 48
5.0
100
AcDbLine
 10
-135.2180402603251
 20
10.67607207571203
 30
0.0
 11
-140.0380155247222
 21
10.04243150834932
 31
0.0
  0
ARC
  5
60D5
330
1F
100
AcDbEntity
  8
0
  6
AM_DIN_F_W050
 62
     6
 48
5.0
100
AcDbCircle
 10
-158.9624846343127
 20
31.60550844420567
 30
0.0
 40
15.9561704421492
100
AcDbArc
 50
253.5265849870853
 51
6.260530776532529
  0
ARC
  5
60D6
330
1F
100
AcDbEntity
  8
0
  6
AM_DIN_F_W050
 62
     6
 48
5.0
100
AcDbCircle
 10
-157.2901567833457
 20
30.45806996114007
 30
0.0
 40
15.47232192379394
100
AcDbArc
 50
129.8254656927845
 51
246.361819745847
  0
ARC
  5
60D7
330
1F
100
AcDbEntity
  8
0
  6
AM_DIN_F_W050
 62
     6
 48
5.0
100
AcDbCircle
 10
-185.3271559269916
 20
65.6788296310344
 30
0.0
 40
29.55128580258157
100
AcDbArc
 50
307.8381461489674
 51
6.443872758571516
  0
LINE
  5
60D8
330
1F
100
AcDbEntity
  8
0
  6
AM_DIN_F_W050
 62
     6
 48
5.0
100
AcDbLine
 10
-145.7362195853382
 20
53.38751393886742
 30
0.0
 11
-140.0380155247222
 21
10.04243150834932
 31
0.0
  0
ARC
  5
60D9
330
1F
100
AcDbEntity
  8
0
  6
AM_DIN_F_W050
 62
     6
 48
5.0
100
AcDbCircle
 10
-163.0112644475532
 20
50.95758642873221
 30
0.0
 40
17.44510598122156
100
AcDbArc
 50
8.006759382787947
 51
54.57946550030051
  0
ARC
  5
60DA
330
1F
100
AcDbEntity
  8
0
  6
AM_DIN_F_W050
 62
     6
 48
5.0
100
AcDbCircle
 10
-150.7143139934212
 20
70.06321197262721
 30
0.0
 40
5.355787081967337
100
AcDbArc
 50
191.5008047756895
 51
245.9081802041368
  0
LINE
  5
60DB
330
1F
100
AcDbEntity
  8
0
  6
AM_DIN_G_W050
 62
     4
 48
2.0
100
AcDbLine
 10
-100.1766081709806
 20
-21.90282993342345
 30
0.0
 11
-100.2041988158557
 21
11.6163159217574
 31
0.0
  0
LINE
  5
60DC
330
1F
100
AcDbEntity
  8
0
100
AcDbLine
 10
-198.2892910552831
 20
-0.5092272529334992
 30
0.0
 11
-154.3401791445819
 21
-0.5144083234362995
 31
0.0
  0
LINE
  5
60DD
330
1F
100
AcDbEntity
  8
0
100
AcDbLine
 10
-194.0159051159644
 20
19.73700826740594
 30
0.0
 11
-176.3317214011722
 21
28.19443457833279
 31
0.0
  0
REGION
  5
60DE
330
1F
100
AcDbEntity
  8
0
100
AcDbModelerGeometry
 70
     1
  1
mogoo nlh m o         
  1
ni ^ *+0;:,4 ^ *+0\^ [ nf ^ LR mniqoqoqkjon QK o  
  1
n fqfffffffffffffffj:rooh n:rono 
  1
>,27:>;:- {rn rn _nm mniqoqoqkjon |
  1
=0;& {rn rn {rn {m {rn {rn |
  1
3*2/ {rn rn {rn {rn {l {n |
  1
,7:33 {rn rn {rn {rn {rn {k {rn {m |
  1
9><: {rn rn {rn {rn {j {l {rn {i 90-(>-; ;0*=3: 0*+ |
  1
300/ {rn rn {rn {rn {h {k |
  1
/3>1:r,*-9><: {rn rn {rn rmgoqgkgoilomkoknfj nhqjjlngfollokfkhg o o o n n o o 90-(>-;@) V V V V |
  1
<0:;8: {rn rn {rn {g {f {rn {no 90-(>-; {j {rn |
  1
<0:;8: {rn rn {rn {nn {h {rn {nm 90-(>-; {j {rn |
  1
<0:;8: {rn rn {rn {h {nl {rn {nk 90-(>-; {j {rn |
  1
:;8: {rn rn {rn {nj o {ni nfqiomjnolgihikgh {h {nh 90-(>-; _h *1410(1 |
  1
<0:;8: {rn rn {rn {ng {g {rn {nf 90-(>-; {j {rn |
  1
:;8: {rn rn {rn {ni roqohmijmlmnkoghlolhj {mo oqohmijmlmnkoghllfmg {g {mn 90-(>-; _h *1410(1 |
  1
<0:;8: {rn rn {rn {f {mm {rn {ml 90-(>-; {j {rn |
  1
:;8: {rn rn {rn {mk roqngkiolfkofkoojomj {nj oqngkiolfkofkoojohl {f {mj 90-(>-; _h *1410(1 |
  1
):-+:' {rn rn {rn {no {mi |
  1
):-+:' {rn rn {rn {no {mh |
  1
,+->687+r<*-): {rn rn {rn rmnnqhoooggglohjklk nnqmhfjgnfjikgommf o oqfomnlghmklhnmgilf oqklnkkiogmliifomgj o V V |
  1
<0:;8: {rn rn {rn {mg {nn {rn {mf 90-(>-; {j {rn |
  1
:;8: {rn rn {rn {mo roqjjmkknffiiglomhk {lo oqjjmkknffiiglomhhk {nn {ln 90-(>-; _h *1410(1 |
  1
):-+:' {rn rn {rn {nm {lm |
  1
:336/,:r<*-): {rn rn {rn rnhfqlhonnmjjiflfmi rnkqjkmghlfomihhfnn o ro ro rn rnmqnngglkojngmhfhn ljqmjmjiinglmomhln o n V V |
  1
<0:;8: {rn rn {rn {nl {ll {rn {lk 90-(>-; {j {rn |
  1
:;8: {rn rn {rn {lj roqllnogmmigfgokikfk {mk oqllnogmmigfgokilkj {nl {li 90-(>-; _h *1410(1 |
  1
):-+:' {rn rn {rn {ml {lh |
  1
:336/,:r<*-): {rn rn {rn rmooqkhmfmihnggilgj rnkqfilmlngomjihilk o ro ro rn rnjqgjlkjfioonflih mlqhliofinhgmillil o n V V |
  1
/061+ {rn rn {rn rmnnqhoooggglohjklk nnqmhfjgnfjikgommf o |
  1
/061+ {rn rn {rn rnfkqonjfojnnjfillf nfqhlhoogmihkoikjm o |
  1
<0:;8: {rn rn {rn {lg {ng {rn {lf 90-(>-; {j {rn |
  1
:;8: {rn rn {rn {lo roqoghiinfgmkfoiljjok {ko oqoghiinfgmkfoilkglg {ng {kn 90-(>-; _h *1410(1 |
  1
):-+:' {rn rn {rn {nf {km |
  1
:336/,:r<*-): {rn rn {rn rnfjqfmiggfiionnlfk mnqnmooffjmommmhii o ro ro rn iqngohloghnofnmgoj rlqlignfglfmmkffkki o n V V |
  1
/061+ {rn rn {rn rnggqgfgokgiihojnnh mnqkfilgmlfghmgkgj o |
  1
<0:;8: {rn rn {rn {mm {kl {rn {kk 90-(>-; {j {rn |
  1
:;8: {rn rn {rn {kj roqihmjjnhhkikohhlij {lj oqihmjjnhhkikohhjm {mm {ki 90-(>-; _h *1410(1 |
  1
):-+:' {rn rn {rn {lk {kh |
  1
:336/,:r<*-): {rn rn {rn rmolqngminogmoigink rnmqnonlmnghgiifoif o ro ro rn rmmqoolfgolffmfhffn nnqoojgmmihnfnnnfm o n V V |
  1
/061+ {rn rn {rn rmmoqknlfjmkoikfmgj jqkjfjkgoihohfkmkj o |
  1
<0:;8: {rn rn {rn {kg {mg {rn {kf 90-(>-; {j {rn |
  1
:;8: {rn rn {rn {ko roqllhljnfgfooggmfng {jo oqllhljnfgfooggk {mg {jn 90-(>-; _h *1410(1 |
  1
):-+:' {rn rn {rn {mf {jm |
  1
:336/,:r<*-): {rn rn {rn rnkgqnfijniiogmikfn rjfqgjffffmnnljijmk o o o n rjoqimnjnhkgoooihhl hoqhofoffohmfhhimm o n V V |
  1
/061+ {rn rn {rn rnfmqkllofofhnigool njqoofkggikhhmmgf o |
  1
<0:;8: {rn rn {rn {ll {jl {rn {jk 90-(>-; {j {rn |
  1
:;8: {rn rn {rn {jj o {kj mgnqjionjhknmilgjj {ll {ji 90-(>-; _h *1410(1 |
  1
):-+:' {rn rn {rn {kk {jh |
  1
:336/,:r<*-): {rn rn {rn rmloqfgokklogmhmmhf rgqoimhlflmlhfimhfm o o o n mqngokkklnokflgjgh rmqhlhgmohonnnfnkjj o n V V |
  1
/061+ {rn rn {rn rmmhqjifmojjjjjmmmm rgqgkjfhkffklhogoin o |
  1
<0:;8: {rn rn {rn {jg {lg {rn {jf 90-(>-; {j {rn |
  1
:;8: {rn rn {rn {jo o {io lqjmjnghfkhonmkool {lg {in 90-(>-; _h *1410(1 |
  1
):-+:' {rn rn {rn {lf {im |
  1
:336/,:r<*-): {rn rn {rn rmonqnojnjmljhkogof mqkliinfjinnofgohg o o o n rkqhmhiijofojmgflmg mqmhmlkoghjkojijjl o n V V |
  1
/061+ {rn rn {rn rmokqgnkmngfifmjkgj iqnkjiginhmfjgmhgl o |
  1
<0:;8: {rn rn {rn {kl {il {rn {ik 90-(>-; {j {rn |
  1
:;8: {rn rn {rn {ij roqiojiljnlllhghiogj {jj oqiojiljnlllhgihnjf {kl {ii 90-(>-; _h *1410(1 |
  1
):-+:' {rn rn {rn {jk {ih |
  1
,+->687+r<*-): {rn rn {rn rjnmqjkoiookfjlinn rnnqjimhlfmiknhlihm o n o o V V |
  1
/061+ {rn rn {rn rmloqfgokklogmhmmji rnnqjimhlfmiknhlihm o |
  1
<0:;8: {rn rn {rn {ig {kg {rn {if 90-(>-; {j {rn |
  1
:;8: {rn rn {rn {io o {ho gqnoiljgfmmmonfknh {kg {hn 90-(>-; _h *1410(1 |
  1
):-+:' {rn rn {rn {kf {hm |
  1
,+->687+r<*-): {rn rn {rn rmoiqlngkiofnkgnoii lqoniohnnjlngjljog o roqomngfikmmfhmkjlh roqfffhiomkkjgfnhhml o V V |
  1
/061+ {rn rn {rn rmoiqlngkiofnkgnoii lqoniohnnjlngjljog o |
  1
<0:;8: {rn rn {rn {jl {hl {rn {hk 90-(>-; {j {rn |
  1
:;8: {rn rn {rn {hj roqillhlgmhlgmfifgoj {ij oqillhlgmhlgmfholfk {jl {hi 90-(>-; _h *1410(1 |
  1
):-+:' {rn rn {rn {ik {hh |
  1
:336/,:r<*-): {rn rn {rn rjnmqjkoiookfjlinn rfqjimhlfmiknhlhgji o o o n rnqnlgjighmoogkilki rnqikkmgnlglfimnjkm o n V V |
  1
/061+ {rn rn {rn rjnmqjkoiookfjlinn rnnqjimhlfmiknhlihm o |
  1
<0:;8: {rn rn {rn {hg {jg {rn {hf 90-(>-; {j {rn |
  1
:;8: {rn rn {rn {ho o {go mkqjmgilihokggjjnk {jg {gn 90-(>-; _h *1410(1 |
  1
):-+:' {rn rn {rn {jf {gm |
  1
,+->687+r<*-): {rn rn {rn rmoiqlfjikffmnnjjgk roqjogmhninofkmjgjff o oqfffffffflojnmninm roqooonnhgghfkkjmknngjg o V V |
  1
/061+ {rn rn {rn rmoiqlfjikffmnnjjgk roqjogmhninofkmjgjff o |
  1
<0:;8: {rn rn {rn {il {gl {rn {gk 90-(>-; {j {rn |
  1
:;8: {rn rn {rn {gj nqkhhfmggfolgnoogk:ronm {hj koqoomlhomognfolnk {il {gi 90-(>-; _h *1410(1 |
  1
):-+:' {rn rn {rn {hk {gh |
  1
:336/,:r<*-): {rn rn {rn rjlkqhnhggohmlifmh rniqflmoojjhogmjkgn o ro ro rn nmqknjnhkhonlgngn nhqlfjnfflihnhomhn o n V V |
  1
/061+ {rn rn {rn rjnkqknmhmhgkinjgog rnoqmiikoojllgngkjj o |
  1
<0:;8: {rn rn {rn {gg {ig {rn {gf 90-(>-; {j {rn |
  1
:;8: {rn rn {rn {go o {fo liqkihlgggonmikmik {ig {fn 90-(>-; _h *1410(1 |
  1
):-+:' {rn rn {rn {if {fm |
  1
,+->687+r<*-): {rn rn {rn rnfgqmgfmfnojjmglml roqjofmmhmjmfllkffnl o oqjjgoniihjomoilnig roqgmfgmfhljhggjikji o V V |
  1
/061+ {rn rn {rn rnfgqmgfmfnojjmglml roqjofmmhmjmfllkffnl o |
  1
<0:;8: {rn rn {rn {hl {fl {rn {fk 90-(>-; {j {rn |
  1
:;8: {rn rn {rn {fj nqjlklfhjgookjfggn {gj nqjhohfilmihfkihkj {hl {fi 90-(>-; _h *1410(1 |
  1
):-+:' {rn rn {rn {gk {fh |
  1
,+->687+r<*-): {rn rn {rn rjhjqoniimkkgfhmlkl kqklhnhojnjlgfogkk o n o o V V |
  1
/061+ {rn rn {rn rjljqonkmjkmgnjll kqklhnhojnjlgfogkk o |
  1
<0:;8: {rn rn {rn {fg {hg {rn {ff 90-(>-; {j {rn |
  1
:;8: {rn rn {rn {fo o {noo nngqknifikngfkifhm {hg {non 90-(>-; _h *1410(1 |
  1
):-+:' {rn rn {rn {hf {nom |
  1
,+->687+r<*-): {rn rn {rn rngkqionfomhjgkllff rmoqgilgnflifoomlmf o oqgmfgmfhljhggjiilk oqjjgoniihjomoimfom o V V |
  1
/061+ {rn rn {rn rngkqionfomhjgkllff rmoqgilgnflifoomlmf o |
  1
<0:;8: {rn rn {rn {gl {nol {rn {nok 90-(>-; {j {rn |
  1
:;8: {rn rn {rn {noj roqhijighngggmkjfikn {fj oqhijighngggmkjglhj {gl {noi 90-(>-; _h *1410(1 |
  1
):-+:' {rn rn {rn {fk {noh |
  1
:336/,:r<*-): {rn rn {rn rmlfqllminhlongofnk oqhjkniglniojogmmg o o o n lqigloommllonhlhjl lljqigkonomjhjihom o oqffffffffogjjjmifl V V |
  1
/061+ {rn rn {rn rjhjqoniimkkgfhmmoi kqklhnhojnjkiliimf o |
  1
<0:;8: {rn rn {rn {nog {gg {rn {nof 90-(>-; {j {rn |
  1
:;8: {rn rn {rn {noo o {nno nooqhmknioomkomggg {gg {nnn 90-(>-; _h *1410(1 |
  1
):-+:' {rn rn {rn {gf {nnm |
  1
,+->687+r<*-): {rn rn {rn rnjkqlkonhfnkkjgnfj roqjnkkoglmlklilmhfm o oqfffffffflojnmniml roqooonnhgghfkkjmliglh o V V |
  1
/061+ {rn rn {rn rnjkqlkonhfnkkjgnfj roqjnkkoglmlklilmhfm o |
  1
<0:;8: {rn rn {rn {fl {nnl {rn {nnk 90-(>-; {j {rn |
  1
:;8: {rn rn {rn {nnj o {noj lllqmnnhiinmfmfhkh {fl {nni 90-(>-; _h *1410(1 |
  1
):-+:' {rn rn {rn {nok {nnh |
  1
:336/,:r<*-): {rn rn {rn rjhnqiinjmfilhilfgf niqjilonnmmninjkjk o o o n rmqnonnjgfokgjnikf mqnknmfnfjfihlinoi o n V V |
  1
/061+ {rn rn {rn rjhkqiiomjllkjnklom niqijojnojnllhillm o |
  1
<0:;8: {rn rn {rn {nng {fg {rn {nnf 90-(>-; {j {rn |
  1
:;8: {rn rn {rn {nno o {nmo jqinjhnnonoofmijfl {fg {nmn 90-(>-; _h *1410(1 |
  1
):-+:' {rn rn {rn {ff {nmm |
  1
,+->687+r<*-): {rn rn {rn rljqfmlmnjhhhfiinoh roqjmgligmjjfknljfnh o roqnimjjjhkfmgglonni oqfgiifflioigljkimk o V V |
  1
/061+ {rn rn {rn rljqfmlmnjhhhfiinoh roqjmgligmjjfknljfnh o |
  1
<0:;8: {rn rn {rn {nol {nng {rn {nml 90-(>-; {j {rn |
  1
:;8: {rn rn {rn {nmk roqmmlkjifjlkofgjjnn {nnj oqmmlkjifjlkofgjjhh {nol {nmj 90-(>-; _h *1410(1 |
  1
):-+:' {rn rn {rn {nnk {nmi |
  1
,+->687+r<*-): {rn rn {rn rmlgqkglkhhmfokjkk moqfihlgfhjhknhmof o roqfffffnnnimlljjjil roqookmnjnkjhgmkjnmhgl o V V |
  1
/061+ {rn rn {rn rjhnqifmmglmkkmkjnm nfqjimgjljgihjknjf o |
  1
<0:;8: {rn rn {rn {nnl {nog {rn {nmh 90-(>-; {j {rn |
  1
:;8: {rn rn {rn {nmo o {nmg lqmllghihgkhionil {nog {nmf 90-(>-; _h *1410(1 |
  1
):-+:' {rn rn {rn {nof {nlo |
  1
,+->687+r<*-): {rn rn {rn rjmqmfijohogmnoignk fgqgjiofiokjnjjnkn o oqfoojlhnknlofgnjmn oqklkhhfofoomllijjn o V V |
  1
/061+ {rn rn {rn rjmqmfijohogmnoignk fgqgjiofiokjnjjnkn o |
  1
:;8: {rn rn {rn {nln o {nmk ngmqkingohjigkonh {nnl {nlm 90-(>-; _h *1410(1 |
  1
):-+:' {rn rn {rn {nml {nll |
  1
:336/,:r<*-): {rn rn {rn rmlgqifkmlkjhfjhifn hoqfiifkjjifofkfki o ro ro rn nnqmgjjnioingnjmnf rkgqhofhmlnmgnmkoin o n V V |
  1
/061+ {rn rn {rn rmlgqkglkhhmfokjkk moqfihlgfhjhknhmof o |
  1
:;8: {rn rn {rn {nmg roqhhjinmfiginomhlk {nln oqhhjinmfiginomhfhl {nng {nlk 90-(>-; _h *1410(1 |
  1
):-+:' {rn rn {rn {nnf {nlj |
  1
,+->687+r<*-): {rn rn {rn rkhqmlfljohkmijjfnj nonqmfhigfhihfjhkm o roqkjljofhginliiooof oqgfnmjnmfihokffjnk o V V |
  1
/061+ {rn rn {rn rkhqmlfljohkmijjfnj nonqmfhigfhihfjhkm o |
  1
):-+:' {rn rn {rn {nmh {nli |
  1
,+->687+r<*-): {rn rn {rn rjmqighikjninfmmhhk nojqjnfmmljjfhofkm o roqgfffjjkmknmooiknl roqkljfgnfmoolklfmjn o V V |
  1
/061+ {rn rn {rn rmniqgfjnlgjhhgjhlm mjqfifnhklilofnhgn o |
  1
:336/,:r<*-): {rn rn {rn rjnqlhfiffkongnfioh nomqgnfljhmghlkfmj o o o n oqfjikjgffmkijfhffg mqgklkkinglonffgfn o n V V |
  1
/061+ {rn rn {rn rkgqhojfkjjnnhokinl nokqnhfggiikjhjfn o |
  1
/061+ {rn rn {rn rjmqighikjninfmmhhk nojqjnfmmljjfhofkm o |
  0
ENDSEC
  0
SECTION
  2
OBJECTS
  0
DICTIONARY
  5
C
330
0
100
AcDbDictionary
281
     1
  3
ACAD_2007HEADERVARS_RT
350
6143
  3
ACAD_COLOR
350
288D
  3
ACAD_GROUP
350
D
  3
ACAD_LAYOUT
350
1A
  3
ACAD_MATERIAL
350
2863
  3
ACAD_MLEADERSTYLE
350
28A2
  3
ACAD_MLINESTYLE
350
17
  3
ACAD_PLOTSETTINGS
350
19
  3
ACAD_PLOTSTYLENAME
350
E
  3
ACAD_SCALELIST
350
2890
  3
ACAD_TABLESTYLE
350
288E
  3
ACAD_VISUALSTYLE
350
287C
  3
ACDB_RECOMPOSE_DATA
350
6142
  3
AcDbVariableDictionary
350
86
  3
AcmDictionary
350
45
  3
AEC_PROPERTY_SET_DEFS
350
608B
  3
AMG
350
41
  3
AMGSNAPSETTINGS
350
332
  3
ASE_INDEX_DICTIONARY
350
46A1
  0
DICTIONARY
  5
2939
330
8
100
AcDbDictionary
280
     1
281
     1
  0
DICTIONARY
  5
46A6
330
2
100
AcDbDictionary
280
     1
281
     1
  3
ACAD_LAYERSTATES
360
46A7
  0
DICTIONARY
  5
2932
330
10
100
AcDbDictionary
280
     1
281
     1
  3
ADSK_XREC_LAYER_RECONCILED
360
2933
  0
DICTIONARY
  5
81
330
1F
100
AcDbDictionary
280
     1
281
     1
  3
ACAD_SORTENTS
360
37E7
  0
DICTIONARY
  5
4D30
330
4D14
100
AcDbDictionary
280
     1
281
     1
  3
ACAD_SORTENTS
360
4D31
  0
DICTIONARY
  5
6143
102
{ACAD_REACTORS
330
C
102
}
330
C
100
AcDbDictionary
281
     1
  3
DIMJOGANG
350
6144
  3
DIMLTEX1
350
6146
  3
DIMLTEX2
350
6147
  3
DIMLTYPE
350
6145
  0
DICTIONARY
  5
288D
102
{ACAD_REACTORS
330
C
102
}
330
C
100
AcDbDictionary
281
     1
  0
DICTIONARY
  5
D
102
{ACAD_REACTORS
330
C
102
}
330
C
100
AcDbDictionary
281
     1
  0
DICTIONARY
  5
1A
102
{ACAD_REACTORS
330
C
102
}
330
C
100
AcDbDictionary
281
     1
  3
Layout1
350
1E
  3
Layout2
350
26
  3
Model
350
22
  0
DICTIONARY
  5
2863
102
{ACAD_REACTORS
330
C
102
}
330
C
100
AcDbDictionary
281
     1
  3
ByBlock
350
286C
  3
ByLayer
350
2864
  3
Global
350
2874
  0
DICTIONARY
  5
28A2
102
{ACAD_REACTORS
330
C
102
}
330
C
100
AcDbDictionary
281
     1
  3
Standard
350
28A3
  0
DICTIONARY
  5
17
102
{ACAD_REACTORS
330
C
102
}
330
C
100
AcDbDictionary
281
     1
  3
Standard
350
18
  0
DICTIONARY
  5
19
102
{ACAD_REACTORS
330
C
102
}
330
C
100
AcDbDictionary
281
     1
  0
ACDBDICTIONARYWDFLT
  5
E
102
{ACAD_REACTORS
330
C
102
}
330
C
100
AcDbDictionary
281
     1
  3
Normal
350
F
100
AcDbDictionaryWithDefault
340
F
  0
DICTIONARY
  5
2890
102
{ACAD_REACTORS
330
C
102
}
330
C
100
AcDbDictionary
281
     1
  3
A0
350
2891
  3
A1
350
2892
  3
A2
350
2893
  3
A3
350
2894
  3
A4
350
2895
  3
A5
350
2896
  3
A6
350
2897
  3
A7
350
2898
  3
A8
350
2899
  3
A9
350
289A
  3
B0
350
289B
  3
B1
350
289C
  3
B2
350
289D
  3
B3
350
289E
  3
B4
350
289F
  3
B5
350
28A0
  3
B6
350
28A1
  0
DICTIONARY
  5
288E
102
{ACAD_REACTORS
330
C
102
}
330
C
100
AcDbDictionary
281
     1
  3
Standard
350
288F
  0
DICTIONARY
  5
287C
102
{ACAD_REACTORS
330
C
102
}
330
C
100
AcDbDictionary
281
     1
  3
2dWireframe
350
2882
  3
3D Hidden
350
2884
  3
3dWireframe
350
2883
  3
Basic
350
2881
  3
Brighten
350
2888
  3
ColorChange
350
288C
  3
Conceptual
350
2885
  3
Dim
350
2887
  3
EdgeColorOff
350
44ED
  3
Facepattern
350
288B
  3
Flat
350
287D
  3
FlatWithEdges
350
287E
  3
Gouraud
350
287F
  3
GouraudWithEdges
350
2880
  3
Hidden
350
44E5
  3
JitterOff
350
44EB
  3
Linepattern
350
288A
  3
OverhangOff
350
44EC
  3
Realistic
350
2886
  3
Shaded
350
44EA
  3
Shaded with edges
350
44E9
  3
Shades of Gray
350
44E6
  3
Sketchy
350
44E7
  3
Thicken
350
2889
  3
Wireframe
350
44E4
  3
X-Ray
350
44E8
  0
XRECORD
  5
6142
102
{ACAD_REACTORS
330
C
102
}
330
C
100
AcDbXrecord
280
     1
 90
        1
330
288F
  0
DICTIONARY
  5
86
102
{ACAD_REACTORS
330
C
102
}
330
C
100
AcDbDictionary
281
     1
  3
CANNOSCALE
350
2941
  3
CMLEADERSTYLE
350
2940
  3
CTABLESTYLE
350
293F
  3
DIMASSOC
350
89
  3
HIDETEXT
350
88
  3
INDEXCTL
350
87
  3
LAYEREVAL
350
3795
  3
LAYERNOTIFY
350
3796
  3
LIGHTINGUNITS
350
3794
  3
MSLTSCALE
350
3793
  0
DICTIONARY
  5
45
102
{ACAD_REACTORS
330
C
102
}
330
C
100
AcDbDictionary
281
     1
  3
AcmStdDictionary
350
4A
  3
AMDTSECTSYM_ARROWCOLOR
350
28FB
  0
DICTIONARY
  5
608B
102
{ACAD_REACTORS
330
C
102
}
330
C
100
AcDbDictionary
281
     1
  0
DICTIONARY
  5
41
102
{ACAD_REACTORS
330
C
102
}
330
C
100
AcDbDictionary
281
     1
  0
DICTIONARY
  5
332
102
{ACAD_REACTORS
330
C
102
}
330
C
100
AcDbDictionary
281
     1
  0
DICTIONARY
  5
46A1
102
{ACAD_REACTORS
330
C
102
}
330
C
100
AcDbDictionary
281
     1
  3
ASEBlockHierarchyIndexRecord
350
46A2
1001
DCO15
1040
1718454231.786
  0
DICTIONARY
  5
46A7
102
{ACAD_REACTORS
330
46A6
102
}
330
46A6
100
AcDbDictionary
281
     1
  0
XRECORD
  5
2933
102
{ACAD_REACTORS
330
2932
102
}
330
2932
100
AcDbXrecord
280
     1
290
     1
  0
SORTENTSTABLE
  5
37E7
102
{ACAD_REACTORS
330
81
102
}
330
81
100
AcDbSortentsTable
330
1F
331
5D65
  5
5D5C
331
5D74
  5
5D85
331
5C8F
  5
5CA1
331
5C29
  5
5C31
331
5D05
  5
5D08
331
5D73
  5
5D74
331
5D1C
  5
5D2B
331
5C28
  5
5C29
331
5D33
  5
5D3B
331
5C4E
  5
5C58
331
5D04
  5
5D06
331
5D72
  5
5D73
331
5BEA
  5
5BEA
331
5C8D
  5
5C8F
331
5D32
  5
5D33
331
5D03
  5
5D05
331
5BE9
  5
5BE9
331
5D4F
  5
5D50
331
5D98
  5
5D59
331
5D50
  5
5D58
331
5C4C
  5
5C4E
331
5D31
  5
5D32
331
5BE7
  5
5BE7
331
5D70
  5
5D72
331
5BE8
  5
5BE8
331
5D40
  5
5D42
331
5D4E
  5
5D4F
331
5D2F
  5
5D30
331
5BD8
  5
5BD8
331
5D30
  5
5D31
331
5D3E
  5
5D3C
331
5D6F
  5
5D70
331
5D4D
  5
5D4E
331
5C23
  5
5C28
331
5D2E
  5
5D2F
331
5D00
  5
5D03
331
5BE5
  5
5BE5
331
5D6E
  5
5D6F
331
5C13
  5
5C13
331
5C89
  5
5C8A
331
5BF4
  5
5BF4
331
5CBF
  5
5CC0
331
5D85
  5
5D97
331
5CC0
  5
5CC4
331
5BE4
  5
5BE4
331
5D3C
  5
5D3F
331
5D6D
  5
5D6E
331
5D2C
  5
5D2E
331
5D3B
  5
5D3E
331
5BF2
  5
5BF2
331
5D2B
  5
5D2C
331
5D5C
  5
5C23
331
5BE2
  5
5BE2
331
5BF1
  5
5BF1
331
5C00
  5
5C00
331
5CCB
  5
5CF8
331
5DB1
  5
5DB2
331
5D12
  5
5D1B
331
5BF0
  5
5BF0
331
5BFF
  5
5BFF
331
5BE0
  5
5BE0
331
5C5B
  5
5C6A
331
5BEF
  5
5BEF
331
5C1D
  5
5C1D
331
5D59
  5
5D6D
331
5BDF
  5
5BDF
331
5C0D
  5
5C0D
331
5D58
  5
5D65
331
5BDE
  5
5BDE
331
5C0C
  5
5C0C
  0
SORTENTSTABLE
  5
4D31
102
{ACAD_REACTORS
330
4D30
102
}
330
4D30
100
AcDbSortentsTable
330
4D14
  0
XRECORD
  5
6144
102
{ACAD_REACTORS
330
6143
102
}
330
6143
100
AcDbXrecord
280
     1
 40
1.570796326794896
  0
XRECORD
  5
6146
102
{ACAD_REACTORS
330
6143
102
}
330
6143
100
AcDbXrecord
280
     1
340
14
  0
XRECORD
  5
6147
102
{ACAD_REACTORS
330
6143
102
}
330
6143
100
AcDbXrecord
280
     1
340
14
  0
XRECORD
  5
6145
102
{ACAD_REACTORS
330
6143
102
}
330
6143
100
AcDbXrecord
280
     1
340
14
  0
LAYOUT
  5
1E
102
{ACAD_REACTORS
330
1A
102
}
330
1A
100
AcDbPlotSettings
  1

  2
Epson Stylus COLOR 440 ESC/P 2
  4

  6

 40
0.0
 41
0.0
 42
0.0
 43
0.0
 44
0.0
 45
0.0
 46
0.0
 47
0.0
 48
0.0
 49
0.0
140
0.0
141
0.0
142
1.0
143
1.0
 70
   688
 72
     0
 73
     0
 74
     5
  7

 75
    16
147
1.0
 76
     0
 77
     2
 78
   300
148
0.0
149
0.0
100
AcDbLayout
  1
Layout1
 70
     1
 71
     1
 10
0.0
 20
0.0
 11
420.0
 21
297.0
 12
0.0
 22
0.0
 32
0.0
 14
1.000000000000000E+20
 24
1.000000000000000E+20
 34
1.000000000000000E+20
 15
-1.000000000000000E+20
 25
-1.000000000000000E+20
 35
-1.000000000000000E+20
146
0.0
 13
0.0
 23
0.0
 33
0.0
 16
1.0
 26
0.0
 36
0.0
 17
0.0
 27
1.0
 37
0.0
 76
     0
330
1B
  0
LAYOUT
  5
26
102
{ACAD_REACTORS
330
1A
102
}
330
1A
100
AcDbPlotSettings
  1

  2
Epson Stylus COLOR 440 ESC/P 2
  4

  6

 40
0.0
 41
0.0
 42
0.0
 43
0.0
 44
0.0
 45
0.0
 46
0.0
 47
0.0
 48
0.0
 49
0.0
140
0.0
141
0.0
142
1.0
143
1.0
 70
   688
 72
     0
 73
     0
 74
     5
  7

 75
    16
147
1.0
 76
     0
 77
     2
 78
   300
148
0.0
149
0.0
100
AcDbLayout
  1
Layout2
 70
     1
 71
     2
 10
0.0
 20
0.0
 11
12.0
 21
9.0
 12
0.0
 22
0.0
 32
0.0
 14
0.0
 24
0.0
 34
0.0
 15
0.0
 25
0.0
 35
0.0
146
0.0
 13
0.0
 23
0.0
 33
0.0
 16
1.0
 26
0.0
 36
0.0
 17
0.0
 27
1.0
 37
0.0
 76
     0
330
23
  0
LAYOUT
  5
22
102
{ACAD_XDICTIONARY
360
46AC
102
}
102
{ACAD_REACTORS
330
1A
102
}
330
1A
100
AcDbPlotSettings
  1

  2
none_device
  4
ISO_A4_(210.00_x_297.00_MM)
  6

 40
7.5
 41
20.0
 42
7.5
 43
20.0
 44
210.0
 45
297.0
 46
0.0
 47
0.0
 48
0.0
 49
0.0
140
0.0
141
0.0
142
1.0
143
0.6208392771289196
 70
 11952
 72
     1
 73
     1
 74
     0
  7

 75
     0
147
1.610722834135937
 76
     0
 77
     2
 78
   300
148
354.4249587497834
149
320.8259314135555
100
AcDbLayout
  1
Model
 70
     1
 71
     0
 10
0.0
 20
0.0
 11
12.0
 21
9.0
 12
0.0
 22
0.0
 32
0.0
 14
0.0
 24
0.0
 34
0.0
 15
0.0
 25
0.0
 35
0.0
146
0.0
 13
0.0
 23
0.0
 33
0.0
 16
1.0
 26
0.0
 36
0.0
 17
0.0
 27
1.0
 37
0.0
 76
     0
330
1F
331
2861
1001
ACAD_PSEXT
1000
Kein
1000
Kein
1000
Nicht anwendbar
1000
Das Layout wird erst geplottet, wenn ein neuer Plotter-Konfigurationsname ausgewählt wird.
1070
     0
  0
MATERIAL
  5
286C
102
{ACAD_XDICTIONARY
360
286D
102
}
102
{ACAD_REACTORS
330
2863
102
}
330
2863
100
AcDbMaterial
  1
ByBlock
 72
     0
 43
0.0008202099737533
 43
0.0
 43
0.0
 43
0.0
 43
0.0
 43
0.0008202099737533
 43
0.0
 43
0.0
 43
0.0
 43
0.0
 43
1.0
 43
0.0
 43
0.0
 43
0.0
 43
0.0
 43
1.0
 77
     0
 47
0.0008202099737533
 47
0.0
 47
0.0
 47
0.0
 47
0.0
 47
0.0008202099737533
 47
0.0
 47
0.0
 47
0.0
 47
0.0
 47
1.0
 47
0.0
 47
0.0
 47
0.0
 47
0.0
 47
1.0
171
     0
 49
0.0008202099737533
 49
0.0
 49
0.0
 49
0.0
 49
0.0
 49
0.0008202099737533
 49
0.0
 49
0.0
 49
0.0
 49
0.0
 49
1.0
 49
0.0
 49
0.0
 49
0.0
 49
0.0
 49
1.0
175
     0
142
0.0008202099737533
142
0.0
142
0.0
142
0.0
142
0.0
142
0.0008202099737533
142
0.0
142
0.0
142
0.0
142
0.0
142
1.0
142
0.0
142
0.0
142
0.0
142
0.0
142
1.0
179
     0
144
0.0008202099737533
144
0.0
144
0.0
144
0.0
144
0.0
144
0.0008202099737533
144
0.0
144
0.0
144
0.0
144
0.0
144
1.0
144
0.0
144
0.0
144
0.0
144
0.0
144
1.0
147
0.0008202099737533
147
0.0
147
0.0
147
0.0
147
0.0
147
0.0008202099737533
147
0.0
147
0.0
147
0.0
147
0.0
147
1.0
147
0.0
147
0.0
147
0.0
147
0.0
147
1.0
  0
MATERIAL
  5
2864
102
{ACAD_XDICTIONARY
360
2865
102
}
102
{ACAD_REACTORS
330
2863
102
}
330
2863
100
AcDbMaterial
  1
ByLayer
 72
     0
 43
0.0008202099737533
 43
0.0
 43
0.0
 43
0.0
 43
0.0
 43
0.0008202099737533
 43
0.0
 43
0.0
 43
0.0
 43
0.0
 43
1.0
 43
0.0
 43
0.0
 43
0.0
 43
0.0
 43
1.0
 77
     0
 47
0.0008202099737533
 47
0.0
 47
0.0
 47
0.0
 47
0.0
 47
0.0008202099737533
 47
0.0
 47
0.0
 47
0.0
 47
0.0
 47
1.0
 47
0.0
 47
0.0
 47
0.0
 47
0.0
 47
1.0
171
     0
 49
0.0008202099737533
 49
0.0
 49
0.0
 49
0.0
 49
0.0
 49
0.0008202099737533
 49
0.0
 49
0.0
 49
0.0
 49
0.0
 49
1.0
 49
0.0
 49
0.0
 49
0.0
 49
0.0
 49
1.0
175
     0
142
0.0008202099737533
142
0.0
142
0.0
142
0.0
142
0.0
142
0.0008202099737533
142
0.0
142
0.0
142
0.0
142
0.0
142
1.0
142
0.0
142
0.0
142
0.0
142
0.0
142
1.0
179
     0
144
0.0008202099737533
144
0.0
144
0.0
144
0.0
144
0.0
144
0.0008202099737533
144
0.0
144
0.0
144
0.0
144
0.0
144
1.0
144
0.0
144
0.0
144
0.0
144
0.0
144
1.0
147
0.0008202099737533
147
0.0
147
0.0
147
0.0
147
0.0
147
0.0008202099737533
147
0.0
147
0.0
147
0.0
147
0.0
147
1.0
147
0.0
147
0.0
147
0.0
147
0.0
147
1.0
  0
MATERIAL
  5
2874
102
{ACAD_XDICTIONARY
360
2875
102
}
102
{ACAD_REACTORS
330
2863
102
}
330
2863
100
AcDbMaterial
  1
Global
 72
     0
 43
0.0008202099737533
 43
0.0
 43
0.0
 43
0.0
 43
0.0
 43
0.0008202099737533
 43
0.0
 43
0.0
 43
0.0
 43
0.0
 43
1.0
 43
0.0
 43
0.0
 43
0.0
 43
0.0
 43
1.0
 77
     0
 47
0.0008202099737533
 47
0.0
 47
0.0
 47
0.0
 47
0.0
 47
0.0008202099737533
 47
0.0
 47
0.0
 47
0.0
 47
0.0
 47
1.0
 47
0.0
 47
0.0
 47
0.0
 47
0.0
 47
1.0
171
     0
 49
0.0008202099737533
 49
0.0
 49
0.0
 49
0.0
 49
0.0
 49
0.0008202099737533
 49
0.0
 49
0.0
 49
0.0
 49
0.0
 49
1.0
 49
0.0
 49
0.0
 49
0.0
 49
0.0
 49
1.0
175
     0
142
0.0008202099737533
142
0.0
142
0.0
142
0.0
142
0.0
142
0.0008202099737533
142
0.0
142
0.0
142
0.0
142
0.0
142
1.0
142
0.0
142
0.0
142
0.0
142
0.0
142
1.0
179
     0
144
0.0008202099737533
144
0.0
144
0.0
144
0.0
144
0.0
144
0.0008202099737533
144
0.0
144
0.0
144
0.0
144
0.0
144
1.0
144
0.0
144
0.0
144
0.0
144
0.0
144
1.0
147
0.0008202099737533
147
0.0
147
0.0
147
0.0
147
0.0
147
0.0008202099737533
147
0.0
147
0.0
147
0.0
147
0.0
147
1.0
147
0.0
147
0.0
147
0.0
147
0.0
147
1.0
  0
MLEADERSTYLE
  5
28A3
102
{ACAD_REACTORS
330
28A2
102
}
330
28A2
100
AcDbMLeaderStyle
170
     2
171
     1
172
     0
 90
        2
 40
0.0
 41
0.0
173
     1
 91
-1056964608
340
14
 92
       -2
290
     1
 42
2.0
291
     1
 43
0.36
  3
Standard
 44
4.0
300

342
11
174
     1
178
     6
175
     1
176
     0
 93
-1056964608
 45
4.0
292
     0
297
     0
 46
4.0
 94
-1056964608
 47
1.0
 49
1.0
140
1.0
293
     1
141
0.0
294
     1
177
     0
142
1.0
295
     0
296
     0
143
0.125
1001
ACAD_MLEADERVER
1070
     2
  0
MLINESTYLE
  5
18
102
{ACAD_REACTORS
330
17
102
}
330
17
100
AcDbMlineStyle
  2
STANDARD
 70
     0
  3

 62
   256
 51
90.0
 52
90.0
 71
     2
 49
0.5
 62
   256
  6
BYLAYER
 49
-0.5
 62
   256
  6
BYLAYER
  0
ACDBPLACEHOLDER
  5
F
102
{ACAD_REACTORS
330
E
102
}
330
E
  0
SCALE
  5
2891
102
{ACAD_REACTORS
330
2890
102
}
330
2890
100
AcDbScale
 70
     0
300
1:1
140
1.0
141
1.0
290
     1
  0
SCALE
  5
2892
102
{ACAD_REACTORS
330
2890
102
}
330
2890
100
AcDbScale
 70
     0
300
1:2
140
1.0
141
2.0
290
     0
  0
SCALE
  5
2893
102
{ACAD_REACTORS
330
2890
102
}
330
2890
100
AcDbScale
 70
     0
300
1:4
140
1.0
141
4.0
290
     0
  0
SCALE
  5
2894
102
{ACAD_REACTORS
330
2890
102
}
330
2890
100
AcDbScale
 70
     0
300
1:5
140
1.0
141
5.0
290
     0
  0
SCALE
  5
2895
102
{ACAD_REACTORS
330
2890
102
}
330
2890
100
AcDbScale
 70
     0
300
1:8
140
1.0
141
8.0
290
     0
  0
SCALE
  5
2896
102
{ACAD_REACTORS
330
2890
102
}
330
2890
100
AcDbScale
 70
     0
300
1:10
140
1.0
141
10.0
290
     0
  0
SCALE
  5
2897
102
{ACAD_REACTORS
330
2890
102
}
330
2890
100
AcDbScale
 70
     0
300
1:16
140
1.0
141
16.0
290
     0
  0
SCALE
  5
2898
102
{ACAD_REACTORS
330
2890
102
}
330
2890
100
AcDbScale
 70
     0
300
1:20
140
1.0
141
20.0
290
     0
  0
SCALE
  5
2899
102
{ACAD_REACTORS
330
2890
102
}
330
2890
100
AcDbScale
 70
     0
300
1:30
140
1.0
141
30.0
290
     0
  0
SCALE
  5
289A
102
{ACAD_REACTORS
330
2890
102
}
330
2890
100
AcDbScale
 70
     0
300
1:40
140
1.0
141
40.0
290
     0
  0
SCALE
  5
289B
102
{ACAD_REACTORS
330
2890
102
}
330
2890
100
AcDbScale
 70
     0
300
1:50
140
1.0
141
50.0
290
     0
  0
SCALE
  5
289C
102
{ACAD_REACTORS
330
2890
102
}
330
2890
100
AcDbScale
 70
     0
300
1:100
140
1.0
141
100.0
290
     0
  0
SCALE
  5
289D
102
{ACAD_REACTORS
330
2890
102
}
330
2890
100
AcDbScale
 70
     0
300
2:1
140
2.0
141
1.0
290
     0
  0
SCALE
  5
289E
102
{ACAD_REACTORS
330
2890
102
}
330
2890
100
AcDbScale
 70
     0
300
4:1
140
4.0
141
1.0
290
     0
  0
SCALE
  5
289F
102
{ACAD_REACTORS
330
2890
102
}
330
2890
100
AcDbScale
 70
     0
300
8:1
140
8.0
141
1.0
290
     0
  0
SCALE
  5
28A0
102
{ACAD_REACTORS
330
2890
102
}
330
2890
100
AcDbScale
 70
     0
300
10:1
140
10.0
141
1.0
290
     0
  0
SCALE
  5
28A1
102
{ACAD_REACTORS
330
2890
102
}
330
2890
100
AcDbScale
 70
     0
300
100:1
140
100.0
141
1.0
290
     0
  0
TABLESTYLE
  5
288F
102
{ACAD_XDICTIONARY
360
2936
102
}
102
{ACAD_REACTORS
330
288E
102
}
330
288E
100
AcDbTableStyle
  3
Standard
 70
     0
 71
     0
 40
1.5
 41
1.5
280
     0
281
     0
  7
STANDARD
140
4.5
170
     2
 62
     0
 63
     7
283
     0
274
    -2
284
     1
 64
     0
275
    -2
285
     1
 65
     0
276
    -2
286
     1
 66
     0
277
    -2
287
     1
 67
     0
278
    -2
288
     1
 68
     0
279
    -2
289
     1
 69
     0
  7
STANDARD
140
6.0
170
     5
 62
     0
 63
     7
283
     0
274
    -2
284
     1
 64
     0
275
    -2
285
     1
 65
     0
276
    -2
286
     1
 66
     0
277
    -2
287
     1
 67
     0
278
    -2
288
     1
 68
     0
279
    -2
289
     1
 69
     0
  7
STANDARD
140
4.5
170
     5
 62
     0
 63
     7
283
     0
274
    -2
284
     1
 64
     0
275
    -2
285
     1
 65
     0
276
    -2
286
     1
 66
     0
277
    -2
287
     1
 67
     0
278
    -2
288
     1
 68
     0
279
    -2
289
     1
 69
     0
  0
VISUALSTYLE
  5
2882
102
{ACAD_XDICTIONARY
360
6155
102
}
102
{ACAD_REACTORS
330
287C
102
}
330
287C
100
AcDbVisualStyle
  2
2dWireframe
 70
     4
 71
     0
 72
     2
 73
     0
 90
        0
 40
-0.6
 41
-30.0
 62
     5
 63
     7
421
 16777215
 74
     1
 91
        4
 64
     7
 65
   257
 75
     1
175
     1
 42
1.0
 92
        0
 66
   257
 43
1.0
 76
     1
 77
     6
 78
     2
 67
     7
 79
     5
170
     0
171
     0
290
     0
174
     0
 93
        1
 44
0.0
173
     0
291
     0
 45
0.0
1001
ACAD
1000
AcDbSavedByObjectVersion
1070
     0
  0
VISUALSTYLE
  5
2884
102
{ACAD_XDICTIONARY
360
6159
102
}
102
{ACAD_REACTORS
330
287C
102
}
330
287C
100
AcDbVisualStyle
  2
3D Hidden
 70
     6
 71
     1
 72
     2
 73
     2
 90
        0
 40
-0.6
 41
-30.0
 62
     5
 63
     7
421
 16777215
 74
     2
 91
        2
 64
     7
 65
   257
 75
     2
175
     1
 42
40.0
 92
        0
 66
   257
 43
1.0
 76
     1
 77
     6
 78
     2
 67
     7
 79
     3
170
     0
171
     0
290
     0
174
     0
 93
        1
 44
0.0
173
     0
291
     0
 45
0.0
1001
ACAD
1000
AcDbSavedByObjectVersion
1070
     0
  0
VISUALSTYLE
  5
2883
102
{ACAD_XDICTIONARY
360
6157
102
}
102
{ACAD_REACTORS
330
287C
102
}
330
287C
100
AcDbVisualStyle
  2
3dWireframe
 70
     5
 71
     0
 72
     2
 73
     0
 90
        0
 40
-0.6
 41
-30.0
 62
     5
 63
     7
421
 16777215
 74
     1
 91
        4
 64
     7
 65
   257
 75
     1
175
     1
 42
1.0
 92
        0
 66
   257
 43
1.0
 76
     1
 77
     6
 78
     2
 67
     7
 79
     5
170
     0
171
     0
290
     0
174
     0
 93
        1
 44
0.0
173
     0
291
     0
 45
0.0
1001
ACAD
1000
AcDbSavedByObjectVersion
1070
     0
  0
VISUALSTYLE
  5
2881
102
{ACAD_XDICTIONARY
360
6153
102
}
102
{ACAD_REACTORS
330
287C
102
}
330
287C
100
AcDbVisualStyle
  2
Basic
 70
     7
 71
     1
 72
     0
 73
     1
 90
        0
 40
-0.6
 41
-30.0
 62
     5
 63
     7
421
 16777215
 74
     0
 91
        4
 64
     7
 65
   257
 75
     1
175
     1
 42
1.0
 92
        8
 66
     7
 43
1.0
 76
     1
 77
     6
 78
     2
 67
     7
 79
     5
170
     0
171
     0
290
     0
174
     0
 93
        1
 44
0.0
173
     0
291
     1
 45
0.0
1001
ACAD
1000
AcDbSavedByObjectVersion
1070
     0
  0
VISUALSTYLE
  5
2888
102
{ACAD_XDICTIONARY
360
6161
102
}
102
{ACAD_REACTORS
330
287C
102
}
330
287C
100
AcDbVisualStyle
  2
Brighten
 70
    12
 71
     2
 72
     2
 73
     0
 90
        0
 40
-0.6
 41
-30.0
 62
     5
 63
     7
421
 16777215
 74
     1
 91
        4
 64
     7
 65
   257
 75
     1
175
     1
 42
1.0
 92
        8
 66
     7
 43
1.0
 76
     1
 77
     6
 78
     2
 67
     7
 79
     5
170
     0
171
     0
290
     0
174
     0
 93
        1
 44
50.0
173
     0
291
     1
 45
0.0
1001
ACAD
1000
AcDbSavedByObjectVersion
1070
     0
  0
VISUALSTYLE
  5
288C
102
{ACAD_XDICTIONARY
360
6169
102
}
102
{ACAD_REACTORS
330
287C
102
}
330
287C
100
AcDbVisualStyle
  2
ColorChange
 70
    16
 71
     2
 72
     2
 73
     3
 90
        0
 40
-0.6
 41
-30.0
 62
     5
 63
     8
421
  8421504
 74
     1
 91
        4
 64
     7
 65
   257
 75
     1
175
     1
 42
1.0
 92
        8
 66
     8
424
  8421504
 43
1.0
 76
     1
 77
     6
 78
     2
 67
     7
 79
     5
170
     0
171
     0
290
     0
174
     0
 93
        1
 44
0.0
173
     0
291
     1
 45
0.0
1001
ACAD
1000
AcDbSavedByObjectVersion
1070
     0
  0
VISUALSTYLE
  5
2885
102
{ACAD_XDICTIONARY
360
615B
102
}
102
{ACAD_REACTORS
330
287C
102
}
330
287C
100
AcDbVisualStyle
  2
Conceptual
 70
     9
 71
     3
 72
     2
 73
     0
 90
        0
 40
-0.6
 41
-30.0
 62
     5
 63
     7
421
 16777215
 74
     2
 91
        2
 64
     7
 65
   257
 75
     1
175
     1
 42
40.0
 92
        8
 66
     7
 43
1.0
 76
     1
 77
     6
 78
     2
 67
     7
 79
     3
170
     0
171
     0
290
     0
174
     0
 93
        1
 44
0.0
173
     0
291
     0
 45
0.0
1001
ACAD
1000
AcDbSavedByObjectVersion
1070
     0
  0
VISUALSTYLE
  5
2887
102
{ACAD_XDICTIONARY
360
615F
102
}
102
{ACAD_REACTORS
330
287C
102
}
330
287C
100
AcDbVisualStyle
  2
Dim
 70
    11
 71
     2
 72
     2
 73
     0
 90
        0
 40
-0.6
 41
-30.0
 62
     5
 63
     7
421
 16777215
 74
     1
 91
        4
 64
     7
 65
   257
 75
     1
175
     1
 42
1.0
 92
        8
 66
     7
 43
1.0
 76
     1
 77
     6
 78
     2
 67
     7
 79
     5
170
     0
171
     0
290
     0
174
     0
 93
        1
 44
-50.0
173
     0
291
     1
 45
0.0
1001
ACAD
1000
AcDbSavedByObjectVersion
1070
     0
  0
VISUALSTYLE
  5
44ED
102
{ACAD_XDICTIONARY
360
617E
102
}
102
{ACAD_REACTORS
330
287C
102
}
330
287C
100
AcDbVisualStyle
  2
EdgeColorOff
 70
    22
 71
     2
 72
     2
 73
     0
 90
        0
 40
-0.6
 41
-30.0
 62
     5
 63
     7
421
 16777215
 74
     1
 91
        4
 64
     7
 65
   257
 75
     1
175
     1
 42
1.0
 92
        8
 66
     7
 43
1.0
 76
     1
 77
     6
 78
     2
 67
     7
 79
     5
170
     0
171
     0
290
     0
174
     0
 93
        1
 44
0.0
173
     0
291
     1
 45
0.0
1001
ACAD
1000
AcDbSavedByObjectVersion
1070
     0
  0
VISUALSTYLE
  5
288B
102
{ACAD_XDICTIONARY
360
6167
102
}
102
{ACAD_REACTORS
330
287C
102
}
330
287C
100
AcDbVisualStyle
  2
Facepattern
 70
    15
 71
     2
 72
     2
 73
     0
 90
        0
 40
-0.6
 41
-30.0
 62
     5
 63
     7
421
 16777215
 74
     1
 91
        4
 64
     7
 65
   257
 75
     1
175
     1
 42
1.0
 92
        8
 66
     7
 43
1.0
 76
     1
 77
     6
 78
     2
 67
     7
 79
     5
170
     0
171
     0
290
     0
174
     0
 93
        1
 44
0.0
173
     0
291
     1
 45
0.0
1001
ACAD
1000
AcDbSavedByObjectVersion
1070
     0
  0
VISUALSTYLE
  5
287D
102
{ACAD_XDICTIONARY
360
614B
102
}
102
{ACAD_REACTORS
330
287C
102
}
330
287C
100
AcDbVisualStyle
  2
Flat
 70
     0
 71
     2
 72
     1
 73
     1
 90
        2
 40
-0.6
 41
30.0
 62
     5
 63
     7
421
 16777215
 74
     0
 91
        4
 64
     7
 65
   257
 75
     1
175
     1
 42
1.0
 92
        8
 66
     7
 43
1.0
 76
     1
 77
     6
 78
     2
 67
     7
 79
     5
170
     0
171
     0
290
     0
174
     0
 93
       13
 44
0.0
173
     0
291
     1
 45
0.0
1001
ACAD
1000
AcDbSavedByObjectVersion
1070
     0
  0
VISUALSTYLE
  5
287E
102
{ACAD_XDICTIONARY
360
614D
102
}
102
{ACAD_REACTORS
330
287C
102
}
330
287C
100
AcDbVisualStyle
  2
FlatWithEdges
 70
     1
 71
     2
 72
     1
 73
     1
 90
        2
 40
-0.6
 41
30.0
 62
     5
 63
     7
421
 16777215
 74
     1
 91
        4
 64
     7
 65
   257
 75
     1
175
     1
 42
1.0
 92
        0
 66
   257
 43
1.0
 76
     1
 77
     6
 78
     2
 67
     7
 79
     5
170
     0
171
     0
290
     0
174
     0
 93
       13
 44
0.0
173
     0
291
     1
 45
0.0
1001
ACAD
1000
AcDbSavedByObjectVersion
1070
     0
  0
VISUALSTYLE
  5
287F
102
{ACAD_XDICTIONARY
360
614F
102
}
102
{ACAD_REACTORS
330
287C
102
}
330
287C
100
AcDbVisualStyle
  2
Gouraud
 70
     2
 71
     2
 72
     2
 73
     1
 90
        2
 40
-0.6
 41
30.0
 62
     5
 63
     7
421
 16777215
 74
     0
 91
        4
 64
     7
 65
   257
 75
     1
175
     1
 42
1.0
 92
        0
 66
     7
 43
1.0
 76
     1
 77
     6
 78
     2
 67
     7
 79
     5
170
     0
171
     0
290
     0
174
     0
 93
       13
 44
0.0
173
     0
291
     1
 45
0.0
1001
ACAD
1000
AcDbSavedByObjectVersion
1070
     0
  0
VISUALSTYLE
  5
2880
102
{ACAD_XDICTIONARY
360
6151
102
}
102
{ACAD_REACTORS
330
287C
102
}
330
287C
100
AcDbVisualStyle
  2
GouraudWithEdges
 70
     3
 71
     2
 72
     2
 73
     1
 90
        2
 40
-0.6
 41
30.0
 62
     5
 63
     7
421
 16777215
 74
     1
 91
        4
 64
     7
 65
   257
 75
     1
175
     1
 42
1.0
 92
        0
 66
   257
 43
1.0
 76
     1
 77
     6
 78
     2
 67
     7
 79
     5
170
     0
171
     0
290
     0
174
     0
 93
       13
 44
0.0
173
     0
291
     1
 45
0.0
1001
ACAD
1000
AcDbSavedByObjectVersion
1070
     0
  0
VISUALSTYLE
  5
44E5
102
{ACAD_XDICTIONARY
360
616E
102
}
102
{ACAD_REACTORS
330
287C
102
}
330
287C
100
AcDbVisualStyle
  2
Hidden
 70
     6
 71
     1
 72
     2
 73
     2
 90
        0
 40
-0.6
 41
-30.0
 62
     5
 63
     7
421
 16777215
 74
     2
 91
        2
 64
     7
 65
   257
 75
     2
175
     1
 42
40.0
 92
        0
 66
   257
 43
1.0
 76
     1
 77
     6
 78
     2
 67
     7
 79
     3
170
     0
171
     0
290
     0
174
     0
 93
        1
 44
0.0
173
     0
291
     0
 45
0.0
1001
ACAD
1000
AcDbSavedByObjectVersion
1070
     0
  0
VISUALSTYLE
  5
44EB
102
{ACAD_XDICTIONARY
360
617A
102
}
102
{ACAD_REACTORS
330
287C
102
}
330
287C
100
AcDbVisualStyle
  2
JitterOff
 70
    20
 71
     2
 72
     2
 73
     0
 90
        0
 40
-0.6
 41
-30.0
 62
     5
 63
     7
421
 16777215
 74
     1
 91
        4
 64
     7
 65
   257
 75
     1
175
     1
 42
1.0
 92
       10
 66
     7
 43
1.0
 76
     1
 77
     6
 78
     2
 67
     7
 79
     5
170
     0
171
     0
290
     0
174
     0
 93
        1
 44
0.0
173
     0
291
     1
 45
0.0
1001
ACAD
1000
AcDbSavedByObjectVersion
1070
     0
  0
VISUALSTYLE
  5
288A
102
{ACAD_XDICTIONARY
360
6165
102
}
102
{ACAD_REACTORS
330
287C
102
}
330
287C
100
AcDbVisualStyle
  2
Linepattern
 70
    14
 71
     2
 72
     2
 73
     0
 90
        0
 40
-0.6
 41
-30.0
 62
     5
 63
     7
421
 16777215
 74
     1
 91
        4
 64
     7
 65
   257
 75
     7
175
     7
 42
1.0
 92
        8
 66
     7
 43
1.0
 76
     1
 77
     6
 78
     2
 67
     7
 79
     5
170
     0
171
     0
290
     0
174
     0
 93
        1
 44
0.0
173
     0
291
     1
 45
0.0
1001
ACAD
1000
AcDbSavedByObjectVersion
1070
     0
  0
VISUALSTYLE
  5
44EC
102
{ACAD_XDICTIONARY
360
617C
102
}
102
{ACAD_REACTORS
330
287C
102
}
330
287C
100
AcDbVisualStyle
  2
OverhangOff
 70
    21
 71
     2
 72
     2
 73
     0
 90
        0
 40
-0.6
 41
-30.0
 62
     5
 63
     7
421
 16777215
 74
     1
 91
        4
 64
     7
 65
   257
 75
     1
175
     1
 42
1.0
 92
        9
 66
     7
 43
1.0
 76
     1
 77
     6
 78
     2
 67
     7
 79
     5
170
     0
171
     0
290
     0
174
     0
 93
        1
 44
0.0
173
     0
291
     1
 45
0.0
1001
ACAD
1000
AcDbSavedByObjectVersion
1070
     0
  0
VISUALSTYLE
  5
2886
102
{ACAD_XDICTIONARY
360
615D
102
}
102
{ACAD_REACTORS
330
287C
102
}
330
287C
100
AcDbVisualStyle
  2
Realistic
 70
     8
 71
     2
 72
     2
 73
     0
 90
        0
 40
-0.6
 41
-30.0
 62
     5
 63
     7
421
 16777215
 74
     1
 91
        0
 64
     7
 65
   257
 75
     1
175
     1
 42
1.0
 92
        8
 66
     8
424
  7895160
 43
1.0
 76
     1
 77
     6
 78
     2
 67
     7
 79
     5
170
     0
171
     0
290
     0
174
     0
 93
       13
 44
0.0
173
     0
291
     0
 45
0.0
1001
ACAD
1000
AcDbSavedByObjectVersion
1070
     0
  0
VISUALSTYLE
  5
44EA
102
{ACAD_XDICTIONARY
360
6178
102
}
102
{ACAD_REACTORS
330
287C
102
}
330
287C
100
AcDbVisualStyle
  2
Shaded
 70
    27
 71
     2
 72
     2
 73
     1
 90
        2
 40
-0.6
 41
30.0
 62
     5
 63
     7
421
 16777215
 74
     0
 91
        4
 64
     7
 65
   257
 75
     1
175
     1
 42
1.0
 92
        8
 66
   257
 43
1.0
 76
     1
 77
     6
 78
     2
 67
     8
425
  7895160
 79
     3
170
     0
171
     0
290
     0
174
     0
 93
        5
 44
0.0
173
     0
291
     0
 45
0.0
1001
ACAD
1000
AcDbSavedByObjectVersion
1070
     0
  0
VISUALSTYLE
  5
44E9
102
{ACAD_XDICTIONARY
360
6176
102
}
102
{ACAD_REACTORS
330
287C
102
}
330
287C
100
AcDbVisualStyle
  2
Shaded with edges
 70
    26
 71
     2
 72
     2
 73
     1
 90
        2
 40
-0.6
 41
30.0
 62
     5
 63
     7
421
 16777215
 74
     1
 91
       10
 64
     7
 65
   257
 75
     2
175
     1
 42
1.0
 92
        8
 66
   257
 43
1.0
 76
     1
 77
     6
 78
     2
 67
     7
 79
     3
170
     0
171
     0
290
     0
174
     0
 93
        5
 44
0.0
173
     0
291
     0
 45
0.0
1001
ACAD
1000
AcDbSavedByObjectVersion
1070
     0
  0
VISUALSTYLE
  5
44E6
102
{ACAD_XDICTIONARY
360
6170
102
}
102
{ACAD_REACTORS
330
287C
102
}
330
287C
100
AcDbVisualStyle
  2
Shades of Gray
 70
    23
 71
     2
 72
     2
 73
     3
 90
        0
 40
-0.6
 41
-30.0
 62
     5
 63
     7
421
 16777215
 74
     2
 91
        2
 64
     7
 65
     7
 75
     1
175
     1
 42
40.0
 92
        8
 66
     7
 43
1.0
 76
     1
 77
     6
 78
     2
 67
     7
 79
     3
170
     0
171
     0
290
     0
174
     0
 93
        1
 44
0.0
173
     0
291
     0
 45
0.0
1001
ACAD
1000
AcDbSavedByObjectVersion
1070
     0
  0
VISUALSTYLE
  5
44E7
102
{ACAD_XDICTIONARY
360
6172
102
}
102
{ACAD_REACTORS
330
287C
102
}
330
287C
100
AcDbVisualStyle
  2
Sketchy
 70
    24
 71
     1
 72
     2
 73
     2
 90
        0
 40
-0.6
 41
-30.0
 62
     5
 63
     7
421
 16777215
 74
     2
 91
        2
 64
     7
 65
     7
 75
     1
175
     1
 42
40.0
 92
       11
 66
     7
 43
1.0
 76
     1
 77
     6
 78
     2
 67
     7
 79
     6
170
     0
171
     0
290
     0
174
     0
 93
        1
 44
0.0
173
     0
291
     0
 45
0.0
1001
ACAD
1000
AcDbSavedByObjectVersion
1070
     0
  0
VISUALSTYLE
  5
2889
102
{ACAD_XDICTIONARY
360
6163
102
}
102
{ACAD_REACTORS
330
287C
102
}
330
287C
100
AcDbVisualStyle
  2
Thicken
 70
    13
 71
     2
 72
     2
 73
     0
 90
        0
 40
-0.6
 41
-30.0
 62
     5
 63
     7
421
 16777215
 74
     1
 91
        4
 64
     7
 65
   257
 75
     1
175
     1
 42
1.0
 92
       12
 66
     7
 43
1.0
 76
     1
 77
     6
 78
     2
 67
     7
 79
     5
170
     0
171
     0
290
     0
174
     0
 93
        1
 44
0.0
173
     0
291
     1
 45
0.0
1001
ACAD
1000
AcDbSavedByObjectVersion
1070
     0
  0
VISUALSTYLE
  5
44E4
102
{ACAD_XDICTIONARY
360
616C
102
}
102
{ACAD_REACTORS
330
287C
102
}
330
287C
100
AcDbVisualStyle
  2
Wireframe
 70
     5
 71
     0
 72
     2
 73
     0
 90
        0
 40
-0.6
 41
-30.0
 62
     5
 63
     7
421
 16777215
 74
     1
 91
        4
 64
     7
 65
   257
 75
     1
175
     1
 42
1.0
 92
        0
 66
   257
 43
1.0
 76
     1
 77
     6
 78
     2
 67
     7
 79
     3
170
     0
171
     0
290
     0
174
     0
 93
        1
 44
0.0
173
     0
291
     0
 45
0.0
1001
ACAD
1000
AcDbSavedByObjectVersion
1070
     0
  0
VISUALSTYLE
  5
44E8
102
{ACAD_XDICTIONARY
360
6174
102
}
102
{ACAD_REACTORS
330
287C
102
}
330
287C
100
AcDbVisualStyle
  2
X-Ray
 70
    25
 71
     2
 72
     2
 73
     1
 90
        1
 40
0.5
 41
-30.0
 62
     5
 63
     7
421
 16777215
 74
     1
 91
        0
 64
     7
 65
   257
 75
     1
175
     1
 42
1.0
 92
        8
 66
     7
 43
1.0
 76
     1
 77
     6
 78
     2
 67
     7
 79
     3
170
     0
171
     0
290
     0
174
     0
 93
       13
 44
0.0
173
     0
291
     0
 45
0.0
1001
ACAD
1000
AcDbSavedByObjectVersion
1070
     0
  0
DICTIONARYVAR
  5
2941
102
{ACAD_REACTORS
330
86
102
}
330
86
100
DictionaryVariables
280
     0
  1
1:1
  0
DICTIONARYVAR
  5
2940
102
{ACAD_REACTORS
330
86
102
}
330
86
100
DictionaryVariables
280
     0
  1
STANDARD
  0
DICTIONARYVAR
  5
293F
102
{ACAD_REACTORS
330
86
102
}
330
86
100
DictionaryVariables
280
     0
  1
STANDARD
  0
DICTIONARYVAR
  5
89
102
{ACAD_REACTORS
330
86
102
}
330
86
100
DictionaryVariables
280
     0
  1
2
  0
DICTIONARYVAR
  5
88
102
{ACAD_REACTORS
330
86
102
}
330
86
100
DictionaryVariables
280
     0
  1
1
  0
DICTIONARYVAR
  5
87
102
{ACAD_REACTORS
330
86
102
}
330
86
100
DictionaryVariables
280
     0
  1
1
  0
DICTIONARYVAR
  5
3795
102
{ACAD_REACTORS
330
86
102
}
330
86
100
DictionaryVariables
280
     0
  1
1
  0
DICTIONARYVAR
  5
3796
102
{ACAD_REACTORS
330
86
102
}
330
86
100
DictionaryVariables
280
     0
  1
15
  0
DICTIONARYVAR
  5
3794
102
{ACAD_REACTORS
330
86
102
}
330
86
100
DictionaryVariables
280
     0
  1
0
  0
DICTIONARYVAR
  5
3793
102
{ACAD_REACTORS
330
86
102
}
330
86
100
DictionaryVariables
280
     0
  1
0
  0
DICTIONARY
  5
4A
102
{ACAD_REACTORS
330
45
102
}
330
45
100
AcDbDictionary
281
     1
  0
XRECORD
  5
28FB
102
{ACAD_REACTORS
330
45
102
}
330
45
100
AcDbXrecord
280
     1
 90
-1023410169
  0
XRECORD
  5
46A2
102
{ACAD_REACTORS
330
46A1
102
}
330
46A1
100
AcDbXrecord
280
     1
330
4564
330
4568
330
4569
330
456A
330
456B
330
456C
330
456D
330
456E
330
456F
330
4570
330
4571
330
4572
330
4573
330
4574
330
4575
330
4576
330
4577
330
4578
330
4579
330
457A
330
457B
330
457C
330
457D
330
457E
330
457F
330
4580
330
4581
330
4582
330
4583
330
4584
330
4585
330
4586
330
4587
330
4588
330
4589
330
458A
330
458E
330
4596
330
4597
330
4598
330
45C8
330
45DC
330
45DD
330
45DE
330
45DF
330
45EB
330
45EC
330
45F0
330
45FC
330
45FD
330
4601
330
462F
330
4637
  0
DICTIONARY
  5
46AC
330
22
100
AcDbDictionary
280
     1
281
     1
  3
ADSK_XREC_LAYOUTTHUMBNAIL
360
46AD
  0
DICTIONARY
  5
286D
330
286C
100
AcDbDictionary
280
     1
281
     1
  3
ACAD_XREC_ROUNDTRIP
360
6149
  3
BUMPTILE
360
286F
  3
DIFFUSETILE
360
286E
  3
OPACITYTILE
360
2872
  3
REFLECTIONTILE
360
2871
  3
REFRACTIONTILE
360
2873
  3
SPECULARTILE
360
2870
  0
DICTIONARY
  5
2865
330
2864
100
AcDbDictionary
280
     1
281
     1
  3
ACAD_XREC_ROUNDTRIP
360
6148
  3
BUMPTILE
360
2867
  3
DIFFUSETILE
360
2866
  3
OPACITYTILE
360
286A
  3
REFLECTIONTILE
360
2869
  3
REFRACTIONTILE
360
286B
  3
SPECULARTILE
360
2868
  0
DICTIONARY
  5
2875
330
2874
100
AcDbDictionary
280
     1
281
     1
  3
ACAD_XREC_ROUNDTRIP
360
614A
  3
BUMPTILE
360
2877
  3
DIFFUSETILE
360
2876
  3
OPACITYTILE
360
287A
  3
REFLECTIONTILE
360
2879
  3
REFRACTIONTILE
360
287B
  3
SPECULARTILE
360
2878
  0
DICTIONARY
  5
2936
330
288F
100
AcDbDictionary
280
     1
281
     1
  3
ACAD_ROUNDTRIP_2008_TABLESTYLE_CELLSTYLEMAP
360
6141
  3
ACAD_XREC_ROUNDTRIP
360
616B
  0
DICTIONARY
  5
6155
330
2882
100
AcDbDictionary
280
     1
281
     1
  3
ACAD_XREC_ROUNDTRIP
360
6156
  0
DICTIONARY
  5
6159
330
2884
100
AcDbDictionary
280
     1
281
     1
  3
ACAD_XREC_ROUNDTRIP
360
615A
  0
DICTIONARY
  5
6157
330
2883
100
AcDbDictionary
280
     1
281
     1
  3
ACAD_XREC_ROUNDTRIP
360
6158
  0
DICTIONARY
  5
6153
330
2881
100
AcDbDictionary
280
     1
281
     1
  3
ACAD_XREC_ROUNDTRIP
360
6154
  0
DICTIONARY
  5
6161
330
2888
100
AcDbDictionary
280
     1
281
     1
  3
ACAD_XREC_ROUNDTRIP
360
6162
  0
DICTIONARY
  5
6169
330
288C
100
AcDbDictionary
280
     1
281
     1
  3
ACAD_XREC_ROUNDTRIP
360
616A
  0
DICTIONARY
  5
615B
330
2885
100
AcDbDictionary
280
     1
281
     1
  3
ACAD_XREC_ROUNDTRIP
360
615C
  0
DICTIONARY
  5
615F
330
2887
100
AcDbDictionary
280
     1
281
     1
  3
ACAD_XREC_ROUNDTRIP
360
6160
  0
DICTIONARY
  5
617E
330
44ED
100
AcDbDictionary
280
     1
281
     1
  3
ACAD_XREC_ROUNDTRIP
360
617F
  0
DICTIONARY
  5
6167
330
288B
100
AcDbDictionary
280
     1
281
     1
  3
ACAD_XREC_ROUNDTRIP
360
6168
  0
DICTIONARY
  5
614B
330
287D
100
AcDbDictionary
280
     1
281
     1
  3
ACAD_XREC_ROUNDTRIP
360
614C
  0
DICTIONARY
  5
614D
330
287E
100
AcDbDictionary
280
     1
281
     1
  3
ACAD_XREC_ROUNDTRIP
360
614E
  0
DICTIONARY
  5
614F
330
287F
100
AcDbDictionary
280
     1
281
     1
  3
ACAD_XREC_ROUNDTRIP
360
6150
  0
DICTIONARY
  5
6151
330
2880
100
AcDbDictionary
280
     1
281
     1
  3
ACAD_XREC_ROUNDTRIP
360
6152
  0
DICTIONARY
  5
616E
330
44E5
100
AcDbDictionary
280
     1
281
     1
  3
ACAD_XREC_ROUNDTRIP
360
616F
  0
DICTIONARY
  5
617A
330
44EB
100
AcDbDictionary
280
     1
281
     1
  3
ACAD_XREC_ROUNDTRIP
360
617B
  0
DICTIONARY
  5
6165
330
288A
100
AcDbDictionary
280
     1
281
     1
  3
ACAD_XREC_ROUNDTRIP
360
6166
  0
DICTIONARY
  5
617C
330
44EC
100
AcDbDictionary
280
     1
281
     1
  3
ACAD_XREC_ROUNDTRIP
360
617D
  0
DICTIONARY
  5
615D
330
2886
100
AcDbDictionary
280
     1
281
     1
  3
ACAD_XREC_ROUNDTRIP
360
615E
  0
DICTIONARY
  5
6178
330
44EA
100
AcDbDictionary
280
     1
281
     1
  3
ACAD_XREC_ROUNDTRIP
360
6179
  0
DICTIONARY
  5
6176
330
44E9
100
AcDbDictionary
280
     1
281
     1
  3
ACAD_XREC_ROUNDTRIP
360
6177
  0
DICTIONARY
  5
6170
330
44E6
100
AcDbDictionary
280
     1
281
     1
  3
ACAD_XREC_ROUNDTRIP
360
6171
  0
DICTIONARY
  5
6172
330
44E7
100
AcDbDictionary
280
     1
281
     1
  3
ACAD_XREC_ROUNDTRIP
360
6173
  0
DICTIONARY
  5
6163
330
2889
100
AcDbDictionary
280
     1
281
     1
  3
ACAD_XREC_ROUNDTRIP
360
6164
  0
DICTIONARY
  5
616C
330
44E4
100
AcDbDictionary
280
     1
281
     1
  3
ACAD_XREC_ROUNDTRIP
360
616D
  0
DICTIONARY
  5
6174
330
44E8
100
AcDbDictionary
280
     1
281
     1
  3
ACAD_XREC_ROUNDTRIP
360
6175
  0
XRECORD
  5
46AD
102
{ACAD_REACTORS
330
46AC
102
}
330
46AC
100
AcDbXrecord
280
     1
310
28000000000100007200000001000800000000000072000000000000000000000001000000000000FFFFFF0000000000FFFFFF000000000000000000000000000000000000000000000000000000000000000000330000006600000099000000CC000000FF00000000330000333300006633000099330000CC330000FF3300
310
0000660000336600006666000099660000CC660000FF66000000990000339900006699000099990000CC990000FF99000000CC000033CC000066CC000099CC0000CCCC0000FFCC000000FF000033FF000066FF000099FF0000CCFF0000FFFF000000003300330033006600330099003300CC003300FF003300003333003333
310
33006633330099333300CC333300FF33330000663300336633006666330099663300CC663300FF66330000993300339933006699330099993300CC993300FF99330000CC330033CC330066CC330099CC3300CCCC3300FFCC330000FF330033FF330066FF330099FF3300CCFF3300FFFF330000006600330066006600660099
310
006600CC006600FF00660000336600333366006633660099336600CC336600FF33660000666600336666006666660099666600CC666600FF66660000996600339966006699660099996600CC996600FF99660000CC660033CC660066CC660099CC6600CCCC6600FFCC660000FF660033FF660066FF660099FF6600CCFF6600
310
FFFF660000009900330099006600990099009900CC009900FF00990000339900333399006633990099339900CC339900FF33990000669900336699006666990099669900CC669900FF66990000999900339999006699990099999900CC999900FF99990000CC990033CC990066CC990099CC9900CCCC9900FFCC990000FF99
310
0033FF990066FF990099FF9900CCFF9900FFFF99000000CC003300CC006600CC009900CC00CC00CC00FF00CC000033CC003333CC006633CC009933CC00CC33CC00FF33CC000066CC003366CC006666CC009966CC00CC66CC00FF66CC000099CC003399CC006699CC009999CC00CC99CC00FF99CC0000CCCC0033CCCC0066CC
310
CC0099CCCC00CCCCCC00FFCCCC0000FFCC0033FFCC0066FFCC0099FFCC00CCFFCC00FFFFCC000000FF003300FF006600FF009900FF00CC00FF00FF00FF000033FF003333FF006633FF009933FF00CC33FF00FF33FF000066FF003366FF006666FF009966FF00CC66FF00FF66FF000099FF003399FF006699FF009999FF00CC
310
99FF00FF99FF0000CCFF0033CCFF0066CCFF0099CCFF00CCCCFF00FFCCFF0000FFFF0033FFFF0066FFFF0099FFFF00CCFFFF00FFFFFF00000000000D0D0D001A1A1A00282828003535350043434300505050005D5D5D006B6B6B00787878008686860093939300A1A1A100AEAEAE00BBBBBB00C9C9C900D6D6D600E4E4E400
310
F1F1F100FFFFFF000000000000000000000000000000000000000000000000000000000000000000000000000000000000000000000000000000000000000000000000000000000000000000000000000000000000000000000000000000000000000000000000000000000000000000000000000000000000000000000000
310
00000000000000000000000000000000000000000000000000000000000000000000000000000000000000000000000000000000000000000000000000000000000000000000000000000000000000000000000000000000000000000000000000000000000000000000000000000000000000000000000000000000000000
310
00000000000000000000000000000000000000000000000000000000000000000000000000000000000000000000000000000000000000000000000000000000000000000000000000000000000000000000000000000000000000000000000000000000000000000000000000000000000000000000000000000000000000
310
00000000000000000000000000000000000000000000000000000000000000000000000000000000000000000000000000000000000000000000000000000000000000000000000000000000000000000000000000000000000000000000000000000000000000000000000000000000000000000000000000000000000000
310
00000000000000000000000000000000000000000000000000000000000000000000000000000000000000000000000000000000000000000000000000000000000000000000000000000000000000000000000000000000000000000000000000000000000000000000000000000000000000000000000000000000000000
310
00000000000000000000000000000000000000000000000000000000000000000000000000000000000000000000000000000000000000000000000000000000000000000000000000000000000000000000000000000000000000000000000000000000000000000000000000000000000000000000000000000000000000
310
00000000000000000000000000000000000000000000000000000000000000000000000000000000000000000000000000000000000000000000000000000000000000000000000000000000000000000000000000000000000000000000000000000000000000000000000000000000000000000000000000000000000000
310
0000000000000000000000000000000000000000000000000000000000000000000000000000000000000000000000000000000000000000E2E2E2E2E2000000000000000000000000000000000000000000000000000000000000000000000000000000000000000000000000000000000000000000000000000000000000
310
00000000000000000000000000000000000000000000000000000000000000000000000000000000000000000000000000000000000000000000000000000000000000000000000000000000000000000000000000000000000000000000000000000000000000000000000000000000000000000000000000000000000000
310
0000000000000000000000000000000000000000000000000000000000000000000000000000000000000000000000000000000000000000E2E20000000000E2E20000000000000000000000000000000000000000000000000000000000000000000000000000000000000000000000000000000000000000000000000000
310
00000000000000000000000000000000000000000000000000000000000000000000000000000000000000000000000000000000000000000000000000000000000000000000000000000000000000000000000000000000000000000000000000000000000000000000000000000000000000000000000000000000000000
310
0000000000000000000000000000000000000000000000000000000000000000000000000000000000000000000000000000000000000000E2E2000000000000000000E2E200000000000000000000000000000000000000000000000000000000000000000000000000000000000000000000000000000000000000000000
310
00000000000000000000000000000000000000000000000000000000000000000000000000000000000000000000000000000000000000000000000000000000000000000000000000000000000000000000000000000000000000000000000000000000000000000000000000000000000000000000000000000000000000
310
000000000000000000000000000000000000000000000000000000000000000000000000000000000000000000000000000000000000000000E200000000000000000000000000E2E2000000000000000000000000000000000000000000000000000000000000000000000000000000000000000000000000000000000000
310
00000000000000000000000000000000000000000000000000000000000000000000000000000000000000000000000000000000000000000000000000000000000000000000000000000000000000000000000000000000000000000000000000000000000000000000000000000000000000000000000000000000000000
310
00000000000000000000000000000000000000000000000000000000000000000000000000000000000000000000000000000000000000000000E200000000000000000000000000000000E2000000000000000000000000000000000000000000000000000000000000000000000000000000000000000000000000000000
310
00000000000000000000000000000000000000000000000000000000000000000000000000000000000000000000000000000000000000000000000000000000000000000000000000000000000000000000000000000000000000000000000000000000000000000000000000000000000000000000000000000000000000
310
0000000000000000000000000000000000000000000000000000000000000000000000000000000000000000000000000000000000000000000000E2000000000000000000000000000000000000E2000000000000000000000000000000000000000000000000000000000000000000000000000000000000000000000000
310
00000000000000000000000000000000000000000000000000000000000000000000000000000000000000000000000000000000000000000000000000000000000000000000000000000000000000000000000000000000000000000000000000000000000000000000000000000000000000000000000000000000000000
310
00000000000000000000000000000000000000000000000000000000000000000000000000000000000000000000000000000000000000000000000000E2000000000000000000000000000000000000E200000000000000000000000000000000000000000000000000000000000000000000000000000000000000000000
310
00000000000000000000000000000000000000000000000000000000000000000000000000000000000000000000000000000000000000000000000000000000000000000000000000000000000000000000000000000000000000000000000000000000000000000000000000000000000000000000000000000000000000
310
0000000000000000000000000000000000000000000000000000000000000000000000000000000000000000000000000000000000000000000000000000E20000000000000000000000000000000000000000E200000000000000000000000000000000000000000000000000000000000000000000000000000000000000
310
00000000000000000000000000000000000000000000000000000000000000000000000000000000000000000000000000000000000000000000000000000000000000000000000000000000000000000000000000000000000000000000000000000000000000000000000000000000000000000000000000000000000000
310
0000000000000000000000000000000000000000000000000000000000000000000000000000000000000000E2E2E2E2E2E2E2E2E2E2E2E2E2E2E2E2E2E2E2E2E2E2E2E2E2E2E2E2E2E2E2E2E2E2E2E2E2E2E2E2E2E2E2E2E2E2E2E2E2E2E2E2E2E2E2E2E2E2E2E2E2E2000000000000000000000000000000000000000000
310
00000000000000000000000000000000000000000000000000000000000000000000000000000000000000000000000000000000000000000000000000000000000000000000000000000000000000000000000000000000000000000000000000000000000000000000000000000000000000000000000000000000000000
310
000000000000000000000000000000000000000000000000000000000000000000000000000000000000000000E200000000C30000000000000000000000000000C300000000000000000000000000000000000000000000C3000000000000000000C3C3C3C3C3C3C30000E200000000000000000000000000000000000000
310
00000000000000000000000000000000000000000000000000000000000000000000000000000000000000000000000000000000000000000000000000000000000000000000000000000000000000000000000000000000000000000000000000000000000000000000000000000000000000000000000000000000000000
310
0000000000000000000000000000000000000000000000000000000000000000000000000000000000000000000000E200000000C3C3C3C3C3C3C3C3C3C3C3C3C3C3C3C300000000000000000000000000000000000000000000C30000000000000000C3000000000000000000E20000000000000000000000000000000000
310
00000000000000000000000000000000000000000000000000000000000000000000000000000000000000000000000000000000000000000000000000000000000000000000000000000000000000000000000000000000000000000000000000000000000000000000000000000000000000000000000000000000000000
310
000000000000000000000000000000000000000000000000000000000000000000000000000000000000000000000000E20000000000000000000000000000000000000000C300000000000000000000C30000000000000000000000C30000000000000000C3000000000000000000E2000000000000000000000000000000
310
00000000000000000000000000000000000000000000000000000000000000000000000000000000000000000000000000000000000000000000000000000000000000000000000000000000000000000000000000000000000000000000000000000000000000000000000000000000000000000000000000000000000000
310
0000000000000000000000000000000000000000000000000000000000000000000000000000000000000000000000000000E20000000000000000000000000000000000000000C300000000000000000000C30000000000000000000000C30000000000000000C3000000000000000000E200000000000000000000000000
310
00000000000000000000000000000000000000000000000000000000000000000000000000000000000000000000000000000000000000000000000000000000000000000000000000000000000000000000000000000000000000000000000000000000000000000000000000000000000000000000000000000000000000
310
000000000000000000000000000000000000000000000000000000000000000000000000000000000000000000000000000000E20000000000000000000000000000000000C3C3C3C30000000000000000000000C30000000000000000000000C30000000000000000C3000000000000000000E20000000000000000000000
310
00000000000000000000000000000000000000000000000000000000000000000000000000000000000000000000000000000000000000000000000000000000000000000000000000000000000000000000000000000000000000000000000000000000000000000000000000000000000000000000000000000000000000
310
00000000000000000000000000000000000000000000000000000000000000000000000000000000000000000000000000000000E20000000000000000000000000000000000C3000000000000000000000000000000C30000000000000000000000C30000000000000000C3000000000000000000E2000000000000000000
310
00000000000000000000000000000000000000000000000000000000000000000000000000000000000000000000000000000000000000000000000000000000000000000000000000000000000000000000000000000000000000000000000000000000000000000000000000000000000000000000000000000000000000
310
000000000000000000000000000000000000000000000000000000000000000000000000000000000000000000000000000000000000E200000000000000000000000000000000C300000000000000000000000000000000C3000000000000000000000000C3C3C3C3C3C3C3C3C3C3C3C3C30000000000E200000000000000
310
00000000000000000000000000000000000000000000000000000000000000000000000000000000000000000000000000000000000000000000000000000000000000000000000000000000000000000000000000000000000000000000000000000000000000000000000000000000000000000000000000000000000000
310
00000000000000000000000000000000000000000000000000000000000000000000000000000000000000000000000000000000000000E20000000000000000000000000000000000C30000000000000000000000000000000000C3000000000000000000000000000000000000000000000000C3C3C3C300E20000000000
310
00000000000000000000000000000000000000000000000000000000000000000000000000000000000000000000000000000000000000000000000000000000000000000000000000000000000000000000000000000000000000000000000000000000000000000000000000000000000000000000000000000000000000
310
0000000000000000000000000000000000000000000000000000000000000000000000000000000000000000000000000000000000000000E2000000000000000000000000000000000000C30000000000000000000000000000000000C300000000000000000000000000000000000000000000000000C3C3C300E2000000
310
00000000000000000000000000000000000000000000000000000000000000000000000000000000000000000000000000000000000000000000000000000000000000000000000000000000000000000000000000000000000000000000000000000000000000000000000000000000000000000000000000000000000000
310
00000000000000000000000000000000000000000000000000000000000000000000000000000000000000000000000000000000000000000000E2000000000000000000000000000000000000C30000000000000000000000000000000000C300000000000000000000000000000000000000000000000000C300C300E200
310
00000000000000000000000000000000000000000000000000000000000000000000000000000000000000000000000000000000000000000000000000000000000000000000000000000000000000000000000000000000000000000000000000000000000000000000000000000000000000000000000000000000000000
310
0000000000000000000000000000000000000000000000000000000000000000000000000000000000000000000000000000000000000000000000E200000000000000000000000000000000000000C3000000000000000000000000000000000000C3000000000000000000000000000000000000000000000000C300C300
310
E2000000000000000000000000000000000000000000000000000000000000000000000000000000000000000000000000000000000000000000000000000000000000000000000000000000000000000000000000000000000000000000000000000000000000000000000000000000000000000000000000000000000000
310
00000000000000000000000000000000000000000000000000000000000000000000000000000000000000000000000000000000000000000000000000E200000000000000000000000000000000000000C3000000000000000000000000000000000000C3000000000000000000000000000000000000000000000000C300
310
C300E200000000000000000000000000000000000000000000000000000000000000000000000000000000000000000000000000000000000000000000000000000000000000000000000000000000000000000000000000000000000000000000000000000000000000000000000000000000000000000000000000000000
310
0000000000000000000000000000000000000000000000000000000000000000000000000000000000000000000000000000000000000000000000000000E20000000000000000000000000000000000000000C3000000000000000000000000000000000000C3000000000000000000000000000000000000000000000000
310
C300C300E20000000000000000000000000000000000000000000000000000000000000000000000000000000000000000000000000000000000000000000000000000000000000000000000000000000000000000000000000000000000000000000000000000000000000000000000000000000000000000000000000000
310
00000000000000000000000000000000000000000000000000000000000000000000000000000000000000000000000000000000000000000000000000000000E20000000000000000000000000000000000000000C300000000000000000000000000000000000000C3000000000000000000000000000000000000002D2D
310
2D2DC32DC32DE2000000000000000000000000000000000000000000000000000000000000000000000000000000000000000000000000000000000000000000000000000000000000000000000000000000000000000000000000000000000000000000000000000000000000000000000000000000000000000000000000
310
000000000000000000000000000000000000000000000000000000000000000000000000000000000000000000000000000000000000000000000000000000000000E20000000000000000000000000000000000000000C300000000000000000000000000000000000000C300000000000000000000000000000000000000
310
00000000C300C300E200000000000000000000000000000000000000000000000000000000000000000000000000000000000000000000000000000000000000000000000000000000000000000000000000000000000000000000000000000000000000000000000000000000000000000000000000000000000000000000
310
00000000000000000000000000000000000000000000000000000000000000000000000000000000000000000000000000000000000000000000000000000000000000E20000000000000000000000000000000000000000C3000000000000000000000000000000000000000000C300000000000000000000000000000000
310
000000000000C300C300E20000000000000000000000000000000000000000000000000000000000000000000000000000000000000000000000000000000000000000000000000000000000000000000000000000000000000000000000000000000000000000000000000000000000000000000000000000000000000000
310
000000000000000000000000000000000000000000000000000000000000000000000000000000000000000000000000000000000000000000000000000000000000000000E20000000000000000000000000000000000000000C3000000000000000000000000000000000000000000C30000000000000000000000000000
310
0000000000000000C300C300E2000000000000000000000000000000000000000000000000000000000000000000000000000000000000000000000000000000000000000000000000000000000000000000000000000000000000000000000000000000000000000000000000000000000000000000000000000000000000
310
00000000000000000000000000000000000000000000000000000000000000000000000000000000000000000000000000000000000000000000000000000000000000000000E20000000000000000000000000000000000C3C3C3C30000000000000000000000000000000000000000000000C30000000000000000000000
310
00000000000000000000C300C300E200000000000000000000000000000000000000000000000000000000000000000000000000000000000000000000000000000000000000000000000000000000000000000000000000000000000000000000000000000000000000000000000000000000000000000000000000000000
310
000000000000000000000000000000000000000000000000000000000000000000000000000000000000000000000000000000000000000000000000000000000000000000000000E20000000000000000000000000000C3C3C300000000000000000000000000000000000000000000000000000000C30000000000000000
310
000000000000000000000000C300C300E20000000000000000000000000000000000000000000000000000000000000000000000000000000000000000000000000000000000000000000000000000000000000000000000000000000000000000000000000000000000000000000000000000000000000000000000000000
310
00000000000000000000000000000000000000000000000000000000000000000000000000000000000000000000000000000000000000000000000000000000000000000000000000E2000000000000000000000000C3C3C300000000000000000000000000000000000000000000000000000000000000C3000000000000
310
0000000000000000000000000000C3C3C300E2000000000000000000000000000000000000000000000000000000000000000000000000000000000000000000000000000000000000000000000000000000000000000000000000000000000000000000000000000000000000000000000000000000000000000000000000
310
000000000000000000000000000000000000000000000000000000000000000000000000000000000000000000000000000000000000000000000000000000000000000000000000000000E2000000000000000000000000C300000000000000000000000000000000000000000000000000000000000000000000C3000000
310
0000000000000000C3C3C3C3C3C3C3C3C3C3C300E200000000000000000000000000000000000000000000000000000000000000000000000000000000000000000000000000000000000000000000000000000000000000000000000000000000000000000000000000000000000000000000000000000000000000000000
310
0000000000000000000000000000000000000000000000000000000000000000000000000000000000000000000000000000000000000000000000000000000000000000000000000000000000E2000000000000000000C3C3C3000000000000000000000000000000000000000000000000000000000000000000000000C3
310
C3C3C3C3C3C3C3C3C3C3000000000000000000000000E20000000000000000000000000000000000000000000000000000000000000000000000000000000000000000000000000000000000000000000000000000000000000000000000000000000000000000000000000000000000000000000000000000000000000000
310
000000000000000000000000000000000000000000000000000000000000000000000000000000000000000000000000000000000000000000000000000000000000000000000000000000000000E2000000000000000000C30000000000000000000000000000000000000000000000000000000000000000000000000000
310
0000C3000000000000000000000000000000000000000000E2000000000000000000000000000000000000000000000000000000000000000000000000000000000000000000000000000000000000000000000000000000000000000000000000000000000000000000000000000000000000000000000000000000000000
310
0000000000000000000000000000000000000000000000000000000000000000000000000000000000000000000000000000000000000000000000000000000000000000000000000000000000000000E200000000000000C3C300000000000000000000000000000000000000000000000000000000000000000000000000
310
0000000000C30000000000000000000000000000000000000000E200000000000000000000000000000000000000000000000000000000000000000000000000000000000000000000000000000000000000000000000000000000000000000000000000000000000000000000000000000000000000000000000000000000
310
00000000000000000000000000000000000000000000000000000000000000000000000000000000000000000000000000000000000000000000000000000000000000000000000000000000000000000000E2000000000000C3C3000000000000000000000000000000000000000000000000000000000000000000000000
310
00000000000000C30000000000000000000000000000000000000000E20000000000000000000000000000000000000000000000000000000000000000000000000000000000000000000000000000000000000000000000000000000000000000000000000000000000000000000000000000000000000000000000000000
310
000000000000000000000000000000000000000000000000000000000000000000000000000000000000000000000000000000000000000000000000000000000000000000000000000000000000000000000000E20000000000C3000000000000000000000000000000000000000000000000000000000000000000000000
310
000000000000000000C30000000000000000000000000000000000000000E2000000000000000000000000000000000000000000000000000000000000000000000000000000000000000000000000000000000000000000000000000000000000000000000000000000000000000000000000000000000000000000000000
310
00000000000000000000000000000000000000000000000000000000000000000000000000000000000000000000000000000000000000000000000000000000000000000000000000000000000000000000000000E20000000000C3C300000000000000000000000000000000000000000000000000000000000000000000
310
000000000000000000C3C3C3C3C3C3C3C3C3C3C3C3C3C3C3C3C3C30000000000E200000000000000000000000000000000000000000000000000000000000000000000000000000000000000000000000000000000000000000000000000000000000000000000000000000000000000000000000000000000000000000000
310
000000000000000000000000000000000000000000000000000000000000000000000000000000000000000000000000000000000000000000000000000000000000000000000000000000000000000000000000000000E20000000000C3000000000000000000000000000000000000000000000000000000000000000000
310
00000000000000000000C30000000000000000000000000000000000C30000002D2DE22D2D000000000000000000000000000000000000000000000000000000000000000000000000000000000000000000000000000000000000000000000000000000000000000000000000000000000000000000000000000000000000
310
00000000000000000000000000000000000000000000000000000000000000000000000000000000000000000000000000000000000000000000000000000000000000000000000000000000000000000000000000000000E20000000000C30000000000000000000000000000000000000000000000000000000000000000
310
000000000000000000000000C3000000000000000000000000C3C3C3C3C3C30000000000E2000000000000000000000000000000000000000000000000000000000000000000000000000000000000000000000000000000000000000000000000000000000000000000000000000000000000000000000000000000000000
310
000000000000000000000000000000000000000000000000000000000000000000000000000000000000000000000000000000000000000000000000000000000000000000000000000000000000000000000000000000000000E200000000C300000000000000000000000000000000000000000000000000000000000000
310
0000000000000000000000C3C3C3C3000000000000000000000000C300000000C30000000000E200000000000000000000000000000000000000000000000000000000000000000000000000000000000000000000000000000000000000000000000000000000000000000000000000000000000000000000000000000000
310
0000000000000000000000000000000000000000000000000000000000000000000000000000000000000000000000000000000000000000000000000000000000000000000000000000000000000000000000000000000000000000E200C3C3C30000C3C3C3C3C3C3C3C3C3C3C3C3C3C3C3C3C3C3C3C3C3C3C3C3C3C3C3C3
310
C3C3C3C3C3C3C3C3C3C3C3C3C3000000C3000000000000000000000000C300000000C30000000000E20000000000000000000000000000000000000000000000000000000000000000000000000000000000000000000000000000000000000000000000000000000000000000000000000000000000000000000000000000
310
00000000000000000000000000000000000000000000000000000000000000000000000000000000000000000000000000000000000000000000000000000000000000000000000000000000000000000000000000000000000000000000E200C3000000000000000000000000000000000000000000000000000000000000
310
000000000000000000000000C30000000000C3000000000000000000000000C300000000C30000000000E2000000000000000000000000000000000000000000000000000000000000000000000000000000000000000000000000000000000000000000000000000000000000000000000000000000000000000000000000
310
0000000000000000000000000000000000000000000000000000000000000000000000000000000000000000000000000000000000000000000000000000000000000000000000000000000000000000000000000000000000000000000000E20000C300000000000000000000000000000000000000000000000000000000
310
0000000000000000000000000000C30000000000C300000000000000000000002DC32D2D2D2D2D2D00000000E200000000000000000000000000000000000000000000000000000000000000000000000000000000000000000000000000000000000000000000000000000000000000000000000000000000000000000000
310
00000000000000000000000000000000000000000000000000000000000000000000000000000000000000000000000000000000000000000000000000000000000000000000000000000000000000000000000000000000000000000000000000E200C3000000000000000000000000000000000000000000000000000000
310
00000000000000000000000000000000C30000000000C3000000000000000000000000C300000000C30000000000E20000000000000000000000000000000000000000000000000000000000000000000000000000000000000000000000000000000000000000000000000000000000000000000000000000000000000000
310
000000000000000000000000000000000000000000000000000000000000000000000000000000000000000000000000000000000000000000000000000000000000000000000000000000000000000000000000000000000000000000000000000000E200C300000000000000000000000000000000000000000000000000
310
000000000000000000000000000000000000C30000000000C3000000000000000000000000C300000000C30000000000E2000000000000000000000000000000000000000000000000000000000000000000000000000000000000000000000000000000000000000000000000000000000000000000000000000000000000
310
0000000000000000000000000000000000000000000000000000000000000000000000000000000000000000000000000000000000000000000000000000000000000000000000000000000000000000000000000000000000000000000000000000000000E200C30000000000000000000000000000000000000000000000
310
0000000000000000000000000000000000000000C300000000E2C3000000000000000000002D00C3C3C3C3C3C30000000000E200000000000000000000000000000000000000000000000000000000000000000000000000000000000000000000000000000000000000000000000000000000000000000000000000000000
310
000000000000000000000000000000000000000000000000000000000000000000000000000000000000000000000000000000000000000000000000000000000000000000000000000000000000000000000000000000000000000000000000000000000000E2E2E2E2E2E2E2E2E2E2E2E2E2E2E2E2E2E2E2E2E2E2E2E2E2
310
E2E2E2E2E2E2E2E2E2E2E2E2E2E2E2E2E2E2E2E2E2E2E2E2E2E2E2E2E2E2E2E2E2E2E2E2E2E2E22DE2E2E2E2E2E2E2E2E2E2E2E2E20000000000000000000000000000000000000000000000000000000000000000000000000000000000000000000000000000000000000000000000000000000000000000000000000000
310
0000000000000000000000000000000000000000000000000000000000000000000000000000000000000000000000000000000000000000000000000000000000000000000000000000000000000000000000000000000000000000000000000000000000000000E20000000000C3E200C300000000000000000000000000
310
0000000000000000000000000000000000000000000000E200000000E20000E2E2C3C30000000000002D000000000000000000000000E2000000000000000000000000000000000000000000000000000000000000000000000000000000000000000000000000000000000000000000000000000000000000000000000000
310
000000000000000000000000000000000000000000000000000000000000000000000000000000000000000000000000000000000000000000000000000000000000000000000000000000000000000000000000000000000000000000000000000000000000000000E2E2E2E2E2E2E2E2E2C3C3C3C3C3C3C3E2E2E2E2E2E2
310
E2E2E2E2E2E2E2E2E2E2C3C3C3C3C3C3E2E2E2E2E2E2E2E2E2C3E2E2E2E2E2E2E2E2E2E2E2E2E2E2E2E2E2E2E2E2E2E2E2E2E2E2E2E2E2E2E200000000000000000000000000000000000000000000000000000000000000000000000000000000000000000000000000000000000000000000000000000000000000000000
310
0000000000000000000000000000000000000000000000000000000000000000000000000000000000000000000000000000000000000000000000000000000000000000000000000000000000000000000000000000000000000000000000000000000000000000000000E2C3C3C3C3C3C3C3C3C3C3C3C3C3C3C3C3C3C3C3
310
C3C3C3C3C3C3C3C3C3C3C3C3C3C3C3C3C3C3C3C3C3C3C3C3C3C3C3E2C3E2E2E2E2E2000000C3C3C3C300E200C32DC3000000000000E200000000000000000000000000000000000000000000000000000000000000000000000000000000000000000000000000000000000000000000000000000000000000000000000000
310
00000000000000000000000000000000000000000000000000000000000000000000000000000000000000000000000000000000000000000000000000000000000000000000000000000000000000000000000000000000000000000000000000000000000000000000000000E2E2E2E2E2E2E2E2E2E2E2E2E2E2E2E2E2E2
310
E2E2E2E2E2E20000000000000000000000000000000000000000000000C3C3C3C3E2E2E200C3C3C3C3C3C300E200C3C3C3000000000000E20000000000000000000000000000000000000000000000000000000000000000000000000000000000000000000000000000000000000000000000000000000000000000000000
310
00000000000000000000000000000000000000000000000000000000000000000000000000000000000000000000000000000000000000000000000000000000000000000000000000000000000000000000000000000000000000000000000000000000000000000000000000000000000000000000000000000000000000
310
0000000000000000E2E2E2E2E2E2E2E2E2E2E2E2E2E2E2E2E2E2E2E2E2E2E2E2E2E200C3C3E2E2C3C32DC3C3C300E200C3C3C3000000000000E2000000000000000000000000000000000000000000000000000000000000000000000000000000000000000000000000000000000000000000000000000000000000000000
310
00000000000000000000000000000000000000000000000000000000000000000000000000000000000000000000000000000000000000000000000000000000000000000000000000000000000000000000000000000000000000000000000000000000000000000000000000000000000000000000000000000000000000
310
000000000000000000000000000000000000000000000000000000000000000000000000E2E2C3C3E2C32D2D2DC3C300E200C3C3C30000000000E20000000000000000000000000000000000000000000000000000000000000000000000000000000000000000000000000000000000000000000000000000000000000000
310
00000000000000000000000000000000000000000000000000000000000000000000000000000000000000000000000000000000000000000000000000000000000000000000000000000000000000000000000000000000000000000000000000000000000000000000000000000000000000000000000000000000000000
310
00000000000000000000000000000000000000000000000000000000000000000000000000000000E2E2C3C3C32DE2C3C300E200C3C3C30000000000E2000000000000000000000000000000000000000000000000000000000000000000000000000000000000000000000000000000000000000000000000000000000000
310
00000000000000000000000000000000000000000000000000000000000000000000000000000000000000000000000000000000000000000000000000000000000000000000000000000000000000000000000000000000000000000000000000000000000000000000000000000000000000000000000000000000000000
310
0000000000000000000000000000000000000000000000000000000000000000000000000000000000000000E2E2E2C3E2C3C300E200E2E2E20000000000E200000000000000000000000000000000000000000000000000000000000000000000000000000000000000000000000000000000000000000000000000000000
310
00000000000000000000000000000000000000000000000000000000000000000000000000000000000000000000000000000000000000000000000000000000000000000000000000000000000000000000000000000000000000000000000000000000000000000000000000000000000000000000000000000000000000
310
000000000000000000000000000000000000000000000000000000000000000000000000000000000000000000000000E2E2E2C30000E200E200E20000000000E20000000000000000000000000000000000000000000000000000000000000000000000000000000000000000000000000000000000000000000000000000
310
00000000000000000000000000000000000000000000000000000000000000000000000000000000000000000000000000000000000000000000000000000000000000000000000000000000000000000000000000000000000000000000000000000000000000000000000000000000000000000000000000000000000000
310
000000000000000000000000000000000000000000000000000000000000000000000000000000000000000000000000000000C3E2E2E2E2E200E2E2E20000000000E2000000000000000000000000000000000000000000000000000000000000000000000000000000000000000000000000000000000000000000000000
310
00000000000000000000000000000000000000000000000000000000000000000000000000000000000000000000000000000000000000000000000000000000000000000000000000000000000000000000000000000000000000000000000000000000000000000000000000000000000000000000000000000000000000
310
0000000000000000000000000000000000000000000000000000000000000000000000000000000000000000000000000000000000C3C3C3E2E2E2E20000000000000000E200000000000000000000000000000000000000000000000000000000000000000000000000000000000000000000000000000000000000000000
310
00000000000000000000000000000000000000000000000000000000000000000000000000000000000000000000000000000000000000000000000000000000000000000000000000000000000000000000000000000000000000000000000000000000000000000000000000000000000000000000000000000000000000
310
00000000000000000000000000000000000000000000000000000000000000000000000000000000000000000000000000000000000000C300C30000E2E2E2E20000000000E2000000000000000000000000000000000000000000000000000000000000000000000000000000000000000000000000000000000000000000
310
00000000000000000000000000000000000000000000000000000000000000000000000000000000000000000000000000000000000000000000000000000000000000000000000000000000000000000000000000000000000000000000000000000000000000000000000000000000000000000000000000000000000000
310
000000000000000000000000000000000000000000000000000000000000000000000000000000000000000000000000000000000000000000C300C300000000E2E2E2E2000000E200000000000000000000000000000000000000000000000000000000000000000000000000000000000000000000000000000000000000
310
00000000000000000000000000000000000000000000000000000000000000000000000000000000000000000000000000000000000000000000000000000000000000000000000000000000000000000000000000000000000000000000000000000000000000000000000000000000000000000000000000000000000000
310
0000000000000000000000000000000000000000000000000000000000000000000000000000000000000000000000000000000000000000000000C300C3000000000000E2E2E2E200E20000000000000000000000000000000000000000000000000000000000000000000000000000000000000000000000000000000000
310
00000000000000000000000000000000000000000000000000000000000000000000000000000000000000000000000000000000000000000000000000000000000000000000000000000000000000000000000000000000000000000000000000000000000000000000000000000000000000000000000000000000000000
310
00000000000000000000000000000000000000000000000000000000000000000000000000000000000000000000000000000000000000000000000000C300C30000000000000000E2E2E2E2E20000000000000000000000000000000000000000000000000000000000000000000000000000000000000000000000000000
310
00000000000000000000000000000000000000000000000000000000000000000000000000000000000000000000000000000000000000000000000000000000000000000000000000000000000000000000000000000000000000000000000000000000000000000000000000000000000000000000000000000000000000
310
000000000000000000000000000000000000000000000000000000000000000000000000000000000000000000000000000000000000000000000000000000C300C300000000000000000000E2E2E2000000000000000000000000000000000000000000000000000000000000000000000000000000000000000000000000
310
00000000000000000000000000000000000000000000000000000000000000000000000000000000000000000000000000000000000000000000000000000000000000000000000000000000000000000000000000000000000000000000000000000000000000000000000000000000000000000000000000000000000000
310
0000000000000000000000000000000000000000000000000000000000000000000000000000000000000000000000000000000000000000000000000000000000C300C30000000000000000000000000000000000000000000000000000000000000000000000000000000000000000000000000000000000000000000000
310
00000000000000000000000000000000000000000000000000000000000000000000000000000000000000000000000000000000000000000000000000000000000000000000000000000000000000000000000000000000000000000000000000000000000000000000000000000000000000000000000000000000000000
310
00000000000000000000000000000000000000000000000000000000000000000000000000000000000000000000000000000000000000000000000000000000000000C300C3000000000000000000000000000000000000000000000000000000000000000000000000000000000000000000000000000000000000000000
310
00000000000000000000000000000000000000000000000000000000000000000000000000000000000000000000000000000000000000000000000000000000000000000000000000000000000000000000000000000000000000000000000000000000000000000000000000000000000000000000000000000000000000
310
00000000000000000000000000000000000000000000000000000000000000000000000000000000000000000000000000000000000000000000000000000000000000000000C300C3000000000000000000000000000000000000000000000000000000000000000000000000000000000000000000000000000000000000
310
00000000000000000000000000000000000000000000000000000000000000000000000000000000000000000000000000000000000000000000000000000000000000000000000000000000000000000000000000000000000000000000000000000000000000000000000000000000000000000000000000000000000000
310
000000000000000000000000000000000000000000000000000000000000000000000000000000000000000000000000000000000000000000000000000000000000000000000000C300C300000000000000000000000000000000000000000000000000000000000000000000000000000000000000000000000000000000
310
00000000000000000000000000000000000000000000000000000000000000000000000000000000000000000000000000000000000000000000000000000000000000000000000000000000000000000000000000000000000000000000000000000000000000000000000000000000000000000000000000000000000000
310
0000000000000000000000000000000000000000000000000000000000000000000000000000000000000000000000000000000000000000000000000000000000000000000000000000C300C30000000000000000000000000000000000000000000000000000000000000000000000000000000000000000000000000000
310
00000000000000000000000000000000000000000000000000000000000000000000000000000000000000000000000000000000000000000000000000000000000000000000000000000000000000000000000000000000000000000000000000000000000000000000000000000000000000000000000000000000000000
310
00000000000000000000000000000000000000000000000000000000000000000000000000000000000000000000000000000000000000000000000000000000000000000000000000000000C30000C30000000000000000000000000000000000000000000000000000000000000000000000000000000000000000000000
310
00000000000000000000000000000000000000000000000000000000000000000000000000000000000000000000000000000000000000000000000000000000000000000000000000000000000000000000000000000000000000000000000000000000000000000000000000000000000000000000000000000000000000
310
00000000000000000000000000000000000000000000000000000000000000000000000000000000000000000000000000000000000000000000000000000000000000000000000000000000000000C300C3000000000000000000000000000000000000000000000000000000000000000000000000000000000000000000
310
00000000000000000000000000000000000000000000000000000000000000000000000000000000000000000000000000000000000000000000000000000000000000000000000000000000000000000000000000000000000000000000000000000000000000000000000000000000000000000000000000000000000000
310
000000000000000000000000000000000000000000000000000000000000000000000000000000000000000000000000000000000000000000000000000000000000000000000000000000000000000000C300C300000000000000000000000000000000000000000000000000000000000000000000000000000000000000
310
00000000000000000000000000000000000000000000000000000000000000000000000000000000000000000000000000000000000000000000000000000000000000000000000000000000000000000000000000000000000000000000000000000000000000000000000000000000000000000000000000000000000000
310
000000000000000000000000000000000000000000000000000000000000000000000000000000000000000000000000000000000000000000000000000000000000000000000000000000000000000000000000C300C300000000000000000000000000000000000000000000000000000000000000000000000000000000
310
00000000000000000000000000000000000000000000000000000000000000000000000000000000000000000000000000000000000000000000000000000000000000000000000000000000000000000000000000000000000000000000000000000000000000000000000000000000000000000000000000000000000000
310
0000000000000000000000000000000000000000000000000000000000000000000000000000000000000000000000000000000000000000000000000000000000000000000000000000000000000000000000000000C300C30000000000000000000000000000000000000000000000000000000000000000000000000000
310
00000000000000000000000000000000000000000000000000000000000000000000000000000000000000000000000000000000000000000000000000000000000000000000000000000000000000000000000000000000000000000000000000000000000000000000000000000000000000000000000000000000000000
310
0000000000000000000000000000000000000000000000000000000000000000000000000000000000000000000000000000000000000000000000000000000000000000000000000000000000000000000000000000000000C300C30000000000000000000000000000000000000000000000000000000000000000000000
310
00000000000000000000000000000000000000000000000000000000000000000000000000000000000000000000000000000000000000000000000000000000000000000000000000000000000000000000000000000000000000000000000000000000000000000000000000000000000000000000000000000000000000
310
00000000000000000000000000000000000000000000000000000000000000000000000000000000000000000000000000000000000000000000000000000000000000000000000000000000000000000000000000000000000000C300C3000000000000000000000000000000000000000000000000000000000000000000
310
00000000000000000000000000000000000000000000000000000000000000000000000000000000000000000000000000000000000000000000000000000000000000000000000000000000000000000000000000000000000000000000000000000000000000000000000000000000000000000000000000000000000000
310
000000000000000000000000000000000000000000000000000000000000000000000000000000000000000000000000000000000000000000000000000000000000000000000000000000000000000000000000000000000000000000C300C300000000000000000000000000000000000000000000000000000000000000
310
00000000000000000000000000000000000000000000000000000000000000000000000000000000000000000000000000000000000000000000000000000000000000000000000000000000000000000000000000000000000000000000000000000000000000000000000000000000000000000000000000000000000000
310
0000000000000000000000000000000000000000000000000000000000000000000000000000000000000000000000000000000000000000000000000000000000000000000000000000000000000000000000000000000000000000000000C300C30000000000000000000000000000000000000000000000000000000000
310
00000000000000000000000000000000000000000000000000000000000000000000000000000000000000000000000000000000000000000000000000000000000000000000000000000000000000000000000000000000000000000000000000000000000000000000000000000000000000000000000000000000000000
310
0000000000000000000000000000000000000000000000000000000000000000000000000000000000000000000000000000000000000000000000000000000000000000000000000000000000000000000000000000000000000000000000000000C300C30000000000000000000000000000000000000000000000000000
310
00000000000000000000000000000000000000000000000000000000000000000000000000000000000000000000000000000000000000000000000000000000000000000000000000000000000000000000000000000000000000000000000000000000000000000000000000000000000000000000000000000000000000
310
00000000000000000000000000000000000000000000000000000000000000000000000000000000000000000000000000000000000000000000000000000000000000000000000000000000000000000000000000000000000000000000000000000000C300C3000000000000000000000000000000000000000000000000
310
00000000000000000000000000000000000000000000000000000000000000000000000000000000000000000000000000000000000000000000000000000000000000000000000000000000000000000000000000000000000000000000000000000000000000000000000000000000000000000000000000000000000000
310
000000000000000000000000000000000000000000000000000000000000000000000000000000000000000000000000000000000000000000000000000000000000000000000000000000000000000000000000000000000000000000000000000000000000C300C300000000000000000000000000000000000000000000
310
00000000000000000000000000000000000000000000000000000000000000000000000000000000000000000000000000000000000000000000000000000000000000000000000000000000000000000000000000000000000000000000000000000000000000000000000000000000000000000000000000000000000000
310
0000000000000000000000000000000000000000000000000000000000000000000000000000000000000000000000000000000000000000000000000000000000000000000000000000000000000000000000000000000000000000000000000000000000000000C300C30000000000000000000000000000000000000000
310
00000000000000000000000000000000000000000000000000000000000000000000000000000000000000000000000000000000000000000000000000000000000000000000000000000000000000000000000000000000000000000000000000000000000000000000000000000000000000000000000000000000000000
310
0000000000000000000000000000000000000000000000000000000000000000000000000000000000000000000000000000000000000000000000000000000000000000000000000000000000000000000000000000000000000000000000000000000000000000000000C300C30000000000000000000000000000000000
310
00000000000000000000000000000000000000000000000000000000000000000000000000000000000000000000000000000000000000000000000000000000000000000000000000000000000000000000000000000000000000000000000000000000000000000000000000000000000000000000000000000000000000
310
00000000000000000000000000000000000000000000000000000000000000000000000000000000000000000000000000000000000000000000000000000000000000000000000000000000000000000000000000000000000000000000000000000000000000000000000000C300C3000000000000000000000000000000
310
00000000000000000000000000000000000000000000000000000000000000000000000000000000000000000000000000000000000000000000000000000000000000000000000000000000000000000000000000000000000000000000000000000000000000000000000000000000000000000000000000000000000000
310
00000000000000000000000000000000000000000000000000000000000000000000000000000000000000000000000000000000000000000000000000000000000000000000000000000000000000000000000000000000000000000000000000000000000000000000000000000000C300C3000000000000000000000000
310
00000000000000000000000000000000000000000000000000000000000000000000000000000000000000000000000000000000000000000000000000000000000000000000000000000000000000000000000000000000000000000000000000000000000000000000000000000000000000000000000000000000000000
310
000000000000000000000000000000000000000000000000000000000000000000000000000000000000000000000000000000000000000000000000000000000000000000000000000000000000000000000000000000000000000000000000000000000000000000000000000000000000C300C300000000000000000000
310
00000000000000000000000000000000000000000000000000000000000000000000000000000000000000000000000000000000000000000000000000000000000000000000000000000000000000000000000000000000000000000000000000000000000000000000000000000000000000000000000000000000000000
310
000000000000000000000000000000000000000000000000000000000000000000000000000000000000000000000000000000000000000000000000000000000000000000000000000000000000000000000000000000000000000000000000000000000000000000000000000000000000000000C300C300000000000000
310
00000000000000000000000000000000000000000000000000000000000000000000000000000000000000000000000000000000000000000000000000000000000000000000000000000000000000000000000000000000000000000000000000000000000000000000000000000000000000000000000000000000000000
310
0000000000000000000000000000000000000000000000000000000000000000000000000000000000000000000000000000000000000000000000000000000000000000000000000000000000000000000000000000000000000000000000000000000000000000000000000000000000000000000000C300C30000000000
310
00000000000000000000000000000000000000000000000000000000000000000000000000000000000000000000000000000000000000000000000000000000000000000000000000000000000000000000000000000000000000000000000000000000000000000000000000000000000000000000000000000000000000
310
00000000000000000000000000000000000000000000000000000000000000000000000000000000000000000000000000000000000000000000000000000000000000000000000000000000000000000000000000000000000000000000000000000000000000000000000000000000000000000000000000C300C3000000
310
00000000000000000000000000000000000000000000000000000000000000000000000000000000000000000000000000000000000000000000000000000000000000000000000000000000000000000000000000000000000000000000000000000000000000000000000000000000000000000000000000000000000000
310
000000000000000000000000000000000000000000000000000000000000000000000000000000000000000000000000000000000000000000000000000000000000000000000000000000000000000000000000000000000000000000000000000000000000000000000000000000000000000000000000000000C300C300
310
00000000000000000000000000000000000000000000000000000000000000000000000000000000000000000000000000000000000000000000000000000000000000000000000000000000000000000000000000000000000000000000000000000000000000000000000000000000000000000000000000000000000000
310
000000000000000000000000000000000000000000000000000000000000000000000000000000000000000000000000000000000000000000000000000000000000000000000000000000000000000000000000000000000000000000000000000000000000000000000000000000000000000000000000000000000000C3
310
00C30000000000000000000000000000000000000000000000000000000000000000000000000000000000000000000000000000000000000000000000000000000000000000000000000000000000000000000000000000000000000000000000000000000000000000000000000000000000000000000000000000000000
310
00000000000000000000000000000000000000000000000000000000000000000000000000000000000000000000000000000000000000000000000000000000000000000000000000000000000000000000000000000000000000000000000000000000000000000000000000000000000000000000000000000000000000
310
00C300C3000000000000000000000000000000000000000000000000000000000000000000000000000000000000000000000000000000000000000000000000000000000000000000000000000000000000000000000000000000000000000000000000000000000000000000000000000000000000000000000000000000
310
00000000000000000000000000000000000000000000000000000000000000000000000000000000000000000000000000000000000000000000000000000000000000000000000000000000000000000000000000000000000000000000000000000000000000000000000000000000000000000000000000000000000000
310
000000C300C300000000000000000000000000000000000000000000000000000000000000000000000000000000000000000000000000000000000000000000000000000000000000000000000000000000000000000000000000000000000000000000000000000000000000000000000000000000000000000000000000
310
00000000000000000000000000000000000000000000000000000000000000000000000000000000000000000000000000000000000000000000000000000000000000000000000000000000000000000000000000000000000000000000000000000000000000000000000000000000000000000000000000000000000000
310
0000000000C300C30000000000000000000000000000000000000000000000000000000000000000000000000000000000000000000000000000000000000000000000000000000000000000000000000000000000000000000000000000000000000000000000000000000000000000000000000000000000000000000000
310
00000000000000000000000000000000000000000000000000000000000000000000000000000000000000000000000000000000000000000000000000000000000000000000000000000000000000000000000000000000000000000000000000000000000000000000000000000000000000000000000000000000000000
310
0000000000000000C300C30000000000000000000000000000000000000000000000000000000000000000000000000000000000000000000000000000000000000000000000000000000000000000000000000000000000000000000000000000000000000000000000000000000000000000000000000000000000000000
310
00000000000000000000000000000000000000000000000000000000000000000000000000000000000000000000000000000000000000000000000000000000000000000000000000000000000000000000000000000000000000000000000000000000000000000000000000000000000000000000000000000000000000
310
00000000000000000000C300C3000000000000000000000000000000000000000000000000000000000000000000000000000000000000000000000000000000000000000000000000000000000000000000000000000000000000000000000000000000000000000000000000000000000000000000000000000000000000
310
00000000000000000000000000000000000000000000000000000000000000000000000000000000000000000000000000000000000000000000000000000000000000000000000000000000000000000000000000000000000000000000000000000000000000000000000000000000000000000000000000000000000000
310
00000000000000000000000000C300C3000000000000000000000000000000000000000000000000000000000000000000000000000000000000000000000000000000000000000000000000000000000000000000000000000000000000000000000000000000000000000000000000000000000000000000000000000000
310
00000000000000000000000000000000000000000000000000000000000000000000000000000000000000000000000000000000000000000000000000000000000000000000000000000000000000000000000000000000000000000000000000000000000000000000000000000000000000000000000000000000000000
310
000000000000000000000000000000C300C300000000000000000000000000000000000000000000000000000000000000000000000000000000000000000000000000000000000000000000000000000000000000000000000000000000000000000000000000000000000000000000000000000000000000000000000000
310
00000000000000000000000000000000000000000000000000000000000000000000000000000000000000000000000000000000000000000000000000000000000000000000000000000000000000000000000000000000000000000000000000000000000000000000000000000000000000000000000000000000000000
310
000000000000000000000000000000000000C300C300000000000000000000000000000000000000000000000000000000000000000000000000000000000000000000000000000000000000000000000000000000000000000000000000000000000000000000000000000000000000000000000000000000000000000000
310
00000000000000000000000000000000000000000000000000000000000000000000000000000000000000000000000000000000000000000000000000000000000000000000000000000000000000000000000000000000000000000000000000000000000000000000000000000000000000000000000000000000000000
310
0000000000000000000000000000000000000000C300C30000000000000000000000000000000000000000000000000000000000000000000000000000000000000000000000000000000000000000000000000000000000000000000000000000000000000000000000000000000000000000000000000000000000000000
310
00000000000000000000000000000000000000000000000000000000000000000000000000000000000000000000000000000000000000000000000000000000000000000000000000000000000000000000000000000000000000000000000000000000000000000000000000000000000000000000000000000000000000
310
00000000000000000000000000000000000000000000C300C3000000000000000000000000000000000000000000000000000000000000000000000000000000000000000000000000000000000000000000000000000000000000000000000000000000000000000000000000000000000000000000000000000000000000
310
00000000000000000000000000000000000000000000000000000000000000000000000000000000000000000000000000000000000000000000000000000000000000000000000000000000000000000000000000000000000000000000000000000000000000000000000000000000000000000000000000000000000000
310
00000000000000000000000000000000000000000000000000C3C300000000000000000000000000000000000000000000000000000000000000000000000000000000000000000000000000000000000000000000000000000000000000000000000000000000000000000000000000000000000000000000000000000000
310
00000000000000000000000000000000000000000000000000000000000000000000000000000000000000000000000000000000000000000000000000000000000000000000000000000000000000000000000000000000000000000000000000000000000000000000000000000000000000000000000000000000000000
310
000000000000000000000000000000000000000000000000000000C300C300000000000000000000000000000000000000000000000000000000000000000000000000000000000000000000000000000000000000000000000000000000000000000000000000000000000000000000000000000000000000000000000000
310
00000000000000000000000000000000000000000000000000000000000000000000000000000000000000000000000000000000000000000000000000000000000000000000000000000000000000000000000000000000000000000000000000000000000000000000000000000000000000000000000000000000000000
310
0000000000000000000000000000000000000000000000000000000000C300C30000000000000000000000000000000000000000000000000000000000000000000000000000000000000000000000000000000000000000000000000000000000000000000000000000000000000000000000000000000000000000000000
310
00000000000000000000000000000000000000000000000000000000000000000000000000000000000000000000000000000000000000000000000000000000000000000000000000000000000000000000000000000000000000000000000000000000000000000000000000000000000000000000000000000000000000
310
00000000000000000000000000000000000000000000000000000000000000C300C3000000000000000000000000000000000000000000000000000000000000000000000000000000000000000000000000000000000000000000000000000000000000000000000000000000000000000000000000000000000000000000
310
00000000000000000000000000000000000000000000000000000000000000000000000000000000000000000000000000000000000000000000000000000000000000000000000000000000000000000000000000000000000000000000000000000000000000000000000000000000000000000000000000000000000000
310
00000000000000000000000000000000000000000000000000000000000000000000C300C3000000000000000000000000000000000000000000000000000000000000000000000000000000000000000000000000000000000000000000000000000000000000000000000000000000000000000000000000000000000000
310
00000000000000000000000000000000000000000000000000000000000000000000000000000000000000000000000000000000000000000000000000000000000000000000000000000000000000000000000000000000000000000000000000000000000000000000000000000000000000000000000000000000000000
310
000000000000000000000000000000000000000000000000000000000000000000000000C300C300000000000000000000000000000000000000000000000000000000000000000000000000000000000000000000000000000000000000000000000000000000000000000000000000000000000000000000000000000000
310
00000000000000000000000000000000000000000000000000000000000000000000000000000000000000000000000000000000000000000000000000000000000000000000000000000000000000000000000000000000000000000000000000000000000000000000000000000000000000000000000000000000000000
310
000000000000000000000000000000000000000000000000000000000000000000000000000000C3C30000000000000000000000000000000000000000000000000000000000000000000000000000000000000000000000000000000000000000000000000000000000000000000000000000000000000000000000000000
310
00000000000000000000000000000000000000000000000000000000000000000000000000000000000000000000000000000000000000000000000000000000000000000000000000000000000000000000000000000000000000000000000000000000000000000000000000000000000000000000000000000000000000
310
0000000000000000000000000000000000000000000000000000000000000000000000000000000000C300000000000000000000000000000000000000000000000000000000000000000000000000000000000000000000000000000000000000000000000000000000000000000000000000000000000000000000000000
310
00000000000000000000000000000000000000000000000000000000000000000000000000000000000000000000000000000000000000000000000000000000000000000000000000000000000000000000000000000000000000000000000000000000000000000000000000000000000000000000000000000000000000
310
00000000000000000000000000000000000000000000000000000000000000000000000000000000000000000000000000000000000000000000000000000000000000000000000000000000000000000000000000000000000000000000000000000000000000000000000000000000000000000000000000000000000000
310
00000000000000000000000000000000000000000000000000000000000000000000000000000000000000000000000000000000000000000000000000000000000000000000000000000000000000000000000000000000000000000000000000000000000000000000000000000000000000000000000000000000000000
310
00000000000000000000000000000000000000000000000000000000000000000000000000000000000000000000000000000000000000000000000000000000000000000000000000000000000000000000000000000000000000000000000000000000000000000000000000000000000000000000000000000000000000
310
00000000000000000000000000000000000000000000000000000000000000000000000000000000000000000000000000000000000000000000000000000000000000000000000000000000000000000000000000000000000000000000000000000000000000000000000000000000000000000000000000000000000000
310
00000000000000000000000000000000000000000000000000000000000000000000000000000000000000000000000000000000000000000000000000000000000000000000000000000000000000000000000000000000000000000000000000000000000000000000000000000000000000000000000000000000000000
310
00000000000000000000000000000000000000000000000000000000000000000000000000000000000000000000000000000000000000000000000000000000000000000000000000000000000000000000000000000000000000000000000000000000000000000000000000000000000000000000000000000000000000
310
00000000000000000000000000000000000000000000000000000000000000000000000000000000000000000000000000000000000000000000000000000000000000000000000000000000000000000000000000000000000000000000000000000000000000000000000000000000000000000000000000000000000000
310
00000000000000000000000000000000000000000000
  0
XRECORD
  5
6149
102
{ACAD_REACTORS
330
286D
102
}
330
286D
100
AcDbXrecord
280
     1
102
MATERIAL
148
0.0
149
0.0
149
0.0
 93
        0
 94
      127
282
     0
 72
     0
 77
     0
171
     0
175
     0
179
     0
273
     0
  0
XRECORD
  5
286F
102
{ACAD_REACTORS
330
286D
102
}
330
286D
100
AcDbXrecord
280
     1
270
     1
271
     1
  0
XRECORD
  5
286E
102
{ACAD_REACTORS
330
286D
102
}
330
286D
100
AcDbXrecord
280
     1
270
     1
271
     1
  0
XRECORD
  5
2872
102
{ACAD_REACTORS
330
286D
102
}
330
286D
100
AcDbXrecord
280
     1
270
     1
271
     1
  0
XRECORD
  5
2871
102
{ACAD_REACTORS
330
286D
102
}
330
286D
100
AcDbXrecord
280
     1
270
     1
271
     1
  0
XRECORD
  5
2873
102
{ACAD_REACTORS
330
286D
102
}
330
286D
100
AcDbXrecord
280
     1
270
     1
271
     1
  0
XRECORD
  5
2870
102
{ACAD_REACTORS
330
286D
102
}
330
286D
100
AcDbXrecord
280
     1
270
     1
271
     1
  0
XRECORD
  5
6148
102
{ACAD_REACTORS
330
2865
102
}
330
2865
100
AcDbXrecord
280
     1
102
MATERIAL
148
0.0
149
0.0
149
0.0
 93
        0
 94
      127
282
     0
 72
     0
 77
     0
171
     0
175
     0
179
     0
273
     0
  0
XRECORD
  5
2867
102
{ACAD_REACTORS
330
2865
102
}
330
2865
100
AcDbXrecord
280
     1
270
     1
271
     1
  0
XRECORD
  5
2866
102
{ACAD_REACTORS
330
2865
102
}
330
2865
100
AcDbXrecord
280
     1
270
     1
271
     1
  0
XRECORD
  5
286A
102
{ACAD_REACTORS
330
2865
102
}
330
2865
100
AcDbXrecord
280
     1
270
     1
271
     1
  0
XRECORD
  5
2869
102
{ACAD_REACTORS
330
2865
102
}
330
2865
100
AcDbXrecord
280
     1
270
     1
271
     1
  0
XRECORD
  5
286B
102
{ACAD_REACTORS
330
2865
102
}
330
2865
100
AcDbXrecord
280
     1
270
     1
271
     1
  0
XRECORD
  5
2868
102
{ACAD_REACTORS
330
2865
102
}
330
2865
100
AcDbXrecord
280
     1
270
     1
271
     1
  0
XRECORD
  5
614A
102
{ACAD_REACTORS
330
2875
102
}
330
2875
100
AcDbXrecord
280
     1
102
MATERIAL
148
0.0
149
0.0
149
0.0
 93
        0
 94
      127
282
     0
 72
     0
 77
     0
171
     0
175
     0
179
     0
273
     0
  0
XRECORD
  5
2877
102
{ACAD_REACTORS
330
2875
102
}
330
2875
100
AcDbXrecord
280
     1
270
     1
271
     1
  0
XRECORD
  5
2876
102
{ACAD_REACTORS
330
2875
102
}
330
2875
100
AcDbXrecord
280
     1
270
     1
271
     1
  0
XRECORD
  5
287A
102
{ACAD_REACTORS
330
2875
102
}
330
2875
100
AcDbXrecord
280
     1
270
     1
271
     1
  0
XRECORD
  5
2879
102
{ACAD_REACTORS
330
2875
102
}
330
2875
100
AcDbXrecord
280
     1
270
     1
271
     1
  0
XRECORD
  5
287B
102
{ACAD_REACTORS
330
2875
102
}
330
2875
100
AcDbXrecord
280
     1
270
     1
271
     1
  0
XRECORD
  5
2878
102
{ACAD_REACTORS
330
2875
102
}
330
2875
100
AcDbXrecord
280
     1
270
     1
271
     1
  0
CELLSTYLEMAP
  5
6141
102
{ACAD_REACTORS
330
2936
102
}
330
2936
100
AcDbCellStyleMap
 90
        3
300
CELLSTYLE
  1
TABLEFORMAT_BEGIN
 90
        5
170
     1
 91
        0
 92
    32768
 62
   257
 93
        1
300
CONTENTFORMAT
  1
CONTENTFORMAT_BEGIN
 90
        0
 91
        0
 92
      512
 93
        0
300

 40
0.0
140
1.0
 94
        5
 62
     0
340
11
144
6.0
309
CONTENTFORMAT_END
171
     1
301
MARGIN
  1
CELLMARGIN_BEGIN
 40
1.5
 40
1.5
 40
1.5
 40
1.5
 40
4.5
 40
4.5
309
CELLMARGIN_END
 94
        6
 95
        1
302
GRIDFORMAT
  1
GRIDFORMAT_BEGIN
 90
        0
 91
        1
 62
     0
 92
       -2
340
0
 93
        0
 40
1.125
309
GRIDFORMAT_END
 95
        2
302
GRIDFORMAT
  1
GRIDFORMAT_BEGIN
 90
        0
 91
        1
 62
     0
 92
       -2
340
0
 93
        0
 40
1.125
309
GRIDFORMAT_END
 95
        4
302
GRIDFORMAT
  1
GRIDFORMAT_BEGIN
 90
        0
 91
        1
 62
     0
 92
       -2
340
0
 93
        0
 40
1.125
309
GRIDFORMAT_END
 95
        8
302
GRIDFORMAT
  1
GRIDFORMAT_BEGIN
 90
        0
 91
        1
 62
     0
 92
       -2
340
0
 93
        0
 40
1.125
309
GRIDFORMAT_END
 95
       16
302
GRIDFORMAT
  1
GRIDFORMAT_BEGIN
 90
        0
 91
        1
 62
     0
 92
       -2
340
0
 93
        0
 40
1.125
309
GRIDFORMAT_END
 95
       32
302
GRIDFORMAT
  1
GRIDFORMAT_BEGIN
 90
        0
 91
        1
 62
     0
 92
       -2
340
0
 93
        0
 40
1.125
309
GRIDFORMAT_END
309
TABLEFORMAT_END
  1
CELLSTYLE_BEGIN
 90
        1
 91
        1
300
_TITLE
309
CELLSTYLE_END
300
CELLSTYLE
  1
TABLEFORMAT_BEGIN
 90
        5
170
     1
 91
        0
 92
        0
 62
   257
 93
        1
300
CONTENTFORMAT
  1
CONTENTFORMAT_BEGIN
 90
        0
 91
        0
 92
      512
 93
        0
300

 40
0.0
140
1.0
 94
        5
 62
     0
340
11
144
4.5
309
CONTENTFORMAT_END
171
     1
301
MARGIN
  1
CELLMARGIN_BEGIN
 40
1.5
 40
1.5
 40
1.5
 40
1.5
 40
4.5
 40
4.5
309
CELLMARGIN_END
 94
        6
 95
        1
302
GRIDFORMAT
  1
GRIDFORMAT_BEGIN
 90
        0
 91
        1
 62
     0
 92
       -2
340
0
 93
        0
 40
1.125
309
GRIDFORMAT_END
 95
        2
302
GRIDFORMAT
  1
GRIDFORMAT_BEGIN
 90
        0
 91
        1
 62
     0
 92
       -2
340
0
 93
        0
 40
1.125
309
GRIDFORMAT_END
 95
        4
302
GRIDFORMAT
  1
GRIDFORMAT_BEGIN
 90
        0
 91
        1
 62
     0
 92
       -2
340
0
 93
        0
 40
1.125
309
GRIDFORMAT_END
 95
        8
302
GRIDFORMAT
  1
GRIDFORMAT_BEGIN
 90
        0
 91
        1
 62
     0
 92
       -2
340
0
 93
        0
 40
1.125
309
GRIDFORMAT_END
 95
       16
302
GRIDFORMAT
  1
GRIDFORMAT_BEGIN
 90
        0
 91
        1
 62
     0
 92
       -2
340
0
 93
        0
 40
1.125
309
GRIDFORMAT_END
 95
       32
302
GRIDFORMAT
  1
GRIDFORMAT_BEGIN
 90
        0
 91
        1
 62
     0
 92
       -2
340
0
 93
        0
 40
1.125
309
GRIDFORMAT_END
309
TABLEFORMAT_END
  1
CELLSTYLE_BEGIN
 90
        2
 91
        1
300
_HEADER
309
CELLSTYLE_END
300
CELLSTYLE
  1
TABLEFORMAT_BEGIN
 90
        5
170
     1
 91
        0
 92
        0
 62
   257
 93
        1
300
CONTENTFORMAT
  1
CONTENTFORMAT_BEGIN
 90
        0
 91
        0
 92
      512
 93
        0
300

 40
0.0
140
1.0
 94
        2
 62
     0
340
11
144
4.5
309
CONTENTFORMAT_END
171
     1
301
MARGIN
  1
CELLMARGIN_BEGIN
 40
1.5
 40
1.5
 40
1.5
 40
1.5
 40
4.5
 40
4.5
309
CELLMARGIN_END
 94
        6
 95
        1
302
GRIDFORMAT
  1
GRIDFORMAT_BEGIN
 90
        0
 91
        1
 62
     0
 92
       -2
340
0
 93
        0
 40
1.125
309
GRIDFORMAT_END
 95
        2
302
GRIDFORMAT
  1
GRIDFORMAT_BEGIN
 90
        0
 91
        1
 62
     0
 92
       -2
340
0
 93
        0
 40
1.125
309
GRIDFORMAT_END
 95
        4
302
GRIDFORMAT
  1
GRIDFORMAT_BEGIN
 90
        0
 91
        1
 62
     0
 92
       -2
340
0
 93
        0
 40
1.125
309
GRIDFORMAT_END
 95
        8
302
GRIDFORMAT
  1
GRIDFORMAT_BEGIN
 90
        0
 91
        1
 62
     0
 92
       -2
340
0
 93
        0
 40
1.125
309
GRIDFORMAT_END
 95
       16
302
GRIDFORMAT
  1
GRIDFORMAT_BEGIN
 90
        0
 91
        1
 62
     0
 92
       -2
340
0
 93
        0
 40
1.125
309
GRIDFORMAT_END
 95
       32
302
GRIDFORMAT
  1
GRIDFORMAT_BEGIN
 90
        0
 91
        1
 62
     0
 92
       -2
340
0
 93
        0
 40
1.125
309
GRIDFORMAT_END
309
TABLEFORMAT_END
  1
CELLSTYLE_BEGIN
 90
        3
 91
        2
300
_DATA
309
CELLSTYLE_END
  0
XRECORD
  5
616B
102
{ACAD_REACTORS
330
2936
102
}
330
2936
100
AcDbXrecord
280
     1
102
ACAD_ROUNDTRIP_PRE2007_TABLESTYLE
 90
      512
 91
        0
  1

 92
      512
 93
        0
  2

 94
      512
 95
        0
  3

  0
XRECORD
  5
6156
102
{ACAD_REACTORS
330
6155
102
}
330
6155
100
AcDbXrecord
280
     1
102
RTVSPropertyOp0
 70
     1
102
RTVSPropertyOp1
 70
     1
102
RTVSPropertyOp2
 70
     1
102
RTVSPropertyOp3
 70
     1
102
RTVSPropertyOp4
 70
     1
102
RTVSPropertyOp5
 70
     1
102
RTVSPropertyOp6
 70
     1
102
RTVSPropertyOp7
 70
     1
102
RTVSPropertyOp8
 70
     1
102
RTVSPropertyOp9
 70
     1
102
RTVSPropertyOp10
 70
     1
102
RTVSPropertyOp11
 70
     1
102
RTVSPropertyOp12
 70
     1
102
RTVSPropertyOp13
 70
     1
102
RTVSPropertyOp14
 70
     1
102
RTVSPropertyOp15
 70
     1
102
RTVSPropertyOp16
 70
     1
102
RTVSPropertyOp17
 70
     1
102
RTVSPropertyOp18
 70
     1
102
RTVSPropertyOp19
 70
     1
102
RTVSPropertyOp20
 70
     1
102
RTVSPropertyOp21
 70
     1
102
RTVSPropertyOp22
 70
     1
102
RTVSPropertyOp23
 70
     1
102
RTVSPropertyOp24
 70
     1
102
RTVSPropertyOp25
 70
     1
102
RTVSPropertyOp26
 70
     1
102
RTVSPropertyOp27
 70
     1
102
RTVSPropertyOp28
 70
     1
102
RTVSPropertyOp29
 70
     1
102
RTVSPropertyOp30
 70
     1
102
RTVSPropertyOp31
 70
     1
102
RTVSPropertyOp32
 70
     1
  0
XRECORD
  5
615A
102
{ACAD_REACTORS
330
6159
102
}
330
6159
100
AcDbXrecord
280
     1
102
RTVSPropertyOp0
 70
     1
102
RTVSPropertyOp1
 70
     1
102
RTVSPropertyOp2
 70
     1
102
RTVSPropertyOp3
 70
     1
102
RTVSPropertyOp4
 70
     1
102
RTVSPropertyOp5
 70
     1
102
RTVSPropertyOp6
 70
     1
102
RTVSPropertyOp7
 70
     1
102
RTVSPropertyOp8
 70
     1
102
RTVSPropertyOp9
 70
     1
102
RTVSPropertyOp10
 70
     1
102
RTVSPropertyOp11
 70
     1
102
RTVSPropertyOp12
 70
     1
102
RTVSPropertyOp13
 70
     1
102
RTVSPropertyOp14
 70
     1
102
RTVSPropertyOp15
 70
     1
102
RTVSPropertyOp16
 70
     1
102
RTVSPropertyOp17
 70
     1
102
RTVSPropertyOp18
 70
     1
102
RTVSPropertyOp19
 70
     1
102
RTVSPropertyOp20
 70
     1
102
RTVSPropertyOp21
 70
     1
102
RTVSPropertyOp22
 70
     1
102
RTVSPropertyOp23
 70
     1
102
RTVSPropertyOp24
 70
     1
102
RTVSPropertyOp25
 70
     1
102
RTVSPropertyOp26
 70
     1
102
RTVSPropertyOp27
 70
     1
102
RTVSPropertyOp28
 70
     1
102
RTVSPropertyOp29
 70
     1
102
RTVSPropertyOp30
 70
     1
102
RTVSPropertyOp31
 70
     1
102
RTVSPropertyOp32
 70
     1
  0
XRECORD
  5
6158
102
{ACAD_REACTORS
330
6157
102
}
330
6157
100
AcDbXrecord
280
     1
102
RTVSPropertyOp0
 70
     1
102
RTVSPropertyOp1
 70
     1
102
RTVSPropertyOp2
 70
     1
102
RTVSPropertyOp3
 70
     1
102
RTVSPropertyOp4
 70
     1
102
RTVSPropertyOp5
 70
     1
102
RTVSPropertyOp6
 70
     1
102
RTVSPropertyOp7
 70
     1
102
RTVSPropertyOp8
 70
     1
102
RTVSPropertyOp9
 70
     1
102
RTVSPropertyOp10
 70
     1
102
RTVSPropertyOp11
 70
     1
102
RTVSPropertyOp12
 70
     1
102
RTVSPropertyOp13
 70
     1
102
RTVSPropertyOp14
 70
     1
102
RTVSPropertyOp15
 70
     1
102
RTVSPropertyOp16
 70
     1
102
RTVSPropertyOp17
 70
     1
102
RTVSPropertyOp18
 70
     1
102
RTVSPropertyOp19
 70
     1
102
RTVSPropertyOp20
 70
     1
102
RTVSPropertyOp21
 70
     1
102
RTVSPropertyOp22
 70
     1
102
RTVSPropertyOp23
 70
     1
102
RTVSPropertyOp24
 70
     1
102
RTVSPropertyOp25
 70
     1
102
RTVSPropertyOp26
 70
     1
102
RTVSPropertyOp27
 70
     1
102
RTVSPropertyOp28
 70
     1
102
RTVSPropertyOp29
 70
     1
102
RTVSPropertyOp30
 70
     1
102
RTVSPropertyOp31
 70
     1
102
RTVSPropertyOp32
 70
     1
  0
XRECORD
  5
6154
102
{ACAD_REACTORS
330
6153
102
}
330
6153
100
AcDbXrecord
280
     1
102
RTVSPropertyOp0
 70
     1
102
RTVSPropertyOp1
 70
     1
102
RTVSPropertyOp2
 70
     1
102
RTVSPropertyOp3
 70
     1
102
RTVSPropertyOp4
 70
     1
102
RTVSPropertyOp5
 70
     1
102
RTVSPropertyOp6
 70
     1
102
RTVSPropertyOp7
 70
     1
102
RTVSPropertyOp8
 70
     1
102
RTVSPropertyOp9
 70
     1
102
RTVSPropertyOp10
 70
     1
102
RTVSPropertyOp11
 70
     1
102
RTVSPropertyOp12
 70
     1
102
RTVSPropertyOp13
 70
     1
102
RTVSPropertyOp14
 70
     1
102
RTVSPropertyOp15
 70
     1
102
RTVSPropertyOp16
 70
     1
102
RTVSPropertyOp17
 70
     1
102
RTVSPropertyOp18
 70
     1
102
RTVSPropertyOp19
 70
     1
102
RTVSPropertyOp20
 70
     1
102
RTVSPropertyOp21
 70
     1
102
RTVSPropertyOp22
 70
     1
102
RTVSPropertyOp23
 70
     1
102
RTVSPropertyOp24
 70
     1
102
RTVSPropertyOp25
 70
     1
102
RTVSPropertyOp26
 70
     1
102
RTVSPropertyOp27
 70
     1
102
RTVSPropertyOp28
 70
     1
102
RTVSPropertyOp29
 70
     1
102
RTVSPropertyOp30
 70
     1
102
RTVSPropertyOp31
 70
     1
102
RTVSPropertyOp32
 70
     1
  0
XRECORD
  5
6162
102
{ACAD_REACTORS
330
6161
102
}
330
6161
100
AcDbXrecord
280
     1
102
RTVSPropertyOp0
 70
     1
102
RTVSPropertyOp1
 70
     1
102
RTVSPropertyOp2
 70
     1
102
RTVSPropertyOp3
 70
     1
102
RTVSPropertyOp4
 70
     1
102
RTVSPropertyOp5
 70
     1
102
RTVSPropertyOp6
 70
     1
102
RTVSPropertyOp7
 70
     1
102
RTVSPropertyOp8
 70
     1
102
RTVSPropertyOp9
 70
     1
102
RTVSPropertyOp10
 70
     1
102
RTVSPropertyOp11
 70
     1
102
RTVSPropertyOp12
 70
     1
102
RTVSPropertyOp13
 70
     1
102
RTVSPropertyOp14
 70
     1
102
RTVSPropertyOp15
 70
     1
102
RTVSPropertyOp16
 70
     1
102
RTVSPropertyOp17
 70
     1
102
RTVSPropertyOp18
 70
     1
102
RTVSPropertyOp19
 70
     1
102
RTVSPropertyOp20
 70
     1
102
RTVSPropertyOp21
 70
     1
102
RTVSPropertyOp22
 70
     1
102
RTVSPropertyOp23
 70
     1
102
RTVSPropertyOp24
 70
     1
102
RTVSPropertyOp25
 70
     1
102
RTVSPropertyOp26
 70
     1
102
RTVSPropertyOp27
 70
     1
102
RTVSPropertyOp28
 70
     1
102
RTVSPropertyOp29
 70
     1
102
RTVSPropertyOp30
 70
     1
102
RTVSPropertyOp31
 70
     1
102
RTVSPropertyOp32
 70
     1
  0
XRECORD
  5
616A
102
{ACAD_REACTORS
330
6169
102
}
330
6169
100
AcDbXrecord
280
     1
102
RTVSPropertyOp0
 70
     1
102
RTVSPropertyOp1
 70
     1
102
RTVSPropertyOp2
 70
     1
102
RTVSPropertyOp3
 70
     1
102
RTVSPropertyOp4
 70
     1
102
RTVSPropertyOp5
 70
     1
102
RTVSPropertyOp6
 70
     1
102
RTVSPropertyOp7
 70
     1
102
RTVSPropertyOp8
 70
     1
102
RTVSPropertyOp9
 70
     1
102
RTVSPropertyOp10
 70
     1
102
RTVSPropertyOp11
 70
     1
102
RTVSPropertyOp12
 70
     1
102
RTVSPropertyOp13
 70
     1
102
RTVSPropertyOp14
 70
     1
102
RTVSPropertyOp15
 70
     1
102
RTVSPropertyOp16
 70
     1
102
RTVSPropertyOp17
 70
     1
102
RTVSPropertyOp18
 70
     1
102
RTVSPropertyOp19
 70
     1
102
RTVSPropertyOp20
 70
     1
102
RTVSPropertyOp21
 70
     1
102
RTVSPropertyOp22
 70
     1
102
RTVSPropertyOp23
 70
     1
102
RTVSPropertyOp24
 70
     1
102
RTVSPropertyOp25
 70
     1
102
RTVSPropertyOp26
 70
     1
102
RTVSPropertyOp27
 70
     1
102
RTVSPropertyOp28
 70
     1
102
RTVSPropertyOp29
 70
     1
102
RTVSPropertyOp30
 70
     1
102
RTVSPropertyOp31
 70
     1
102
RTVSPropertyOp32
 70
     1
  0
XRECORD
  5
615C
102
{ACAD_REACTORS
330
615B
102
}
330
615B
100
AcDbXrecord
280
     1
102
RTVSPropertyOp0
 70
     1
102
RTVSPropertyOp1
 70
     1
102
RTVSPropertyOp2
 70
     1
102
RTVSPropertyOp3
 70
     1
102
RTVSPropertyOp4
 70
     1
102
RTVSPropertyOp5
 70
     1
102
RTVSPropertyOp6
 70
     1
102
RTVSPropertyOp7
 70
     1
102
RTVSPropertyOp8
 70
     1
102
RTVSPropertyOp9
 70
     1
102
RTVSPropertyOp10
 70
     1
102
RTVSPropertyOp11
 70
     1
102
RTVSPropertyOp12
 70
     1
102
RTVSPropertyOp13
 70
     1
102
RTVSPropertyOp14
 70
     1
102
RTVSPropertyOp15
 70
     1
102
RTVSPropertyOp16
 70
     1
102
RTVSPropertyOp17
 70
     1
102
RTVSPropertyOp18
 70
     1
102
RTVSPropertyOp19
 70
     1
102
RTVSPropertyOp20
 70
     1
102
RTVSPropertyOp21
 70
     1
102
RTVSPropertyOp22
 70
     1
102
RTVSPropertyOp23
 70
     1
102
RTVSPropertyOp24
 70
     1
102
RTVSPropertyOp25
 70
     1
102
RTVSPropertyOp26
 70
     1
102
RTVSPropertyOp27
 70
     1
102
RTVSPropertyOp28
 70
     1
102
RTVSPropertyOp29
 70
     1
102
RTVSPropertyOp30
 70
     1
102
RTVSPropertyOp31
 70
     1
102
RTVSPropertyOp32
 70
     1
  0
XRECORD
  5
6160
102
{ACAD_REACTORS
330
615F
102
}
330
615F
100
AcDbXrecord
280
     1
102
RTVSPropertyOp0
 70
     1
102
RTVSPropertyOp1
 70
     1
102
RTVSPropertyOp2
 70
     1
102
RTVSPropertyOp3
 70
     1
102
RTVSPropertyOp4
 70
     1
102
RTVSPropertyOp5
 70
     1
102
RTVSPropertyOp6
 70
     1
102
RTVSPropertyOp7
 70
     1
102
RTVSPropertyOp8
 70
     1
102
RTVSPropertyOp9
 70
     1
102
RTVSPropertyOp10
 70
     1
102
RTVSPropertyOp11
 70
     1
102
RTVSPropertyOp12
 70
     1
102
RTVSPropertyOp13
 70
     1
102
RTVSPropertyOp14
 70
     1
102
RTVSPropertyOp15
 70
     1
102
RTVSPropertyOp16
 70
     1
102
RTVSPropertyOp17
 70
     1
102
RTVSPropertyOp18
 70
     1
102
RTVSPropertyOp19
 70
     1
102
RTVSPropertyOp20
 70
     1
102
RTVSPropertyOp21
 70
     1
102
RTVSPropertyOp22
 70
     1
102
RTVSPropertyOp23
 70
     1
102
RTVSPropertyOp24
 70
     1
102
RTVSPropertyOp25
 70
     1
102
RTVSPropertyOp26
 70
     1
102
RTVSPropertyOp27
 70
     1
102
RTVSPropertyOp28
 70
     1
102
RTVSPropertyOp29
 70
     1
102
RTVSPropertyOp30
 70
     1
102
RTVSPropertyOp31
 70
     1
102
RTVSPropertyOp32
 70
     1
  0
XRECORD
  5
617F
102
{ACAD_REACTORS
330
617E
102
}
330
617E
100
AcDbXrecord
280
     1
102
RTVSPropertyOp0
 70
     0
102
RTVSPropertyOp1
 70
     0
102
RTVSPropertyOp2
 70
     0
102
RTVSPropertyOp3
 70
     0
102
RTVSPropertyOp4
 70
     0
102
RTVSPropertyOp5
 70
     0
102
RTVSPropertyOp6
 70
     0
102
RTVSPropertyOp7
 70
     0
102
RTVSPropertyOp8
 70
     0
102
RTVSPropertyOp9
 70
     0
102
RTVSPropertyOp10
 70
     0
102
RTVSPropertyOp11
 70
     0
102
RTVSPropertyOp12
 70
     0
102
RTVSPropertyOp13
 70
     0
102
RTVSPropertyOp14
 70
     2
102
RTVSPropertyOp15
 70
     0
102
RTVSPropertyOp16
 70
     0
102
RTVSPropertyOp17
 70
     0
102
RTVSPropertyOp18
 70
     0
102
RTVSPropertyOp19
 70
     0
102
RTVSPropertyOp20
 70
     0
102
RTVSPropertyOp21
 70
     0
102
RTVSPropertyOp22
 70
     0
102
RTVSPropertyOp23
 70
     0
102
RTVSPropertyOp24
 70
     0
102
RTVSPropertyOp25
 70
     0
102
RTVSPropertyOp26
 70
     0
102
RTVSPropertyOp27
 70
     0
102
RTVSPropertyOp28
 70
     1
102
RTVSPropertyOp29
 70
     1
102
RTVSPropertyOp30
 70
     1
102
RTVSPropertyOp31
 70
     1
102
RTVSPropertyOp32
 70
     1
  0
XRECORD
  5
6168
102
{ACAD_REACTORS
330
6167
102
}
330
6167
100
AcDbXrecord
280
     1
102
RTVSPropertyOp0
 70
     1
102
RTVSPropertyOp1
 70
     1
102
RTVSPropertyOp2
 70
     1
102
RTVSPropertyOp3
 70
     1
102
RTVSPropertyOp4
 70
     1
102
RTVSPropertyOp5
 70
     1
102
RTVSPropertyOp6
 70
     1
102
RTVSPropertyOp7
 70
     1
102
RTVSPropertyOp8
 70
     1
102
RTVSPropertyOp9
 70
     1
102
RTVSPropertyOp10
 70
     1
102
RTVSPropertyOp11
 70
     1
102
RTVSPropertyOp12
 70
     1
102
RTVSPropertyOp13
 70
     1
102
RTVSPropertyOp14
 70
     1
102
RTVSPropertyOp15
 70
     1
102
RTVSPropertyOp16
 70
     1
102
RTVSPropertyOp17
 70
     1
102
RTVSPropertyOp18
 70
     1
102
RTVSPropertyOp19
 70
     1
102
RTVSPropertyOp20
 70
     1
102
RTVSPropertyOp21
 70
     1
102
RTVSPropertyOp22
 70
     1
102
RTVSPropertyOp23
 70
     1
102
RTVSPropertyOp24
 70
     1
102
RTVSPropertyOp25
 70
     1
102
RTVSPropertyOp26
 70
     1
102
RTVSPropertyOp27
 70
     1
102
RTVSPropertyOp28
 70
     1
102
RTVSPropertyOp29
 70
     1
102
RTVSPropertyOp30
 70
     1
102
RTVSPropertyOp31
 70
     1
102
RTVSPropertyOp32
 70
     1
  0
XRECORD
  5
614C
102
{ACAD_REACTORS
330
614B
102
}
330
614B
100
AcDbXrecord
280
     1
102
RTVSPropertyOp0
 70
     1
102
RTVSPropertyOp1
 70
     1
102
RTVSPropertyOp2
 70
     1
102
RTVSPropertyOp3
 70
     1
102
RTVSPropertyOp4
 70
     1
102
RTVSPropertyOp5
 70
     1
102
RTVSPropertyOp6
 70
     1
102
RTVSPropertyOp7
 70
     1
102
RTVSPropertyOp8
 70
     1
102
RTVSPropertyOp9
 70
     1
102
RTVSPropertyOp10
 70
     1
102
RTVSPropertyOp11
 70
     1
102
RTVSPropertyOp12
 70
     1
102
RTVSPropertyOp13
 70
     1
102
RTVSPropertyOp14
 70
     1
102
RTVSPropertyOp15
 70
     1
102
RTVSPropertyOp16
 70
     1
102
RTVSPropertyOp17
 70
     1
102
RTVSPropertyOp18
 70
     1
102
RTVSPropertyOp19
 70
     1
102
RTVSPropertyOp20
 70
     1
102
RTVSPropertyOp21
 70
     1
102
RTVSPropertyOp22
 70
     1
102
RTVSPropertyOp23
 70
     1
102
RTVSPropertyOp24
 70
     1
102
RTVSPropertyOp25
 70
     1
102
RTVSPropertyOp26
 70
     1
102
RTVSPropertyOp27
 70
     1
102
RTVSPropertyOp28
 70
     1
102
RTVSPropertyOp29
 70
     1
102
RTVSPropertyOp30
 70
     1
102
RTVSPropertyOp31
 70
     1
102
RTVSPropertyOp32
 70
     1
  0
XRECORD
  5
614E
102
{ACAD_REACTORS
330
614D
102
}
330
614D
100
AcDbXrecord
280
     1
102
RTVSPropertyOp0
 70
     1
102
RTVSPropertyOp1
 70
     1
102
RTVSPropertyOp2
 70
     1
102
RTVSPropertyOp3
 70
     1
102
RTVSPropertyOp4
 70
     1
102
RTVSPropertyOp5
 70
     1
102
RTVSPropertyOp6
 70
     1
102
RTVSPropertyOp7
 70
     1
102
RTVSPropertyOp8
 70
     1
102
RTVSPropertyOp9
 70
     1
102
RTVSPropertyOp10
 70
     1
102
RTVSPropertyOp11
 70
     1
102
RTVSPropertyOp12
 70
     1
102
RTVSPropertyOp13
 70
     1
102
RTVSPropertyOp14
 70
     1
102
RTVSPropertyOp15
 70
     1
102
RTVSPropertyOp16
 70
     1
102
RTVSPropertyOp17
 70
     1
102
RTVSPropertyOp18
 70
     1
102
RTVSPropertyOp19
 70
     1
102
RTVSPropertyOp20
 70
     1
102
RTVSPropertyOp21
 70
     1
102
RTVSPropertyOp22
 70
     1
102
RTVSPropertyOp23
 70
     1
102
RTVSPropertyOp24
 70
     1
102
RTVSPropertyOp25
 70
     1
102
RTVSPropertyOp26
 70
     1
102
RTVSPropertyOp27
 70
     1
102
RTVSPropertyOp28
 70
     1
102
RTVSPropertyOp29
 70
     1
102
RTVSPropertyOp30
 70
     1
102
RTVSPropertyOp31
 70
     1
102
RTVSPropertyOp32
 70
     1
  0
XRECORD
  5
6150
102
{ACAD_REACTORS
330
614F
102
}
330
614F
100
AcDbXrecord
280
     1
102
RTVSPropertyOp0
 70
     1
102
RTVSPropertyOp1
 70
     1
102
RTVSPropertyOp2
 70
     1
102
RTVSPropertyOp3
 70
     1
102
RTVSPropertyOp4
 70
     1
102
RTVSPropertyOp5
 70
     1
102
RTVSPropertyOp6
 70
     1
102
RTVSPropertyOp7
 70
     1
102
RTVSPropertyOp8
 70
     1
102
RTVSPropertyOp9
 70
     1
102
RTVSPropertyOp10
 70
     1
102
RTVSPropertyOp11
 70
     1
102
RTVSPropertyOp12
 70
     1
102
RTVSPropertyOp13
 70
     1
102
RTVSPropertyOp14
 70
     1
102
RTVSPropertyOp15
 70
     1
102
RTVSPropertyOp16
 70
     1
102
RTVSPropertyOp17
 70
     1
102
RTVSPropertyOp18
 70
     1
102
RTVSPropertyOp19
 70
     1
102
RTVSPropertyOp20
 70
     1
102
RTVSPropertyOp21
 70
     1
102
RTVSPropertyOp22
 70
     1
102
RTVSPropertyOp23
 70
     1
102
RTVSPropertyOp24
 70
     1
102
RTVSPropertyOp25
 70
     1
102
RTVSPropertyOp26
 70
     1
102
RTVSPropertyOp27
 70
     1
102
RTVSPropertyOp28
 70
     1
102
RTVSPropertyOp29
 70
     1
102
RTVSPropertyOp30
 70
     1
102
RTVSPropertyOp31
 70
     1
102
RTVSPropertyOp32
 70
     1
  0
XRECORD
  5
6152
102
{ACAD_REACTORS
330
6151
102
}
330
6151
100
AcDbXrecord
280
     1
102
RTVSPropertyOp0
 70
     1
102
RTVSPropertyOp1
 70
     1
102
RTVSPropertyOp2
 70
     1
102
RTVSPropertyOp3
 70
     1
102
RTVSPropertyOp4
 70
     1
102
RTVSPropertyOp5
 70
     1
102
RTVSPropertyOp6
 70
     1
102
RTVSPropertyOp7
 70
     1
102
RTVSPropertyOp8
 70
     1
102
RTVSPropertyOp9
 70
     1
102
RTVSPropertyOp10
 70
     1
102
RTVSPropertyOp11
 70
     1
102
RTVSPropertyOp12
 70
     1
102
RTVSPropertyOp13
 70
     1
102
RTVSPropertyOp14
 70
     1
102
RTVSPropertyOp15
 70
     1
102
RTVSPropertyOp16
 70
     1
102
RTVSPropertyOp17
 70
     1
102
RTVSPropertyOp18
 70
     1
102
RTVSPropertyOp19
 70
     1
102
RTVSPropertyOp20
 70
     1
102
RTVSPropertyOp21
 70
     1
102
RTVSPropertyOp22
 70
     1
102
RTVSPropertyOp23
 70
     1
102
RTVSPropertyOp24
 70
     1
102
RTVSPropertyOp25
 70
     1
102
RTVSPropertyOp26
 70
     1
102
RTVSPropertyOp27
 70
     1
102
RTVSPropertyOp28
 70
     1
102
RTVSPropertyOp29
 70
     1
102
RTVSPropertyOp30
 70
     1
102
RTVSPropertyOp31
 70
     1
102
RTVSPropertyOp32
 70
     1
  0
XRECORD
  5
616F
102
{ACAD_REACTORS
330
616E
102
}
330
616E
100
AcDbXrecord
280
     1
102
RTVSPropertyOp0
 70
     1
102
RTVSPropertyOp1
 70
     1
102
RTVSPropertyOp2
 70
     1
102
RTVSPropertyOp3
 70
     1
102
RTVSPropertyOp4
 70
     1
102
RTVSPropertyOp5
 70
     1
102
RTVSPropertyOp6
 70
     1
102
RTVSPropertyOp7
 70
     1
102
RTVSPropertyOp8
 70
     1
102
RTVSPropertyOp9
 70
     1
102
RTVSPropertyOp10
 70
     1
102
RTVSPropertyOp11
 70
     1
102
RTVSPropertyOp12
 70
     1
102
RTVSPropertyOp13
 70
     1
102
RTVSPropertyOp14
 70
     1
102
RTVSPropertyOp15
 70
     1
102
RTVSPropertyOp16
 70
     1
102
RTVSPropertyOp17
 70
     1
102
RTVSPropertyOp18
 70
     1
102
RTVSPropertyOp19
 70
     1
102
RTVSPropertyOp20
 70
     1
102
RTVSPropertyOp21
 70
     1
102
RTVSPropertyOp22
 70
     1
102
RTVSPropertyOp23
 70
     1
102
RTVSPropertyOp24
 70
     1
102
RTVSPropertyOp25
 70
     1
102
RTVSPropertyOp26
 70
     1
102
RTVSPropertyOp27
 70
     1
102
RTVSPropertyOp28
 70
     1
102
RTVSPropertyOp29
 70
     1
102
RTVSPropertyOp30
 70
     1
102
RTVSPropertyOp31
 70
     1
102
RTVSPropertyOp32
 70
     1
  0
XRECORD
  5
617B
102
{ACAD_REACTORS
330
617A
102
}
330
617A
100
AcDbXrecord
280
     1
102
RTVSPropertyOp0
 70
     0
102
RTVSPropertyOp1
 70
     0
102
RTVSPropertyOp2
 70
     0
102
RTVSPropertyOp3
 70
     0
102
RTVSPropertyOp4
 70
     0
102
RTVSPropertyOp5
 70
     0
102
RTVSPropertyOp6
 70
     0
102
RTVSPropertyOp7
 70
     0
102
RTVSPropertyOp8
 70
     0
102
RTVSPropertyOp9
 70
     0
102
RTVSPropertyOp10
 70
     0
102
RTVSPropertyOp11
 70
     0
102
RTVSPropertyOp12
 70
     0
102
RTVSPropertyOp13
 70
     0
102
RTVSPropertyOp14
 70
     2
102
RTVSPropertyOp15
 70
     0
102
RTVSPropertyOp16
 70
     0
102
RTVSPropertyOp17
 70
     0
102
RTVSPropertyOp18
 70
     0
102
RTVSPropertyOp19
 70
     0
102
RTVSPropertyOp20
 70
     0
102
RTVSPropertyOp21
 70
     0
102
RTVSPropertyOp22
 70
     0
102
RTVSPropertyOp23
 70
     0
102
RTVSPropertyOp24
 70
     0
102
RTVSPropertyOp25
 70
     0
102
RTVSPropertyOp26
 70
     0
102
RTVSPropertyOp27
 70
     0
102
RTVSPropertyOp28
 70
     1
102
RTVSPropertyOp29
 70
     1
102
RTVSPropertyOp30
 70
     1
102
RTVSPropertyOp31
 70
     1
102
RTVSPropertyOp32
 70
     1
  0
XRECORD
  5
6166
102
{ACAD_REACTORS
330
6165
102
}
330
6165
100
AcDbXrecord
280
     1
102
RTVSPropertyOp0
 70
     1
102
RTVSPropertyOp1
 70
     1
102
RTVSPropertyOp2
 70
     1
102
RTVSPropertyOp3
 70
     1
102
RTVSPropertyOp4
 70
     1
102
RTVSPropertyOp5
 70
     1
102
RTVSPropertyOp6
 70
     1
102
RTVSPropertyOp7
 70
     1
102
RTVSPropertyOp8
 70
     1
102
RTVSPropertyOp9
 70
     1
102
RTVSPropertyOp10
 70
     1
102
RTVSPropertyOp11
 70
     1
102
RTVSPropertyOp12
 70
     1
102
RTVSPropertyOp13
 70
     1
102
RTVSPropertyOp14
 70
     1
102
RTVSPropertyOp15
 70
     1
102
RTVSPropertyOp16
 70
     1
102
RTVSPropertyOp17
 70
     1
102
RTVSPropertyOp18
 70
     1
102
RTVSPropertyOp19
 70
     1
102
RTVSPropertyOp20
 70
     1
102
RTVSPropertyOp21
 70
     1
102
RTVSPropertyOp22
 70
     1
102
RTVSPropertyOp23
 70
     1
102
RTVSPropertyOp24
 70
     1
102
RTVSPropertyOp25
 70
     1
102
RTVSPropertyOp26
 70
     1
102
RTVSPropertyOp27
 70
     1
102
RTVSPropertyOp28
 70
     1
102
RTVSPropertyOp29
 70
     1
102
RTVSPropertyOp30
 70
     1
102
RTVSPropertyOp31
 70
     1
102
RTVSPropertyOp32
 70
     1
  0
XRECORD
  5
617D
102
{ACAD_REACTORS
330
617C
102
}
330
617C
100
AcDbXrecord
280
     1
102
RTVSPropertyOp0
 70
     0
102
RTVSPropertyOp1
 70
     0
102
RTVSPropertyOp2
 70
     0
102
RTVSPropertyOp3
 70
     0
102
RTVSPropertyOp4
 70
     0
102
RTVSPropertyOp5
 70
     0
102
RTVSPropertyOp6
 70
     0
102
RTVSPropertyOp7
 70
     0
102
RTVSPropertyOp8
 70
     0
102
RTVSPropertyOp9
 70
     0
102
RTVSPropertyOp10
 70
     0
102
RTVSPropertyOp11
 70
     0
102
RTVSPropertyOp12
 70
     0
102
RTVSPropertyOp13
 70
     0
102
RTVSPropertyOp14
 70
     2
102
RTVSPropertyOp15
 70
     0
102
RTVSPropertyOp16
 70
     0
102
RTVSPropertyOp17
 70
     0
102
RTVSPropertyOp18
 70
     0
102
RTVSPropertyOp19
 70
     0
102
RTVSPropertyOp20
 70
     0
102
RTVSPropertyOp21
 70
     0
102
RTVSPropertyOp22
 70
     0
102
RTVSPropertyOp23
 70
     0
102
RTVSPropertyOp24
 70
     0
102
RTVSPropertyOp25
 70
     0
102
RTVSPropertyOp26
 70
     0
102
RTVSPropertyOp27
 70
     0
102
RTVSPropertyOp28
 70
     1
102
RTVSPropertyOp29
 70
     1
102
RTVSPropertyOp30
 70
     1
102
RTVSPropertyOp31
 70
     1
102
RTVSPropertyOp32
 70
     1
  0
XRECORD
  5
615E
102
{ACAD_REACTORS
330
615D
102
}
330
615D
100
AcDbXrecord
280
     1
102
RTVSPropertyOp0
 70
     1
102
RTVSPropertyOp1
 70
     1
102
RTVSPropertyOp2
 70
     1
102
RTVSPropertyOp3
 70
     1
102
RTVSPropertyOp4
 70
     1
102
RTVSPropertyOp5
 70
     1
102
RTVSPropertyOp6
 70
     1
102
RTVSPropertyOp7
 70
     1
102
RTVSPropertyOp8
 70
     1
102
RTVSPropertyOp9
 70
     1
102
RTVSPropertyOp10
 70
     1
102
RTVSPropertyOp11
 70
     1
102
RTVSPropertyOp12
 70
     1
102
RTVSPropertyOp13
 70
     1
102
RTVSPropertyOp14
 70
     1
102
RTVSPropertyOp15
 70
     1
102
RTVSPropertyOp16
 70
     1
102
RTVSPropertyOp17
 70
     1
102
RTVSPropertyOp18
 70
     1
102
RTVSPropertyOp19
 70
     1
102
RTVSPropertyOp20
 70
     1
102
RTVSPropertyOp21
 70
     1
102
RTVSPropertyOp22
 70
     1
102
RTVSPropertyOp23
 70
     1
102
RTVSPropertyOp24
 70
     1
102
RTVSPropertyOp25
 70
     1
102
RTVSPropertyOp26
 70
     1
102
RTVSPropertyOp27
 70
     1
102
RTVSPropertyOp28
 70
     1
102
RTVSPropertyOp29
 70
     1
102
RTVSPropertyOp30
 70
     1
102
RTVSPropertyOp31
 70
     1
102
RTVSPropertyOp32
 70
     1
  0
XRECORD
  5
6179
102
{ACAD_REACTORS
330
6178
102
}
330
6178
100
AcDbXrecord
280
     1
102
RTVSPropertyOp0
 70
     1
102
RTVSPropertyOp1
 70
     1
102
RTVSPropertyOp2
 70
     1
102
RTVSPropertyOp3
 70
     1
102
RTVSPropertyOp4
 70
     1
102
RTVSPropertyOp5
 70
     1
102
RTVSPropertyOp6
 70
     1
102
RTVSPropertyOp7
 70
     1
102
RTVSPropertyOp8
 70
     1
102
RTVSPropertyOp9
 70
     1
102
RTVSPropertyOp10
 70
     1
102
RTVSPropertyOp11
 70
     1
102
RTVSPropertyOp12
 70
     1
102
RTVSPropertyOp13
 70
     1
102
RTVSPropertyOp14
 70
     1
102
RTVSPropertyOp15
 70
     1
102
RTVSPropertyOp16
 70
     1
102
RTVSPropertyOp17
 70
     1
102
RTVSPropertyOp18
 70
     1
102
RTVSPropertyOp19
 70
     1
102
RTVSPropertyOp20
 70
     1
102
RTVSPropertyOp21
 70
     1
102
RTVSPropertyOp22
 70
     1
102
RTVSPropertyOp23
 70
     1
102
RTVSPropertyOp24
 70
     1
102
RTVSPropertyOp25
 70
     1
102
RTVSPropertyOp26
 70
     1
102
RTVSPropertyOp27
 70
     1
102
RTVSPropertyOp28
 70
     1
102
RTVSPropertyOp29
 70
     1
102
RTVSPropertyOp30
 70
     1
102
RTVSPropertyOp31
 70
     1
102
RTVSPropertyOp32
 70
     1
  0
XRECORD
  5
6177
102
{ACAD_REACTORS
330
6176
102
}
330
6176
100
AcDbXrecord
280
     1
102
RTVSPropertyOp0
 70
     1
102
RTVSPropertyOp1
 70
     1
102
RTVSPropertyOp2
 70
     1
102
RTVSPropertyOp3
 70
     1
102
RTVSPropertyOp4
 70
     1
102
RTVSPropertyOp5
 70
     1
102
RTVSPropertyOp6
 70
     1
102
RTVSPropertyOp7
 70
     1
102
RTVSPropertyOp8
 70
     1
102
RTVSPropertyOp9
 70
     1
102
RTVSPropertyOp10
 70
     1
102
RTVSPropertyOp11
 70
     1
102
RTVSPropertyOp12
 70
     1
102
RTVSPropertyOp13
 70
     1
102
RTVSPropertyOp14
 70
     1
102
RTVSPropertyOp15
 70
     1
102
RTVSPropertyOp16
 70
     1
102
RTVSPropertyOp17
 70
     1
102
RTVSPropertyOp18
 70
     1
102
RTVSPropertyOp19
 70
     1
102
RTVSPropertyOp20
 70
     1
102
RTVSPropertyOp21
 70
     1
102
RTVSPropertyOp22
 70
     1
102
RTVSPropertyOp23
 70
     1
102
RTVSPropertyOp24
 70
     1
102
RTVSPropertyOp25
 70
     1
102
RTVSPropertyOp26
 70
     1
102
RTVSPropertyOp27
 70
     1
102
RTVSPropertyOp28
 70
     1
102
RTVSPropertyOp29
 70
     1
102
RTVSPropertyOp30
 70
     1
102
RTVSPropertyOp31
 70
     1
102
RTVSPropertyOp32
 70
     1
  0
XRECORD
  5
6171
102
{ACAD_REACTORS
330
6170
102
}
330
6170
100
AcDbXrecord
280
     1
102
RTVSPropertyOp0
 70
     1
102
RTVSPropertyOp1
 70
     1
102
RTVSPropertyOp2
 70
     1
102
RTVSPropertyOp3
 70
     1
102
RTVSPropertyOp4
 70
     1
102
RTVSPropertyOp5
 70
     1
102
RTVSPropertyOp6
 70
     1
102
RTVSPropertyOp7
 70
     1
102
RTVSPropertyOp8
 70
     1
102
RTVSPropertyOp9
 70
     1
102
RTVSPropertyOp10
 70
     1
102
RTVSPropertyOp11
 70
     1
102
RTVSPropertyOp12
 70
     1
102
RTVSPropertyOp13
 70
     1
102
RTVSPropertyOp14
 70
     1
102
RTVSPropertyOp15
 70
     1
102
RTVSPropertyOp16
 70
     1
102
RTVSPropertyOp17
 70
     1
102
RTVSPropertyOp18
 70
     1
102
RTVSPropertyOp19
 70
     1
102
RTVSPropertyOp20
 70
     1
102
RTVSPropertyOp21
 70
     1
102
RTVSPropertyOp22
 70
     1
102
RTVSPropertyOp23
 70
     1
102
RTVSPropertyOp24
 70
     1
102
RTVSPropertyOp25
 70
     1
102
RTVSPropertyOp26
 70
     1
102
RTVSPropertyOp27
 70
     1
102
RTVSPropertyOp28
 70
     1
102
RTVSPropertyOp29
 70
     1
102
RTVSPropertyOp30
 70
     1
102
RTVSPropertyOp31
 70
     1
102
RTVSPropertyOp32
 70
     1
  0
XRECORD
  5
6173
102
{ACAD_REACTORS
330
6172
102
}
330
6172
100
AcDbXrecord
280
     1
102
RTVSPropertyOp0
 70
     1
102
RTVSPropertyOp1
 70
     1
102
RTVSPropertyOp2
 70
     1
102
RTVSPropertyOp3
 70
     1
102
RTVSPropertyOp4
 70
     1
102
RTVSPropertyOp5
 70
     1
102
RTVSPropertyOp6
 70
     1
102
RTVSPropertyOp7
 70
     1
102
RTVSPropertyOp8
 70
     1
102
RTVSPropertyOp9
 70
     1
102
RTVSPropertyOp10
 70
     1
102
RTVSPropertyOp11
 70
     1
102
RTVSPropertyOp12
 70
     1
102
RTVSPropertyOp13
 70
     1
102
RTVSPropertyOp14
 70
     1
102
RTVSPropertyOp15
 70
     1
102
RTVSPropertyOp16
 70
     1
102
RTVSPropertyOp17
 70
     1
102
RTVSPropertyOp18
 70
     1
102
RTVSPropertyOp19
 70
     1
102
RTVSPropertyOp20
 70
     1
102
RTVSPropertyOp21
 70
     1
102
RTVSPropertyOp22
 70
     1
102
RTVSPropertyOp23
 70
     1
102
RTVSPropertyOp24
 70
     1
102
RTVSPropertyOp25
 70
     1
102
RTVSPropertyOp26
 70
     1
102
RTVSPropertyOp27
 70
     1
102
RTVSPropertyOp28
 70
     1
102
RTVSPropertyOp29
 70
     1
102
RTVSPropertyOp30
 70
     1
102
RTVSPropertyOp31
 70
     1
102
RTVSPropertyOp32
 70
     1
  0
XRECORD
  5
6164
102
{ACAD_REACTORS
330
6163
102
}
330
6163
100
AcDbXrecord
280
     1
102
RTVSPropertyOp0
 70
     1
102
RTVSPropertyOp1
 70
     1
102
RTVSPropertyOp2
 70
     1
102
RTVSPropertyOp3
 70
     1
102
RTVSPropertyOp4
 70
     1
102
RTVSPropertyOp5
 70
     1
102
RTVSPropertyOp6
 70
     1
102
RTVSPropertyOp7
 70
     1
102
RTVSPropertyOp8
 70
     1
102
RTVSPropertyOp9
 70
     1
102
RTVSPropertyOp10
 70
     1
102
RTVSPropertyOp11
 70
     1
102
RTVSPropertyOp12
 70
     1
102
RTVSPropertyOp13
 70
     1
102
RTVSPropertyOp14
 70
     1
102
RTVSPropertyOp15
 70
     1
102
RTVSPropertyOp16
 70
     1
102
RTVSPropertyOp17
 70
     1
102
RTVSPropertyOp18
 70
     1
102
RTVSPropertyOp19
 70
     1
102
RTVSPropertyOp20
 70
     1
102
RTVSPropertyOp21
 70
     1
102
RTVSPropertyOp22
 70
     1
102
RTVSPropertyOp23
 70
     1
102
RTVSPropertyOp24
 70
     1
102
RTVSPropertyOp25
 70
     1
102
RTVSPropertyOp26
 70
     1
102
RTVSPropertyOp27
 70
     1
102
RTVSPropertyOp28
 70
     1
102
RTVSPropertyOp29
 70
     1
102
RTVSPropertyOp30
 70
     1
102
RTVSPropertyOp31
 70
     1
102
RTVSPropertyOp32
 70
     1
  0
XRECORD
  5
616D
102
{ACAD_REACTORS
330
616C
102
}
330
616C
100
AcDbXrecord
280
     1
102
RTVSPropertyOp0
 70
     1
102
RTVSPropertyOp1
 70
     1
102
RTVSPropertyOp2
 70
     1
102
RTVSPropertyOp3
 70
     1
102
RTVSPropertyOp4
 70
     1
102
RTVSPropertyOp5
 70
     1
102
RTVSPropertyOp6
 70
     1
102
RTVSPropertyOp7
 70
     1
102
RTVSPropertyOp8
 70
     1
102
RTVSPropertyOp9
 70
     1
102
RTVSPropertyOp10
 70
     1
102
RTVSPropertyOp11
 70
     1
102
RTVSPropertyOp12
 70
     1
102
RTVSPropertyOp13
 70
     1
102
RTVSPropertyOp14
 70
     1
102
RTVSPropertyOp15
 70
     1
102
RTVSPropertyOp16
 70
     1
102
RTVSPropertyOp17
 70
     1
102
RTVSPropertyOp18
 70
     1
102
RTVSPropertyOp19
 70
     1
102
RTVSPropertyOp20
 70
     1
102
RTVSPropertyOp21
 70
     1
102
RTVSPropertyOp22
 70
     1
102
RTVSPropertyOp23
 70
     1
102
RTVSPropertyOp24
 70
     1
102
RTVSPropertyOp25
 70
     1
102
RTVSPropertyOp26
 70
     1
102
RTVSPropertyOp27
 70
     1
102
RTVSPropertyOp28
 70
     1
102
RTVSPropertyOp29
 70
     1
102
RTVSPropertyOp30
 70
     1
102
RTVSPropertyOp31
 70
     1
102
RTVSPropertyOp32
 70
     1
  0
XRECORD
  5
6175
102
{ACAD_REACTORS
330
6174
102
}
330
6174
100
AcDbXrecord
280
     1
102
RTVSPropertyOp0
 70
     1
102
RTVSPropertyOp1
 70
     1
102
RTVSPropertyOp2
 70
     1
102
RTVSPropertyOp3
 70
     1
102
RTVSPropertyOp4
 70
     1
102
RTVSPropertyOp5
 70
     1
102
RTVSPropertyOp6
 70
     1
102
RTVSPropertyOp7
 70
     1
102
RTVSPropertyOp8
 70
     1
102
RTVSPropertyOp9
 70
     1
102
RTVSPropertyOp10
 70
     1
102
RTVSPropertyOp11
 70
     1
102
RTVSPropertyOp12
 70
     1
102
RTVSPropertyOp13
 70
     1
102
RTVSPropertyOp14
 70
     1
102
RTVSPropertyOp15
 70
     1
102
RTVSPropertyOp16
 70
     1
102
RTVSPropertyOp17
 70
     1
102
RTVSPropertyOp18
 70
     1
102
RTVSPropertyOp19
 70
     1
102
RTVSPropertyOp20
 70
     1
102
RTVSPropertyOp21
 70
     1
102
RTVSPropertyOp22
 70
     1
102
RTVSPropertyOp23
 70
     1
102
RTVSPropertyOp24
 70
     1
102
RTVSPropertyOp25
 70
     1
102
RTVSPropertyOp26
 70
     1
102
RTVSPropertyOp27
 70
     1
102
RTVSPropertyOp28
 70
     1
102
RTVSPropertyOp29
 70
     1
102
RTVSPropertyOp30
 70
     1
102
RTVSPropertyOp31
 70
     1
102
RTVSPropertyOp32
 70
     1
  0
ENDSEC
  0
EOF
