  0
SECTION
  2
HEADER
  9
$ACADVER
  1
AC1015
  9
$ACADMAINTVER
 70
     6
  9
$DWGCODEPAGE
  3
ANSI_1252
  9
$INSBASE
 10
0.0
 20
0.0
 30
0.0
  9
$EXTMIN
 10
0.0
 20
0.0
 30
0.0
  9
$EXTMAX
 10
3000.0
 20
4500.0
 30
0.0
  9
$LIMMIN
 10
0.0
 20
0.0
  9
$LIMMAX
 10
3000.0
 20
4500.0
  9
$ORTHOMODE
 70
     0
  9
$REGENMODE
 70
     1
  9
$FILLMODE
 70
     1
  9
$QTEXTMODE
 70
     0
  9
$MIRRTEXT
 70
     1
  9
$LTSCALE
 40
1.0
  9
$ATTMODE
 70
     1
  9
$TEXTSIZE
 40
10.0
  9
$TRACEWID
 40
1.0
  9
$TEXTSTYLE
  7
Standard
  9
$CLAYER
  8
0
  9
$CELTYPE
  6
ByLayer
  9
$CECOLOR
 62
   256
  9
$CELTSCALE
 40
1.0
  9
$DISPSILH
 70
     0
  9
$DIMSCALE
 40
1.0
  9
$DIMASZ
 40
2.5
  9
$DIMEXO
 40
0.625
  9
$DIMDLI
 40
3.75
  9
$DIMRND
 40
0.0
  9
$DIMDLE
 40
0.0
  9
$DIMEXE
 40
1.25
  9
$DIMTP
 40
0.0
  9
$DIMTM
 40
0.0
  9
$DIMTXT
 40
2.5
  9
$DIMCEN
 40
2.5
  9
$DIMTSZ
 40
0.0
  9
$DIMTOL
 70
     0
  9
$DIMLIM
 70
     0
  9
$DIMTIH
 70
     0
  9
$DIMTOH
 70
     0
  9
$DIMSE1
 70
     0
  9
$DIMSE2
 70
     0
  9
$DIMTAD
 70
     1
  9
$DIMZIN
 70
     8
  9
$DIMBLK
  1

  9
$DIMASO
 70
     1
  9
$DIMSHO
 70
     1
  9
$DIMPOST
  1

  9
$DIMAPOST
  1

  9
$DIMALT
 70
     0
  9
$DIMALTD
 70
     3
  9
$DIMALTF
 40
0.0393700787
  9
$DIMLFAC
 40
1.0
  9
$DIMTOFL
 70
     1
  9
$DIMTVP
 40
0.0
  9
$DIMTIX
 70
     0
  9
$DIMSOXD
 70
     0
  9
$DIMSAH
 70
     0
  9
$DIMBLK1
  1

  9
$DIMBLK2
  1

  9
$DIMSTYLE
  2
ISO-25
  9
$DIMCLRD
 70
     0
  9
$DIMCLRE
 70
     0
  9
$DIMCLRT
 70
     0
  9
$DIMTFAC
 40
1.0
  9
$DIMGAP
 40
0.625
  9
$DIMJUST
 70
     0
  9
$DIMSD1
 70
     0
  9
$DIMSD2
 70
     0
  9
$DIMTOLJ
 70
     0
  9
$DIMTZIN
 70
     8
  9
$DIMALTZ
 70
     0
  9
$DIMALTTZ
 70
     0
  9
$DIMUPT
 70
     0
  9
$DIMDEC
 70
     2
  9
$DIMTDEC
 70
     2
  9
$DIMALTU
 70
     2
  9
$DIMALTTD
 70
     3
  9
$DIMTXSTY
  7
Standard
  9
$DIMAUNIT
 70
     0
  9
$DIMADEC
 70
     0
  9
$DIMALTRND
 40
0.0
  9
$DIMAZIN
 70
     0
  9
$DIMDSEP
 70
    44
  9
$DIMATFIT
 70
     3
  9
$DIMFRAC
 70
     0
  9
$DIMLDRBLK
  1

  9
$DIMLUNIT
 70
     2
  9
$DIMLWD
 70
    -2
  9
$DIMLWE
 70
    -2
  9
$DIMTMOVE
 70
     0
  9
$LUNITS
 70
     2
  9
$LUPREC
 70
     4
  9
$SKETCHINC
 40
1.0
  9
$FILLETRAD
 40
10.0
  9
$AUNITS
 70
     0
  9
$AUPREC
 70
     0
  9
$MENU
  1
.
  9
$ELEVATION
 40
0.0
  9
$PELEVATION
 40
0.0
  9
$THICKNESS
 40
0.0
  9
$LIMCHECK
 70
     0
  9
$CHAMFERA
 40
0.0
  9
$CHAMFERB
 40
0.0
  9
$CHAMFERC
 40
0.0
  9
$CHAMFERD
 40
0.0
  9
$SKPOLY
 70
     0
  9
$TDCREATE
 40
2457794.561549121
  9
$TDUCREATE
 40
2457794.519882454
  9
$TDUPDATE
 40
2457794.56155191
  9
$TDUUPDATE
 40
2457794.519885243
  9
$TDINDWG
 40
0.0000000116
  9
$TDUSRTIMER
 40
0.0000000116
  9
$USRTIMER
 70
     1
  9
$ANGBASE
 50
0.0
  9
$ANGDIR
 70
     0
  9
$PDMODE
 70
     0
  9
$PDSIZE
 40
0.0
  9
$PLINEWID
 40
0.0
  9
$SPLFRAME
 70
     0
  9
$SPLINETYPE
 70
     6
  9
$SPLINESEGS
 70
     8
  9
$HANDSEED
  5
27A
  9
$SURFTAB1
 70
     6
  9
$SURFTAB2
 70
     6
  9
$SURFTYPE
 70
     6
  9
$SURFU
 70
     6
  9
$SURFV
 70
     6
  9
$UCSBASE
  2

  9
$UCSNAME
  2

  9
$UCSORG
 10
0.0
 20
0.0
 30
0.0
  9
$UCSXDIR
 10
1.0
 20
0.0
 30
0.0
  9
$UCSYDIR
 10
0.0
 20
1.0
 30
0.0
  9
$UCSORTHOREF
  2

  9
$UCSORTHOVIEW
 70
     0
  9
$UCSORGTOP
 10
0.0
 20
0.0
 30
0.0
  9
$UCSORGBOTTOM
 10
0.0
 20
0.0
 30
0.0
  9
$UCSORGLEFT
 10
0.0
 20
0.0
 30
0.0
  9
$UCSORGRIGHT
 10
0.0
 20
0.0
 30
0.0
  9
$UCSORGFRONT
 10
0.0
 20
0.0
 30
0.0
  9
$UCSORGBACK
 10
0.0
 20
0.0
 30
0.0
  9
$PUCSBASE
  2

  9
$PUCSNAME
  2

  9
$PUCSORG
 10
0.0
 20
0.0
 30
0.0
  9
$PUCSXDIR
 10
1.0
 20
0.0
 30
0.0
  9
$PUCSYDIR
 10
0.0
 20
1.0
 30
0.0
  9
$PUCSORTHOREF
  2

  9
$PUCSORTHOVIEW
 70
     0
  9
$PUCSORGTOP
 10
0.0
 20
0.0
 30
0.0
  9
$PUCSORGBOTTOM
 10
0.0
 20
0.0
 30
0.0
  9
$PUCSORGLEFT
 10
0.0
 20
0.0
 30
0.0
  9
$PUCSORGRIGHT
 10
0.0
 20
0.0
 30
0.0
  9
$PUCSORGFRONT
 10
0.0
 20
0.0
 30
0.0
  9
$PUCSORGBACK
 10
0.0
 20
0.0
 30
0.0
  9
$USERI1
 70
     0
  9
$USERI2
 70
     0
  9
$USERI3
 70
     0
  9
$USERI4
 70
     0
  9
$USERI5
 70
     0
  9
$USERR1
 40
0.0
  9
$USERR2
 40
0.0
  9
$USERR3
 40
0.0
  9
$USERR4
 40
0.0
  9
$USERR5
 40
0.0
  9
$WORLDVIEW
 70
     1
  9
$SHADEDGE
 70
     3
  9
$SHADEDIF
 70
    70
  9
$TILEMODE
 70
     1
  9
$MAXACTVP
 70
    64
  9
$PINSBASE
 10
0.0
 20
0.0
 30
0.0
  9
$PLIMCHECK
 70
     0
  9
$PEXTMIN
 10
0.0
 20
0.0
 30
0.0
  9
$PEXTMAX
 10
3000.0
 20
4500.0
 30
0.0
  9
$PLIMMIN
 10
0.0
 20
0.0
  9
$PLIMMAX
 10
3000.0
 20
4500.0
  9
$UNITMODE
 70
     0
  9
$VISRETAIN
 70
     1
  9
$PLINEGEN
 70
     0
  9
$PSLTSCALE
 70
     1
  9
$TREEDEPTH
 70
  3020
  9
$CMLSTYLE
  2
Standard
  9
$CMLJUST
 70
     0
  9
$CMLSCALE
 40
20.0
  9
$PROXYGRAPHICS
 70
     1
  9
$MEASUREMENT
 70
     1
  9
$CELWEIGHT
370
    -1
  9
$ENDCAPS
280
     0
  9
$JOINSTYLE
280
     0
  9
$LWDISPLAY
290
     0
  9
$INSUNITS
 70
     4
  9
$HYPERLINKBASE
  1

  9
$STYLESHEET
  1

  9
$XEDIT
290
     1
  9
$CEPSNTYPE
380
     0
  9
$PSTYLEMODE
290
     1
  9
$FINGERPRINTGUID
  2
{45FFAFB0-F928-42EB-8191-1684F15912E0}
  9
$VERSIONGUID
  2
{FAEB1C32-E019-11D5-929B-00C0DF256EC4}
  9
$EXTNAMES
290
     1
  9
$PSVPSCALE
 40
0.0
  9
$OLESTARTUP
290
     0
  0
ENDSEC
  0
SECTION
  2
CLASSES
  0
CLASS
  1
ACDBDICTIONARYWDFLT
  2
AcDbDictionaryWithDefault
  3
ObjectDBX Classes
 90
        0
280
     0
281
     0
  0
CLASS
  1
VISUALSTYLE
  2
AcDbVisualStyle
  3
ObjectDBX Classes
 90
     4095
280
     0
281
     0
  0
CLASS
  1
MATERIAL
  2
AcDbMaterial
  3
ObjectDBX Classes
 90
     1153
280
     0
281
     0
  0
CLASS
  1
SCALE
  2
AcDbScale
  3
ObjectDBX Classes
 90
     1153
280
     0
281
     0
  0
CLASS
  1
SUN
  2
AcDbSun
  3
SCENEOE
 90
     1153
280
     0
281
     0
  0
CLASS
  1
DICTIONARYVAR
  2
AcDbDictionaryVar
  3
ObjectDBX Classes
 90
        0
280
     0
281
     0
  0
CLASS
  1
ACDBPLACEHOLDER
  2
AcDbPlaceHolder
  3
ObjectDBX Classes
 90
        0
280
     0
281
     0
  0
CLASS
  1
LAYOUT
  2
AcDbLayout
  3
ObjectDBX Classes
 90
        0
280
     0
281
     0
  0
ENDSEC
  0
SECTION
  2
TABLES
  0
TABLE
  2
VPORT
  5
8
330
0
100
AcDbSymbolTable
 70
     1
  0
VPORT
  5
29
330
8
100
AcDbSymbolTableRecord
100
AcDbViewportTableRecord
  2
*Active
 70
     0
 10
0.0
 20
0.0
 11
1.0
 21
1.0
 12
344.1869158879
 22
148.5
 13
0.0
 23
0.0
 14
10.0
 24
10.0
 15
10.0
 25
10.0
 16
0.0
 26
0.0
 36
1.0
 17
0.0
 27
0.0
 37
0.0
 40
297.0
 41
1.9729729729
 42
50.0
 43
0.0
 44
0.0
 50
0.0
 51
0.0
 71
     0
 72
   100
 73
     1
 74
     3
 75
     0
 76
     0
 77
     0
 78
     0
281
     0
 65
     1
110
0.0
120
0.0
130
0.0
111
1.0
121
0.0
131
0.0
112
0.0
122
1.0
132
0.0
 79
     0
146
0.0
  0
ENDTAB
  0
TABLE
  2
LTYPE
  5
5
330
0
100
AcDbSymbolTable
 70
     2
  0
LTYPE
  5
14
330
5
100
AcDbSymbolTableRecord
100
AcDbLinetypeTableRecord
  2
ByBlock
 70
     0
  3

 72
    65
 73
     0
 40
0.0
  0
LTYPE
  5
15
330
5
100
AcDbSymbolTableRecord
100
AcDbLinetypeTableRecord
  2
ByLayer
 70
     0
  3

 72
    65
 73
     0
 40
0.0
  0
LTYPE
  5
16
330
5
100
AcDbSymbolTableRecord
100
AcDbLinetypeTableRecord
  2
Continuous
 70
     0
  3
Solid line
 72
    65
 73
     0
 40
0.0
  0
LTYPE
  5
6D
330
5
100
AcDbSymbolTableRecord
100
AcDbLinetypeTableRecord
  2
CENTER2
 70
     0
  3
Center (.5x) ___ _ ___ _ ___ _ ___ _ ___ _ ___
 72
    65
 73
     4
 40
28.575
 49
19.05
 74
     4
 75
     0
340
0
 46
0.0
 50
0.0
 44
0.0
 45
0.0
 49
-3.175
 74
     4
 75
     0
340
0
 46
0.0
 50
0.0
 44
0.0
 45
0.0
 49
3.175
 74
     4
 75
     0
340
0
 46
0.0
 50
0.0
 44
0.0
 45
0.0
 49
-3.175
 74
     4
 75
     0
340
0
 46
0.0
 50
0.0
 44
0.0
 45
0.0
  0
ENDTAB
  0
TABLE
  2
LAYER
  5
2
330
0
100
AcDbSymbolTable
 70
     7
  0
LAYER
  5
10
330
2
100
AcDbSymbolTableRecord
100
AcDbLayerTableRecord
  2
0
 70
     0
 62
     7
  6
Continuous
370
    -3
390
F
  0
LAYER
  5
6A
330
2
100
AcDbSymbolTableRecord
100
AcDbLayerTableRecord
  2
Default
 70
     0
 62
     7
  6
Continuous
370
    -3
390
F
  0
LAYER
  5
94
330
2
100
AcDbSymbolTableRecord
100
AcDbLayerTableRecord
  2
(1_1) 492223038_
 70
     0
 62
     7
  6
Continuous
370
    -3
390
F
  0
LAYER
  5
B9
330
2
100
AcDbSymbolTableRecord
100
AcDbLayerTableRecord
  2
(2_2)_02636038_5
 70
     0
 62
     7
  6
Continuous
370
    -3
390
F
  0
LAYER
  5
D0
330
2
100
AcDbSymbolTableRecord
100
AcDbLayerTableRecord
  2
(1_1) 402748040_
 70
     0
 62
     7
  6
Continuous
370
    -3
390
F
  0
LAYER
  5
1E2
330
2
100
AcDbSymbolTableRecord
100
AcDbLayerTableRecord
  2
(1_1) 492108540_
 70
     0
 62
     7
  6
Continuous
370
    -3
390
F
  0
LAYER
  5
1FB
330
2
100
AcDbSymbolTableRecord
100
AcDbLayerTableRecord
  2
(1_2) 28.15
 70
     0
 62
     7
  6
Continuous
370
    -3
390
F
  0
ENDTAB
  0
TABLE
  2
STYLE
  5
3
330
0
100
AcDbSymbolTable
 70
     1
  0
STYLE
  5
11
330
3
100
AcDbSymbolTableRecord
100
AcDbTextStyleTableRecord
  2
Standard
 70
     0
 40
0.0
 41
1.0
 50
0.0
 71
     0
 42
10.0
  3
txt
  4

  0
ENDTAB
  0
TABLE
  2
VIEW
  5
6
330
0
100
AcDbSymbolTable
 70
     0
  0
ENDTAB
  0
TABLE
  2
UCS
  5
7
330
0
100
AcDbSymbolTable
 70
     0
  0
ENDTAB
  0
TABLE
  2
APPID
  5
9
330
0
100
AcDbSymbolTable
 70
     1
  0
APPID
  5
12
330
9
100
AcDbSymbolTableRecord
100
AcDbRegAppTableRecord
  2
ACAD
 70
     0
  0
ENDTAB
  0
TABLE
  2
DIMSTYLE
  5
A
330
0
100
AcDbSymbolTable
 70
     1
100
AcDbDimStyleTable
  0
DIMSTYLE
105
27
330
A
100
AcDbSymbolTableRecord
100
AcDbDimStyleTableRecord
  2
ISO-25
 70
     0
 41
2.5
 42
0.625
 43
3.75
 44
1.25
 73
     0
 74
     0
 77
     1
 78
     8
140
2.5
141
2.5
143
0.0393700787
147
0.625
171
     3
172
     1
178
     0
271
     2
272
     2
274
     3
278
    44
283
     0
284
     8
340
11
  0
ENDTAB
  0
TABLE
  2
BLOCK_RECORD
  5
1
330
0
100
AcDbSymbolTable
 70
     9
  0
BLOCK_RECORD
  5
1F
330
1
100
AcDbSymbolTableRecord
100
AcDbBlockTableRecord
  2
*Model_Space
340
22
  0
BLOCK_RECORD
  5
1B
330
1
100
AcDbSymbolTableRecord
100
AcDbBlockTableRecord
  2
*Paper_Space
340
1E
  0
BLOCK_RECORD
  5
6B
330
1
100
AcDbSymbolTableRecord
100
AcDbBlockTableRecord
  2
SEANNOT_GROUP
340
0
102
{BLKREFS
331
6C
102
}
  0
BLOCK_RECORD
  5
76
330
1
100
AcDbSymbolTableRecord
100
AcDbBlockTableRecord
  2
SEANNOT_GROUP1
340
0
102
{BLKREFS
331
77
102
}
  0
BLOCK_RECORD
  5
7C
330
1
100
AcDbSymbolTableRecord
100
AcDbBlockTableRecord
  2
SEANNOT_GROUP2
340
0
102
{BLKREFS
331
7D
102
}
  0
BLOCK_RECORD
  5
82
330
1
100
AcDbSymbolTableRecord
100
AcDbBlockTableRecord
  2
SEANNOT_GROUP3
340
0
102
{BLKREFS
331
83
102
}
  0
BLOCK_RECORD
  5
8C
330
1
100
AcDbSymbolTableRecord
100
AcDbBlockTableRecord
  2
SEANNOT_GROUP4
340
0
102
{BLKREFS
331
8D
102
}
  0
BLOCK_RECORD
  5
92
330
1
100
AcDbSymbolTableRecord
100
AcDbBlockTableRecord
  2
SE
340
0
102
{BLKREFS
331
93
102
}
  0
BLOCK_RECORD
  5
1B2
330
1
100
AcDbSymbolTableRecord
100
AcDbBlockTableRecord
  2
SE1
340
0
102
{BLKREFS
331
1B3
102
}
  0
BLOCK_RECORD
  5
20D
330
1
100
AcDbSymbolTableRecord
100
AcDbBlockTableRecord
  2
SE2
340
0
102
{BLKREFS
331
20E
102
}
  0
ENDTAB
  0
ENDSEC
  0
SECTION
  2
BLOCKS
  0
BLOCK
  5
20
330
1F
100
AcDbEntity
  8
0
100
AcDbBlockBegin
  2
*Model_Space
 70
     0
 10
0.0
 20
0.0
 30
0.0
  3
*Model_Space
  1
*Model_Space
  0
ENDBLK
  5
21
330
1F
100
AcDbEntity
  8
0
100
AcDbBlockEnd
  0
BLOCK
  5
1C
330
1B
100
AcDbEntity
 67
     1
  8
0
100
AcDbBlockBegin
  2
*Paper_Space
 70
     0
 10
0.0
 20
0.0
 30
0.0
  3
*Paper_Space
  1
*Paper_Space
  0
ENDBLK
  5
1D
330
1B
100
AcDbEntity
 67
     1
  8
0
100
AcDbBlockEnd
  0
BLOCK
  5
74
330
6B
100
AcDbEntity
  8
0
100
AcDbBlockBegin
  2
SEANNOT_GROUP
 70
     0
 10
0.0
 20
0.0
 30
0.0
  3
SEANNOT_GROUP
  1
SEANNOT_GROUP
  0
LINE
  5
6E
330
6B
100
AcDbEntity
  8
Default
  6
CENTER2
 62
     7
100
AcDbLine
 10
42.4141390414
 20
437.2048145368
 30
0.0
 11
82.4141381474
 21
437.2048145368
 31
0.0
  0
LINE
  5
6F
330
6B
100
AcDbEntity
  8
Default
  6
CENTER2
 62
     7
100
AcDbLine
 10
62.4141385944
 20
417.2048149839
 30
0.0
 11
62.4141385944
 21
457.2048140898
 31
0.0
  0
LINE
  5
70
330
6B
100
AcDbEntity
  8
Default
  6
CENTER2
 62
     7
100
AcDbLine
 10
37.4141400845
 20
437.2048145368
 30
0.0
 11
58.1641385944
 21
437.2048145368
 31
0.0
  0
LINE
  5
71
330
6B
100
AcDbEntity
  8
Default
  6
CENTER2
 62
     7
100
AcDbLine
 10
62.4141385944
 20
412.204816027
 30
0.0
 11
62.4141385944
 21
433.4238595918
 31
0.0
  0
LINE
  5
72
330
6B
100
AcDbEntity
  8
Default
  6
CENTER2
 62
     7
100
AcDbLine
 10
87.4141371043
 20
437.2048145368
 30
0.0
 11
66.6641385944
 21
437.2048145368
 31
0.0
  0
LINE
  5
73
330
6B
100
AcDbEntity
  8
Default
  6
CENTER2
 62
     7
100
AcDbLine
 10
62.4141385944
 20
462.2048130467
 30
0.0
 11
62.4141385944
 21
440.9857694819
 31
0.0
  0
ENDBLK
  5
75
330
6B
100
AcDbEntity
  8
0
100
AcDbBlockEnd
  0
BLOCK
  5
7A
330
76
100
AcDbEntity
  8
0
100
AcDbBlockBegin
  2
SEANNOT_GROUP1
 70
     0
 10
0.0
 20
0.0
 30
0.0
  3
SEANNOT_GROUP1
  1
SEANNOT_GROUP1
  0
LINE
  5
78
330
76
100
AcDbEntity
  8
Default
  6
CENTER2
 62
     7
100
AcDbLine
 10
237.9020184518
 20
330.0514824984
 30
0.0
 11
197.9020193459
 21
330.0514824984
 31
0.0
  0
LINE
  5
79
330
76
100
AcDbEntity
  8
Default
  6
CENTER2
 62
     7
100
AcDbLine
 10
217.9020188988
 20
350.0514820514
 30
0.0
 11
217.9020188988
 21
310.0514829455
 31
0.0
  0
ENDBLK
  5
7B
330
76
100
AcDbEntity
  8
0
100
AcDbBlockEnd
  0
BLOCK
  5
80
330
7C
100
AcDbEntity
  8
0
100
AcDbBlockBegin
  2
SEANNOT_GROUP2
 70
     0
 10
0.0
 20
0.0
 30
0.0
  3
SEANNOT_GROUP2
  1
SEANNOT_GROUP2
  0
LINE
  5
7E
330
7C
100
AcDbEntity
  8
Default
  6
CENTER2
 62
     7
100
AcDbLine
 10
82.4141381474
 20
330.0514824986
 30
0.0
 11
42.4141390414
 21
330.0514824986
 31
0.0
  0
LINE
  5
7F
330
7C
100
AcDbEntity
  8
Default
  6
CENTER2
 62
     7
100
AcDbLine
 10
62.4141385944
 20
350.0514820515
 30
0.0
 11
62.4141385944
 21
310.0514829456
 31
0.0
  0
ENDBLK
  5
81
330
7C
100
AcDbEntity
  8
0
100
AcDbBlockEnd
  0
BLOCK
  5
8A
330
82
100
AcDbEntity
  8
0
100
AcDbBlockBegin
  2
SEANNOT_GROUP3
 70
     0
 10
0.0
 20
0.0
 30
0.0
  3
SEANNOT_GROUP3
  1
SEANNOT_GROUP3
  0
LINE
  5
84
330
82
100
AcDbEntity
  8
Default
  6
CENTER2
 62
     7
100
AcDbLine
 10
82.6201327138
 20
226.8546871663
 30
0.0
 11
42.6201336079
 21
226.8546871663
 31
0.0
  0
LINE
  5
85
330
82
100
AcDbEntity
  8
Default
  6
CENTER2
 62
     7
100
AcDbLine
 10
62.6201331608
 20
246.8546867193
 30
0.0
 11
62.6201331608
 21
206.8546876134
 31
0.0
  0
LINE
  5
86
330
82
100
AcDbEntity
  8
Default
  6
CENTER2
 62
     7
100
AcDbLine
 10
87.6201316707
 20
226.8546871663
 30
0.0
 11
88.446249461
 21
226.8546871663
 31
0.0
  0
LINE
  5
87
330
82
100
AcDbEntity
  8
Default
  6
CENTER2
 62
     7
100
AcDbLine
 10
62.6201331608
 20
251.8546856762
 30
0.0
 11
62.6201331608
 21
252.6808034664
 31
0.0
  0
LINE
  5
88
330
82
100
AcDbEntity
  8
Default
  6
CENTER2
 62
     7
100
AcDbLine
 10
37.620134651
 20
226.8546871663
 30
0.0
 11
36.7940168607
 21
226.8546871663
 31
0.0
  0
LINE
  5
89
330
82
100
AcDbEntity
  8
Default
  6
CENTER2
 62
     7
100
AcDbLine
 10
62.6201331608
 20
201.8546886564
 30
0.0
 11
62.6201331608
 21
201.0285708662
 31
0.0
  0
ENDBLK
  5
8B
330
82
100
AcDbEntity
  8
0
100
AcDbBlockEnd
  0
BLOCK
  5
90
330
8C
100
AcDbEntity
  8
0
100
AcDbBlockBegin
  2
SEANNOT_GROUP4
 70
     0
 10
0.0
 20
0.0
 30
0.0
  3
SEANNOT_GROUP4
  1
SEANNOT_GROUP4
  0
LINE
  5
8E
330
8C
100
AcDbEntity
  8
Default
  6
CENTER2
 62
     7
100
AcDbLine
 10
344.760278957
 20
436.7412226096
 30
0.0
 11
304.760279851
 21
436.7412226096
 31
0.0
  0
LINE
  5
8F
330
8C
100
AcDbEntity
  8
Default
  6
CENTER2
 62
     7
100
AcDbLine
 10
324.760279404
 20
456.7412221625
 30
0.0
 11
324.760279404
 21
416.7412230566
 31
0.0
  0
ENDBLK
  5
91
330
8C
100
AcDbEntity
  8
0
100
AcDbBlockEnd
  0
BLOCK
  5
1B0
330
92
100
AcDbEntity
  8
0
100
AcDbBlockBegin
  2
SE
 70
     0
 10
0.0
 20
0.0
 30
0.0
  3
SE
  1
SE
  0
SPLINE
  5
95
330
92
100
AcDbEntity
  8
(1_1) 492223038_
  6
Continuous
 62
     7
100
AcDbSpline
210
0.0
220
0.0
230
1.0
 70
     8
 71
     3
 72
    22
 73
    18
 74
     0
 42
0.000000001
 43
0.0000000001
 40
0.0
 40
0.0
 40
0.0
 40
0.0
 40
0.0625000000000001
 40
0.0625000000000001
 40
0.1250000000000001
 40
0.1250000000000001
 40
0.25
 40
0.25
 40
0.3749999999999999
 40
0.3749999999999999
 40
0.4999999999999999
 40
0.4999999999999999
 40
0.75
 40
0.75
 40
0.875
 40
0.875
 40
1.0
 40
1.0
 40
1.0
 40
1.0
 10
84.84212399885637
 20
451.5509791829651
 30
0.0
 10
84.83996724723202
 20
451.6413507821034
 30
0.0
 10
84.8019143357758
 20
451.6911267525944
 30
0.0
 10
84.6573844981502
 20
451.8411178544015
 30
0.0
 10
84.55043902194288
 20
451.9195104035589
 30
0.0
 10
84.12441229720835
 20
452.1621855120468
 30
0.0
 10
83.69549112863535
 20
452.3347560868831
 30
0.0
 10
82.58674476233918
 20
452.6651549266513
 30
0.0
 10
81.90586256187495
 20
452.8253045391938
 30
0.0
 10
80.28582106236809
 20
453.1264029627518
 30
0.0
 10
79.35336419759219
 20
453.2680199512808
 30
0.0
 10
76.27998162037953
 20
453.6689890439225
 30
0.0
 10
73.78990470315094
 20
453.9037665135841
 30
0.0
 10
69.73774986888168
 20
454.1220822753053
 30
0.0
 10
68.31182163733598
 20
454.1875162244783
 30
0.0
 10
65.39777856985275
 20
454.3464523567413
 30
0.0
 10
63.90614205148542
 20
454.4072656604168
 30
0.0
 10
62.41413859440642
 20
454.4017571794412
 30
0.0
  0
LINE
  5
96
330
92
100
AcDbEntity
  8
(1_1) 492223038_
  6
Continuous
 62
     7
100
AcDbLine
 10
84.8889990179
 20
451.7629639231
 30
0.0
 11
84.9785674833
 21
440.452083644
 31
0.0
  0
ARC
  5
97
330
92
100
AcDbEntity
  8
(1_1) 492223038_
  6
Continuous
 62
     7
100
AcDbCircle
 10
62.1183468143
 20
440.9856863181
 30
0.0
 40
22.73002378657036
100
AcDbArc
 50
270.7456260997
 51
345.6127720903
  0
SPLINE
  5
98
330
92
100
AcDbEntity
  8
(1_1) 492223038_
  6
Continuous
 62
     7
100
AcDbSpline
210
0.0
220
0.0
230
1.0
 70
     8
 71
     3
 72
    24
 73
    20
 74
     0
 42
0.000000001
 43
0.0000000001
 40
0.0
 40
0.0
 40
0.0
 40
0.0
 40
0.1250000000000001
 40
0.1250000000000001
 40
0.2500000000000001
 40
0.2500000000000001
 40
0.3750000000000002
 40
0.3750000000000002
 40
0.5000000000000002
 40
0.5000000000000002
 40
0.6250000000000002
 40
0.6250000000000002
 40
0.7500000000000003
 40
0.7500000000000003
 40
0.8125000000000002
 40
0.8125000000000002
 40
0.8750000000000001
 40
0.8750000000000001
 40
1.0
 40
1.0
 40
1.0
 40
1.0
 10
62.41413859440642
 20
430.1653132252732
 30
0.0
 10
64.00053656754224
 20
430.1699845625288
 30
0.0
 10
65.55363641107526
 20
430.2633788924584
 30
0.0
 10
68.5968765768138
 20
430.6236802002456
 30
0.0
 10
70.05906249469325
 20
430.8891111199777
 30
0.0
 10
72.77356642653837
 20
431.5524999080424
 30
0.0
 10
74.05193495607337
 20
431.9578839704418
 30
0.0
 10
76.36345430554522
 20
432.8668532162084
 30
0.0
 10
77.38100019668477
 20
433.3608870436059
 30
0.0
 10
79.18748268757554
 20
434.3989557879385
 30
0.0
 10
79.98058022258874
 20
434.9473850114523
 30
0.0
 10
81.346640450835
 20
436.0498053918172
 30
0.0
 10
81.92752371964778
 20
436.6085680297986
 30
0.0
 10
82.6657181989067
 20
437.4241607744765
 30
0.0
 10
82.8904685434211
 20
437.6936356082785
 30
0.0
 10
83.30468572929986
 20
438.2281329830864
 30
0.0
 10
83.49004743752883
 20
438.4862453549119
 30
0.0
 10
84.06581972863638
 20
439.3610687472811
 30
0.0
 10
84.45951417270078
 20
440.0494049515108
 30
0.0
 10
84.8934546411576
 20
440.7564361986705
 30
0.0
  0
LINE
  5
99
330
92
100
AcDbEntity
  8
(1_1) 492223038_
  6
Continuous
 62
     7
100
AcDbLine
 10
84.9482699935
 20
447.0821661126
 30
0.0
 11
84.8581955024
 21
458.4596252229
 31
0.0
  0
ELLIPSE
  5
9A
330
92
100
AcDbEntity
  8
(1_1) 492223038_
  6
Continuous
 62
     7
100
AcDbEllipse
 10
84.3582009461
 20
458.4573006985
 30
0.0
 11
-0.4999843313106961
 21
-0.003958338481435675
 31
0.0
210
0.0
220
0.0
230
1.0
 40
0.9925456897
 41
3.138300418748092
 42
3.247509109611201
  0
ELLIPSE
  5
9B
330
92
100
AcDbEntity
  8
(1_1) 492223038_
  6
Continuous
 62
     7
100
AcDbEllipse
 10
84.4959115759
 20
446.7122900839
 30
0.0
 11
-0.4849242927373043
 21
-0.1218541353970315
 31
0.0
210
0.0
220
0.0
230
1.0
 40
0.9920810617
 41
2.905170626464586
 42
3.141539464463173
  0
LINE
  5
9C
330
92
100
AcDbEntity
  8
(1_1) 492223038_
  6
Continuous
 62
     7
100
AcDbLine
 10
86.3562691932
 20
330.0514824986
 30
0.0
 11
62.4141385944
 21
330.0514824983
 31
0.0
  0
LINE
  5
9D
330
92
100
AcDbEntity
  8
(1_1) 492223038_
  6
Continuous
 62
     7
100
AcDbLine
 10
39.9392781709
 20
451.7629639231
 30
0.0
 11
39.8497097055
 21
440.452083644
 31
0.0
  0
SPLINE
  5
9E
330
92
100
AcDbEntity
  8
(1_1) 492223038_
  6
Continuous
 62
     7
100
AcDbSpline
210
0.0
220
0.0
230
1.0
 70
     8
 71
     3
 72
    22
 73
    18
 74
     0
 42
0.000000001
 43
0.0000000001
 40
0.0
 40
0.0
 40
0.0
 40
0.0
 40
0.0625
 40
0.0625
 40
0.1250000000000001
 40
0.1250000000000001
 40
0.25
 40
0.25
 40
0.3749999999999999
 40
0.3749999999999999
 40
0.4999999999999999
 40
0.4999999999999999
 40
0.7499999999999998
 40
0.7499999999999998
 40
0.8749999999999999
 40
0.8749999999999999
 40
1.0
 40
1.0
 40
1.0
 40
1.0
 10
39.98615318995646
 20
451.5509791829651
 30
0.0
 10
39.98830994158079
 20
451.6413507821034
 30
0.0
 10
40.026362853037
 20
451.6911267525945
 30
0.0
 10
40.17089269066261
 20
451.8411178544015
 30
0.0
 10
40.27783816686993
 20
451.9195104035589
 30
0.0
 10
40.70386489160446
 20
452.1621855120468
 30
0.0
 10
41.13278606017747
 20
452.3347560868831
 30
0.0
 10
42.24153242647364
 20
452.6651549266512
 30
0.0
 10
42.92241462693789
 20
452.8253045391938
 30
0.0
 10
44.54245612644477
 20
453.1264029627518
 30
0.0
 10
45.47491299122064
 20
453.2680199512808
 30
0.0
 10
48.54829556843328
 20
453.6689890439224
 30
0.0
 10
51.03837248566184
 20
453.903766513584
 30
0.0
 10
55.09052731993111
 20
454.1220822753053
 30
0.0
 10
56.51645555147682
 20
454.1875162244782
 30
0.0
 10
59.43049861896005
 20
454.3464523567415
 30
0.0
 10
60.92213513732742
 20
454.4072656604113
 30
0.0
 10
62.41413859440642
 20
454.4017571794412
 30
0.0
  0
SPLINE
  5
9F
330
92
100
AcDbEntity
  8
(1_1) 492223038_
  6
Continuous
 62
     7
100
AcDbSpline
210
0.0
220
0.0
230
1.0
 70
     8
 71
     3
 72
    24
 73
    20
 74
     0
 42
0.000000001
 43
0.0000000001
 40
0.0
 40
0.0
 40
0.0
 40
0.0
 40
0.1249999999999998
 40
0.1249999999999998
 40
0.2499999999999997
 40
0.2499999999999997
 40
0.3749999999999997
 40
0.3749999999999997
 40
0.4999999999999998
 40
0.4999999999999998
 40
0.6249999999999998
 40
0.6249999999999998
 40
0.7499999999999999
 40
0.7499999999999999
 40
0.8124999999999999
 40
0.8124999999999999
 40
0.8749999999999999
 40
0.8749999999999999
 40
1.0
 40
1.0
 40
1.0
 40
1.0
 10
62.41413859440642
 20
430.1653132252732
 30
0.0
 10
60.82774062127059
 20
430.1699845625288
 30
0.0
 10
59.27464077773757
 20
430.2633788924583
 30
0.0
 10
56.23140061199905
 20
430.6236802002456
 30
0.0
 10
54.76921469411948
 20
430.8891111199778
 30
0.0
 10
52.05471076227442
 20
431.5524999080424
 30
0.0
 10
50.77634223273972
 20
431.9578839704417
 30
0.0
 10
48.46482288326744
 20
432.8668532162085
 30
0.0
 10
47.44727699212799
 20
433.360887043606
 30
0.0
 10
45.6407945012372
 20
434.3989557879386
 30
0.0
 10
44.84769696622402
 20
434.9473850114524
 30
0.0
 10
43.48163673797777
 20
436.0498053918174
 30
0.0
 10
42.90075346916523
 20
436.6085680297984
 30
0.0
 10
42.16255898990625
 20
437.4241607744764
 30
0.0
 10
41.93780864539176
 20
437.6936356082786
 30
0.0
 10
41.52359145951297
 20
438.2281329830863
 30
0.0
 10
41.33822975128405
 20
438.486245354912
 30
0.0
 10
40.76245746017659
 20
439.3610687472808
 30
0.0
 10
40.36876283684279
 20
440.0494051142109
 30
0.0
 10
39.93482254765522
 20
440.7564361986705
 30
0.0
  0
ARC
  5
A0
330
92
100
AcDbEntity
  8
(1_1) 492223038_
  6
Continuous
 62
     7
100
AcDbCircle
 10
62.7099303745
 20
440.9856863181
 30
0.0
 40
22.73002378657359
100
AcDbArc
 50
194.3872279097
 51
269.2543739002
  0
ELLIPSE
  5
A1
330
92
100
AcDbEntity
  8
(1_1) 492223038_
  6
Continuous
 62
     7
100
AcDbEllipse
 10
40.4700762428
 20
458.4573006985
 30
0.0
 11
0.4999843313106961
 21
-0.003958338481435675
 31
0.0
210
0.0
220
0.0
230
1.0
 40
0.9925456897
 41
3.034889475167613
 42
3.144884888431494
  0
LINE
  5
A2
330
92
100
AcDbEntity
  8
(1_1) 492223038_
  6
Continuous
 62
     7
100
AcDbLine
 10
39.8800071953
 20
447.0821661126
 30
0.0
 11
39.9700816864
 21
458.4596252229
 31
0.0
  0
ELLIPSE
  5
A3
330
92
100
AcDbEntity
  8
(1_1) 492223038_
  6
Continuous
 62
     7
100
AcDbEllipse
 10
40.3323656129
 20
446.7122900839
 30
0.0
 11
0.4849242927373043
 21
-0.1218541353970315
 31
0.0
210
0.0
220
0.0
230
1.0
 40
0.9920810617
 41
3.142824338402839
 42
3.37801468071494
  0
LINE
  5
A4
330
92
100
AcDbEntity
  8
(1_1) 492223038_
  6
Continuous
 62
     7
100
AcDbLine
 10
62.4141385944
 20
330.0514824986
 30
0.0
 11
38.4720079956
 21
330.0514824986
 31
0.0
  0
ARC
  5
A5
330
92
100
AcDbEntity
  8
(1_1) 492223038_
  6
Continuous
 62
     7
100
AcDbCircle
 10
62.4141385819
 20
347.8014825037
 30
0.0
 40
4.800000012462394
100
AcDbArc
 50
270.0318974478
 51
359.9999999384
  0
LINE
  5
A6
330
92
100
AcDbEntity
  8
(1_1) 492223038_
  6
Continuous
 62
     7
100
AcDbLine
 10
67.2141385944
 20
347.8014824986
 30
0.0
 11
67.2141385944
 21
356.3014824986
 31
0.0
  0
ARC
  5
A7
330
92
100
AcDbEntity
  8
(1_1) 492223038_
  6
Continuous
 62
     7
100
AcDbCircle
 10
62.4141385944
 20
356.3014824986
 30
0.0
 40
4.800000000000025
100
AcDbArc
 50
0.0
 51
90.0
  0
LINE
  5
A8
330
92
100
AcDbEntity
  8
(1_1) 492223038_
  6
Continuous
 62
     7
100
AcDbLine
 10
57.6141385944
 20
347.8014824986
 30
0.0
 11
57.6141385944
 21
356.3014824986
 31
0.0
  0
ARC
  5
A9
330
92
100
AcDbEntity
  8
(1_1) 492223038_
  6
Continuous
 62
     7
100
AcDbCircle
 10
62.4141385944
 20
356.3014824986
 30
0.0
 40
4.800000000000012
100
AcDbArc
 50
90.0
 51
180.0
  0
ARC
  5
AA
330
92
100
AcDbEntity
  8
(1_1) 492223038_
  6
Continuous
 62
     7
100
AcDbCircle
 10
62.4141386069
 20
347.8014825037
 30
0.0
 40
4.800000012443788
100
AcDbArc
 50
180.0000000616
 51
270.0318971505
  0
SPLINE
  5
AB
330
92
100
AcDbEntity
  8
(1_1) 492223038_
  6
Continuous
 62
     7
100
AcDbSpline
210
0.0
220
0.0
230
1.0
 70
     8
 71
     3
 72
    16
 73
    12
 74
     0
 42
0.000000001
 43
0.0000000001
 40
0.4139715853417688
 40
0.4139715853417688
 40
0.4139715853417688
 40
0.4139715853417688
 40
0.5000000000000001
 40
0.5000000000000001
 40
0.6250000000000001
 40
0.6250000000000001
 40
0.7500000000000001
 40
0.7500000000000001
 40
0.8750000000000001
 40
0.8750000000000001
 40
1.0
 40
1.0
 40
1.0
 40
1.0
 10
74.22704011274283
 20
443.0657939157936
 30
0.0
 10
74.51834222545553
 20
443.4046838869614
 30
0.0
 10
74.66717773485573
 20
443.7430598634491
 30
0.0
 10
74.65960458755822
 20
444.5386039258244
 30
0.0
 10
74.33941609345268
 20
444.983482402363
 30
0.0
 10
73.10497196575609
 20
445.7579426303428
 30
0.0
 10
72.20636580244691
 20
446.0793034628527
 30
0.0
 10
69.93432918245253
 20
446.5577176323121
 30
0.0
 10
68.58862406605354
 20
446.7049171081167
 30
0.0
 10
65.63518123234921
 20
446.8599626432517
 30
0.0
 10
64.03768387877072
 20
446.8733897248767
 30
0.0
 10
62.41413859440642
 20
446.8735629188939
 30
0.0
  0
SPLINE
  5
AC
330
92
100
AcDbEntity
  8
(1_1) 492223038_
  6
Continuous
 62
     7
100
AcDbSpline
210
0.0
220
0.0
230
1.0
 70
     8
 71
     3
 72
    16
 73
    12
 74
     0
 42
0.000000001
 43
0.0000000001
 40
0.0
 40
0.0
 40
0.0
 40
0.0
 40
0.125
 40
0.125
 40
0.25
 40
0.25
 40
0.375
 40
0.375
 40
0.5
 40
0.5
 40
0.5866590343550645
 40
0.5866590343550645
 40
0.5866590343550645
 40
0.5866590343550645
 10
62.41413859440642
 20
446.8735629188939
 30
0.0
 10
60.79125622221049
 20
446.8733897955938
 30
0.0
 10
59.18862517443399
 20
446.8598663009845
 30
0.0
 10
56.23561519256224
 20
446.7045663732606
 30
0.0
 10
54.88929916861267
 20
446.5570797965829
 30
0.0
 10
52.61775941338261
 20
446.0780868215233
 30
0.0
 10
51.7206781896115
 20
445.7567665341195
 30
0.0
 10
50.4878848314307
 20
444.9823964963308
 30
0.0
 10
50.16833568043079
 20
444.5377587821264
 30
0.0
 10
50.16129888124958
 20
443.7400122318747
 30
0.0
 10
50.31234763095173
 20
443.3993007740307
 30
0.0
 10
50.60783722411185
 20
443.0580976186598
 30
0.0
  0
ELLIPSE
  5
AD
330
92
100
AcDbEntity
  8
(1_1) 492223038_
  6
Continuous
 62
     7
100
AcDbEllipse
 10
62.4141385944
 20
445.7214824986
 30
0.0
 11
-12.25
 21
0.0
 31
0.0
210
0.0
220
0.0
230
1.0
 40
0.3746065934
 41
-3.413481710702631
 42
-3.346437252064993
  0
ELLIPSE
  5
AE
330
92
100
AcDbEntity
  8
(1_1) 492223038_
  6
Continuous
 62
     7
100
AcDbEllipse
 10
62.4141385944
 20
445.7214824986
 30
0.0
 11
-12.25
 21
0.0
 31
0.0
210
0.0
220
0.0
230
1.0
 40
0.3746065934
 41
0.2067411772195182
 42
0.2718890571128006
  0
ELLIPSE
  5
AF
330
92
100
AcDbEntity
  8
(1_1) 492223038_
  6
Continuous
 62
     7
100
AcDbEllipse
 10
62.4141385944
 20
445.7214824986
 30
0.0
 11
12.00850000000017
 21
0.0
 31
0.0
210
0.0
220
0.0
230
1.0
 40
0.3746065934
 41
-0.1866182159289798
 42
-0.1737472071969703
  0
ELLIPSE
  5
B0
330
92
100
AcDbEntity
  8
(1_1) 492223038_
  6
Continuous
 62
     7
100
AcDbEllipse
 10
62.4141385944
 20
445.7214824986
 30
0.0
 11
12.00850000000017
 21
0.0
 31
0.0
210
0.0
220
0.0
230
1.0
 40
0.3746065934
 41
3.311204451079522
 42
3.328210869518725
  0
LINE
  5
B1
330
92
100
AcDbEntity
  8
(1_1) 492223038_
  6
Continuous
 62
     7
100
AcDbLine
 10
86.3562652233
 20
330.0516550214
 30
0.0
 11
85.0069724918
 21
446.6329670887
 31
0.0
  0
SPLINE
  5
B2
330
92
100
AcDbEntity
  8
(1_1) 492223038_
  6
Continuous
 62
     7
100
AcDbSpline
210
0.0
220
0.0
230
1.0
 70
     8
 71
     3
 72
    48
 73
    44
 74
     0
 42
0.000000001
 43
0.0000000001
 40
0.0
 40
0.0
 40
0.0
 40
0.0
 40
0.0037800330646366
 40
0.0231906587514342
 40
0.043845758591697
 40
0.0635523736688243
 40
0.0828907219759144
 40
0.1027816785356451
 40
0.1287159481737127
 40
0.1571005436530523
 40
0.1859387168540707
 40
0.2141960846157128
 40
0.2419408183325703
 40
0.2693175552218894
 40
0.2964253848793418
 40
0.3233209350915718
 40
0.3500328444836022
 40
0.3765725524549817
 40
0.4029413412761691
 40
0.4291349086071792
 40
0.4551464035528996
 40
0.4809684924720656
 40
0.5065947763874826
 40
0.5320562359068759
 40
0.5575601239718267
 40
0.5831450973953074
 40
0.6087986794992428
 40
0.6345059267605467
 40
0.6602499290631
 40
0.6860124102145788
 40
0.7117696712589132
 40
0.7375007011948456
 40
0.7631868920974902
 40
0.7888107836988001
 40
0.814356559300423
 40
0.839810488433313
 40
0.8651613071611126
 40
0.890400530295723
 40
0.9155226927445579
 40
0.9375611403626771
 40
0.9607472318611037
 40
0.9850943817940102
 40
1.0
 40
1.0
 40
1.0
 40
1.0
 10
84.84889674069997
 20
458.5127323521759
 30
0.0
 10
84.84825756654266
 20
458.5215982136067
 30
0.0
 10
84.84467369879584
 20
458.5682767291394
 30
0.0
 10
84.82095294686631
 20
458.6888662162534
 30
0.0
 10
84.76115601768903
 20
458.8546974228077
 30
0.0
 10
84.65986983708324
 20
459.0226658279386
 30
0.0
 10
84.5299962236448
 20
459.1654226363308
 30
0.0
 10
84.38172689036176
 20
459.2918000573282
 30
0.0
 10
84.18846516377971
 20
459.4235982892293
 30
0.0
 10
83.94383256832916
 20
459.5572773262768
 30
0.0
 10
83.65790922080821
 20
459.6867871144916
 30
0.0
 10
83.33887059476851
 20
459.8097009914111
 30
0.0
 10
82.99039827314425
 20
459.9265018178558
 30
0.0
 10
82.61250800845397
 20
460.0384152969958
 30
0.0
 10
82.20497792469355
 20
460.1462777176912
 30
0.0
 10
81.76792694555955
 20
460.2505305763999
 30
0.0
 10
81.30180771154676
 20
460.3513766394644
 30
0.0
 10
80.80734347084872
 20
460.4488738175751
 30
0.0
 10
80.28546350538595
 20
460.5429959628598
 30
0.0
 10
79.73725322542793
 20
460.6336692948113
 30
0.0
 10
79.1639049199881
 20
460.7207950209731
 30
0.0
 10
78.5667050541464
 20
460.8042652799158
 30
0.0
 10
77.94663039182741
 20
460.884004391242
 30
0.0
 10
77.30314033081628
 20
460.9601571620245
 30
0.0
 10
76.63539302736088
 20
461.0329452443668
 30
0.0
 10
75.94245741385986
 20
461.1024887581863
 30
0.0
 10
75.22528704834674
 20
461.1686848100372
 30
0.0
 10
74.48537797050635
 20
461.2313834171878
 30
0.0
 10
73.7243461510445
 20
461.2904373944415
 30
0.0
 10
72.94395778790852
 20
461.3457016820821
 30
0.0
 10
72.14608866332792
 20
461.3970391786401
 30
0.0
 10
71.33268421513876
 20
461.4443246967713
 30
0.0
 10
70.50568416131476
 20
461.4874490625964
 30
0.0
 10
69.66702349784136
 20
461.5263178424138
 30
0.0
 10
68.81863510988465
 20
461.5608507652817
 30
0.0
 10
67.96240741994782
 20
461.59098213169
 30
0.0
 10
67.10024504340103
 20
461.6166599487012
 30
0.0
 10
66.23375506611548
 20
461.6378478728147
 30
0.0
 10
65.39949016632305
 20
461.6538594174797
 30
0.0
 10
64.58277226429625
 20
461.6655040238537
 30
0.0
 10
63.77803252237295
 20
461.6724830436627
 30
0.0
 10
63.03247267981171
 20
461.676014403163
 30
0.0
 10
62.60538360479811
 20
461.6765444704872
 30
0.0
 10
62.4141060063716
 20
461.6767401460379
 30
0.0
  0
ARC
  5
B3
330
92
100
AcDbEntity
  8
(1_1) 492223038_
  6
Continuous
 62
     7
100
AcDbCircle
 10
85.5629323751
 20
447.0246764704
 30
0.0
 40
0.6121918442074705
100
AcDbArc
 50
184.5855892639
 51
198.1430535268
  0
ARC
  5
B4
330
92
100
AcDbEntity
  8
(1_1) 492223038_
  6
Continuous
 62
     7
100
AcDbCircle
 10
85.5629323751
 20
447.0246764704
 30
0.0
 40
0.6121918442074705
100
AcDbArc
 50
177.2251717371
 51
177.8239363697
  0
ARC
  5
B5
330
92
100
AcDbEntity
  8
(1_1) 492223038_
  6
Continuous
 62
     7
100
AcDbCircle
 10
84.4928002402
 20
446.6714375121
 30
0.0
 40
0.5109933168907189
100
AcDbArc
 50
355.7507860446
 51
18.4196770878
  0
SPLINE
  5
B6
330
92
100
AcDbEntity
  8
(1_1) 492223038_
  6
Continuous
 62
     7
100
AcDbSpline
210
0.0
220
0.0
230
1.0
 70
     8
 71
     3
 72
    48
 73
    44
 74
     0
 42
0.000000001
 43
0.0000000001
 40
0.0
 40
0.0
 40
0.0
 40
0.0
 40
0.0145837004316828
 40
0.0399397671762169
 40
0.0625059269457082
 40
0.0867943532138484
 40
0.110034443053005
 40
0.1349799635418964
 40
0.1600518676717163
 40
0.1852516331616183
 40
0.2105715999647619
 40
0.236001402682839
 40
0.2615281984651526
 40
0.287136984654534
 40
0.3128109810328872
 40
0.3385320722831709
 40
0.3642813036492207
 40
0.390037924978632
 40
0.4157781610907881
 40
0.4414842632383258
 40
0.4671401803254084
 40
0.4927321740739917
 40
0.5182500031340344
 40
0.5437318508050789
 40
0.5693799361144122
 40
0.5952261455023786
 40
0.6212617815322597
 40
0.6474777049194044
 40
0.6738655415934418
 40
0.7004196788450652
 40
0.7271401612354631
 40
0.7540369800398544
 40
0.7811365339962589
 40
0.808491281260455
 40
0.8361927142088219
 40
0.8643792365893481
 40
0.8931773849825115
 40
0.9174660718386418
 40
0.9366640044581285
 40
0.9566661664398675
 40
0.9760938230673614
 40
0.9956904704303303
 40
1.0
 40
1.0
 40
1.0
 40
1.0
 10
62.41407412468151
 20
461.6766704212568
 30
0.0
 10
62.2269260663418
 20
461.6765127038704
 30
0.0
 10
61.7920514144376
 20
461.6760527419249
 30
0.0
 10
61.04515446764382
 20
461.6724557129544
 30
0.0
 10
60.20980630904885
 20
461.6651465898321
 30
0.0
 10
59.39608227873428
 20
461.6533098103279
 30
0.0
 10
58.56128896117812
 20
461.6370572759701
 30
0.0
 10
57.7229776458835
 20
461.6165050007478
 30
0.0
 10
56.87019923178441
 20
461.5911066657573
 30
0.0
 10
56.02238555629535
 20
461.5613190006187
 30
0.0
 10
55.18124165005002
 20
461.5271732754971
 30
0.0
 10
54.34855058465197
 20
461.4887135183166
 30
0.0
 10
53.52616969609943
 20
461.4459976381997
 30
0.0
 10
52.71599206059208
 20
461.399097244311
 30
0.0
 10
51.91993352162227
 20
461.3480979226961
 30
0.0
 10
51.13991062165798
 20
461.2930988769264
 30
0.0
 10
50.37783435782599
 20
461.2342133178761
 30
0.0
 10
49.63561760271083
 20
461.1715703221985
 30
0.0
 10
48.91509847312228
 20
461.1053098463472
 30
0.0
 10
48.21800175641553
 20
461.0355789050921
 30
0.0
 10
47.54590185242219
 20
460.9625237300805
 30
0.0
 10
46.90021778047155
 20
460.8862932514783
 30
0.0
 10
46.28195700132953
 20
460.8069753385869
 30
0.0
 10
45.69001661054663
 20
460.7244936998156
 30
0.0
 10
45.12298332955027
 20
460.6386898525478
 30
0.0
 10
44.58021955305853
 20
460.5494019797433
 30
0.0
 10
44.06270072862944
 20
460.4566844479943
 30
0.0
 10
43.57163786483744
 20
460.3606248754654
 30
0.0
 10
43.10815104239073
 20
460.261287129255
 30
0.0
 10
42.67323358826745
 20
460.1586897366255
 30
0.0
 10
42.26770303681295
 20
460.0527693795489
 30
0.0
 10
41.89214501873181
 20
459.9433256370373
 30
0.0
 10
41.54682328821524
 20
459.8299040670569
 30
0.0
 10
41.23163403131807
 20
459.7116685910207
 30
0.0
 10
40.94582938768876
 20
459.5868574640263
 30
0.0
 10
40.68884882997294
 20
459.4530240633291
 30
0.0
 10
40.47156885319983
 20
459.3117679881263
 30
0.0
 10
40.30580752318706
 20
459.1740012963979
 30
0.0
 10
40.16619919171158
 20
459.019805327594
 30
0.0
 10
40.0674352598646
 20
458.8545979333272
 30
0.0
 10
40.00806209530799
 20
458.6909282013048
 30
0.0
 10
39.98394188666579
 20
458.5711312910595
 30
0.0
 10
39.98029888654334
 20
458.5231718612907
 30
0.0
 10
39.97958647902349
 20
458.5130888102843
 30
0.0
  0
ARC
  5
B7
330
92
100
AcDbEntity
  8
(1_1) 492223038_
  6
Continuous
 62
     7
100
AcDbCircle
 10
39.1771044258
 20
447.035059566
 30
0.0
 40
0.6982686022556838
100
AcDbArc
 50
343.2406518547
 51
0.8800089905
  0
LINE
  5
B8
330
92
100
AcDbEntity
  8
(1_1) 492223038_
  6
Continuous
 62
     7
100
AcDbLine
 10
39.8213152291
 20
446.6340163877
 30
0.0
 11
38.4720097588
 21
330.0516527903
 31
0.0
  0
ELLIPSE
  5
BA
330
92
100
AcDbEntity
  8
(2_2)_02636038_5
  6
Continuous
 62
     7
100
AcDbEllipse
 10
62.4141385944
 20
437.1120961514
 30
0.0
 11
10.05000000000002
 21
0.0
 31
0.0
210
0.0
220
0.0
230
1.0
 40
0.3746065934
 41
0.0
 42
6.283185307179586
  0
ELLIPSE
  5
BB
330
92
100
AcDbEntity
  8
(2_2)_02636038_5
  6
Continuous
 62
     7
100
AcDbEllipse
 10
62.4141385944
 20
437.1120961514
 30
0.0
 11
10.75000000000001
 21
0.0
 31
0.0
210
0.0
220
0.0
230
1.0
 40
0.3746065934
 41
0.0
 42
6.283185307179586
  0
ELLIPSE
  5
BC
330
92
100
AcDbEntity
  8
(2_2)_02636038_5
  6
Continuous
 62
     7
100
AcDbEllipse
 10
62.4141385944
 20
437.4065165678
 30
0.0
 11
11.29999999999999
 21
1.387778780781446E-14
 31
0.0
210
0.0
220
0.0
230
1.0
 40
0.3746065934
 41
-0.7751090107150898
 42
-0.6999416698222465
  0
ELLIPSE
  5
BD
330
92
100
AcDbEntity
  8
(2_2)_02636038_5
  6
Continuous
 62
     7
100
AcDbEllipse
 10
62.4141385944
 20
437.4065165678
 30
0.0
 11
11.29999999999999
 21
1.387778780781446E-14
 31
0.0
210
0.0
220
0.0
230
1.0
 40
0.3746065934
 41
3.859361637010529
 42
3.916701664304876
  0
LINE
  5
BE
330
92
100
AcDbEntity
  8
(2_2)_02636038_5
  6
Continuous
 62
     7
100
AcDbLine
 10
73.4141385944
 20
436.4375953285
 30
0.0
 11
73.4141385944
 21
438.375437807
 31
0.0
  0
ELLIPSE
  5
BF
330
92
100
AcDbEntity
  8
(2_2)_02636038_5
  6
Continuous
 62
     7
100
AcDbEllipse
 10
62.4141385944
 20
439.8936477151
 30
0.0
 11
-11.80000000000016
 21
-5.551115123125783E-14
 31
0.0
210
0.0
220
0.0
230
1.0
 40
0.3746065934
 41
2.771250021498078
 42
3.511935285681511
  0
LINE
  5
C0
330
92
100
AcDbEntity
  8
(2_2)_02636038_5
  6
Continuous
 62
     7
100
AcDbLine
 10
73.4141385944
 20
436.4375953285
 30
0.0
 11
73.4141385944
 21
436.2733668035
 31
0.0
  0
LINE
  5
C1
330
92
100
AcDbEntity
  8
(2_2)_02636038_5
  6
Continuous
 62
     7
100
AcDbLine
 10
73.4141385944
 20
438.375437807
 30
0.0
 11
73.4141385944
 21
439.8093629045
 31
0.0
  0
LINE
  5
C2
330
92
100
AcDbEntity
  8
(2_2)_02636038_5
  6
Continuous
 62
     7
100
AcDbLine
 10
73.4141385944
 20
439.8093629045
 30
0.0
 11
73.4141385944
 21
441.4935292797
 31
0.0
  0
ELLIPSE
  5
C3
330
92
100
AcDbEntity
  8
(2_2)_02636038_5
  6
Continuous
 62
     7
100
AcDbEllipse
 10
62.4141385944
 20
437.4065165678
 30
0.0
 11
-11.30000000000001
 21
0.0
 31
0.0
210
0.0
220
0.0
230
1.0
 40
0.3746065934
 41
3.372534132729943
 42
6.052243828039437
  0
LINE
  5
C4
330
92
100
AcDbEntity
  8
(2_2)_02636038_5
  6
Continuous
 62
     7
100
AcDbLine
 10
51.4141385944
 20
438.375437807
 30
0.0
 11
51.4141385944
 21
436.4375953285
 31
0.0
  0
ELLIPSE
  5
C5
330
92
100
AcDbEntity
  8
(2_2)_02636038_5
  6
Continuous
 62
     7
100
AcDbEllipse
 10
62.4141385944
 20
438.2094813398
 30
0.0
 11
-11.8
 21
0.0
 31
0.0
210
0.0
220
0.0
230
1.0
 40
0.3746065934
 41
3.511935285681506
 42
5.912842675087879
  0
ELLIPSE
  5
C6
330
92
100
AcDbEntity
  8
(2_2)_02636038_5
  6
Continuous
 62
     7
100
AcDbEllipse
 10
62.4141385944
 20
439.8936477151
 30
0.0
 11
11.80000000000025
 21
0.0
 31
0.0
210
0.0
220
0.0
230
1.0
 40
0.3746065934
 41
2.77125002149808
 42
3.511935285681501
  0
LINE
  5
C7
330
92
100
AcDbEntity
  8
(2_2)_02636038_5
  6
Continuous
 62
     7
100
AcDbLine
 10
51.4141385944
 20
441.4935292797
 30
0.0
 11
51.4141385944
 21
439.8093629045
 31
0.0
  0
LINE
  5
C8
330
92
100
AcDbEntity
  8
(2_2)_02636038_5
  6
Continuous
 62
     7
100
AcDbLine
 10
51.4141385944
 20
439.8093629045
 30
0.0
 11
51.4141385944
 21
438.375437807
 31
0.0
  0
LINE
  5
C9
330
92
100
AcDbEntity
  8
(2_2)_02636038_5
  6
Continuous
 62
     7
100
AcDbLine
 10
51.4141385944
 20
436.2733195624
 30
0.0
 11
51.4141385944
 21
436.4375953285
 31
0.0
  0
LINE
  5
CA
330
92
100
AcDbEntity
  8
(2_2)_02636038_5
  6
Continuous
 62
     7
100
AcDbLine
 10
54.3420428826
 20
434.4442506316
 30
0.0
 11
54.7349324968
 21
434.2940113006
 31
0.0
  0
LINE
  5
CB
330
92
100
AcDbEntity
  8
(2_2)_02636038_5
  6
Continuous
 62
     7
100
AcDbLine
 10
70.093344692
 20
434.2940113006
 30
0.0
 11
70.4862343063
 21
434.4442506316
 31
0.0
  0
ARC
  5
CC
330
92
100
AcDbEntity
  8
(2_2)_02636038_5
  6
Continuous
 62
     7
100
AcDbCircle
 10
68.5942147302
 20
440.8476874385
 30
0.0
 40
6.640374792303065
100
AcDbArc
 50
291.9945661001
 51
316.566976459
  0
ARC
  5
CD
330
92
100
AcDbEntity
  8
(2_2)_02636038_5
  6
Continuous
 62
     7
100
AcDbCircle
 10
56.3143559298
 20
440.9521603962
 30
0.0
 40
6.77114274412988
100
AcDbArc
 50
223.6486000736
 51
248.9942184093
  0
LINE
  5
CE
330
92
100
AcDbEntity
  8
(2_2)_02636038_5
  6
Continuous
 62
     7
100
AcDbLine
 10
50.6141385944
 20
444.9931589152
 30
0.0
 11
50.6141385944
 21
439.8936477151
 31
0.0
  0
LINE
  5
CF
330
92
100
AcDbEntity
  8
(2_2)_02636038_5
  6
Continuous
 62
     7
100
AcDbLine
 10
74.2141385944
 20
439.8936477151
 30
0.0
 11
74.2141385944
 21
444.9931589152
 31
0.0
  0
ELLIPSE
  5
D1
330
92
100
AcDbEntity
  8
(1_1) 402748040_
  6
Continuous
 62
     7
100
AcDbEllipse
 10
62.4141385944
 20
439.5227741733
 30
0.0
 11
9.399999999998897
 21
5.551115123125783E-14
 31
0.0
210
0.0
220
0.0
230
1.0
 40
0.3746065934
 41
-0.2927745185885193
 42
-0.2401007023756261
  0
ELLIPSE
  5
D2
330
92
100
AcDbEntity
  8
(1_1) 402748040_
  6
Continuous
 62
     7
100
AcDbEllipse
 10
62.4141385944
 20
439.5227741733
 30
0.0
 11
-9.400000000000283
 21
4.163336342344337E-14
 31
0.0
210
0.0
220
0.0
230
1.0
 40
0.3746065934
 41
0.2401007023756012
 42
0.2927745185884922
  0
ELLIPSE
  5
D3
330
92
100
AcDbEntity
  8
(1_1) 402748040_
  6
Continuous
 62
     7
100
AcDbEllipse
 10
62.4141385944
 20
437.0193777659
 30
0.0
 11
9.000000000000005
 21
0.0
 31
0.0
210
0.0
220
0.0
230
1.0
 40
0.3746065934
 41
0.0
 42
3.14229923338297
  0
ELLIPSE
  5
D4
330
92
100
AcDbEntity
  8
(1_1) 402748040_
  6
Continuous
 62
     7
100
AcDbEllipse
 10
62.4141385944
 20
436.7412226096
 30
0.0
 11
8.5
 21
0.0
 31
0.0
210
0.0
220
0.0
230
1.0
 40
0.3746065934
 41
0.0
 42
6.283185307179586
  0
ELLIPSE
  5
D5
330
92
100
AcDbEntity
  8
(1_1) 402748040_
  6
Continuous
 62
     7
100
AcDbEllipse
 10
62.4141385944
 20
437.9465616205
 30
0.0
 11
8.500000000024352
 21
-1.748601263784622E-12
 31
0.0
210
0.0
220
0.0
230
1.0
 40
0.3746065934
 41
-0.2512109546521604
 42
-0.2365802745376024
  0
ARC
  5
D6
330
92
100
AcDbEntity
  8
(1_1) 402748040_
  6
Continuous
 62
     7
100
AcDbCircle
 10
-3070.8899416392
 20
478.4612743512
 30
0.0
 40
3141.808827055785
100
AcDbArc
 50
359.2337213193
 51
359.2466949949
  0
ARC
  5
D7
330
92
100
AcDbEntity
  8
(1_1) 402748040_
  6
Continuous
 62
     7
100
AcDbCircle
 10
70.5025545766
 20
436.4391476135
 30
0.0
 40
0.1354300872130576
100
AcDbArc
 50
334.8430371003
 51
1.9286993453
  0
LINE
  5
D8
330
92
100
AcDbEntity
  8
(1_1) 402748040_
  6
Continuous
 62
     7
100
AcDbLine
 10
70.6238768987
 20
436.3798123395
 30
0.0
 11
70.6251386618
 21
436.3815763484
 31
0.0
  0
ELLIPSE
  5
D9
330
92
100
AcDbEntity
  8
(1_1) 402748040_
  6
Continuous
 62
     7
100
AcDbEllipse
 10
62.4141385944
 20
437.9465616205
 30
0.0
 11
8.499999999969249
 21
4.746203430272544E-12
 31
0.0
210
0.0
220
0.0
230
1.0
 40
0.3746065934
 41
-0.5130103424528869
 42
-0.4902608521945258
  0
ARC
  5
DA
330
92
100
AcDbEntity
  8
(1_1) 402748040_
  6
Continuous
 62
     7
100
AcDbCircle
 10
-3407.3124001668
 20
526.8274919667
 30
0.0
 40
3478.308409392358
100
AcDbArc
 50
358.4983161138
 51
358.5100149176
  0
SPLINE
  5
DB
330
92
100
AcDbEntity
  8
(1_1) 402748040_
  6
Continuous
 62
     7
100
AcDbSpline
210
0.0
220
0.0
230
1.0
 70
     8
 71
     3
 72
    20
 73
    16
 74
     0
 42
0.000000001
 43
0.0000000001
 40
0.0
 40
0.0
 40
0.0
 40
0.0
 40
0.1197787819766669
 40
0.1197787819766669
 40
0.1197787819766669
 40
0.3415823946867895
 40
0.3415823946867895
 40
0.3415823946867895
 40
0.5633889206175946
 40
0.5633889206175946
 40
0.5633889206175946
 40
0.7851985958931578
 40
0.7851985958931578
 40
0.7851985958931578
 40
1.0
 40
1.0
 40
1.0
 40
1.0
 10
69.80140235948724
 20
435.6738023505216
 30
0.0
 10
69.80132748338188
 20
435.6709461553374
 30
0.0
 10
69.80111500296522
 20
435.6680007216592
 30
0.0
 10
69.8007700515674
 20
435.6650386921925
 30
0.0
 10
69.80013320164582
 20
435.659570187802
 30
0.0
 10
69.79902216821665
 20
435.6539262582282
 30
0.0
 10
69.79752727302379
 20
435.6485746268891
 30
0.0
 10
69.79603235835712
 20
435.6432229258349
 30
0.0
 10
69.79411223892458
 20
435.6380159476586
 30
0.0
 10
69.79192358086758
 20
435.6333853694174
 30
0.0
 10
69.78973489289301
 20
435.6287547278792
 30
0.0
 10
69.7872171815474
 20
435.6245728062794
 30
0.0
 10
69.78457697740214
 20
435.621186340136
 30
0.0
 10
69.78202015625763
 20
435.6179068254606
 30
0.0
 10
69.77928139644654
 20
435.6152858420917
 30
0.0
 10
69.77657299340053
 20
435.6135273638304
 30
0.0
  0
LINE
  5
DC
330
92
100
AcDbEntity
  8
(1_1) 402748040_
  6
Continuous
 62
     7
100
AcDbLine
 10
69.7741354544
 20
435.6119457967
 30
0.0
 11
69.7765729934
 21
435.6135273638
 31
0.0
  0
SPLINE
  5
DD
330
92
100
AcDbEntity
  8
(1_1) 402748040_
  6
Continuous
 62
     7
100
AcDbSpline
210
0.0
220
0.0
230
1.0
 70
     8
 71
     3
 72
    14
 73
    10
 74
     0
 42
0.000000001
 43
0.0000000001
 40
0.0
 40
0.0
 40
0.0
 40
0.0
 40
0.0070120796761539
 40
0.0070120796761539
 40
0.0070120796761539
 40
0.2289786091648919
 40
0.2289786091648919
 40
0.2289786091648919
 40
0.2866613431747791
 40
0.2866613431747791
 40
0.2866613431747791
 40
0.2866613431747791
 10
69.7741354543868
 20
435.6119457967385
 30
0.0
 10
69.77404582544159
 20
435.6118876805988
 30
0.0
 10
69.77395619029613
 20
435.6118304576265
 30
0.0
 10
69.77386655672042
 20
435.6117741327814
 30
0.0
 10
69.77106696855633
 20
435.6100148994972
 30
0.0
 10
69.76822892297794
 20
435.6091316251682
 30
0.0
 10
69.7655882608208
 20
435.6091972695635
 30
0.0
 10
69.76490202828421
 20
435.6092143286635
 30
0.0
 10
69.764224211999
 20
435.6092955922862
 30
0.0
 10
69.76355850370115
 20
435.6094395756538
 30
0.0
  0
ELLIPSE
  5
DE
330
92
100
AcDbEntity
  8
(1_1) 402748040_
  6
Continuous
 62
     7
100
AcDbEllipse
 10
62.4141385944
 20
437.9465616205
 30
0.0
 11
8.499999999972079
 21
7.743805596760467E-12
 31
0.0
210
0.0
220
0.0
230
1.0
 40
0.3746065934
 41
-0.774809730252457
 42
-0.7283580540872121
  0
ARC
  5
DF
330
92
100
AcDbEntity
  8
(1_1) 402748040_
  6
Continuous
 62
     7
100
AcDbCircle
 10
-4131.8368259014
 20
591.9345440947
 30
0.0
 40
4203.228601143395
100
AcDbArc
 50
357.8604225339
 51
357.8700768765
  0
ARC
  5
E0
330
92
100
AcDbEntity
  8
(1_1) 402748040_
  6
Continuous
 62
     7
100
AcDbCircle
 10
68.3965115749
 20
435.0116614141
 30
0.0
 40
0.0649567755480564
100
AcDbArc
 50
297.2658756158
 51
359.6252546344
  0
LINE
  5
E1
330
92
100
AcDbEntity
  8
(1_1) 402748040_
  6
Continuous
 62
     7
100
AcDbLine
 10
68.422822387
 20
434.9526306263
 30
0.0
 11
68.4262695877
 21
434.9539219704
 31
0.0
  0
SPLINE
  5
E2
330
92
100
AcDbEntity
  8
(1_1) 402748040_
  6
Continuous
 62
     7
100
AcDbSpline
210
0.0
220
0.0
230
1.0
 70
     8
 71
     3
 72
    14
 73
    10
 74
     0
 42
0.000000001
 43
0.0000000001
 40
0.0
 40
0.0
 40
0.0
 40
0.0
 40
0.0070120796774401
 40
0.0070120796774401
 40
0.0070120796774401
 40
0.228978609165965
 40
0.228978609165965
 40
0.228978609165965
 40
0.3415019779262081
 40
0.3415019779262081
 40
0.3415019779262081
 40
0.3415019779262081
 10
68.4228223869886
 20
434.9526306262629
 30
0.0
 10
68.422695659115
 20
434.9525831803858
 30
0.0
 10
68.4225689254059
 20
434.9525366282697
 30
0.0
 10
68.42244219684663
 20
434.9524909739493
 30
0.0
 10
68.41848399511571
 20
434.9510650206284
 30
0.0
 10
68.41447443534993
 20
434.9505194557714
 30
0.0
 10
68.41074622002645
 20
434.9508991997888
 30
0.0
 10
68.40885624380522
 20
434.9510917066858
 30
0.0
 10
68.4070121592815
 20
434.9515246910244
 30
0.0
 10
68.40525247289523
 20
434.9521838804272
 30
0.0
  0
SPLINE
  5
E3
330
92
100
AcDbEntity
  8
(1_1) 402748040_
  6
Continuous
 62
     7
100
AcDbSpline
210
0.0
220
0.0
230
1.0
 70
    12
 71
     2
 72
     6
 73
     3
 74
     0
 42
0.000000001
 43
0.0000000001
 40
0.0
 40
0.0
 40
0.0
 40
0.5943082582464031
 40
0.5943082582464031
 40
0.5943082582464031
 10
66.7094161281399
 20
434.5011610270114
 30
0.0
 41
1.0
 10
66.71906435197064
 20
434.710606696097
 30
0.0
 41
1.0
 10
66.72869765592745
 20
434.9200572930712
 30
0.0
 41
1.0
  0
ARC
  5
E4
330
92
100
AcDbEntity
  8
(1_1) 402748040_
  6
Continuous
 62
     7
100
AcDbCircle
 10
66.6510063837
 20
434.5041775321
 30
0.0
 40
0.0584875845385086
100
AcDbArc
 50
285.106825861
 51
357.0436507519
  0
LINE
  5
E5
330
92
100
AcDbEntity
  8
(1_1) 402748040_
  6
Continuous
 62
     7
100
AcDbLine
 10
66.6620274489
 20
434.4467980674
 30
0.0
 11
66.6662493904
 21
434.4477111856
 31
0.0
  0
ARC
  5
E6
330
92
100
AcDbEntity
  8
(1_1) 402748040_
  6
Continuous
 62
     7
100
AcDbCircle
 10
66.6537046591
 20
434.48080714
 30
0.0
 40
0.0350126527202508
100
AcDbArc
 50
237.3712282798
 51
283.7513076973
  0
LINE
  5
E7
330
92
100
AcDbEntity
  8
(1_1) 402748040_
  6
Continuous
 62
     7
100
AcDbLine
 10
64.6646492296
 20
434.1783365423
 30
0.0
 11
64.6791524343
 21
434.458897455
 31
0.0
  0
ARC
  5
E8
330
92
100
AcDbEntity
  8
(1_1) 402748040_
  6
Continuous
 62
     7
100
AcDbCircle
 10
64.61105332
 20
434.1829113469
 30
0.0
 40
0.0537908018626711
100
AcDbArc
 50
275.7632246897
 51
355.1212101735
  0
LINE
  5
E9
330
92
100
AcDbEntity
  8
(1_1) 402748040_
  6
Continuous
 62
     7
100
AcDbLine
 10
64.6117459054
 20
434.1289197731
 30
0.0
 11
64.6164548692
 21
434.1293924378
 31
0.0
  0
ARC
  5
EA
330
92
100
AcDbEntity
  8
(1_1) 402748040_
  6
Continuous
 62
     7
100
AcDbCircle
 10
64.6056933671
 20
434.1707903257
 30
0.0
 40
0.0423057490027086
100
AcDbArc
 50
215.3003975345
 51
278.2253344354
  0
LINE
  5
EB
330
92
100
AcDbEntity
  8
(1_1) 402748040_
  6
Continuous
 62
     7
100
AcDbLine
 10
62.4665137504
 20
434.0647630658
 30
0.0
 11
62.4795423946
 21
434.3064029149
 31
0.0
  0
ARC
  5
EC
330
92
100
AcDbEntity
  8
(1_1) 402748040_
  6
Continuous
 62
     7
100
AcDbCircle
 10
62.418092314
 20
434.0692652755
 30
0.0
 40
0.0486302929862118
100
AcDbArc
 50
268.2133600223
 51
354.68792967
  0
LINE
  5
ED
330
92
100
AcDbEntity
  8
(1_1) 402748040_
  6
Continuous
 62
     7
100
AcDbLine
 10
62.4117010554
 20
434.0206586237
 30
0.0
 11
62.4165761334
 21
434.0206586237
 31
0.0
  0
ARC
  5
EE
330
92
100
AcDbEntity
  8
(1_1) 402748040_
  6
Continuous
 62
     7
100
AcDbCircle
 10
62.4101572837
 20
434.0692340351
 30
0.0
 40
0.0485999364587586
100
AcDbArc
 50
185.2784098869
 51
271.8203004166
  0
LINE
  5
EF
330
92
100
AcDbEntity
  8
(1_1) 402748040_
  6
Continuous
 62
     7
100
AcDbLine
 10
62.3487347922
 20
434.3064029509
 30
0.0
 11
62.3617634384
 21
434.0647630658
 31
0.0
  0
ARC
  5
F0
330
92
100
AcDbEntity
  8
(1_1) 402748040_
  6
Continuous
 62
     7
100
AcDbCircle
 10
60.2225752484
 20
434.170800868
 30
0.0
 40
0.0423149575172569
100
AcDbArc
 50
261.7881968818
 51
324.6648441154
  0
LINE
  5
F1
330
92
100
AcDbEntity
  8
(1_1) 402748040_
  6
Continuous
 62
     7
100
AcDbLine
 10
60.2118223196
 20
434.1293924378
 30
0.0
 11
60.2165312834
 21
434.1289197731
 31
0.0
  0
ARC
  5
F2
330
92
100
AcDbEntity
  8
(1_1) 402748040_
  6
Continuous
 62
     7
100
AcDbCircle
 10
60.2171974756
 20
434.182885358
 30
0.0
 40
0.0537622991575461
100
AcDbArc
 50
184.8535853771
 51
264.2619797563
  0
LINE
  5
F3
330
92
100
AcDbEntity
  8
(1_1) 402748040_
  6
Continuous
 62
     7
100
AcDbLine
 10
60.1491247545
 20
434.458897455
 30
0.0
 11
60.1636279592
 21
434.1783365423
 31
0.0
  0
ARC
  5
F4
330
92
100
AcDbEntity
  8
(1_1) 402748040_
  6
Continuous
 62
     7
100
AcDbCircle
 10
58.1745982517
 20
434.4807750621
 30
0.0
 40
0.0349876238568018
100
AcDbArc
 50
256.1952902834
 51
302.5862468013
  0
LINE
  5
F5
330
92
100
AcDbEntity
  8
(1_1) 402748040_
  6
Continuous
 62
     7
100
AcDbLine
 10
58.1620277985
 20
434.4477111856
 30
0.0
 11
58.1662497399
 21
434.4467980674
 31
0.0
  0
ARC
  5
F6
330
92
100
AcDbEntity
  8
(1_1) 402748040_
  6
Continuous
 62
     7
100
AcDbCircle
 10
58.1772736979
 20
434.5041798684
 30
0.0
 40
0.0584905940845419
100
AcDbArc
 50
182.9584886345
 51
254.8910347493
  0
SPLINE
  5
F7
330
92
100
AcDbEntity
  8
(1_1) 402748040_
  6
Continuous
 62
     7
100
AcDbSpline
210
0.0
220
0.0
230
1.0
 70
    12
 71
     2
 72
     6
 73
     3
 74
     0
 42
0.000000001
 43
0.0000000001
 40
0.4056917417572103
 40
0.4056917417572103
 40
0.4056917417572103
 40
1.0
 40
1.0
 40
1.0
 10
58.0995795328853
 20
434.9200572930689
 30
0.0
 41
1.0
 10
58.10921283684205
 20
434.7106066960959
 30
0.0
 41
1.0
 10
58.11886106067276
 20
434.5011610270107
 30
0.0
 41
1.0
  0
SPLINE
  5
F8
330
92
100
AcDbEntity
  8
(1_1) 402748040_
  6
Continuous
 62
     7
100
AcDbSpline
210
0.0
220
0.0
230
1.0
 70
     8
 71
     3
 72
    11
 73
     7
 74
     0
 42
0.000000001
 43
0.0000000001
 40
0.6584633656391334
 40
0.6584633656391334
 40
0.6584633656391334
 40
0.6584633656391334
 40
0.7851985958937638
 40
0.7851985958937638
 40
0.7851985958937638
 40
1.0
 40
1.0
 40
1.0
 40
1.0
 10
56.42303396989141
 20
434.9521871348304
 30
0.0
 10
56.42105087322972
 20
434.9514442647117
 30
0.0
 10
56.41895838209611
 20
434.9509881405257
 30
0.0
 10
56.4168122767991
 20
434.9508373999166
 30
0.0
 10
56.41317482711194
 20
434.9505819085472
 30
0.0
 10
56.40928806452394
 20
434.951195484127
 30
0.0
 10
56.40545480182503
 20
434.9526306262626
 30
0.0
  0
LINE
  5
F9
330
92
100
AcDbEntity
  8
(1_1) 402748040_
  6
Continuous
 62
     7
100
AcDbLine
 10
56.4020076011
 20
434.9539219704
 30
0.0
 11
56.4054548018
 21
434.9526306263
 31
0.0
  0
ARC
  5
FA
330
92
100
AcDbEntity
  8
(1_1) 402748040_
  6
Continuous
 62
     7
100
AcDbCircle
 10
56.4318387443
 20
435.0117063241
 30
0.0
 40
0.0650302132551125
100
AcDbArc
 50
180.4138916575
 51
242.6949780897
  0
ARC
  5
FB
330
92
100
AcDbEntity
  8
(1_1) 402748040_
  6
Continuous
 62
     7
100
AcDbCircle
 10
4256.6651032691
 20
591.9345441014
 30
0.0
 40
4203.228601321766
100
AcDbArc
 50
182.1299231235
 51
182.1395774661
  0
ELLIPSE
  5
FC
330
92
100
AcDbEntity
  8
(1_1) 402748040_
  6
Continuous
 62
     7
100
AcDbEllipse
 10
62.4141385944
 20
437.9465616205
 30
0.0
 11
-8.49999999997592
 21
6.300515664747763E-12
 31
0.0
210
0.0
220
0.0
230
1.0
 40
0.3746065934
 41
0.7283580540869279
 42
0.7748097302522203
  0
SPLINE
  5
FD
330
92
100
AcDbEntity
  8
(1_1) 402748040_
  6
Continuous
 62
     7
100
AcDbSpline
210
0.0
220
0.0
230
1.0
 70
     8
 71
     3
 72
    11
 73
     7
 74
     0
 42
0.000000001
 43
0.0000000001
 40
0.7133452919917151
 40
0.7133452919917151
 40
0.7133452919917151
 40
0.7133452919917151
 40
0.7851985958935033
 40
0.7851985958935033
 40
0.7851985958935033
 40
1.0
 40
1.0
 40
1.0
 40
1.0
 10
55.06472186272987
 20
435.6094411629329
 30
0.0
 10
55.06389137311738
 20
435.6092615359349
 30
0.0
 10
55.06304164351496
 20
435.6091789747613
 30
0.0
 10
55.06217990686471
 20
435.609196017916
 30
0.0
 10
55.05960375685481
 20
435.6092469681955
 30
0.0
 10
55.05685282933191
 20
435.6101879006702
 30
0.0
 10
55.05414173442664
 20
435.611945796738
 30
0.0
  0
LINE
  5
FE
330
92
100
AcDbEntity
  8
(1_1) 402748040_
  6
Continuous
 62
     7
100
AcDbLine
 10
55.0517041954
 20
435.6135273638
 30
0.0
 11
55.0541417344
 21
435.6119457967
 31
0.0
  0
SPLINE
  5
FF
330
92
100
AcDbEntity
  8
(1_1) 402748040_
  6
Continuous
 62
     7
100
AcDbSpline
210
0.0
220
0.0
230
1.0
 70
     8
 71
     3
 72
    23
 73
    19
 74
     0
 42
0.000000001
 43
0.0000000001
 40
0.0
 40
0.0
 40
0.0
 40
0.0
 40
0.0070120796765819
 40
0.0070120796765819
 40
0.0070120796765819
 40
0.2289786091652228
 40
0.2289786091652228
 40
0.2289786091652228
 40
0.4509454601537833
 40
0.4509454601537833
 40
0.4509454601537833
 40
0.67291591558572
 40
0.67291591558572
 40
0.67291591558572
 40
0.8948877460500798
 40
0.8948877460500798
 40
0.8948877460500798
 40
1.0
 40
1.0
 40
1.0
 40
1.0
 10
55.0517041954129
 20
435.61352736383
 30
0.0
 10
55.0516146554607
 20
435.613585499217
 30
0.0
 10
55.05152511912213
 20
435.61364452945
 30
0.0
 10
55.05143559415689
 20
435.613704449412
 30
0.0
 10
55.04863939830003
 20
435.6155759714966
 30
0.0
 10
55.04581488013313
 20
435.618366781736
 30
0.0
 10
55.04319511386152
 20
435.621845590165
 30
0.0
 10
55.04057534307736
 20
435.6253244045861
 30
0.0
 10
55.0380879969493
 20
435.6295871505253
 30
0.0
 10
55.03593702897324
 20
435.6342804040657
 30
0.0
 10
55.03378602682996
 20
435.6389737321565
 30
0.0
 10
55.03191197579336
 20
435.6442270053539
 30
0.0
 10
55.03046774161794
 20
435.6496047087062
 30
0.0
 10
55.02902349915131
 20
435.6549824429313
 30
0.0
 10
55.02796914444173
 20
435.6606329149441
 30
0.0
 10
55.02739038214352
 20
435.6660878490453
 30
0.0
 10
55.02711382303595
 20
435.6686944661514
 30
0.0
 10
55.02694088676506
 20
435.6712825487802
 30
0.0
 10
55.02687482932824
 20
435.6738023505191
 30
0.0
  0
ARC
  5
100
330
92
100
AcDbEntity
  8
(1_1) 402748040_
  6
Continuous
 62
     7
100
AcDbCircle
 10
3532.1406774782
 20
526.8274919699
 30
0.0
 40
3478.308409514927
100
AcDbArc
 50
181.4899850824
 51
181.5016838862
  0
ELLIPSE
  5
101
330
92
100
AcDbEntity
  8
(1_1) 402748040_
  6
Continuous
 62
     7
100
AcDbEllipse
 10
62.4141385944
 20
437.9465616205
 30
0.0
 11
-8.499999999997108
 21
1.387778780781446E-14
 31
0.0
210
0.0
220
0.0
230
1.0
 40
0.3746065934
 41
0.4902608521934404
 42
0.5130103424518269
  0
LINE
  5
102
330
92
100
AcDbEntity
  8
(1_1) 402748040_
  6
Continuous
 62
     7
100
AcDbLine
 10
54.203138527
 20
436.3815763484
 30
0.0
 11
54.2044002901
 21
436.3798123395
 31
0.0
  0
ARC
  5
103
330
92
100
AcDbEntity
  8
(1_1) 402748040_
  6
Continuous
 62
     7
100
AcDbCircle
 10
54.326336391
 20
436.439273762
 30
0.0
 40
0.1360393517721158
100
AcDbArc
 50
178.1331008056
 51
205.0951627478
  0
ARC
  5
104
330
92
100
AcDbEntity
  8
(1_1) 402748040_
  6
Continuous
 62
     7
100
AcDbCircle
 10
3195.71821905
 20
478.4612743541
 30
0.0
 40
3141.808827278493
100
AcDbArc
 50
180.7533050051
 51
180.7662786807
  0
ELLIPSE
  5
105
330
92
100
AcDbEntity
  8
(1_1) 402748040_
  6
Continuous
 62
     7
100
AcDbEllipse
 10
62.4141385944
 20
437.9465616205
 30
0.0
 11
-8.500000000000666
 21
-4.163336342344337E-13
 31
0.0
210
0.0
220
0.0
230
1.0
 40
0.3746065934
 41
0.2365802745380119
 42
0.2512109546525579
  0
LINE
  5
106
330
92
100
AcDbEntity
  8
(1_1) 402748040_
  6
Continuous
 62
     7
100
AcDbLine
 10
55.8966786655
 20
437.2039014187
 30
0.0
 11
55.8966786655
 21
437.205727655
 31
0.0
  0
LINE
  5
107
330
92
100
AcDbEntity
  8
(1_1) 402748040_
  6
Continuous
 62
     7
100
AcDbLine
 10
55.6368325872
 20
436.5197014393
 30
0.0
 11
55.0083353094
 21
436.3837705399
 31
0.0
  0
LINE
  5
108
330
92
100
AcDbEntity
  8
(1_1) 402748040_
  6
Continuous
 62
     7
100
AcDbLine
 10
68.4878489198
 20
435.7189893214
 30
0.0
 11
68.3676971503
 21
435.7639989664
 31
0.0
  0
LINE
  5
109
330
92
100
AcDbEntity
  8
(1_1) 402748040_
  6
Continuous
 62
     7
100
AcDbLine
 10
62.3617634384
 20
434.0647630658
 30
0.0
 11
62.3617634384
 21
434.3063588001
 31
0.0
  0
LINE
  5
10A
330
92
100
AcDbEntity
  8
(1_1) 402748040_
  6
Continuous
 62
     7
100
AcDbLine
 10
56.4605800385
 20
435.7639989664
 30
0.0
 11
56.340428269
 21
435.7189893214
 31
0.0
  0
LINE
  5
10B
330
92
100
AcDbEntity
  8
(1_1) 402748040_
  6
Continuous
 62
     7
100
AcDbLine
 10
62.4665137504
 20
434.3063588001
 30
0.0
 11
62.4665137504
 21
434.0647630658
 31
0.0
  0
LINE
  5
10C
330
92
100
AcDbEntity
  8
(1_1) 402748040_
  6
Continuous
 62
     7
100
AcDbLine
 10
70.6473415838
 20
437.1550533879
 30
0.0
 11
70.1969606829
 21
437.2002606114
 31
0.0
  0
LINE
  5
10D
330
92
100
AcDbEntity
  8
(1_1) 402748040_
  6
Continuous
 62
     7
100
AcDbLine
 10
68.9315985233
 20
437.205727655
 30
0.0
 11
68.9315985233
 21
437.2039014187
 31
0.0
  0
LINE
  5
10E
330
92
100
AcDbEntity
  8
(1_1) 402748040_
  6
Continuous
 62
     7
100
AcDbLine
 10
69.8199418794
 20
436.3837705399
 30
0.0
 11
69.1914446017
 21
436.5197014393
 31
0.0
  0
LINE
  5
10F
330
92
100
AcDbEntity
  8
(1_1) 402748040_
  6
Continuous
 62
     7
100
AcDbLine
 10
54.6313165059
 20
437.2002606114
 30
0.0
 11
54.180935605
 21
437.1550533879
 31
0.0
  0
LINE
  5
110
330
92
100
AcDbEntity
  8
(1_1) 402748040_
  6
Continuous
 62
     7
100
AcDbLine
 10
70.2441894781
 20
437.9802762139
 30
0.0
 11
70.1879359655
 21
437.9802762139
 31
0.0
  0
ARC
  5
111
330
92
100
AcDbEntity
  8
(1_1) 402748040_
  6
Continuous
 62
     7
100
AcDbCircle
 10
65.6858641351
 20
439.3753002527
 30
0.0
 40
0.0576566620205791
100
AcDbArc
 50
181.7639685871
 51
254.8107154177
  0
SPLINE
  5
112
330
92
100
AcDbEntity
  8
(1_1) 402748040_
  6
Continuous
 62
     7
100
AcDbSpline
210
0.0
220
0.0
230
1.0
 70
     8
 71
     3
 72
    23
 73
    19
 74
     0
 42
0.000000001
 43
0.0000000001
 40
0.0
 40
0.0
 40
0.0
 40
0.0
 40
0.1572695417184474
 40
0.1572695417184474
 40
0.1572695417184474
 40
0.3792790212832966
 40
0.3792790212832966
 40
0.3792790212832966
 40
0.6012936983791212
 40
0.6012936983791212
 40
0.6012936983791212
 40
0.7388692277392116
 40
0.7388692277392116
 40
0.7388692277392116
 40
0.9607522971012413
 40
0.9607522971012413
 40
0.9607522971012413
 40
1.0
 40
1.0
 40
1.0
 40
1.0
 10
56.79478551752807
 20
438.4868632640555
 30
0.0
 10
56.79480491627036
 20
438.4830992256607
 30
0.0
 10
56.79458118005308
 20
438.47917653493
 30
0.0
 10
56.79412400418997
 20
438.4752599486562
 30
0.0
 10
56.79347941707997
 20
438.4697378263592
 30
0.0
 10
56.79234893477421
 20
438.4640966057081
 30
0.0
 10
56.79082829861358
 20
438.4588027239037
 30
0.0
 10
56.78930764161189
 20
438.453508769544
 30
0.0
 10
56.7873550068464
 20
438.4484161793843
 30
0.0
 10
56.78513504076444
 20
438.4439463838735
 30
0.0
 10
56.78374729388895
 20
438.4411522219246
 30
0.0
 10
56.78223751588508
 20
438.4385583733545
 30
0.0
 10
56.78065585046014
 20
438.4362498356837
 30
0.0
 10
56.77812715291293
 20
438.4325590465615
 30
0.0
 10
56.77535434370947
 20
438.4295263022099
 30
0.0
 10
56.77256836315893
 20
438.4274025700847
 30
0.0
 10
56.77207078845935
 20
438.4270232726147
 30
0.0
 10
56.77157138411292
 20
438.4266711166466
 30
0.0
 10
56.77107149731764
 20
438.4263470512337
 30
0.0
  0
SPLINE
  5
113
330
92
100
AcDbEntity
  8
(1_1) 402748040_
  6
Continuous
 62
     7
100
AcDbSpline
210
0.0
220
0.0
230
1.0
 70
     8
 71
     3
 72
    14
 73
    10
 74
     0
 42
0.000000001
 43
0.0000000001
 40
0.7132859892836058
 40
0.7132859892836058
 40
0.7132859892836058
 40
0.7132859892836058
 40
0.7725292162376873
 40
0.7725292162376873
 40
0.7725292162376873
 40
0.9943820021962059
 40
0.9943820021962059
 40
0.9943820021962059
 40
1.0
 40
1.0
 40
1.0
 40
1.0
 10
68.07031614209865
 20
438.4222777049912
 30
0.0
 10
68.06961645101823
 20
438.4221263731085
 30
0.0
 10
68.0689041664643
 20
438.422042031987
 30
0.0
 10
68.06818350641925
 20
438.4220257376106
 30
0.0
 10
68.0655083084071
 20
438.4219652504452
 30
0.0
 10
68.06265490780537
 20
438.4228571395566
 30
0.0
 10
68.05985853388773
 20
438.4246274251452
 30
0.0
 10
68.05978675349182
 20
438.4246728667793
 30
0.0
 10
68.05971498436601
 20
438.4247188872997
 30
0.0
 10
68.05964323050867
 20
438.4247654841419
 30
0.0
  0
LINE
  5
114
330
92
100
AcDbEntity
  8
(1_1) 402748040_
  6
Continuous
 62
     7
100
AcDbLine
 10
68.0572056915
 20
438.4263470512
 30
0.0
 11
68.0596432305
 21
438.4247654841
 31
0.0
  0
ARC
  5
115
330
92
100
AcDbEntity
  8
(1_1) 402748040_
  6
Continuous
 62
     7
100
AcDbCircle
 10
64.109251419
 20
439.6052360763
 30
0.0
 40
0.042776946985509
100
AcDbArc
 50
262.0511414825
 51
324.552643837
  0
LINE
  5
116
330
92
100
AcDbEntity
  8
(1_1) 402748040_
  6
Continuous
 62
     7
100
AcDbLine
 10
62.4789810633
 20
439.9252858616
 30
0.0
 11
62.4665137504
 21
439.6908848929
 31
0.0
  0
LINE
  5
117
330
92
100
AcDbEntity
  8
(1_1) 402748040_
  6
Continuous
 62
     7
100
AcDbLine
 10
62.4665137504
 20
439.9253182057
 30
0.0
 11
62.4665137504
 21
439.6908848929
 31
0.0
  0
SPLINE
  5
118
330
92
100
AcDbEntity
  8
(1_1) 402748040_
  6
Continuous
 62
     7
100
AcDbSpline
210
0.0
220
0.0
230
1.0
 70
    12
 71
     2
 72
     6
 73
     3
 74
     0
 42
0.000000001
 43
0.0000000001
 40
0.0
 40
0.0
 40
0.0
 40
0.8988798459684517
 40
0.8988798459684517
 40
0.8988798459684517
 10
56.79478551752808
 20
438.4868632640562
 30
0.0
 41
1.0
 10
56.79313317745626
 20
438.8074753610951
 30
0.0
 41
1.0
 10
56.79154977674277
 20
439.1292149220707
 30
0.0
 41
1.0
  0
LINE
  5
119
330
92
100
AcDbEntity
  8
(1_1) 402748040_
  6
Continuous
 62
     7
100
AcDbLine
 10
64.0986268678
 20
439.5633427993
 30
0.0
 11
64.1033358316
 21
439.5628701346
 31
0.0
  0
ARC
  5
11A
330
92
100
AcDbEntity
  8
(1_1) 402748040_
  6
Continuous
 62
     7
100
AcDbCircle
 10
60.7190963443
 20
439.6053224339
 30
0.0
 40
0.042852793318031
100
AcDbArc
 50
215.4793922262
 51
277.8394369833
  0
ARC
  5
11B
330
92
100
AcDbEntity
  8
(1_1) 402748040_
  6
Continuous
 62
     7
100
AcDbCircle
 10
59.1423886838
 20
439.3753194903
 30
0.0
 40
0.0576816155986705
100
AcDbArc
 50
285.2076392233
 51
358.217676772
  0
ARC
  5
11C
330
92
100
AcDbEntity
  8
(1_1) 402748040_
  6
Continuous
 62
     7
100
AcDbCircle
 10
56.0004941018
 20
437.8918037624
 30
0.0
 40
0.1306659438423611
100
AcDbArc
 50
335.4910757871
 51
3.5317944997
  0
ARC
  5
11D
330
92
100
AcDbEntity
  8
(1_1) 402748040_
  6
Continuous
 62
     7
100
AcDbCircle
 10
53.666927243
 20
437.1856356005
 30
0.0
 40
2.22984194432853
100
AcDbArc
 50
0.5162722434
 51
2.1291441354
  0
ARC
  5
11E
330
92
100
AcDbEntity
  8
(1_1) 402748040_
  6
Continuous
 62
     7
100
AcDbCircle
 10
64.1040459311
 20
439.6164772791
 30
0.0
 40
0.0534101037891814
100
AcDbArc
 50
183.9985607698
 51
264.1766701101
  0
ARC
  5
11F
330
92
100
AcDbEntity
  8
(1_1) 402748040_
  6
Continuous
 62
     7
100
AcDbCircle
 10
57.7777533394
 20
438.988456323
 30
0.0
 40
0.06386405878371
100
AcDbArc
 50
297.580542542
 51
0.9412782601
  0
LINE
  5
120
330
92
100
AcDbEntity
  8
(1_1) 402748040_
  6
Continuous
 62
     7
100
AcDbLine
 10
65.6707575882
 20
439.3196577967
 30
0.0
 11
65.6749795296
 21
439.3187446785
 31
0.0
  0
ARC
  5
121
330
92
100
AcDbEntity
  8
(1_1) 402748040_
  6
Continuous
 62
     7
100
AcDbCircle
 10
62.4180283976
 20
439.6949301311
 30
0.0
 40
0.0486538116474648
100
AcDbArc
 50
268.2895283144
 51
355.2307344985
  0
LINE
  5
122
330
92
100
AcDbEntity
  8
(1_1) 402748040_
  6
Continuous
 62
     7
100
AcDbLine
 10
55.662823928
 20
438.6591323521
 30
0.0
 11
55.6347202332
 21
438.6619532754
 31
0.0
  0
LINE
  5
123
330
92
100
AcDbEntity
  8
(1_1) 402748040_
  6
Continuous
 62
     7
100
AcDbLine
 10
54.6403412233
 20
437.9802762139
 30
0.0
 11
54.5840877107
 21
437.9802762139
 31
0.0
  0
LINE
  5
124
330
92
100
AcDbEntity
  8
(1_1) 402748040_
  6
Continuous
 62
     7
100
AcDbLine
 10
62.4165761334
 20
439.6462979985
 30
0.0
 11
62.4117010554
 21
439.6462979985
 31
0.0
  0
SPLINE
  5
125
330
92
100
AcDbEntity
  8
(1_1) 402748040_
  6
Continuous
 62
     7
100
AcDbSpline
210
0.0
220
0.0
230
1.0
 70
     8
 71
     3
 72
    14
 73
    10
 74
     0
 42
0.000000001
 43
0.0000000001
 40
0.0
 40
0.0
 40
0.0
 40
0.0
 40
0.0359975986861663
 40
0.0359975986861663
 40
0.0359975986861663
 40
0.2578256546023422
 40
0.2578256546023422
 40
0.2578256546023422
 40
0.4472211465199236
 40
0.4472211465199236
 40
0.4472211465199236
 40
0.4472211465199236
 10
59.15329765923572
 20
439.3187446784961
 30
0.0
 10
59.15250354957699
 20
439.3185727807052
 30
0.0
 10
59.15170879504275
 20
439.3184244564995
 30
0.0
 10
59.15091520053607
 20
439.3183000430535
 30
0.0
 10
59.14607350353824
 20
439.317541000239
 30
0.0
 10
59.14119798312005
 20
439.3176842298337
 30
0.0
 10
59.13669177146411
 20
439.3187182242181
 30
0.0
 10
59.13284442307378
 20
439.3196010359754
 30
0.0
 10
59.12917561355143
 20
439.3211539980505
 30
0.0
 10
59.12590389158269
 20
439.323276852077
 30
0.0
  0
SPLINE
  5
126
330
92
100
AcDbEntity
  8
(1_1) 402748040_
  6
Continuous
 62
     7
100
AcDbSpline
210
0.0
220
0.0
230
1.0
 70
     8
 71
     3
 72
    14
 73
    10
 74
     0
 42
0.000000001
 43
0.0000000001
 40
0.0
 40
0.0
 40
0.0
 40
0.0
 40
0.0385277157992971
 40
0.0385277157992971
 40
0.0385277157992971
 40
0.2603592493713971
 40
0.2603592493713971
 40
0.2603592493713971
 40
0.2864457099105796
 40
0.2864457099105796
 40
0.2864457099105796
 40
0.2864457099105796
 10
56.76863395830389
 20
438.4247654841419
 30
0.0
 10
56.76814360557268
 20
438.4244470498483
 30
0.0
 10
56.76765235796929
 20
438.4241554354417
 30
0.0
 10
56.76716149194733
 20
438.4238913994022
 30
0.0
 10
56.76436259389202
 20
438.4223858766637
 30
0.0
 10
56.76153087633753
 20
438.4217770487398
 30
0.0
 10
56.75889958241032
 20
438.4221155025754
 30
0.0
 10
56.75859015555893
 20
438.4221553030339
 30
0.0
 10
56.75828249492844
 20
438.4222083324967
 30
0.0
 10
56.75797693304762
 20
438.4222744168998
 30
0.0
  0
ARC
  5
127
330
92
100
AcDbEntity
  8
(1_1) 402748040_
  6
Continuous
 62
     7
100
AcDbCircle
 10
62.4102928921
 20
439.6949795244
 30
0.0
 40
0.0487018878775019
100
AcDbArc
 50
184.8228597905
 51
271.6568773964
  0
LINE
  5
128
330
92
100
AcDbEntity
  8
(1_1) 402748040_
  6
Continuous
 62
     7
100
AcDbLine
 10
62.3617634384
 20
439.6908848929
 30
0.0
 11
62.3617634384
 21
439.9253182057
 31
0.0
  0
LINE
  5
129
330
92
100
AcDbEntity
  8
(1_1) 402748040_
  6
Continuous
 62
     7
100
AcDbLine
 10
60.7249413572
 20
439.5628701346
 30
0.0
 11
60.729650321
 21
439.5633427993
 31
0.0
  0
LINE
  5
12A
330
92
100
AcDbEntity
  8
(1_1) 402748040_
  6
Continuous
 62
     7
100
AcDbLine
 10
59.1532976592
 20
439.3187446785
 30
0.0
 11
59.1575196007
 21
439.3196577967
 31
0.0
  0
SPLINE
  5
12B
330
92
100
AcDbEntity
  8
(1_1) 402748040_
  6
Continuous
 62
     7
100
AcDbSpline
210
0.0
220
0.0
230
1.0
 70
    12
 71
     2
 72
     6
 73
     3
 74
     0
 42
0.000000001
 43
0.0000000001
 40
0.1736681274971549
 40
0.1736681274971549
 40
0.1736681274971549
 40
1.0
 40
1.0
 40
1.0
 10
68.95443208838684
 20
437.8564574003134
 30
0.0
 41
1.0
 10
68.94375870848485
 20
437.561986837135
 30
0.0
 41
1.0
 10
68.93304742801213
 20
437.2684787407104
 30
0.0
 41
1.0
  0
SPLINE
  5
12C
330
92
100
AcDbEntity
  8
(1_1) 402748040_
  6
Continuous
 62
     7
100
AcDbSpline
210
0.0
220
0.0
230
1.0
 70
    12
 71
     2
 72
     6
 73
     3
 74
     0
 42
0.000000001
 43
0.0000000001
 40
0.5553413034204239
 40
0.5553413034204239
 40
0.5553413034204239
 40
1.0
 40
1.0
 40
1.0
 10
65.61952031478876
 20
439.69029039622
 30
0.0
 41
1.0
 10
65.6238866778163
 20
439.5317717370919
 30
0.0
 41
1.0
 10
65.62823479562299
 20
439.3735254540394
 30
0.0
 41
1.0
  0
SPLINE
  5
12D
330
92
100
AcDbEntity
  8
(1_1) 402748040_
  6
Continuous
 62
     7
100
AcDbSpline
210
0.0
220
0.0
230
1.0
 70
     8
 71
     3
 72
    14
 73
    10
 74
     0
 42
0.000000001
 43
0.0000000001
 40
0.0
 40
0.0
 40
0.0
 40
0.0
 40
0.034400827085811
 40
0.034400827085811
 40
0.034400827085811
 40
0.2562265038928151
 40
0.2562265038928151
 40
0.2562265038928151
 40
0.3408964708182249
 40
0.3408964708182249
 40
0.3408964708182249
 40
0.3408964708182249
 10
57.80387488218645
 20
438.9305583766989
 30
0.0
 10
57.80325524051388
 20
438.9303260811501
 30
0.0
 10
57.80263493990654
 20
438.9301152623303
 30
0.0
 10
57.80201526720299
 20
438.9299263579306
 30
0.0
 10
57.79805990812622
 20
438.928720584741
 30
0.0
 10
57.79406742666222
 20
438.9284129804887
 30
0.0
 10
57.79036749796133
 20
438.9290292919808
 30
0.0
 10
57.78895526059928
 20
438.9292645338425
 30
0.0
 10
57.78757076101534
 20
438.9296368626741
 30
0.0
 10
57.78623002997784
 20
438.9301391330584
 30
0.0
  0
ARC
  5
12E
330
92
100
AcDbEntity
  8
(1_1) 402748040_
  6
Continuous
 62
     7
100
AcDbCircle
 10
68.8280548394
 20
437.8918540726
 30
0.0
 40
0.1309340980155227
100
AcDbArc
 50
176.4975046335
 51
204.4796250804
  0
LINE
  5
12F
330
92
100
AcDbEntity
  8
(1_1) 402748040_
  6
Continuous
 62
     7
100
AcDbLine
 10
69.1935569556
 20
438.6619532754
 30
0.0
 11
69.1654532608
 21
438.6591323521
 31
0.0
  0
LINE
  5
130
330
92
100
AcDbEntity
  8
(1_1) 402748040_
  6
Continuous
 62
     7
100
AcDbLine
 10
64.0401777601
 20
439.8665724537
 30
0.0
 11
64.050765838
 21
439.612752917
 31
0.0
  0
LINE
  5
131
330
92
100
AcDbEntity
  8
(1_1) 402748040_
  6
Continuous
 62
     7
100
AcDbLine
 10
60.7775113508
 20
439.612752917
 30
0.0
 11
60.7880994287
 21
439.8665724537
 31
0.0
  0
SPLINE
  5
132
330
92
100
AcDbEntity
  8
(1_1) 402748040_
  6
Continuous
 62
     7
100
AcDbSpline
210
0.0
220
0.0
230
1.0
 70
    12
 71
     2
 72
     6
 73
     3
 74
     0
 42
0.000000001
 43
0.0000000001
 40
0.0737395511536007
 40
0.0737395511536007
 40
0.0737395511536007
 40
1.0
 40
1.0
 40
1.0
 10
68.71149564610032
 20
438.5609454829188
 30
0.0
 41
1.0
 10
68.70446174886547
 20
438.2297973455729
 30
0.0
 41
1.0
 10
68.69736530815784
 20
437.8998530999492
 30
0.0
 41
1.0
  0
LINE
  5
133
330
92
100
AcDbEntity
  8
(1_1) 402748040_
  6
Continuous
 62
     7
100
AcDbLine
 10
56.7686339583
 20
438.4247654841
 30
0.0
 11
56.7710714973
 21
438.4263470512
 31
0.0
  0
SPLINE
  5
134
330
92
100
AcDbEntity
  8
(1_1) 402748040_
  6
Continuous
 62
     7
100
AcDbSpline
210
0.0
220
0.0
230
1.0
 70
    12
 71
     2
 72
     6
 73
     3
 74
     0
 42
0.000000001
 43
0.0000000001
 40
0.0
 40
0.0
 40
0.0
 40
0.9262604488466755
 40
0.9262604488466755
 40
0.9262604488466755
 10
56.13091188065491
 20
437.8998530999492
 30
0.0
 41
1.0
 10
56.12381543994731
 20
438.2297973455719
 30
0.0
 41
1.0
 10
56.11678154271245
 20
438.5609454829187
 30
0.0
 41
1.0
  0
ARC
  5
135
330
92
100
AcDbEntity
  8
(1_1) 402748040_
  6
Continuous
 62
     7
100
AcDbCircle
 10
71.132514813
 20
437.1863013955
 30
0.0
 40
2.201002020396801
100
AcDbArc
 50
177.8602883514
 51
179.4942952695
  0
SPLINE
  5
136
330
92
100
AcDbEntity
  8
(1_1) 402748040_
  6
Continuous
 62
     7
100
AcDbSpline
210
0.0
220
0.0
230
1.0
 70
     8
 71
     3
 72
    11
 73
     7
 74
     0
 42
0.000000001
 43
0.0000000001
 40
0.6577706514857888
 40
0.6577706514857888
 40
0.6577706514857888
 40
0.6577706514857888
 40
0.8315147691063832
 40
0.8315147691063832
 40
0.8315147691063832
 40
1.0
 40
1.0
 40
1.0
 40
1.0
 10
67.04209296469948
 20
438.9301539855435
 30
0.0
 10
67.03934817134373
 20
438.9291257595515
 30
0.0
 10
67.03639305209148
 20
438.9286390130711
 30
0.0
 10
67.03337583483973
 20
438.9287263227666
 30
0.0
 10
67.03044752416517
 20
438.9288110597584
 30
0.0
 10
67.02740754613377
 20
438.9294317517611
 30
0.0
 10
67.02440230662663
 20
438.9305583766988
 30
0.0
  0
ARC
  5
137
330
92
100
AcDbEntity
  8
(1_1) 402748040_
  6
Continuous
 62
     7
100
AcDbCircle
 10
67.0502898289
 20
438.9883171558
 30
0.0
 40
0.0636325167071438
100
AcDbArc
 50
178.9299684598
 51
242.5482107387
  0
LINE
  5
138
330
92
100
AcDbEntity
  8
(1_1) 402748040_
  6
Continuous
 62
     7
100
AcDbLine
 10
62.3617634384
 20
439.6908848929
 30
0.0
 11
62.3492962099
 21
439.9252842753
 31
0.0
  0
SPLINE
  5
139
330
92
100
AcDbEntity
  8
(1_1) 402748040_
  6
Continuous
 62
     7
100
AcDbSpline
210
0.0
220
0.0
230
1.0
 70
    12
 71
     2
 72
     6
 73
     3
 74
     0
 42
0.000000001
 43
0.0000000001
 40
0.0
 40
0.0
 40
0.0
 40
0.8263318724995217
 40
0.8263318724995217
 40
0.8263318724995217
 10
55.89522976080085
 20
437.2684787407121
 30
0.0
 41
1.0
 10
55.88451848032812
 20
437.5619868371367
 30
0.0
 41
1.0
 10
55.87384510042621
 20
437.8564574003133
 30
0.0
 41
1.0
  0
LINE
  5
13A
330
92
100
AcDbEntity
  8
(1_1) 402748040_
  6
Continuous
 62
     7
100
AcDbLine
 10
68.70889058
 20
437.8375989595
 30
0.0
 11
68.7101523431
 21
437.8358349506
 31
0.0
  0
SPLINE
  5
13B
330
92
100
AcDbEntity
  8
(1_1) 402748040_
  6
Continuous
 62
     7
100
AcDbSpline
210
0.0
220
0.0
230
1.0
 70
     8
 71
     3
 72
    20
 73
    16
 74
     0
 42
0.000000001
 43
0.0000000001
 40
0.0
 40
0.0
 40
0.0
 40
0.0
 40
0.1774621681666979
 40
0.1774621681666979
 40
0.1774621681666979
 40
0.3991817830074639
 40
0.3991817830074639
 40
0.3991817830074639
 40
0.621009284034461
 40
0.621009284034461
 40
0.621009284034461
 40
0.8429418233465475
 40
0.8429418233465475
 40
0.8429418233465475
 40
1.0
 40
1.0
 40
1.0
 40
1.0
 10
68.05720569149508
 20
438.4263470512337
 30
0.0
 10
68.05496311244617
 20
438.4278008650016
 30
0.0
 10
68.0527149321978
 20
438.4298397657459
 30
0.0
 10
68.05058197760358
 20
438.4323546078535
 30
0.0
 10
68.0479186228545
 20
438.4354948137859
 30
0.0
 10
68.04537001961337
 20
438.4394632203669
 30
0.0
 10
68.0431496567192
 20
438.4439312698277
 30
0.0
 10
68.04092823012999
 20
438.4484014597681
 30
0.0
 10
68.03897416697835
 20
438.4534952052956
 30
0.0
 10
68.03745235063796
 20
438.4587906797315
 30
0.0
 10
68.03592982023677
 20
438.4640886388896
 30
0.0
 10
68.03479802978336
 20
438.4697348245937
 30
0.0
 10
68.03415299020439
 20
438.4752616143402
 30
0.0
 10
68.03369594482525
 20
438.4791776433676
 30
0.0
 10
68.03347227527279
 20
438.4830997554732
 30
0.0
 10
68.03349167128465
 20
438.4868632640555
 30
0.0
  0
SPLINE
  5
13C
330
92
100
AcDbEntity
  8
(1_1) 402748040_
  6
Continuous
 62
     7
100
AcDbSpline
210
0.0
220
0.0
230
1.0
 70
    12
 71
     2
 72
     6
 73
     3
 74
     0
 42
0.000000001
 43
0.0000000001
 40
0.1011201540337414
 40
0.1011201540337414
 40
0.1011201540337414
 40
1.0
 40
1.0
 40
1.0
 10
68.03672741207002
 20
439.1292149220692
 30
0.0
 41
1.0
 10
68.03514401135654
 20
438.8074753610941
 30
0.0
 41
1.0
 10
68.03349167128472
 20
438.4868632640565
 30
0.0
 41
1.0
  0
SPLINE
  5
13D
330
92
100
AcDbEntity
  8
(1_1) 402748040_
  6
Continuous
 62
     7
100
AcDbSpline
210
0.0
220
0.0
230
1.0
 70
    12
 71
     2
 72
     6
 73
     3
 74
     0
 42
0.000000001
 43
0.0000000001
 40
0.0
 40
0.0
 40
0.0
 40
0.4446586965943444
 40
0.4446586965943444
 40
0.4446586965943444
 10
59.20004239319
 20
439.3735254540406
 30
0.0
 41
1.0
 10
59.20439051099676
 20
439.5317717370955
 30
0.0
 41
1.0
 10
59.20875687402445
 20
439.6902903962286
 30
0.0
 41
1.0
  0
LINE
  5
13E
330
92
100
AcDbEntity
  8
(1_1) 402748040_
  6
Continuous
 62
     7
100
AcDbLine
 10
57.8038748822
 20
438.9305583767
 30
0.0
 11
57.8073220829
 21
438.9318497208
 31
0.0
  0
SPLINE
  5
13F
330
92
100
AcDbEntity
  8
(1_1) 402748040_
  6
Continuous
 62
     7
100
AcDbSpline
210
0.0
220
0.0
230
1.0
 70
    12
 71
     2
 72
     6
 73
     3
 74
     0
 42
0.000000001
 43
0.0000000001
 40
0.3877932510631263
 40
0.3877932510631263
 40
0.3877932510631263
 40
1.0
 40
1.0
 40
1.0
 10
66.98160134719996
 20
439.4266112883828
 30
0.0
 41
1.0
 10
66.9841521059447
 20
439.2077985162849
 30
0.0
 41
1.0
 10
66.9866684086424
 20
438.9895054604294
 30
0.0
 41
1.0
  0
SPLINE
  5
140
330
92
100
AcDbEntity
  8
(1_1) 402748040_
  6
Continuous
 62
     7
100
AcDbSpline
210
0.0
220
0.0
230
1.0
 70
     8
 71
     3
 72
    14
 73
    10
 74
     0
 42
0.000000001
 43
0.0000000001
 40
0.5529933813753037
 40
0.5529933813753037
 40
0.5529933813753037
 40
0.5529933813753037
 40
0.7242747911698114
 40
0.7242747911698114
 40
0.7242747911698114
 40
0.8618904092509019
 40
0.8618904092509019
 40
0.8618904092509019
 40
1.0
 40
1.0
 40
1.0
 40
1.0
 10
65.70237486978756
 20
439.3232793544988
 30
0.0
 10
65.69941334339377
 20
439.3213577928329
 30
0.0
 10
65.69613423627779
 20
439.3199023750579
 30
0.0
 10
65.69269612493251
 20
439.3189925130656
 30
0.0
 10
65.68990949415429
 20
439.3182550589295
 30
0.0
 10
65.68698129937675
 20
439.3178596683812
 30
0.0
 10
65.6840073815344
 20
439.3178191998115
 30
0.0
 10
65.68104276211629
 20
439.3177788577732
 30
0.0
 10
65.67800042527858
 20
439.3180907570986
 30
0.0
 10
65.67497952957733
 20
439.318744678496
 30
0.0
  0
LINE
  5
141
330
92
100
AcDbEntity
  8
(1_1) 402748040_
  6
Continuous
 62
     7
100
AcDbLine
 10
67.0209551059
 20
438.9318497208
 30
0.0
 11
67.0244023066
 21
438.9305583767
 31
0.0
  0
ARC
  5
142
330
92
100
AcDbEntity
  8
(1_1) 402748040_
  6
Continuous
 62
     7
100
AcDbCircle
 10
60.7242502446
 20
439.6164588875
 30
0.0
 40
0.0533898834194972
100
AcDbArc
 50
275.8050617189
 51
356.0197074013
  0
SPLINE
  5
143
330
92
100
AcDbEntity
  8
(1_1) 402748040_
  6
Continuous
 62
     7
100
AcDbSpline
210
0.0
220
0.0
230
1.0
 70
    12
 71
     2
 72
     6
 73
     3
 74
     0
 42
0.000000001
 43
0.0000000001
 40
0.0
 40
0.0
 40
0.0
 40
0.6122067489384392
 40
0.6122067489384392
 40
0.6122067489384392
 10
57.84160878017023
 20
438.9895054604278
 30
0.0
 41
1.0
 10
57.84412508286787
 20
439.2077985162773
 30
0.0
 41
1.0
 10
57.84667584161266
 20
439.4266112883773
 30
0.0
 41
1.0
  0
LINE
  5
144
330
92
100
AcDbEntity
  8
(1_1) 402748040_
  6
Continuous
 62
     7
100
AcDbLine
 10
56.1181248457
 20
437.8358349506
 30
0.0
 11
56.1193866088
 21
437.8375989595
 31
0.0
  0
ELLIPSE
  5
145
330
92
100
AcDbEntity
  8
(1_1) 402748040_
  6
Continuous
 62
     7
100
AcDbEllipse
 10
62.4141385944
 20
436.7412226096
 30
0.0
 11
6.499999999999998
 21
0.0
 31
0.0
210
0.0
220
0.0
230
1.0
 40
0.3746065934
 41
0.0
 42
6.283185307179586
  0
ELLIPSE
  5
146
330
92
100
AcDbEntity
  8
(1_1) 402748040_
  6
Continuous
 62
     7
100
AcDbEllipse
 10
62.4141385944
 20
436.7412226096
 30
0.0
 11
-5.499999999999998
 21
0.0
 31
0.0
210
0.0
220
0.0
230
1.0
 40
0.3746065934
 41
0.0
 42
6.283185307179586
  0
SPLINE
  5
147
330
92
100
AcDbEntity
  8
(1_1) 402748040_
  6
Continuous
 62
     7
100
AcDbSpline
210
0.0
220
0.0
230
1.0
 70
    12
 71
     2
 72
     6
 73
     3
 74
     0
 42
0.000000001
 43
0.0000000001
 40
0.3492541798645846
 40
0.3492541798645846
 40
0.3492541798645846
 40
1.0
 40
1.0
 40
1.0
 10
67.76714827842422
 20
437.2143683954473
 30
0.0
 41
1.0
 10
67.76537339363183
 20
436.9702107239752
 30
0.0
 41
1.0
 10
67.76357737086008
 20
436.7260349545391
 30
0.0
 41
1.0
  0
ELLIPSE
  5
148
330
92
100
AcDbEntity
  8
(1_1) 402748040_
  6
Continuous
 62
     7
100
AcDbEllipse
 10
62.4141385927
 20
437.204814537
 30
0.0
 11
5.500000001714137
 21
-1.936922844336664E-10
 31
0.0
210
0.0
220
0.0
230
1.0
 40
0.3746065934
 41
-0.289075497062683
 42
-0.2345232784285498
  0
ELLIPSE
  5
149
330
92
100
AcDbEntity
  8
(1_1) 402748040_
  6
Continuous
 62
     7
100
AcDbEllipse
 10
62.4141385944
 20
437.9465616205
 30
0.0
 11
5.500000000000056
 21
-9.714451465470120E-14
 31
0.0
210
0.0
220
0.0
230
1.0
 40
0.3746065934
 41
-0.7538031896852635
 42
-0.6462158247316445
  0
LINE
  5
14A
330
92
100
AcDbEntity
  8
(1_1) 402748040_
  6
Continuous
 62
     7
100
AcDbLine
 10
66.4078452843
 20
435.7882117374
 30
0.0
 11
66.4241400952
 21
436.5364333311
 31
0.0
  0
ELLIPSE
  5
14B
330
92
100
AcDbEntity
  8
(1_1) 402748040_
  6
Continuous
 62
     7
100
AcDbEllipse
 10
62.4141385975
 20
437.2048145357
 30
0.0
 11
5.499999996736895
 21
9.487827190568510E-10
 31
0.0
210
0.0
220
0.0
230
1.0
 40
0.3746065934
 41
-0.8126742729918908
 42
-0.7581220543273677
  0
ELLIPSE
  5
14C
330
92
100
AcDbEntity
  8
(1_1) 402748040_
  6
Continuous
 62
     7
100
AcDbEllipse
 10
62.4141385944
 20
437.9465616205
 30
0.0
 11
5.500000000000088
 21
2.775557561562891E-14
 31
0.0
210
0.0
220
0.0
230
1.0
 40
0.3746065934
 41
-1.182810747553738
 42
-1.071109582310617
  0
LINE
  5
14D
330
92
100
AcDbEntity
  8
(1_1) 402748040_
  6
Continuous
 62
     7
100
AcDbLine
 10
63.9820027153
 20
435.2299660963
 30
0.0
 11
64.0017900097
 21
435.8772399959
 31
0.0
  0
ELLIPSE
  5
14E
330
92
100
AcDbEntity
  8
(1_1) 402748040_
  6
Continuous
 62
     7
100
AcDbEllipse
 10
62.4141385945
 20
437.2048145367
 30
0.0
 11
5.499999999764075
 21
5.356826093816380E-11
 31
0.0
210
0.0
220
0.0
230
1.0
 40
0.3746065934
 41
-1.336273048333488
 42
-1.281720829688391
  0
ELLIPSE
  5
14F
330
92
100
AcDbEntity
  8
(1_1) 402748040_
  6
Continuous
 62
     7
100
AcDbEllipse
 10
62.4141385908
 20
437.2048145318
 30
0.0
 11
-5.499999992522674
 21
1.523600690056526E-9
 31
0.0
210
0.0
220
0.0
230
1.0
 40
0.374606593
 41
1.281720830059369
 42
1.336273048771855
  0
LINE
  5
150
330
92
100
AcDbEntity
  8
(1_1) 402748040_
  6
Continuous
 62
     7
100
AcDbLine
 10
60.8264871791
 20
435.8772399959
 30
0.0
 11
60.8462744735
 21
435.2299660963
 31
0.0
  0
ELLIPSE
  5
151
330
92
100
AcDbEntity
  8
(1_1) 402748040_
  6
Continuous
 62
     7
100
AcDbEllipse
 10
62.4141385944
 20
437.9465616205
 30
0.0
 11
-5.499999999999218
 21
2.359223927328458E-13
 31
0.0
210
0.0
220
0.0
230
1.0
 40
0.3746065934
 41
1.071109582310697
 42
1.182810747553819
  0
ELLIPSE
  5
152
330
92
100
AcDbEntity
  8
(1_1) 402748040_
  6
Continuous
 62
     7
100
AcDbEllipse
 10
62.4141385845
 20
437.2048145331
 30
0.0
 11
-5.499999989481752
 21
3.064340448055702E-9
 31
0.0
210
0.0
220
0.0
230
1.0
 40
0.3746065934
 41
0.7581220548866696
 42
0.8126742735992012
  0
LINE
  5
153
330
92
100
AcDbEntity
  8
(1_1) 402748040_
  6
Continuous
 62
     7
100
AcDbLine
 10
58.4041370936
 20
436.5364333311
 30
0.0
 11
58.4204319045
 21
435.7882117374
 31
0.0
  0
ELLIPSE
  5
154
330
92
100
AcDbEntity
  8
(1_1) 402748040_
  6
Continuous
 62
     7
100
AcDbEllipse
 10
62.4141385944
 20
437.9465616205
 30
0.0
 11
-5.500000000000148
 21
-2.775557561562891E-14
 31
0.0
210
0.0
220
0.0
230
1.0
 40
0.3746065934
 41
0.6462158247316419
 42
0.7538031896852696
  0
ELLIPSE
  5
155
330
92
100
AcDbEntity
  8
(1_1) 402748040_
  6
Continuous
 62
     7
100
AcDbEllipse
 10
62.4141385953
 20
437.2048145369
 30
0.0
 11
-5.500000000900545
 21
-1.123545700920659E-10
 31
0.0
210
0.0
220
0.0
230
1.0
 40
0.3746065934
 41
0.2345232784511495
 42
0.2890754970894551
  0
SPLINE
  5
156
330
92
100
AcDbEntity
  8
(1_1) 402748040_
  6
Continuous
 62
     7
100
AcDbSpline
210
0.0
220
0.0
230
1.0
 70
    12
 71
     2
 72
     6
 73
     3
 74
     0
 42
0.000000001
 43
0.0000000001
 40
0.3492541798356427
 40
0.3492541798356427
 40
0.3492541798356427
 40
1.0
 40
1.0
 40
1.0
 10
57.06112891038837
 20
437.2143683954661
 30
0.0
 41
1.0
 10
57.06290379518084
 20
436.970210723982
 30
0.0
 41
1.0
 10
57.06469981795266
 20
436.726034954539
 30
0.0
 41
1.0
  0
LINE
  5
157
330
92
100
AcDbEntity
  8
(1_1) 402748040_
  6
Continuous
 62
     7
100
AcDbLine
 10
67.3593238007
 20
437.6430169511
 30
0.0
 11
65.1536700243
 21
437.4216232751
 31
0.0
  0
LINE
  5
158
330
92
100
AcDbEntity
  8
(1_1) 402748040_
  6
Continuous
 62
     7
100
AcDbLine
 10
59.1738252946
 20
438.339191205
 30
0.0
 11
59.0002497654
 21
438.3566139414
 31
0.0
  0
LINE
  5
159
330
92
100
AcDbEntity
  8
(1_1) 402748040_
  6
Continuous
 62
     7
100
AcDbLine
 10
58.0938543278
 20
437.5802921855
 30
0.0
 11
57.3015070853
 21
437.5007599077
 31
0.0
  0
ELLIPSE
  5
15A
330
92
100
AcDbEntity
  8
(1_1) 402748040_
  6
Continuous
 62
     7
100
AcDbEllipse
 10
62.4141385944
 20
437.2048145368
 30
0.0
 11
2.800000000069919
 21
1.522393322517246E-11
 31
0.0
210
0.0
220
0.0
230
1.0
 40
0.3746065934
 41
1.255399853179561
 42
1.362594024795717
  0
LINE
  5
15B
330
92
100
AcDbEntity
  8
(1_1) 402748040_
  6
Continuous
 62
     7
100
AcDbLine
 10
63.6724638073
 20
438.7469118472
 30
0.0
 11
63.2826801495
 21
438.2019744771
 31
0.0
  0
LINE
  5
15C
330
92
100
AcDbEntity
  8
(1_1) 402748040_
  6
Continuous
 62
     7
100
AcDbLine
 10
62.9929024016
 20
438.2310610734
 30
0.0
 11
63.3781548739
 21
438.7696636156
 31
0.0
  0
LINE
  5
15D
330
92
100
AcDbEntity
  8
(1_1) 402748040_
  6
Continuous
 62
     7
100
AcDbLine
 10
62.9753695788
 20
438.7908037525
 30
0.0
 11
62.9929024016
 21
438.2310610734
 31
0.0
  0
ELLIPSE
  5
15E
330
92
100
AcDbEntity
  8
(1_1) 402748040_
  6
Continuous
 62
     7
100
AcDbEllipse
 10
62.4141385943
 20
437.2048145368
 30
0.0
 11
2.800000000094165
 21
1.178224184883447E-11
 31
0.0
210
0.0
220
0.0
230
1.0
 40
0.3746065934
 41
0.208202301984846
 42
0.3153964736016094
  0
LINE
  5
15F
330
92
100
AcDbEntity
  8
(1_1) 402748040_
  6
Continuous
 62
     7
100
AcDbLine
 10
65.0760243108
 20
437.53017593
 30
0.0
 11
67.2171286955
 21
437.7450904264
 31
0.0
  0
ELLIPSE
  5
160
330
92
100
AcDbEntity
  8
(1_1) 402748040_
  6
Continuous
 62
     7
100
AcDbEllipse
 10
62.4141385945
 20
437.2048145367
 30
0.0
 11
-2.80000000015684
 21
3.114175584073564E-11
 31
0.0
210
0.0
220
0.0
230
1.0
 40
0.3746065934
 41
-1.362594024784939
 42
-1.25539985317193
  0
LINE
  5
161
330
92
100
AcDbEntity
  8
(1_1) 402748040_
  6
Continuous
 62
     7
100
AcDbLine
 10
61.450122315
 20
438.7696636156
 30
0.0
 11
61.8353747872
 21
438.2310610734
 31
0.0
  0
LINE
  5
162
330
92
100
AcDbEntity
  8
(1_1) 402748040_
  6
Continuous
 62
     7
100
AcDbLine
 10
61.5455970393
 20
438.2019744771
 30
0.0
 11
61.1558133815
 21
438.7469118472
 31
0.0
  0
SPLINE
  5
163
330
92
100
AcDbEntity
  8
(1_1) 402748040_
  6
Continuous
 62
     7
100
AcDbSpline
210
0.0
220
0.0
230
1.0
 70
    12
 71
     2
 72
     6
 73
     3
 74
     0
 42
0.000000001
 43
0.0000000001
 40
0.0
 40
0.0
 40
0.0
 40
0.7865907188373881
 40
0.7865907188373881
 40
0.7865907188373881
 10
59.75225287802979
 20
437.5301759300376
 30
0.0
 41
1.0
 10
59.75515440105792
 20
437.8253045595585
 30
0.0
 41
1.0
 10
59.75811525488034
 20
438.1203129611049
 30
0.0
 41
1.0
  0
LINE
  5
164
330
92
100
AcDbEntity
  8
(1_1) 402748040_
  6
Continuous
 62
     7
100
AcDbLine
 10
57.6111484933
 20
437.7450904264
 30
0.0
 11
59.752252878
 21
437.53017593
 31
0.0
  0
ELLIPSE
  5
165
330
92
100
AcDbEntity
  8
(1_1) 402748040_
  6
Continuous
 62
     7
100
AcDbEllipse
 10
62.4141385944
 20
437.2048145368
 30
0.0
 11
2.800000000007141
 21
2.498001805406602E-12
 31
0.0
210
0.0
220
0.0
230
1.0
 40
0.3746065934
 41
0.7318010775870185
 42
0.8389952492054925
  0
LINE
  5
166
330
92
100
AcDbEntity
  8
(1_1) 402748040_
  6
Continuous
 62
     7
100
AcDbLine
 10
65.756576588
 20
438.3774477886
 30
0.0
 11
64.4972605036
 21
437.9056996802
 31
0.0
  0
LINE
  5
167
330
92
100
AcDbEntity
  8
(1_1) 402748040_
  6
Continuous
 62
     7
100
AcDbLine
 10
64.2851284692
 20
437.9851657389
 30
0.0
 11
65.5102444992
 21
438.4441022814
 31
0.0
  0
LINE
  5
168
330
92
100
AcDbEntity
  8
(1_1) 402748040_
  6
Continuous
 62
     7
100
AcDbLine
 10
67.5267701036
 20
437.5007599077
 30
0.0
 11
66.734422861
 21
437.5802921855
 31
0.0
  0
SPLINE
  5
169
330
92
100
AcDbEntity
  8
(1_1) 402748040_
  6
Continuous
 62
     7
100
AcDbSpline
210
0.0
220
0.0
230
1.0
 70
    12
 71
     2
 72
     6
 73
     3
 74
     0
 42
0.000000001
 43
0.0000000001
 40
0.0694711475228965
 40
0.0694711475228965
 40
0.0694711475228965
 40
1.0
 40
1.0
 40
1.0
 10
64.2686053263797
 20
438.6809099162858
 30
0.0
 41
1.0
 10
64.27689598071402
 20
438.3331290413874
 30
0.0
 41
1.0
 10
64.28512846920515
 20
437.9851657388967
 30
0.0
 41
1.0
  0
SPLINE
  5
16A
330
92
100
AcDbEntity
  8
(1_1) 402748040_
  6
Continuous
 62
     7
100
AcDbSpline
210
0.0
220
0.0
230
1.0
 70
    12
 71
     2
 72
     6
 73
     3
 74
     0
 42
0.000000001
 43
0.0000000001
 40
0.0
 40
0.0
 40
0.0
 40
0.9305288524791709
 40
0.9305288524791709
 40
0.9305288524791709
 10
60.54314871960758
 20
437.9851657388967
 30
0.0
 41
1.0
 10
60.55138120809873
 20
438.3331290413886
 30
0.0
 41
1.0
 10
60.55967186243306
 20
438.6809099162873
 30
0.0
 41
1.0
  0
LINE
  5
16B
330
92
100
AcDbEntity
  8
(1_1) 402748040_
  6
Continuous
 62
     7
100
AcDbLine
 10
59.3180326896
 20
438.4441022814
 30
0.0
 11
60.5431487196
 21
437.9851657389
 31
0.0
  0
LINE
  5
16C
330
92
100
AcDbEntity
  8
(1_1) 402748040_
  6
Continuous
 62
     7
100
AcDbLine
 10
65.8280274234
 20
438.3566139414
 30
0.0
 11
65.6544518943
 21
438.339191205
 31
0.0
  0
SPLINE
  5
16D
330
92
100
AcDbEntity
  8
(1_1) 402748040_
  6
Continuous
 62
     7
100
AcDbSpline
210
0.0
220
0.0
230
1.0
 70
    12
 71
     2
 72
     6
 73
     3
 74
     0
 42
0.000000001
 43
0.0000000001
 40
0.2134092811625118
 40
0.2134092811625118
 40
0.2134092811625118
 40
1.0
 40
1.0
 40
1.0
 10
65.0701619339324
 20
438.1203129611049
 30
0.0
 41
1.0
 10
65.07312278775481
 20
437.8253045595584
 30
0.0
 41
1.0
 10
65.07602431078296
 20
437.5301759300376
 30
0.0
 41
1.0
  0
LINE
  5
16E
330
92
100
AcDbEntity
  8
(1_1) 402748040_
  6
Continuous
 62
     7
100
AcDbLine
 10
60.3310166853
 20
437.9056996802
 30
0.0
 11
59.0717006008
 21
438.3774477886
 31
0.0
  0
ELLIPSE
  5
16F
330
92
100
AcDbEntity
  8
(1_1) 402748040_
  6
Continuous
 62
     7
100
AcDbEllipse
 10
62.4141385944
 20
437.2048145368
 30
0.0
 11
-2.800000000011479
 21
2.428612866367530E-12
 31
0.0
210
0.0
220
0.0
230
1.0
 40
0.3746065934
 41
-0.3153964736074828
 42
-0.2082023019890595
  0
LINE
  5
170
330
92
100
AcDbEntity
  8
(1_1) 402748040_
  6
Continuous
 62
     7
100
AcDbLine
 10
59.6746071645
 20
437.4216232751
 30
0.0
 11
57.4689533881
 21
437.6430169511
 31
0.0
  0
LINE
  5
171
330
92
100
AcDbEntity
  8
(1_1) 402748040_
  6
Continuous
 62
     7
100
AcDbLine
 10
61.8353747872
 20
438.2310610734
 30
0.0
 11
61.85290761
 21
438.7908037525
 31
0.0
  0
ELLIPSE
  5
172
330
92
100
AcDbEntity
  8
(1_1) 402748040_
  6
Continuous
 62
     7
100
AcDbEllipse
 10
62.4141385944
 20
437.2048145368
 30
0.0
 11
-2.799999999994631
 21
-3.011479954295738E-12
 31
0.0
210
0.0
220
0.0
230
1.0
 40
0.3746065934
 41
-0.8389952492078825
 42
-0.7318010775891226
  0
LINE
  5
173
330
92
100
AcDbEntity
  8
(1_1) 402748040_
  6
Continuous
 62
     7
100
AcDbLine
 10
66.4241400952
 20
436.5364333311
 30
0.0
 11
65.6667424061
 21
436.8201594993
 31
0.0
  0
LINE
  5
174
330
92
100
AcDbEntity
  8
(1_1) 402748040_
  6
Continuous
 62
     7
100
AcDbLine
 10
64.9814231395
 20
436.3225588778
 30
0.0
 11
66.4078452843
 21
435.7882117374
 31
0.0
  0
LINE
  5
175
330
92
100
AcDbEntity
  8
(1_1) 402748040_
  6
Continuous
 62
     7
100
AcDbLine
 10
60.8462744735
 20
435.2299660963
 30
0.0
 11
61.2454661884
 21
435.7880564084
 31
0.0
  0
LINE
  5
176
330
92
100
AcDbEntity
  8
(1_1) 402748040_
  6
Continuous
 62
     7
100
AcDbLine
 10
66.1957132499
 20
435.7087456786
 30
0.0
 11
64.8392074541
 21
436.2169016938
 31
0.0
  0
LINE
  5
177
330
92
100
AcDbEntity
  8
(1_1) 402748040_
  6
Continuous
 62
     7
100
AcDbLine
 10
61.5262899338
 20
435.7464516616
 30
0.0
 11
61.1360522214
 21
435.2008795001
 31
0.0
  0
LINE
  5
178
330
92
100
AcDbEntity
  8
(1_1) 402748040_
  6
Continuous
 62
     7
100
AcDbLine
 10
65.2141385944
 20
436.9819362336
 30
0.0
 11
67.7635773709
 21
436.7260349545
 31
0.0
  0
LINE
  5
179
330
92
100
AcDbEntity
  8
(1_1) 402748040_
  6
Continuous
 62
     7
100
AcDbLine
 10
59.9890697347
 20
436.2169016938
 30
0.0
 11
58.6325639389
 21
435.7087456786
 31
0.0
  0
LINE
  5
17A
330
92
100
AcDbEntity
  8
(1_1) 402748040_
  6
Continuous
 62
     7
100
AcDbLine
 10
63.5828110005
 20
435.7880564084
 30
0.0
 11
63.9820027153
 21
435.2299660963
 31
0.0
  0
LINE
  5
17B
330
92
100
AcDbEntity
  8
(1_1) 402748040_
  6
Continuous
 62
     7
100
AcDbLine
 10
67.6859316573
 20
436.6174822996
 30
0.0
 11
65.2141385944
 21
436.8655898486
 31
0.0
  0
LINE
  5
17C
330
92
100
AcDbEntity
  8
(1_1) 402748040_
  6
Continuous
 62
     7
100
AcDbLine
 10
63.6922249675
 20
435.2008795001
 30
0.0
 11
63.301987255
 21
435.7464516616
 31
0.0
  0
LINE
  5
17D
330
92
100
AcDbEntity
  8
(1_1) 402748040_
  6
Continuous
 62
     7
100
AcDbLine
 10
58.4204319045
 20
435.7882117374
 30
0.0
 11
59.8468540493
 21
436.3225588778
 31
0.0
  0
LINE
  5
17E
330
92
100
AcDbEntity
  8
(1_1) 402748040_
  6
Continuous
 62
     7
100
AcDbLine
 10
59.6141385944
 20
436.8655898486
 30
0.0
 11
57.1423455315
 21
436.6174822996
 31
0.0
  0
LINE
  5
17F
330
92
100
AcDbEntity
  8
(1_1) 402748040_
  6
Continuous
 62
     7
100
AcDbLine
 10
59.1615347827
 20
436.8201594993
 30
0.0
 11
58.4041370936
 21
436.5364333311
 31
0.0
  0
LINE
  5
180
330
92
100
AcDbEntity
  8
(1_1) 402748040_
  6
Continuous
 62
     7
100
AcDbLine
 10
57.064699818
 20
436.7260349545
 30
0.0
 11
59.6141385944
 21
436.9819362336
 31
0.0
  0
ELLIPSE
  5
181
330
92
100
AcDbEntity
  8
(1_1) 402748040_
  6
Continuous
 62
     7
100
AcDbEllipse
 10
62.4141385944
 20
436.7412226096
 30
0.0
 11
2.800000000000002
 21
0.0
 31
0.0
210
0.0
220
0.0
230
1.0
 40
0.3746065934
 41
0.0
 42
6.283185307179586
  0
ELLIPSE
  5
182
330
92
100
AcDbEntity
  8
(1_1) 402748040_
  6
Continuous
 62
     7
100
AcDbEllipse
 10
62.4141385944
 20
436.7412226096
 30
0.0
 11
2.3
 21
0.0
 31
0.0
210
0.0
220
0.0
230
1.0
 40
0.3746065934
 41
0.0
 42
6.283185307179586
  0
ELLIPSE
  5
183
330
92
100
AcDbEntity
  8
(1_1) 402748040_
  6
Continuous
 62
     7
100
AcDbEllipse
 10
62.4141385944
 20
437.9465616205
 30
0.0
 11
-2.299999999999998
 21
-2.775557561562891E-14
 31
0.0
210
0.0
220
0.0
230
1.0
 40
0.3746065934
 41
-4.079879371365721
 42
-3.916263757568617
  0
LINE
  5
184
330
92
100
AcDbEntity
  8
(1_1) 402748040_
  6
Continuous
 62
     7
100
AcDbLine
 10
63.7738312819
 20
437.2516451055
 30
0.0
 11
63.7738312819
 21
436.5098980219
 31
0.0
  0
ELLIPSE
  5
185
330
92
100
AcDbEntity
  8
(1_1) 402748040_
  6
Continuous
 62
     7
100
AcDbEllipse
 10
62.4141385944
 20
437.2048145368
 30
0.0
 11
2.300000000000463
 21
-2.359223927328458E-13
 31
0.0
210
0.0
220
0.0
230
1.0
 40
0.3746065934
 41
-1.156108384617145
 42
-0.9382867177758154
  0
LINE
  5
186
330
92
100
AcDbEntity
  8
(1_1) 402748040_
  6
Continuous
 62
     7
100
AcDbLine
 10
61.7070318132
 20
437.2984661852
 30
0.0
 11
60.6599394741
 21
437.2984661852
 31
0.0
  0
LINE
  5
187
330
92
100
AcDbEntity
  8
(1_1) 402748040_
  6
Continuous
 62
     7
100
AcDbLine
 10
61.7070318132
 20
437.5610891708
 30
0.0
 11
61.7070318132
 21
437.2984661852
 31
0.0
  0
ELLIPSE
  5
188
330
92
100
AcDbEntity
  8
(1_1) 402748040_
  6
Continuous
 62
     7
100
AcDbEllipse
 10
62.4141385944
 20
437.2048145368
 30
0.0
 11
-0.7500000000000009
 21
0.0
 31
0.0
210
0.0
220
0.0
230
1.0
 40
0.3746065934
 41
4.528627114240521
 42
5.943348397725342
  0
LINE
  5
189
330
92
100
AcDbEntity
  8
(1_1) 402748040_
  6
Continuous
 62
     7
100
AcDbLine
 10
60.336939042
 20
437.1111628885
 30
0.0
 11
61.7070318132
 21
437.1111628885
 31
0.0
  0
ELLIPSE
  5
18A
330
92
100
AcDbEntity
  8
(1_1) 402748040_
  6
Continuous
 62
     7
100
AcDbEllipse
 10
62.4141385944
 20
437.2048145368
 30
0.0
 11
0.750000000000002
 21
0.0
 31
0.0
210
0.0
220
0.0
230
1.0
 40
0.3746065934
 41
3.481429563043843
 42
4.896150846528867
  0
LINE
  5
18B
330
92
100
AcDbEntity
  8
(1_1) 402748040_
  6
Continuous
 62
     7
100
AcDbLine
 10
62.5511856341
 20
436.9285899606
 30
0.0
 11
63.34081858
 21
436.4162463735
 31
0.0
  0
LINE
  5
18C
330
92
100
AcDbEntity
  8
(1_1) 402748040_
  6
Continuous
 62
     7
100
AcDbLine
 10
63.7738312819
 20
436.5098980219
 30
0.0
 11
62.9841983359
 21
437.022241609
 31
0.0
  0
ELLIPSE
  5
18D
330
92
100
AcDbEntity
  8
(1_1) 402748040_
  6
Continuous
 62
     7
100
AcDbEllipse
 10
62.4141385944
 20
437.2048145368
 30
0.0
 11
-0.7499999999999964
 21
0.0
 31
0.0
210
0.0
220
0.0
230
1.0
 40
0.3746065934
 41
2.434232011847334
 42
3.848953295332253
  0
LINE
  5
18E
330
92
100
AcDbEntity
  8
(1_1) 402748040_
  6
Continuous
 62
     7
100
AcDbLine
 10
62.9841983359
 20
437.3873874647
 30
0.0
 11
63.2298948788
 21
437.5468046328
 31
0.0
  0
LINE
  5
18F
330
92
100
AcDbEntity
  8
(1_1) 402748040_
  6
Continuous
 62
     7
100
AcDbLine
 10
62.7265648634
 20
437.5948317606
 30
0.0
 11
62.5511856341
 21
437.4810391131
 31
0.0
  0
LINE
  5
190
330
92
100
AcDbEntity
  8
(1_1) 402748040_
  6
Continuous
 62
     7
100
AcDbLine
 10
62.5511856341
 20
437.6012868882
 30
0.0
 11
62.5511856341
 21
437.4810391131
 31
0.0
  0
LINE
  5
191
330
92
100
AcDbEntity
  8
(1_1) 402748040_
  6
Continuous
 62
     7
100
AcDbLine
 10
63.3466311399
 20
437.5288286428
 30
0.0
 11
63.7738312819
 21
437.2516451055
 31
0.0
  0
LINE
  5
192
330
92
100
AcDbEntity
  8
(1_1) 402748040_
  6
Continuous
 62
     7
100
AcDbLine
 10
53.4141385944
 20
438.7874924692
 30
0.0
 11
53.4141385944
 21
437.0193777659
 31
0.0
  0
LINE
  5
193
330
92
100
AcDbEntity
  8
(1_1) 402748040_
  6
Continuous
 62
     7
100
AcDbLine
 10
71.4141385944
 20
437.0193777659
 30
0.0
 11
71.4141385944
 21
438.7874924692
 31
0.0
  0
SPLINE
  5
194
330
92
100
AcDbEntity
  8
(1_1) 402748040_
  6
Continuous
 62
     7
100
AcDbSpline
210
0.0
220
0.0
230
1.0
 70
     8
 71
     3
 72
    57
 73
    53
 74
     0
 42
0.000000001
 43
0.0000000001
 40
0.0
 40
0.0
 40
0.0
 40
0.0
 40
0.0083834211207807
 40
0.0271587757596552
 40
0.0459909540264686
 40
0.0650967677392375
 40
0.0846200694818594
 40
0.1045977855427998
 40
0.1249652335999832
 40
0.1455992669788956
 40
0.166373541721617
 40
0.1871925202543847
 40
0.2079886451746529
 40
0.2287414494168907
 40
0.2494449847245501
 40
0.2701006096240565
 40
0.2907128618428499
 40
0.3112873204233925
 40
0.3318295873202748
 40
0.3523448552175741
 40
0.3728377670380363
 40
0.3933124129456166
 40
0.4137723869259221
 40
0.4342208649466207
 40
0.4546606871394333
 40
0.4750944367398896
 40
0.4955245136145856
 40
0.5159532026676268
 40
0.536382526287708
 40
0.5568141961035538
 40
0.5772505083333739
 40
0.5976938793929858
 40
0.6181469149038509
 40
0.6386124847592767
 40
0.6590938051496157
 40
0.6795945269122364
 40
0.7001188259190356
 40
0.7206714837083245
 40
0.7412579315114839
 40
0.7618842011656392
 40
0.7825566690227842
 40
0.8032813707509641
 40
0.8240624700860811
 40
0.8448991463956383
 40
0.8657797612062001
 40
0.8866616194551878
 40
0.9074572172653036
 40
0.9280414085939929
 40
0.948265327001015
 40
0.968016745825122
 40
0.9872895534851356
 40
1.0
 40
1.0
 40
1.0
 40
1.0
 10
53.41868803736514
 20
437.0165093600997
 30
0.0
 10
53.41750645997408
 20
436.9779708768963
 30
0.0
 10
53.41480709703497
 20
436.8717445775062
 30
0.0
 10
53.44806582480604
 20
436.6754005695065
 30
0.0
 10
53.51713198332779
 20
436.4459280244662
 30
0.0
 10
53.62344450023127
 20
436.2182061800034
 30
0.0
 10
53.7647520687978
 20
435.994823462099
 30
0.0
 10
53.94219843747346
 20
435.7753978964203
 30
0.0
 10
54.15556318511021
 20
435.5610935332157
 30
0.0
 10
54.40409077894555
 20
435.3531621632346
 30
0.0
 10
54.68627296529481
 20
435.1529304262309
 30
0.0
 10
55.00022023099362
 20
434.961498341057
 30
0.0
 10
55.34400420873465
 20
434.7796550307594
 30
0.0
 10
55.71579993323125
 20
434.6079562162247
 30
0.0
 10
56.11395453626489
 20
434.4468056065279
 30
0.0
 10
56.53682621525604
 20
434.2965745554048
 30
0.0
 10
56.98274105421999
 20
434.1576251120028
 30
0.0
 10
57.44996586283338
 20
434.0303149972196
 30
0.0
 10
57.93669445107953
 20
433.9149941259631
 30
0.0
 10
58.44104325641043
 20
433.8119979778967
 30
0.0
 10
58.96105292348096
 20
433.721640444822
 30
0.0
 10
59.49469354932471
 20
433.6442072616775
 30
0.0
 10
60.03987215305084
 20
433.5799504057557
 30
0.0
 10
60.59444149397349
 20
433.5290835262857
 30
0.0
 10
61.15620970993082
 20
433.4917783433507
 30
0.0
 10
61.7229504563643
 20
433.4681619212755
 30
0.0
 10
62.29241334942779
 20
433.4583147262491
 30
0.0
 10
62.86233261511364
 20
433.4622693835487
 30
0.0
 10
63.43043484163343
 20
433.4800097587226
 30
0.0
 10
63.99445471269033
 20
433.5114706441795
 30
0.0
 10
64.55214782488326
 20
433.5565386921497
 30
0.0
 10
65.1013040901479
 20
433.6150544511395
 30
0.0
 10
65.63975340751264
 20
433.6868143183994
 30
0.0
 10
66.16537605553077
 20
433.7715734894843
 30
0.0
 10
66.6761127980367
 20
433.8690498967197
 30
0.0
 10
67.16997453230643
 20
433.978929334188
 30
0.0
 10
67.64505120318223
 20
434.1008720257281
 30
0.0
 10
68.09951951650567
 20
434.234520942997
 30
0.0
 10
68.53164866198007
 20
434.3795121959619
 30
0.0
 10
68.93980270392672
 20
434.5354876868244
 30
0.0
 10
69.32243742601418
 20
434.7021098487116
 30
0.0
 10
69.6780879914975
 20
434.8790768911928
 30
0.0
 10
70.00534227387965
 20
435.0661351599944
 30
0.0
 10
70.30279241415212
 20
435.2630763522967
 30
0.0
 10
70.56891863899142
 20
435.4696756228485
 30
0.0
 10
70.80198301018763
 20
435.6855260822452
 30
0.0
 10
71.00008325487198
 20
435.9099392048945
 30
0.0
 10
71.16123861035776
 20
436.1414301201861
 30
0.0
 10
71.28408769680135
 20
436.3787765284916
 30
0.0
 10
71.36710606156258
 20
436.6169772993251
 30
0.0
 10
71.40823516413242
 20
436.8364254712988
 30
0.0
 10
71.41259500828413
 20
436.9609316044702
 30
0.0
 10
71.41413859440637
 20
437.0193777659248
 30
0.0
  0
LINE
  5
195
330
92
100
AcDbEntity
  8
(1_1) 402748040_
  6
Continuous
 62
     7
100
AcDbLine
 10
54.2094219496
 20
436.3764243341
 30
0.0
 11
55.9343061187
 21
436.5495605039
 31
0.0
  0
LINE
  5
196
330
92
100
AcDbEntity
  8
(1_1) 402748040_
  6
Continuous
 62
     7
100
AcDbLine
 10
60.2572289045
 20
434.1462323426
 30
0.0
 11
60.4528821166
 21
434.4197654801
 31
0.0
  0
LINE
  5
197
330
92
100
AcDbEntity
  8
(1_1) 402748040_
  6
Continuous
 62
     7
100
AcDbLine
 10
68.4973116044
 20
435.8832993998
 30
0.0
 11
69.7635364123
 21
435.6094412891
 31
0.0
  0
LINE
  5
198
330
92
100
AcDbEntity
  8
(1_1) 402748040_
  6
Continuous
 62
     7
100
AcDbLine
 10
54.0029301786
 20
437.2002606114
 30
0.0
 11
55.8965677177
 21
437.2002606114
 31
0.0
  0
LINE
  5
199
330
92
100
AcDbEntity
  8
(1_1) 402748040_
  6
Continuous
 62
     7
100
AcDbLine
 10
55.064741061
 20
435.6094413506
 30
0.0
 11
56.3309655844
 21
435.8832993998
 31
0.0
  0
LINE
  5
19A
330
92
100
AcDbEntity
  8
(1_1) 402748040_
  6
Continuous
 62
     7
100
AcDbLine
 10
68.8939710701
 20
436.5495605039
 30
0.0
 11
70.6188556687
 21
436.376424291
 31
0.0
  0
LINE
  5
19B
330
92
100
AcDbEntity
  8
(1_1) 402748040_
  6
Continuous
 62
     7
100
AcDbLine
 10
56.4230269255
 20
434.9521793325
 30
0.0
 11
57.2506310432
 21
435.2622052917
 31
0.0
  0
LINE
  5
19C
330
92
100
AcDbEntity
  8
(1_1) 402748040_
  6
Continuous
 62
     7
100
AcDbLine
 10
64.3753950722
 20
434.4197654801
 30
0.0
 11
64.5710483473
 21
434.1462322546
 31
0.0
  0
LINE
  5
19D
330
92
100
AcDbEntity
  8
(1_1) 402748040_
  6
Continuous
 62
     7
100
AcDbLine
 10
68.9316922377
 20
437.2002606114
 30
0.0
 11
70.8253470102
 21
437.2002606114
 31
0.0
  0
LINE
  5
19E
330
92
100
AcDbEntity
  8
(1_1) 402748040_
  6
Continuous
 62
     7
100
AcDbLine
 10
58.1934984068
 20
434.4512345724
 30
0.0
 11
58.6594994545
 21
434.7535935983
 31
0.0
  0
LINE
  5
19F
330
92
100
AcDbEntity
  8
(1_1) 402748040_
  6
Continuous
 62
     7
100
AcDbLine
 10
67.5776461456
 20
435.2622052917
 30
0.0
 11
68.4052503164
 21
434.9521793126
 31
0.0
  0
LINE
  5
1A0
330
92
100
AcDbEntity
  8
(1_1) 402748040_
  6
Continuous
 62
     7
100
AcDbLine
 10
66.1687777344
 20
434.7535935983
 30
0.0
 11
66.634778704
 21
434.451234623
 31
0.0
  0
LINE
  5
1A1
330
92
100
AcDbEntity
  8
(1_1) 402748040_
  6
Continuous
 62
     7
100
AcDbLine
 10
68.0703243564
 20
438.4222787295
 30
0.0
 11
69.1889764658
 21
438.6642199324
 31
0.0
  0
LINE
  5
1A2
330
92
100
AcDbEntity
  8
(1_1) 402748040_
  6
Continuous
 62
     7
100
AcDbLine
 10
64.1441738074
 20
439.5803789272
 30
0.0
 11
64.3322013658
 21
439.843251013
 31
0.0
  0
LINE
  5
1A3
330
92
100
AcDbEntity
  8
(1_1) 402748040_
  6
Continuous
 62
     7
100
AcDbLine
 10
60.496075823
 20
439.843251013
 30
0.0
 11
60.6841047729
 21
439.5803769819
 31
0.0
  0
LINE
  5
1A4
330
92
100
AcDbEntity
  8
(1_1) 402748040_
  6
Continuous
 62
     7
100
AcDbLine
 10
58.693145378
 20
439.6040653484
 30
0.0
 11
59.1259274735
 21
439.3232600294
 31
0.0
  0
LINE
  5
1A5
330
92
100
AcDbEntity
  8
(1_1) 402748040_
  6
Continuous
 62
     7
100
AcDbLine
 10
55.6393007231
 20
438.6642199324
 30
0.0
 11
56.7579524038
 21
438.4222788222
 31
0.0
  0
LINE
  5
1A6
330
92
100
AcDbEntity
  8
(1_1) 402748040_
  6
Continuous
 62
     7
100
AcDbLine
 10
57.0421871227
 20
439.2088577064
 30
0.0
 11
57.7861996543
 21
438.9301457065
 31
0.0
  0
LINE
  5
1A7
330
92
100
AcDbEntity
  8
(1_1) 402748040_
  6
Continuous
 62
     7
100
AcDbLine
 10
54.5898199421
 20
437.9853473145
 30
0.0
 11
56.1130305036
 21
437.8324542407
 31
0.0
  0
LINE
  5
1A8
330
92
100
AcDbEntity
  8
(1_1) 402748040_
  6
Continuous
 62
     7
100
AcDbLine
 10
67.042074378
 20
438.930144524
 30
0.0
 11
67.7860900661
 21
439.2088577064
 31
0.0
  0
LINE
  5
1A9
330
92
100
AcDbEntity
  8
(1_1) 402748040_
  6
Continuous
 62
     7
100
AcDbLine
 10
68.7152604175
 20
437.8324556191
 30
0.0
 11
70.2384572467
 21
437.9853473145
 31
0.0
  0
LINE
  5
1AA
330
92
100
AcDbEntity
  8
(1_1) 402748040_
  6
Continuous
 62
     7
100
AcDbLine
 10
65.7023515983
 20
439.3232612512
 30
0.0
 11
66.1351318108
 21
439.6040653484
 31
0.0
  0
LINE
  5
1AB
330
92
100
AcDbEntity
  8
(1_1) 402748040_
  6
Continuous
 62
     7
100
AcDbLine
 10
55.8962009587
 20
437.2002606114
 30
0.0
 11
55.9147855757
 21
436.706868228
 31
0.0
  0
LINE
  5
1AC
330
92
100
AcDbEntity
  8
(1_1) 402748040_
  6
Continuous
 62
     7
100
AcDbLine
 10
68.9134916132
 20
436.706868228
 30
0.0
 11
68.9320762301
 21
437.2002606114
 31
0.0
  0
LINE
  5
1AD
330
92
100
AcDbEntity
  8
(1_1) 402748040_
  6
Continuous
 62
     7
100
AcDbLine
 10
59.6141385944
 20
437.4276928401
 30
0.0
 11
59.6141385944
 21
436.7412226096
 31
0.0
  0
LINE
  5
1AE
330
92
100
AcDbEntity
  8
(1_1) 402748040_
  6
Continuous
 62
     7
100
AcDbLine
 10
65.2141385944
 20
436.7412226096
 30
0.0
 11
65.2141385944
 21
437.4276928401
 31
0.0
  0
LINE
  5
1AF
330
92
100
AcDbEntity
  8
(1_1) 402748040_
  6
Continuous
 62
     7
100
AcDbLine
 10
63.1641385944
 20
437.2048145368
 30
0.0
 11
63.1641385944
 21
437.5041394796
 31
0.0
  0
ENDBLK
  5
1B1
330
92
100
AcDbEntity
  8
0
100
AcDbBlockEnd
  0
BLOCK
  5
20B
330
1B2
100
AcDbEntity
  8
0
100
AcDbBlockBegin
  2
SE1
 70
     0
 10
0.0
 20
0.0
 30
0.0
  3
SE1
  1
SE1
  0
LINE
  5
1B4
330
1B2
100
AcDbEntity
  8
(1_1) 492223038_
  6
Continuous
 62
     7
100
AcDbLine
 10
193.9252930393
 20
330.0514824979
 30
0.0
 11
194.4548326656
 21
443.8128302179
 31
0.0
  0
LINE
  5
1B5
330
1B2
100
AcDbEntity
  8
(1_1) 492223038_
  6
Continuous
 62
     7
100
AcDbLine
 10
337.7205043105
 20
454.521153962
 30
0.0
 11
336.8956993284
 21
461.2386514721
 31
0.0
  0
LINE
  5
1B6
330
1B2
100
AcDbEntity
  8
(1_1) 492223038_
  6
Continuous
 62
     7
100
AcDbLine
 10
337.720802397
 20
454.4017607591
 30
0.0
 11
337.7205044067
 21
454.5211539446
 31
0.0
  0
ARC
  5
1B7
330
1B2
100
AcDbEntity
  8
(1_1) 492223038_
  6
Continuous
 62
     7
100
AcDbCircle
 10
336.3994258011
 20
461.1777162225
 30
0.0
 40
0.5000005185705614
100
AcDbArc
 50
7.0000594238
 51
96.999977839
  0
ARC
  5
1B8
330
1B2
100
AcDbEntity
  8
(1_1) 492223038_
  6
Continuous
 62
     7
100
AcDbCircle
 10
194.9548221402
 20
443.8105083656
 30
0.0
 40
0.4999948656345328
100
AcDbArc
 50
96.9979227464
 51
179.7339305704
  0
LINE
  5
1B9
330
1B2
100
AcDbEntity
  8
(1_1) 492223038_
  6
Continuous
 62
     7
100
AcDbLine
 10
241.8288931849
 20
340.7518901193
 30
0.0
 11
241.8289382531
 21
340.7514654429
 31
0.0
  0
LINE
  5
1BA
330
1B2
100
AcDbEntity
  8
(1_1) 492223038_
  6
Continuous
 62
     7
100
AcDbLine
 10
241.8787447584
 20
330.0514824986
 30
0.0
 11
241.8289382531
 21
340.7514654429
 31
0.0
  0
LINE
  5
1BB
330
1B2
100
AcDbEntity
  8
(1_1) 492223038_
  6
Continuous
 62
     7
100
AcDbLine
 10
241.7342128173
 20
361.1014824986
 30
0.0
 11
241.4681639284
 21
418.2575872211
 31
0.0
  0
SPLINE
  5
1BC
330
1B2
100
AcDbEntity
  8
(1_1) 492223038_
  6
Continuous
 62
     7
100
AcDbSpline
210
0.0
220
0.0
230
1.0
 70
     8
 71
     3
 72
     8
 73
     4
 74
     0
 42
0.000000001
 43
0.0000000001
 40
0.0
 40
0.0
 40
0.0
 40
0.0
 40
1.0
 40
1.0
 40
1.0
 40
1.0
 10
251.5877285299435
 20
430.1653132252732
 30
0.0
 10
271.2027586888777
 20
433.2775112085208
 30
0.0
 10
290.8178255146923
 20
436.389531074845
 30
0.0
 10
310.4328030307415
 20
439.5019982823428
 30
0.0
  0
SPLINE
  5
1BD
330
1B2
100
AcDbEntity
  8
(1_1) 492223038_
  6
Continuous
 62
     7
100
AcDbSpline
210
0.0
220
0.0
230
1.0
 70
     8
 71
     3
 72
    16
 73
    12
 74
     0
 42
0.000000001
 43
0.0000000001
 40
0.0
 40
0.0
 40
0.0
 40
0.0
 40
0.2499999999999979
 40
0.2499999999999979
 40
0.4999999999999958
 40
0.4999999999999958
 40
0.6249999999999968
 40
0.6249999999999968
 40
0.7499999999999979
 40
0.7499999999999979
 40
1.0
 40
1.0
 40
1.0
 40
1.0
 10
333.8785987877367
 20
446.8735629188939
 30
0.0
 10
334.4153609806798
 20
447.3548837296336
 30
0.0
 10
334.9200181767247
 20
447.883233763373
 30
0.0
 10
335.8132318880951
 20
449.0086509468834
 30
0.0
 10
336.2052238491501
 20
449.6099414418646
 30
0.0
 10
336.6957927589664
 20
450.5806974517998
 30
0.0
 10
336.8427494930731
 20
450.9146165695236
 30
0.0
 10
337.0994878490001
 20
451.5888942689292
 30
0.0
 10
337.2101242745691
 20
451.9311218960607
 30
0.0
 10
337.4989469367702
 20
452.9701693662403
 30
0.0
 10
337.6359521827133
 20
453.6810101523674
 30
0.0
 10
337.7208019477904
 20
454.4017571794412
 30
0.0
  0
SPLINE
  5
1BE
330
1B2
100
AcDbEntity
  8
(1_1) 492223038_
  6
Continuous
 62
     7
100
AcDbSpline
210
0.0
220
0.0
230
1.0
 70
     8
 71
     3
 72
    12
 73
     8
 74
     0
 42
0.000000001
 43
0.0000000001
 40
0.0
 40
0.0
 40
0.0
 40
0.0
 40
0.5000000000000016
 40
0.5000000000000016
 40
0.7500000000000008
 40
0.7500000000000008
 40
1.0
 40
1.0
 40
1.0
 40
1.0
 10
251.5877285299435
 20
430.1653132252732
 30
0.0
 10
250.5592809188237
 20
430.0021356744222
 30
0.0
 10
249.5741390275423
 20
429.7108739458128
 30
0.0
 10
248.1593996076099
 20
429.0877265494712
 30
0.0
 10
247.6953190163041
 20
428.8464421518367
 30
0.0
 10
246.8109374786571
 20
428.3109977244189
 30
0.0
 10
246.3893744877513
 20
428.0168829904696
 30
0.0
 10
245.9880074942818
 20
427.6969281843012
 30
0.0
  0
ARC
  5
1BF
330
1B2
100
AcDbEntity
  8
(1_1) 492223038_
  6
Continuous
 62
     7
100
AcDbCircle
 10
-228.051001787
 20
4496.4062574033
 30
0.0
 40
4080.945396853847
100
AcDbArc
 50
276.3441416889
 51
277.6479598358
  0
ARC
  5
1C0
330
1B2
100
AcDbEntity
  8
(1_1) 492223038_
  6
Continuous
 62
     7
100
AcDbCircle
 10
246.0316910598
 20
1113.179169444
 30
0.0
 40
665.0091111121516
100
AcDbArc
 50
275.9585757229
 51
277.9249596709
  0
SPLINE
  5
1C1
330
1B2
100
AcDbEntity
  8
(1_1) 492223038_
  6
Continuous
 62
     7
100
AcDbSpline
210
0.0
220
0.0
230
1.0
 70
     8
 71
     3
 72
    24
 73
    20
 74
     0
 42
0.000000001
 43
0.0000000001
 40
0.0
 40
0.0
 40
0.0
 40
0.0
 40
0.1249999999999998
 40
0.1249999999999998
 40
0.2499999999999997
 40
0.2499999999999997
 40
0.3749999999999997
 40
0.3749999999999997
 40
0.4999999999999998
 40
0.4999999999999998
 40
0.6249999999999998
 40
0.6249999999999998
 40
0.7499999999999999
 40
0.7499999999999999
 40
0.8124999999999999
 40
0.8124999999999999
 40
0.8749999999999999
 40
0.8749999999999999
 40
1.0
 40
1.0
 40
1.0
 40
1.0
 10
251.5877285299435
 20
430.1653132252732
 30
0.0
 10
251.5932044381515
 20
430.1699845625288
 30
0.0
 10
251.4039580324103
 20
430.2633788924583
 30
0.0
 10
250.660144096123
 20
430.6236802002456
 30
0.0
 10
250.1095151697772
 20
430.8891111199778
 30
0.0
 10
248.7130609116402
 20
431.5524999080424
 30
0.0
 10
247.8511065054818
 20
431.9578839704417
 30
0.0
 10
245.8895632887686
 20
432.8668532162085
 30
0.0
 10
244.8092994105746
 20
433.360887043606
 30
0.0
 10
242.4772999716904
 20
434.3989557879386
 30
0.0
 10
241.2145382433331
 20
434.9473850114524
 30
0.0
 10
238.6153239616492
 20
436.0498053918174
 30
0.0
 10
237.2791838717591
 20
436.6085680297984
 30
0.0
 10
235.2142431934836
 20
437.4241607744764
 30
0.0
 10
234.516700944736
 20
437.6936356082786
 30
0.0
 10
233.1061382917685
 20
438.2281329830863
 30
0.0
 10
232.3887289145366
 20
438.486245354912
 30
0.0
 10
230.2848173945746
 20
439.3610687472808
 30
0.0
 10
228.9332671878375
 20
440.0494051142109
 30
0.0
 10
227.6037809033731
 20
440.7564361986705
 30
0.0
  0
SPLINE
  5
1C2
330
1B2
100
AcDbEntity
  8
(1_1) 492223038_
  6
Continuous
 62
     7
100
AcDbSpline
210
0.0
220
0.0
230
1.0
 70
     8
 71
     3
 72
    20
 73
    16
 74
     0
 42
0.000000001
 43
0.0000000001
 40
0.0
 40
0.0
 40
0.0
 40
0.0
 40
0.1249999999999999
 40
0.1249999999999999
 40
0.2499999999999998
 40
0.2499999999999998
 40
0.3749999999999997
 40
0.3749999999999997
 40
0.4999999999999997
 40
0.4999999999999997
 40
0.7499999999999998
 40
0.7499999999999998
 40
0.8749999999999999
 40
0.8749999999999999
 40
0.9462829520447227
 40
0.9462829520447227
 40
0.9462829520447227
 40
0.9462829520447227
 10
224.8067664670003
 20
435.3378670867885
 30
0.0
 10
225.9902329656674
 20
434.5467452859566
 30
0.0
 10
226.9824802271503
 20
433.5322867867494
 30
0.0
 10
228.9238700277511
 20
431.5407547150216
 30
0.0
 10
229.8633440892488
 20
430.5505365803567
 30
0.0
 10
231.6959945451692
 20
428.6089085935163
 30
0.0
 10
232.5868928353919
 20
427.6545889743643
 30
0.0
 10
234.309470232169
 20
425.7888078971532
 30
0.0
 10
235.1380962427997
 20
424.875651254349
 30
0.0
 10
237.4710368119605
 20
422.3516054791191
 30
0.0
 10
238.8665896180614
 20
420.8998203798845
 30
0.0
 10
240.3719880742647
 20
419.3712752549883
 30
0.0
 10
240.7818256739203
 20
418.9608975239858
 30
0.0
 10
241.2132860409379
 20
418.5262179318946
 30
0.0
 10
241.3271346988277
 20
418.4108859447375
 30
0.0
 10
241.3948927620901
 20
418.3402412084672
 30
0.0
  0
SPLINE
  5
1C3
330
1B2
100
AcDbEntity
  8
(1_1) 492223038_
  6
Continuous
 62
     7
100
AcDbSpline
210
0.0
220
0.0
230
1.0
 70
     8
 71
     3
 72
     8
 73
     4
 74
     0
 42
0.000000001
 43
0.0000000001
 40
0.9462829520447227
 40
0.9462829520447227
 40
0.9462829520447227
 40
0.9462829520447227
 40
1.0
 40
1.0
 40
1.0
 40
1.0
 10
241.3948927620901
 20
418.3402412084672
 30
0.0
 10
241.4459535421114
 20
418.2870051039405
 30
0.0
 10
241.4708406153392
 20
418.2591457820649
 30
0.0
 10
241.4681639284068
 20
418.257587221116
 30
0.0
  0
ARC
  5
1C4
330
1B2
100
AcDbEntity
  8
(1_1) 492223038_
  6
Continuous
 62
     7
100
AcDbCircle
 10
249.7061279459
 20
473.0772235481
 30
0.0
 40
45.2132417347971
100
AcDbArc
 50
231.3370253735
 51
236.5842991518
  0
ARC
  5
1C5
330
1B2
100
AcDbEntity
  8
(1_1) 492223038_
  6
Continuous
 62
     7
100
AcDbCircle
 10
253.0459129913
 20
475.9036357603
 30
0.0
 40
49.51385322690557
100
AcDbArc
 50
226.3336667778
 51
230.3625850777
  0
ARC
  5
1C6
330
1B2
100
AcDbEntity
  8
(1_1) 492223038_
  6
Continuous
 62
     7
100
AcDbCircle
 10
216.7760289921
 20
503.7895856982
 30
0.0
 40
63.7369694270689
100
AcDbArc
 50
271.8725342672
 51
275.5196295849
  0
LINE
  5
1C7
330
1B2
100
AcDbEntity
  8
(1_1) 492223038_
  6
Continuous
 62
     7
100
AcDbLine
 10
336.338501192
 20
461.6739910563
 30
0.0
 11
314.1824804191
 21
458.9535737743
 31
0.0
  0
LINE
  5
1C8
330
1B2
100
AcDbEntity
  8
(1_1) 492223038_
  6
Continuous
 62
     7
100
AcDbLine
 10
314.1824804191
 20
458.9535737743
 30
0.0
 11
221.5205119542
 21
447.576114664
 31
0.0
  0
ARC
  5
1C9
330
1B2
100
AcDbEntity
  8
(1_1) 492223038_
  6
Continuous
 62
     7
100
AcDbCircle
 10
194.9548600628
 20
443.810474656
 30
0.0
 40
0.5000329454751847
100
AcDbArc
 50
97.001765107
 51
179.7300882099
  0
LINE
  5
1CA
330
1B2
100
AcDbEntity
  8
(1_1) 492223038_
  6
Continuous
 62
     7
100
AcDbLine
 10
221.5205119542
 20
447.576114664
 30
0.0
 11
218.5270451732
 21
447.2085631597
 31
0.0
  0
LINE
  5
1CB
330
1B2
100
AcDbEntity
  8
(1_1) 492223038_
  6
Continuous
 62
     7
100
AcDbLine
 10
218.5270451732
 20
447.2085631597
 30
0.0
 11
194.8935818163
 21
444.3067387388
 31
0.0
  0
LINE
  5
1CC
330
1B2
100
AcDbEntity
  8
(1_1) 492223038_
  6
Continuous
 62
     7
100
AcDbLine
 10
241.7986485267
 20
330.0514824986
 30
0.0
 11
194.0060163446
 21
330.0514824983
 31
0.0
  0
SPLINE
  5
1CD
330
1B2
100
AcDbEntity
  8
(1_1) 492223038_
  6
Continuous
 62
     7
100
AcDbSpline
210
0.0
220
0.0
230
1.0
 70
     8
 71
     3
 72
    20
 73
    16
 74
     0
 42
0.000000001
 43
0.0000000001
 40
0.0
 40
0.0
 40
0.0
 40
0.0
 40
0.125
 40
0.125
 40
0.25
 40
0.25
 40
0.5
 40
0.5
 40
0.625
 40
0.625
 40
0.75
 40
0.75
 40
0.875
 40
0.875
 40
1.0
 40
1.0
 40
1.0
 40
1.0
 10
245.9880074942818
 20
427.6969281843012
 30
0.0
 10
245.6370872034028
 20
427.4171876090278
 30
0.0
 10
245.3016200999249
 20
427.1176752210613
 30
0.0
 10
244.6622885036956
 20
426.4782160102327
 30
0.0
 10
244.3579113900872
 20
426.1370835692254
 30
0.0
 10
243.5154206564456
 20
425.0780192472393
 30
0.0
 10
243.0387791841194
 20
424.3174791436962
 30
0.0
 10
242.4522532324688
 20
423.0943412986952
 30
0.0
 10
242.2783025122099
 20
422.671576117227
 30
0.0
 10
241.982708530522
 20
421.8192548234722
 30
0.0
 10
241.8597062967081
 20
421.3872192796288
 30
0.0
 10
241.6625437841386
 20
420.511575525461
 30
0.0
 10
241.5883823185992
 20
420.0679675963346
 30
0.0
 10
241.4900264894071
 20
419.1689124780752
 30
0.0
 10
241.4660450321382
 20
418.7127986747424
 30
0.0
 10
241.4681639284068
 20
418.257587221116
 30
0.0
  0
LINE
  5
1CE
330
1B2
100
AcDbEntity
  8
(1_1) 492223038_
  6
Continuous
 62
     7
100
AcDbLine
 10
241.8288931849
 20
340.7518901193
 30
0.0
 11
241.8289382531
 21
340.7514654429
 31
0.0
  0
LINE
  5
1CF
330
1B2
100
AcDbEntity
  8
(1_1) 492223038_
  6
Continuous
 62
     7
100
AcDbLine
 10
241.8288931849
 20
340.7518901193
 30
0.0
 11
241.8184627145
 21
343.0014832279
 31
0.0
  0
ARC
  5
1D0
330
1B2
100
AcDbEntity
  8
(1_1) 492223038_
  6
Continuous
 62
     7
100
AcDbCircle
 10
264.9100977727
 20
356.352952875
 30
0.0
 40
23.65734932425834
100
AcDbArc
 50
168.4208687453
 51
168.8675149393
  0
LINE
  5
1D1
330
1B2
100
AcDbEntity
  8
(1_1) 492223038_
  6
Continuous
 62
     7
100
AcDbLine
 10
241.293088437
 20
347.8014824986
 30
0.0
 11
241.2528044395
 21
356.3014824986
 31
0.0
  0
ARC
  5
1D2
330
1B2
100
AcDbEntity
  8
(1_1) 492223038_
  6
Continuous
 62
     7
100
AcDbCircle
 10
264.9102166483
 20
356.3529409526
 30
0.0
 40
23.65746817366637
100
AcDbArc
 50
169.4070519553
 51
180.1246268002
  0
ARC
  5
1D3
330
1B2
100
AcDbEntity
  8
(1_1) 492223038_
  6
Continuous
 62
     7
100
AcDbCircle
 10
264.9613011253
 20
347.9632974455
 30
0.0
 40
23.66876583047107
100
AcDbArc
 50
180.3917139496
 51
192.1009940876
  0
SPLINE
  5
1D4
330
1B2
100
AcDbEntity
  8
(1_1) 492223038_
  6
Continuous
 62
     7
100
AcDbSpline
210
0.0
220
0.0
230
1.0
 70
     8
 71
     3
 72
    14
 73
    10
 74
     0
 42
0.000000001
 43
0.0000000001
 40
0.0
 40
0.0
 40
0.0
 40
0.0
 40
0.1249999999999999
 40
0.1249999999999999
 40
0.2499999999999997
 40
0.2499999999999997
 40
0.3749999999999997
 40
0.3749999999999997
 40
0.3876921694238334
 40
0.3876921694238334
 40
0.3876921694238334
 40
0.3876921694238334
 10
196.7781700115237
 20
340.5514824985846
 30
0.0
 10
196.7815355579262
 20
341.6817638827488
 30
0.0
 10
196.5868015479657
 20
342.7874953657012
 30
0.0
 10
195.9561740631011
 20
344.4584797937769
 30
0.0
 10
195.5324826299179
 20
344.9829963496959
 30
0.0
 10
194.8360553019513
 20
344.9775302905999
 30
0.0
 10
194.5766557672661
 20
344.4452685108885
 30
0.0
 10
194.4135168684778
 20
343.5136056716898
 30
0.0
 10
194.3994384586774
 20
343.4248552591786
 30
0.0
 10
194.3862751699216
 20
343.3335324414946
 30
0.0
  0
SPLINE
  5
1D5
330
1B2
100
AcDbEntity
  8
(1_1) 492223038_
  6
Continuous
 62
     7
100
AcDbSpline
210
0.0
220
0.0
230
1.0
 70
     8
 71
     3
 72
    14
 73
    10
 74
     0
 42
0.000000001
 43
0.0000000001
 40
0.5979515785748096
 40
0.5979515785748096
 40
0.5979515785748096
 40
0.5979515785748096
 40
0.6249999999999998
 40
0.6249999999999998
 40
0.7499999999999998
 40
0.7499999999999998
 40
0.8749999999999999
 40
0.8749999999999999
 40
1.0
 40
1.0
 40
1.0
 40
1.0
 10
194.3267557748277
 20
338.0170505373811
 30
0.0
 10
194.3488907586138
 20
337.8129197112675
 30
0.0
 10
194.374941044616
 20
337.6195926498616
 30
0.0
 10
194.5456586212284
 20
336.6110074848222
 30
0.0
 10
194.8003206863306
 20
336.077244125734
 30
0.0
 10
195.50002102756
 20
336.0825839066492
 30
0.0
 10
195.9313229149579
 20
336.6235394007501
 30
0.0
 10
196.5699072798394
 20
338.2985518137802
 30
0.0
 10
196.7748044651211
 20
339.4212011144203
 30
0.0
 10
196.7781700115237
 20
340.5514824985846
 30
0.0
  0
ARC
  5
1D6
330
1B2
100
AcDbEntity
  8
(1_1) 492223038_
  6
Continuous
 62
     7
100
AcDbCircle
 10
345.4103521616
 20
369.2246763555
 30
0.0
 40
78.50051541492957
100
AcDbArc
 50
98.4473399124
 51
98.4485481382
  0
ARC
  5
1D7
330
1B2
100
AcDbEntity
  8
(1_1) 492223038_
  6
Continuous
 62
     7
100
AcDbCircle
 10
345.4108221148
 20
369.2231816353
 30
0.0
 40
78.50206295602688
100
AcDbArc
 50
98.4487339158
 51
116.4459711749
  0
LINE
  5
1D8
330
1B2
100
AcDbEntity
  8
(1_1) 492223038_
  6
Continuous
 62
     7
100
AcDbLine
 10
241.662202331
 20
361.1014824986
 30
0.0
 11
241.4002120684
 21
418.3634411452
 31
0.0
  0
ARC
  5
1D9
330
1B2
100
AcDbEntity
  8
(1_1) 492223038_
  6
Continuous
 62
     7
100
AcDbCircle
 10
328.5527695208
 20
453.3181677846
 30
0.0
 40
8.34310539620593
100
AcDbArc
 50
322.4032199711
 51
323.1759210308
  0
ARC
  5
1DA
330
1B2
100
AcDbEntity
  8
(1_1) 492223038_
  6
Continuous
 62
     7
100
AcDbCircle
 10
328.544707584
 20
453.3249936769
 30
0.0
 40
8.353650005166006
100
AcDbArc
 50
309.4917867317
 51
323.1715866668
  0
SPLINE
  5
1DB
330
1B2
100
AcDbEntity
  8
(1_1) 492223038_
  6
Continuous
 62
     7
100
AcDbSpline
210
0.0
220
0.0
230
1.0
 70
     8
 71
     3
 72
    11
 73
     7
 74
     0
 42
0.000000001
 43
0.0000000001
 40
0.0
 40
0.0
 40
0.0
 40
0.0
 40
0.2786125324138057
 40
0.5476046200470521
 40
0.8100487282987844
 40
1.0
 40
1.0
 40
1.0
 40
1.0
 10
283.5960481142816
 20
435.2443758212351
 30
0.0
 10
286.3426976377389
 20
435.6803621205024
 30
0.0
 10
290.8991124941838
 20
436.4036419608026
 30
0.0
 10
298.2543806168812
 20
437.5725412855792
 30
0.0
 10
304.8294081375212
 20
438.617841823227
 30
0.0
 10
308.6093663575
 20
439.2185950207835
 30
0.0
 10
310.4821912814987
 20
439.5162524232366
 30
0.0
  0
LINE
  5
1DC
330
1B2
100
AcDbEntity
  8
(1_1) 492223038_
  6
Continuous
 62
     7
100
AcDbLine
 10
337.7205257798
 20
454.5210655891
 30
0.0
 11
336.8906535563
 21
461.2798322624
 31
0.0
  0
LINE
  5
1DD
330
1B2
100
AcDbEntity
  8
(1_1) 492223038_
  6
Continuous
 62
     7
100
AcDbLine
 10
337.7194594291
 20
454.4039836314
 30
0.0
 11
337.7205292481
 21
454.4244370567
 31
0.0
  0
LINE
  5
1DE
330
1B2
100
AcDbEntity
  8
(1_1) 492223038_
  6
Continuous
 62
     7
100
AcDbLine
 10
194.0512365561
 20
340.0095224335
 30
0.0
 11
194.0057261894
 21
330.051576471
 31
0.0
  0
LINE
  5
1DF
330
1B2
100
AcDbEntity
  8
(1_1) 492223038_
  6
Continuous
 62
     7
100
AcDbLine
 10
241.6582396599
 20
360.705500954
 30
0.0
 11
241.3947064415
 21
418.3679558329
 31
0.0
  0
LINE
  5
1E0
330
1B2
100
AcDbEntity
  8
(1_1) 492223038_
  6
Continuous
 62
     7
100
AcDbLine
 10
241.7983362288
 20
330.0516345234
 30
0.0
 11
241.737278839
 21
343.4113126723
 31
0.0
  0
LINE
  5
1E1
330
1B2
100
AcDbEntity
  8
(1_1) 492223038_
  6
Continuous
 62
     7
100
AcDbLine
 10
241.7342128173
 20
361.1014824986
 30
0.0
 11
241.6564299158
 21
361.1014824986
 31
0.0
  0
LINE
  5
1E3
330
1B2
100
AcDbEntity
  8
(1_1) 492108540_
  6
Continuous
 62
     7
100
AcDbLine
 10
241.852018894
 20
343.3648660492
 30
0.0
 11
241.852018894
 21
360.738098948
 31
0.0
  0
ARC
  5
1E4
330
1B2
100
AcDbEntity
  8
(1_1) 492108540_
  6
Continuous
 62
     7
100
AcDbCircle
 10
241.6520188884
 20
343.3675323974
 30
0.0
 40
0.1999999965550332
100
AcDbArc
 50
308.2762102099
 51
0.0
  0
ARC
  5
1E5
330
1B2
100
AcDbEntity
  8
(1_1) 492108540_
  6
Continuous
 62
     7
100
AcDbCircle
 10
241.6520188884
 20
360.7354325997
 30
0.0
 40
0.1999999965550333
100
AcDbArc
 50
0.0
 51
89.0000009227
  0
LINE
  5
1E6
330
1B2
100
AcDbEntity
  8
(2_2)_02636038_5
  6
Continuous
 62
     7
100
AcDbLine
 10
314.64321033
 20
433.0850752722
 30
0.0
 11
334.5776632032
 21
441.1391170306
 31
0.0
  0
LINE
  5
1E7
330
1B2
100
AcDbEntity
  8
(2_2)_02636038_5
  6
Continuous
 62
     7
100
AcDbLine
 10
313.2262948868
 20
433.7891235375
 30
0.0
 11
320.207218543
 21
436.6095997752
 31
0.0
  0
SPLINE
  5
1E8
330
1B2
100
AcDbEntity
  8
(2_2)_02636038_5
  6
Continuous
 62
     7
100
AcDbSpline
210
0.0
220
0.0
230
1.0
 70
     8
 71
     3
 72
    10
 73
     6
 74
     0
 42
0.000000001
 43
0.0000000001
 40
0.0
 40
0.0
 40
0.0
 40
0.0
 40
0.5
 40
0.5
 40
1.0
 40
1.0
 40
1.0
 40
1.0
 10
326.8896474182379
 20
438.3754378070425
 30
0.0
 10
326.1328119426092
 20
437.946750169387
 30
0.0
 10
325.3555515982514
 20
437.5688042595356
 30
0.0
 10
323.7567678979581
 20
436.9228755301742
 30
0.0
 10
322.9352451382478
 20
436.6548912294553
 30
0.0
 10
322.0933189757172
 20
436.4375953285452
 30
0.0
  0
LINE
  5
1E9
330
1B2
100
AcDbEntity
  8
(2_2)_02636038_5
  6
Continuous
 62
     7
100
AcDbLine
 10
328.1269101983
 20
439.8093629045
 30
0.0
 11
335.1078338545
 21
442.6298391421
 31
0.0
  0
LINE
  5
1EA
330
1B2
100
AcDbEntity
  8
(2_2)_02636038_5
  6
Continuous
 62
     7
100
AcDbLine
 10
327.4464628141
 20
441.4935292797
 30
0.0
 11
319.5267711587
 21
438.2937661504
 31
0.0
  0
LINE
  5
1EB
330
1B2
100
AcDbEntity
  8
(2_2)_02636038_5
  6
Continuous
 62
     7
100
AcDbLine
 10
327.4464628141
 20
441.4935292797
 30
0.0
 11
328.1269101983
 21
439.8093629045
 31
0.0
  0
SPLINE
  5
1EC
330
1B2
100
AcDbEntity
  8
(2_2)_02636038_5
  6
Continuous
 62
     7
100
AcDbSpline
210
0.0
220
0.0
230
1.0
 70
     8
 71
     3
 72
    14
 73
    10
 74
     0
 42
0.000000001
 43
0.0000000001
 40
0.0
 40
0.0
 40
0.0
 40
0.0
 40
0.1249999999999997
 40
0.1249999999999997
 40
0.2499999999999993
 40
0.2499999999999993
 40
0.4999999999999993
 40
0.4999999999999993
 40
1.0
 40
1.0
 40
1.0
 40
1.0
 10
328.1269101983461
 20
439.8093629044789
 30
0.0
 10
328.1585364315321
 20
439.7310852304972
 30
0.0
 10
328.1601869617111
 20
439.6411097390433
 30
0.0
 10
328.123481786518
 20
439.4761699588977
 30
0.0
 10
328.0870430203278
 20
439.3977920546261
 30
0.0
 10
327.956039290574
 20
439.1818832393807
 30
0.0
 10
327.8381530547256
 20
439.0572573516303
 30
0.0
 10
327.4658320025254
 20
438.7220173955515
 30
0.0
 10
327.1803184205256
 20
438.5400800170317
 30
0.0
 10
326.8896474182379
 20
438.3754378070425
 30
0.0
  0
SPLINE
  5
1ED
330
1B2
100
AcDbEntity
  8
(2_2)_02636038_5
  6
Continuous
 62
     7
100
AcDbSpline
210
0.0
220
0.0
230
1.0
 70
     8
 71
     3
 72
    14
 73
    10
 74
     0
 42
0.000000001
 43
0.0000000001
 40
0.0
 40
0.0
 40
0.0
 40
0.0
 40
0.4999999999999996
 40
0.4999999999999996
 40
0.7499999999999993
 40
0.7499999999999993
 40
0.8749999999999997
 40
0.8749999999999997
 40
1.0
 40
1.0
 40
1.0
 40
1.0
 10
322.0933189757172
 20
436.4375953285452
 30
0.0
 10
321.768469714812
 20
436.3537537567424
 30
0.0
 10
321.4393474203632
 20
436.2866420786704
 30
0.0
 10
320.936106407464
 20
436.2691501996614
 30
0.0
 10
320.7661589142394
 20
436.2770783530756
 30
0.0
 10
320.5234621604865
 20
436.3407021844598
 30
0.0
 10
320.4423467068974
 20
436.3716745308462
 30
0.0
 10
320.3005183490458
 20
436.4650480589226
 30
0.0
 10
320.2389947320617
 20
436.5309509472787
 30
0.0
 10
320.2072185429624
 20
436.6095997751761
 30
0.0
  0
LINE
  5
1EE
330
1B2
100
AcDbEntity
  8
(2_2)_02636038_5
  6
Continuous
 62
     7
100
AcDbLine
 10
320.207218543
 20
436.6095997752
 30
0.0
 11
319.5267711587
 21
438.2937661504
 31
0.0
  0
LINE
  5
1EF
330
1B2
100
AcDbEntity
  8
(2_2)_02636038_5
  6
Continuous
 62
     7
100
AcDbLine
 10
314.0143056404
 20
433.1734620622
 30
0.0
 11
314.64321033
 21
433.0850752722
 31
0.0
  0
LINE
  5
1F0
330
1B2
100
AcDbEntity
  8
(2_2)_02636038_5
  6
Continuous
 62
     7
100
AcDbLine
 10
334.5776632032
 20
441.1391170306
 30
0.0
 11
334.9686607536
 21
441.6395710734
 31
0.0
  0
ARC
  5
1F1
330
1B2
100
AcDbEntity
  8
(2_2)_02636038_5
  6
Continuous
 62
     7
100
AcDbCircle
 10
334.18065
 20
442.2552325487
 30
0.0
 40
1.00000000000001
100
AcDbArc
 50
322.0
 51
22.0
  0
ARC
  5
1F2
330
1B2
100
AcDbEntity
  8
(2_2)_02636038_5
  6
Continuous
 62
     7
100
AcDbCircle
 10
314.1534787413
 20
434.1637301309
 30
0.0
 40
1.000000000000003
100
AcDbArc
 50
202.0
 51
262.0
  0
LINE
  5
1F3
330
1B2
100
AcDbEntity
  8
(2_2)_02636038_5
  6
Continuous
 62
     7
100
AcDbLine
 10
310.831006312
 20
439.7176707991
 30
0.0
 11
313.2262948868
 21
433.7891235375
 31
0.0
  0
LINE
  5
1F4
330
1B2
100
AcDbEntity
  8
(2_2)_02636038_5
  6
Continuous
 62
     7
100
AcDbLine
 10
335.1078338545
 20
442.6298391421
 30
0.0
 11
333.4085594059
 21
446.8356909903
 31
0.0
  0
LINE
  5
1F5
330
1B2
100
AcDbEntity
  8
(1_1) 402748040_
  6
Continuous
 62
     7
100
AcDbLine
 10
316.3032427349
 20
433.6479184252
 30
0.0
 11
332.9925521171
 21
440.3908371067
 31
0.0
  0
LINE
  5
1F6
330
1B2
100
AcDbEntity
  8
(1_1) 402748040_
  6
Continuous
 62
     7
100
AcDbLine
 10
332.8267789387
 20
440.0002999723
 30
0.0
 11
316.6937798693
 21
433.4821452468
 31
0.0
  0
LINE
  5
1F7
330
1B2
100
AcDbEntity
  8
(1_1) 402748040_
  6
Continuous
 62
     7
100
AcDbLine
 10
316.2657820755
 20
433.7406368106
 30
0.0
 11
316.3032427349
 21
433.6479184252
 31
0.0
  0
LINE
  5
1F8
330
1B2
100
AcDbEntity
  8
(1_1) 402748040_
  6
Continuous
 62
     7
100
AcDbLine
 10
332.9925521171
 20
440.3908371067
 30
0.0
 11
332.9550914577
 21
440.4835554921
 31
0.0
  0
ARC
  5
1F9
330
1B2
100
AcDbEntity
  8
(1_1) 402748040_
  6
Continuous
 62
     7
100
AcDbCircle
 10
316.5813978912
 20
433.7603004032
 30
0.0
 40
0.3000000000000048
100
AcDbArc
 50
202.0
 51
292.0
  0
ARC
  5
1FA
330
1B2
100
AcDbEntity
  8
(1_1) 402748040_
  6
Continuous
 62
     7
100
AcDbCircle
 10
332.7143969607
 20
440.2784551286
 30
0.0
 40
0.2999999999999919
100
AcDbArc
 50
292.0
 51
22.0
  0
ELLIPSE
  5
1FC
330
1B2
100
AcDbEntity
  8
(1_2) 28.15
  6
Continuous
 62
     7
100
AcDbEllipse
 10
195.2668738062
 20
340.5514824986
 30
0.0
 11
0.0
 21
-3.999999999999998
 31
0.0
210
0.0
220
0.0
230
1.0
 40
0.3090169944
 41
0.0
 42
6.283185307179586
  0
ELLIPSE
  5
1FD
330
1B2
100
AcDbEntity
  8
(1_2) 28.15
  6
Continuous
 62
     7
100
AcDbEllipse
 10
195.5521907611
 20
340.5514824986
 30
0.0
 11
0.0
 21
-3.999999999999998
 31
0.0
210
0.0
220
0.0
230
1.0
 40
0.3090169944
 41
3.085838766655452
 42
3.141592653589793
  0
SPLINE
  5
1FE
330
1B2
100
AcDbEntity
  8
(1_2) 28.15
  6
Continuous
 62
     7
100
AcDbSpline
210
0.0
220
0.0
230
1.0
 70
     8
 71
     3
 72
    10
 73
     6
 74
     0
 42
0.000000001
 43
0.0000000001
 40
0.0
 40
0.0
 40
0.0
 40
0.0
 40
0.2500000000000003
 40
0.2500000000000003
 40
0.3516551833421115
 40
0.3516551833421115
 40
0.3516551833421115
 40
0.3516551833421115
 10
195.2668738061878
 20
341.9948581715586
 30
0.0
 10
195.3008506655479
 20
341.932328732998
 30
0.0
 10
195.3591625521352
 20
341.871993334977
 30
0.0
 10
195.4502920645914
 20
341.7880829387037
 30
0.0
 10
195.4779193768204
 20
341.7640526606315
 30
0.0
 10
195.5053695085712
 20
341.7399911631501
 30
0.0
  0
SPLINE
  5
1FF
330
1B2
100
AcDbEntity
  8
(1_2) 28.15
  6
Continuous
 62
     7
100
AcDbSpline
210
0.0
220
0.0
230
1.0
 70
     8
 71
     3
 72
    18
 73
    14
 74
     0
 42
0.000000001
 43
0.0000000001
 40
0.0
 40
0.0
 40
0.0
 40
0.0
 40
0.2499999999999992
 40
0.2499999999999992
 40
0.3749999999999991
 40
0.3749999999999991
 40
0.499999999999999
 40
0.499999999999999
 40
0.6249999999999989
 40
0.6249999999999989
 40
0.7499999999999989
 40
0.7499999999999989
 40
1.0
 40
1.0
 40
1.0
 40
1.0
 10
194.8806025632192
 20
341.2731703350716
 30
0.0
 10
194.9145794568925
 20
341.3356998367934
 30
0.0
 10
194.9728914260659
 20
341.3960352946288
 30
0.0
 10
195.0700707388787
 20
341.4855162139431
 30
0.0
 10
195.1044051871056
 20
341.5150011199551
 30
0.0
 10
195.1715235550507
 20
341.5742441369295
 30
0.0
 10
195.2064114973714
 20
341.6040200721767
 30
0.0
 10
195.2388045070669
 20
341.6664792071203
 30
0.0
 10
195.2354268976595
 20
341.6958783838331
 30
0.0
 10
195.2316499021128
 20
341.7546143408242
 30
0.0
 10
195.2289628144866
 20
341.7838949199606
 30
0.0
 10
195.2277323607831
 20
341.8724622129249
 30
0.0
 10
195.2338690647789
 20
341.9322416751055
 30
0.0
 10
195.2668738061878
 20
341.9948581715586
 30
0.0
  0
SPLINE
  5
200
330
1B2
100
AcDbEntity
  8
(1_2) 28.15
  6
Continuous
 62
     7
100
AcDbSpline
210
0.0
220
0.0
230
1.0
 70
     8
 71
     3
 72
    20
 73
    16
 74
     0
 42
0.000000001
 43
0.0000000001
 40
0.0
 40
0.0
 40
0.0
 40
0.0
 40
0.2499999999999995
 40
0.2499999999999995
 40
0.3749999999999997
 40
0.3749999999999997
 40
0.4374999999999998
 40
0.4374999999999998
 40
0.4999999999999999
 40
0.4999999999999999
 40
0.6250000000000001
 40
0.6250000000000001
 40
0.7500000000000003
 40
0.7500000000000003
 40
1.0
 40
1.0
 40
1.0
 40
1.0
 10
194.8806025632192
 20
339.8297946620975
 30
0.0
 10
194.8811178474845
 20
339.9563779572489
 30
0.0
 10
194.9084859479295
 20
340.0819120707747
 30
0.0
 10
194.9595272377936
 20
340.2649649178867
 30
0.0
 10
194.9787656376496
 20
340.3253855892361
 30
0.0
 10
195.0056222945151
 20
340.4165481284528
 30
0.0
 10
195.0142920797306
 20
340.4470097913133
 30
0.0
 10
195.0269578810711
 20
340.5091601623201
 30
0.0
 10
195.0301570120008
 20
340.5424074175056
 30
0.0
 10
195.0239782052517
 20
340.6321828500542
 30
0.0
 10
195.0050955514895
 20
340.6892467536635
 30
0.0
 10
194.9704631006005
 20
340.8038428385511
 30
0.0
 10
194.9527341441688
 20
340.8610480795139
 30
0.0
 10
194.9058106337154
 20
341.0340721022258
 30
0.0
 10
194.8811003508072
 20
341.1508991605846
 30
0.0
 10
194.8806025632192
 20
341.2731703350716
 30
0.0
  0
SPLINE
  5
201
330
1B2
100
AcDbEntity
  8
(1_2) 28.15
  6
Continuous
 62
     7
100
AcDbSpline
210
0.0
220
0.0
230
1.0
 70
     8
 71
     3
 72
    18
 73
    14
 74
     0
 42
0.000000001
 43
0.0000000001
 40
0.0
 40
0.0
 40
0.0
 40
0.0
 40
0.2500000000000004
 40
0.2500000000000004
 40
0.3750000000000006
 40
0.3750000000000006
 40
0.5000000000000007
 40
0.5000000000000007
 40
0.6250000000000008
 40
0.6250000000000008
 40
0.7500000000000008
 40
0.7500000000000008
 40
1.0
 40
1.0
 40
1.0
 40
1.0
 10
195.2668738061878
 20
339.1081068256105
 30
0.0
 10
195.2339149774307
 20
339.1706363273323
 30
0.0
 10
195.2276398741473
 20
339.2309717851677
 30
0.0
 10
195.2290328810865
 20
339.320452704482
 30
0.0
 10
195.2318047319735
 20
339.349937610494
 30
0.0
 10
195.2355054485548
 20
339.4091806274684
 30
0.0
 10
195.2385192565558
 20
339.4389565627156
 30
0.0
 10
195.2040518690835
 20
339.5014156976592
 30
0.0
 10
195.1692034326593
 20
339.530814874372
 30
0.0
 10
195.1025515763574
 20
339.5895508313631
 30
0.0
 10
195.0685206164194
 20
339.6188314104995
 30
0.0
 10
194.9724818630328
 20
339.7073987034638
 30
0.0
 10
194.9146266691663
 20
339.7671781656444
 30
0.0
 10
194.8806025632192
 20
339.8297946620975
 30
0.0
  0
SPLINE
  5
202
330
1B2
100
AcDbEntity
  8
(1_2) 28.15
  6
Continuous
 62
     7
100
AcDbSpline
210
0.0
220
0.0
230
1.0
 70
     8
 71
     3
 72
    18
 73
    14
 74
     0
 42
0.000000001
 43
0.0000000001
 40
0.0
 40
0.0
 40
0.0
 40
0.0
 40
0.2499999999999998
 40
0.2499999999999998
 40
0.3749999999999997
 40
0.3749999999999997
 40
0.4999999999999996
 40
0.4999999999999996
 40
0.6249999999999994
 40
0.6249999999999994
 40
0.7499999999999993
 40
0.7499999999999993
 40
1.0
 40
1.0
 40
1.0
 40
1.0
 10
195.6531450491565
 20
339.8297946620975
 30
0.0
 10
195.6201862203994
 20
339.7672651603758
 30
0.0
 10
195.613911117116
 20
339.7069297025404
 30
0.0
 10
195.6153041240552
 20
339.6174487832261
 30
0.0
 10
195.6180759749422
 20
339.587963877214
 30
0.0
 10
195.6217766915235
 20
339.5287208602397
 30
0.0
 10
195.6247904995245
 20
339.4989449249924
 30
0.0
 10
195.5903231120521
 20
339.4364857900488
 30
0.0
 10
195.5554746756279
 20
339.407086613336
 30
0.0
 10
195.4888228193261
 20
339.3483506563449
 30
0.0
 10
195.4547918593881
 20
339.3190700772084
 30
0.0
 10
195.3587531060014
 20
339.2305027842442
 30
0.0
 10
195.300897912135
 20
339.1707233220637
 30
0.0
 10
195.2668738061878
 20
339.1081068256105
 30
0.0
  0
SPLINE
  5
203
330
1B2
100
AcDbEntity
  8
(1_2) 28.15
  6
Continuous
 62
     7
100
AcDbSpline
210
0.0
220
0.0
230
1.0
 70
     8
 71
     3
 72
     8
 73
     4
 74
     0
 42
0.000000001
 43
0.0000000001
 40
0.0
 40
0.0
 40
0.0
 40
0.0
 40
0.1051891261586437
 40
0.1051891261586437
 40
0.1051891261586437
 40
0.1051891261586437
 10
195.6531518370578
 20
341.2731703350673
 30
0.0
 10
195.6533658109125
 20
341.2199094676848
 30
0.0
 10
195.6583348961797
 20
341.1668344003905
 30
0.0
 10
195.6665544024439
 20
341.1141275848132
 30
0.0
  0
SPLINE
  5
204
330
1B2
100
AcDbEntity
  8
(1_2) 28.15
  6
Continuous
 62
     7
100
AcDbSpline
210
0.0
220
0.0
230
1.0
 70
     8
 71
     3
 72
     8
 73
     4
 74
     0
 42
0.000000001
 43
0.0000000001
 40
0.8957020254572862
 40
0.8957020254572862
 40
0.8957020254572862
 40
0.8957020254572862
 40
1.0
 40
1.0
 40
1.0
 40
1.0
 10
195.6651296459743
 20
339.9802716388944
 30
0.0
 10
195.6577745558031
 20
339.9308681843174
 30
0.0
 10
195.6533527220621
 20
339.8808051947182
 30
0.0
 10
195.6531450491565
 20
339.8297946620975
 30
0.0
  0
LINE
  5
205
330
1B2
100
AcDbEntity
  8
(1_2) 28.15
  6
Continuous
 62
     7
100
AcDbLine
 10
195.6531450492
 20
339.8297946621
 30
0.0
 11
194.8806025632
 21
339.8297946621
 31
0.0
  0
LINE
  5
206
330
1B2
100
AcDbEntity
  8
(1_2) 28.15
  6
Continuous
 62
     7
100
AcDbLine
 10
195.6531518371
 20
341.2731703351
 30
0.0
 11
194.8806025632
 21
341.2731703351
 31
0.0
  0
LINE
  5
207
330
1B2
100
AcDbEntity
  8
(1_2) 28.15
  6
Continuous
 62
     7
100
AcDbLine
 10
195.2668738062
 20
336.5514824986
 30
0.0
 11
195.5521907611
 21
336.5514824986
 31
0.0
  0
LINE
  5
208
330
1B2
100
AcDbEntity
  8
(1_2) 28.15
  6
Continuous
 62
     7
100
AcDbLine
 10
195.5521907611
 20
344.5514824986
 30
0.0
 11
195.2668738062
 21
344.5514824986
 31
0.0
  0
ARC
  5
209
330
1B2
100
AcDbEntity
  8
(1_2) 28.15
  6
Continuous
 62
     7
100
AcDbCircle
 10
192.8451122445
 20
340.4677489217
 30
0.0
 40
2.858226837076377
100
AcDbArc
 50
350.2107909589
 51
3.0269010042
  0
ARC
  5
20A
330
1B2
100
AcDbEntity
  8
(1_2) 28.15
  6
Continuous
 62
     7
100
AcDbCircle
 10
192.8096506702
 20
340.6616299187
 30
0.0
 40
2.890019973372068
100
AcDbArc
 50
359.1484115714
 51
9.0049793357
  0
ENDBLK
  5
20C
330
1B2
100
AcDbEntity
  8
0
100
AcDbBlockEnd
  0
BLOCK
  5
230
330
20D
100
AcDbEntity
  8
0
100
AcDbBlockBegin
  2
SE2
 70
     0
 10
0.0
 20
0.0
 30
0.0
  3
SE2
  1
SE2
  0
LINE
  5
20F
330
20D
100
AcDbEntity
  8
(1_1) 492223038_
  6
Continuous
 62
     7
100
AcDbLine
 10
62.4141828114
 20
250.1484305942
 30
0.0
 11
62.4151888499
 21
249.6188909678
 31
0.0
  0
ARC
  5
210
330
20D
100
AcDbEntity
  8
(1_1) 492223038_
  6
Continuous
 62
     7
100
AcDbCircle
 10
186.1457012847
 20
221.0699155083
 30
0.0
 40
101.1671937833176
100
AcDbArc
 50
177.6517728932
 51
179.9376081303
  0
SPLINE
  5
211
330
20D
100
AcDbEntity
  8
(1_1) 492223038_
  6
Continuous
 62
     7
100
AcDbSpline
210
0.0
220
0.0
230
1.0
 70
     8
 71
     3
 72
    18
 73
    14
 74
     0
 42
0.000000001
 43
0.0000000001
 40
0.0
 40
0.0
 40
0.0
 40
0.0
 40
0.1250000000000002
 40
0.1250000000000002
 40
0.2500000000000003
 40
0.2500000000000003
 40
0.5000000000000002
 40
0.5000000000000002
 40
0.7500000000000001
 40
0.7500000000000001
 40
0.875
 40
0.875
 40
1.0
 40
1.0
 40
1.0
 40
1.0
 10
84.88899901789017
 20
129.0078313650356
 30
0.0
 10
84.89279365216129
 20
132.8466635172256
 30
0.0
 10
84.89653104618908
 20
136.6870299053472
 30
0.0
 10
84.90401914684797
 20
144.3674058579097
 30
0.0
 10
84.90775950113573
 20
148.207692900855
 30
0.0
 10
84.91896366832532
 20
159.7290068920157
 30
0.0
 10
84.92639053506981
 20
167.4110237377268
 30
0.0
 10
84.94123228190671
 20
182.7753687804958
 30
0.0
 10
84.94865361646099
 20
190.4575297868813
 30
0.0
 10
84.9598287243348
 20
201.9796288253547
 30
0.0
 10
84.96356136653543
 20
205.8201244933956
 30
0.0
 10
84.97104092803909
 20
213.5007328950286
 30
0.0
 10
84.97478606439962
 20
217.3408934499556
 30
0.0
 10
84.97856748329302
 20
221.1800808500121
 30
0.0
  0
ARC
  5
212
330
20D
100
AcDbEntity
  8
(1_1) 492223038_
  6
Continuous
 62
     7
100
AcDbCircle
 10
62.339480667
 20
128.9028584191
 30
0.0
 40
22.54976268556222
100
AcDbArc
 50
320.1929913378
 51
0.2667224738
  0
ARC
  5
213
330
20D
100
AcDbEntity
  8
(1_1) 492223038_
  6
Continuous
 62
     7
100
AcDbCircle
 10
204.4502786158
 20
220.3732730422
 30
0.0
 40
119.4849556331397
100
AcDbArc
 50
177.6776348711
 51
177.7872736585
  0
ARC
  5
214
330
20D
100
AcDbEntity
  8
(1_1) 492223038_
  6
Continuous
 62
     7
100
AcDbCircle
 10
62.1941670816
 20
226.7808650834
 30
0.0
 40
22.83908522166825
100
AcDbArc
 50
356.7122604157
 51
89.4481550361
  0
LINE
  5
215
330
20D
100
AcDbEntity
  8
(1_1) 492223038_
  6
Continuous
 62
     7
100
AcDbLine
 10
84.3582009461
 20
129.8912432144
 30
0.0
 11
84.4482754372
 21
222.5532116793
 31
0.0
  0
ARC
  5
216
330
20D
100
AcDbEntity
  8
(1_1) 492223038_
  6
Continuous
 62
     7
100
AcDbCircle
 10
62.3213406224
 20
129.7722187457
 30
0.0
 40
22.03718175606434
100
AcDbArc
 50
270.2412716797
 51
0.3094602998
  0
LINE
  5
217
330
20D
100
AcDbEntity
  8
(1_1) 492223038_
  6
Continuous
 62
     7
100
AcDbLine
 10
84.4482754372
 20
222.5532116793
 30
0.0
 11
84.4959115759
 21
225.5466784603
 31
0.0
  0
ARC
  5
218
330
20D
100
AcDbEntity
  8
(1_1) 492223038_
  6
Continuous
 62
     7
100
AcDbCircle
 10
62.208144028
 20
226.8546871663
 30
0.0
 40
22.3261163001273
100
AcDbArc
 50
356.6413183519
 51
89.4615401312
  0
ARC
  5
219
330
20D
100
AcDbEntity
  8
(1_1) 492223038_
  6
Continuous
 62
     7
100
AcDbCircle
 10
39.8704524413
 20
249.2031582167
 30
0.0
 40
22.54751913384552
100
AcDbArc
 50
359.9406887254
 51
1.056483498
  0
SPLINE
  5
21A
330
20D
100
AcDbEntity
  8
(1_1) 492223038_
  6
Continuous
 62
     7
100
AcDbSpline
210
0.0
220
0.0
230
1.0
 70
     8
 71
     3
 72
    24
 73
    20
 74
     0
 42
0.000000001
 43
0.0000000001
 40
0.3930732836374579
 40
0.3930732836374579
 40
0.3930732836374579
 40
0.3930732836374579
 40
0.5
 40
0.5
 40
0.5625
 40
0.5625
 40
0.6249999999999999
 40
0.6249999999999999
 40
0.6874999999999999
 40
0.6874999999999999
 40
0.7499999999999999
 40
0.7499999999999999
 40
0.8124999999999999
 40
0.8124999999999999
 40
0.8749999999999998
 40
0.8749999999999998
 40
0.9374999999999999
 40
0.9374999999999999
 40
0.9999994179263616
 40
0.9999994179263616
 40
0.9999994179263616
 40
0.9999994179263616
 10
84.99123515026734
 20
218.2758551233607
 30
0.0
 10
85.87879947511107
 20
220.8085498439183
 30
0.0
 10
86.35362902874012
 20
223.4823123541568
 30
0.0
 10
86.35779521667723
 20
227.7081590079499
 30
0.0
 10
86.19597884762011
 20
229.2924312985972
 30
0.0
 10
85.57448193001987
 20
232.3656670385949
 30
0.0
 10
85.11892629807271
 20
233.8589286055134
 30
0.0
 10
83.92407433496074
 20
236.760497745124
 30
0.0
 10
83.1814759681645
 20
238.1660167802541
 30
0.0
 10
81.46474820875467
 20
240.770612394357
 30
0.0
 10
80.48507569236065
 20
241.9858654633499
 30
0.0
 10
78.25755354749937
 20
244.2239417207362
 30
0.0
 10
77.03741533619298
 20
245.2163814386024
 30
0.0
 10
74.4384290231716
 20
246.9434684146395
 30
0.0
 10
73.04012302423584
 20
247.6888092101674
 30
0.0
 10
70.1362704169964
 20
248.8952873754988
 30
0.0
 10
68.64420177950589
 20
249.3543436672126
 30
0.0
 10
65.57916072319755
 20
249.9818127569884
 30
0.0
 10
63.99678873932384
 20
250.1487749954924
 30
0.0
 10
62.41418281209141
 20
250.1484306038515
 30
0.0
  0
LINE
  5
21B
330
20D
100
AcDbEntity
  8
(1_1) 492223038_
  6
Continuous
 62
     7
100
AcDbLine
 10
62.4141385944
 20
249.1798175464
 30
0.0
 11
62.4141385944
 21
249.6188909678
 31
0.0
  0
ARC
  5
21C
330
20D
100
AcDbEntity
  8
(1_1) 492223038_
  6
Continuous
 62
     7
100
AcDbCircle
 10
-61.3174240959
 20
221.0699155083
 30
0.0
 40
101.1671937833242
100
AcDbArc
 50
0.0623918697
 51
2.3482271068
  0
SPLINE
  5
21D
330
20D
100
AcDbEntity
  8
(1_1) 492223038_
  6
Continuous
 62
     7
100
AcDbSpline
210
0.0
220
0.0
230
1.0
 70
     8
 71
     3
 72
    18
 73
    14
 74
     0
 42
0.000000001
 43
0.0000000001
 40
0.0
 40
0.0
 40
0.0
 40
0.0
 40
0.1250000000000002
 40
0.1250000000000002
 40
0.2500000000000003
 40
0.2500000000000003
 40
0.5000000000000002
 40
0.5000000000000002
 40
0.7500000000000001
 40
0.7500000000000001
 40
0.875
 40
0.875
 40
1.0
 40
1.0
 40
1.0
 40
1.0
 10
39.93927817092266
 20
129.0078313650356
 30
0.0
 10
39.93548353665155
 20
132.8466635172255
 30
0.0
 10
39.93174614262374
 20
136.6870299053472
 30
0.0
 10
39.92425804196485
 20
144.3674058579097
 30
0.0
 10
39.9205176876771
 20
148.207692900855
 30
0.0
 10
39.90931352048752
 20
159.7290068920157
 30
0.0
 10
39.90188665374301
 20
167.4110237377268
 30
0.0
 10
39.88704490690612
 20
182.7753687804958
 30
0.0
 10
39.87962357235183
 20
190.4575297868813
 30
0.0
 10
39.86844846447804
 20
201.9796288253547
 30
0.0
 10
39.8647158222774
 20
205.8201244933956
 30
0.0
 10
39.85723626077375
 20
213.5007328950286
 30
0.0
 10
39.8534911244132
 20
217.3408934499556
 30
0.0
 10
39.84970970551981
 20
221.1800808500121
 30
0.0
  0
ARC
  5
21E
330
20D
100
AcDbEntity
  8
(1_1) 492223038_
  6
Continuous
 62
     7
100
AcDbCircle
 10
62.4887965218
 20
128.9028584191
 30
0.0
 40
22.54976268556221
100
AcDbArc
 50
179.7332775262
 51
219.7347413426
  0
ARC
  5
21F
330
20D
100
AcDbEntity
  8
(1_1) 492223038_
  6
Continuous
 62
     7
100
AcDbCircle
 10
-79.6220007906
 20
220.3732730572
 30
0.0
 40
119.4849549966435
100
AcDbArc
 50
2.2123549376
 51
2.3223651341
  0
ARC
  5
220
330
20D
100
AcDbEntity
  8
(1_1) 492223038_
  6
Continuous
 62
     7
100
AcDbCircle
 10
62.5069365664
 20
129.7722187457
 30
0.0
 40
22.03718175606429
100
AcDbArc
 50
179.6905397002
 51
269.7587283203
  0
LINE
  5
221
330
20D
100
AcDbEntity
  8
(1_1) 492223038_
  6
Continuous
 62
     7
100
AcDbLine
 10
40.4700762428
 20
129.8912432144
 30
0.0
 11
40.3800017516
 21
222.5532116793
 31
0.0
  0
SPLINE
  5
222
330
20D
100
AcDbEntity
  8
(1_1) 492223038_
  6
Continuous
 62
     7
100
AcDbSpline
210
0.0
220
0.0
230
1.0
 70
     8
 71
     3
 72
    20
 73
    16
 74
     0
 42
0.000000001
 43
0.0000000001
 40
0.0
 40
0.0
 40
0.0
 40
0.0
 40
0.0569273152037701
 40
0.1171885141123765
 40
0.1807833234829644
 40
0.2477114392894302
 40
0.3179725288942331
 40
0.3915662327289864
 40
0.4684921656113868
 40
0.5487499177887805
 40
0.6323390557748554
 40
0.7192591230257883
 40
0.809509640492563
 40
0.9030901070752114
 40
1.0
 40
1.0
 40
1.0
 40
1.0
 10
62.41413859440667
 20
249.618890967779
 30
0.0
 10
62.41307480986237
 20
249.6184889904364
 30
0.0
 10
62.4130468244493
 20
249.617685470517
 30
0.0
 10
62.41296157995533
 20
249.6118199168409
 30
0.0
 10
62.41284797349338
 20
249.6018635998864
 30
0.0
 10
62.4127049100392
 20
249.5869089495991
 30
0.0
 10
62.41253595466543
 20
249.5665315863219
 30
0.0
 10
62.41234280530402
 20
249.5402412650984
 30
0.0
 10
62.41212698156515
 20
249.5076756736502
 30
0.0
 10
62.41188913854236
 20
249.4685840594696
 30
0.0
 10
62.41162898162077
 20
249.4228714440912
 30
0.0
 10
62.41134529155239
 20
249.3706390570202
 30
0.0
 10
62.41103479405923
 20
249.3121787247757
 30
0.0
 10
62.4106958491527
 20
249.2481639667676
 30
0.0
 10
62.41044512731057
 20
249.2028776519134
 30
0.0
 10
62.41031769455341
 20
249.179817547058
 30
0.0
  0
LINE
  5
223
330
20D
100
AcDbEntity
  8
(1_1) 492223038_
  6
Continuous
 62
     7
100
AcDbLine
 10
40.3800017516
 20
222.5532116793
 30
0.0
 11
40.3323656129
 21
225.5466784603
 31
0.0
  0
ARC
  5
224
330
20D
100
AcDbEntity
  8
(1_1) 492223038_
  6
Continuous
 62
     7
100
AcDbCircle
 10
62.6341101072
 20
226.7808650834
 30
0.0
 40
22.83908522166824
100
AcDbArc
 50
90.5518449639
 51
183.2877395843
  0
ARC
  5
225
330
20D
100
AcDbEntity
  8
(1_1) 492223038_
  6
Continuous
 62
     7
100
AcDbCircle
 10
62.6201331608
 20
226.8546871663
 30
0.0
 40
22.3261163001273
100
AcDbArc
 50
90.5384598688
 51
183.3586816481
  0
SPLINE
  5
226
330
20D
100
AcDbEntity
  8
(1_1) 492223038_
  6
Continuous
 62
     7
100
AcDbSpline
210
0.0
220
0.0
230
1.0
 70
     8
 71
     3
 72
    20
 73
    16
 74
     0
 42
0.000000001
 43
0.0000000001
 40
0.3930732836374616
 40
0.3930732836374616
 40
0.3930732836374616
 40
0.3930732836374616
 40
0.5000000000000002
 40
0.5000000000000002
 40
0.5625000000000002
 40
0.5625000000000002
 40
0.6250000000000002
 40
0.6250000000000002
 40
0.6875000000000003
 40
0.6875000000000003
 40
0.7500000000000003
 40
0.7500000000000003
 40
0.8125000000000002
 40
0.8125000000000002
 40
0.8468012470435746
 40
0.8468012470435746
 40
0.8468012470435746
 40
0.8468012470435746
 10
39.8370420385455
 20
218.2758551233607
 30
0.0
 10
38.94947771370179
 20
220.8085498439182
 30
0.0
 10
38.47464816007273
 20
223.4823123541567
 30
0.0
 10
38.47048197213557
 20
227.7081590079497
 30
0.0
 10
38.63229834119268
 20
229.292431298597
 30
0.0
 10
39.2537952587929
 20
232.3656670385947
 30
0.0
 10
39.70935089074006
 20
233.8589286055133
 30
0.0
 10
40.90420285385202
 20
236.7604977451239
 30
0.0
 10
41.64680122064825
 20
238.166016780254
 30
0.0
 10
43.36352898005809
 20
240.770612394357
 30
0.0
 10
44.34320149645209
 20
241.9858654633498
 30
0.0
 10
46.57072364131339
 20
244.2239417207362
 30
0.0
 10
47.79086185261978
 20
245.2163814386024
 30
0.0
 10
49.803542781817
 20
246.5538548228672
 30
0.0
 10
50.54649331272414
 20
246.9921816732818
 30
0.0
 10
51.31173598599212
 20
247.39095481677
 30
0.0
  0
SPLINE
  5
227
330
20D
100
AcDbEntity
  8
(1_1) 492223038_
  6
Continuous
 62
     7
100
AcDbSpline
210
0.0
220
0.0
230
1.0
 70
     8
 71
     3
 72
    10
 73
     6
 74
     0
 42
0.000000001
 43
0.0000000001
 40
0.8659693327683428
 40
0.8659693327683428
 40
0.8659693327683428
 40
0.8659693327683428
 40
0.8750000000000001
 40
0.8750000000000001
 40
0.9355167910653
 40
0.9355167910653
 40
0.9355167910653
 40
0.9355167910653
 10
52.61420574113314
 20
248.0217329097721
 30
0.0
 10
52.82162030370429
 20
248.1147567111213
 30
0.0
 10
53.03029065551057
 20
248.2048858701661
 30
0.0
 10
54.64593520033054
 20
248.8761457892827
 30
0.0
 10
56.08942514444697
 20
249.325065547458
 30
0.0
 10
57.57083779289007
 20
249.6377749555365
 30
0.0
  0
SPLINE
  5
228
330
20D
100
AcDbEntity
  8
(1_1) 492223038_
  6
Continuous
 62
     7
100
AcDbSpline
210
0.0
220
0.0
230
1.0
 70
     8
 71
     3
 72
     8
 73
     4
 74
     0
 42
0.000000001
 43
0.0000000001
 40
0.953707446398039
 40
0.953707446398039
 40
0.953707446398039
 40
0.953707446398039
 40
0.9999994179263616
 40
0.9999994179263616
 40
0.9999994179263616
 40
0.9999994179263616
 10
58.91803758226146
 20
249.8821848178706
 30
0.0
 10
60.06981853249172
 20
250.0571555913641
 30
0.0
 10
61.24189228341044
 20
250.1486856873157
 30
0.0
 10
62.41409437672142
 20
250.1484306038515
 30
0.0
  0
ARC
  5
229
330
20D
100
AcDbEntity
  8
(1_1) 492223038_
  6
Continuous
 62
     7
100
AcDbCircle
 10
62.5161568626
 20
226.1115541734
 30
0.0
 40
23.9934311828731
100
AcDbArc
 50
98.319515981
 51
118.0044808496
  0
ARC
  5
22A
330
20D
100
AcDbEntity
  8
(1_1) 492223038_
  6
Continuous
 62
     7
100
AcDbCircle
 10
62.4758045521
 20
128.5809284834
 30
0.0
 40
22.23092848335123
100
AcDbArc
 50
269.8404557915
 51
320.5957274086
  0
ARC
  5
22B
330
20D
100
AcDbEntity
  8
(1_1) 492223038_
  6
Continuous
 62
     7
100
AcDbCircle
 10
62.3521992654
 20
128.5911850564
 30
0.0
 40
22.2407855987841
100
AcDbArc
 50
219.3520693098
 51
270.1588654398
  0
LINE
  5
22C
330
20D
100
AcDbEntity
  8
(1_2) 28.15
  6
Continuous
 62
     7
100
AcDbLine
 10
58.8637601935
 20
250.0429178048
 30
0.0
 11
57.0413234663
 21
249.450772217
 31
0.0
  0
LINE
  5
22D
330
20D
100
AcDbEntity
  8
(1_2) 28.15
  6
Continuous
 62
     7
100
AcDbLine
 10
53.257544064
 20
248.221347763
 30
0.0
 11
51.2553080631
 21
247.5707818498
 31
0.0
  0
LINE
  5
22E
330
20D
100
AcDbEntity
  8
(1_2) 28.15
  6
Continuous
 62
     7
100
AcDbLine
 10
51.2553080631
 20
247.5707818498
 30
0.0
 11
51.3324059405
 21
247.3334989818
 31
0.0
  0
LINE
  5
22F
330
20D
100
AcDbEntity
  8
(1_2) 28.15
  6
Continuous
 62
     7
100
AcDbLine
 10
58.9325454529
 20
249.8312185441
 30
0.0
 11
58.8637601935
 21
250.0429178048
 31
0.0
  0
ENDBLK
  5
231
330
20D
100
AcDbEntity
  8
0
100
AcDbBlockEnd
  0
ENDSEC
  0
SECTION
  2
ENTITIES
  0
INSERT
  5
6C
330
1F
100
AcDbEntity
  8
Default
100
AcDbBlockReference
  2
SEANNOT_GROUP
 10
0.0
 20
0.0
 30
0.0
  0
INSERT
  5
77
330
1F
100
AcDbEntity
  8
Default
100
AcDbBlockReference
  2
SEANNOT_GROUP1
 10
0.0
 20
0.0
 30
0.0
  0
INSERT
  5
7D
330
1F
100
AcDbEntity
  8
Default
100
AcDbBlockReference
  2
SEANNOT_GROUP2
 10
0.0
 20
0.0
 30
0.0
  0
INSERT
  5
83
330
1F
100
AcDbEntity
  8
Default
100
AcDbBlockReference
  2
SEANNOT_GROUP3
 10
0.0
 20
0.0
 30
0.0
  0
INSERT
  5
8D
330
1F
100
AcDbEntity
  8
Default
100
AcDbBlockReference
  2
SEANNOT_GROUP4
 10
0.0
 20
0.0
 30
0.0
  0
INSERT
  5
93
330
1F
100
AcDbEntity
  8
Default
100
AcDbBlockReference
  2
SE
 10
0.0
 20
0.0
 30
0.0
  0
INSERT
  5
1B3
330
1F
100
AcDbEntity
  8
Default
100
AcDbBlockReference
  2
SE1
 10
0.0
 20
0.0
 30
0.0
  0
INSERT
  5
20E
330
1F
100
AcDbEntity
  8
Default
100
AcDbBlockReference
  2
SE2
 10
0.0
 20
0.0
 30
0.0
  0
MTEXT
  5
232
330
1F
100
AcDbEntity
  8
Default
100
AcDbMText
 10
5.9362635081
 20
63.4225120485
 30
0.0
 40
10.0
 41
113.8626497168
 71
     1
 72
     1
  1
{\fSolid Edge ISO|b0||i0||c0|p34;\C7;\H10.;\W1.;Grohe AG\P}{\fSolid Edge ISO|b0||i0||c0|p34;\C7;\H10.;\W1.;\P}{\fSolid Edge ISO|b0||i0||c0|p34;\C7;\H10.;\W1.;ecn:\P}{\fSolid Edge ISO|b0||i0||c0|p34;\C7;\H10.;\W1.;unit: mm}
 73
     1
 44
1.0
1001
ACAD
1000
ACAD_MTEXT_DEFINED_HEIGHT_BEGIN
1070
    46
1040
65.4545454545
1000
ACAD_MTEXT_DEFINED_HEIGHT_END
  0
LINE
  5
233
330
1F
100
AcDbEntity
  8
Default
  6
Continuous
 62
     7
100
AcDbLine
 10
0.0
 20
0.0
 30
0.0
 11
100.0
 21
0.0
 31
0.0
  0
LINE
  5
234
330
1F
100
AcDbEntity
  8
Default
  6
Continuous
 62
     7
100
AcDbLine
 10
0.0
 20
0.0
 30
0.0
 11
0.0
 21
100.0
 31
0.0
  0
MTEXT
  5
235
330
1F
100
AcDbEntity
  8
Default
100
AcDbMText
 10
24.3923665681
 20
-8.2375342018
 30
0.0
 40
10.0
 41
35.00001
 71
     1
 72
     1
  1
{\fSolid Edge ISO|b0||i0||c0|p34;\C7;\H10.;\W1.;100 mm}
 73
     1
 44
1.0
1001
ACAD
1000
ACAD_MTEXT_DEFINED_HEIGHT_BEGIN
1070
    46
1040
16.3636363636
1000
ACAD_MTEXT_DEFINED_HEIGHT_END
  0
MTEXT
  5
236
330
1F
100
AcDbEntity
  8
Default
100
AcDbMText
 10
-20.5695763349
 20
24.6231930421
 30
0.0
 40
10.0
 41
35.00001
 71
     1
 72
     1
  1
{\fSolid Edge ISO|b0||i0||c0|p34;\C7;\H10.;\W1.;100 mm}
 11
6.123233995736766E-17
 21
1.0
 31
0.0
 73
     1
 44
1.0
1001
ACAD
1000
ACAD_MTEXT_DEFINED_HEIGHT_BEGIN
1070
    46
1040
16.3636363636
1000
ACAD_MTEXT_DEFINED_HEIGHT_END
  0
MTEXT
  5
237
330
1F
100
AcDbEntity
  8
Default
100
AcDbMText
 10
28.4878128572
 20
24.8634936442
 30
0.0
 40
10.0
 41
86.691737001
 71
     4
 72
     1
  1
{\fSolid Edge ISO|b0||i0||c0|p34;\C7;\H10.;\W1.;238425}
 73
     1
 44
1.0
1001
ACAD
1000
ACAD_MTEXT_DEFINED_HEIGHT_BEGIN
1070
    46
1040
16.3636363636
1000
ACAD_MTEXT_DEFINED_HEIGHT_END
  0
MTEXT
  5
238
330
1F
100
AcDbEntity
  8
Default
100
AcDbMText
 10
5.9012241913
 20
41.4970052916
 30
0.0
 40
10.0
 41
109.9146987306
 71
     4
 72
     1
  1
{\fSolid Edge ISO|b0||i0||c0|p34;\C7;\H10.;\W1.;36439000}
 73
     1
 44
1.0
1001
ACAD
1000
ACAD_MTEXT_DEFINED_HEIGHT_BEGIN
1070
    46
1040
16.3636363636
1000
ACAD_MTEXT_DEFINED_HEIGHT_END
  0
ENDSEC
  0
SECTION
  2
OBJECTS
  0
DICTIONARY
  5
C
330
0
100
AcDbDictionary
281
     1
  3
ACAD_GROUP
350
D
  3
ACAD_LAYOUT
350
1A
  3
ACAD_MATERIAL
350
43
  3
ACAD_MLEADERSTYLE
350
23B
  3
ACAD_MLINESTYLE
350
17
  3
ACAD_PLOTSETTINGS
350
19
  3
ACAD_PLOTSTYLENAME
350
E
  3
ACAD_SCALELIST
350
47
  3
ACAD_VISUALSTYLE
350
2A
  3
AcDbVariableDictionary
350
239
  0
DICTIONARY
  5
D
102
{ACAD_REACTORS
330
C
102
}
330
C
100
AcDbDictionary
281
     1
  0
DICTIONARY
  5
1A
102
{ACAD_REACTORS
330
C
102
}
330
C
100
AcDbDictionary
281
     1
  3
Layout1
350
1E
  3
Model
350
22
  0
DICTIONARY
  5
43
102
{ACAD_REACTORS
330
C
102
}
330
C
100
AcDbDictionary
281
     1
  3
ByBlock
350
45
  3
ByLayer
350
44
  3
Global
350
46
  0
DICTIONARY
  5
23B
102
{ACAD_REACTORS
330
C
102
}
330
C
100
AcDbDictionary
281
     1
  0
DICTIONARY
  5
17
102
{ACAD_REACTORS
330
C
102
}
330
C
100
AcDbDictionary
281
     1
  3
Standard
350
18
  0
DICTIONARY
  5
19
102
{ACAD_REACTORS
330
C
102
}
330
C
100
AcDbDictionary
281
     1
  0
ACDBDICTIONARYWDFLT
  5
E
102
{ACAD_REACTORS
330
C
102
}
330
C
100
AcDbDictionary
281
     1
  3
Normal
350
F
100
AcDbDictionaryWithDefault
340
F
  0
DICTIONARY
  5
47
102
{ACAD_REACTORS
330
C
102
}
330
C
100
AcDbDictionary
281
     1
  3
A0
350
48
  3
A1
350
49
  3
A2
350
4A
  3
A3
350
4B
  3
A4
350
4C
  3
A5
350
4D
  3
A6
350
4E
  3
A7
350
4F
  3
A8
350
50
  3
A9
350
51
  3
B0
350
52
  3
B1
350
53
  3
B2
350
54
  3
B3
350
55
  3
B4
350
56
  3
B5
350
57
  3
B6
350
58
  3
B7
350
59
  3
B8
350
5A
  3
B9
350
5B
  3
C0
350
5C
  3
C1
350
5D
  3
C2
350
5E
  3
C3
350
5F
  3
C4
350
60
  3
C5
350
61
  3
C6
350
62
  3
C7
350
63
  3
C8
350
64
  3
C9
350
65
  3
D0
350
66
  3
D1
350
67
  3
D2
350
68
  0
DICTIONARY
  5
2A
102
{ACAD_REACTORS
330
C
102
}
330
C
100
AcDbDictionary
281
     1
  3
2dWireframe
350
2F
  3
Basic
350
32
  3
Brighten
350
36
  3
ColorChange
350
3A
  3
Conceptual
350
34
  3
Dim
350
35
  3
EdgeColorOff
350
3D
  3
Facepattern
350
39
  3
Flat
350
2B
  3
FlatWithEdges
350
2C
  3
Gouraud
350
2D
  3
GouraudWithEdges
350
2E
  3
Hidden
350
31
  3
JitterOff
350
3B
  3
Linepattern
350
38
  3
OverhangOff
350
3C
  3
Realistic
350
33
  3
Shaded
350
42
  3
Shaded with edges
350
41
  3
Shades of Gray
350
3E
  3
Sketchy
350
3F
  3
Thicken
350
37
  3
Wireframe
350
30
  3
X-Ray
350
40
  0
DICTIONARY
  5
239
102
{ACAD_REACTORS
330
C
102
}
330
C
100
AcDbDictionary
281
     1
  3
CANNOSCALE
350
242
  3
DIMASSOC
350
240
  3
HIDETEXT
350
241
  3
MSLTSCALE
350
243
  3
PSOLHEIGHT
350
23D
  3
PSOLWIDTH
350
23C
  0
LAYOUT
  5
1E
102
{ACAD_REACTORS
330
1A
102
}
330
1A
100
AcDbPlotSettings
  1

  2
none_device
  4

  6

 40
0.0
 41
0.0
 42
0.0
 43
0.0
 44
0.0
 45
0.0
 46
0.0
 47
0.0
 48
0.0
 49
0.0
140
0.0
141
0.0
142
1.0
143
1.0
 70
   688
 72
     1
 73
     0
 74
     5
  7

 75
    16
147
1.0
148
0.0
149
0.0
100
AcDbLayout
  1
Layout1
 70
     1
 71
     1
 10
0.0
 20
0.0
 11
3000.0
 21
4500.0
 12
0.0
 22
0.0
 32
0.0
 14
0.0
 24
0.0
 34
0.0
 15
3000.0
 25
4500.0
 35
0.0
146
0.0
 13
0.0
 23
0.0
 33
0.0
 16
1.0
 26
0.0
 36
0.0
 17
0.0
 27
1.0
 37
0.0
 76
     0
330
1B
  0
LAYOUT
  5
22
102
{ACAD_REACTORS
330
1A
102
}
330
1A
100
AcDbPlotSettings
  1

  2
none_device
  4
Letter_(8.50_x_11.00_Inches)
  6

 40
6.35
 41
6.35
 42
6.35000508
 43
6.35000508
 44
215.9
 45
279.4
 46
0.0
 47
0.0
 48
0.0
 49
0.0
140
0.0
141
0.0
142
1.0
143
1.0
 70
  1712
 72
     1
 73
     0
 74
     0
  7

 75
     0
147
1.0
148
0.0
149
0.0
100
AcDbLayout
  1
Model
 70
     1
 71
     0
 10
0.0
 20
0.0
 11
3000.0
 21
4500.0
 12
0.0
 22
0.0
 32
0.0
 14
0.0
 24
0.0
 34
0.0
 15
3000.0
 25
4500.0
 35
0.0
146
0.0
 13
0.0
 23
0.0
 33
0.0
 16
1.0
 26
0.0
 36
0.0
 17
0.0
 27
1.0
 37
0.0
 76
     0
330
1F
331
29
  0
MATERIAL
  5
45
102
{ACAD_REACTORS
330
43
102
}
102
{ACAD_XDICTIONARY
360
276
102
}
330
43
100
AcDbMaterial
  1
ByBlock
  0
MATERIAL
  5
44
102
{ACAD_REACTORS
330
43
102
}
102
{ACAD_XDICTIONARY
360
274
102
}
330
43
100
AcDbMaterial
  1
ByLayer
  0
MATERIAL
  5
46
102
{ACAD_REACTORS
330
43
102
}
102
{ACAD_XDICTIONARY
360
278
102
}
330
43
100
AcDbMaterial
  1
Global
  0
MLINESTYLE
  5
18
102
{ACAD_REACTORS
330
17
102
}
330
17
100
AcDbMlineStyle
  2
Standard
 70
     0
  3

 62
   256
 51
90.0
 52
90.0
 71
     2
 49
0.5
 62
   256
  6
BYLAYER
 49
-0.5
 62
   256
  6
BYLAYER
  0
ACDBPLACEHOLDER
  5
F
102
{ACAD_REACTORS
330
E
102
}
330
E
  0
SCALE
  5
48
102
{ACAD_REACTORS
330
47
102
}
330
47
100
AcDbScale
 70
     0
300
1:1
140
1.0
141
1.0
290
     1
  0
SCALE
  5
49
102
{ACAD_REACTORS
330
47
102
}
330
47
100
AcDbScale
 70
     0
300
1:2
140
1.0
141
2.0
290
     0
  0
SCALE
  5
4A
102
{ACAD_REACTORS
330
47
102
}
330
47
100
AcDbScale
 70
     0
300
1:4
140
1.0
141
4.0
290
     0
  0
SCALE
  5
4B
102
{ACAD_REACTORS
330
47
102
}
330
47
100
AcDbScale
 70
     0
300
1:5
140
1.0
141
5.0
290
     0
  0
SCALE
  5
4C
102
{ACAD_REACTORS
330
47
102
}
330
47
100
AcDbScale
 70
     0
300
1:8
140
1.0
141
8.0
290
     0
  0
SCALE
  5
4D
102
{ACAD_REACTORS
330
47
102
}
330
47
100
AcDbScale
 70
     0
300
1:10
140
1.0
141
10.0
290
     0
  0
SCALE
  5
4E
102
{ACAD_REACTORS
330
47
102
}
330
47
100
AcDbScale
 70
     0
300
1:16
140
1.0
141
16.0
290
     0
  0
SCALE
  5
4F
102
{ACAD_REACTORS
330
47
102
}
330
47
100
AcDbScale
 70
     0
300
1:20
140
1.0
141
20.0
290
     0
  0
SCALE
  5
50
102
{ACAD_REACTORS
330
47
102
}
330
47
100
AcDbScale
 70
     0
300
1:30
140
1.0
141
30.0
290
     0
  0
SCALE
  5
51
102
{ACAD_REACTORS
330
47
102
}
330
47
100
AcDbScale
 70
     0
300
1:40
140
1.0
141
40.0
290
     0
  0
SCALE
  5
52
102
{ACAD_REACTORS
330
47
102
}
330
47
100
AcDbScale
 70
     0
300
1:50
140
1.0
141
50.0
290
     0
  0
SCALE
  5
53
102
{ACAD_REACTORS
330
47
102
}
330
47
100
AcDbScale
 70
     0
300
1:100
140
1.0
141
100.0
290
     0
  0
SCALE
  5
54
102
{ACAD_REACTORS
330
47
102
}
330
47
100
AcDbScale
 70
     0
300
2:1
140
2.0
141
1.0
290
     0
  0
SCALE
  5
55
102
{ACAD_REACTORS
330
47
102
}
330
47
100
AcDbScale
 70
     0
300
4:1
140
4.0
141
1.0
290
     0
  0
SCALE
  5
56
102
{ACAD_REACTORS
330
47
102
}
330
47
100
AcDbScale
 70
     0
300
8:1
140
8.0
141
1.0
290
     0
  0
SCALE
  5
57
102
{ACAD_REACTORS
330
47
102
}
330
47
100
AcDbScale
 70
     0
300
10:1
140
10.0
141
1.0
290
     0
  0
SCALE
  5
58
102
{ACAD_REACTORS
330
47
102
}
330
47
100
AcDbScale
 70
     0
300
100:1
140
100.0
141
1.0
290
     0
  0
SCALE
  5
59
102
{ACAD_REACTORS
330
47
102
}
330
47
100
AcDbScale
 70
     0
300
1/128" = 1'-0"
140
0.0078125
141
12.0
290
     0
  0
SCALE
  5
5A
102
{ACAD_REACTORS
330
47
102
}
330
47
100
AcDbScale
 70
     0
300
1/64" = 1'-0"
140
0.015625
141
12.0
290
     0
  0
SCALE
  5
5B
102
{ACAD_REACTORS
330
47
102
}
330
47
100
AcDbScale
 70
     0
300
1/32" = 1'-0"
140
0.03125
141
12.0
290
     0
  0
SCALE
  5
5C
102
{ACAD_REACTORS
330
47
102
}
330
47
100
AcDbScale
 70
     0
300
1/16" = 1'-0"
140
0.0625
141
12.0
290
     0
  0
SCALE
  5
5D
102
{ACAD_REACTORS
330
47
102
}
330
47
100
AcDbScale
 70
     0
300
3/32" = 1'-0"
140
0.09375
141
12.0
290
     0
  0
SCALE
  5
5E
102
{ACAD_REACTORS
330
47
102
}
330
47
100
AcDbScale
 70
     0
300
1/8" = 1'-0"
140
0.125
141
12.0
290
     0
  0
SCALE
  5
5F
102
{ACAD_REACTORS
330
47
102
}
330
47
100
AcDbScale
 70
     0
300
3/16" = 1'-0"
140
0.1875
141
12.0
290
     0
  0
SCALE
  5
60
102
{ACAD_REACTORS
330
47
102
}
330
47
100
AcDbScale
 70
     0
300
1/4" = 1'-0"
140
0.25
141
12.0
290
     0
  0
SCALE
  5
61
102
{ACAD_REACTORS
330
47
102
}
330
47
100
AcDbScale
 70
     0
300
3/8" = 1'-0"
140
0.375
141
12.0
290
     0
  0
SCALE
  5
62
102
{ACAD_REACTORS
330
47
102
}
330
47
100
AcDbScale
 70
     0
300
1/2" = 1'-0"
140
0.5
141
12.0
290
     0
  0
SCALE
  5
63
102
{ACAD_REACTORS
330
47
102
}
330
47
100
AcDbScale
 70
     0
300
3/4" = 1'-0"
140
0.75
141
12.0
290
     0
  0
SCALE
  5
64
102
{ACAD_REACTORS
330
47
102
}
330
47
100
AcDbScale
 70
     0
300
1" = 1'-0"
140
1.0
141
12.0
290
     0
  0
SCALE
  5
65
102
{ACAD_REACTORS
330
47
102
}
330
47
100
AcDbScale
 70
     0
300
1-1/2" = 1'-0"
140
1.5
141
12.0
290
     0
  0
SCALE
  5
66
102
{ACAD_REACTORS
330
47
102
}
330
47
100
AcDbScale
 70
     0
300
3" = 1'-0"
140
3.0
141
12.0
290
     0
  0
SCALE
  5
67
102
{ACAD_REACTORS
330
47
102
}
330
47
100
AcDbScale
 70
     0
300
6" = 1'-0"
140
6.0
141
12.0
290
     0
  0
SCALE
  5
68
102
{ACAD_REACTORS
330
47
102
}
330
47
100
AcDbScale
 70
     0
300
1'-0" = 1'-0"
140
12.0
141
12.0
290
     0
  0
VISUALSTYLE
  5
2F
102
{ACAD_REACTORS
330
2A
102
}
102
{ACAD_XDICTIONARY
360
24C
102
}
330
2A
100
AcDbVisualStyle
  2
2dWireframe
 70
     4
 71
     0
 72
     2
 73
     0
 90
        0
 40
0.6
 41
30.0
 62
     5
 63
     7
 74
     1
 91
        4
 64
     7
 65
   257
 75
     1
175
     1
 42
1.0
 92
        0
 66
   257
 43
1.0
 76
     1
 77
     6
 78
     2
 67
     7
 79
     5
170
     0
171
     0
290
     0
174
     0
 93
        1
 44
0.0
173
     0
291
     0
 45
0.0
1001
ACAD
1000
AcDbSavedByObjectVersion
1070
     0
  0
VISUALSTYLE
  5
32
102
{ACAD_REACTORS
330
2A
102
}
102
{ACAD_XDICTIONARY
360
252
102
}
330
2A
100
AcDbVisualStyle
  2
Basic
 70
     7
 71
     1
 72
     0
 73
     1
 90
        0
 40
0.6
 41
30.0
 62
     5
 63
     7
 74
     0
 91
        4
 64
     7
 65
   257
 75
     1
175
     1
 42
1.0
 92
        8
 66
     7
 43
1.0
 76
     1
 77
     6
 78
     2
 67
     7
 79
     5
170
     0
171
     0
290
     0
174
     0
 93
        1
 44
0.0
173
     0
291
     1
 45
0.0
1001
ACAD
1000
AcDbSavedByObjectVersion
1070
     0
  0
VISUALSTYLE
  5
36
102
{ACAD_REACTORS
330
2A
102
}
102
{ACAD_XDICTIONARY
360
25A
102
}
330
2A
100
AcDbVisualStyle
  2
Brighten
 70
    12
 71
     2
 72
     2
 73
     0
 90
        0
 40
0.6
 41
30.0
 62
     5
 63
     7
 74
     1
 91
        4
 64
     7
 65
   257
 75
     1
175
     1
 42
1.0
 92
        8
 66
     7
 43
1.0
 76
     1
 77
     6
 78
     2
 67
     7
 79
     5
170
     0
171
     0
290
     0
174
     0
 93
        1
 44
50.0
173
     0
291
     1
 45
0.0
1001
ACAD
1000
AcDbSavedByObjectVersion
1070
     0
  0
VISUALSTYLE
  5
3A
102
{ACAD_REACTORS
330
2A
102
}
102
{ACAD_XDICTIONARY
360
262
102
}
330
2A
100
AcDbVisualStyle
  2
ColorChange
 70
    16
 71
     2
 72
     2
 73
     3
 90
        0
 40
0.6
 41
30.0
 62
     5
 63
     8
 74
     1
 91
        4
 64
     7
 65
   257
 75
     1
175
     1
 42
1.0
 92
        8
 66
     8
 43
1.0
 76
     1
 77
     6
 78
     2
 67
     7
 79
     5
170
     0
171
     0
290
     0
174
     0
 93
        1
 44
0.0
173
     0
291
     1
 45
0.0
1001
ACAD
1000
AcDbSavedByObjectVersion
1070
     0
  0
VISUALSTYLE
  5
34
102
{ACAD_REACTORS
330
2A
102
}
102
{ACAD_XDICTIONARY
360
256
102
}
330
2A
100
AcDbVisualStyle
  2
Conceptual
 70
     9
 71
     3
 72
     2
 73
     0
 90
        0
 40
0.6
 41
30.0
 62
     5
 63
     7
 74
     2
 91
        2
 64
     7
 65
   257
 75
     1
175
     1
 42
179.0
 92
        8
 66
     7
 43
1.0
 76
     1
 77
     6
 78
     2
 67
     7
 79
     3
170
     0
171
     0
290
     0
174
     0
 93
        1
 44
0.0
173
     0
291
     0
 45
0.0
1001
ACAD
1000
AcDbSavedByObjectVersion
1070
     0
  0
VISUALSTYLE
  5
35
102
{ACAD_REACTORS
330
2A
102
}
102
{ACAD_XDICTIONARY
360
258
102
}
330
2A
100
AcDbVisualStyle
  2
Dim
 70
    11
 71
     2
 72
     2
 73
     0
 90
        0
 40
0.6
 41
30.0
 62
     5
 63
     7
 74
     1
 91
        4
 64
     7
 65
   257
 75
     1
175
     1
 42
1.0
 92
        8
 66
     7
 43
1.0
 76
     1
 77
     6
 78
     2
 67
     7
 79
     5
170
     0
171
     0
290
     0
174
     0
 93
        1
 44
-50.0
173
     0
291
     1
 45
0.0
1001
ACAD
1000
AcDbSavedByObjectVersion
1070
     0
  0
VISUALSTYLE
  5
3D
102
{ACAD_REACTORS
330
2A
102
}
102
{ACAD_XDICTIONARY
360
268
102
}
330
2A
100
AcDbVisualStyle
  2
EdgeColorOff
 70
    22
 71
     2
 72
     2
 73
     0
 90
        0
 40
0.6
 41
30.0
 62
     5
 63
     7
 74
     1
 91
        4
 64
     7
 65
   257
 75
     1
175
     1
 42
1.0
 92
        8
 66
     7
 43
1.0
 76
     1
 77
     6
 78
     2
 67
     7
 79
     5
170
     0
171
     0
290
     0
174
     0
 93
        1
 44
0.0
173
     0
291
     1
 45
0.0
1001
ACAD
1000
AcDbSavedByObjectVersion
1070
     0
  0
VISUALSTYLE
  5
39
102
{ACAD_REACTORS
330
2A
102
}
102
{ACAD_XDICTIONARY
360
260
102
}
330
2A
100
AcDbVisualStyle
  2
Facepattern
 70
    15
 71
     2
 72
     2
 73
     0
 90
        0
 40
0.6
 41
30.0
 62
     5
 63
     7
 74
     1
 91
        4
 64
     7
 65
   257
 75
     1
175
     1
 42
1.0
 92
        8
 66
     7
 43
1.0
 76
     1
 77
     6
 78
     2
 67
     7
 79
     5
170
     0
171
     0
290
     0
174
     0
 93
        1
 44
0.0
173
     0
291
     1
 45
0.0
1001
ACAD
1000
AcDbSavedByObjectVersion
1070
     0
  0
VISUALSTYLE
  5
2B
102
{ACAD_REACTORS
330
2A
102
}
102
{ACAD_XDICTIONARY
360
244
102
}
330
2A
100
AcDbVisualStyle
  2
Flat
 70
     0
 71
     2
 72
     1
 73
     1
 90
        2
 40
0.6
 41
30.0
 62
     5
 63
     7
 74
     0
 91
        0
 64
     7
 65
   257
 75
     1
175
     1
 42
1.0
 92
        8
 66
     7
 43
1.0
 76
     1
 77
     6
 78
     2
 67
     7
 79
     5
170
     0
171
     0
290
     0
174
     0
 93
       13
 44
0.0
173
     0
291
     1
 45
0.0
1001
ACAD
1000
AcDbSavedByObjectVersion
1070
     0
  0
VISUALSTYLE
  5
2C
102
{ACAD_REACTORS
330
2A
102
}
102
{ACAD_XDICTIONARY
360
246
102
}
330
2A
100
AcDbVisualStyle
  2
FlatWithEdges
 70
     1
 71
     2
 72
     1
 73
     1
 90
        2
 40
0.6
 41
30.0
 62
     5
 63
     7
 74
     1
 91
        0
 64
     7
 65
   257
 75
     1
175
     1
 42
1.0
 92
        0
 66
   257
 43
1.0
 76
     1
 77
     6
 78
     2
 67
     7
 79
     5
170
     0
171
     0
290
     0
174
     0
 93
       13
 44
0.0
173
     0
291
     1
 45
0.0
1001
ACAD
1000
AcDbSavedByObjectVersion
1070
     0
  0
VISUALSTYLE
  5
2D
102
{ACAD_REACTORS
330
2A
102
}
102
{ACAD_XDICTIONARY
360
248
102
}
330
2A
100
AcDbVisualStyle
  2
Gouraud
 70
     2
 71
     2
 72
     2
 73
     1
 90
        2
 40
0.6
 41
30.0
 62
     5
 63
     7
 74
     0
 91
        0
 64
     7
 65
   257
 75
     1
175
     1
 42
1.0
 92
        0
 66
     7
 43
1.0
 76
     1
 77
     6
 78
     2
 67
     7
 79
     5
170
     0
171
     0
290
     0
174
     0
 93
       13
 44
0.0
173
     0
291
     1
 45
0.0
1001
ACAD
1000
AcDbSavedByObjectVersion
1070
     0
  0
VISUALSTYLE
  5
2E
102
{ACAD_REACTORS
330
2A
102
}
102
{ACAD_XDICTIONARY
360
24A
102
}
330
2A
100
AcDbVisualStyle
  2
GouraudWithEdges
 70
     3
 71
     2
 72
     2
 73
     1
 90
        2
 40
0.6
 41
30.0
 62
     5
 63
     7
 74
     1
 91
        0
 64
     7
 65
   257
 75
     1
175
     1
 42
1.0
 92
        0
 66
   257
 43
1.0
 76
     1
 77
     6
 78
     2
 67
     7
 79
     5
170
     0
171
     0
290
     0
174
     0
 93
       13
 44
0.0
173
     0
291
     1
 45
0.0
1001
ACAD
1000
AcDbSavedByObjectVersion
1070
     0
  0
VISUALSTYLE
  5
31
102
{ACAD_REACTORS
330
2A
102
}
102
{ACAD_XDICTIONARY
360
250
102
}
330
2A
100
AcDbVisualStyle
  2
Hidden
 70
     6
 71
     1
 72
     2
 73
     2
 90
        0
 40
0.6
 41
30.0
 62
     5
 63
     7
 74
     2
 91
        2
 64
     7
 65
   257
 75
     2
175
     1
 42
40.0
 92
        0
 66
   257
 43
1.0
 76
     1
 77
     6
 78
     2
 67
     7
 79
     3
170
     0
171
     0
290
     0
174
     0
 93
        1
 44
0.0
173
     0
291
     0
 45
0.0
1001
ACAD
1000
AcDbSavedByObjectVersion
1070
     0
  0
VISUALSTYLE
  5
3B
102
{ACAD_REACTORS
330
2A
102
}
102
{ACAD_XDICTIONARY
360
264
102
}
330
2A
100
AcDbVisualStyle
  2
JitterOff
 70
    20
 71
     2
 72
     2
 73
     0
 90
        0
 40
0.6
 41
30.0
 62
     5
 63
     7
 74
     1
 91
        4
 64
     7
 65
   257
 75
     1
175
     1
 42
1.0
 92
       10
 66
     7
 43
1.0
 76
     1
 77
     6
 78
     2
 67
     7
 79
     5
170
     0
171
     0
290
     0
174
     0
 93
        1
 44
0.0
173
     0
291
     1
 45
0.0
1001
ACAD
1000
AcDbSavedByObjectVersion
1070
     0
  0
VISUALSTYLE
  5
38
102
{ACAD_REACTORS
330
2A
102
}
102
{ACAD_XDICTIONARY
360
25E
102
}
330
2A
100
AcDbVisualStyle
  2
Linepattern
 70
    14
 71
     2
 72
     2
 73
     0
 90
        0
 40
0.6
 41
30.0
 62
     5
 63
     7
 74
     1
 91
        4
 64
     7
 65
   257
 75
     7
175
     7
 42
1.0
 92
        8
 66
     7
 43
1.0
 76
     1
 77
     6
 78
     2
 67
     7
 79
     5
170
     0
171
     0
290
     0
174
     0
 93
        1
 44
0.0
173
     0
291
     1
 45
0.0
1001
ACAD
1000
AcDbSavedByObjectVersion
1070
     0
  0
VISUALSTYLE
  5
3C
102
{ACAD_REACTORS
330
2A
102
}
102
{ACAD_XDICTIONARY
360
266
102
}
330
2A
100
AcDbVisualStyle
  2
OverhangOff
 70
    21
 71
     2
 72
     2
 73
     0
 90
        0
 40
0.6
 41
30.0
 62
     5
 63
     7
 74
     1
 91
        4
 64
     7
 65
   257
 75
     1
175
     1
 42
1.0
 92
        9
 66
     7
 43
1.0
 76
     1
 77
     6
 78
     2
 67
     7
 79
     5
170
     0
171
     0
290
     0
174
     0
 93
        1
 44
0.0
173
     0
291
     1
 45
0.0
1001
ACAD
1000
AcDbSavedByObjectVersion
1070
     0
  0
VISUALSTYLE
  5
33
102
{ACAD_REACTORS
330
2A
102
}
102
{ACAD_XDICTIONARY
360
254
102
}
330
2A
100
AcDbVisualStyle
  2
Realistic
 70
     8
 71
     2
 72
     3
 73
     0
 90
        2
 40
0.6
 41
30.0
 62
     5
 63
     7
 74
     0
 91
        0
 64
     7
 65
   257
 75
     1
175
     1
 42
1.0
 92
        8
 66
   257
 43
1.0
 76
     1
 77
     6
 78
     2
 67
     7
 79
     3
170
     0
171
     0
290
     0
174
     0
 93
       13
 44
0.0
173
     0
291
     0
 45
0.0
1001
ACAD
1000
AcDbSavedByObjectVersion
1070
     0
  0
VISUALSTYLE
  5
42
102
{ACAD_REACTORS
330
2A
102
}
102
{ACAD_XDICTIONARY
360
272
102
}
330
2A
100
AcDbVisualStyle
  2
Shaded
 70
    27
 71
     2
 72
     2
 73
     1
 90
        2
 40
0.6
 41
30.0
 62
     5
 63
     7
 74
     0
 91
        4
 64
     7
 65
   257
 75
     1
175
     1
 42
1.0
 92
        8
 66
   257
 43
1.0
 76
     1
 77
     6
 78
     2
 67
     8
 79
     3
170
     0
171
     0
290
     0
174
     0
 93
        5
 44
0.0
173
     0
291
     0
 45
0.0
1001
ACAD
1000
AcDbSavedByObjectVersion
1070
     0
  0
VISUALSTYLE
  5
41
102
{ACAD_REACTORS
330
2A
102
}
102
{ACAD_XDICTIONARY
360
270
102
}
330
2A
100
AcDbVisualStyle
  2
Shaded with edges
 70
    26
 71
     2
 72
     2
 73
     1
 90
        2
 40
0.6
 41
30.0
 62
     5
 63
     7
 74
     1
 91
       10
 64
     7
 65
   257
 75
     2
175
     1
 42
1.0
 92
        8
 66
   257
 43
1.0
 76
     1
 77
     6
 78
     2
 67
     7
 79
     3
170
     0
171
     0
290
     0
174
     0
 93
        5
 44
0.0
173
     0
291
     0
 45
0.0
1001
ACAD
1000
AcDbSavedByObjectVersion
1070
     0
  0
VISUALSTYLE
  5
3E
102
{ACAD_REACTORS
330
2A
102
}
102
{ACAD_XDICTIONARY
360
26A
102
}
330
2A
100
AcDbVisualStyle
  2
Shades of Gray
 70
    23
 71
     2
 72
     2
 73
     3
 90
        0
 40
0.6
 41
30.0
 62
     5
 63
     7
 74
     2
 91
        2
 64
     7
 65
     7
 75
     1
175
     1
 42
40.0
 92
        8
 66
     7
 43
1.0
 76
     1
 77
     6
 78
     2
 67
     7
 79
     3
170
     0
171
     0
290
     0
174
     0
 93
        1
 44
0.0
173
     0
291
     0
 45
0.0
1001
ACAD
1000
AcDbSavedByObjectVersion
1070
     0
  0
VISUALSTYLE
  5
3F
102
{ACAD_REACTORS
330
2A
102
}
102
{ACAD_XDICTIONARY
360
26C
102
}
330
2A
100
AcDbVisualStyle
  2
Sketchy
 70
    24
 71
     1
 72
     2
 73
     2
 90
        0
 40
0.6
 41
30.0
 62
     5
 63
     7
 74
     2
 91
        2
 64
     7
 65
     7
 75
     1
175
     1
 42
40.0
 92
       11
 66
     7
 43
1.0
 76
     1
 77
     6
 78
     2
 67
     7
 79
     6
170
     0
171
     0
290
     0
174
     0
 93
        1
 44
0.0
173
     0
291
     0
 45
0.0
1001
ACAD
1000
AcDbSavedByObjectVersion
1070
     0
  0
VISUALSTYLE
  5
37
102
{ACAD_REACTORS
330
2A
102
}
102
{ACAD_XDICTIONARY
360
25C
102
}
330
2A
100
AcDbVisualStyle
  2
Thicken
 70
    13
 71
     2
 72
     2
 73
     0
 90
        0
 40
0.6
 41
30.0
 62
     5
 63
     7
 74
     1
 91
        4
 64
     7
 65
   257
 75
     1
175
     1
 42
1.0
 92
       12
 66
     7
 43
1.0
 76
     1
 77
     6
 78
     2
 67
     7
 79
     5
170
     0
171
     0
290
     0
174
     0
 93
        1
 44
0.0
173
     0
291
     1
 45
0.0
1001
ACAD
1000
AcDbSavedByObjectVersion
1070
     0
  0
VISUALSTYLE
  5
30
102
{ACAD_REACTORS
330
2A
102
}
102
{ACAD_XDICTIONARY
360
24E
102
}
330
2A
100
AcDbVisualStyle
  2
Wireframe
 70
     5
 71
     0
 72
     2
 73
     0
 90
        0
 40
0.6
 41
30.0
 62
     5
 63
     7
 74
     1
 91
        4
 64
     7
 65
   257
 75
     1
175
     1
 42
1.0
 92
        0
 66
   257
 43
1.0
 76
     1
 77
     6
 78
     2
 67
     7
 79
     3
170
     0
171
     0
290
     0
174
     0
 93
        1
 44
0.0
173
     0
291
     0
 45
0.0
1001
ACAD
1000
AcDbSavedByObjectVersion
1070
     0
  0
VISUALSTYLE
  5
40
102
{ACAD_REACTORS
330
2A
102
}
102
{ACAD_XDICTIONARY
360
26E
102
}
330
2A
100
AcDbVisualStyle
  2
X-Ray
 70
    25
 71
     2
 72
     2
 73
     1
 90
        1
 40
0.5
 41
30.0
 62
     5
 63
     7
 74
     1
 91
        0
 64
     7
 65
   257
 75
     1
175
     1
 42
1.0
 92
        8
 66
     7
 43
1.0
 76
     1
 77
     6
 78
     2
 67
     7
 79
     3
170
     0
171
     0
290
     0
174
     0
 93
       13
 44
0.0
173
     0
291
     0
 45
0.0
1001
ACAD
1000
AcDbSavedByObjectVersion
1070
     0
  0
DICTIONARYVAR
  5
242
102
{ACAD_REACTORS
330
239
102
}
330
239
100
DictionaryVariables
280
     0
  1
1:1
  0
DICTIONARYVAR
  5
240
102
{ACAD_REACTORS
330
239
102
}
330
239
100
DictionaryVariables
280
     0
  1
2
  0
DICTIONARYVAR
  5
241
102
{ACAD_REACTORS
330
239
102
}
330
239
100
DictionaryVariables
280
     0
  1
1
  0
DICTIONARYVAR
  5
243
102
{ACAD_REACTORS
330
239
102
}
330
239
100
DictionaryVariables
280
     0
  1
1
  0
DICTIONARYVAR
  5
23D
102
{ACAD_REACTORS
330
239
102
}
330
239
100
DictionaryVariables
280
     0
  1
80.000000
  0
DICTIONARYVAR
  5
23C
102
{ACAD_REACTORS
330
239
102
}
330
239
100
DictionaryVariables
280
     0
  1
5.000000
  0
DICTIONARY
  5
276
330
45
100
AcDbDictionary
280
     1
281
     1
  3
ACAD_XREC_ROUNDTRIP
360
277
  0
DICTIONARY
  5
274
330
44
100
AcDbDictionary
280
     1
281
     1
  3
ACAD_XREC_ROUNDTRIP
360
275
  0
DICTIONARY
  5
278
330
46
100
AcDbDictionary
280
     1
281
     1
  3
ACAD_XREC_ROUNDTRIP
360
279
  0
DICTIONARY
  5
24C
330
2F
100
AcDbDictionary
280
     1
281
     1
  3
ACAD_XREC_ROUNDTRIP
360
24D
  0
DICTIONARY
  5
252
330
32
100
AcDbDictionary
280
     1
281
     1
  3
ACAD_XREC_ROUNDTRIP
360
253
  0
DICTIONARY
  5
25A
330
36
100
AcDbDictionary
280
     1
281
     1
  3
ACAD_XREC_ROUNDTRIP
360
25B
  0
DICTIONARY
  5
262
330
3A
100
AcDbDictionary
280
     1
281
     1
  3
ACAD_XREC_ROUNDTRIP
360
263
  0
DICTIONARY
  5
256
330
34
100
AcDbDictionary
280
     1
281
     1
  3
ACAD_XREC_ROUNDTRIP
360
257
  0
DICTIONARY
  5
258
330
35
100
AcDbDictionary
280
     1
281
     1
  3
ACAD_XREC_ROUNDTRIP
360
259
  0
DICTIONARY
  5
268
330
3D
100
AcDbDictionary
280
     1
281
     1
  3
ACAD_XREC_ROUNDTRIP
360
269
  0
DICTIONARY
  5
260
330
39
100
AcDbDictionary
280
     1
281
     1
  3
ACAD_XREC_ROUNDTRIP
360
261
  0
DICTIONARY
  5
244
330
2B
100
AcDbDictionary
280
     1
281
     1
  3
ACAD_XREC_ROUNDTRIP
360
245
  0
DICTIONARY
  5
246
330
2C
100
AcDbDictionary
280
     1
281
     1
  3
ACAD_XREC_ROUNDTRIP
360
247
  0
DICTIONARY
  5
248
330
2D
100
AcDbDictionary
280
     1
281
     1
  3
ACAD_XREC_ROUNDTRIP
360
249
  0
DICTIONARY
  5
24A
330
2E
100
AcDbDictionary
280
     1
281
     1
  3
ACAD_XREC_ROUNDTRIP
360
24B
  0
DICTIONARY
  5
250
330
31
100
AcDbDictionary
280
     1
281
     1
  3
ACAD_XREC_ROUNDTRIP
360
251
  0
DICTIONARY
  5
264
330
3B
100
AcDbDictionary
280
     1
281
     1
  3
ACAD_XREC_ROUNDTRIP
360
265
  0
DICTIONARY
  5
25E
330
38
100
AcDbDictionary
280
     1
281
     1
  3
ACAD_XREC_ROUNDTRIP
360
25F
  0
DICTIONARY
  5
266
330
3C
100
AcDbDictionary
280
     1
281
     1
  3
ACAD_XREC_ROUNDTRIP
360
267
  0
DICTIONARY
  5
254
330
33
100
AcDbDictionary
280
     1
281
     1
  3
ACAD_XREC_ROUNDTRIP
360
255
  0
DICTIONARY
  5
272
330
42
100
AcDbDictionary
280
     1
281
     1
  3
ACAD_XREC_ROUNDTRIP
360
273
  0
DICTIONARY
  5
270
330
41
100
AcDbDictionary
280
     1
281
     1
  3
ACAD_XREC_ROUNDTRIP
360
271
  0
DICTIONARY
  5
26A
330
3E
100
AcDbDictionary
280
     1
281
     1
  3
ACAD_XREC_ROUNDTRIP
360
26B
  0
DICTIONARY
  5
26C
330
3F
100
AcDbDictionary
280
     1
281
     1
  3
ACAD_XREC_ROUNDTRIP
360
26D
  0
DICTIONARY
  5
25C
330
37
100
AcDbDictionary
280
     1
281
     1
  3
ACAD_XREC_ROUNDTRIP
360
25D
  0
DICTIONARY
  5
24E
330
30
100
AcDbDictionary
280
     1
281
     1
  3
ACAD_XREC_ROUNDTRIP
360
24F
  0
DICTIONARY
  5
26E
330
40
100
AcDbDictionary
280
     1
281
     1
  3
ACAD_XREC_ROUNDTRIP
360
26F
  0
XRECORD
  5
277
102
{ACAD_REACTORS
330
276
102
}
330
276
100
AcDbXrecord
280
     1
102
MATERIAL
148
0.0
149
0.0
149
0.0
 93
        0
 94
      127
282
     0
 72
     1
 77
     1
171
     1
175
     1
179
     1
273
     0
  0
XRECORD
  5
275
102
{ACAD_REACTORS
330
274
102
}
330
274
100
AcDbXrecord
280
     1
102
MATERIAL
148
0.0
149
0.0
149
0.0
 93
        0
 94
      127
282
     0
 72
     1
 77
     1
171
     1
175
     1
179
     1
273
     0
  0
XRECORD
  5
279
102
{ACAD_REACTORS
330
278
102
}
330
278
100
AcDbXrecord
280
     1
102
MATERIAL
148
0.0
149
0.0
149
0.0
 93
        0
 94
      127
282
     0
 72
     1
 77
     1
171
     1
175
     1
179
     1
273
     0
  0
XRECORD
  5
24D
102
{ACAD_REACTORS
330
24C
102
}
330
24C
100
AcDbXrecord
280
     1
102
RTVSPropertyOp0
 70
     1
102
RTVSPropertyOp1
 70
     1
102
RTVSPropertyOp2
 70
     1
102
RTVSPropertyOp3
 70
     1
102
RTVSPropertyOp4
 70
     1
102
RTVSPropertyOp5
 70
     1
102
RTVSPropertyOp6
 70
     1
102
RTVSPropertyOp7
 70
     1
102
RTVSPropertyOp8
 70
     1
102
RTVSPropertyOp9
 70
     1
102
RTVSPropertyOp10
 70
     1
102
RTVSPropertyOp11
 70
     1
102
RTVSPropertyOp12
 70
     1
102
RTVSPropertyOp13
 70
     1
102
RTVSPropertyOp14
 70
     1
102
RTVSPropertyOp15
 70
     1
102
RTVSPropertyOp16
 70
     1
102
RTVSPropertyOp17
 70
     1
102
RTVSPropertyOp18
 70
     1
102
RTVSPropertyOp19
 70
     1
102
RTVSPropertyOp20
 70
     1
102
RTVSPropertyOp21
 70
     1
102
RTVSPropertyOp22
 70
     1
102
RTVSPropertyOp23
 70
     1
102
RTVSPropertyOp24
 70
     1
102
RTVSPropertyOp25
 70
     1
102
RTVSPropertyOp26
 70
     1
102
RTVSPropertyOp27
 70
     1
102
RTVSPropertyOp28
 70
     1
102
RTVSPropertyOp29
 70
     1
102
RTVSPropertyOp30
 70
     1
102
RTVSPropertyOp31
 70
     1
102
RTVSPropertyOp32
 70
     1
102
RTVSPropertyOp33
 70
     1
102
RTVSPropertyOp34
 70
     1
102
RTVSPropertyOp35
 70
     1
102
RTVSPropertyOp36
 70
     1
102
RTVSPropertyOp37
 70
     1
102
RTVSPropertyOp38
 70
     1
102
RTVSPropertyOp39
 70
     1
102
RTVSPropertyOp40
 70
     1
102
RTVSPropertyOp41
 70
     1
102
RTVSPropertyOp42
 70
     1
102
RTVSPropertyOp43
 70
     1
102
RTVSPropertyOp44
 70
     1
102
RTVSPropertyOp45
 70
     1
102
RTVSPropertyOp46
 70
     1
102
RTVSPropertyOp47
 70
     1
102
RTVSPropertyOp48
 70
     1
102
RTVSPropertyOp49
 70
     1
102
RTVSPropertyOp50
 70
     1
102
RTVSPropertyOp51
 70
     0
102
RTVSPropertyOp52
 70
     0
102
RTVSPropertyOp53
 70
     1
102
RTVSPropertyOp54
 70
     1
102
RTVSPropertyOp55
 70
     1
102
RTVSPropertyOp56
 70
     1
102
RTVSPropertyOp57
 70
     1
102
RTVSPost2010Prop28
280
     1
102
RTVSPost2010PropOp28
 70
     1
102
RTVSPost2010Prop29
280
     1
102
RTVSPost2010PropOp29
 70
     1
102
RTVSPost2010Prop30
280
     0
102
RTVSPost2010PropOp30
 70
     1
102
RTVSPost2010Prop31
280
     0
102
RTVSPost2010PropOp31
 70
     1
102
RTVSPost2010Prop32
280
     0
102
RTVSPost2010PropOp32
 70
     1
102
RTVSPost2010Prop33
280
     0
102
RTVSPost2010PropOp33
 70
     1
102
RTVSPost2010Prop34
280
     0
102
RTVSPost2010PropOp34
 70
     1
102
RTVSPost2010Prop35
280
     0
102
RTVSPost2010PropOp35
 70
     1
102
RTVSPost2010Prop36
280
     0
102
RTVSPost2010PropOp36
 70
     1
102
RTVSPost2010Prop37
 90
       50
102
RTVSPost2010PropOp37
 70
     1
102
RTVSPost2010Prop38
140
0.0
102
RTVSPost2010PropOp38
 70
     1
102
RTVSPost2010Prop39
140
1.0
102
RTVSPost2010PropOp39
 70
     1
102
RTVSPost2010Prop40
 90
        0
102
RTVSPost2010PropOp40
 70
     1
102
RTVSPost2010Prop41ColorIndex
 90
       18
102
RTVSPost2010Prop41ColorRGB
 90
        0
102
RTVSPost2010PropOp41
 70
     1
102
RTVSPost2010Prop42
 90
       50
102
RTVSPost2010PropOp42
 70
     1
102
RTVSPost2010Prop43
 90
        3
102
RTVSPost2010PropOp43
 70
     1
102
RTVSPost2010Prop44ColorIndex
 90
        5
102
RTVSPost2010Prop44ColorRGB
 90
      255
102
RTVSPost2010PropOp44
 70
     1
102
RTVSPost2010Prop45
280
     0
102
RTVSPost2010PropOp45
 70
     1
102
RTVSPost2010Prop46
 90
       50
102
RTVSPost2010PropOp46
 70
     1
102
RTVSPost2010Prop47
 90
       50
102
RTVSPost2010PropOp47
 70
     1
102
RTVSPost2010Prop48
 90
       50
102
RTVSPost2010PropOp48
 70
     1
102
RTVSPost2010Prop49
280
     0
102
RTVSPost2010PropOp49
 70
     1
102
RTVSPost2010Prop50
 90
       50
102
RTVSPost2010PropOp50
 70
     1
102
RTVSPost2010Prop51ColorIndex
 90
      256
102
RTVSPost2010Prop51ColorRGB
 90
-16777216
102
RTVSPost2010PropOp51
 70
     0
102
RTVSPost2010Prop52
140
1.0
102
RTVSPost2010PropOp52
 70
     0
102
RTVSPost2010Prop53
 90
        2
102
RTVSPost2010PropOp53
 70
     1
102
RTVSPost2010Prop54
  1
strokes_ogs.tif
102
RTVSPost2010PropOp54
 70
     1
102
RTVSPost2010Prop55
280
     0
102
RTVSPost2010PropOp55
 70
     1
102
RTVSPost2010Prop56
140
1.0
102
RTVSPost2010PropOp56
 70
     1
102
RTVSPost2010Prop57
140
1.0
102
RTVSPost2010PropOp57
 70
     1
  0
XRECORD
  5
253
102
{ACAD_REACTORS
330
252
102
}
330
252
100
AcDbXrecord
280
     1
102
RTVSPropertyOp0
 70
     1
102
RTVSPropertyOp1
 70
     1
102
RTVSPropertyOp2
 70
     1
102
RTVSPropertyOp3
 70
     1
102
RTVSPropertyOp4
 70
     1
102
RTVSPropertyOp5
 70
     1
102
RTVSPropertyOp6
 70
     1
102
RTVSPropertyOp7
 70
     1
102
RTVSPropertyOp8
 70
     1
102
RTVSPropertyOp9
 70
     1
102
RTVSPropertyOp10
 70
     1
102
RTVSPropertyOp11
 70
     1
102
RTVSPropertyOp12
 70
     1
102
RTVSPropertyOp13
 70
     1
102
RTVSPropertyOp14
 70
     1
102
RTVSPropertyOp15
 70
     1
102
RTVSPropertyOp16
 70
     1
102
RTVSPropertyOp17
 70
     1
102
RTVSPropertyOp18
 70
     1
102
RTVSPropertyOp19
 70
     1
102
RTVSPropertyOp20
 70
     1
102
RTVSPropertyOp21
 70
     1
102
RTVSPropertyOp22
 70
     1
102
RTVSPropertyOp23
 70
     1
102
RTVSPropertyOp24
 70
     1
102
RTVSPropertyOp25
 70
     1
102
RTVSPropertyOp26
 70
     1
102
RTVSPropertyOp27
 70
     1
102
RTVSPropertyOp28
 70
     1
102
RTVSPropertyOp29
 70
     1
102
RTVSPropertyOp30
 70
     1
102
RTVSPropertyOp31
 70
     1
102
RTVSPropertyOp32
 70
     1
102
RTVSPropertyOp33
 70
     1
102
RTVSPropertyOp34
 70
     1
102
RTVSPropertyOp35
 70
     1
102
RTVSPropertyOp36
 70
     1
102
RTVSPropertyOp37
 70
     1
102
RTVSPropertyOp38
 70
     1
102
RTVSPropertyOp39
 70
     1
102
RTVSPropertyOp40
 70
     1
102
RTVSPropertyOp41
 70
     1
102
RTVSPropertyOp42
 70
     1
102
RTVSPropertyOp43
 70
     1
102
RTVSPropertyOp44
 70
     1
102
RTVSPropertyOp45
 70
     1
102
RTVSPropertyOp46
 70
     1
102
RTVSPropertyOp47
 70
     1
102
RTVSPropertyOp48
 70
     1
102
RTVSPropertyOp49
 70
     1
102
RTVSPropertyOp50
 70
     1
102
RTVSPropertyOp51
 70
     0
102
RTVSPropertyOp52
 70
     0
102
RTVSPropertyOp53
 70
     1
102
RTVSPropertyOp54
 70
     1
102
RTVSPropertyOp55
 70
     1
102
RTVSPropertyOp56
 70
     1
102
RTVSPropertyOp57
 70
     1
102
RTVSPost2010Prop28
280
     0
102
RTVSPost2010PropOp28
 70
     1
102
RTVSPost2010Prop29
280
     1
102
RTVSPost2010PropOp29
 70
     1
102
RTVSPost2010Prop30
280
     1
102
RTVSPost2010PropOp30
 70
     1
102
RTVSPost2010Prop31
280
     0
102
RTVSPost2010PropOp31
 70
     1
102
RTVSPost2010Prop32
280
     0
102
RTVSPost2010PropOp32
 70
     1
102
RTVSPost2010Prop33
280
     0
102
RTVSPost2010PropOp33
 70
     1
102
RTVSPost2010Prop34
280
     0
102
RTVSPost2010PropOp34
 70
     1
102
RTVSPost2010Prop35
280
     0
102
RTVSPost2010PropOp35
 70
     1
102
RTVSPost2010Prop36
280
     0
102
RTVSPost2010PropOp36
 70
     1
102
RTVSPost2010Prop37
 90
       50
102
RTVSPost2010PropOp37
 70
     1
102
RTVSPost2010Prop38
140
0.0
102
RTVSPost2010PropOp38
 70
     1
102
RTVSPost2010Prop39
140
1.0
102
RTVSPost2010PropOp39
 70
     1
102
RTVSPost2010Prop40
 90
        0
102
RTVSPost2010PropOp40
 70
     1
102
RTVSPost2010Prop41ColorIndex
 90
       18
102
RTVSPost2010Prop41ColorRGB
 90
        0
102
RTVSPost2010PropOp41
 70
     1
102
RTVSPost2010Prop42
 90
       50
102
RTVSPost2010PropOp42
 70
     1
102
RTVSPost2010Prop43
 90
        3
102
RTVSPost2010PropOp43
 70
     1
102
RTVSPost2010Prop44ColorIndex
 90
        5
102
RTVSPost2010Prop44ColorRGB
 90
      255
102
RTVSPost2010PropOp44
 70
     1
102
RTVSPost2010Prop45
280
     0
102
RTVSPost2010PropOp45
 70
     1
102
RTVSPost2010Prop46
 90
       50
102
RTVSPost2010PropOp46
 70
     1
102
RTVSPost2010Prop47
 90
       50
102
RTVSPost2010PropOp47
 70
     1
102
RTVSPost2010Prop48
 90
       50
102
RTVSPost2010PropOp48
 70
     1
102
RTVSPost2010Prop49
280
     0
102
RTVSPost2010PropOp49
 70
     1
102
RTVSPost2010Prop50
 90
       50
102
RTVSPost2010PropOp50
 70
     1
102
RTVSPost2010Prop51ColorIndex
 90
      256
102
RTVSPost2010Prop51ColorRGB
 90
-16777216
102
RTVSPost2010PropOp51
 70
     0
102
RTVSPost2010Prop52
140
1.0
102
RTVSPost2010PropOp52
 70
     0
102
RTVSPost2010Prop53
 90
        2
102
RTVSPost2010PropOp53
 70
     1
102
RTVSPost2010Prop54
  1
strokes_ogs.tif
102
RTVSPost2010PropOp54
 70
     1
102
RTVSPost2010Prop55
280
     0
102
RTVSPost2010PropOp55
 70
     1
102
RTVSPost2010Prop56
140
1.0
102
RTVSPost2010PropOp56
 70
     1
102
RTVSPost2010Prop57
140
1.0
102
RTVSPost2010PropOp57
 70
     1
  0
XRECORD
  5
25B
102
{ACAD_REACTORS
330
25A
102
}
330
25A
100
AcDbXrecord
280
     1
102
RTVSPropertyOp0
 70
     1
102
RTVSPropertyOp1
 70
     1
102
RTVSPropertyOp2
 70
     1
102
RTVSPropertyOp3
 70
     1
102
RTVSPropertyOp4
 70
     1
102
RTVSPropertyOp5
 70
     1
102
RTVSPropertyOp6
 70
     1
102
RTVSPropertyOp7
 70
     1
102
RTVSPropertyOp8
 70
     1
102
RTVSPropertyOp9
 70
     1
102
RTVSPropertyOp10
 70
     1
102
RTVSPropertyOp11
 70
     1
102
RTVSPropertyOp12
 70
     1
102
RTVSPropertyOp13
 70
     1
102
RTVSPropertyOp14
 70
     1
102
RTVSPropertyOp15
 70
     1
102
RTVSPropertyOp16
 70
     1
102
RTVSPropertyOp17
 70
     1
102
RTVSPropertyOp18
 70
     1
102
RTVSPropertyOp19
 70
     1
102
RTVSPropertyOp20
 70
     1
102
RTVSPropertyOp21
 70
     1
102
RTVSPropertyOp22
 70
     1
102
RTVSPropertyOp23
 70
     1
102
RTVSPropertyOp24
 70
     1
102
RTVSPropertyOp25
 70
     1
102
RTVSPropertyOp26
 70
     1
102
RTVSPropertyOp27
 70
     1
102
RTVSPropertyOp28
 70
     1
102
RTVSPropertyOp29
 70
     1
102
RTVSPropertyOp30
 70
     1
102
RTVSPropertyOp31
 70
     1
102
RTVSPropertyOp32
 70
     1
102
RTVSPropertyOp33
 70
     1
102
RTVSPropertyOp34
 70
     1
102
RTVSPropertyOp35
 70
     1
102
RTVSPropertyOp36
 70
     1
102
RTVSPropertyOp37
 70
     1
102
RTVSPropertyOp38
 70
     1
102
RTVSPropertyOp39
 70
     1
102
RTVSPropertyOp40
 70
     1
102
RTVSPropertyOp41
 70
     1
102
RTVSPropertyOp42
 70
     1
102
RTVSPropertyOp43
 70
     1
102
RTVSPropertyOp44
 70
     1
102
RTVSPropertyOp45
 70
     1
102
RTVSPropertyOp46
 70
     1
102
RTVSPropertyOp47
 70
     1
102
RTVSPropertyOp48
 70
     1
102
RTVSPropertyOp49
 70
     1
102
RTVSPropertyOp50
 70
     1
102
RTVSPropertyOp51
 70
     0
102
RTVSPropertyOp52
 70
     0
102
RTVSPropertyOp53
 70
     1
102
RTVSPropertyOp54
 70
     1
102
RTVSPropertyOp55
 70
     1
102
RTVSPropertyOp56
 70
     1
102
RTVSPropertyOp57
 70
     1
102
RTVSPost2010Prop28
280
     0
102
RTVSPost2010PropOp28
 70
     1
102
RTVSPost2010Prop29
280
     1
102
RTVSPost2010PropOp29
 70
     1
102
RTVSPost2010Prop30
280
     1
102
RTVSPost2010PropOp30
 70
     1
102
RTVSPost2010Prop31
280
     0
102
RTVSPost2010PropOp31
 70
     1
102
RTVSPost2010Prop32
280
     0
102
RTVSPost2010PropOp32
 70
     1
102
RTVSPost2010Prop33
280
     0
102
RTVSPost2010PropOp33
 70
     1
102
RTVSPost2010Prop34
280
     0
102
RTVSPost2010PropOp34
 70
     1
102
RTVSPost2010Prop35
280
     0
102
RTVSPost2010PropOp35
 70
     1
102
RTVSPost2010Prop36
280
     0
102
RTVSPost2010PropOp36
 70
     1
102
RTVSPost2010Prop37
 90
       50
102
RTVSPost2010PropOp37
 70
     1
102
RTVSPost2010Prop38
140
0.0
102
RTVSPost2010PropOp38
 70
     1
102
RTVSPost2010Prop39
140
1.0
102
RTVSPost2010PropOp39
 70
     1
102
RTVSPost2010Prop40
 90
        0
102
RTVSPost2010PropOp40
 70
     1
102
RTVSPost2010Prop41ColorIndex
 90
       18
102
RTVSPost2010Prop41ColorRGB
 90
        0
102
RTVSPost2010PropOp41
 70
     1
102
RTVSPost2010Prop42
 90
       50
102
RTVSPost2010PropOp42
 70
     1
102
RTVSPost2010Prop43
 90
        3
102
RTVSPost2010PropOp43
 70
     1
102
RTVSPost2010Prop44ColorIndex
 90
        5
102
RTVSPost2010Prop44ColorRGB
 90
      255
102
RTVSPost2010PropOp44
 70
     1
102
RTVSPost2010Prop45
280
     0
102
RTVSPost2010PropOp45
 70
     1
102
RTVSPost2010Prop46
 90
       50
102
RTVSPost2010PropOp46
 70
     1
102
RTVSPost2010Prop47
 90
       50
102
RTVSPost2010PropOp47
 70
     1
102
RTVSPost2010Prop48
 90
       50
102
RTVSPost2010PropOp48
 70
     1
102
RTVSPost2010Prop49
280
     0
102
RTVSPost2010PropOp49
 70
     1
102
RTVSPost2010Prop50
 90
       50
102
RTVSPost2010PropOp50
 70
     1
102
RTVSPost2010Prop51ColorIndex
 90
      256
102
RTVSPost2010Prop51ColorRGB
 90
-16777216
102
RTVSPost2010PropOp51
 70
     0
102
RTVSPost2010Prop52
140
1.0
102
RTVSPost2010PropOp52
 70
     0
102
RTVSPost2010Prop53
 90
        2
102
RTVSPost2010PropOp53
 70
     1
102
RTVSPost2010Prop54
  1
strokes_ogs.tif
102
RTVSPost2010PropOp54
 70
     1
102
RTVSPost2010Prop55
280
     0
102
RTVSPost2010PropOp55
 70
     1
102
RTVSPost2010Prop56
140
1.0
102
RTVSPost2010PropOp56
 70
     1
102
RTVSPost2010Prop57
140
1.0
102
RTVSPost2010PropOp57
 70
     1
  0
XRECORD
  5
263
102
{ACAD_REACTORS
330
262
102
}
330
262
100
AcDbXrecord
280
     1
102
RTVSPropertyOp0
 70
     1
102
RTVSPropertyOp1
 70
     1
102
RTVSPropertyOp2
 70
     1
102
RTVSPropertyOp3
 70
     1
102
RTVSPropertyOp4
 70
     1
102
RTVSPropertyOp5
 70
     1
102
RTVSPropertyOp6
 70
     1
102
RTVSPropertyOp7
 70
     1
102
RTVSPropertyOp8
 70
     1
102
RTVSPropertyOp9
 70
     1
102
RTVSPropertyOp10
 70
     1
102
RTVSPropertyOp11
 70
     1
102
RTVSPropertyOp12
 70
     1
102
RTVSPropertyOp13
 70
     1
102
RTVSPropertyOp14
 70
     1
102
RTVSPropertyOp15
 70
     1
102
RTVSPropertyOp16
 70
     1
102
RTVSPropertyOp17
 70
     1
102
RTVSPropertyOp18
 70
     1
102
RTVSPropertyOp19
 70
     1
102
RTVSPropertyOp20
 70
     1
102
RTVSPropertyOp21
 70
     1
102
RTVSPropertyOp22
 70
     1
102
RTVSPropertyOp23
 70
     1
102
RTVSPropertyOp24
 70
     1
102
RTVSPropertyOp25
 70
     1
102
RTVSPropertyOp26
 70
     1
102
RTVSPropertyOp27
 70
     1
102
RTVSPropertyOp28
 70
     1
102
RTVSPropertyOp29
 70
     1
102
RTVSPropertyOp30
 70
     1
102
RTVSPropertyOp31
 70
     1
102
RTVSPropertyOp32
 70
     1
102
RTVSPropertyOp33
 70
     1
102
RTVSPropertyOp34
 70
     1
102
RTVSPropertyOp35
 70
     1
102
RTVSPropertyOp36
 70
     1
102
RTVSPropertyOp37
 70
     1
102
RTVSPropertyOp38
 70
     1
102
RTVSPropertyOp39
 70
     1
102
RTVSPropertyOp40
 70
     1
102
RTVSPropertyOp41
 70
     1
102
RTVSPropertyOp42
 70
     1
102
RTVSPropertyOp43
 70
     1
102
RTVSPropertyOp44
 70
     1
102
RTVSPropertyOp45
 70
     1
102
RTVSPropertyOp46
 70
     1
102
RTVSPropertyOp47
 70
     1
102
RTVSPropertyOp48
 70
     1
102
RTVSPropertyOp49
 70
     1
102
RTVSPropertyOp50
 70
     1
102
RTVSPropertyOp51
 70
     0
102
RTVSPropertyOp52
 70
     0
102
RTVSPropertyOp53
 70
     1
102
RTVSPropertyOp54
 70
     1
102
RTVSPropertyOp55
 70
     1
102
RTVSPropertyOp56
 70
     1
102
RTVSPropertyOp57
 70
     1
102
RTVSPost2010Prop28
280
     0
102
RTVSPost2010PropOp28
 70
     1
102
RTVSPost2010Prop29
280
     1
102
RTVSPost2010PropOp29
 70
     1
102
RTVSPost2010Prop30
280
     1
102
RTVSPost2010PropOp30
 70
     1
102
RTVSPost2010Prop31
280
     0
102
RTVSPost2010PropOp31
 70
     1
102
RTVSPost2010Prop32
280
     0
102
RTVSPost2010PropOp32
 70
     1
102
RTVSPost2010Prop33
280
     0
102
RTVSPost2010PropOp33
 70
     1
102
RTVSPost2010Prop34
280
     0
102
RTVSPost2010PropOp34
 70
     1
102
RTVSPost2010Prop35
280
     0
102
RTVSPost2010PropOp35
 70
     1
102
RTVSPost2010Prop36
280
     0
102
RTVSPost2010PropOp36
 70
     1
102
RTVSPost2010Prop37
 90
       50
102
RTVSPost2010PropOp37
 70
     1
102
RTVSPost2010Prop38
140
0.0
102
RTVSPost2010PropOp38
 70
     1
102
RTVSPost2010Prop39
140
1.0
102
RTVSPost2010PropOp39
 70
     1
102
RTVSPost2010Prop40
 90
        0
102
RTVSPost2010PropOp40
 70
     1
102
RTVSPost2010Prop41ColorIndex
 90
       18
102
RTVSPost2010Prop41ColorRGB
 90
        0
102
RTVSPost2010PropOp41
 70
     1
102
RTVSPost2010Prop42
 90
       50
102
RTVSPost2010PropOp42
 70
     1
102
RTVSPost2010Prop43
 90
        3
102
RTVSPost2010PropOp43
 70
     1
102
RTVSPost2010Prop44ColorIndex
 90
        5
102
RTVSPost2010Prop44ColorRGB
 90
      255
102
RTVSPost2010PropOp44
 70
     1
102
RTVSPost2010Prop45
280
     0
102
RTVSPost2010PropOp45
 70
     1
102
RTVSPost2010Prop46
 90
       50
102
RTVSPost2010PropOp46
 70
     1
102
RTVSPost2010Prop47
 90
       50
102
RTVSPost2010PropOp47
 70
     1
102
RTVSPost2010Prop48
 90
       50
102
RTVSPost2010PropOp48
 70
     1
102
RTVSPost2010Prop49
280
     0
102
RTVSPost2010PropOp49
 70
     1
102
RTVSPost2010Prop50
 90
       50
102
RTVSPost2010PropOp50
 70
     1
102
RTVSPost2010Prop51ColorIndex
 90
      256
102
RTVSPost2010Prop51ColorRGB
 90
-16777216
102
RTVSPost2010PropOp51
 70
     0
102
RTVSPost2010Prop52
140
1.0
102
RTVSPost2010PropOp52
 70
     0
102
RTVSPost2010Prop53
 90
        2
102
RTVSPost2010PropOp53
 70
     1
102
RTVSPost2010Prop54
  1
strokes_ogs.tif
102
RTVSPost2010PropOp54
 70
     1
102
RTVSPost2010Prop55
280
     0
102
RTVSPost2010PropOp55
 70
     1
102
RTVSPost2010Prop56
140
1.0
102
RTVSPost2010PropOp56
 70
     1
102
RTVSPost2010Prop57
140
1.0
102
RTVSPost2010PropOp57
 70
     1
  0
XRECORD
  5
257
102
{ACAD_REACTORS
330
256
102
}
330
256
100
AcDbXrecord
280
     1
102
RTVSPropertyOp0
 70
     1
102
RTVSPropertyOp1
 70
     1
102
RTVSPropertyOp2
 70
     1
102
RTVSPropertyOp3
 70
     1
102
RTVSPropertyOp4
 70
     1
102
RTVSPropertyOp5
 70
     1
102
RTVSPropertyOp6
 70
     1
102
RTVSPropertyOp7
 70
     1
102
RTVSPropertyOp8
 70
     1
102
RTVSPropertyOp9
 70
     1
102
RTVSPropertyOp10
 70
     1
102
RTVSPropertyOp11
 70
     1
102
RTVSPropertyOp12
 70
     1
102
RTVSPropertyOp13
 70
     1
102
RTVSPropertyOp14
 70
     1
102
RTVSPropertyOp15
 70
     1
102
RTVSPropertyOp16
 70
     1
102
RTVSPropertyOp17
 70
     1
102
RTVSPropertyOp18
 70
     1
102
RTVSPropertyOp19
 70
     1
102
RTVSPropertyOp20
 70
     1
102
RTVSPropertyOp21
 70
     1
102
RTVSPropertyOp22
 70
     1
102
RTVSPropertyOp23
 70
     1
102
RTVSPropertyOp24
 70
     1
102
RTVSPropertyOp25
 70
     1
102
RTVSPropertyOp26
 70
     1
102
RTVSPropertyOp27
 70
     1
102
RTVSPropertyOp28
 70
     1
102
RTVSPropertyOp29
 70
     1
102
RTVSPropertyOp30
 70
     1
102
RTVSPropertyOp31
 70
     1
102
RTVSPropertyOp32
 70
     1
102
RTVSPropertyOp33
 70
     1
102
RTVSPropertyOp34
 70
     1
102
RTVSPropertyOp35
 70
     1
102
RTVSPropertyOp36
 70
     1
102
RTVSPropertyOp37
 70
     1
102
RTVSPropertyOp38
 70
     1
102
RTVSPropertyOp39
 70
     1
102
RTVSPropertyOp40
 70
     1
102
RTVSPropertyOp41
 70
     1
102
RTVSPropertyOp42
 70
     1
102
RTVSPropertyOp43
 70
     1
102
RTVSPropertyOp44
 70
     1
102
RTVSPropertyOp45
 70
     1
102
RTVSPropertyOp46
 70
     1
102
RTVSPropertyOp47
 70
     1
102
RTVSPropertyOp48
 70
     1
102
RTVSPropertyOp49
 70
     1
102
RTVSPropertyOp50
 70
     1
102
RTVSPropertyOp51
 70
     0
102
RTVSPropertyOp52
 70
     0
102
RTVSPropertyOp53
 70
     1
102
RTVSPropertyOp54
 70
     1
102
RTVSPropertyOp55
 70
     1
102
RTVSPropertyOp56
 70
     1
102
RTVSPropertyOp57
 70
     1
102
RTVSPost2010Prop28
280
     0
102
RTVSPost2010PropOp28
 70
     1
102
RTVSPost2010Prop29
280
     1
102
RTVSPost2010PropOp29
 70
     1
102
RTVSPost2010Prop30
280
     1
102
RTVSPost2010PropOp30
 70
     1
102
RTVSPost2010Prop31
280
     0
102
RTVSPost2010PropOp31
 70
     1
102
RTVSPost2010Prop32
280
     0
102
RTVSPost2010PropOp32
 70
     1
102
RTVSPost2010Prop33
280
     0
102
RTVSPost2010PropOp33
 70
     1
102
RTVSPost2010Prop34
280
     0
102
RTVSPost2010PropOp34
 70
     1
102
RTVSPost2010Prop35
280
     0
102
RTVSPost2010PropOp35
 70
     1
102
RTVSPost2010Prop36
280
     0
102
RTVSPost2010PropOp36
 70
     1
102
RTVSPost2010Prop37
 90
       50
102
RTVSPost2010PropOp37
 70
     1
102
RTVSPost2010Prop38
140
0.0
102
RTVSPost2010PropOp38
 70
     1
102
RTVSPost2010Prop39
140
1.0
102
RTVSPost2010PropOp39
 70
     1
102
RTVSPost2010Prop40
 90
        0
102
RTVSPost2010PropOp40
 70
     1
102
RTVSPost2010Prop41ColorIndex
 90
       18
102
RTVSPost2010Prop41ColorRGB
 90
        0
102
RTVSPost2010PropOp41
 70
     1
102
RTVSPost2010Prop42
 90
       50
102
RTVSPost2010PropOp42
 70
     1
102
RTVSPost2010Prop43
 90
        3
102
RTVSPost2010PropOp43
 70
     1
102
RTVSPost2010Prop44ColorIndex
 90
        5
102
RTVSPost2010Prop44ColorRGB
 90
      255
102
RTVSPost2010PropOp44
 70
     1
102
RTVSPost2010Prop45
280
     0
102
RTVSPost2010PropOp45
 70
     1
102
RTVSPost2010Prop46
 90
       50
102
RTVSPost2010PropOp46
 70
     1
102
RTVSPost2010Prop47
 90
       50
102
RTVSPost2010PropOp47
 70
     1
102
RTVSPost2010Prop48
 90
       50
102
RTVSPost2010PropOp48
 70
     1
102
RTVSPost2010Prop49
280
     0
102
RTVSPost2010PropOp49
 70
     1
102
RTVSPost2010Prop50
 90
       50
102
RTVSPost2010PropOp50
 70
     1
102
RTVSPost2010Prop51ColorIndex
 90
      256
102
RTVSPost2010Prop51ColorRGB
 90
-16777216
102
RTVSPost2010PropOp51
 70
     0
102
RTVSPost2010Prop52
140
1.0
102
RTVSPost2010PropOp52
 70
     0
102
RTVSPost2010Prop53
 90
        2
102
RTVSPost2010PropOp53
 70
     1
102
RTVSPost2010Prop54
  1
strokes_ogs.tif
102
RTVSPost2010PropOp54
 70
     1
102
RTVSPost2010Prop55
280
     0
102
RTVSPost2010PropOp55
 70
     1
102
RTVSPost2010Prop56
140
1.0
102
RTVSPost2010PropOp56
 70
     1
102
RTVSPost2010Prop57
140
1.0
102
RTVSPost2010PropOp57
 70
     1
  0
XRECORD
  5
259
102
{ACAD_REACTORS
330
258
102
}
330
258
100
AcDbXrecord
280
     1
102
RTVSPropertyOp0
 70
     1
102
RTVSPropertyOp1
 70
     1
102
RTVSPropertyOp2
 70
     1
102
RTVSPropertyOp3
 70
     1
102
RTVSPropertyOp4
 70
     1
102
RTVSPropertyOp5
 70
     1
102
RTVSPropertyOp6
 70
     1
102
RTVSPropertyOp7
 70
     1
102
RTVSPropertyOp8
 70
     1
102
RTVSPropertyOp9
 70
     1
102
RTVSPropertyOp10
 70
     1
102
RTVSPropertyOp11
 70
     1
102
RTVSPropertyOp12
 70
     1
102
RTVSPropertyOp13
 70
     1
102
RTVSPropertyOp14
 70
     1
102
RTVSPropertyOp15
 70
     1
102
RTVSPropertyOp16
 70
     1
102
RTVSPropertyOp17
 70
     1
102
RTVSPropertyOp18
 70
     1
102
RTVSPropertyOp19
 70
     1
102
RTVSPropertyOp20
 70
     1
102
RTVSPropertyOp21
 70
     1
102
RTVSPropertyOp22
 70
     1
102
RTVSPropertyOp23
 70
     1
102
RTVSPropertyOp24
 70
     1
102
RTVSPropertyOp25
 70
     1
102
RTVSPropertyOp26
 70
     1
102
RTVSPropertyOp27
 70
     1
102
RTVSPropertyOp28
 70
     1
102
RTVSPropertyOp29
 70
     1
102
RTVSPropertyOp30
 70
     1
102
RTVSPropertyOp31
 70
     1
102
RTVSPropertyOp32
 70
     1
102
RTVSPropertyOp33
 70
     1
102
RTVSPropertyOp34
 70
     1
102
RTVSPropertyOp35
 70
     1
102
RTVSPropertyOp36
 70
     1
102
RTVSPropertyOp37
 70
     1
102
RTVSPropertyOp38
 70
     1
102
RTVSPropertyOp39
 70
     1
102
RTVSPropertyOp40
 70
     1
102
RTVSPropertyOp41
 70
     1
102
RTVSPropertyOp42
 70
     1
102
RTVSPropertyOp43
 70
     1
102
RTVSPropertyOp44
 70
     1
102
RTVSPropertyOp45
 70
     1
102
RTVSPropertyOp46
 70
     1
102
RTVSPropertyOp47
 70
     1
102
RTVSPropertyOp48
 70
     1
102
RTVSPropertyOp49
 70
     1
102
RTVSPropertyOp50
 70
     1
102
RTVSPropertyOp51
 70
     0
102
RTVSPropertyOp52
 70
     0
102
RTVSPropertyOp53
 70
     1
102
RTVSPropertyOp54
 70
     1
102
RTVSPropertyOp55
 70
     1
102
RTVSPropertyOp56
 70
     1
102
RTVSPropertyOp57
 70
     1
102
RTVSPost2010Prop28
280
     0
102
RTVSPost2010PropOp28
 70
     1
102
RTVSPost2010Prop29
280
     1
102
RTVSPost2010PropOp29
 70
     1
102
RTVSPost2010Prop30
280
     1
102
RTVSPost2010PropOp30
 70
     1
102
RTVSPost2010Prop31
280
     0
102
RTVSPost2010PropOp31
 70
     1
102
RTVSPost2010Prop32
280
     0
102
RTVSPost2010PropOp32
 70
     1
102
RTVSPost2010Prop33
280
     0
102
RTVSPost2010PropOp33
 70
     1
102
RTVSPost2010Prop34
280
     0
102
RTVSPost2010PropOp34
 70
     1
102
RTVSPost2010Prop35
280
     0
102
RTVSPost2010PropOp35
 70
     1
102
RTVSPost2010Prop36
280
     0
102
RTVSPost2010PropOp36
 70
     1
102
RTVSPost2010Prop37
 90
       50
102
RTVSPost2010PropOp37
 70
     1
102
RTVSPost2010Prop38
140
0.0
102
RTVSPost2010PropOp38
 70
     1
102
RTVSPost2010Prop39
140
1.0
102
RTVSPost2010PropOp39
 70
     1
102
RTVSPost2010Prop40
 90
        0
102
RTVSPost2010PropOp40
 70
     1
102
RTVSPost2010Prop41ColorIndex
 90
       18
102
RTVSPost2010Prop41ColorRGB
 90
        0
102
RTVSPost2010PropOp41
 70
     1
102
RTVSPost2010Prop42
 90
       50
102
RTVSPost2010PropOp42
 70
     1
102
RTVSPost2010Prop43
 90
        3
102
RTVSPost2010PropOp43
 70
     1
102
RTVSPost2010Prop44ColorIndex
 90
        5
102
RTVSPost2010Prop44ColorRGB
 90
      255
102
RTVSPost2010PropOp44
 70
     1
102
RTVSPost2010Prop45
280
     0
102
RTVSPost2010PropOp45
 70
     1
102
RTVSPost2010Prop46
 90
       50
102
RTVSPost2010PropOp46
 70
     1
102
RTVSPost2010Prop47
 90
       50
102
RTVSPost2010PropOp47
 70
     1
102
RTVSPost2010Prop48
 90
       50
102
RTVSPost2010PropOp48
 70
     1
102
RTVSPost2010Prop49
280
     0
102
RTVSPost2010PropOp49
 70
     1
102
RTVSPost2010Prop50
 90
       50
102
RTVSPost2010PropOp50
 70
     1
102
RTVSPost2010Prop51ColorIndex
 90
      256
102
RTVSPost2010Prop51ColorRGB
 90
-16777216
102
RTVSPost2010PropOp51
 70
     0
102
RTVSPost2010Prop52
140
1.0
102
RTVSPost2010PropOp52
 70
     0
102
RTVSPost2010Prop53
 90
        2
102
RTVSPost2010PropOp53
 70
     1
102
RTVSPost2010Prop54
  1
strokes_ogs.tif
102
RTVSPost2010PropOp54
 70
     1
102
RTVSPost2010Prop55
280
     0
102
RTVSPost2010PropOp55
 70
     1
102
RTVSPost2010Prop56
140
1.0
102
RTVSPost2010PropOp56
 70
     1
102
RTVSPost2010Prop57
140
1.0
102
RTVSPost2010PropOp57
 70
     1
  0
XRECORD
  5
269
102
{ACAD_REACTORS
330
268
102
}
330
268
100
AcDbXrecord
280
     1
102
RTVSPropertyOp0
 70
     0
102
RTVSPropertyOp1
 70
     0
102
RTVSPropertyOp2
 70
     0
102
RTVSPropertyOp3
 70
     0
102
RTVSPropertyOp4
 70
     0
102
RTVSPropertyOp5
 70
     0
102
RTVSPropertyOp6
 70
     0
102
RTVSPropertyOp7
 70
     0
102
RTVSPropertyOp8
 70
     0
102
RTVSPropertyOp9
 70
     0
102
RTVSPropertyOp10
 70
     0
102
RTVSPropertyOp11
 70
     0
102
RTVSPropertyOp12
 70
     0
102
RTVSPropertyOp13
 70
     0
102
RTVSPropertyOp14
 70
     2
102
RTVSPropertyOp15
 70
     0
102
RTVSPropertyOp16
 70
     0
102
RTVSPropertyOp17
 70
     0
102
RTVSPropertyOp18
 70
     0
102
RTVSPropertyOp19
 70
     0
102
RTVSPropertyOp20
 70
     0
102
RTVSPropertyOp21
 70
     0
102
RTVSPropertyOp22
 70
     0
102
RTVSPropertyOp23
 70
     0
102
RTVSPropertyOp24
 70
     0
102
RTVSPropertyOp25
 70
     0
102
RTVSPropertyOp26
 70
     0
102
RTVSPropertyOp27
 70
     0
102
RTVSPropertyOp28
 70
     0
102
RTVSPropertyOp29
 70
     0
102
RTVSPropertyOp30
 70
     0
102
RTVSPropertyOp31
 70
     0
102
RTVSPropertyOp32
 70
     0
102
RTVSPropertyOp33
 70
     0
102
RTVSPropertyOp34
 70
     0
102
RTVSPropertyOp35
 70
     0
102
RTVSPropertyOp36
 70
     0
102
RTVSPropertyOp37
 70
     0
102
RTVSPropertyOp38
 70
     0
102
RTVSPropertyOp39
 70
     0
102
RTVSPropertyOp40
 70
     0
102
RTVSPropertyOp41
 70
     0
102
RTVSPropertyOp42
 70
     0
102
RTVSPropertyOp43
 70
     0
102
RTVSPropertyOp44
 70
     0
102
RTVSPropertyOp45
 70
     0
102
RTVSPropertyOp46
 70
     0
102
RTVSPropertyOp47
 70
     0
102
RTVSPropertyOp48
 70
     0
102
RTVSPropertyOp49
 70
     0
102
RTVSPropertyOp50
 70
     0
102
RTVSPropertyOp51
 70
     0
102
RTVSPropertyOp52
 70
     0
102
RTVSPropertyOp53
 70
     0
102
RTVSPropertyOp54
 70
     0
102
RTVSPropertyOp55
 70
     0
102
RTVSPropertyOp56
 70
     0
102
RTVSPropertyOp57
 70
     0
102
RTVSPost2010Prop28
280
     0
102
RTVSPost2010PropOp28
 70
     0
102
RTVSPost2010Prop29
280
     1
102
RTVSPost2010PropOp29
 70
     0
102
RTVSPost2010Prop30
280
     1
102
RTVSPost2010PropOp30
 70
     0
102
RTVSPost2010Prop31
280
     0
102
RTVSPost2010PropOp31
 70
     0
102
RTVSPost2010Prop32
280
     0
102
RTVSPost2010PropOp32
 70
     0
102
RTVSPost2010Prop33
280
     0
102
RTVSPost2010PropOp33
 70
     0
102
RTVSPost2010Prop34
280
     0
102
RTVSPost2010PropOp34
 70
     0
102
RTVSPost2010Prop35
280
     0
102
RTVSPost2010PropOp35
 70
     0
102
RTVSPost2010Prop36
280
     0
102
RTVSPost2010PropOp36
 70
     0
102
RTVSPost2010Prop37
 90
       50
102
RTVSPost2010PropOp37
 70
     0
102
RTVSPost2010Prop38
140
0.0
102
RTVSPost2010PropOp38
 70
     0
102
RTVSPost2010Prop39
140
1.0
102
RTVSPost2010PropOp39
 70
     0
102
RTVSPost2010Prop40
 90
        0
102
RTVSPost2010PropOp40
 70
     0
102
RTVSPost2010Prop41ColorIndex
 90
       18
102
RTVSPost2010Prop41ColorRGB
 90
        0
102
RTVSPost2010PropOp41
 70
     0
102
RTVSPost2010Prop42
 90
       50
102
RTVSPost2010PropOp42
 70
     0
102
RTVSPost2010Prop43
 90
        3
102
RTVSPost2010PropOp43
 70
     0
102
RTVSPost2010Prop44ColorIndex
 90
        5
102
RTVSPost2010Prop44ColorRGB
 90
      255
102
RTVSPost2010PropOp44
 70
     0
102
RTVSPost2010Prop45
280
     0
102
RTVSPost2010PropOp45
 70
     0
102
RTVSPost2010Prop46
 90
       50
102
RTVSPost2010PropOp46
 70
     0
102
RTVSPost2010Prop47
 90
       50
102
RTVSPost2010PropOp47
 70
     0
102
RTVSPost2010Prop48
 90
       50
102
RTVSPost2010PropOp48
 70
     0
102
RTVSPost2010Prop49
280
     0
102
RTVSPost2010PropOp49
 70
     0
102
RTVSPost2010Prop50
 90
       50
102
RTVSPost2010PropOp50
 70
     0
102
RTVSPost2010Prop51ColorIndex
 90
      256
102
RTVSPost2010Prop51ColorRGB
 90
-16777216
102
RTVSPost2010PropOp51
 70
     0
102
RTVSPost2010Prop52
140
1.0
102
RTVSPost2010PropOp52
 70
     0
102
RTVSPost2010Prop53
 90
        2
102
RTVSPost2010PropOp53
 70
     0
102
RTVSPost2010Prop54
  1
strokes_ogs.tif
102
RTVSPost2010PropOp54
 70
     0
102
RTVSPost2010Prop55
280
     0
102
RTVSPost2010PropOp55
 70
     0
102
RTVSPost2010Prop56
140
1.0
102
RTVSPost2010PropOp56
 70
     0
102
RTVSPost2010Prop57
140
1.0
102
RTVSPost2010PropOp57
 70
     0
  0
XRECORD
  5
261
102
{ACAD_REACTORS
330
260
102
}
330
260
100
AcDbXrecord
280
     1
102
RTVSPropertyOp0
 70
     1
102
RTVSPropertyOp1
 70
     1
102
RTVSPropertyOp2
 70
     1
102
RTVSPropertyOp3
 70
     1
102
RTVSPropertyOp4
 70
     1
102
RTVSPropertyOp5
 70
     1
102
RTVSPropertyOp6
 70
     1
102
RTVSPropertyOp7
 70
     1
102
RTVSPropertyOp8
 70
     1
102
RTVSPropertyOp9
 70
     1
102
RTVSPropertyOp10
 70
     1
102
RTVSPropertyOp11
 70
     1
102
RTVSPropertyOp12
 70
     1
102
RTVSPropertyOp13
 70
     1
102
RTVSPropertyOp14
 70
     1
102
RTVSPropertyOp15
 70
     1
102
RTVSPropertyOp16
 70
     1
102
RTVSPropertyOp17
 70
     1
102
RTVSPropertyOp18
 70
     1
102
RTVSPropertyOp19
 70
     1
102
RTVSPropertyOp20
 70
     1
102
RTVSPropertyOp21
 70
     1
102
RTVSPropertyOp22
 70
     1
102
RTVSPropertyOp23
 70
     1
102
RTVSPropertyOp24
 70
     1
102
RTVSPropertyOp25
 70
     1
102
RTVSPropertyOp26
 70
     1
102
RTVSPropertyOp27
 70
     1
102
RTVSPropertyOp28
 70
     1
102
RTVSPropertyOp29
 70
     1
102
RTVSPropertyOp30
 70
     1
102
RTVSPropertyOp31
 70
     1
102
RTVSPropertyOp32
 70
     1
102
RTVSPropertyOp33
 70
     1
102
RTVSPropertyOp34
 70
     1
102
RTVSPropertyOp35
 70
     1
102
RTVSPropertyOp36
 70
     1
102
RTVSPropertyOp37
 70
     1
102
RTVSPropertyOp38
 70
     1
102
RTVSPropertyOp39
 70
     1
102
RTVSPropertyOp40
 70
     1
102
RTVSPropertyOp41
 70
     1
102
RTVSPropertyOp42
 70
     1
102
RTVSPropertyOp43
 70
     1
102
RTVSPropertyOp44
 70
     1
102
RTVSPropertyOp45
 70
     1
102
RTVSPropertyOp46
 70
     1
102
RTVSPropertyOp47
 70
     1
102
RTVSPropertyOp48
 70
     1
102
RTVSPropertyOp49
 70
     1
102
RTVSPropertyOp50
 70
     1
102
RTVSPropertyOp51
 70
     0
102
RTVSPropertyOp52
 70
     0
102
RTVSPropertyOp53
 70
     1
102
RTVSPropertyOp54
 70
     1
102
RTVSPropertyOp55
 70
     1
102
RTVSPropertyOp56
 70
     1
102
RTVSPropertyOp57
 70
     1
102
RTVSPost2010Prop28
280
     0
102
RTVSPost2010PropOp28
 70
     1
102
RTVSPost2010Prop29
280
     1
102
RTVSPost2010PropOp29
 70
     1
102
RTVSPost2010Prop30
280
     1
102
RTVSPost2010PropOp30
 70
     1
102
RTVSPost2010Prop31
280
     0
102
RTVSPost2010PropOp31
 70
     1
102
RTVSPost2010Prop32
280
     0
102
RTVSPost2010PropOp32
 70
     1
102
RTVSPost2010Prop33
280
     0
102
RTVSPost2010PropOp33
 70
     1
102
RTVSPost2010Prop34
280
     0
102
RTVSPost2010PropOp34
 70
     1
102
RTVSPost2010Prop35
280
     0
102
RTVSPost2010PropOp35
 70
     1
102
RTVSPost2010Prop36
280
     0
102
RTVSPost2010PropOp36
 70
     1
102
RTVSPost2010Prop37
 90
       50
102
RTVSPost2010PropOp37
 70
     1
102
RTVSPost2010Prop38
140
0.0
102
RTVSPost2010PropOp38
 70
     1
102
RTVSPost2010Prop39
140
1.0
102
RTVSPost2010PropOp39
 70
     1
102
RTVSPost2010Prop40
 90
        0
102
RTVSPost2010PropOp40
 70
     1
102
RTVSPost2010Prop41ColorIndex
 90
       18
102
RTVSPost2010Prop41ColorRGB
 90
        0
102
RTVSPost2010PropOp41
 70
     1
102
RTVSPost2010Prop42
 90
       50
102
RTVSPost2010PropOp42
 70
     1
102
RTVSPost2010Prop43
 90
        3
102
RTVSPost2010PropOp43
 70
     1
102
RTVSPost2010Prop44ColorIndex
 90
        5
102
RTVSPost2010Prop44ColorRGB
 90
      255
102
RTVSPost2010PropOp44
 70
     1
102
RTVSPost2010Prop45
280
     0
102
RTVSPost2010PropOp45
 70
     1
102
RTVSPost2010Prop46
 90
       50
102
RTVSPost2010PropOp46
 70
     1
102
RTVSPost2010Prop47
 90
       50
102
RTVSPost2010PropOp47
 70
     1
102
RTVSPost2010Prop48
 90
       50
102
RTVSPost2010PropOp48
 70
     1
102
RTVSPost2010Prop49
280
     0
102
RTVSPost2010PropOp49
 70
     1
102
RTVSPost2010Prop50
 90
       50
102
RTVSPost2010PropOp50
 70
     1
102
RTVSPost2010Prop51ColorIndex
 90
      256
102
RTVSPost2010Prop51ColorRGB
 90
-16777216
102
RTVSPost2010PropOp51
 70
     0
102
RTVSPost2010Prop52
140
1.0
102
RTVSPost2010PropOp52
 70
     0
102
RTVSPost2010Prop53
 90
        2
102
RTVSPost2010PropOp53
 70
     1
102
RTVSPost2010Prop54
  1
strokes_ogs.tif
102
RTVSPost2010PropOp54
 70
     1
102
RTVSPost2010Prop55
280
     0
102
RTVSPost2010PropOp55
 70
     1
102
RTVSPost2010Prop56
140
1.0
102
RTVSPost2010PropOp56
 70
     1
102
RTVSPost2010Prop57
140
1.0
102
RTVSPost2010PropOp57
 70
     1
  0
XRECORD
  5
245
102
{ACAD_REACTORS
330
244
102
}
330
244
100
AcDbXrecord
280
     1
102
RTVSPropertyOp0
 70
     1
102
RTVSPropertyOp1
 70
     1
102
RTVSPropertyOp2
 70
     1
102
RTVSPropertyOp3
 70
     1
102
RTVSPropertyOp4
 70
     1
102
RTVSPropertyOp5
 70
     1
102
RTVSPropertyOp6
 70
     1
102
RTVSPropertyOp7
 70
     1
102
RTVSPropertyOp8
 70
     1
102
RTVSPropertyOp9
 70
     1
102
RTVSPropertyOp10
 70
     1
102
RTVSPropertyOp11
 70
     1
102
RTVSPropertyOp12
 70
     1
102
RTVSPropertyOp13
 70
     1
102
RTVSPropertyOp14
 70
     1
102
RTVSPropertyOp15
 70
     1
102
RTVSPropertyOp16
 70
     1
102
RTVSPropertyOp17
 70
     1
102
RTVSPropertyOp18
 70
     1
102
RTVSPropertyOp19
 70
     1
102
RTVSPropertyOp20
 70
     1
102
RTVSPropertyOp21
 70
     1
102
RTVSPropertyOp22
 70
     1
102
RTVSPropertyOp23
 70
     1
102
RTVSPropertyOp24
 70
     1
102
RTVSPropertyOp25
 70
     1
102
RTVSPropertyOp26
 70
     1
102
RTVSPropertyOp27
 70
     1
102
RTVSPropertyOp28
 70
     1
102
RTVSPropertyOp29
 70
     1
102
RTVSPropertyOp30
 70
     1
102
RTVSPropertyOp31
 70
     1
102
RTVSPropertyOp32
 70
     1
102
RTVSPropertyOp33
 70
     1
102
RTVSPropertyOp34
 70
     1
102
RTVSPropertyOp35
 70
     1
102
RTVSPropertyOp36
 70
     1
102
RTVSPropertyOp37
 70
     1
102
RTVSPropertyOp38
 70
     1
102
RTVSPropertyOp39
 70
     1
102
RTVSPropertyOp40
 70
     1
102
RTVSPropertyOp41
 70
     1
102
RTVSPropertyOp42
 70
     1
102
RTVSPropertyOp43
 70
     1
102
RTVSPropertyOp44
 70
     1
102
RTVSPropertyOp45
 70
     1
102
RTVSPropertyOp46
 70
     1
102
RTVSPropertyOp47
 70
     1
102
RTVSPropertyOp48
 70
     1
102
RTVSPropertyOp49
 70
     1
102
RTVSPropertyOp50
 70
     1
102
RTVSPropertyOp51
 70
     0
102
RTVSPropertyOp52
 70
     0
102
RTVSPropertyOp53
 70
     1
102
RTVSPropertyOp54
 70
     1
102
RTVSPropertyOp55
 70
     1
102
RTVSPropertyOp56
 70
     1
102
RTVSPropertyOp57
 70
     1
102
RTVSPost2010Prop28
280
     0
102
RTVSPost2010PropOp28
 70
     1
102
RTVSPost2010Prop29
280
     1
102
RTVSPost2010PropOp29
 70
     1
102
RTVSPost2010Prop30
280
     1
102
RTVSPost2010PropOp30
 70
     1
102
RTVSPost2010Prop31
280
     0
102
RTVSPost2010PropOp31
 70
     1
102
RTVSPost2010Prop32
280
     0
102
RTVSPost2010PropOp32
 70
     1
102
RTVSPost2010Prop33
280
     0
102
RTVSPost2010PropOp33
 70
     1
102
RTVSPost2010Prop34
280
     0
102
RTVSPost2010PropOp34
 70
     1
102
RTVSPost2010Prop35
280
     0
102
RTVSPost2010PropOp35
 70
     1
102
RTVSPost2010Prop36
280
     0
102
RTVSPost2010PropOp36
 70
     1
102
RTVSPost2010Prop37
 90
       50
102
RTVSPost2010PropOp37
 70
     1
102
RTVSPost2010Prop38
140
0.0
102
RTVSPost2010PropOp38
 70
     1
102
RTVSPost2010Prop39
140
1.0
102
RTVSPost2010PropOp39
 70
     1
102
RTVSPost2010Prop40
 90
        0
102
RTVSPost2010PropOp40
 70
     1
102
RTVSPost2010Prop41ColorIndex
 90
       18
102
RTVSPost2010Prop41ColorRGB
 90
        0
102
RTVSPost2010PropOp41
 70
     1
102
RTVSPost2010Prop42
 90
       50
102
RTVSPost2010PropOp42
 70
     1
102
RTVSPost2010Prop43
 90
        3
102
RTVSPost2010PropOp43
 70
     1
102
RTVSPost2010Prop44ColorIndex
 90
        5
102
RTVSPost2010Prop44ColorRGB
 90
      255
102
RTVSPost2010PropOp44
 70
     1
102
RTVSPost2010Prop45
280
     0
102
RTVSPost2010PropOp45
 70
     1
102
RTVSPost2010Prop46
 90
       50
102
RTVSPost2010PropOp46
 70
     1
102
RTVSPost2010Prop47
 90
       50
102
RTVSPost2010PropOp47
 70
     1
102
RTVSPost2010Prop48
 90
       50
102
RTVSPost2010PropOp48
 70
     1
102
RTVSPost2010Prop49
280
     0
102
RTVSPost2010PropOp49
 70
     1
102
RTVSPost2010Prop50
 90
       50
102
RTVSPost2010PropOp50
 70
     1
102
RTVSPost2010Prop51ColorIndex
 90
      256
102
RTVSPost2010Prop51ColorRGB
 90
-16777216
102
RTVSPost2010PropOp51
 70
     0
102
RTVSPost2010Prop52
140
1.0
102
RTVSPost2010PropOp52
 70
     0
102
RTVSPost2010Prop53
 90
        2
102
RTVSPost2010PropOp53
 70
     1
102
RTVSPost2010Prop54
  1
strokes_ogs.tif
102
RTVSPost2010PropOp54
 70
     1
102
RTVSPost2010Prop55
280
     0
102
RTVSPost2010PropOp55
 70
     1
102
RTVSPost2010Prop56
140
1.0
102
RTVSPost2010PropOp56
 70
     1
102
RTVSPost2010Prop57
140
1.0
102
RTVSPost2010PropOp57
 70
     1
  0
XRECORD
  5
247
102
{ACAD_REACTORS
330
246
102
}
330
246
100
AcDbXrecord
280
     1
102
RTVSPropertyOp0
 70
     1
102
RTVSPropertyOp1
 70
     1
102
RTVSPropertyOp2
 70
     1
102
RTVSPropertyOp3
 70
     1
102
RTVSPropertyOp4
 70
     1
102
RTVSPropertyOp5
 70
     1
102
RTVSPropertyOp6
 70
     1
102
RTVSPropertyOp7
 70
     1
102
RTVSPropertyOp8
 70
     1
102
RTVSPropertyOp9
 70
     1
102
RTVSPropertyOp10
 70
     1
102
RTVSPropertyOp11
 70
     1
102
RTVSPropertyOp12
 70
     1
102
RTVSPropertyOp13
 70
     1
102
RTVSPropertyOp14
 70
     1
102
RTVSPropertyOp15
 70
     1
102
RTVSPropertyOp16
 70
     1
102
RTVSPropertyOp17
 70
     1
102
RTVSPropertyOp18
 70
     1
102
RTVSPropertyOp19
 70
     1
102
RTVSPropertyOp20
 70
     1
102
RTVSPropertyOp21
 70
     1
102
RTVSPropertyOp22
 70
     1
102
RTVSPropertyOp23
 70
     1
102
RTVSPropertyOp24
 70
     1
102
RTVSPropertyOp25
 70
     1
102
RTVSPropertyOp26
 70
     1
102
RTVSPropertyOp27
 70
     1
102
RTVSPropertyOp28
 70
     1
102
RTVSPropertyOp29
 70
     1
102
RTVSPropertyOp30
 70
     1
102
RTVSPropertyOp31
 70
     1
102
RTVSPropertyOp32
 70
     1
102
RTVSPropertyOp33
 70
     1
102
RTVSPropertyOp34
 70
     1
102
RTVSPropertyOp35
 70
     1
102
RTVSPropertyOp36
 70
     1
102
RTVSPropertyOp37
 70
     1
102
RTVSPropertyOp38
 70
     1
102
RTVSPropertyOp39
 70
     1
102
RTVSPropertyOp40
 70
     1
102
RTVSPropertyOp41
 70
     1
102
RTVSPropertyOp42
 70
     1
102
RTVSPropertyOp43
 70
     1
102
RTVSPropertyOp44
 70
     1
102
RTVSPropertyOp45
 70
     1
102
RTVSPropertyOp46
 70
     1
102
RTVSPropertyOp47
 70
     1
102
RTVSPropertyOp48
 70
     1
102
RTVSPropertyOp49
 70
     1
102
RTVSPropertyOp50
 70
     1
102
RTVSPropertyOp51
 70
     0
102
RTVSPropertyOp52
 70
     0
102
RTVSPropertyOp53
 70
     1
102
RTVSPropertyOp54
 70
     1
102
RTVSPropertyOp55
 70
     1
102
RTVSPropertyOp56
 70
     1
102
RTVSPropertyOp57
 70
     1
102
RTVSPost2010Prop28
280
     0
102
RTVSPost2010PropOp28
 70
     1
102
RTVSPost2010Prop29
280
     1
102
RTVSPost2010PropOp29
 70
     1
102
RTVSPost2010Prop30
280
     1
102
RTVSPost2010PropOp30
 70
     1
102
RTVSPost2010Prop31
280
     0
102
RTVSPost2010PropOp31
 70
     1
102
RTVSPost2010Prop32
280
     0
102
RTVSPost2010PropOp32
 70
     1
102
RTVSPost2010Prop33
280
     0
102
RTVSPost2010PropOp33
 70
     1
102
RTVSPost2010Prop34
280
     0
102
RTVSPost2010PropOp34
 70
     1
102
RTVSPost2010Prop35
280
     0
102
RTVSPost2010PropOp35
 70
     1
102
RTVSPost2010Prop36
280
     0
102
RTVSPost2010PropOp36
 70
     1
102
RTVSPost2010Prop37
 90
       50
102
RTVSPost2010PropOp37
 70
     1
102
RTVSPost2010Prop38
140
0.0
102
RTVSPost2010PropOp38
 70
     1
102
RTVSPost2010Prop39
140
1.0
102
RTVSPost2010PropOp39
 70
     1
102
RTVSPost2010Prop40
 90
        0
102
RTVSPost2010PropOp40
 70
     1
102
RTVSPost2010Prop41ColorIndex
 90
       18
102
RTVSPost2010Prop41ColorRGB
 90
        0
102
RTVSPost2010PropOp41
 70
     1
102
RTVSPost2010Prop42
 90
       50
102
RTVSPost2010PropOp42
 70
     1
102
RTVSPost2010Prop43
 90
        3
102
RTVSPost2010PropOp43
 70
     1
102
RTVSPost2010Prop44ColorIndex
 90
        5
102
RTVSPost2010Prop44ColorRGB
 90
      255
102
RTVSPost2010PropOp44
 70
     1
102
RTVSPost2010Prop45
280
     0
102
RTVSPost2010PropOp45
 70
     1
102
RTVSPost2010Prop46
 90
       50
102
RTVSPost2010PropOp46
 70
     1
102
RTVSPost2010Prop47
 90
       50
102
RTVSPost2010PropOp47
 70
     1
102
RTVSPost2010Prop48
 90
       50
102
RTVSPost2010PropOp48
 70
     1
102
RTVSPost2010Prop49
280
     0
102
RTVSPost2010PropOp49
 70
     1
102
RTVSPost2010Prop50
 90
       50
102
RTVSPost2010PropOp50
 70
     1
102
RTVSPost2010Prop51ColorIndex
 90
      256
102
RTVSPost2010Prop51ColorRGB
 90
-16777216
102
RTVSPost2010PropOp51
 70
     0
102
RTVSPost2010Prop52
140
1.0
102
RTVSPost2010PropOp52
 70
     0
102
RTVSPost2010Prop53
 90
        2
102
RTVSPost2010PropOp53
 70
     1
102
RTVSPost2010Prop54
  1
strokes_ogs.tif
102
RTVSPost2010PropOp54
 70
     1
102
RTVSPost2010Prop55
280
     0
102
RTVSPost2010PropOp55
 70
     1
102
RTVSPost2010Prop56
140
1.0
102
RTVSPost2010PropOp56
 70
     1
102
RTVSPost2010Prop57
140
1.0
102
RTVSPost2010PropOp57
 70
     1
  0
XRECORD
  5
249
102
{ACAD_REACTORS
330
248
102
}
330
248
100
AcDbXrecord
280
     1
102
RTVSPropertyOp0
 70
     1
102
RTVSPropertyOp1
 70
     1
102
RTVSPropertyOp2
 70
     1
102
RTVSPropertyOp3
 70
     1
102
RTVSPropertyOp4
 70
     1
102
RTVSPropertyOp5
 70
     1
102
RTVSPropertyOp6
 70
     1
102
RTVSPropertyOp7
 70
     1
102
RTVSPropertyOp8
 70
     1
102
RTVSPropertyOp9
 70
     1
102
RTVSPropertyOp10
 70
     1
102
RTVSPropertyOp11
 70
     1
102
RTVSPropertyOp12
 70
     1
102
RTVSPropertyOp13
 70
     1
102
RTVSPropertyOp14
 70
     1
102
RTVSPropertyOp15
 70
     1
102
RTVSPropertyOp16
 70
     1
102
RTVSPropertyOp17
 70
     1
102
RTVSPropertyOp18
 70
     1
102
RTVSPropertyOp19
 70
     1
102
RTVSPropertyOp20
 70
     1
102
RTVSPropertyOp21
 70
     1
102
RTVSPropertyOp22
 70
     1
102
RTVSPropertyOp23
 70
     1
102
RTVSPropertyOp24
 70
     1
102
RTVSPropertyOp25
 70
     1
102
RTVSPropertyOp26
 70
     1
102
RTVSPropertyOp27
 70
     1
102
RTVSPropertyOp28
 70
     1
102
RTVSPropertyOp29
 70
     1
102
RTVSPropertyOp30
 70
     1
102
RTVSPropertyOp31
 70
     1
102
RTVSPropertyOp32
 70
     1
102
RTVSPropertyOp33
 70
     1
102
RTVSPropertyOp34
 70
     1
102
RTVSPropertyOp35
 70
     1
102
RTVSPropertyOp36
 70
     1
102
RTVSPropertyOp37
 70
     1
102
RTVSPropertyOp38
 70
     1
102
RTVSPropertyOp39
 70
     1
102
RTVSPropertyOp40
 70
     1
102
RTVSPropertyOp41
 70
     1
102
RTVSPropertyOp42
 70
     1
102
RTVSPropertyOp43
 70
     1
102
RTVSPropertyOp44
 70
     1
102
RTVSPropertyOp45
 70
     1
102
RTVSPropertyOp46
 70
     1
102
RTVSPropertyOp47
 70
     1
102
RTVSPropertyOp48
 70
     1
102
RTVSPropertyOp49
 70
     1
102
RTVSPropertyOp50
 70
     1
102
RTVSPropertyOp51
 70
     0
102
RTVSPropertyOp52
 70
     0
102
RTVSPropertyOp53
 70
     1
102
RTVSPropertyOp54
 70
     1
102
RTVSPropertyOp55
 70
     1
102
RTVSPropertyOp56
 70
     1
102
RTVSPropertyOp57
 70
     1
102
RTVSPost2010Prop28
280
     0
102
RTVSPost2010PropOp28
 70
     1
102
RTVSPost2010Prop29
280
     1
102
RTVSPost2010PropOp29
 70
     1
102
RTVSPost2010Prop30
280
     1
102
RTVSPost2010PropOp30
 70
     1
102
RTVSPost2010Prop31
280
     0
102
RTVSPost2010PropOp31
 70
     1
102
RTVSPost2010Prop32
280
     0
102
RTVSPost2010PropOp32
 70
     1
102
RTVSPost2010Prop33
280
     0
102
RTVSPost2010PropOp33
 70
     1
102
RTVSPost2010Prop34
280
     0
102
RTVSPost2010PropOp34
 70
     1
102
RTVSPost2010Prop35
280
     0
102
RTVSPost2010PropOp35
 70
     1
102
RTVSPost2010Prop36
280
     0
102
RTVSPost2010PropOp36
 70
     1
102
RTVSPost2010Prop37
 90
       50
102
RTVSPost2010PropOp37
 70
     1
102
RTVSPost2010Prop38
140
0.0
102
RTVSPost2010PropOp38
 70
     1
102
RTVSPost2010Prop39
140
1.0
102
RTVSPost2010PropOp39
 70
     1
102
RTVSPost2010Prop40
 90
        0
102
RTVSPost2010PropOp40
 70
     1
102
RTVSPost2010Prop41ColorIndex
 90
       18
102
RTVSPost2010Prop41ColorRGB
 90
        0
102
RTVSPost2010PropOp41
 70
     1
102
RTVSPost2010Prop42
 90
       50
102
RTVSPost2010PropOp42
 70
     1
102
RTVSPost2010Prop43
 90
        3
102
RTVSPost2010PropOp43
 70
     1
102
RTVSPost2010Prop44ColorIndex
 90
        5
102
RTVSPost2010Prop44ColorRGB
 90
      255
102
RTVSPost2010PropOp44
 70
     1
102
RTVSPost2010Prop45
280
     0
102
RTVSPost2010PropOp45
 70
     1
102
RTVSPost2010Prop46
 90
       50
102
RTVSPost2010PropOp46
 70
     1
102
RTVSPost2010Prop47
 90
       50
102
RTVSPost2010PropOp47
 70
     1
102
RTVSPost2010Prop48
 90
       50
102
RTVSPost2010PropOp48
 70
     1
102
RTVSPost2010Prop49
280
     0
102
RTVSPost2010PropOp49
 70
     1
102
RTVSPost2010Prop50
 90
       50
102
RTVSPost2010PropOp50
 70
     1
102
RTVSPost2010Prop51ColorIndex
 90
      256
102
RTVSPost2010Prop51ColorRGB
 90
-16777216
102
RTVSPost2010PropOp51
 70
     0
102
RTVSPost2010Prop52
140
1.0
102
RTVSPost2010PropOp52
 70
     0
102
RTVSPost2010Prop53
 90
        2
102
RTVSPost2010PropOp53
 70
     1
102
RTVSPost2010Prop54
  1
strokes_ogs.tif
102
RTVSPost2010PropOp54
 70
     1
102
RTVSPost2010Prop55
280
     0
102
RTVSPost2010PropOp55
 70
     1
102
RTVSPost2010Prop56
140
1.0
102
RTVSPost2010PropOp56
 70
     1
102
RTVSPost2010Prop57
140
1.0
102
RTVSPost2010PropOp57
 70
     1
  0
XRECORD
  5
24B
102
{ACAD_REACTORS
330
24A
102
}
330
24A
100
AcDbXrecord
280
     1
102
RTVSPropertyOp0
 70
     1
102
RTVSPropertyOp1
 70
     1
102
RTVSPropertyOp2
 70
     1
102
RTVSPropertyOp3
 70
     1
102
RTVSPropertyOp4
 70
     1
102
RTVSPropertyOp5
 70
     1
102
RTVSPropertyOp6
 70
     1
102
RTVSPropertyOp7
 70
     1
102
RTVSPropertyOp8
 70
     1
102
RTVSPropertyOp9
 70
     1
102
RTVSPropertyOp10
 70
     1
102
RTVSPropertyOp11
 70
     1
102
RTVSPropertyOp12
 70
     1
102
RTVSPropertyOp13
 70
     1
102
RTVSPropertyOp14
 70
     1
102
RTVSPropertyOp15
 70
     1
102
RTVSPropertyOp16
 70
     1
102
RTVSPropertyOp17
 70
     1
102
RTVSPropertyOp18
 70
     1
102
RTVSPropertyOp19
 70
     1
102
RTVSPropertyOp20
 70
     1
102
RTVSPropertyOp21
 70
     1
102
RTVSPropertyOp22
 70
     1
102
RTVSPropertyOp23
 70
     1
102
RTVSPropertyOp24
 70
     1
102
RTVSPropertyOp25
 70
     1
102
RTVSPropertyOp26
 70
     1
102
RTVSPropertyOp27
 70
     1
102
RTVSPropertyOp28
 70
     1
102
RTVSPropertyOp29
 70
     1
102
RTVSPropertyOp30
 70
     1
102
RTVSPropertyOp31
 70
     1
102
RTVSPropertyOp32
 70
     1
102
RTVSPropertyOp33
 70
     1
102
RTVSPropertyOp34
 70
     1
102
RTVSPropertyOp35
 70
     1
102
RTVSPropertyOp36
 70
     1
102
RTVSPropertyOp37
 70
     1
102
RTVSPropertyOp38
 70
     1
102
RTVSPropertyOp39
 70
     1
102
RTVSPropertyOp40
 70
     1
102
RTVSPropertyOp41
 70
     1
102
RTVSPropertyOp42
 70
     1
102
RTVSPropertyOp43
 70
     1
102
RTVSPropertyOp44
 70
     1
102
RTVSPropertyOp45
 70
     1
102
RTVSPropertyOp46
 70
     1
102
RTVSPropertyOp47
 70
     1
102
RTVSPropertyOp48
 70
     1
102
RTVSPropertyOp49
 70
     1
102
RTVSPropertyOp50
 70
     1
102
RTVSPropertyOp51
 70
     0
102
RTVSPropertyOp52
 70
     0
102
RTVSPropertyOp53
 70
     1
102
RTVSPropertyOp54
 70
     1
102
RTVSPropertyOp55
 70
     1
102
RTVSPropertyOp56
 70
     1
102
RTVSPropertyOp57
 70
     1
102
RTVSPost2010Prop28
280
     0
102
RTVSPost2010PropOp28
 70
     1
102
RTVSPost2010Prop29
280
     1
102
RTVSPost2010PropOp29
 70
     1
102
RTVSPost2010Prop30
280
     1
102
RTVSPost2010PropOp30
 70
     1
102
RTVSPost2010Prop31
280
     0
102
RTVSPost2010PropOp31
 70
     1
102
RTVSPost2010Prop32
280
     0
102
RTVSPost2010PropOp32
 70
     1
102
RTVSPost2010Prop33
280
     0
102
RTVSPost2010PropOp33
 70
     1
102
RTVSPost2010Prop34
280
     0
102
RTVSPost2010PropOp34
 70
     1
102
RTVSPost2010Prop35
280
     0
102
RTVSPost2010PropOp35
 70
     1
102
RTVSPost2010Prop36
280
     0
102
RTVSPost2010PropOp36
 70
     1
102
RTVSPost2010Prop37
 90
       50
102
RTVSPost2010PropOp37
 70
     1
102
RTVSPost2010Prop38
140
0.0
102
RTVSPost2010PropOp38
 70
     1
102
RTVSPost2010Prop39
140
1.0
102
RTVSPost2010PropOp39
 70
     1
102
RTVSPost2010Prop40
 90
        0
102
RTVSPost2010PropOp40
 70
     1
102
RTVSPost2010Prop41ColorIndex
 90
       18
102
RTVSPost2010Prop41ColorRGB
 90
        0
102
RTVSPost2010PropOp41
 70
     1
102
RTVSPost2010Prop42
 90
       50
102
RTVSPost2010PropOp42
 70
     1
102
RTVSPost2010Prop43
 90
        3
102
RTVSPost2010PropOp43
 70
     1
102
RTVSPost2010Prop44ColorIndex
 90
        5
102
RTVSPost2010Prop44ColorRGB
 90
      255
102
RTVSPost2010PropOp44
 70
     1
102
RTVSPost2010Prop45
280
     0
102
RTVSPost2010PropOp45
 70
     1
102
RTVSPost2010Prop46
 90
       50
102
RTVSPost2010PropOp46
 70
     1
102
RTVSPost2010Prop47
 90
       50
102
RTVSPost2010PropOp47
 70
     1
102
RTVSPost2010Prop48
 90
       50
102
RTVSPost2010PropOp48
 70
     1
102
RTVSPost2010Prop49
280
     0
102
RTVSPost2010PropOp49
 70
     1
102
RTVSPost2010Prop50
 90
       50
102
RTVSPost2010PropOp50
 70
     1
102
RTVSPost2010Prop51ColorIndex
 90
      256
102
RTVSPost2010Prop51ColorRGB
 90
-16777216
102
RTVSPost2010PropOp51
 70
     0
102
RTVSPost2010Prop52
140
1.0
102
RTVSPost2010PropOp52
 70
     0
102
RTVSPost2010Prop53
 90
        2
102
RTVSPost2010PropOp53
 70
     1
102
RTVSPost2010Prop54
  1
strokes_ogs.tif
102
RTVSPost2010PropOp54
 70
     1
102
RTVSPost2010Prop55
280
     0
102
RTVSPost2010PropOp55
 70
     1
102
RTVSPost2010Prop56
140
1.0
102
RTVSPost2010PropOp56
 70
     1
102
RTVSPost2010Prop57
140
1.0
102
RTVSPost2010PropOp57
 70
     1
  0
XRECORD
  5
251
102
{ACAD_REACTORS
330
250
102
}
330
250
100
AcDbXrecord
280
     1
102
RTVSPropertyOp0
 70
     1
102
RTVSPropertyOp1
 70
     1
102
RTVSPropertyOp2
 70
     1
102
RTVSPropertyOp3
 70
     1
102
RTVSPropertyOp4
 70
     1
102
RTVSPropertyOp5
 70
     1
102
RTVSPropertyOp6
 70
     1
102
RTVSPropertyOp7
 70
     1
102
RTVSPropertyOp8
 70
     1
102
RTVSPropertyOp9
 70
     1
102
RTVSPropertyOp10
 70
     1
102
RTVSPropertyOp11
 70
     1
102
RTVSPropertyOp12
 70
     1
102
RTVSPropertyOp13
 70
     1
102
RTVSPropertyOp14
 70
     1
102
RTVSPropertyOp15
 70
     1
102
RTVSPropertyOp16
 70
     1
102
RTVSPropertyOp17
 70
     1
102
RTVSPropertyOp18
 70
     1
102
RTVSPropertyOp19
 70
     1
102
RTVSPropertyOp20
 70
     1
102
RTVSPropertyOp21
 70
     1
102
RTVSPropertyOp22
 70
     1
102
RTVSPropertyOp23
 70
     1
102
RTVSPropertyOp24
 70
     1
102
RTVSPropertyOp25
 70
     1
102
RTVSPropertyOp26
 70
     1
102
RTVSPropertyOp27
 70
     1
102
RTVSPropertyOp28
 70
     1
102
RTVSPropertyOp29
 70
     1
102
RTVSPropertyOp30
 70
     1
102
RTVSPropertyOp31
 70
     1
102
RTVSPropertyOp32
 70
     1
102
RTVSPropertyOp33
 70
     1
102
RTVSPropertyOp34
 70
     1
102
RTVSPropertyOp35
 70
     1
102
RTVSPropertyOp36
 70
     1
102
RTVSPropertyOp37
 70
     1
102
RTVSPropertyOp38
 70
     1
102
RTVSPropertyOp39
 70
     1
102
RTVSPropertyOp40
 70
     1
102
RTVSPropertyOp41
 70
     1
102
RTVSPropertyOp42
 70
     1
102
RTVSPropertyOp43
 70
     1
102
RTVSPropertyOp44
 70
     1
102
RTVSPropertyOp45
 70
     1
102
RTVSPropertyOp46
 70
     1
102
RTVSPropertyOp47
 70
     1
102
RTVSPropertyOp48
 70
     1
102
RTVSPropertyOp49
 70
     1
102
RTVSPropertyOp50
 70
     1
102
RTVSPropertyOp51
 70
     0
102
RTVSPropertyOp52
 70
     0
102
RTVSPropertyOp53
 70
     1
102
RTVSPropertyOp54
 70
     1
102
RTVSPropertyOp55
 70
     1
102
RTVSPropertyOp56
 70
     1
102
RTVSPropertyOp57
 70
     1
102
RTVSPost2010Prop28
280
     0
102
RTVSPost2010PropOp28
 70
     1
102
RTVSPost2010Prop29
280
     1
102
RTVSPost2010PropOp29
 70
     1
102
RTVSPost2010Prop30
280
     1
102
RTVSPost2010PropOp30
 70
     1
102
RTVSPost2010Prop31
280
     0
102
RTVSPost2010PropOp31
 70
     1
102
RTVSPost2010Prop32
280
     0
102
RTVSPost2010PropOp32
 70
     1
102
RTVSPost2010Prop33
280
     0
102
RTVSPost2010PropOp33
 70
     1
102
RTVSPost2010Prop34
280
     0
102
RTVSPost2010PropOp34
 70
     1
102
RTVSPost2010Prop35
280
     0
102
RTVSPost2010PropOp35
 70
     1
102
RTVSPost2010Prop36
280
     0
102
RTVSPost2010PropOp36
 70
     1
102
RTVSPost2010Prop37
 90
       50
102
RTVSPost2010PropOp37
 70
     1
102
RTVSPost2010Prop38
140
0.0
102
RTVSPost2010PropOp38
 70
     1
102
RTVSPost2010Prop39
140
1.0
102
RTVSPost2010PropOp39
 70
     1
102
RTVSPost2010Prop40
 90
        0
102
RTVSPost2010PropOp40
 70
     1
102
RTVSPost2010Prop41ColorIndex
 90
       18
102
RTVSPost2010Prop41ColorRGB
 90
        0
102
RTVSPost2010PropOp41
 70
     1
102
RTVSPost2010Prop42
 90
       50
102
RTVSPost2010PropOp42
 70
     1
102
RTVSPost2010Prop43
 90
        3
102
RTVSPost2010PropOp43
 70
     1
102
RTVSPost2010Prop44ColorIndex
 90
        5
102
RTVSPost2010Prop44ColorRGB
 90
      255
102
RTVSPost2010PropOp44
 70
     1
102
RTVSPost2010Prop45
280
     0
102
RTVSPost2010PropOp45
 70
     1
102
RTVSPost2010Prop46
 90
       50
102
RTVSPost2010PropOp46
 70
     1
102
RTVSPost2010Prop47
 90
       50
102
RTVSPost2010PropOp47
 70
     1
102
RTVSPost2010Prop48
 90
       50
102
RTVSPost2010PropOp48
 70
     1
102
RTVSPost2010Prop49
280
     0
102
RTVSPost2010PropOp49
 70
     1
102
RTVSPost2010Prop50
 90
       50
102
RTVSPost2010PropOp50
 70
     1
102
RTVSPost2010Prop51ColorIndex
 90
      256
102
RTVSPost2010Prop51ColorRGB
 90
-16777216
102
RTVSPost2010PropOp51
 70
     0
102
RTVSPost2010Prop52
140
1.0
102
RTVSPost2010PropOp52
 70
     0
102
RTVSPost2010Prop53
 90
        2
102
RTVSPost2010PropOp53
 70
     1
102
RTVSPost2010Prop54
  1
strokes_ogs.tif
102
RTVSPost2010PropOp54
 70
     1
102
RTVSPost2010Prop55
280
     0
102
RTVSPost2010PropOp55
 70
     1
102
RTVSPost2010Prop56
140
1.0
102
RTVSPost2010PropOp56
 70
     1
102
RTVSPost2010Prop57
140
1.0
102
RTVSPost2010PropOp57
 70
     1
  0
XRECORD
  5
265
102
{ACAD_REACTORS
330
264
102
}
330
264
100
AcDbXrecord
280
     1
102
RTVSPropertyOp0
 70
     0
102
RTVSPropertyOp1
 70
     0
102
RTVSPropertyOp2
 70
     0
102
RTVSPropertyOp3
 70
     0
102
RTVSPropertyOp4
 70
     0
102
RTVSPropertyOp5
 70
     0
102
RTVSPropertyOp6
 70
     0
102
RTVSPropertyOp7
 70
     0
102
RTVSPropertyOp8
 70
     0
102
RTVSPropertyOp9
 70
     0
102
RTVSPropertyOp10
 70
     0
102
RTVSPropertyOp11
 70
     0
102
RTVSPropertyOp12
 70
     0
102
RTVSPropertyOp13
 70
     0
102
RTVSPropertyOp14
 70
     2
102
RTVSPropertyOp15
 70
     0
102
RTVSPropertyOp16
 70
     0
102
RTVSPropertyOp17
 70
     0
102
RTVSPropertyOp18
 70
     0
102
RTVSPropertyOp19
 70
     0
102
RTVSPropertyOp20
 70
     0
102
RTVSPropertyOp21
 70
     0
102
RTVSPropertyOp22
 70
     0
102
RTVSPropertyOp23
 70
     0
102
RTVSPropertyOp24
 70
     0
102
RTVSPropertyOp25
 70
     0
102
RTVSPropertyOp26
 70
     0
102
RTVSPropertyOp27
 70
     0
102
RTVSPropertyOp28
 70
     0
102
RTVSPropertyOp29
 70
     0
102
RTVSPropertyOp30
 70
     0
102
RTVSPropertyOp31
 70
     0
102
RTVSPropertyOp32
 70
     0
102
RTVSPropertyOp33
 70
     0
102
RTVSPropertyOp34
 70
     0
102
RTVSPropertyOp35
 70
     0
102
RTVSPropertyOp36
 70
     0
102
RTVSPropertyOp37
 70
     0
102
RTVSPropertyOp38
 70
     0
102
RTVSPropertyOp39
 70
     0
102
RTVSPropertyOp40
 70
     0
102
RTVSPropertyOp41
 70
     0
102
RTVSPropertyOp42
 70
     0
102
RTVSPropertyOp43
 70
     0
102
RTVSPropertyOp44
 70
     0
102
RTVSPropertyOp45
 70
     0
102
RTVSPropertyOp46
 70
     0
102
RTVSPropertyOp47
 70
     0
102
RTVSPropertyOp48
 70
     0
102
RTVSPropertyOp49
 70
     0
102
RTVSPropertyOp50
 70
     0
102
RTVSPropertyOp51
 70
     0
102
RTVSPropertyOp52
 70
     0
102
RTVSPropertyOp53
 70
     0
102
RTVSPropertyOp54
 70
     0
102
RTVSPropertyOp55
 70
     0
102
RTVSPropertyOp56
 70
     0
102
RTVSPropertyOp57
 70
     0
102
RTVSPost2010Prop28
280
     0
102
RTVSPost2010PropOp28
 70
     0
102
RTVSPost2010Prop29
280
     1
102
RTVSPost2010PropOp29
 70
     0
102
RTVSPost2010Prop30
280
     1
102
RTVSPost2010PropOp30
 70
     0
102
RTVSPost2010Prop31
280
     0
102
RTVSPost2010PropOp31
 70
     0
102
RTVSPost2010Prop32
280
     0
102
RTVSPost2010PropOp32
 70
     0
102
RTVSPost2010Prop33
280
     0
102
RTVSPost2010PropOp33
 70
     0
102
RTVSPost2010Prop34
280
     0
102
RTVSPost2010PropOp34
 70
     0
102
RTVSPost2010Prop35
280
     0
102
RTVSPost2010PropOp35
 70
     0
102
RTVSPost2010Prop36
280
     0
102
RTVSPost2010PropOp36
 70
     0
102
RTVSPost2010Prop37
 90
       50
102
RTVSPost2010PropOp37
 70
     0
102
RTVSPost2010Prop38
140
0.0
102
RTVSPost2010PropOp38
 70
     0
102
RTVSPost2010Prop39
140
1.0
102
RTVSPost2010PropOp39
 70
     0
102
RTVSPost2010Prop40
 90
        0
102
RTVSPost2010PropOp40
 70
     0
102
RTVSPost2010Prop41ColorIndex
 90
       18
102
RTVSPost2010Prop41ColorRGB
 90
        0
102
RTVSPost2010PropOp41
 70
     0
102
RTVSPost2010Prop42
 90
       50
102
RTVSPost2010PropOp42
 70
     0
102
RTVSPost2010Prop43
 90
        3
102
RTVSPost2010PropOp43
 70
     0
102
RTVSPost2010Prop44ColorIndex
 90
        5
102
RTVSPost2010Prop44ColorRGB
 90
      255
102
RTVSPost2010PropOp44
 70
     0
102
RTVSPost2010Prop45
280
     0
102
RTVSPost2010PropOp45
 70
     0
102
RTVSPost2010Prop46
 90
       50
102
RTVSPost2010PropOp46
 70
     0
102
RTVSPost2010Prop47
 90
       50
102
RTVSPost2010PropOp47
 70
     0
102
RTVSPost2010Prop48
 90
       50
102
RTVSPost2010PropOp48
 70
     0
102
RTVSPost2010Prop49
280
     0
102
RTVSPost2010PropOp49
 70
     0
102
RTVSPost2010Prop50
 90
       50
102
RTVSPost2010PropOp50
 70
     0
102
RTVSPost2010Prop51ColorIndex
 90
      256
102
RTVSPost2010Prop51ColorRGB
 90
-16777216
102
RTVSPost2010PropOp51
 70
     0
102
RTVSPost2010Prop52
140
1.0
102
RTVSPost2010PropOp52
 70
     0
102
RTVSPost2010Prop53
 90
        2
102
RTVSPost2010PropOp53
 70
     0
102
RTVSPost2010Prop54
  1
strokes_ogs.tif
102
RTVSPost2010PropOp54
 70
     0
102
RTVSPost2010Prop55
280
     0
102
RTVSPost2010PropOp55
 70
     0
102
RTVSPost2010Prop56
140
1.0
102
RTVSPost2010PropOp56
 70
     0
102
RTVSPost2010Prop57
140
1.0
102
RTVSPost2010PropOp57
 70
     0
  0
XRECORD
  5
25F
102
{ACAD_REACTORS
330
25E
102
}
330
25E
100
AcDbXrecord
280
     1
102
RTVSPropertyOp0
 70
     1
102
RTVSPropertyOp1
 70
     1
102
RTVSPropertyOp2
 70
     1
102
RTVSPropertyOp3
 70
     1
102
RTVSPropertyOp4
 70
     1
102
RTVSPropertyOp5
 70
     1
102
RTVSPropertyOp6
 70
     1
102
RTVSPropertyOp7
 70
     1
102
RTVSPropertyOp8
 70
     1
102
RTVSPropertyOp9
 70
     1
102
RTVSPropertyOp10
 70
     1
102
RTVSPropertyOp11
 70
     1
102
RTVSPropertyOp12
 70
     1
102
RTVSPropertyOp13
 70
     1
102
RTVSPropertyOp14
 70
     1
102
RTVSPropertyOp15
 70
     1
102
RTVSPropertyOp16
 70
     1
102
RTVSPropertyOp17
 70
     1
102
RTVSPropertyOp18
 70
     1
102
RTVSPropertyOp19
 70
     1
102
RTVSPropertyOp20
 70
     1
102
RTVSPropertyOp21
 70
     1
102
RTVSPropertyOp22
 70
     1
102
RTVSPropertyOp23
 70
     1
102
RTVSPropertyOp24
 70
     1
102
RTVSPropertyOp25
 70
     1
102
RTVSPropertyOp26
 70
     1
102
RTVSPropertyOp27
 70
     1
102
RTVSPropertyOp28
 70
     1
102
RTVSPropertyOp29
 70
     1
102
RTVSPropertyOp30
 70
     1
102
RTVSPropertyOp31
 70
     1
102
RTVSPropertyOp32
 70
     1
102
RTVSPropertyOp33
 70
     1
102
RTVSPropertyOp34
 70
     1
102
RTVSPropertyOp35
 70
     1
102
RTVSPropertyOp36
 70
     1
102
RTVSPropertyOp37
 70
     1
102
RTVSPropertyOp38
 70
     1
102
RTVSPropertyOp39
 70
     1
102
RTVSPropertyOp40
 70
     1
102
RTVSPropertyOp41
 70
     1
102
RTVSPropertyOp42
 70
     1
102
RTVSPropertyOp43
 70
     1
102
RTVSPropertyOp44
 70
     1
102
RTVSPropertyOp45
 70
     1
102
RTVSPropertyOp46
 70
     1
102
RTVSPropertyOp47
 70
     1
102
RTVSPropertyOp48
 70
     1
102
RTVSPropertyOp49
 70
     1
102
RTVSPropertyOp50
 70
     1
102
RTVSPropertyOp51
 70
     0
102
RTVSPropertyOp52
 70
     0
102
RTVSPropertyOp53
 70
     1
102
RTVSPropertyOp54
 70
     1
102
RTVSPropertyOp55
 70
     1
102
RTVSPropertyOp56
 70
     1
102
RTVSPropertyOp57
 70
     1
102
RTVSPost2010Prop28
280
     0
102
RTVSPost2010PropOp28
 70
     1
102
RTVSPost2010Prop29
280
     1
102
RTVSPost2010PropOp29
 70
     1
102
RTVSPost2010Prop30
280
     1
102
RTVSPost2010PropOp30
 70
     1
102
RTVSPost2010Prop31
280
     0
102
RTVSPost2010PropOp31
 70
     1
102
RTVSPost2010Prop32
280
     0
102
RTVSPost2010PropOp32
 70
     1
102
RTVSPost2010Prop33
280
     0
102
RTVSPost2010PropOp33
 70
     1
102
RTVSPost2010Prop34
280
     0
102
RTVSPost2010PropOp34
 70
     1
102
RTVSPost2010Prop35
280
     0
102
RTVSPost2010PropOp35
 70
     1
102
RTVSPost2010Prop36
280
     0
102
RTVSPost2010PropOp36
 70
     1
102
RTVSPost2010Prop37
 90
       50
102
RTVSPost2010PropOp37
 70
     1
102
RTVSPost2010Prop38
140
0.0
102
RTVSPost2010PropOp38
 70
     1
102
RTVSPost2010Prop39
140
1.0
102
RTVSPost2010PropOp39
 70
     1
102
RTVSPost2010Prop40
 90
        0
102
RTVSPost2010PropOp40
 70
     1
102
RTVSPost2010Prop41ColorIndex
 90
       18
102
RTVSPost2010Prop41ColorRGB
 90
        0
102
RTVSPost2010PropOp41
 70
     1
102
RTVSPost2010Prop42
 90
       50
102
RTVSPost2010PropOp42
 70
     1
102
RTVSPost2010Prop43
 90
        3
102
RTVSPost2010PropOp43
 70
     1
102
RTVSPost2010Prop44ColorIndex
 90
        5
102
RTVSPost2010Prop44ColorRGB
 90
      255
102
RTVSPost2010PropOp44
 70
     1
102
RTVSPost2010Prop45
280
     0
102
RTVSPost2010PropOp45
 70
     1
102
RTVSPost2010Prop46
 90
       50
102
RTVSPost2010PropOp46
 70
     1
102
RTVSPost2010Prop47
 90
       50
102
RTVSPost2010PropOp47
 70
     1
102
RTVSPost2010Prop48
 90
       50
102
RTVSPost2010PropOp48
 70
     1
102
RTVSPost2010Prop49
280
     0
102
RTVSPost2010PropOp49
 70
     1
102
RTVSPost2010Prop50
 90
       50
102
RTVSPost2010PropOp50
 70
     1
102
RTVSPost2010Prop51ColorIndex
 90
      256
102
RTVSPost2010Prop51ColorRGB
 90
-16777216
102
RTVSPost2010PropOp51
 70
     0
102
RTVSPost2010Prop52
140
1.0
102
RTVSPost2010PropOp52
 70
     0
102
RTVSPost2010Prop53
 90
        2
102
RTVSPost2010PropOp53
 70
     1
102
RTVSPost2010Prop54
  1
strokes_ogs.tif
102
RTVSPost2010PropOp54
 70
     1
102
RTVSPost2010Prop55
280
     0
102
RTVSPost2010PropOp55
 70
     1
102
RTVSPost2010Prop56
140
1.0
102
RTVSPost2010PropOp56
 70
     1
102
RTVSPost2010Prop57
140
1.0
102
RTVSPost2010PropOp57
 70
     1
  0
XRECORD
  5
267
102
{ACAD_REACTORS
330
266
102
}
330
266
100
AcDbXrecord
280
     1
102
RTVSPropertyOp0
 70
     0
102
RTVSPropertyOp1
 70
     0
102
RTVSPropertyOp2
 70
     0
102
RTVSPropertyOp3
 70
     0
102
RTVSPropertyOp4
 70
     0
102
RTVSPropertyOp5
 70
     0
102
RTVSPropertyOp6
 70
     0
102
RTVSPropertyOp7
 70
     0
102
RTVSPropertyOp8
 70
     0
102
RTVSPropertyOp9
 70
     0
102
RTVSPropertyOp10
 70
     0
102
RTVSPropertyOp11
 70
     0
102
RTVSPropertyOp12
 70
     0
102
RTVSPropertyOp13
 70
     0
102
RTVSPropertyOp14
 70
     2
102
RTVSPropertyOp15
 70
     0
102
RTVSPropertyOp16
 70
     0
102
RTVSPropertyOp17
 70
     0
102
RTVSPropertyOp18
 70
     0
102
RTVSPropertyOp19
 70
     0
102
RTVSPropertyOp20
 70
     0
102
RTVSPropertyOp21
 70
     0
102
RTVSPropertyOp22
 70
     0
102
RTVSPropertyOp23
 70
     0
102
RTVSPropertyOp24
 70
     0
102
RTVSPropertyOp25
 70
     0
102
RTVSPropertyOp26
 70
     0
102
RTVSPropertyOp27
 70
     0
102
RTVSPropertyOp28
 70
     0
102
RTVSPropertyOp29
 70
     0
102
RTVSPropertyOp30
 70
     0
102
RTVSPropertyOp31
 70
     0
102
RTVSPropertyOp32
 70
     0
102
RTVSPropertyOp33
 70
     0
102
RTVSPropertyOp34
 70
     0
102
RTVSPropertyOp35
 70
     0
102
RTVSPropertyOp36
 70
     0
102
RTVSPropertyOp37
 70
     0
102
RTVSPropertyOp38
 70
     0
102
RTVSPropertyOp39
 70
     0
102
RTVSPropertyOp40
 70
     0
102
RTVSPropertyOp41
 70
     0
102
RTVSPropertyOp42
 70
     0
102
RTVSPropertyOp43
 70
     0
102
RTVSPropertyOp44
 70
     0
102
RTVSPropertyOp45
 70
     0
102
RTVSPropertyOp46
 70
     0
102
RTVSPropertyOp47
 70
     0
102
RTVSPropertyOp48
 70
     0
102
RTVSPropertyOp49
 70
     0
102
RTVSPropertyOp50
 70
     0
102
RTVSPropertyOp51
 70
     0
102
RTVSPropertyOp52
 70
     0
102
RTVSPropertyOp53
 70
     0
102
RTVSPropertyOp54
 70
     0
102
RTVSPropertyOp55
 70
     0
102
RTVSPropertyOp56
 70
     0
102
RTVSPropertyOp57
 70
     0
102
RTVSPost2010Prop28
280
     0
102
RTVSPost2010PropOp28
 70
     0
102
RTVSPost2010Prop29
280
     1
102
RTVSPost2010PropOp29
 70
     0
102
RTVSPost2010Prop30
280
     1
102
RTVSPost2010PropOp30
 70
     0
102
RTVSPost2010Prop31
280
     0
102
RTVSPost2010PropOp31
 70
     0
102
RTVSPost2010Prop32
280
     0
102
RTVSPost2010PropOp32
 70
     0
102
RTVSPost2010Prop33
280
     0
102
RTVSPost2010PropOp33
 70
     0
102
RTVSPost2010Prop34
280
     0
102
RTVSPost2010PropOp34
 70
     0
102
RTVSPost2010Prop35
280
     0
102
RTVSPost2010PropOp35
 70
     0
102
RTVSPost2010Prop36
280
     0
102
RTVSPost2010PropOp36
 70
     0
102
RTVSPost2010Prop37
 90
       50
102
RTVSPost2010PropOp37
 70
     0
102
RTVSPost2010Prop38
140
0.0
102
RTVSPost2010PropOp38
 70
     0
102
RTVSPost2010Prop39
140
1.0
102
RTVSPost2010PropOp39
 70
     0
102
RTVSPost2010Prop40
 90
        0
102
RTVSPost2010PropOp40
 70
     0
102
RTVSPost2010Prop41ColorIndex
 90
       18
102
RTVSPost2010Prop41ColorRGB
 90
        0
102
RTVSPost2010PropOp41
 70
     0
102
RTVSPost2010Prop42
 90
       50
102
RTVSPost2010PropOp42
 70
     0
102
RTVSPost2010Prop43
 90
        3
102
RTVSPost2010PropOp43
 70
     0
102
RTVSPost2010Prop44ColorIndex
 90
        5
102
RTVSPost2010Prop44ColorRGB
 90
      255
102
RTVSPost2010PropOp44
 70
     0
102
RTVSPost2010Prop45
280
     0
102
RTVSPost2010PropOp45
 70
     0
102
RTVSPost2010Prop46
 90
       50
102
RTVSPost2010PropOp46
 70
     0
102
RTVSPost2010Prop47
 90
       50
102
RTVSPost2010PropOp47
 70
     0
102
RTVSPost2010Prop48
 90
       50
102
RTVSPost2010PropOp48
 70
     0
102
RTVSPost2010Prop49
280
     0
102
RTVSPost2010PropOp49
 70
     0
102
RTVSPost2010Prop50
 90
       50
102
RTVSPost2010PropOp50
 70
     0
102
RTVSPost2010Prop51ColorIndex
 90
      256
102
RTVSPost2010Prop51ColorRGB
 90
-16777216
102
RTVSPost2010PropOp51
 70
     0
102
RTVSPost2010Prop52
140
1.0
102
RTVSPost2010PropOp52
 70
     0
102
RTVSPost2010Prop53
 90
        2
102
RTVSPost2010PropOp53
 70
     0
102
RTVSPost2010Prop54
  1
strokes_ogs.tif
102
RTVSPost2010PropOp54
 70
     0
102
RTVSPost2010Prop55
280
     0
102
RTVSPost2010PropOp55
 70
     0
102
RTVSPost2010Prop56
140
1.0
102
RTVSPost2010PropOp56
 70
     0
102
RTVSPost2010Prop57
140
1.0
102
RTVSPost2010PropOp57
 70
     0
  0
XRECORD
  5
255
102
{ACAD_REACTORS
330
254
102
}
330
254
100
AcDbXrecord
280
     1
102
RTVSPropertyOp0
 70
     1
102
RTVSPropertyOp1
 70
     1
102
RTVSPropertyOp2
 70
     1
102
RTVSPropertyOp3
 70
     1
102
RTVSPropertyOp4
 70
     1
102
RTVSPropertyOp5
 70
     1
102
RTVSPropertyOp6
 70
     1
102
RTVSPropertyOp7
 70
     1
102
RTVSPropertyOp8
 70
     1
102
RTVSPropertyOp9
 70
     1
102
RTVSPropertyOp10
 70
     1
102
RTVSPropertyOp11
 70
     1
102
RTVSPropertyOp12
 70
     1
102
RTVSPropertyOp13
 70
     1
102
RTVSPropertyOp14
 70
     1
102
RTVSPropertyOp15
 70
     1
102
RTVSPropertyOp16
 70
     1
102
RTVSPropertyOp17
 70
     1
102
RTVSPropertyOp18
 70
     1
102
RTVSPropertyOp19
 70
     1
102
RTVSPropertyOp20
 70
     1
102
RTVSPropertyOp21
 70
     1
102
RTVSPropertyOp22
 70
     1
102
RTVSPropertyOp23
 70
     1
102
RTVSPropertyOp24
 70
     1
102
RTVSPropertyOp25
 70
     1
102
RTVSPropertyOp26
 70
     1
102
RTVSPropertyOp27
 70
     1
102
RTVSPropertyOp28
 70
     1
102
RTVSPropertyOp29
 70
     1
102
RTVSPropertyOp30
 70
     1
102
RTVSPropertyOp31
 70
     1
102
RTVSPropertyOp32
 70
     1
102
RTVSPropertyOp33
 70
     1
102
RTVSPropertyOp34
 70
     1
102
RTVSPropertyOp35
 70
     1
102
RTVSPropertyOp36
 70
     1
102
RTVSPropertyOp37
 70
     1
102
RTVSPropertyOp38
 70
     1
102
RTVSPropertyOp39
 70
     1
102
RTVSPropertyOp40
 70
     1
102
RTVSPropertyOp41
 70
     1
102
RTVSPropertyOp42
 70
     1
102
RTVSPropertyOp43
 70
     1
102
RTVSPropertyOp44
 70
     1
102
RTVSPropertyOp45
 70
     1
102
RTVSPropertyOp46
 70
     1
102
RTVSPropertyOp47
 70
     1
102
RTVSPropertyOp48
 70
     1
102
RTVSPropertyOp49
 70
     1
102
RTVSPropertyOp50
 70
     1
102
RTVSPropertyOp51
 70
     0
102
RTVSPropertyOp52
 70
     0
102
RTVSPropertyOp53
 70
     1
102
RTVSPropertyOp54
 70
     1
102
RTVSPropertyOp55
 70
     1
102
RTVSPropertyOp56
 70
     1
102
RTVSPropertyOp57
 70
     1
102
RTVSPost2010Prop28
280
     0
102
RTVSPost2010PropOp28
 70
     1
102
RTVSPost2010Prop29
280
     1
102
RTVSPost2010PropOp29
 70
     1
102
RTVSPost2010Prop30
280
     1
102
RTVSPost2010PropOp30
 70
     1
102
RTVSPost2010Prop31
280
     0
102
RTVSPost2010PropOp31
 70
     1
102
RTVSPost2010Prop32
280
     0
102
RTVSPost2010PropOp32
 70
     1
102
RTVSPost2010Prop33
280
     0
102
RTVSPost2010PropOp33
 70
     1
102
RTVSPost2010Prop34
280
     0
102
RTVSPost2010PropOp34
 70
     1
102
RTVSPost2010Prop35
280
     0
102
RTVSPost2010PropOp35
 70
     1
102
RTVSPost2010Prop36
280
     0
102
RTVSPost2010PropOp36
 70
     1
102
RTVSPost2010Prop37
 90
       50
102
RTVSPost2010PropOp37
 70
     1
102
RTVSPost2010Prop38
140
0.0
102
RTVSPost2010PropOp38
 70
     1
102
RTVSPost2010Prop39
140
1.0
102
RTVSPost2010PropOp39
 70
     1
102
RTVSPost2010Prop40
 90
        0
102
RTVSPost2010PropOp40
 70
     1
102
RTVSPost2010Prop41ColorIndex
 90
       18
102
RTVSPost2010Prop41ColorRGB
 90
        0
102
RTVSPost2010PropOp41
 70
     1
102
RTVSPost2010Prop42
 90
       50
102
RTVSPost2010PropOp42
 70
     1
102
RTVSPost2010Prop43
 90
        3
102
RTVSPost2010PropOp43
 70
     1
102
RTVSPost2010Prop44ColorIndex
 90
        5
102
RTVSPost2010Prop44ColorRGB
 90
      255
102
RTVSPost2010PropOp44
 70
     1
102
RTVSPost2010Prop45
280
     0
102
RTVSPost2010PropOp45
 70
     1
102
RTVSPost2010Prop46
 90
       50
102
RTVSPost2010PropOp46
 70
     1
102
RTVSPost2010Prop47
 90
       50
102
RTVSPost2010PropOp47
 70
     1
102
RTVSPost2010Prop48
 90
       50
102
RTVSPost2010PropOp48
 70
     1
102
RTVSPost2010Prop49
280
     0
102
RTVSPost2010PropOp49
 70
     1
102
RTVSPost2010Prop50
 90
       50
102
RTVSPost2010PropOp50
 70
     1
102
RTVSPost2010Prop51ColorIndex
 90
      256
102
RTVSPost2010Prop51ColorRGB
 90
-16777216
102
RTVSPost2010PropOp51
 70
     0
102
RTVSPost2010Prop52
140
1.0
102
RTVSPost2010PropOp52
 70
     0
102
RTVSPost2010Prop53
 90
        2
102
RTVSPost2010PropOp53
 70
     1
102
RTVSPost2010Prop54
  1
strokes_ogs.tif
102
RTVSPost2010PropOp54
 70
     1
102
RTVSPost2010Prop55
280
     0
102
RTVSPost2010PropOp55
 70
     1
102
RTVSPost2010Prop56
140
1.0
102
RTVSPost2010PropOp56
 70
     1
102
RTVSPost2010Prop57
140
1.0
102
RTVSPost2010PropOp57
 70
     1
  0
XRECORD
  5
273
102
{ACAD_REACTORS
330
272
102
}
330
272
100
AcDbXrecord
280
     1
102
RTVSPropertyOp0
 70
     1
102
RTVSPropertyOp1
 70
     1
102
RTVSPropertyOp2
 70
     1
102
RTVSPropertyOp3
 70
     1
102
RTVSPropertyOp4
 70
     1
102
RTVSPropertyOp5
 70
     1
102
RTVSPropertyOp6
 70
     1
102
RTVSPropertyOp7
 70
     1
102
RTVSPropertyOp8
 70
     1
102
RTVSPropertyOp9
 70
     1
102
RTVSPropertyOp10
 70
     1
102
RTVSPropertyOp11
 70
     1
102
RTVSPropertyOp12
 70
     1
102
RTVSPropertyOp13
 70
     1
102
RTVSPropertyOp14
 70
     1
102
RTVSPropertyOp15
 70
     1
102
RTVSPropertyOp16
 70
     1
102
RTVSPropertyOp17
 70
     1
102
RTVSPropertyOp18
 70
     1
102
RTVSPropertyOp19
 70
     1
102
RTVSPropertyOp20
 70
     1
102
RTVSPropertyOp21
 70
     1
102
RTVSPropertyOp22
 70
     1
102
RTVSPropertyOp23
 70
     1
102
RTVSPropertyOp24
 70
     1
102
RTVSPropertyOp25
 70
     1
102
RTVSPropertyOp26
 70
     1
102
RTVSPropertyOp27
 70
     1
102
RTVSPropertyOp28
 70
     1
102
RTVSPropertyOp29
 70
     1
102
RTVSPropertyOp30
 70
     1
102
RTVSPropertyOp31
 70
     1
102
RTVSPropertyOp32
 70
     1
102
RTVSPropertyOp33
 70
     1
102
RTVSPropertyOp34
 70
     1
102
RTVSPropertyOp35
 70
     1
102
RTVSPropertyOp36
 70
     1
102
RTVSPropertyOp37
 70
     1
102
RTVSPropertyOp38
 70
     1
102
RTVSPropertyOp39
 70
     1
102
RTVSPropertyOp40
 70
     1
102
RTVSPropertyOp41
 70
     1
102
RTVSPropertyOp42
 70
     1
102
RTVSPropertyOp43
 70
     1
102
RTVSPropertyOp44
 70
     1
102
RTVSPropertyOp45
 70
     1
102
RTVSPropertyOp46
 70
     1
102
RTVSPropertyOp47
 70
     1
102
RTVSPropertyOp48
 70
     1
102
RTVSPropertyOp49
 70
     1
102
RTVSPropertyOp50
 70
     1
102
RTVSPropertyOp51
 70
     0
102
RTVSPropertyOp52
 70
     0
102
RTVSPropertyOp53
 70
     1
102
RTVSPropertyOp54
 70
     1
102
RTVSPropertyOp55
 70
     1
102
RTVSPropertyOp56
 70
     1
102
RTVSPropertyOp57
 70
     1
102
RTVSPost2010Prop28
280
     0
102
RTVSPost2010PropOp28
 70
     1
102
RTVSPost2010Prop29
280
     1
102
RTVSPost2010PropOp29
 70
     1
102
RTVSPost2010Prop30
280
     1
102
RTVSPost2010PropOp30
 70
     1
102
RTVSPost2010Prop31
280
     0
102
RTVSPost2010PropOp31
 70
     1
102
RTVSPost2010Prop32
280
     0
102
RTVSPost2010PropOp32
 70
     1
102
RTVSPost2010Prop33
280
     0
102
RTVSPost2010PropOp33
 70
     1
102
RTVSPost2010Prop34
280
     0
102
RTVSPost2010PropOp34
 70
     1
102
RTVSPost2010Prop35
280
     0
102
RTVSPost2010PropOp35
 70
     1
102
RTVSPost2010Prop36
280
     0
102
RTVSPost2010PropOp36
 70
     1
102
RTVSPost2010Prop37
 90
       50
102
RTVSPost2010PropOp37
 70
     1
102
RTVSPost2010Prop38
140
0.0
102
RTVSPost2010PropOp38
 70
     1
102
RTVSPost2010Prop39
140
1.0
102
RTVSPost2010PropOp39
 70
     1
102
RTVSPost2010Prop40
 90
        0
102
RTVSPost2010PropOp40
 70
     1
102
RTVSPost2010Prop41ColorIndex
 90
       18
102
RTVSPost2010Prop41ColorRGB
 90
        0
102
RTVSPost2010PropOp41
 70
     1
102
RTVSPost2010Prop42
 90
       50
102
RTVSPost2010PropOp42
 70
     1
102
RTVSPost2010Prop43
 90
        3
102
RTVSPost2010PropOp43
 70
     1
102
RTVSPost2010Prop44ColorIndex
 90
        5
102
RTVSPost2010Prop44ColorRGB
 90
      255
102
RTVSPost2010PropOp44
 70
     1
102
RTVSPost2010Prop45
280
     0
102
RTVSPost2010PropOp45
 70
     1
102
RTVSPost2010Prop46
 90
       50
102
RTVSPost2010PropOp46
 70
     1
102
RTVSPost2010Prop47
 90
       50
102
RTVSPost2010PropOp47
 70
     1
102
RTVSPost2010Prop48
 90
       50
102
RTVSPost2010PropOp48
 70
     1
102
RTVSPost2010Prop49
280
     0
102
RTVSPost2010PropOp49
 70
     1
102
RTVSPost2010Prop50
 90
       50
102
RTVSPost2010PropOp50
 70
     1
102
RTVSPost2010Prop51ColorIndex
 90
      256
102
RTVSPost2010Prop51ColorRGB
 90
-16777216
102
RTVSPost2010PropOp51
 70
     0
102
RTVSPost2010Prop52
140
1.0
102
RTVSPost2010PropOp52
 70
     0
102
RTVSPost2010Prop53
 90
        2
102
RTVSPost2010PropOp53
 70
     1
102
RTVSPost2010Prop54
  1
strokes_ogs.tif
102
RTVSPost2010PropOp54
 70
     1
102
RTVSPost2010Prop55
280
     0
102
RTVSPost2010PropOp55
 70
     1
102
RTVSPost2010Prop56
140
1.0
102
RTVSPost2010PropOp56
 70
     1
102
RTVSPost2010Prop57
140
1.0
102
RTVSPost2010PropOp57
 70
     1
  0
XRECORD
  5
271
102
{ACAD_REACTORS
330
270
102
}
330
270
100
AcDbXrecord
280
     1
102
RTVSPropertyOp0
 70
     1
102
RTVSPropertyOp1
 70
     1
102
RTVSPropertyOp2
 70
     1
102
RTVSPropertyOp3
 70
     1
102
RTVSPropertyOp4
 70
     1
102
RTVSPropertyOp5
 70
     1
102
RTVSPropertyOp6
 70
     1
102
RTVSPropertyOp7
 70
     1
102
RTVSPropertyOp8
 70
     1
102
RTVSPropertyOp9
 70
     1
102
RTVSPropertyOp10
 70
     1
102
RTVSPropertyOp11
 70
     1
102
RTVSPropertyOp12
 70
     1
102
RTVSPropertyOp13
 70
     1
102
RTVSPropertyOp14
 70
     1
102
RTVSPropertyOp15
 70
     1
102
RTVSPropertyOp16
 70
     1
102
RTVSPropertyOp17
 70
     1
102
RTVSPropertyOp18
 70
     1
102
RTVSPropertyOp19
 70
     1
102
RTVSPropertyOp20
 70
     1
102
RTVSPropertyOp21
 70
     1
102
RTVSPropertyOp22
 70
     1
102
RTVSPropertyOp23
 70
     1
102
RTVSPropertyOp24
 70
     1
102
RTVSPropertyOp25
 70
     1
102
RTVSPropertyOp26
 70
     1
102
RTVSPropertyOp27
 70
     1
102
RTVSPropertyOp28
 70
     1
102
RTVSPropertyOp29
 70
     1
102
RTVSPropertyOp30
 70
     1
102
RTVSPropertyOp31
 70
     1
102
RTVSPropertyOp32
 70
     1
102
RTVSPropertyOp33
 70
     1
102
RTVSPropertyOp34
 70
     1
102
RTVSPropertyOp35
 70
     1
102
RTVSPropertyOp36
 70
     1
102
RTVSPropertyOp37
 70
     1
102
RTVSPropertyOp38
 70
     1
102
RTVSPropertyOp39
 70
     1
102
RTVSPropertyOp40
 70
     1
102
RTVSPropertyOp41
 70
     1
102
RTVSPropertyOp42
 70
     1
102
RTVSPropertyOp43
 70
     1
102
RTVSPropertyOp44
 70
     1
102
RTVSPropertyOp45
 70
     1
102
RTVSPropertyOp46
 70
     1
102
RTVSPropertyOp47
 70
     1
102
RTVSPropertyOp48
 70
     1
102
RTVSPropertyOp49
 70
     1
102
RTVSPropertyOp50
 70
     1
102
RTVSPropertyOp51
 70
     0
102
RTVSPropertyOp52
 70
     0
102
RTVSPropertyOp53
 70
     1
102
RTVSPropertyOp54
 70
     1
102
RTVSPropertyOp55
 70
     1
102
RTVSPropertyOp56
 70
     1
102
RTVSPropertyOp57
 70
     1
102
RTVSPost2010Prop28
280
     0
102
RTVSPost2010PropOp28
 70
     1
102
RTVSPost2010Prop29
280
     1
102
RTVSPost2010PropOp29
 70
     1
102
RTVSPost2010Prop30
280
     1
102
RTVSPost2010PropOp30
 70
     1
102
RTVSPost2010Prop31
280
     0
102
RTVSPost2010PropOp31
 70
     1
102
RTVSPost2010Prop32
280
     0
102
RTVSPost2010PropOp32
 70
     1
102
RTVSPost2010Prop33
280
     0
102
RTVSPost2010PropOp33
 70
     1
102
RTVSPost2010Prop34
280
     0
102
RTVSPost2010PropOp34
 70
     1
102
RTVSPost2010Prop35
280
     0
102
RTVSPost2010PropOp35
 70
     1
102
RTVSPost2010Prop36
280
     0
102
RTVSPost2010PropOp36
 70
     1
102
RTVSPost2010Prop37
 90
       50
102
RTVSPost2010PropOp37
 70
     1
102
RTVSPost2010Prop38
140
0.0
102
RTVSPost2010PropOp38
 70
     1
102
RTVSPost2010Prop39
140
1.0
102
RTVSPost2010PropOp39
 70
     1
102
RTVSPost2010Prop40
 90
        0
102
RTVSPost2010PropOp40
 70
     1
102
RTVSPost2010Prop41ColorIndex
 90
       18
102
RTVSPost2010Prop41ColorRGB
 90
        0
102
RTVSPost2010PropOp41
 70
     1
102
RTVSPost2010Prop42
 90
       50
102
RTVSPost2010PropOp42
 70
     1
102
RTVSPost2010Prop43
 90
        3
102
RTVSPost2010PropOp43
 70
     1
102
RTVSPost2010Prop44ColorIndex
 90
        5
102
RTVSPost2010Prop44ColorRGB
 90
      255
102
RTVSPost2010PropOp44
 70
     1
102
RTVSPost2010Prop45
280
     0
102
RTVSPost2010PropOp45
 70
     1
102
RTVSPost2010Prop46
 90
       50
102
RTVSPost2010PropOp46
 70
     1
102
RTVSPost2010Prop47
 90
       50
102
RTVSPost2010PropOp47
 70
     1
102
RTVSPost2010Prop48
 90
       50
102
RTVSPost2010PropOp48
 70
     1
102
RTVSPost2010Prop49
280
     0
102
RTVSPost2010PropOp49
 70
     1
102
RTVSPost2010Prop50
 90
       50
102
RTVSPost2010PropOp50
 70
     1
102
RTVSPost2010Prop51ColorIndex
 90
      256
102
RTVSPost2010Prop51ColorRGB
 90
-16777216
102
RTVSPost2010PropOp51
 70
     0
102
RTVSPost2010Prop52
140
1.0
102
RTVSPost2010PropOp52
 70
     0
102
RTVSPost2010Prop53
 90
        2
102
RTVSPost2010PropOp53
 70
     1
102
RTVSPost2010Prop54
  1
strokes_ogs.tif
102
RTVSPost2010PropOp54
 70
     1
102
RTVSPost2010Prop55
280
     0
102
RTVSPost2010PropOp55
 70
     1
102
RTVSPost2010Prop56
140
1.0
102
RTVSPost2010PropOp56
 70
     1
102
RTVSPost2010Prop57
140
1.0
102
RTVSPost2010PropOp57
 70
     1
  0
XRECORD
  5
26B
102
{ACAD_REACTORS
330
26A
102
}
330
26A
100
AcDbXrecord
280
     1
102
RTVSPropertyOp0
 70
     1
102
RTVSPropertyOp1
 70
     1
102
RTVSPropertyOp2
 70
     1
102
RTVSPropertyOp3
 70
     1
102
RTVSPropertyOp4
 70
     1
102
RTVSPropertyOp5
 70
     1
102
RTVSPropertyOp6
 70
     1
102
RTVSPropertyOp7
 70
     1
102
RTVSPropertyOp8
 70
     1
102
RTVSPropertyOp9
 70
     1
102
RTVSPropertyOp10
 70
     1
102
RTVSPropertyOp11
 70
     1
102
RTVSPropertyOp12
 70
     1
102
RTVSPropertyOp13
 70
     1
102
RTVSPropertyOp14
 70
     1
102
RTVSPropertyOp15
 70
     1
102
RTVSPropertyOp16
 70
     1
102
RTVSPropertyOp17
 70
     1
102
RTVSPropertyOp18
 70
     1
102
RTVSPropertyOp19
 70
     1
102
RTVSPropertyOp20
 70
     1
102
RTVSPropertyOp21
 70
     1
102
RTVSPropertyOp22
 70
     1
102
RTVSPropertyOp23
 70
     1
102
RTVSPropertyOp24
 70
     1
102
RTVSPropertyOp25
 70
     1
102
RTVSPropertyOp26
 70
     1
102
RTVSPropertyOp27
 70
     1
102
RTVSPropertyOp28
 70
     1
102
RTVSPropertyOp29
 70
     1
102
RTVSPropertyOp30
 70
     1
102
RTVSPropertyOp31
 70
     1
102
RTVSPropertyOp32
 70
     1
102
RTVSPropertyOp33
 70
     1
102
RTVSPropertyOp34
 70
     1
102
RTVSPropertyOp35
 70
     1
102
RTVSPropertyOp36
 70
     1
102
RTVSPropertyOp37
 70
     1
102
RTVSPropertyOp38
 70
     1
102
RTVSPropertyOp39
 70
     1
102
RTVSPropertyOp40
 70
     1
102
RTVSPropertyOp41
 70
     1
102
RTVSPropertyOp42
 70
     1
102
RTVSPropertyOp43
 70
     1
102
RTVSPropertyOp44
 70
     1
102
RTVSPropertyOp45
 70
     1
102
RTVSPropertyOp46
 70
     1
102
RTVSPropertyOp47
 70
     1
102
RTVSPropertyOp48
 70
     1
102
RTVSPropertyOp49
 70
     1
102
RTVSPropertyOp50
 70
     1
102
RTVSPropertyOp51
 70
     0
102
RTVSPropertyOp52
 70
     0
102
RTVSPropertyOp53
 70
     1
102
RTVSPropertyOp54
 70
     1
102
RTVSPropertyOp55
 70
     1
102
RTVSPropertyOp56
 70
     1
102
RTVSPropertyOp57
 70
     1
102
RTVSPost2010Prop28
280
     0
102
RTVSPost2010PropOp28
 70
     1
102
RTVSPost2010Prop29
280
     1
102
RTVSPost2010PropOp29
 70
     1
102
RTVSPost2010Prop30
280
     1
102
RTVSPost2010PropOp30
 70
     1
102
RTVSPost2010Prop31
280
     0
102
RTVSPost2010PropOp31
 70
     1
102
RTVSPost2010Prop32
280
     0
102
RTVSPost2010PropOp32
 70
     1
102
RTVSPost2010Prop33
280
     0
102
RTVSPost2010PropOp33
 70
     1
102
RTVSPost2010Prop34
280
     0
102
RTVSPost2010PropOp34
 70
     1
102
RTVSPost2010Prop35
280
     0
102
RTVSPost2010PropOp35
 70
     1
102
RTVSPost2010Prop36
280
     0
102
RTVSPost2010PropOp36
 70
     1
102
RTVSPost2010Prop37
 90
       50
102
RTVSPost2010PropOp37
 70
     1
102
RTVSPost2010Prop38
140
0.0
102
RTVSPost2010PropOp38
 70
     1
102
RTVSPost2010Prop39
140
1.0
102
RTVSPost2010PropOp39
 70
     1
102
RTVSPost2010Prop40
 90
        0
102
RTVSPost2010PropOp40
 70
     1
102
RTVSPost2010Prop41ColorIndex
 90
       18
102
RTVSPost2010Prop41ColorRGB
 90
        0
102
RTVSPost2010PropOp41
 70
     1
102
RTVSPost2010Prop42
 90
       50
102
RTVSPost2010PropOp42
 70
     1
102
RTVSPost2010Prop43
 90
        3
102
RTVSPost2010PropOp43
 70
     1
102
RTVSPost2010Prop44ColorIndex
 90
        5
102
RTVSPost2010Prop44ColorRGB
 90
      255
102
RTVSPost2010PropOp44
 70
     1
102
RTVSPost2010Prop45
280
     0
102
RTVSPost2010PropOp45
 70
     1
102
RTVSPost2010Prop46
 90
       50
102
RTVSPost2010PropOp46
 70
     1
102
RTVSPost2010Prop47
 90
       50
102
RTVSPost2010PropOp47
 70
     1
102
RTVSPost2010Prop48
 90
       50
102
RTVSPost2010PropOp48
 70
     1
102
RTVSPost2010Prop49
280
     0
102
RTVSPost2010PropOp49
 70
     1
102
RTVSPost2010Prop50
 90
       50
102
RTVSPost2010PropOp50
 70
     1
102
RTVSPost2010Prop51ColorIndex
 90
      256
102
RTVSPost2010Prop51ColorRGB
 90
-16777216
102
RTVSPost2010PropOp51
 70
     0
102
RTVSPost2010Prop52
140
1.0
102
RTVSPost2010PropOp52
 70
     0
102
RTVSPost2010Prop53
 90
        2
102
RTVSPost2010PropOp53
 70
     1
102
RTVSPost2010Prop54
  1
strokes_ogs.tif
102
RTVSPost2010PropOp54
 70
     1
102
RTVSPost2010Prop55
280
     0
102
RTVSPost2010PropOp55
 70
     1
102
RTVSPost2010Prop56
140
1.0
102
RTVSPost2010PropOp56
 70
     1
102
RTVSPost2010Prop57
140
1.0
102
RTVSPost2010PropOp57
 70
     1
  0
XRECORD
  5
26D
102
{ACAD_REACTORS
330
26C
102
}
330
26C
100
AcDbXrecord
280
     1
102
RTVSPropertyOp0
 70
     1
102
RTVSPropertyOp1
 70
     1
102
RTVSPropertyOp2
 70
     1
102
RTVSPropertyOp3
 70
     1
102
RTVSPropertyOp4
 70
     1
102
RTVSPropertyOp5
 70
     1
102
RTVSPropertyOp6
 70
     1
102
RTVSPropertyOp7
 70
     1
102
RTVSPropertyOp8
 70
     1
102
RTVSPropertyOp9
 70
     1
102
RTVSPropertyOp10
 70
     1
102
RTVSPropertyOp11
 70
     1
102
RTVSPropertyOp12
 70
     1
102
RTVSPropertyOp13
 70
     1
102
RTVSPropertyOp14
 70
     1
102
RTVSPropertyOp15
 70
     1
102
RTVSPropertyOp16
 70
     1
102
RTVSPropertyOp17
 70
     1
102
RTVSPropertyOp18
 70
     1
102
RTVSPropertyOp19
 70
     1
102
RTVSPropertyOp20
 70
     1
102
RTVSPropertyOp21
 70
     1
102
RTVSPropertyOp22
 70
     1
102
RTVSPropertyOp23
 70
     1
102
RTVSPropertyOp24
 70
     1
102
RTVSPropertyOp25
 70
     1
102
RTVSPropertyOp26
 70
     1
102
RTVSPropertyOp27
 70
     1
102
RTVSPropertyOp28
 70
     1
102
RTVSPropertyOp29
 70
     1
102
RTVSPropertyOp30
 70
     1
102
RTVSPropertyOp31
 70
     1
102
RTVSPropertyOp32
 70
     1
102
RTVSPropertyOp33
 70
     1
102
RTVSPropertyOp34
 70
     1
102
RTVSPropertyOp35
 70
     1
102
RTVSPropertyOp36
 70
     1
102
RTVSPropertyOp37
 70
     1
102
RTVSPropertyOp38
 70
     1
102
RTVSPropertyOp39
 70
     1
102
RTVSPropertyOp40
 70
     1
102
RTVSPropertyOp41
 70
     1
102
RTVSPropertyOp42
 70
     1
102
RTVSPropertyOp43
 70
     1
102
RTVSPropertyOp44
 70
     1
102
RTVSPropertyOp45
 70
     1
102
RTVSPropertyOp46
 70
     1
102
RTVSPropertyOp47
 70
     1
102
RTVSPropertyOp48
 70
     1
102
RTVSPropertyOp49
 70
     1
102
RTVSPropertyOp50
 70
     1
102
RTVSPropertyOp51
 70
     0
102
RTVSPropertyOp52
 70
     0
102
RTVSPropertyOp53
 70
     1
102
RTVSPropertyOp54
 70
     1
102
RTVSPropertyOp55
 70
     1
102
RTVSPropertyOp56
 70
     1
102
RTVSPropertyOp57
 70
     1
102
RTVSPost2010Prop28
280
     0
102
RTVSPost2010PropOp28
 70
     1
102
RTVSPost2010Prop29
280
     1
102
RTVSPost2010PropOp29
 70
     1
102
RTVSPost2010Prop30
280
     1
102
RTVSPost2010PropOp30
 70
     1
102
RTVSPost2010Prop31
280
     0
102
RTVSPost2010PropOp31
 70
     1
102
RTVSPost2010Prop32
280
     0
102
RTVSPost2010PropOp32
 70
     1
102
RTVSPost2010Prop33
280
     0
102
RTVSPost2010PropOp33
 70
     1
102
RTVSPost2010Prop34
280
     0
102
RTVSPost2010PropOp34
 70
     1
102
RTVSPost2010Prop35
280
     0
102
RTVSPost2010PropOp35
 70
     1
102
RTVSPost2010Prop36
280
     0
102
RTVSPost2010PropOp36
 70
     1
102
RTVSPost2010Prop37
 90
       50
102
RTVSPost2010PropOp37
 70
     1
102
RTVSPost2010Prop38
140
0.0
102
RTVSPost2010PropOp38
 70
     1
102
RTVSPost2010Prop39
140
1.0
102
RTVSPost2010PropOp39
 70
     1
102
RTVSPost2010Prop40
 90
        0
102
RTVSPost2010PropOp40
 70
     1
102
RTVSPost2010Prop41ColorIndex
 90
       18
102
RTVSPost2010Prop41ColorRGB
 90
        0
102
RTVSPost2010PropOp41
 70
     1
102
RTVSPost2010Prop42
 90
       50
102
RTVSPost2010PropOp42
 70
     1
102
RTVSPost2010Prop43
 90
        3
102
RTVSPost2010PropOp43
 70
     1
102
RTVSPost2010Prop44ColorIndex
 90
        5
102
RTVSPost2010Prop44ColorRGB
 90
      255
102
RTVSPost2010PropOp44
 70
     1
102
RTVSPost2010Prop45
280
     0
102
RTVSPost2010PropOp45
 70
     1
102
RTVSPost2010Prop46
 90
       50
102
RTVSPost2010PropOp46
 70
     1
102
RTVSPost2010Prop47
 90
       50
102
RTVSPost2010PropOp47
 70
     1
102
RTVSPost2010Prop48
 90
       50
102
RTVSPost2010PropOp48
 70
     1
102
RTVSPost2010Prop49
280
     0
102
RTVSPost2010PropOp49
 70
     1
102
RTVSPost2010Prop50
 90
       50
102
RTVSPost2010PropOp50
 70
     1
102
RTVSPost2010Prop51ColorIndex
 90
      256
102
RTVSPost2010Prop51ColorRGB
 90
-16777216
102
RTVSPost2010PropOp51
 70
     0
102
RTVSPost2010Prop52
140
1.0
102
RTVSPost2010PropOp52
 70
     0
102
RTVSPost2010Prop53
 90
        2
102
RTVSPost2010PropOp53
 70
     1
102
RTVSPost2010Prop54
  1
strokes_ogs.tif
102
RTVSPost2010PropOp54
 70
     1
102
RTVSPost2010Prop55
280
     0
102
RTVSPost2010PropOp55
 70
     1
102
RTVSPost2010Prop56
140
1.0
102
RTVSPost2010PropOp56
 70
     1
102
RTVSPost2010Prop57
140
1.0
102
RTVSPost2010PropOp57
 70
     1
  0
XRECORD
  5
25D
102
{ACAD_REACTORS
330
25C
102
}
330
25C
100
AcDbXrecord
280
     1
102
RTVSPropertyOp0
 70
     1
102
RTVSPropertyOp1
 70
     1
102
RTVSPropertyOp2
 70
     1
102
RTVSPropertyOp3
 70
     1
102
RTVSPropertyOp4
 70
     1
102
RTVSPropertyOp5
 70
     1
102
RTVSPropertyOp6
 70
     1
102
RTVSPropertyOp7
 70
     1
102
RTVSPropertyOp8
 70
     1
102
RTVSPropertyOp9
 70
     1
102
RTVSPropertyOp10
 70
     1
102
RTVSPropertyOp11
 70
     1
102
RTVSPropertyOp12
 70
     1
102
RTVSPropertyOp13
 70
     1
102
RTVSPropertyOp14
 70
     1
102
RTVSPropertyOp15
 70
     1
102
RTVSPropertyOp16
 70
     1
102
RTVSPropertyOp17
 70
     1
102
RTVSPropertyOp18
 70
     1
102
RTVSPropertyOp19
 70
     1
102
RTVSPropertyOp20
 70
     1
102
RTVSPropertyOp21
 70
     1
102
RTVSPropertyOp22
 70
     1
102
RTVSPropertyOp23
 70
     1
102
RTVSPropertyOp24
 70
     1
102
RTVSPropertyOp25
 70
     1
102
RTVSPropertyOp26
 70
     1
102
RTVSPropertyOp27
 70
     1
102
RTVSPropertyOp28
 70
     1
102
RTVSPropertyOp29
 70
     1
102
RTVSPropertyOp30
 70
     1
102
RTVSPropertyOp31
 70
     1
102
RTVSPropertyOp32
 70
     1
102
RTVSPropertyOp33
 70
     1
102
RTVSPropertyOp34
 70
     1
102
RTVSPropertyOp35
 70
     1
102
RTVSPropertyOp36
 70
     1
102
RTVSPropertyOp37
 70
     1
102
RTVSPropertyOp38
 70
     1
102
RTVSPropertyOp39
 70
     1
102
RTVSPropertyOp40
 70
     1
102
RTVSPropertyOp41
 70
     1
102
RTVSPropertyOp42
 70
     1
102
RTVSPropertyOp43
 70
     1
102
RTVSPropertyOp44
 70
     1
102
RTVSPropertyOp45
 70
     1
102
RTVSPropertyOp46
 70
     1
102
RTVSPropertyOp47
 70
     1
102
RTVSPropertyOp48
 70
     1
102
RTVSPropertyOp49
 70
     1
102
RTVSPropertyOp50
 70
     1
102
RTVSPropertyOp51
 70
     0
102
RTVSPropertyOp52
 70
     0
102
RTVSPropertyOp53
 70
     1
102
RTVSPropertyOp54
 70
     1
102
RTVSPropertyOp55
 70
     1
102
RTVSPropertyOp56
 70
     1
102
RTVSPropertyOp57
 70
     1
102
RTVSPost2010Prop28
280
     0
102
RTVSPost2010PropOp28
 70
     1
102
RTVSPost2010Prop29
280
     1
102
RTVSPost2010PropOp29
 70
     1
102
RTVSPost2010Prop30
280
     1
102
RTVSPost2010PropOp30
 70
     1
102
RTVSPost2010Prop31
280
     0
102
RTVSPost2010PropOp31
 70
     1
102
RTVSPost2010Prop32
280
     0
102
RTVSPost2010PropOp32
 70
     1
102
RTVSPost2010Prop33
280
     0
102
RTVSPost2010PropOp33
 70
     1
102
RTVSPost2010Prop34
280
     0
102
RTVSPost2010PropOp34
 70
     1
102
RTVSPost2010Prop35
280
     0
102
RTVSPost2010PropOp35
 70
     1
102
RTVSPost2010Prop36
280
     0
102
RTVSPost2010PropOp36
 70
     1
102
RTVSPost2010Prop37
 90
       50
102
RTVSPost2010PropOp37
 70
     1
102
RTVSPost2010Prop38
140
0.0
102
RTVSPost2010PropOp38
 70
     1
102
RTVSPost2010Prop39
140
1.0
102
RTVSPost2010PropOp39
 70
     1
102
RTVSPost2010Prop40
 90
        0
102
RTVSPost2010PropOp40
 70
     1
102
RTVSPost2010Prop41ColorIndex
 90
       18
102
RTVSPost2010Prop41ColorRGB
 90
        0
102
RTVSPost2010PropOp41
 70
     1
102
RTVSPost2010Prop42
 90
       50
102
RTVSPost2010PropOp42
 70
     1
102
RTVSPost2010Prop43
 90
        3
102
RTVSPost2010PropOp43
 70
     1
102
RTVSPost2010Prop44ColorIndex
 90
        5
102
RTVSPost2010Prop44ColorRGB
 90
      255
102
RTVSPost2010PropOp44
 70
     1
102
RTVSPost2010Prop45
280
     0
102
RTVSPost2010PropOp45
 70
     1
102
RTVSPost2010Prop46
 90
       50
102
RTVSPost2010PropOp46
 70
     1
102
RTVSPost2010Prop47
 90
       50
102
RTVSPost2010PropOp47
 70
     1
102
RTVSPost2010Prop48
 90
       50
102
RTVSPost2010PropOp48
 70
     1
102
RTVSPost2010Prop49
280
     0
102
RTVSPost2010PropOp49
 70
     1
102
RTVSPost2010Prop50
 90
       50
102
RTVSPost2010PropOp50
 70
     1
102
RTVSPost2010Prop51ColorIndex
 90
      256
102
RTVSPost2010Prop51ColorRGB
 90
-16777216
102
RTVSPost2010PropOp51
 70
     0
102
RTVSPost2010Prop52
140
1.0
102
RTVSPost2010PropOp52
 70
     0
102
RTVSPost2010Prop53
 90
        2
102
RTVSPost2010PropOp53
 70
     1
102
RTVSPost2010Prop54
  1
strokes_ogs.tif
102
RTVSPost2010PropOp54
 70
     1
102
RTVSPost2010Prop55
280
     0
102
RTVSPost2010PropOp55
 70
     1
102
RTVSPost2010Prop56
140
1.0
102
RTVSPost2010PropOp56
 70
     1
102
RTVSPost2010Prop57
140
1.0
102
RTVSPost2010PropOp57
 70
     1
  0
XRECORD
  5
24F
102
{ACAD_REACTORS
330
24E
102
}
330
24E
100
AcDbXrecord
280
     1
102
RTVSPropertyOp0
 70
     1
102
RTVSPropertyOp1
 70
     1
102
RTVSPropertyOp2
 70
     1
102
RTVSPropertyOp3
 70
     1
102
RTVSPropertyOp4
 70
     1
102
RTVSPropertyOp5
 70
     1
102
RTVSPropertyOp6
 70
     1
102
RTVSPropertyOp7
 70
     1
102
RTVSPropertyOp8
 70
     1
102
RTVSPropertyOp9
 70
     1
102
RTVSPropertyOp10
 70
     1
102
RTVSPropertyOp11
 70
     1
102
RTVSPropertyOp12
 70
     1
102
RTVSPropertyOp13
 70
     1
102
RTVSPropertyOp14
 70
     1
102
RTVSPropertyOp15
 70
     1
102
RTVSPropertyOp16
 70
     1
102
RTVSPropertyOp17
 70
     1
102
RTVSPropertyOp18
 70
     1
102
RTVSPropertyOp19
 70
     1
102
RTVSPropertyOp20
 70
     1
102
RTVSPropertyOp21
 70
     1
102
RTVSPropertyOp22
 70
     1
102
RTVSPropertyOp23
 70
     1
102
RTVSPropertyOp24
 70
     1
102
RTVSPropertyOp25
 70
     1
102
RTVSPropertyOp26
 70
     1
102
RTVSPropertyOp27
 70
     1
102
RTVSPropertyOp28
 70
     1
102
RTVSPropertyOp29
 70
     1
102
RTVSPropertyOp30
 70
     1
102
RTVSPropertyOp31
 70
     1
102
RTVSPropertyOp32
 70
     1
102
RTVSPropertyOp33
 70
     1
102
RTVSPropertyOp34
 70
     1
102
RTVSPropertyOp35
 70
     1
102
RTVSPropertyOp36
 70
     1
102
RTVSPropertyOp37
 70
     1
102
RTVSPropertyOp38
 70
     1
102
RTVSPropertyOp39
 70
     1
102
RTVSPropertyOp40
 70
     1
102
RTVSPropertyOp41
 70
     1
102
RTVSPropertyOp42
 70
     1
102
RTVSPropertyOp43
 70
     1
102
RTVSPropertyOp44
 70
     1
102
RTVSPropertyOp45
 70
     1
102
RTVSPropertyOp46
 70
     1
102
RTVSPropertyOp47
 70
     1
102
RTVSPropertyOp48
 70
     1
102
RTVSPropertyOp49
 70
     1
102
RTVSPropertyOp50
 70
     1
102
RTVSPropertyOp51
 70
     0
102
RTVSPropertyOp52
 70
     0
102
RTVSPropertyOp53
 70
     1
102
RTVSPropertyOp54
 70
     1
102
RTVSPropertyOp55
 70
     1
102
RTVSPropertyOp56
 70
     1
102
RTVSPropertyOp57
 70
     1
102
RTVSPost2010Prop28
280
     0
102
RTVSPost2010PropOp28
 70
     1
102
RTVSPost2010Prop29
280
     1
102
RTVSPost2010PropOp29
 70
     1
102
RTVSPost2010Prop30
280
     1
102
RTVSPost2010PropOp30
 70
     1
102
RTVSPost2010Prop31
280
     0
102
RTVSPost2010PropOp31
 70
     1
102
RTVSPost2010Prop32
280
     0
102
RTVSPost2010PropOp32
 70
     1
102
RTVSPost2010Prop33
280
     0
102
RTVSPost2010PropOp33
 70
     1
102
RTVSPost2010Prop34
280
     0
102
RTVSPost2010PropOp34
 70
     1
102
RTVSPost2010Prop35
280
     0
102
RTVSPost2010PropOp35
 70
     1
102
RTVSPost2010Prop36
280
     0
102
RTVSPost2010PropOp36
 70
     1
102
RTVSPost2010Prop37
 90
       50
102
RTVSPost2010PropOp37
 70
     1
102
RTVSPost2010Prop38
140
0.0
102
RTVSPost2010PropOp38
 70
     1
102
RTVSPost2010Prop39
140
1.0
102
RTVSPost2010PropOp39
 70
     1
102
RTVSPost2010Prop40
 90
        0
102
RTVSPost2010PropOp40
 70
     1
102
RTVSPost2010Prop41ColorIndex
 90
       18
102
RTVSPost2010Prop41ColorRGB
 90
        0
102
RTVSPost2010PropOp41
 70
     1
102
RTVSPost2010Prop42
 90
       50
102
RTVSPost2010PropOp42
 70
     1
102
RTVSPost2010Prop43
 90
        3
102
RTVSPost2010PropOp43
 70
     1
102
RTVSPost2010Prop44ColorIndex
 90
        5
102
RTVSPost2010Prop44ColorRGB
 90
      255
102
RTVSPost2010PropOp44
 70
     1
102
RTVSPost2010Prop45
280
     0
102
RTVSPost2010PropOp45
 70
     1
102
RTVSPost2010Prop46
 90
       50
102
RTVSPost2010PropOp46
 70
     1
102
RTVSPost2010Prop47
 90
       50
102
RTVSPost2010PropOp47
 70
     1
102
RTVSPost2010Prop48
 90
       50
102
RTVSPost2010PropOp48
 70
     1
102
RTVSPost2010Prop49
280
     0
102
RTVSPost2010PropOp49
 70
     1
102
RTVSPost2010Prop50
 90
       50
102
RTVSPost2010PropOp50
 70
     1
102
RTVSPost2010Prop51ColorIndex
 90
      256
102
RTVSPost2010Prop51ColorRGB
 90
-16777216
102
RTVSPost2010PropOp51
 70
     0
102
RTVSPost2010Prop52
140
1.0
102
RTVSPost2010PropOp52
 70
     0
102
RTVSPost2010Prop53
 90
        2
102
RTVSPost2010PropOp53
 70
     1
102
RTVSPost2010Prop54
  1
strokes_ogs.tif
102
RTVSPost2010PropOp54
 70
     1
102
RTVSPost2010Prop55
280
     0
102
RTVSPost2010PropOp55
 70
     1
102
RTVSPost2010Prop56
140
1.0
102
RTVSPost2010PropOp56
 70
     1
102
RTVSPost2010Prop57
140
1.0
102
RTVSPost2010PropOp57
 70
     1
  0
XRECORD
  5
26F
102
{ACAD_REACTORS
330
26E
102
}
330
26E
100
AcDbXrecord
280
     1
102
RTVSPropertyOp0
 70
     1
102
RTVSPropertyOp1
 70
     1
102
RTVSPropertyOp2
 70
     1
102
RTVSPropertyOp3
 70
     1
102
RTVSPropertyOp4
 70
     1
102
RTVSPropertyOp5
 70
     1
102
RTVSPropertyOp6
 70
     1
102
RTVSPropertyOp7
 70
     1
102
RTVSPropertyOp8
 70
     1
102
RTVSPropertyOp9
 70
     1
102
RTVSPropertyOp10
 70
     1
102
RTVSPropertyOp11
 70
     1
102
RTVSPropertyOp12
 70
     1
102
RTVSPropertyOp13
 70
     1
102
RTVSPropertyOp14
 70
     1
102
RTVSPropertyOp15
 70
     1
102
RTVSPropertyOp16
 70
     1
102
RTVSPropertyOp17
 70
     1
102
RTVSPropertyOp18
 70
     1
102
RTVSPropertyOp19
 70
     1
102
RTVSPropertyOp20
 70
     1
102
RTVSPropertyOp21
 70
     1
102
RTVSPropertyOp22
 70
     1
102
RTVSPropertyOp23
 70
     1
102
RTVSPropertyOp24
 70
     1
102
RTVSPropertyOp25
 70
     1
102
RTVSPropertyOp26
 70
     1
102
RTVSPropertyOp27
 70
     1
102
RTVSPropertyOp28
 70
     1
102
RTVSPropertyOp29
 70
     1
102
RTVSPropertyOp30
 70
     1
102
RTVSPropertyOp31
 70
     1
102
RTVSPropertyOp32
 70
     1
102
RTVSPropertyOp33
 70
     1
102
RTVSPropertyOp34
 70
     1
102
RTVSPropertyOp35
 70
     1
102
RTVSPropertyOp36
 70
     1
102
RTVSPropertyOp37
 70
     1
102
RTVSPropertyOp38
 70
     1
102
RTVSPropertyOp39
 70
     1
102
RTVSPropertyOp40
 70
     1
102
RTVSPropertyOp41
 70
     1
102
RTVSPropertyOp42
 70
     1
102
RTVSPropertyOp43
 70
     1
102
RTVSPropertyOp44
 70
     1
102
RTVSPropertyOp45
 70
     1
102
RTVSPropertyOp46
 70
     1
102
RTVSPropertyOp47
 70
     1
102
RTVSPropertyOp48
 70
     1
102
RTVSPropertyOp49
 70
     1
102
RTVSPropertyOp50
 70
     1
102
RTVSPropertyOp51
 70
     0
102
RTVSPropertyOp52
 70
     0
102
RTVSPropertyOp53
 70
     1
102
RTVSPropertyOp54
 70
     1
102
RTVSPropertyOp55
 70
     1
102
RTVSPropertyOp56
 70
     1
102
RTVSPropertyOp57
 70
     1
102
RTVSPost2010Prop28
280
     0
102
RTVSPost2010PropOp28
 70
     1
102
RTVSPost2010Prop29
280
     1
102
RTVSPost2010PropOp29
 70
     1
102
RTVSPost2010Prop30
280
     1
102
RTVSPost2010PropOp30
 70
     1
102
RTVSPost2010Prop31
280
     0
102
RTVSPost2010PropOp31
 70
     1
102
RTVSPost2010Prop32
280
     0
102
RTVSPost2010PropOp32
 70
     1
102
RTVSPost2010Prop33
280
     0
102
RTVSPost2010PropOp33
 70
     1
102
RTVSPost2010Prop34
280
     0
102
RTVSPost2010PropOp34
 70
     1
102
RTVSPost2010Prop35
280
     0
102
RTVSPost2010PropOp35
 70
     1
102
RTVSPost2010Prop36
280
     0
102
RTVSPost2010PropOp36
 70
     1
102
RTVSPost2010Prop37
 90
       50
102
RTVSPost2010PropOp37
 70
     1
102
RTVSPost2010Prop38
140
0.0
102
RTVSPost2010PropOp38
 70
     1
102
RTVSPost2010Prop39
140
1.0
102
RTVSPost2010PropOp39
 70
     1
102
RTVSPost2010Prop40
 90
        0
102
RTVSPost2010PropOp40
 70
     1
102
RTVSPost2010Prop41ColorIndex
 90
       18
102
RTVSPost2010Prop41ColorRGB
 90
        0
102
RTVSPost2010PropOp41
 70
     1
102
RTVSPost2010Prop42
 90
       50
102
RTVSPost2010PropOp42
 70
     1
102
RTVSPost2010Prop43
 90
        3
102
RTVSPost2010PropOp43
 70
     1
102
RTVSPost2010Prop44ColorIndex
 90
        5
102
RTVSPost2010Prop44ColorRGB
 90
      255
102
RTVSPost2010PropOp44
 70
     1
102
RTVSPost2010Prop45
280
     0
102
RTVSPost2010PropOp45
 70
     1
102
RTVSPost2010Prop46
 90
       50
102
RTVSPost2010PropOp46
 70
     1
102
RTVSPost2010Prop47
 90
       50
102
RTVSPost2010PropOp47
 70
     1
102
RTVSPost2010Prop48
 90
       50
102
RTVSPost2010PropOp48
 70
     1
102
RTVSPost2010Prop49
280
     0
102
RTVSPost2010PropOp49
 70
     1
102
RTVSPost2010Prop50
 90
       50
102
RTVSPost2010PropOp50
 70
     1
102
RTVSPost2010Prop51ColorIndex
 90
      256
102
RTVSPost2010Prop51ColorRGB
 90
-16777216
102
RTVSPost2010PropOp51
 70
     0
102
RTVSPost2010Prop52
140
1.0
102
RTVSPost2010PropOp52
 70
     0
102
RTVSPost2010Prop53
 90
        2
102
RTVSPost2010PropOp53
 70
     1
102
RTVSPost2010Prop54
  1
strokes_ogs.tif
102
RTVSPost2010PropOp54
 70
     1
102
RTVSPost2010Prop55
280
     0
102
RTVSPost2010PropOp55
 70
     1
102
RTVSPost2010Prop56
140
1.0
102
RTVSPost2010PropOp56
 70
     1
102
RTVSPost2010Prop57
140
1.0
102
RTVSPost2010PropOp57
 70
     1
  0
ENDSEC
  0
EOF
