ISO-10303-21;
HEADER;
FILE_DESCRIPTION (( 'STEP AP203' ),
    '1' );
FILE_NAME ('36608740-00.STEP',
    '2019-09-11T12:02:05',
    ( '' ),
    ( '' ),
    'SwSTEP 2.0',
    'SolidWorks 2017',
    '' );
FILE_SCHEMA (( 'CONFIG_CONTROL_DESIGN' ));
ENDSEC;

DATA;
#1 = CC_DESIGN_SECURITY_CLASSIFICATION ( #189, ( #151 ) ) ;
#2 = CC_DESIGN_APPROVAL ( #92, ( #274 ) ) ;
#3 = APPLICATION_PROTOCOL_DEFINITION ( 'international standard', 'config_control_design', 1994, #163 ) ;
#4 = APPROVAL_ROLE ( '' ) ;
#5 = EDGE_LOOP ( 'NONE', ( #59 ) ) ;
#6 = FACE_OUTER_BOUND ( 'NONE', #7, .T. ) ;
#7 = EDGE_LOOP ( 'NONE', ( #300 ) ) ;
#8 = DATE_AND_TIME ( #75, #150 ) ;
#9 = DIRECTION ( 'NONE',  ( 0.0000000000000000000, 0.0000000000000000000, 1.000000000000000000 ) ) ;
#10 = DIRECTION ( 'NONE',  ( 1.836970198721029900E-016, -1.000000000000000000, -0.0000000000000000000 ) ) ;
#11 = CC_DESIGN_PERSON_AND_ORGANIZATION_ASSIGNMENT ( #246, #332, ( #357 ) ) ;
#12 = DIRECTION ( 'NONE',  ( 0.0000000000000000000, 0.0000000000000000000, 1.000000000000000000 ) ) ;
#13 = DIRECTION ( 'NONE',  ( -1.836970198721029900E-016, 1.000000000000000000, 0.0000000000000000000 ) ) ;
#14 = FACE_OUTER_BOUND ( 'NONE', #70, .T. ) ;
#15 = DIRECTION ( 'NONE',  ( -1.836970198721029900E-016, 1.000000000000000000, 0.0000000000000000000 ) ) ;
#16 = PERSON_AND_ORGANIZATION ( #42, #324 ) ;
#17 = PRODUCT_DEFINITION_SHAPE ( 'NONE', 'NONE',  #359 ) ;
#18 = DIRECTION ( 'NONE',  ( -1.836970198721029900E-016, 1.000000000000000000, 0.0000000000000000000 ) ) ;
#19 = ADVANCED_FACE ( 'NONE', ( #344 ), #341, .F. ) ;
#20 = VERTEX_POINT ( 'NONE', #355 ) ;
#21 = PERSON_AND_ORGANIZATION ( #42, #324 ) ;
#22 = VERTEX_POINT ( 'NONE', #49 ) ;
#23 = CC_DESIGN_PERSON_AND_ORGANIZATION_ASSIGNMENT ( #335, #125, ( #282 ) ) ;
#24 = ORIENTED_EDGE ( 'NONE', *, *, #159, .F. ) ;
#25 = PERSON_AND_ORGANIZATION_ROLE ( 'design_supplier' ) ;
#26 = DIRECTION ( 'NONE',  ( -1.000000000000000000, -1.836970198721029900E-016, 0.0000000000000000000 ) ) ;
#27 = COORDINATED_UNIVERSAL_TIME_OFFSET ( 1, 0, .AHEAD. ) ;
#28 = DIRECTION ( 'NONE',  ( 1.000000000000000000, 2.373798772971368700E-016, 0.0000000000000000000 ) ) ;
#29 = LOCAL_TIME ( 14, 2, 5.000000000000000000, #89 ) ;
#30 = APPROVAL ( #154, 'UNSPECIFIED' ) ;
#31 = APPROVAL_ROLE ( '' ) ;
#32 = TOROIDAL_SURFACE ( 'NONE', #182, 29.19999999999999600, 0.8000000000000000400 ) ;
#33 = COORDINATED_UNIVERSAL_TIME_OFFSET ( 1, 0, .AHEAD. ) ;
#34 = SHAPE_DEFINITION_REPRESENTATION ( #270, #321 ) ;
#35 = CIRCLE ( 'NONE', #191, 27.50000000000000000 ) ;
#36 = CARTESIAN_POINT ( 'NONE',  ( 0.0000000000000000000, 0.0000000000000000000, 0.0000000000000000000 ) ) ;
#37 = APPLICATION_CONTEXT ( 'configuration controlled 3d designs of mechanical parts and assemblies' ) ;
#38 = LOCAL_TIME ( 14, 2, 5.000000000000000000, #102 ) ;
#39 = DATE_AND_TIME ( #104, #184 ) ;
#40 = FACE_OUTER_BOUND ( 'NONE', #217, .T. ) ;
#41 = ADVANCED_FACE ( 'NONE', ( #304 ), #144, .T. ) ;
#42 = PERSON ( 'UNSPECIFIED', 'UNSPECIFIED', 'UNSPECIFIED', ('UNSPECIFIED'), ('UNSPECIFIED'), ('UNSPECIFIED') ) ;
#43 = CALENDAR_DATE ( 2019, 11, 9 ) ;
#44 = APPROVAL_DATE_TIME ( #112, #211 ) ;
#45 = APPROVAL_DATE_TIME ( #113, #172 ) ;
#46 = MECHANICAL_CONTEXT ( 'NONE', #37, 'mechanical' ) ;
#47 = PERSON_AND_ORGANIZATION_ROLE ( 'classification_officer' ) ;
#48 = ORIENTED_EDGE ( 'NONE', *, *, #124, .T. ) ;
#49 = CARTESIAN_POINT ( 'NONE',  ( -29.99999999999999600, 0.4999999999999997800, 0.0000000000000000000 ) ) ;
#50 = DIRECTION ( 'NONE',  ( 1.836970198721029900E-016, -1.000000000000000000, -0.0000000000000000000 ) ) ;
#51 = LOCAL_TIME ( 14, 2, 5.000000000000000000, #118 ) ;
#52 = APPROVAL_PERSON_ORGANIZATION ( #121, #211, #76 ) ;
#53 = CC_DESIGN_DATE_AND_TIME_ASSIGNMENT ( #272, #155, ( #274 ) ) ;
#54 = DATE_TIME_ROLE ( 'creation_date' ) ;
#55 = APPROVAL_PERSON_ORGANIZATION ( #123, #172, #302 ) ;
#56 = CC_DESIGN_DATE_AND_TIME_ASSIGNMENT ( #73, #54, ( #176 ) ) ;
#57 = CC_DESIGN_PERSON_AND_ORGANIZATION_ASSIGNMENT ( #183, #137, ( #67 ) ) ;
#58 = EDGE_LOOP ( 'NONE', ( #152 ) ) ;
#59 = ORIENTED_EDGE ( 'NONE', *, *, #120, .T. ) ;
#60 = APPROVAL_DATE_TIME ( #132, #351 ) ;
#61 = FACE_BOUND ( 'NONE', #228, .T. ) ;
#62 = CC_DESIGN_DATE_AND_TIME_ASSIGNMENT ( #39, #328, ( #282 ) ) ;
#63 = DIRECTION ( 'NONE',  ( 1.000000000000000000, 0.0000000000000000000, 0.0000000000000000000 ) ) ;
#64 = DIRECTION ( 'NONE',  ( -1.000000000000000000, -1.836970198721029900E-016, 0.0000000000000000000 ) ) ;
#65 = CALENDAR_DATE ( 2019, 11, 9 ) ;
#66 = FACE_OUTER_BOUND ( 'NONE', #58, .T. ) ;
#67 = SECURITY_CLASSIFICATION ( '', '', #312 ) ;
#68 = ORIENTED_EDGE ( 'NONE', *, *, #120, .F. ) ;
#69 = PRODUCT ( 'Planungsmodell_Griff-+-09.20.74.019-1_K1', 'Planungsmodell_Griff-+-09.20.74.019-1_K1', '', ( #46 ) ) ;
#70 = EDGE_LOOP ( 'NONE', ( #68 ) ) ;
#71 = APPLICATION_CONTEXT ( 'configuration controlled 3d designs of mechanical parts and assemblies' ) ;
#72 = APPROVAL_STATUS ( 'not_yet_approved' ) ;
#73 = DATE_AND_TIME ( #146, #224 ) ;
#74 = DIRECTION ( 'NONE',  ( -1.000000000000000000, -1.836970198721029900E-016, 0.0000000000000000000 ) ) ;
#75 = CALENDAR_DATE ( 2019, 11, 9 ) ;
#76 = APPROVAL_ROLE ( '' ) ;
#77 = ORIENTED_EDGE ( 'NONE', *, *, #119, .T. ) ;
#78 = FACE_OUTER_BOUND ( 'NONE', #294, .T. ) ;
#79 = APPROVAL_DATE_TIME ( #156, #310 ) ;
#80 =( LENGTH_UNIT ( ) NAMED_UNIT ( * ) SI_UNIT ( .MILLI., .METRE. ) );
#81 = CONTEXT_DEPENDENT_SHAPE_REPRESENTATION ( #97, #17 ) ;
#82 = PERSON_AND_ORGANIZATION ( #42, #324 ) ;
#83 = EDGE_CURVE ( 'NONE', #20, #20, #285, .T. ) ;
#84 = DIRECTION ( 'NONE',  ( 1.305682507125086700E-016, -1.000000000000000000, -1.671306121320169300E-016 ) ) ;
#85 = EDGE_LOOP ( 'NONE', ( #48 ) ) ;
#86 = CARTESIAN_POINT ( 'NONE',  ( 2.020667218593127600E-016, -1.099999999999997000, 0.0000000000000000000 ) ) ;
#87 = APPROVAL_PERSON_ORGANIZATION ( #167, #310, #31 ) ;
#88 = DIRECTION ( 'NONE',  ( 1.836970198721029900E-016, -1.000000000000000000, -0.0000000000000000000 ) ) ;
#89 = COORDINATED_UNIVERSAL_TIME_OFFSET ( 1, 0, .AHEAD. ) ;
#90 = CARTESIAN_POINT ( 'NONE',  ( 29.23117992525345700, 28.43014225488516500, 0.0000000000000000000 ) ) ;
#91 = PERSON ( 'NAUO-PER1', 'UNSPECIFIED', 'UNSPECIFIED', ('UNSPECIFIED'), ('UNSPECIFIED'), ('UNSPECIFIED') ) ;
#92 = APPROVAL ( #127, 'UNKNOWN' ) ;
#93 = AXIS2_PLACEMENT_3D ( 'NONE', #174, #12, #205 ) ;
#94 = APPROVAL_PERSON_ORGANIZATION ( #177, #198, #4 ) ;
#95 = APPROVAL_STATUS ( 'not_yet_approved' ) ;
#96 = EDGE_CURVE ( 'NONE', #187, #187, #105, .T. ) ;
#97 =( REPRESENTATION_RELATIONSHIP ('NONE','NONE', #260, #321 ) REPRESENTATION_RELATIONSHIP_WITH_TRANSFORMATION ( #349 )SHAPE_REPRESENTATION_RELATIONSHIP( ) );
#98 = DIRECTION ( 'NONE',  ( -1.000000000000000000, -1.836970198721029900E-016, 0.0000000000000000000 ) ) ;
#99 = CIRCLE ( 'NONE', #139, 29.99999999999999600 ) ;
#100 = APPLICATION_CONTEXT ( 'configuration controlled 3d designs of mechanical parts and assemblies' ) ;
#101 = PERSON_AND_ORGANIZATION_ROLE ( 'design_supplier' ) ;
#102 = COORDINATED_UNIVERSAL_TIME_OFFSET ( 1, 0, .AHEAD. ) ;
#103 = CC_DESIGN_APPROVAL ( #310, ( #176 ) ) ;
#104 = CALENDAR_DATE ( 2019, 11, 9 ) ;
#105 = CIRCLE ( 'NONE', #128, 26.70000000000000300 ) ;
#106 = VERTEX_POINT ( 'NONE', #247 ) ;
#107 = AXIS2_PLACEMENT_3D ( 'NONE', #231, #143, #111 ) ;
#108 = LOCAL_TIME ( 14, 2, 5.000000000000000000, #192 ) ;
#109 = DIRECTION ( 'NONE',  ( 1.836970198721029900E-016, -1.000000000000000000, -0.0000000000000000000 ) ) ;
#110 =( LENGTH_UNIT ( ) NAMED_UNIT ( * ) SI_UNIT ( .MILLI., .METRE. ) );
#111 = DIRECTION ( 'NONE',  ( 1.000000000000000000, 1.480297366166875300E-016, 0.0000000000000000000 ) ) ;
#112 = DATE_AND_TIME ( #196, #276 ) ;
#113 = DATE_AND_TIME ( #197, #277 ) ;
#114 = AXIS2_PLACEMENT_3D ( 'NONE', #175, #13, #64 ) ;
#115 = EDGE_LOOP ( 'NONE', ( #336 ) ) ;
#116 = AXIS2_PLACEMENT_3D ( 'NONE', #203, #10, #171 ) ;
#117 = ADVANCED_FACE ( 'NONE', ( #66, #330 ), #178, .T. ) ;
#118 = COORDINATED_UNIVERSAL_TIME_OFFSET ( 1, 0, .AHEAD. ) ;
#119 = EDGE_CURVE ( 'NONE', #106, #106, #259, .T. ) ;
#120 = EDGE_CURVE ( 'NONE', #22, #22, #99, .T. ) ;
#121 = PERSON_AND_ORGANIZATION ( #42, #324 ) ;
#122 = EDGE_CURVE ( 'NONE', #318, #318, #35, .T. ) ;
#123 = PERSON_AND_ORGANIZATION ( #42, #324 ) ;
#124 = EDGE_CURVE ( 'NONE', #239, #239, #229, .T. ) ;
#125 = PERSON_AND_ORGANIZATION_ROLE ( 'creator' ) ;
#126 = EDGE_LOOP ( 'NONE', ( #199 ) ) ;
#127 = APPROVAL_STATUS ( 'not_yet_approved' ) ;
#128 = AXIS2_PLACEMENT_3D ( 'NONE', #317, #109, #289 ) ;
#129 = VERTEX_POINT ( 'NONE', #90 ) ;
#130 = CARTESIAN_POINT ( 'NONE',  ( -9.184850993605248300E-017, 0.5000000000000053300, 0.0000000000000000000 ) ) ;
#131 = EDGE_LOOP ( 'NONE', ( #208 ) ) ;
#132 = DATE_AND_TIME ( #210, #287 ) ;
#133 = FACE_OUTER_BOUND ( 'NONE', #85, .T. ) ;
#134 = UNCERTAINTY_MEASURE_WITH_UNIT (LENGTH_MEASURE( 1.000000000000000100E-005 ), #110, 'distance_accuracy_value', 'NONE');
#135 = MECHANICAL_CONTEXT ( 'NONE', #100, 'mechanical' ) ;
#136 = LOCAL_TIME ( 14, 2, 5.000000000000000000, #33 ) ;
#137 = PERSON_AND_ORGANIZATION_ROLE ( 'classification_officer' ) ;
#138 = CLOSED_SHELL ( 'NONE', ( #117, #350, #271, #41, #19, #296, #148, #236 ) ) ;
#139 = AXIS2_PLACEMENT_3D ( 'NONE', #233, #15, #179 ) ;
#140 = COORDINATED_UNIVERSAL_TIME_OFFSET ( 1, 0, .AHEAD. ) ;
#141 =( NAMED_UNIT ( * ) SI_UNIT ( $, .STERADIAN. ) SOLID_ANGLE_UNIT ( ) );
#142 =( NAMED_UNIT ( * ) SI_UNIT ( $, .STERADIAN. ) SOLID_ANGLE_UNIT ( ) );
#143 = DIRECTION ( 'NONE',  ( 0.0000000000000000000, -0.0000000000000000000, 1.000000000000000000 ) ) ;
#144 = SPHERICAL_SURFACE ( 'NONE', #107, 750.0000000000000000 ) ;
#145 = TOROIDAL_SURFACE ( 'NONE', #253, 26.70000000000000300, 0.8000000000000000400 ) ;
#146 = CALENDAR_DATE ( 2019, 11, 9 ) ;
#147 = DIRECTION ( 'NONE',  ( -1.000000000000000000, -1.836970198721029900E-016, 0.0000000000000000000 ) ) ;
#148 = ADVANCED_FACE ( 'NONE', ( #40, #268 ), #32, .T. ) ;
#149 = DIRECTION ( 'NONE',  ( -1.836970198721029900E-016, 1.000000000000000000, 0.0000000000000000000 ) ) ;
#150 = LOCAL_TIME ( 14, 2, 5.000000000000000000, #225 ) ;
#151 = PRODUCT_DEFINITION_FORMATION_WITH_SPECIFIED_SOURCE ( 'ANY', '', #69, .NOT_KNOWN. ) ;
#152 = ORIENTED_EDGE ( 'NONE', *, *, #122, .T. ) ;
#153 = CYLINDRICAL_SURFACE ( 'NONE', #258, 29.99999999999999600 ) ;
#154 = APPROVAL_STATUS ( 'not_yet_approved' ) ;
#155 = DATE_TIME_ROLE ( 'classification_date' ) ;
#156 = DATE_AND_TIME ( #232, #313 ) ;
#157 = FACE_OUTER_BOUND ( 'NONE', #280, .T. ) ;
#158 = APPROVAL_PERSON_ORGANIZATION ( #235, #92, #329 ) ;
#159 = EDGE_CURVE ( 'NONE', #129, #129, #222, .T. ) ;
#160 = APPROVAL_DATE_TIME ( #237, #30 ) ;
#161 = CC_DESIGN_APPROVAL ( #351, ( #189 ) ) ;
#162 = DESIGN_CONTEXT ( 'detailed design', #163, 'design' ) ;
#163 = APPLICATION_CONTEXT ( 'configuration controlled 3d designs of mechanical parts and assemblies' ) ;
#164 = CC_DESIGN_PERSON_AND_ORGANIZATION_ASSIGNMENT ( #16, #220, ( #176 ) ) ;
#165 = TOROIDAL_SURFACE ( 'NONE', #194, 29.49999999999999600, 0.5000000000000000000 ) ;
#166 = APPROVAL_STATUS ( 'not_yet_approved' ) ;
#167 = PERSON_AND_ORGANIZATION ( #42, #324 ) ;
#168 = APPROVAL_PERSON_ORGANIZATION ( #250, #30, #354 ) ;
#169 = PRODUCT_RELATED_PRODUCT_CATEGORY ( 'detail', '', ( #69 ) ) ;
#170 = CARTESIAN_POINT ( 'NONE',  ( 0.0000000000000000000, 0.0000000000000000000, 0.0000000000000000000 ) ) ;
#171 = DIRECTION ( 'NONE',  ( 1.000000000000000000, 2.312964634635743000E-016, 0.0000000000000000000 ) ) ;
#172 = APPROVAL ( #95, 'UNSPECIFIED' ) ;
#173 = UNCERTAINTY_MEASURE_WITH_UNIT (LENGTH_MEASURE( 1.000000000000000100E-005 ), #80, 'distance_accuracy_value', 'NONE');
#174 = CARTESIAN_POINT ( 'NONE',  ( 0.0000000000000000000, 0.0000000000000000000, 0.0000000000000000000 ) ) ;
#175 = CARTESIAN_POINT ( 'NONE',  ( -27.50000000000000000, -1.900000000000002100, 0.0000000000000000000 ) ) ;
#176 = PRODUCT_DEFINITION ( 'UNKNOWN', '', #275, #162 ) ;
#177 = PERSON_AND_ORGANIZATION ( #42, #324 ) ;
#178 = CYLINDRICAL_SURFACE ( 'NONE', #278, 27.50000000000000000 ) ;
#179 = DIRECTION ( 'NONE',  ( -1.000000000000000000, -1.843143693225357800E-016, 0.0000000000000000000 ) ) ;
#180 = CC_DESIGN_PERSON_AND_ORGANIZATION_ASSIGNMENT ( #265, #101, ( #275 ) ) ;
#181 = ORGANIZATION ( 'NAUO-ORG1', 'UNSPECIFIED', 'UNSPECIFIED' ) ;
#182 = AXIS2_PLACEMENT_3D ( 'NONE', #293, #322, #346 ) ;
#183 = PERSON_AND_ORGANIZATION ( #42, #324 ) ;
#184 = LOCAL_TIME ( 14, 2, 5.000000000000000000, #266 ) ;
#185 = PERSON_AND_ORGANIZATION_ROLE ( 'creator' ) ;
#186 = CARTESIAN_POINT ( 'NONE',  ( -26.70000000000000300, -1.900000000000002100, 0.0000000000000000000 ) ) ;
#187 = VERTEX_POINT ( 'NONE', #186 ) ;
#188 = DIRECTION ( 'NONE',  ( -1.836970198721029900E-016, 1.000000000000000000, 0.0000000000000000000 ) ) ;
#189 = SECURITY_CLASSIFICATION ( '', '', #215 ) ;
#190 = CC_DESIGN_SECURITY_CLASSIFICATION ( #67, ( #275 ) ) ;
#191 = AXIS2_PLACEMENT_3D ( 'NONE', #86, #18, #297 ) ;
#192 = COORDINATED_UNIVERSAL_TIME_OFFSET ( 1, 0, .AHEAD. ) ;
#193 = CC_DESIGN_APPROVAL ( #30, ( #151 ) ) ;
#194 = AXIS2_PLACEMENT_3D ( 'NONE', #130, #188, #98 ) ;
#195 = APPROVAL_STATUS ( 'not_yet_approved' ) ;
#196 = CALENDAR_DATE ( 2019, 11, 9 ) ;
#197 = CALENDAR_DATE ( 2019, 11, 9 ) ;
#198 = APPROVAL ( #166, 'UNSPECIFIED' ) ;
#199 = ORIENTED_EDGE ( 'NONE', *, *, #96, .F. ) ;
#200 = AXIS2_PLACEMENT_3D ( 'NONE', #209, #267, #147 ) ;
#201 = DIRECTION ( 'NONE',  ( 1.000000000000000000, 1.836970198721029700E-016, 0.0000000000000000000 ) ) ;
#202 = DIRECTION ( 'NONE',  ( 1.000000000000000000, 0.0000000000000000000, 0.0000000000000000000 ) ) ;
#203 = CARTESIAN_POINT ( 'NONE',  ( -5.075686450778860600E-015, 27.63075010314675200, 0.0000000000000000000 ) ) ;
#204 = AXIS2_PLACEMENT_3D ( 'NONE', #348, #218, #28 ) ;
#205 = DIRECTION ( 'NONE',  ( 1.000000000000000000, 0.0000000000000000000, 0.0000000000000000000 ) ) ;
#206 = PERSON_AND_ORGANIZATION ( #42, #324 ) ;
#207 = SHAPE_REPRESENTATION_RELATIONSHIP ( 'NONE' , 'NONE' ,  #321, #238 ) ;
#208 = ORIENTED_EDGE ( 'NONE', *, *, #159, .T. ) ;
#209 = CARTESIAN_POINT ( 'NONE',  ( -9.750020343460381500E-031, 5.312590645178971700E-015, 0.0000000000000000000 ) ) ;
#210 = CALENDAR_DATE ( 2019, 11, 9 ) ;
#211 = APPROVAL ( #255, 'UNSPECIFIED' ) ;
#212 = CC_DESIGN_PERSON_AND_ORGANIZATION_ASSIGNMENT ( #21, #25, ( #151 ) ) ;
#213 = APPLICATION_PROTOCOL_DEFINITION ( 'international standard', 'config_control_design', 1994, #37 ) ;
#214 = ORIENTED_EDGE ( 'NONE', *, *, #119, .F. ) ;
#215 = SECURITY_CLASSIFICATION_LEVEL ( 'unclassified' ) ;
#216 = CARTESIAN_POINT ( 'NONE',  ( -27.50000000000000000, 1.683889348827608000E-016, 0.0000000000000000000 ) ) ;
#217 = EDGE_LOOP ( 'NONE', ( #24 ) ) ;
#218 = DIRECTION ( 'NONE',  ( -1.836970198721029900E-016, 1.000000000000000000, 0.0000000000000000000 ) ) ;
#219 = APPROVAL_PERSON_ORGANIZATION ( #298, #351, #281 ) ;
#220 = PERSON_AND_ORGANIZATION_ROLE ( 'creator' ) ;
#221 = ORIENTED_EDGE ( 'NONE', *, *, #124, .F. ) ;
#222 = CIRCLE ( 'NONE', #204, 29.23117992525359600 ) ;
#223 = CC_DESIGN_DATE_AND_TIME_ASSIGNMENT ( #257, #334, ( #67 ) ) ;
#224 = LOCAL_TIME ( 14, 2, 5.000000000000000000, #306 ) ;
#225 = COORDINATED_UNIVERSAL_TIME_OFFSET ( 1, 0, .AHEAD. ) ;
#226 = DIRECTION ( 'NONE',  ( 0.0000000000000000000, 0.0000000000000000000, 1.000000000000000000 ) ) ;
#227 = DIRECTION ( 'NONE',  ( 1.836970198721029900E-016, -1.000000000000000000, -0.0000000000000000000 ) ) ;
#228 = EDGE_LOOP ( 'NONE', ( #214 ) ) ;
#229 = CIRCLE ( 'NONE', #200, 29.49999999999999600 ) ;
#230 = CC_DESIGN_PERSON_AND_ORGANIZATION_ASSIGNMENT ( #333, #284, ( #275 ) ) ;
#231 = CARTESIAN_POINT ( 'NONE',  ( 0.0000000000000000000, -721.0000000000000000, 0.0000000000000000000 ) ) ;
#232 = CALENDAR_DATE ( 2019, 11, 9 ) ;
#233 = CARTESIAN_POINT ( 'NONE',  ( -9.184850993605248300E-017, 0.5000000000000053300, 0.0000000000000000000 ) ) ;
#234 = CARTESIAN_POINT ( 'NONE',  ( -27.50000000000000000, -1.100000000000002100, 0.0000000000000000000 ) ) ;
#235 = PERSON_AND_ORGANIZATION ( #91, #181 ) ;
#236 = ADVANCED_FACE ( 'NONE', ( #6, #301 ), #145, .T. ) ;
#237 = DATE_AND_TIME ( #315, #29 ) ;
#238 = ADVANCED_BREP_SHAPE_REPRESENTATION ( '', ( #340, #251 ), #261 ) ;
#239 = VERTEX_POINT ( 'NONE', #273 ) ;
#240 = AXIS2_PLACEMENT_3D ( 'NONE', #263, #84, #291 ) ;
#241 = AXIS2_PLACEMENT_3D ( 'NONE', #36, #226, #63 ) ;
#242 = FACE_OUTER_BOUND ( 'NONE', #5, .T. ) ;
#243 = AXIS2_PLACEMENT_3D ( 'NONE', #269, #88, #295 ) ;
#244 = PERSON_AND_ORGANIZATION_ROLE ( 'design_owner' ) ;
#245 = DATE_TIME_ROLE ( 'classification_date' ) ;
#246 = PERSON_AND_ORGANIZATION ( #42, #324 ) ;
#247 = CARTESIAN_POINT ( 'NONE',  ( 27.50000000000000000, 1.019518460290171500E-014, 0.0000000000000000000 ) ) ;
#248 = PLANE ( 'NONE',  #264 ) ;
#249 = CARTESIAN_POINT ( 'NONE',  ( 0.0000000000000000000, 0.0000000000000000000, 0.0000000000000000000 ) ) ;
#250 = PERSON_AND_ORGANIZATION ( #42, #324 ) ;
#251 = AXIS2_PLACEMENT_3D ( 'NONE', #170, #9, #202 ) ;
#252 = CC_DESIGN_PERSON_AND_ORGANIZATION_ASSIGNMENT ( #206, #244, ( #69 ) ) ;
#253 = AXIS2_PLACEMENT_3D ( 'NONE', #345, #149, #74 ) ;
#254 =( GEOMETRIC_REPRESENTATION_CONTEXT ( 3 ) GLOBAL_UNCERTAINTY_ASSIGNED_CONTEXT ( ( #134 ) ) GLOBAL_UNIT_ASSIGNED_CONTEXT ( ( #110, #319, #142 ) ) REPRESENTATION_CONTEXT ( 'NONE', 'WORKASPACE' ) );
#255 = APPROVAL_STATUS ( 'not_yet_approved' ) ;
#256 = CC_DESIGN_PERSON_AND_ORGANIZATION_ASSIGNMENT ( #235, #356, ( #274 ) ) ;
#257 = DATE_AND_TIME ( #327, #38 ) ;
#258 = AXIS2_PLACEMENT_3D ( 'NONE', #249, #50, #201 ) ;
#259 = CIRCLE ( 'NONE', #243, 27.50000000000000000 ) ;
#260 = SHAPE_REPRESENTATION ( '36608740-00', ( #93, #240 ), #254 ) ;
#261 =( GEOMETRIC_REPRESENTATION_CONTEXT ( 3 ) GLOBAL_UNCERTAINTY_ASSIGNED_CONTEXT ( ( #173 ) ) GLOBAL_UNIT_ASSIGNED_CONTEXT ( ( #80, #316, #141 ) ) REPRESENTATION_CONTEXT ( 'NONE', 'WORKASPACE' ) );
#262 = APPROVAL_DATE_TIME ( #331, #92 ) ;
#263 = CARTESIAN_POINT ( 'NONE',  ( 3.469446951953614200E-015, 9.614621045796941800E-016, 1.899999999999971000 ) ) ;
#264 = AXIS2_PLACEMENT_3D ( 'NONE', #216, #305, #26 ) ;
#265 = PERSON_AND_ORGANIZATION ( #42, #324 ) ;
#266 = COORDINATED_UNIVERSAL_TIME_OFFSET ( 1, 0, .AHEAD. ) ;
#267 = DIRECTION ( 'NONE',  ( 1.836970198721029900E-016, -1.000000000000000000, -0.0000000000000000000 ) ) ;
#268 = FACE_OUTER_BOUND ( 'NONE', #286, .T. ) ;
#269 = CARTESIAN_POINT ( 'NONE',  ( -9.448486630769704900E-031, 5.143516556418883300E-015, 0.0000000000000000000 ) ) ;
#270 = PRODUCT_DEFINITION_SHAPE ( 'NONE', 'NONE',  #282 ) ;
#271 = ADVANCED_FACE ( 'NONE', ( #78, #242 ), #153, .T. ) ;
#272 = DATE_AND_TIME ( #339, #51 ) ;
#273 = CARTESIAN_POINT ( 'NONE',  ( -29.49999999999999600, -1.064714410480657800E-016, 0.0000000000000000000 ) ) ;
#274 = SECURITY_CLASSIFICATION ( '', '', #303 ) ;
#275 = PRODUCT_DEFINITION_FORMATION_WITH_SPECIFIED_SOURCE ( 'ANY', '', #357, .NOT_KNOWN. ) ;
#276 = LOCAL_TIME ( 14, 2, 5.000000000000000000, #342 ) ;
#277 = LOCAL_TIME ( 14, 2, 5.000000000000000000, #343 ) ;
#278 = AXIS2_PLACEMENT_3D ( 'NONE', #320, #227, #292 ) ;
#279 = APPLICATION_PROTOCOL_DEFINITION ( 'international standard', 'config_control_design', 1994, #71 ) ;
#280 = EDGE_LOOP ( 'NONE', ( #221 ) ) ;
#281 = APPROVAL_ROLE ( '' ) ;
#282 = PRODUCT_DEFINITION ( 'UNKNOWN', '', #151, #358 ) ;
#283 = APPROVAL_DATE_TIME ( #352, #198 ) ;
#284 = PERSON_AND_ORGANIZATION_ROLE ( 'creator' ) ;
#285 = CIRCLE ( 'NONE', #116, 29.99999999999999600 ) ;
#286 = EDGE_LOOP ( 'NONE', ( #347 ) ) ;
#287 = LOCAL_TIME ( 14, 2, 5.000000000000000000, #140 ) ;
#288 = CC_DESIGN_PERSON_AND_ORGANIZATION_ASSIGNMENT ( #82, #185, ( #151 ) ) ;
#289 = DIRECTION ( 'NONE',  ( -1.000000000000000000, -1.867913855218471900E-016, 0.0000000000000000000 ) ) ;
#290 = CC_DESIGN_APPROVAL ( #198, ( #67 ) ) ;
#291 = DIRECTION ( 'NONE',  ( 1.000000000000000000, 1.670086752944148900E-016, -3.885780586188047900E-016 ) ) ;
#292 = DIRECTION ( 'NONE',  ( 1.000000000000000000, 1.836970198721029700E-016, 0.0000000000000000000 ) ) ;
#293 = CARTESIAN_POINT ( 'NONE',  ( -5.075686450778869300E-015, 27.63075010314675200, 0.0000000000000000000 ) ) ;
#294 = EDGE_LOOP ( 'NONE', ( #311 ) ) ;
#295 = DIRECTION ( 'NONE',  ( 1.000000000000000000, 1.836970198721029700E-016, 0.0000000000000000000 ) ) ;
#296 = ADVANCED_FACE ( 'NONE', ( #14, #157 ), #165, .T. ) ;
#297 = DIRECTION ( 'NONE',  ( -1.000000000000000000, -1.813574543066662000E-016, 0.0000000000000000000 ) ) ;
#298 = PERSON_AND_ORGANIZATION ( #42, #324 ) ;
#299 = CC_DESIGN_APPROVAL ( #211, ( #275 ) ) ;
#300 = ORIENTED_EDGE ( 'NONE', *, *, #122, .F. ) ;
#301 = FACE_OUTER_BOUND ( 'NONE', #126, .T. ) ;
#302 = APPROVAL_ROLE ( '' ) ;
#303 = SECURITY_CLASSIFICATION_LEVEL ( 'unclassified' ) ;
#304 = FACE_OUTER_BOUND ( 'NONE', #131, .T. ) ;
#305 = DIRECTION ( 'NONE',  ( -1.836970198721029900E-016, 1.000000000000000000, 0.0000000000000000000 ) ) ;
#306 = COORDINATED_UNIVERSAL_TIME_OFFSET ( 1, 0, .AHEAD. ) ;
#307 = CC_DESIGN_SECURITY_CLASSIFICATION ( #274, ( #359 ) ) ;
#308 = PERSON_AND_ORGANIZATION ( #42, #324 ) ;
#309 = APPLICATION_PROTOCOL_DEFINITION ( 'international standard', 'config_control_design', 1994, #100 ) ;
#310 = APPROVAL ( #195, 'UNSPECIFIED' ) ;
#311 = ORIENTED_EDGE ( 'NONE', *, *, #83, .T. ) ;
#312 = SECURITY_CLASSIFICATION_LEVEL ( 'unclassified' ) ;
#313 = LOCAL_TIME ( 14, 2, 5.000000000000000000, #27 ) ;
#314 = PRODUCT_DEFINITION_SHAPE ( 'NONE', 'NONE',  #176 ) ;
#315 = CALENDAR_DATE ( 2019, 11, 9 ) ;
#316 =( NAMED_UNIT ( * ) PLANE_ANGLE_UNIT ( ) SI_UNIT ( $, .RADIAN. ) );
#317 = CARTESIAN_POINT ( 'NONE',  ( 3.490243377569951600E-016, -1.899999999999997200, 0.0000000000000000000 ) ) ;
#318 = VERTEX_POINT ( 'NONE', #234 ) ;
#319 =( NAMED_UNIT ( * ) PLANE_ANGLE_UNIT ( ) SI_UNIT ( $, .RADIAN. ) );
#320 = CARTESIAN_POINT ( 'NONE',  ( 0.0000000000000000000, 0.0000000000000000000, 0.0000000000000000000 ) ) ;
#321 = SHAPE_REPRESENTATION ( 'Planungsmodell_Griff-+-09.20.74.019-1_K1', ( #251 ), #261 ) ;
#322 = DIRECTION ( 'NONE',  ( 1.836970198721029900E-016, -1.000000000000000000, -0.0000000000000000000 ) ) ;
#323 = PRODUCT_RELATED_PRODUCT_CATEGORY ( 'detail', '', ( #357 ) ) ;
#324 = ORGANIZATION ( 'UNSPECIFIED', 'UNSPECIFIED', '' ) ;
#325 = CC_DESIGN_PERSON_AND_ORGANIZATION_ASSIGNMENT ( #308, #47, ( #189 ) ) ;
#326 = CC_DESIGN_APPROVAL ( #172, ( #282 ) ) ;
#327 = CALENDAR_DATE ( 2019, 11, 9 ) ;
#328 = DATE_TIME_ROLE ( 'creation_date' ) ;
#329 = APPROVAL_ROLE ( '' ) ;
#330 = FACE_OUTER_BOUND ( 'NONE', #353, .T. ) ;
#331 = DATE_AND_TIME ( #43, #108 ) ;
#332 = PERSON_AND_ORGANIZATION_ROLE ( 'design_owner' ) ;
#333 = PERSON_AND_ORGANIZATION ( #42, #324 ) ;
#334 = DATE_TIME_ROLE ( 'classification_date' ) ;
#335 = PERSON_AND_ORGANIZATION ( #42, #324 ) ;
#336 = ORIENTED_EDGE ( 'NONE', *, *, #96, .T. ) ;
#337 = SHAPE_DEFINITION_REPRESENTATION ( #314, #260 ) ;
#338 = CC_DESIGN_DATE_AND_TIME_ASSIGNMENT ( #8, #245, ( #189 ) ) ;
#339 = CALENDAR_DATE ( 2019, 11, 9 ) ;
#340 = MANIFOLD_SOLID_BREP ( 'Verrundung2', #138 ) ;
#341 = PLANE ( 'NONE',  #114 ) ;
#342 = COORDINATED_UNIVERSAL_TIME_OFFSET ( 1, 0, .AHEAD. ) ;
#343 = COORDINATED_UNIVERSAL_TIME_OFFSET ( 1, 0, .AHEAD. ) ;
#344 = FACE_OUTER_BOUND ( 'NONE', #115, .T. ) ;
#345 = CARTESIAN_POINT ( 'NONE',  ( 2.020667218593127600E-016, -1.099999999999997000, 0.0000000000000000000 ) ) ;
#346 = DIRECTION ( 'NONE',  ( 1.000000000000000000, 1.836970198721029900E-016, 0.0000000000000000000 ) ) ;
#347 = ORIENTED_EDGE ( 'NONE', *, *, #83, .F. ) ;
#348 = CARTESIAN_POINT ( 'NONE',  ( -1.376680837345486100E-013, 28.43014225488516200, 0.0000000000000000000 ) ) ;
#349 = ITEM_DEFINED_TRANSFORMATION ( 'NONE', 'NONE', #240,  #251 ) ;
#350 = ADVANCED_FACE ( 'NONE', ( #133, #61 ), #248, .F. ) ;
#351 = APPROVAL ( #72, 'UNSPECIFIED' ) ;
#352 = DATE_AND_TIME ( #65, #136 ) ;
#353 = EDGE_LOOP ( 'NONE', ( #77 ) ) ;
#354 = APPROVAL_ROLE ( '' ) ;
#355 = CARTESIAN_POINT ( 'NONE',  ( 29.99999999999999300, 27.63075010314675600, 0.0000000000000000000 ) ) ;
#356 = PERSON_AND_ORGANIZATION_ROLE ( 'classification_officer' ) ;
#357 = PRODUCT ( '36608740-00', '36608740-00', '', ( #135 ) ) ;
#358 = DESIGN_CONTEXT ( 'detailed design', #71, 'design' ) ;
#359 = NEXT_ASSEMBLY_USAGE_OCCURRENCE ( 'NAUO1', ' ', ' ', #176, #282, $ ) ;
ENDSEC;
END-ISO-10303-21;
