ISO-10303-21;
HEADER;
FILE_DESCRIPTION (( 'STEP AP203' ),
    '1' );
FILE_NAME ('36607740-00.STEP',
    '2019-09-11T09:09:52',
    ( '' ),
    ( '' ),
    'SwSTEP 2.0',
    'SolidWorks 2017',
    '' );
FILE_SCHEMA (( 'CONFIG_CONTROL_DESIGN' ));
ENDSEC;

DATA;
#1 = AXIS2_PLACEMENT_3D ( 'NONE', #122, #124, #126 ) ;
#2 = DESIGN_CONTEXT ( 'detailed design', #63, 'design' ) ;
#3 = DIRECTION ( 'NONE',  ( 1.836970198721029900E-016, -1.000000000000000000, -0.0000000000000000000 ) ) ;
#4 = PERSON_AND_ORGANIZATION ( #192, #278 ) ;
#5 = AXIS2_PLACEMENT_3D ( 'NONE', #95, #78, #110 ) ;
#6 = PERSON_AND_ORGANIZATION ( #192, #278 ) ;
#7 = DIRECTION ( 'NONE',  ( 1.000000000000000000, 1.480297366166875300E-016, 0.0000000000000000000 ) ) ;
#8 = DIRECTION ( 'NONE',  ( 0.0000000000000000000, -0.0000000000000000000, 1.000000000000000000 ) ) ;
#9 = SECURITY_CLASSIFICATION ( '', '', #101 ) ;
#10 = CARTESIAN_POINT ( 'NONE',  ( 0.0000000000000000000, -721.0000000000000000, 0.0000000000000000000 ) ) ;
#11 = DATE_AND_TIME ( #354, #44 ) ;
#12 = CARTESIAN_POINT ( 'NONE',  ( -5.075686450778869300E-015, 27.63075010314675200, 0.0000000000000000000 ) ) ;
#13 = DIRECTION ( 'NONE',  ( -1.836970198721029900E-016, 1.000000000000000000, 0.0000000000000000000 ) ) ;
#14 = APPROVAL_PERSON_ORGANIZATION ( #214, #353, #154 ) ;
#15 = CARTESIAN_POINT ( 'NONE',  ( -5.075686450778860600E-015, 27.63075010314675200, 0.0000000000000000000 ) ) ;
#16 = DIRECTION ( 'NONE',  ( 1.836970198721029900E-016, -1.000000000000000000, -0.0000000000000000000 ) ) ;
#17 = DIRECTION ( 'NONE',  ( 1.000000000000000000, 2.312964634635743000E-016, 0.0000000000000000000 ) ) ;
#18 = DATE_AND_TIME ( #283, #239 ) ;
#19 = DIRECTION ( 'NONE',  ( 1.000000000000000000, 1.836970198721029900E-016, 0.0000000000000000000 ) ) ;
#20 = SHAPE_REPRESENTATION ( 'Planungsmodell_Griff-+-09.20.74.019-1_K1', ( #204 ), #215 ) ;
#21 = DIRECTION ( 'NONE',  ( 1.836970198721029900E-016, -1.000000000000000000, -0.0000000000000000000 ) ) ;
#22 = AXIS2_PLACEMENT_3D ( 'NONE', #74, #13, #52 ) ;
#23 = DIRECTION ( 'NONE',  ( 1.000000000000000000, 1.836970198721029700E-016, 0.0000000000000000000 ) ) ;
#24 = CARTESIAN_POINT ( 'NONE',  ( -9.448486630769704900E-031, 5.143516556418883300E-015, 0.0000000000000000000 ) ) ;
#25 = CC_DESIGN_DATE_AND_TIME_ASSIGNMENT ( #251, #151, ( #170 ) ) ;
#26 = DIRECTION ( 'NONE',  ( 1.836970198721029900E-016, -1.000000000000000000, -0.0000000000000000000 ) ) ;
#27 = DIRECTION ( 'NONE',  ( 1.000000000000000000, 1.836970198721029700E-016, 0.0000000000000000000 ) ) ;
#28 = CARTESIAN_POINT ( 'NONE',  ( 0.0000000000000000000, 0.0000000000000000000, 0.0000000000000000000 ) ) ;
#29 = CARTESIAN_POINT ( 'NONE',  ( -9.750020343460381500E-031, 5.312590645178971700E-015, 0.0000000000000000000 ) ) ;
#30 = DIRECTION ( 'NONE',  ( 1.836970198721029900E-016, -1.000000000000000000, -0.0000000000000000000 ) ) ;
#31 = DIRECTION ( 'NONE',  ( -1.000000000000000000, -1.836970198721029900E-016, 0.0000000000000000000 ) ) ;
#32 = DATE_AND_TIME ( #334, #216 ) ;
#33 = APPLICATION_PROTOCOL_DEFINITION ( 'international standard', 'config_control_design', 1994, #166 ) ;
#34 = CARTESIAN_POINT ( 'NONE',  ( -9.184850993605248300E-017, 0.5000000000000053300, 0.0000000000000000000 ) ) ;
#35 = PERSON_AND_ORGANIZATION_ROLE ( 'classification_officer' ) ;
#36 = DIRECTION ( 'NONE',  ( -1.836970198721029900E-016, 1.000000000000000000, 0.0000000000000000000 ) ) ;
#37 = DIRECTION ( 'NONE',  ( -1.000000000000000000, -1.843143693225357800E-016, 0.0000000000000000000 ) ) ;
#38 = AXIS2_PLACEMENT_3D ( 'NONE', #51, #48, #64 ) ;
#39 = CARTESIAN_POINT ( 'NONE',  ( -27.50000000000000000, -1.900000000000002100, 0.0000000000000000000 ) ) ;
#40 = CARTESIAN_POINT ( 'NONE',  ( -1.376680837345486100E-013, 28.43014225488516200, 0.0000000000000000000 ) ) ;
#41 = DIRECTION ( 'NONE',  ( -1.836970198721029900E-016, 1.000000000000000000, 0.0000000000000000000 ) ) ;
#42 = DIRECTION ( 'NONE',  ( 1.000000000000000000, 2.373798772971368700E-016, 0.0000000000000000000 ) ) ;
#43 = PLANE ( 'NONE',  #173 ) ;
#44 = LOCAL_TIME ( 11, 9, 52.00000000000000000, #238 ) ;
#45 = DIRECTION ( 'NONE',  ( -1.836970198721029900E-016, 1.000000000000000000, 0.0000000000000000000 ) ) ;
#46 = CC_DESIGN_SECURITY_CLASSIFICATION ( #199, ( #329 ) ) ;
#47 = DIRECTION ( 'NONE',  ( -1.000000000000000000, -1.836970198721029900E-016, 0.0000000000000000000 ) ) ;
#48 = DIRECTION ( 'NONE',  ( -1.836970198721029900E-016, 1.000000000000000000, 0.0000000000000000000 ) ) ;
#49 = CARTESIAN_POINT ( 'NONE',  ( -27.50000000000000000, 1.683889348827608000E-016, 0.0000000000000000000 ) ) ;
#50 = ORIENTED_EDGE ( 'NONE', *, *, #186, .T. ) ;
#51 = CARTESIAN_POINT ( 'NONE',  ( -9.184850993605248300E-017, 0.5000000000000053300, 0.0000000000000000000 ) ) ;
#52 = DIRECTION ( 'NONE',  ( -1.000000000000000000, -1.836970198721029900E-016, 0.0000000000000000000 ) ) ;
#53 = COORDINATED_UNIVERSAL_TIME_OFFSET ( 1, 0, .AHEAD. ) ;
#54 = PLANE ( 'NONE',  #342 ) ;
#55 = AXIS2_PLACEMENT_3D ( 'NONE', #34, #36, #37 ) ;
#56 = CARTESIAN_POINT ( 'NONE',  ( 3.490243377569951600E-016, -1.899999999999997200, 0.0000000000000000000 ) ) ;
#57 = FACE_OUTER_BOUND ( 'NONE', #221, .T. ) ;
#58 = DIRECTION ( 'NONE',  ( 1.836970198721029900E-016, -1.000000000000000000, -0.0000000000000000000 ) ) ;
#59 = DATE_TIME_ROLE ( 'creation_date' ) ;
#60 = DIRECTION ( 'NONE',  ( -1.000000000000000000, -1.867913855218471900E-016, 0.0000000000000000000 ) ) ;
#61 = APPROVAL_ROLE ( '' ) ;
#62 = UNCERTAINTY_MEASURE_WITH_UNIT (LENGTH_MEASURE( 1.000000000000000100E-005 ), #134, 'distance_accuracy_value', 'NONE');
#63 = APPLICATION_CONTEXT ( 'configuration controlled 3d designs of mechanical parts and assemblies' ) ;
#64 = DIRECTION ( 'NONE',  ( -1.000000000000000000, -1.836970198721029900E-016, 0.0000000000000000000 ) ) ;
#65 = MECHANICAL_CONTEXT ( 'NONE', #166, 'mechanical' ) ;
#66 = APPROVAL_STATUS ( 'not_yet_approved' ) ;
#67 = APPLICATION_PROTOCOL_DEFINITION ( 'international standard', 'config_control_design', 1994, #63 ) ;
#68 = PERSON_AND_ORGANIZATION_ROLE ( 'design_owner' ) ;
#69 = PERSON_AND_ORGANIZATION_ROLE ( 'creator' ) ;
#70 = PERSON_AND_ORGANIZATION ( #192, #278 ) ;
#71 = TOROIDAL_SURFACE ( 'NONE', #201, 29.19999999999999600, 0.8000000000000000400 ) ;
#72 = APPROVAL_DATE_TIME ( #311, #273 ) ;
#73 = SHAPE_REPRESENTATION ( '36607740-00', ( #335, #319 ), #183 ) ;
#74 = CARTESIAN_POINT ( 'NONE',  ( 2.020667218593127600E-016, -1.099999999999997000, 0.0000000000000000000 ) ) ;
#75 = CARTESIAN_POINT ( 'NONE',  ( 29.99999999999999300, 27.63075010314675600, 0.0000000000000000000 ) ) ;
#76 = CARTESIAN_POINT ( 'NONE',  ( 2.020667218593127600E-016, -1.099999999999997000, 0.0000000000000000000 ) ) ;
#77 = DIRECTION ( 'NONE',  ( -1.836970198721029900E-016, 1.000000000000000000, 0.0000000000000000000 ) ) ;
#78 = DIRECTION ( 'NONE',  ( 1.836970198721029900E-016, -1.000000000000000000, -0.0000000000000000000 ) ) ;
#79 = CARTESIAN_POINT ( 'NONE',  ( -29.99999999999999600, 0.4999999999999997800, 0.0000000000000000000 ) ) ;
#80 = COORDINATED_UNIVERSAL_TIME_OFFSET ( 1, 0, .AHEAD. ) ;
#81 = CARTESIAN_POINT ( 'NONE',  ( 27.50000000000000000, 1.019518460290171500E-014, 0.0000000000000000000 ) ) ;
#82 = CARTESIAN_POINT ( 'NONE',  ( -29.49999999999999600, -1.064714410480657800E-016, 0.0000000000000000000 ) ) ;
#83 = CARTESIAN_POINT ( 'NONE',  ( 29.23117992525345700, 28.43014225488516500, 0.0000000000000000000 ) ) ;
#84 = APPROVAL_STATUS ( 'not_yet_approved' ) ;
#85 = DATE_TIME_ROLE ( 'classification_date' ) ;
#86 = CC_DESIGN_PERSON_AND_ORGANIZATION_ASSIGNMENT ( #356, #35, ( #9 ) ) ;
#87 = APPROVAL_ROLE ( '' ) ;
#88 = APPROVAL_STATUS ( 'not_yet_approved' ) ;
#89 = CARTESIAN_POINT ( 'NONE',  ( -26.70000000000000300, -1.900000000000002100, 0.0000000000000000000 ) ) ;
#90 = APPROVAL_ROLE ( '' ) ;
#91 = PERSON_AND_ORGANIZATION_ROLE ( 'creator' ) ;
#92 = PERSON_AND_ORGANIZATION_ROLE ( 'design_supplier' ) ;
#93 = SECURITY_CLASSIFICATION_LEVEL ( 'unclassified' ) ;
#94 = PERSON_AND_ORGANIZATION_ROLE ( 'classification_officer' ) ;
#95 = CARTESIAN_POINT ( 'NONE',  ( 0.0000000000000000000, 0.0000000000000000000, 0.0000000000000000000 ) ) ;
#96 = CC_DESIGN_PERSON_AND_ORGANIZATION_ASSIGNMENT ( #70, #68, ( #184 ) ) ;
#97 = DATE_TIME_ROLE ( 'classification_date' ) ;
#98 = APPROVAL_STATUS ( 'not_yet_approved' ) ;
#99 = APPROVAL_ROLE ( '' ) ;
#100 =( REPRESENTATION_RELATIONSHIP ('NONE','NONE', #73, #20 ) REPRESENTATION_RELATIONSHIP_WITH_TRANSFORMATION ( #230 )SHAPE_REPRESENTATION_RELATIONSHIP( ) );
#101 = SECURITY_CLASSIFICATION_LEVEL ( 'unclassified' ) ;
#102 = CARTESIAN_POINT ( 'NONE',  ( -27.50000000000000000, -1.100000000000002100, 0.0000000000000000000 ) ) ;
#103 =( LENGTH_UNIT ( ) NAMED_UNIT ( * ) SI_UNIT ( .MILLI., .METRE. ) );
#104 =( NAMED_UNIT ( * ) PLANE_ANGLE_UNIT ( ) SI_UNIT ( $, .RADIAN. ) );
#105 =( NAMED_UNIT ( * ) SI_UNIT ( $, .STERADIAN. ) SOLID_ANGLE_UNIT ( ) );
#106 = ADVANCED_FACE ( 'NONE', ( #293 ), #341, .T. ) ;
#107 = CC_DESIGN_APPROVAL ( #111, ( #9 ) ) ;
#108 = EDGE_LOOP ( 'NONE', ( #219 ) ) ;
#109 = EDGE_CURVE ( 'NONE', #289, #289, #229, .T. ) ;
#110 = DIRECTION ( 'NONE',  ( 1.000000000000000000, 1.836970198721029700E-016, 0.0000000000000000000 ) ) ;
#111 = APPROVAL ( #84, 'UNKNOWN' ) ;
#112 = CALENDAR_DATE ( 2019, 11, 9 ) ;
#113 = CARTESIAN_POINT ( 'NONE',  ( 0.0000000000000000000, 0.0000000000000000000, 0.0000000000000000000 ) ) ;
#114 = APPROVAL_ROLE ( '' ) ;
#115 = DIRECTION ( 'NONE',  ( 0.0000000000000000000, 0.0000000000000000000, 1.000000000000000000 ) ) ;
#116 = CC_DESIGN_SECURITY_CLASSIFICATION ( #9, ( #359 ) ) ;
#117 = DIRECTION ( 'NONE',  ( -1.000000000000000000, -1.836970198721029900E-016, 0.0000000000000000000 ) ) ;
#118 = APPROVAL_DATE_TIME ( #143, #187 ) ;
#119 = CIRCLE ( 'NONE', #220, 26.70000000000000300 ) ;
#120 = PRODUCT_RELATED_PRODUCT_CATEGORY ( 'detail', '', ( #184 ) ) ;
#121 = DIRECTION ( 'NONE',  ( 1.000000000000000000, 0.0000000000000000000, 0.0000000000000000000 ) ) ;
#122 = CARTESIAN_POINT ( 'NONE',  ( 0.0000000000000000000, 0.0000000000000000000, 0.0000000000000000000 ) ) ;
#123 = PERSON_AND_ORGANIZATION ( #192, #278 ) ;
#124 = DIRECTION ( 'NONE',  ( 0.0000000000000000000, 0.0000000000000000000, 1.000000000000000000 ) ) ;
#125 = CALENDAR_DATE ( 2019, 11, 9 ) ;
#126 = DIRECTION ( 'NONE',  ( 1.000000000000000000, 0.0000000000000000000, 0.0000000000000000000 ) ) ;
#127 = CARTESIAN_POINT ( 'NONE',  ( 0.0000000000000000000, 2.448268560813804400E-015, 1.899999999999950600 ) ) ;
#128 = CC_DESIGN_SECURITY_CLASSIFICATION ( #158, ( #196 ) ) ;
#129 = DIRECTION ( 'NONE',  ( 1.305682507125086700E-016, -1.000000000000000000, -1.671306121320169300E-016 ) ) ;
#130 = ADVANCED_FACE ( 'NONE', ( #57, #340 ), #71, .T. ) ;
#131 = DIRECTION ( 'NONE',  ( -1.836970198721029900E-016, 1.000000000000000000, 0.0000000000000000000 ) ) ;
#132 = CC_DESIGN_APPROVAL ( #137, ( #158 ) ) ;
#133 = DIRECTION ( 'NONE',  ( 1.000000000000000000, 1.670086752944148900E-016, -3.885780586188047900E-016 ) ) ;
#134 =( LENGTH_UNIT ( ) NAMED_UNIT ( * ) SI_UNIT ( .MILLI., .METRE. ) );
#135 = DIRECTION ( 'NONE',  ( -1.000000000000000000, -1.813574543066662000E-016, 0.0000000000000000000 ) ) ;
#136 =( NAMED_UNIT ( * ) PLANE_ANGLE_UNIT ( ) SI_UNIT ( $, .RADIAN. ) );
#137 = APPROVAL ( #98, 'UNSPECIFIED' ) ;
#138 =( NAMED_UNIT ( * ) SI_UNIT ( $, .STERADIAN. ) SOLID_ANGLE_UNIT ( ) );
#139 = APPLICATION_PROTOCOL_DEFINITION ( 'international standard', 'config_control_design', 1994, #177 ) ;
#140 = MECHANICAL_CONTEXT ( 'NONE', #177, 'mechanical' ) ;
#141 = PERSON_AND_ORGANIZATION_ROLE ( 'design_owner' ) ;
#142 = APPLICATION_CONTEXT ( 'configuration controlled 3d designs of mechanical parts and assemblies' ) ;
#143 = DATE_AND_TIME ( #112, #207 ) ;
#144 = CC_DESIGN_DATE_AND_TIME_ASSIGNMENT ( #18, #97, ( #158 ) ) ;
#145 = APPLICATION_PROTOCOL_DEFINITION ( 'international standard', 'config_control_design', 1994, #142 ) ;
#146 = APPROVAL_STATUS ( 'not_yet_approved' ) ;
#147 = PERSON_AND_ORGANIZATION ( #192, #278 ) ;
#148 = APPROVAL_ROLE ( '' ) ;
#149 = PERSON_AND_ORGANIZATION ( #192, #278 ) ;
#150 = PERSON_AND_ORGANIZATION_ROLE ( 'creator' ) ;
#151 = DATE_TIME_ROLE ( 'creation_date' ) ;
#152 = APPROVAL_STATUS ( 'not_yet_approved' ) ;
#153 = CC_DESIGN_PERSON_AND_ORGANIZATION_ASSIGNMENT ( #358, #94, ( #158 ) ) ;
#154 = APPROVAL_ROLE ( '' ) ;
#155 = PERSON_AND_ORGANIZATION_ROLE ( 'creator' ) ;
#156 = PERSON_AND_ORGANIZATION_ROLE ( 'design_supplier' ) ;
#157 = ADVANCED_FACE ( 'NONE', ( #290, #346 ), #327, .T. ) ;
#158 = SECURITY_CLASSIFICATION ( '', '', #93 ) ;
#159 = CC_DESIGN_PERSON_AND_ORGANIZATION_ASSIGNMENT ( #277, #141, ( #222 ) ) ;
#160 = CC_DESIGN_DATE_AND_TIME_ASSIGNMENT ( #250, #85, ( #9 ) ) ;
#161 = FACE_OUTER_BOUND ( 'NONE', #253, .T. ) ;
#162 = SECURITY_CLASSIFICATION_LEVEL ( 'unclassified' ) ;
#163 = DESIGN_CONTEXT ( 'detailed design', #142, 'design' ) ;
#164 = CC_DESIGN_APPROVAL ( #353, ( #329 ) ) ;
#165 = PERSON_AND_ORGANIZATION_ROLE ( 'classification_officer' ) ;
#166 = APPLICATION_CONTEXT ( 'configuration controlled 3d designs of mechanical parts and assemblies' ) ;
#167 = CC_DESIGN_PERSON_AND_ORGANIZATION_ASSIGNMENT ( #268, #155, ( #329 ) ) ;
#168 = COORDINATED_UNIVERSAL_TIME_OFFSET ( 1, 0, .AHEAD. ) ;
#169 = DIRECTION ( 'NONE',  ( 1.000000000000000000, 0.0000000000000000000, 0.0000000000000000000 ) ) ;
#170 = PRODUCT_DEFINITION ( 'UNKNOWN', '', #329, #163 ) ;
#171 = CC_DESIGN_PERSON_AND_ORGANIZATION_ASSIGNMENT ( #123, #92, ( #196 ) ) ;
#172 = DIRECTION ( 'NONE',  ( 0.0000000000000000000, 0.0000000000000000000, 1.000000000000000000 ) ) ;
#173 = AXIS2_PLACEMENT_3D ( 'NONE', #39, #45, #47 ) ;
#174 = ADVANCED_BREP_SHAPE_REPRESENTATION ( '', ( #203, #204 ), #215 ) ;
#175 = CARTESIAN_POINT ( 'NONE',  ( 0.0000000000000000000, 0.0000000000000000000, 0.0000000000000000000 ) ) ;
#176 = CC_DESIGN_PERSON_AND_ORGANIZATION_ASSIGNMENT ( #149, #91, ( #196 ) ) ;
#177 = APPLICATION_CONTEXT ( 'configuration controlled 3d designs of mechanical parts and assemblies' ) ;
#178 = DATE_AND_TIME ( #125, #248 ) ;
#179 = CC_DESIGN_APPROVAL ( #187, ( #196 ) ) ;
#180 = LOCAL_TIME ( 11, 9, 52.00000000000000000, #168 ) ;
#181 = DATE_TIME_ROLE ( 'classification_date' ) ;
#182 = EDGE_CURVE ( 'NONE', #338, #338, #352, .T. ) ;
#183 =( GEOMETRIC_REPRESENTATION_CONTEXT ( 3 ) GLOBAL_UNCERTAINTY_ASSIGNED_CONTEXT ( ( #62 ) ) GLOBAL_UNIT_ASSIGNED_CONTEXT ( ( #134, #136, #138 ) ) REPRESENTATION_CONTEXT ( 'NONE', 'WORKASPACE' ) );
#184 = PRODUCT ( 'Planungsmodell_Griff-+-09.20.74.019-1_K1', 'Planungsmodell_Griff-+-09.20.74.019-1_K1', '', ( #65 ) ) ;
#185 = UNCERTAINTY_MEASURE_WITH_UNIT (LENGTH_MEASURE( 1.000000000000000100E-005 ), #103, 'distance_accuracy_value', 'NONE');
#186 = EDGE_CURVE ( 'NONE', #284, #284, #336, .T. ) ;
#187 = APPROVAL ( #88, 'UNSPECIFIED' ) ;
#188 = EDGE_CURVE ( 'NONE', #280, #280, #312, .T. ) ;
#189 = EDGE_CURVE ( 'NONE', #236, #236, #339, .T. ) ;
#190 = ADVANCED_FACE ( 'NONE', ( #348, #324 ), #321, .T. ) ;
#191 = ADVANCED_FACE ( 'NONE', ( #315 ), #43, .F. ) ;
#192 = PERSON ( 'UNSPECIFIED', 'UNSPECIFIED', 'UNSPECIFIED', ('UNSPECIFIED'), ('UNSPECIFIED'), ('UNSPECIFIED') ) ;
#193 = AXIS2_PLACEMENT_3D ( 'NONE', #28, #21, #23 ) ;
#194 = EDGE_CURVE ( 'NONE', #279, #279, #119, .T. ) ;
#195 = AXIS2_PLACEMENT_3D ( 'NONE', #15, #16, #17 ) ;
#196 = PRODUCT_DEFINITION_FORMATION_WITH_SPECIFIED_SOURCE ( 'ANY', '', #184, .NOT_KNOWN. ) ;
#197 = CC_DESIGN_APPROVAL ( #344, ( #170 ) ) ;
#198 = ADVANCED_FACE ( 'NONE', ( #326, #320 ), #322, .T. ) ;
#199 = SECURITY_CLASSIFICATION ( '', '', #162 ) ;
#200 = CC_DESIGN_DATE_AND_TIME_ASSIGNMENT ( #32, #59, ( #213 ) ) ;
#201 = AXIS2_PLACEMENT_3D ( 'NONE', #12, #3, #19 ) ;
#202 = CC_DESIGN_PERSON_AND_ORGANIZATION_ASSIGNMENT ( #297, #69, ( #213 ) ) ;
#203 = MANIFOLD_SOLID_BREP ( 'Verrundung2', #298 ) ;
#204 = AXIS2_PLACEMENT_3D ( 'NONE', #113, #115, #121 ) ;
#205 = DATE_AND_TIME ( #208, #270 ) ;
#206 = CC_DESIGN_APPROVAL ( #210, ( #213 ) ) ;
#207 = LOCAL_TIME ( 11, 9, 52.00000000000000000, #355 ) ;
#208 = CALENDAR_DATE ( 2019, 11, 9 ) ;
#209 = AXIS2_PLACEMENT_3D ( 'NONE', #29, #30, #31 ) ;
#210 = APPROVAL ( #66, 'UNSPECIFIED' ) ;
#211 = APPROVAL_DATE_TIME ( #11, #353 ) ;
#212 = APPROVAL_PERSON_ORGANIZATION ( #292, #210, #61 ) ;
#213 = PRODUCT_DEFINITION ( 'UNKNOWN', '', #196, #2 ) ;
#214 = PERSON_AND_ORGANIZATION ( #192, #278 ) ;
#215 =( GEOMETRIC_REPRESENTATION_CONTEXT ( 3 ) GLOBAL_UNCERTAINTY_ASSIGNED_CONTEXT ( ( #185 ) ) GLOBAL_UNIT_ASSIGNED_CONTEXT ( ( #103, #104, #105 ) ) REPRESENTATION_CONTEXT ( 'NONE', 'WORKASPACE' ) );
#216 = LOCAL_TIME ( 11, 9, 52.00000000000000000, #357 ) ;
#217 = EDGE_CURVE ( 'NONE', #235, #235, #318, .T. ) ;
#218 = ADVANCED_FACE ( 'NONE', ( #331, #264 ), #54, .F. ) ;
#219 = ORIENTED_EDGE ( 'NONE', *, *, #109, .F. ) ;
#220 = AXIS2_PLACEMENT_3D ( 'NONE', #56, #58, #60 ) ;
#221 = EDGE_LOOP ( 'NONE', ( #333 ) ) ;
#222 = PRODUCT ( '36607740-00', '36607740-00', '', ( #140 ) ) ;
#223 = LOCAL_TIME ( 11, 9, 52.00000000000000000, #80 ) ;
#224 = ADVANCED_FACE ( 'NONE', ( #161, #271 ), #274, .T. ) ;
#225 = AXIS2_PLACEMENT_3D ( 'NONE', #76, #77, #135 ) ;
#226 = APPROVAL_STATUS ( 'not_yet_approved' ) ;
#227 = CC_DESIGN_PERSON_AND_ORGANIZATION_ASSIGNMENT ( #257, #150, ( #170 ) ) ;
#228 = SHAPE_REPRESENTATION_RELATIONSHIP ( 'NONE' , 'NONE' ,  #20, #174 ) ;
#229 = CIRCLE ( 'NONE', #195, 29.99999999999999600 ) ;
#230 = ITEM_DEFINED_TRANSFORMATION ( 'NONE', 'NONE', #319,  #204 ) ;
#231 = APPROVAL_DATE_TIME ( #317, #210 ) ;
#232 = PRODUCT_RELATED_PRODUCT_CATEGORY ( 'detail', '', ( #222 ) ) ;
#233 = CALENDAR_DATE ( 2019, 11, 9 ) ;
#234 = COORDINATED_UNIVERSAL_TIME_OFFSET ( 1, 0, .AHEAD. ) ;
#235 = VERTEX_POINT ( 'NONE', #102 ) ;
#236 = VERTEX_POINT ( 'NONE', #83 ) ;
#237 = SHAPE_DEFINITION_REPRESENTATION ( #288, #20 ) ;
#238 = COORDINATED_UNIVERSAL_TIME_OFFSET ( 1, 0, .AHEAD. ) ;
#239 = LOCAL_TIME ( 11, 9, 52.00000000000000000, #242 ) ;
#240 = APPROVAL_PERSON_ORGANIZATION ( #356, #111, #87 ) ;
#241 = EDGE_LOOP ( 'NONE', ( #299 ) ) ;
#242 = COORDINATED_UNIVERSAL_TIME_OFFSET ( 1, 0, .AHEAD. ) ;
#243 = APPROVAL_DATE_TIME ( #178, #137 ) ;
#244 = COORDINATED_UNIVERSAL_TIME_OFFSET ( 1, 0, .AHEAD. ) ;
#245 = LOCAL_TIME ( 11, 9, 52.00000000000000000, #234 ) ;
#246 = CALENDAR_DATE ( 2019, 11, 9 ) ;
#247 = CALENDAR_DATE ( 2019, 11, 9 ) ;
#248 = LOCAL_TIME ( 11, 9, 52.00000000000000000, #53 ) ;
#249 = DATE_AND_TIME ( #246, #260 ) ;
#250 = DATE_AND_TIME ( #247, #263 ) ;
#251 = DATE_AND_TIME ( #233, #245 ) ;
#252 = LOCAL_TIME ( 11, 9, 52.00000000000000000, #282 ) ;
#253 = EDGE_LOOP ( 'NONE', ( #337 ) ) ;
#254 = CALENDAR_DATE ( 2019, 11, 9 ) ;
#255 = COORDINATED_UNIVERSAL_TIME_OFFSET ( 1, 0, .AHEAD. ) ;
#256 = DATE_AND_TIME ( #254, #252 ) ;
#257 = PERSON_AND_ORGANIZATION ( #192, #278 ) ;
#258 = APPROVAL_DATE_TIME ( #256, #344 ) ;
#259 = CONTEXT_DEPENDENT_SHAPE_REPRESENTATION ( #100, #323 ) ;
#260 = LOCAL_TIME ( 11, 9, 52.00000000000000000, #255 ) ;
#261 = ORGANIZATION ( 'NAUO-ORG1', 'UNSPECIFIED', 'UNSPECIFIED' ) ;
#262 = PERSON ( 'NAUO-PER1', 'UNSPECIFIED', 'UNSPECIFIED', ('UNSPECIFIED'), ('UNSPECIFIED'), ('UNSPECIFIED') ) ;
#263 = LOCAL_TIME ( 11, 9, 52.00000000000000000, #244 ) ;
#264 = FACE_BOUND ( 'NONE', #300, .T. ) ;
#265 = CALENDAR_DATE ( 2019, 11, 9 ) ;
#266 = ORIENTED_EDGE ( 'NONE', *, *, #182, .F. ) ;
#267 = APPROVAL_DATE_TIME ( #249, #111 ) ;
#268 = PERSON_AND_ORGANIZATION ( #192, #278 ) ;
#269 = PERSON_AND_ORGANIZATION ( #192, #278 ) ;
#270 = LOCAL_TIME ( 11, 9, 52.00000000000000000, #286 ) ;
#271 = FACE_OUTER_BOUND ( 'NONE', #310, .T. ) ;
#272 = APPROVAL_PERSON_ORGANIZATION ( #269, #344, #148 ) ;
#273 = APPROVAL ( #226, 'UNSPECIFIED' ) ;
#274 = CYLINDRICAL_SURFACE ( 'NONE', #5, 29.99999999999999600 ) ;
#275 = AXIS2_PLACEMENT_3D ( 'NONE', #10, #8, #7 ) ;
#276 = AXIS2_PLACEMENT_3D ( 'NONE', #24, #26, #27 ) ;
#277 = PERSON_AND_ORGANIZATION ( #192, #278 ) ;
#278 = ORGANIZATION ( 'UNSPECIFIED', 'UNSPECIFIED', '' ) ;
#279 = VERTEX_POINT ( 'NONE', #89 ) ;
#280 = VERTEX_POINT ( 'NONE', #79 ) ;
#281 = SHAPE_DEFINITION_REPRESENTATION ( #305, #73 ) ;
#282 = COORDINATED_UNIVERSAL_TIME_OFFSET ( 1, 0, .AHEAD. ) ;
#283 = CALENDAR_DATE ( 2019, 11, 9 ) ;
#284 = VERTEX_POINT ( 'NONE', #82 ) ;
#285 = EDGE_LOOP ( 'NONE', ( #316 ) ) ;
#286 = COORDINATED_UNIVERSAL_TIME_OFFSET ( 1, 0, .AHEAD. ) ;
#287 = CC_DESIGN_APPROVAL ( #273, ( #199 ) ) ;
#288 = PRODUCT_DEFINITION_SHAPE ( 'NONE', 'NONE',  #213 ) ;
#289 = VERTEX_POINT ( 'NONE', #75 ) ;
#290 = FACE_OUTER_BOUND ( 'NONE', #241, .T. ) ;
#291 = EDGE_LOOP ( 'NONE', ( #303 ) ) ;
#292 = PERSON_AND_ORGANIZATION ( #192, #278 ) ;
#293 = FACE_OUTER_BOUND ( 'NONE', #291, .T. ) ;
#294 = AXIS2_PLACEMENT_3D ( 'NONE', #40, #41, #42 ) ;
#295 = EDGE_LOOP ( 'NONE', ( #296 ) ) ;
#296 = ORIENTED_EDGE ( 'NONE', *, *, #188, .F. ) ;
#297 = PERSON_AND_ORGANIZATION ( #192, #278 ) ;
#298 = CLOSED_SHELL ( 'NONE', ( #190, #218, #224, #106, #191, #198, #130, #157 ) ) ;
#299 = ORIENTED_EDGE ( 'NONE', *, *, #217, .F. ) ;
#300 = EDGE_LOOP ( 'NONE', ( #266 ) ) ;
#301 = EDGE_LOOP ( 'NONE', ( #325 ) ) ;
#302 = EDGE_LOOP ( 'NONE', ( #307 ) ) ;
#303 = ORIENTED_EDGE ( 'NONE', *, *, #189, .T. ) ;
#304 = ORIENTED_EDGE ( 'NONE', *, *, #188, .T. ) ;
#305 = PRODUCT_DEFINITION_SHAPE ( 'NONE', 'NONE',  #170 ) ;
#306 = CC_DESIGN_PERSON_AND_ORGANIZATION_ASSIGNMENT ( #4, #165, ( #199 ) ) ;
#307 = ORIENTED_EDGE ( 'NONE', *, *, #217, .T. ) ;
#308 = EDGE_LOOP ( 'NONE', ( #330 ) ) ;
#309 = PERSON_AND_ORGANIZATION ( #192, #278 ) ;
#310 = EDGE_LOOP ( 'NONE', ( #304 ) ) ;
#311 = DATE_AND_TIME ( #265, #223 ) ;
#312 = CIRCLE ( 'NONE', #55, 29.99999999999999600 ) ;
#313 = EDGE_LOOP ( 'NONE', ( #314 ) ) ;
#314 = ORIENTED_EDGE ( 'NONE', *, *, #194, .T. ) ;
#315 = FACE_OUTER_BOUND ( 'NONE', #313, .T. ) ;
#316 = ORIENTED_EDGE ( 'NONE', *, *, #194, .F. ) ;
#317 = DATE_AND_TIME ( #328, #180 ) ;
#318 = CIRCLE ( 'NONE', #225, 27.50000000000000000 ) ;
#319 = AXIS2_PLACEMENT_3D ( 'NONE', #127, #129, #133 ) ;
#320 = FACE_OUTER_BOUND ( 'NONE', #301, .T. ) ;
#321 = CYLINDRICAL_SURFACE ( 'NONE', #193, 27.50000000000000000 ) ;
#322 = TOROIDAL_SURFACE ( 'NONE', #38, 29.49999999999999600, 0.5000000000000000000 ) ;
#323 = PRODUCT_DEFINITION_SHAPE ( 'NONE', 'NONE',  #359 ) ;
#324 = FACE_OUTER_BOUND ( 'NONE', #308, .T. ) ;
#325 = ORIENTED_EDGE ( 'NONE', *, *, #186, .F. ) ;
#326 = FACE_OUTER_BOUND ( 'NONE', #295, .T. ) ;
#327 = TOROIDAL_SURFACE ( 'NONE', #22, 26.70000000000000300, 0.8000000000000000400 ) ;
#328 = CALENDAR_DATE ( 2019, 11, 9 ) ;
#329 = PRODUCT_DEFINITION_FORMATION_WITH_SPECIFIED_SOURCE ( 'ANY', '', #222, .NOT_KNOWN. ) ;
#330 = ORIENTED_EDGE ( 'NONE', *, *, #182, .T. ) ;
#331 = FACE_OUTER_BOUND ( 'NONE', #347, .T. ) ;
#332 = CC_DESIGN_DATE_AND_TIME_ASSIGNMENT ( #205, #181, ( #199 ) ) ;
#333 = ORIENTED_EDGE ( 'NONE', *, *, #189, .F. ) ;
#334 = CALENDAR_DATE ( 2019, 11, 9 ) ;
#335 = AXIS2_PLACEMENT_3D ( 'NONE', #175, #172, #169 ) ;
#336 = CIRCLE ( 'NONE', #209, 29.49999999999999600 ) ;
#337 = ORIENTED_EDGE ( 'NONE', *, *, #109, .T. ) ;
#338 = VERTEX_POINT ( 'NONE', #81 ) ;
#339 = CIRCLE ( 'NONE', #294, 29.23117992525359600 ) ;
#340 = FACE_OUTER_BOUND ( 'NONE', #108, .T. ) ;
#341 = SPHERICAL_SURFACE ( 'NONE', #275, 750.0000000000000000 ) ;
#342 = AXIS2_PLACEMENT_3D ( 'NONE', #49, #131, #117 ) ;
#343 = PERSON_AND_ORGANIZATION ( #192, #278 ) ;
#344 = APPROVAL ( #146, 'UNSPECIFIED' ) ;
#345 = APPROVAL_PERSON_ORGANIZATION ( #6, #137, #99 ) ;
#346 = FACE_OUTER_BOUND ( 'NONE', #285, .T. ) ;
#347 = EDGE_LOOP ( 'NONE', ( #50 ) ) ;
#348 = FACE_OUTER_BOUND ( 'NONE', #302, .T. ) ;
#349 = CC_DESIGN_PERSON_AND_ORGANIZATION_ASSIGNMENT ( #147, #156, ( #329 ) ) ;
#350 = APPROVAL_PERSON_ORGANIZATION ( #309, #187, #90 ) ;
#351 = APPROVAL_PERSON_ORGANIZATION ( #343, #273, #114 ) ;
#352 = CIRCLE ( 'NONE', #276, 27.50000000000000000 ) ;
#353 = APPROVAL ( #152, 'UNSPECIFIED' ) ;
#354 = CALENDAR_DATE ( 2019, 11, 9 ) ;
#355 = COORDINATED_UNIVERSAL_TIME_OFFSET ( 1, 0, .AHEAD. ) ;
#356 = PERSON_AND_ORGANIZATION ( #262, #261 ) ;
#357 = COORDINATED_UNIVERSAL_TIME_OFFSET ( 1, 0, .AHEAD. ) ;
#358 = PERSON_AND_ORGANIZATION ( #192, #278 ) ;
#359 = NEXT_ASSEMBLY_USAGE_OCCURRENCE ( 'NAUO1', ' ', ' ', #170, #213, $ ) ;
ENDSEC;
END-ISO-10303-21;
