  0
SECTION
  2
HEADER
  9
$ACADVER
  1
AC1015
  9
$ACADMAINTVER
 70
     6
  9
$DWGCODEPAGE
  3
ANSI_1252
  9
$INSBASE
 10
0.0
 20
0.0
 30
0.0
  9
$EXTMIN
 10
0.0
 20
0.0
 30
0.0
  9
$EXTMAX
 10
3000.0
 20
4500.0
 30
0.0
  9
$LIMMIN
 10
0.0
 20
0.0
  9
$LIMMAX
 10
3000.0
 20
4500.0
  9
$ORTHOMODE
 70
     0
  9
$REGENMODE
 70
     1
  9
$FILLMODE
 70
     1
  9
$QTEXTMODE
 70
     0
  9
$MIRRTEXT
 70
     1
  9
$LTSCALE
 40
1.0
  9
$ATTMODE
 70
     1
  9
$TEXTSIZE
 40
10.0
  9
$TRACEWID
 40
1.0
  9
$TEXTSTYLE
  7
Standard
  9
$CLAYER
  8
0
  9
$CELTYPE
  6
ByLayer
  9
$CECOLOR
 62
   256
  9
$CELTSCALE
 40
1.0
  9
$DISPSILH
 70
     0
  9
$DIMSCALE
 40
1.0
  9
$DIMASZ
 40
2.5
  9
$DIMEXO
 40
0.625
  9
$DIMDLI
 40
3.75
  9
$DIMRND
 40
0.0
  9
$DIMDLE
 40
0.0
  9
$DIMEXE
 40
1.25
  9
$DIMTP
 40
0.0
  9
$DIMTM
 40
0.0
  9
$DIMTXT
 40
2.5
  9
$DIMCEN
 40
2.5
  9
$DIMTSZ
 40
0.0
  9
$DIMTOL
 70
     0
  9
$DIMLIM
 70
     0
  9
$DIMTIH
 70
     0
  9
$DIMTOH
 70
     0
  9
$DIMSE1
 70
     0
  9
$DIMSE2
 70
     0
  9
$DIMTAD
 70
     1
  9
$DIMZIN
 70
     8
  9
$DIMBLK
  1

  9
$DIMASO
 70
     1
  9
$DIMSHO
 70
     1
  9
$DIMPOST
  1

  9
$DIMAPOST
  1

  9
$DIMALT
 70
     0
  9
$DIMALTD
 70
     3
  9
$DIMALTF
 40
0.0393700787
  9
$DIMLFAC
 40
1.0
  9
$DIMTOFL
 70
     1
  9
$DIMTVP
 40
0.0
  9
$DIMTIX
 70
     0
  9
$DIMSOXD
 70
     0
  9
$DIMSAH
 70
     0
  9
$DIMBLK1
  1

  9
$DIMBLK2
  1

  9
$DIMSTYLE
  2
ISO-25
  9
$DIMCLRD
 70
     0
  9
$DIMCLRE
 70
     0
  9
$DIMCLRT
 70
     0
  9
$DIMTFAC
 40
1.0
  9
$DIMGAP
 40
0.625
  9
$DIMJUST
 70
     0
  9
$DIMSD1
 70
     0
  9
$DIMSD2
 70
     0
  9
$DIMTOLJ
 70
     0
  9
$DIMTZIN
 70
     8
  9
$DIMALTZ
 70
     0
  9
$DIMALTTZ
 70
     0
  9
$DIMUPT
 70
     0
  9
$DIMDEC
 70
     2
  9
$DIMTDEC
 70
     2
  9
$DIMALTU
 70
     2
  9
$DIMALTTD
 70
     3
  9
$DIMTXSTY
  7
Standard
  9
$DIMAUNIT
 70
     0
  9
$DIMADEC
 70
     0
  9
$DIMALTRND
 40
0.0
  9
$DIMAZIN
 70
     0
  9
$DIMDSEP
 70
    44
  9
$DIMATFIT
 70
     3
  9
$DIMFRAC
 70
     0
  9
$DIMLDRBLK
  1

  9
$DIMLUNIT
 70
     2
  9
$DIMLWD
 70
    -2
  9
$DIMLWE
 70
    -2
  9
$DIMTMOVE
 70
     0
  9
$LUNITS
 70
     2
  9
$LUPREC
 70
     4
  9
$SKETCHINC
 40
1.0
  9
$FILLETRAD
 40
10.0
  9
$AUNITS
 70
     0
  9
$AUPREC
 70
     0
  9
$MENU
  1
.
  9
$ELEVATION
 40
0.0
  9
$PELEVATION
 40
0.0
  9
$THICKNESS
 40
0.0
  9
$LIMCHECK
 70
     0
  9
$CHAMFERA
 40
0.0
  9
$CHAMFERB
 40
0.0
  9
$CHAMFERC
 40
0.0
  9
$CHAMFERD
 40
0.0
  9
$SKPOLY
 70
     0
  9
$TDCREATE
 40
2457886.535419283
  9
$TDUCREATE
 40
2457886.452085949
  9
$TDUPDATE
 40
2457886.535422349
  9
$TDUUPDATE
 40
2457886.452089016
  9
$TDINDWG
 40
0.0000000116
  9
$TDUSRTIMER
 40
0.0000000116
  9
$USRTIMER
 70
     1
  9
$ANGBASE
 50
0.0
  9
$ANGDIR
 70
     0
  9
$PDMODE
 70
     0
  9
$PDSIZE
 40
0.0
  9
$PLINEWID
 40
0.0
  9
$SPLFRAME
 70
     0
  9
$SPLINETYPE
 70
     6
  9
$SPLINESEGS
 70
     8
  9
$HANDSEED
  5
1EB
  9
$SURFTAB1
 70
     6
  9
$SURFTAB2
 70
     6
  9
$SURFTYPE
 70
     6
  9
$SURFU
 70
     6
  9
$SURFV
 70
     6
  9
$UCSBASE
  2

  9
$UCSNAME
  2

  9
$UCSORG
 10
0.0
 20
0.0
 30
0.0
  9
$UCSXDIR
 10
1.0
 20
0.0
 30
0.0
  9
$UCSYDIR
 10
0.0
 20
1.0
 30
0.0
  9
$UCSORTHOREF
  2

  9
$UCSORTHOVIEW
 70
     0
  9
$UCSORGTOP
 10
0.0
 20
0.0
 30
0.0
  9
$UCSORGBOTTOM
 10
0.0
 20
0.0
 30
0.0
  9
$UCSORGLEFT
 10
0.0
 20
0.0
 30
0.0
  9
$UCSORGRIGHT
 10
0.0
 20
0.0
 30
0.0
  9
$UCSORGFRONT
 10
0.0
 20
0.0
 30
0.0
  9
$UCSORGBACK
 10
0.0
 20
0.0
 30
0.0
  9
$PUCSBASE
  2

  9
$PUCSNAME
  2

  9
$PUCSORG
 10
0.0
 20
0.0
 30
0.0
  9
$PUCSXDIR
 10
1.0
 20
0.0
 30
0.0
  9
$PUCSYDIR
 10
0.0
 20
1.0
 30
0.0
  9
$PUCSORTHOREF
  2

  9
$PUCSORTHOVIEW
 70
     0
  9
$PUCSORGTOP
 10
0.0
 20
0.0
 30
0.0
  9
$PUCSORGBOTTOM
 10
0.0
 20
0.0
 30
0.0
  9
$PUCSORGLEFT
 10
0.0
 20
0.0
 30
0.0
  9
$PUCSORGRIGHT
 10
0.0
 20
0.0
 30
0.0
  9
$PUCSORGFRONT
 10
0.0
 20
0.0
 30
0.0
  9
$PUCSORGBACK
 10
0.0
 20
0.0
 30
0.0
  9
$USERI1
 70
     0
  9
$USERI2
 70
     0
  9
$USERI3
 70
     0
  9
$USERI4
 70
     0
  9
$USERI5
 70
     0
  9
$USERR1
 40
0.0
  9
$USERR2
 40
0.0
  9
$USERR3
 40
0.0
  9
$USERR4
 40
0.0
  9
$USERR5
 40
0.0
  9
$WORLDVIEW
 70
     1
  9
$SHADEDGE
 70
     3
  9
$SHADEDIF
 70
    70
  9
$TILEMODE
 70
     1
  9
$MAXACTVP
 70
    64
  9
$PINSBASE
 10
0.0
 20
0.0
 30
0.0
  9
$PLIMCHECK
 70
     0
  9
$PEXTMIN
 10
0.0
 20
0.0
 30
0.0
  9
$PEXTMAX
 10
3000.0
 20
4500.0
 30
0.0
  9
$PLIMMIN
 10
0.0
 20
0.0
  9
$PLIMMAX
 10
3000.0
 20
4500.0
  9
$UNITMODE
 70
     0
  9
$VISRETAIN
 70
     1
  9
$PLINEGEN
 70
     0
  9
$PSLTSCALE
 70
     1
  9
$TREEDEPTH
 70
  3020
  9
$CMLSTYLE
  2
Standard
  9
$CMLJUST
 70
     0
  9
$CMLSCALE
 40
20.0
  9
$PROXYGRAPHICS
 70
     1
  9
$MEASUREMENT
 70
     1
  9
$CELWEIGHT
370
    -1
  9
$ENDCAPS
280
     0
  9
$JOINSTYLE
280
     0
  9
$LWDISPLAY
290
     0
  9
$INSUNITS
 70
     4
  9
$HYPERLINKBASE
  1

  9
$STYLESHEET
  1

  9
$XEDIT
290
     1
  9
$CEPSNTYPE
380
     0
  9
$PSTYLEMODE
290
     1
  9
$FINGERPRINTGUID
  2
{2910DE88-848E-4E97-9255-D03C0C2598C4}
  9
$VERSIONGUID
  2
{FAEB1C32-E019-11D5-929B-00C0DF256EC4}
  9
$EXTNAMES
290
     1
  9
$PSVPSCALE
 40
0.0
  9
$OLESTARTUP
290
     0
  0
ENDSEC
  0
SECTION
  2
CLASSES
  0
CLASS
  1
ACDBDICTIONARYWDFLT
  2
AcDbDictionaryWithDefault
  3
ObjectDBX Classes
 90
        0
280
     0
281
     0
  0
CLASS
  1
VISUALSTYLE
  2
AcDbVisualStyle
  3
ObjectDBX Classes
 90
     4095
280
     0
281
     0
  0
CLASS
  1
MATERIAL
  2
AcDbMaterial
  3
ObjectDBX Classes
 90
     1153
280
     0
281
     0
  0
CLASS
  1
SCALE
  2
AcDbScale
  3
ObjectDBX Classes
 90
     1153
280
     0
281
     0
  0
CLASS
  1
SUN
  2
AcDbSun
  3
SCENEOE
 90
     1153
280
     0
281
     0
  0
CLASS
  1
DICTIONARYVAR
  2
AcDbDictionaryVar
  3
ObjectDBX Classes
 90
        0
280
     0
281
     0
  0
CLASS
  1
ACDBPLACEHOLDER
  2
AcDbPlaceHolder
  3
ObjectDBX Classes
 90
        0
280
     0
281
     0
  0
CLASS
  1
LAYOUT
  2
AcDbLayout
  3
ObjectDBX Classes
 90
        0
280
     0
281
     0
  0
ENDSEC
  0
SECTION
  2
TABLES
  0
TABLE
  2
VPORT
  5
8
330
0
100
AcDbSymbolTable
 70
     1
  0
VPORT
  5
29
330
8
100
AcDbSymbolTableRecord
100
AcDbViewportTableRecord
  2
*Active
 70
     0
 10
0.0
 20
0.0
 11
1.0
 21
1.0
 12
344.1869158879
 22
148.5
 13
0.0
 23
0.0
 14
10.0
 24
10.0
 15
10.0
 25
10.0
 16
0.0
 26
0.0
 36
1.0
 17
0.0
 27
0.0
 37
0.0
 40
297.0
 41
1.9729729729
 42
50.0
 43
0.0
 44
0.0
 50
0.0
 51
0.0
 71
     0
 72
   100
 73
     1
 74
     3
 75
     0
 76
     0
 77
     0
 78
     0
281
     0
 65
     1
110
0.0
120
0.0
130
0.0
111
1.0
121
0.0
131
0.0
112
0.0
122
1.0
132
0.0
 79
     0
146
0.0
  0
ENDTAB
  0
TABLE
  2
LTYPE
  5
5
330
0
100
AcDbSymbolTable
 70
     2
  0
LTYPE
  5
14
330
5
100
AcDbSymbolTableRecord
100
AcDbLinetypeTableRecord
  2
ByBlock
 70
     0
  3

 72
    65
 73
     0
 40
0.0
  0
LTYPE
  5
15
330
5
100
AcDbSymbolTableRecord
100
AcDbLinetypeTableRecord
  2
ByLayer
 70
     0
  3

 72
    65
 73
     0
 40
0.0
  0
LTYPE
  5
16
330
5
100
AcDbSymbolTableRecord
100
AcDbLinetypeTableRecord
  2
Continuous
 70
     0
  3
Solid line
 72
    65
 73
     0
 40
0.0
  0
LTYPE
  5
6D
330
5
100
AcDbSymbolTableRecord
100
AcDbLinetypeTableRecord
  2
CENTER2
 70
     0
  3
Center (.5x) ___ _ ___ _ ___ _ ___ _ ___ _ ___
 72
    65
 73
     4
 40
28.575
 49
19.05
 74
     4
 75
     0
340
0
 46
0.0
 50
0.0
 44
0.0
 45
0.0
 49
-3.175
 74
     4
 75
     0
340
0
 46
0.0
 50
0.0
 44
0.0
 45
0.0
 49
3.175
 74
     4
 75
     0
340
0
 46
0.0
 50
0.0
 44
0.0
 45
0.0
 49
-3.175
 74
     4
 75
     0
340
0
 46
0.0
 50
0.0
 44
0.0
 45
0.0
  0
ENDTAB
  0
TABLE
  2
LAYER
  5
2
330
0
100
AcDbSymbolTable
 70
    11
  0
LAYER
  5
10
330
2
100
AcDbSymbolTableRecord
100
AcDbLayerTableRecord
  2
0
 70
     0
 62
     7
  6
Continuous
370
    -3
390
F
  0
LAYER
  5
6A
330
2
100
AcDbSymbolTableRecord
100
AcDbLayerTableRecord
  2
Default
 70
     0
 62
     7
  6
Continuous
370
    -3
390
F
  0
LAYER
  5
84
330
2
100
AcDbSymbolTableRecord
100
AcDbLayerTableRecord
  2
(3_3) 409653038_
 70
     0
 62
     7
  6
Continuous
370
    -3
390
F
  0
LAYER
  5
B5
330
2
100
AcDbSymbolTableRecord
100
AcDbLayerTableRecord
  2
(3_3) 07055038_2
 70
     0
 62
     7
  6
Continuous
370
    -3
390
F
  0
LAYER
  5
B8
330
2
100
AcDbSymbolTableRecord
100
AcDbLayerTableRecord
  2
(3_3) 407148038_
 70
     0
 62
     7
  6
Continuous
370
    -3
390
F
  0
LAYER
  5
C0
330
2
100
AcDbSymbolTableRecord
100
AcDbLayerTableRecord
  2
(5_5) 407147038_
 70
     0
 62
     7
  6
Continuous
370
    -3
390
F
  0
LAYER
  5
D2
330
2
100
AcDbSymbolTableRecord
100
AcDbLayerTableRecord
  2
(1_1) 407541040_
 70
     0
 62
     7
  6
Continuous
370
    -3
390
F
  0
LAYER
  5
E9
330
2
100
AcDbSymbolTableRecord
100
AcDbLayerTableRecord
  2
(4_4) 07769038_2
 70
     0
 62
     7
  6
Continuous
370
    -3
390
F
  0
LAYER
  5
F1
330
2
100
AcDbSymbolTableRecord
100
AcDbLayerTableRecord
  2
(2_2) 409754038_
 70
     0
 62
     7
  6
Continuous
370
    -3
390
F
  0
LAYER
  5
F3
330
2
100
AcDbSymbolTableRecord
100
AcDbLayerTableRecord
  2
(11_11) 40716403
 70
     0
 62
     7
  6
Continuous
370
    -3
390
F
  0
LAYER
  5
F7
330
2
100
AcDbSymbolTableRecord
100
AcDbLayerTableRecord
  2
(1_1) 08066138_2
 70
     0
 62
     7
  6
Continuous
370
    -3
390
F
  0
ENDTAB
  0
TABLE
  2
STYLE
  5
3
330
0
100
AcDbSymbolTable
 70
     1
  0
STYLE
  5
11
330
3
100
AcDbSymbolTableRecord
100
AcDbTextStyleTableRecord
  2
Standard
 70
     0
 40
0.0
 41
1.0
 50
0.0
 71
     0
 42
10.0
  3
txt
  4

  0
ENDTAB
  0
TABLE
  2
VIEW
  5
6
330
0
100
AcDbSymbolTable
 70
     0
  0
ENDTAB
  0
TABLE
  2
UCS
  5
7
330
0
100
AcDbSymbolTable
 70
     0
  0
ENDTAB
  0
TABLE
  2
APPID
  5
9
330
0
100
AcDbSymbolTable
 70
     1
  0
APPID
  5
12
330
9
100
AcDbSymbolTableRecord
100
AcDbRegAppTableRecord
  2
ACAD
 70
     0
  0
ENDTAB
  0
TABLE
  2
DIMSTYLE
  5
A
330
0
100
AcDbSymbolTable
 70
     1
100
AcDbDimStyleTable
  0
DIMSTYLE
105
27
330
A
100
AcDbSymbolTableRecord
100
AcDbDimStyleTableRecord
  2
ISO-25
 70
     0
 41
2.5
 42
0.625
 43
3.75
 44
1.25
 73
     0
 74
     0
 77
     1
 78
     8
140
2.5
141
2.5
143
0.0393700787
147
0.625
171
     3
172
     1
178
     0
271
     2
272
     2
274
     3
278
    44
283
     0
284
     8
340
11
  0
ENDTAB
  0
TABLE
  2
BLOCK_RECORD
  5
1
330
0
100
AcDbSymbolTable
 70
     7
  0
BLOCK_RECORD
  5
1F
330
1
100
AcDbSymbolTableRecord
100
AcDbBlockTableRecord
  2
*Model_Space
340
22
  0
BLOCK_RECORD
  5
1B
330
1
100
AcDbSymbolTableRecord
100
AcDbBlockTableRecord
  2
*Paper_Space
340
1E
  0
BLOCK_RECORD
  5
6B
330
1
100
AcDbSymbolTableRecord
100
AcDbBlockTableRecord
  2
SEANNOT_GROUP
340
0
102
{BLKREFS
331
6C
102
}
  0
BLOCK_RECORD
  5
72
330
1
100
AcDbSymbolTableRecord
100
AcDbBlockTableRecord
  2
SEANNOT_GROUP1
340
0
102
{BLKREFS
331
73
102
}
  0
BLOCK_RECORD
  5
78
330
1
100
AcDbSymbolTableRecord
100
AcDbBlockTableRecord
  2
SEANNOT_GROUP2
340
0
102
{BLKREFS
331
79
102
}
  0
BLOCK_RECORD
  5
82
330
1
100
AcDbSymbolTableRecord
100
AcDbBlockTableRecord
  2
SE
340
0
102
{BLKREFS
331
83
102
}
  0
BLOCK_RECORD
  5
102
330
1
100
AcDbSymbolTableRecord
100
AcDbBlockTableRecord
  2
SE1
340
0
102
{BLKREFS
331
103
102
}
  0
BLOCK_RECORD
  5
144
330
1
100
AcDbSymbolTableRecord
100
AcDbBlockTableRecord
  2
SE2
340
0
102
{BLKREFS
331
145
102
}
  0
ENDTAB
  0
ENDSEC
  0
SECTION
  2
BLOCKS
  0
BLOCK
  5
20
330
1F
100
AcDbEntity
  8
0
100
AcDbBlockBegin
  2
*Model_Space
 70
     0
 10
0.0
 20
0.0
 30
0.0
  3
*Model_Space
  1
*Model_Space
  0
ENDBLK
  5
21
330
1F
100
AcDbEntity
  8
0
100
AcDbBlockEnd
  0
BLOCK
  5
1C
330
1B
100
AcDbEntity
 67
     1
  8
0
100
AcDbBlockBegin
  2
*Paper_Space
 70
     0
 10
0.0
 20
0.0
 30
0.0
  3
*Paper_Space
  1
*Paper_Space
  0
ENDBLK
  5
1D
330
1B
100
AcDbEntity
 67
     1
  8
0
100
AcDbBlockEnd
  0
BLOCK
  5
70
330
6B
100
AcDbEntity
  8
0
100
AcDbBlockBegin
  2
SEANNOT_GROUP
 70
     0
 10
0.0
 20
0.0
 30
0.0
  3
SEANNOT_GROUP
  1
SEANNOT_GROUP
  0
LINE
  5
6E
330
6B
100
AcDbEntity
  8
Default
  6
CENTER2
 62
     7
100
AcDbLine
 10
78.8368522266
 20
445.75
 30
0.0
 11
38.8368531207
 21
445.75
 31
0.0
  0
LINE
  5
6F
330
6B
100
AcDbEntity
  8
Default
  6
CENTER2
 62
     7
100
AcDbLine
 10
58.8368526737
 20
465.749999553
 30
0.0
 11
58.8368526737
 21
425.750000447
 31
0.0
  0
ENDBLK
  5
71
330
6B
100
AcDbEntity
  8
0
100
AcDbBlockEnd
  0
BLOCK
  5
76
330
72
100
AcDbEntity
  8
0
100
AcDbBlockBegin
  2
SEANNOT_GROUP1
 70
     0
 10
0.0
 20
0.0
 30
0.0
  3
SEANNOT_GROUP1
  1
SEANNOT_GROUP1
  0
LINE
  5
74
330
72
100
AcDbEntity
  8
Default
  6
CENTER2
 62
     7
100
AcDbLine
 10
258.4318849614
 20
445.75
 30
0.0
 11
218.4318858555
 21
445.75
 31
0.0
  0
LINE
  5
75
330
72
100
AcDbEntity
  8
Default
  6
CENTER2
 62
     7
100
AcDbLine
 10
238.4318854084
 20
465.749999553
 30
0.0
 11
238.4318854084
 21
425.750000447
 31
0.0
  0
ENDBLK
  5
77
330
72
100
AcDbEntity
  8
0
100
AcDbBlockEnd
  0
BLOCK
  5
80
330
78
100
AcDbEntity
  8
0
100
AcDbBlockBegin
  2
SEANNOT_GROUP2
 70
     0
 10
0.0
 20
0.0
 30
0.0
  3
SEANNOT_GROUP2
  1
SEANNOT_GROUP2
  0
LINE
  5
7A
330
78
100
AcDbEntity
  8
Default
  6
CENTER2
 62
     7
100
AcDbLine
 10
78.8368522266
 20
352.55
 30
0.0
 11
38.8368531207
 21
352.55
 31
0.0
  0
LINE
  5
7B
330
78
100
AcDbEntity
  8
Default
  6
CENTER2
 62
     7
100
AcDbLine
 10
58.8368526737
 20
372.549999553
 30
0.0
 11
58.8368526737
 21
332.550000447
 31
0.0
  0
LINE
  5
7C
330
78
100
AcDbEntity
  8
Default
  6
CENTER2
 62
     7
100
AcDbLine
 10
83.8368511835
 20
352.55
 30
0.0
 11
87.8368526737
 21
352.55
 31
0.0
  0
LINE
  5
7D
330
78
100
AcDbEntity
  8
Default
  6
CENTER2
 62
     7
100
AcDbLine
 10
58.8368526737
 20
377.5499985099
 30
0.0
 11
58.8368526737
 21
381.55
 31
0.0
  0
LINE
  5
7E
330
78
100
AcDbEntity
  8
Default
  6
CENTER2
 62
     7
100
AcDbLine
 10
33.8368541638
 20
352.55
 30
0.0
 11
29.8368526737
 21
352.55
 31
0.0
  0
LINE
  5
7F
330
78
100
AcDbEntity
  8
Default
  6
CENTER2
 62
     7
100
AcDbLine
 10
58.8368526737
 20
327.5500014901
 30
0.0
 11
58.8368526737
 21
323.55
 31
0.0
  0
ENDBLK
  5
81
330
78
100
AcDbEntity
  8
0
100
AcDbBlockEnd
  0
BLOCK
  5
100
330
82
100
AcDbEntity
  8
0
100
AcDbBlockBegin
  2
SE
 70
     0
 10
0.0
 20
0.0
 30
0.0
  3
SE
  1
SE
  0
ARC
  5
85
330
82
100
AcDbEntity
  8
(3_3) 409653038_
  6
Continuous
 62
     7
100
AcDbCircle
 10
20.8037536935
 20
593.8191384012
 30
0.0
 40
29.84960365451968
100
AcDbArc
 50
287.5445550381
 51
287.602645289
  0
ARC
  5
86
330
82
100
AcDbEntity
  8
(3_3) 409653038_
  6
Continuous
 62
     7
100
AcDbCircle
 10
20.8037536935
 20
593.8191384012
 30
0.0
 40
29.84960365451968
100
AcDbArc
 50
252.518209213
 51
252.6270002181
  0
LINE
  5
87
330
82
100
AcDbEntity
  8
(3_3) 409653038_
  6
Continuous
 62
     7
100
AcDbLine
 10
29.8368526737
 20
548.7499999696
 30
0.0
 11
29.8368526737
 21
565.3482142075
 31
0.0
  0
ARC
  5
88
330
82
100
AcDbEntity
  8
(3_3) 409653038_
  6
Continuous
 62
     7
100
AcDbCircle
 10
20.8368526737
 20
548.75
 30
0.0
 40
8.999999999999996
100
AcDbArc
 50
180.000000193
 51
359.9999998071
  0
LINE
  5
89
330
82
100
AcDbEntity
  8
(3_3) 409653038_
  6
Continuous
 62
     7
100
AcDbLine
 10
11.8368526737
 20
565.3482142075
 30
0.0
 11
11.8368526737
 21
548.7499999696
 31
0.0
  0
SPLINE
  5
8A
330
82
100
AcDbEntity
  8
(3_3) 409653038_
  6
Continuous
 62
     7
100
AcDbSpline
210
0.0
220
0.0
230
1.0
 70
     8
 71
     3
 72
    37
 73
    33
 74
     0
 42
0.000000001
 43
0.0000000001
 40
0.0
 40
0.0
 40
0.0
 40
0.0
 40
0.0193771214316057
 40
0.0392798345760396
 40
0.0597492656817386
 40
0.0808232228581427
 40
0.1025363560312735
 40
0.1249203465284621
 40
0.1547247541973623
 40
0.1878261289050147
 40
0.2190313404036238
 40
0.2503627894469063
 40
0.2824400772198598
 40
0.3124789284391046
 40
0.3429232126386423
 40
0.375548205441954
 40
0.4216437102487138
 40
0.4575253638054551
 40
0.4788084239102705
 40
0.5002951438515473
 40
0.5345023153513508
 40
0.5673190637072006
 40
0.6251227488728307
 40
0.6563093239709397
 40
0.6877213717177993
 40
0.7188423295903369
 40
0.7504300717128374
 40
0.8139941295712174
 40
0.8766029243534748
 40
0.9079042725374081
 40
0.9379220962826927
 40
0.9592561246584637
 40
0.9592561246584637
 40
0.9592561246584637
 40
0.9592561246584637
 10
32.06897203309244
 20
525.9340470808728
 30
0.0
 10
32.1189500937136
 20
525.9966417152641
 30
0.0
 10
32.22026178340833
 20
526.1236117312446
 30
0.0
 10
32.44991106969251
 20
526.4117231725136
 30
0.0
 10
32.73800398090591
 20
526.7776027852086
 30
0.0
 10
33.0903943656085
 20
527.2312924427742
 30
0.0
 10
33.505507897336
 20
527.7732575724538
 30
0.0
 10
34.03124419239618
 20
528.4693954764189
 30
0.0
 10
34.70746463961062
 20
529.3747971624508
 30
0.0
 10
35.51934620779925
 20
530.4977985153558
 30
0.0
 10
36.3969651904406
 20
531.753932726191
 30
0.0
 10
37.29236518707918
 20
533.1003524318306
 30
0.0
 10
38.1794168271237
 20
534.531091646171
 30
0.0
 10
39.04625140374316
 20
536.0405676251195
 30
0.0
 10
39.88027557235016
 20
537.6508052214464
 30
0.0
 10
40.76343393226318
 20
539.6562154967264
 30
0.0
 10
41.50482039835004
 20
541.9192430827153
 30
0.0
 10
41.87601127727243
 20
544.0801143091792
 30
0.0
 10
41.95160603586486
 20
545.7543748933506
 30
0.0
 10
41.87449209838278
 20
547.3927030356547
 30
0.0
 10
41.56530578078372
 20
549.2462725158897
 30
0.0
 10
40.8269006311147
 20
551.7387189013366
 30
0.0
 10
39.82934544351798
 20
553.990507989198
 30
0.0
 10
38.73004364524532
 20
556.0290767519824
 30
0.0
 10
37.83907310634611
 20
557.5197916318147
 30
0.0
 10
36.94813645766546
 20
558.9240691187421
 30
0.0
 10
35.76319117784697
 20
560.6693665950185
 30
0.0
 10
34.37682348500242
 20
562.5870379009134
 30
0.0
 10
33.24584389725788
 20
564.0716243267225
 30
0.0
 10
32.57419699171162
 20
564.9263424207271
 30
0.0
 10
32.24515353069165
 20
565.3439859913265
 30
0.0
 10
32.10241932143058
 20
565.5259571916278
 30
0.0
 10
32.05676885534537
 20
565.5840602483828
 30
0.0
  0
ARC
  5
8B
330
82
100
AcDbEntity
  8
(3_3) 409653038_
  6
Continuous
 62
     7
100
AcDbCircle
 10
20.837311521
 20
592.7896617527
 30
0.0
 40
28.52439740300832
100
AcDbArc
 50
251.4323897195
 51
251.5217809483
  0
SPLINE
  5
8C
330
82
100
AcDbEntity
  8
(3_3) 409653038_
  6
Continuous
 62
     7
100
AcDbSpline
210
0.0
220
0.0
230
1.0
 70
     8
 71
     3
 72
     9
 73
     5
 74
     0
 42
0.000000001
 43
0.0000000001
 40
0.9609824602234027
 40
0.9609824602234027
 40
0.9609824602234027
 40
0.9609824602234027
 40
0.9619647648436425
 40
1.0
 40
1.0
 40
1.0
 40
1.0
 10
33.46979984925891
 20
566.99828048795
 30
0.0
 10
33.46769355045778
 20
567.0009392636075
 30
0.0
 10
33.38545838667756
 20
567.1047331447887
 30
0.0
 10
33.36083119122569
 20
567.1353761168853
 30
0.0
 10
33.33684311891687
 20
567.1652476116251
 30
0.0
  0
SPLINE
  5
8D
330
82
100
AcDbEntity
  8
(3_3) 409653038_
  6
Continuous
 62
     7
100
AcDbSpline
210
0.0
220
0.0
230
1.0
 70
     8
 71
     3
 72
     8
 73
     4
 74
     0
 42
0.000000001
 43
0.0000000001
 40
0.9268569169671119
 40
0.9268569169671119
 40
0.9268569169671119
 40
0.9268569169671119
 40
1.0
 40
1.0
 40
1.0
 40
1.0
 10
33.4834501666913
 20
524.5186041860567
 30
0.0
 10
33.42015801142806
 20
524.4387316272108
 30
0.0
 10
33.37858357363626
 20
524.3867165303049
 30
0.0
 10
33.33695955752302
 20
524.3347014084159
 30
0.0
  0
LINE
  5
8E
330
82
100
AcDbEntity
  8
(3_3) 409653038_
  6
Continuous
 62
     7
100
AcDbLine
 10
6.8368526737
 20
565.25
 30
0.0
 11
6.8368526737
 21
526.25
 31
0.0
  0
SPLINE
  5
8F
330
82
100
AcDbEntity
  8
(3_3) 409653038_
  6
Continuous
 62
     7
100
AcDbSpline
210
0.0
220
0.0
230
1.0
 70
     8
 71
     3
 72
     9
 73
     5
 74
     0
 42
0.000000001
 43
0.0000000001
 40
0.0
 40
0.0
 40
0.0
 40
0.0
 40
0.0193459106512287
 40
0.0349403967073766
 40
0.0349403967073766
 40
0.0349403967073766
 40
0.0349403967073766
 10
84.33690687498405
 20
567.1644036798629
 30
0.0
 10
84.33071226301236
 20
567.1566351726926
 30
0.0
 10
84.31962444083794
 20
567.1426069710967
 30
0.0
 10
84.26393074502198
 20
567.0726267949634
 30
0.0
 10
84.2322691994936
 20
567.0327731775266
 30
0.0
  0
SPLINE
  5
90
330
82
100
AcDbEntity
  8
(3_3) 409653038_
  6
Continuous
 62
     7
100
AcDbSpline
210
0.0
220
0.0
230
1.0
 70
     8
 71
     3
 72
     9
 73
     5
 74
     0
 42
0.000000001
 43
0.0000000001
 40
0.0
 40
0.0
 40
0.0
 40
0.0
 40
0.015628787709371
 40
0.0295581071467376
 40
0.0295581071467376
 40
0.0295581071467376
 40
0.0295581071467376
 10
84.33689682050048
 20
524.3356233599865
 30
0.0
 10
84.332718786463
 20
524.3406064052838
 30
0.0
 10
84.32490052935736
 20
524.3500308144428
 30
0.0
 10
84.28480049940738
 20
524.4029221635453
 30
0.0
 10
84.26053858079304
 20
524.433703198955
 30
0.0
  0
SPLINE
  5
91
330
82
100
AcDbEntity
  8
(3_3) 409653038_
  6
Continuous
 62
     7
100
AcDbSpline
210
0.0
220
0.0
230
1.0
 70
     8
 71
     3
 72
    10
 73
     6
 74
     0
 42
0.000000001
 43
0.0000000001
 40
0.0000484040443004
 40
0.0000484040443004
 40
0.0000484040443004
 40
0.0000484040443004
 40
0.0159060356175407
 40
0.0311721404808624
 40
0.0360994108773383
 40
0.0360994108773383
 40
0.0360994108773383
 40
0.0360994108773383
 10
85.74888098575882
 20
565.7500166330148
 30
0.0
 10
85.74488611136721
 20
565.7451848718429
 30
0.0
 10
85.73699435112367
 20
565.7353971195803
 30
0.0
 10
85.69055856326148
 20
565.6763703815191
 30
0.0
 10
85.65469875364222
 20
565.6306828699271
 30
0.0
 10
85.64535633003103
 20
565.6187796542835
 30
0.0
  0
LINE
  5
92
330
82
100
AcDbEntity
  8
(3_3) 409653038_
  6
Continuous
 62
     7
100
AcDbLine
 10
29.0368526737
 20
450.75
 30
0.0
 11
88.6368526737
 21
450.75
 31
0.0
  0
SPLINE
  5
93
330
82
100
AcDbEntity
  8
(3_3) 409653038_
  6
Continuous
 62
     7
100
AcDbSpline
210
0.0
220
0.0
230
1.0
 70
     8
 71
     3
 72
    46
 73
    42
 74
     0
 42
0.000000001
 43
0.0000000001
 40
0.0
 40
0.0
 40
0.0
 40
0.0
 40
0.0205463487581197
 40
0.0411808306313622
 40
0.0618416835277299
 40
0.0824182878987845
 40
0.1030255146142187
 40
0.1237314900578295
 40
0.1444719541958654
 40
0.1654330856817489
 40
0.213900895595375
 40
0.2874749814695721
 40
0.3125900832228977
 40
0.339383892445888
 40
0.3560615889541517
 40
0.3618084796016473
 40
0.3717359526831393
 40
0.3934550707771082
 40
0.4063865378764596
 40
0.4171322038266602
 40
0.4455936539460336
 40
0.5000409819470651
 40
0.5629271758583468
 40
0.5948237290572395
 40
0.6091336904681489
 40
0.6171214612037914
 40
0.6233544674078944
 40
0.6266182731596496
 40
0.632466885681894
 40
0.6488482246150618
 40
0.6965595356755436
 40
0.719050788527224
 40
0.7321176126616485
 40
0.7451049940753949
 40
0.7860434483444995
 40
0.8715788680719054
 40
0.9056247243833411
 40
0.938488911493245
 40
0.9698990705098905
 40
0.990208670746345
 40
1.0
 40
1.0
 40
1.0
 40
1.0
 10
85.7511494935445
 20
525.7499480281001
 30
0.0
 10
85.74465527512032
 20
525.7580190223208
 30
0.0
 10
85.73163870968945
 20
525.7744049269883
 30
0.0
 10
85.62543173434162
 20
525.9077202913203
 30
0.0
 10
85.45948546379407
 20
526.1169484391439
 30
0.0
 10
85.23004311988389
 20
526.4076035554575
 30
0.0
 10
84.94094561518885
 20
526.7758308444586
 30
0.0
 10
84.59767973787184
 20
527.2169235478026
 30
0.0
 10
84.20282823214062
 20
527.7289090593092
 30
0.0
 10
83.57013878677924
 20
528.5620775261622
 30
0.0
 10
82.41978466928279
 20
530.1140391501068
 30
0.0
 10
81.05345322447639
 20
532.064393252854
 30
0.0
 10
79.8586430841546
 20
533.9229711132142
 30
0.0
 10
79.22405229193276
 20
535.0042196494119
 30
0.0
 10
78.75860795686425
 20
535.8061328064474
 30
0.0
 10
78.47132447010762
 20
536.3506987085756
 30
0.0
 10
78.13956766835598
 20
536.9878333252201
 30
0.0
 10
77.74374843183361
 20
537.7650226931436
 30
0.0
 10
77.38260317044026
 20
538.5902407624105
 30
0.0
 10
76.97977320724729
 20
539.5552758391168
 30
0.0
 10
76.328571517689
 20
541.3498097968901
 30
0.0
 10
75.65046871661838
 20
544.3513774715578
 30
0.0
 10
75.75509345528164
 20
547.5709776244016
 30
0.0
 10
76.26800913169927
 20
549.7933179610303
 30
0.0
 10
76.6000537665131
 20
550.8584820227763
 30
0.0
 10
76.78359459638212
 20
551.4114339658547
 30
0.0
 10
76.90044639293181
 20
551.7468896788129
 30
0.0
 10
77.01479349861204
 20
552.0359499846929
 30
0.0
 10
77.21593051661218
 20
552.509888938995
 30
0.0
 10
77.76168595896651
 20
553.7974640489526
 30
0.0
 10
78.53531125874383
 20
555.2964859401854
 30
0.0
 10
79.30416173034153
 20
556.6452762479497
 30
0.0
 10
79.75758227235187
 20
557.4039160392297
 30
0.0
 10
80.40386287044171
 20
558.4151556675425
 30
0.0
 10
81.70242140618703
 20
560.4145721766173
 30
0.0
 10
83.14190079927948
 20
562.3660905053296
 30
0.0
 10
84.23531304475937
 20
563.8141796284775
 30
0.0
 10
84.83008560008204
 20
564.5866843197093
 30
0.0
 10
85.23245645212273
 20
565.0982113830432
 30
0.0
 10
85.45436341894836
 20
565.3768415964684
 30
0.0
 10
85.53621370791922
 20
565.4795221677406
 30
0.0
 10
85.56283823860325
 20
565.5129224413689
 30
0.0
  0
LINE
  5
94
330
82
100
AcDbEntity
  8
(3_3) 409653038_
  6
Continuous
 62
     7
100
AcDbLine
 10
114.8368526737
 20
526.25
 30
0.0
 11
114.8368526737
 21
565.25
 31
0.0
  0
LINE
  5
95
330
82
100
AcDbEntity
  8
(3_3) 409653038_
  6
Continuous
 62
     7
100
AcDbLine
 10
28.3368526737
 20
445.75
 30
0.0
 11
89.3368526737
 21
445.75
 31
0.0
  0
LINE
  5
96
330
82
100
AcDbEntity
  8
(3_3) 409653038_
  6
Continuous
 62
     7
100
AcDbLine
 10
44.7368526737
 20
596.90999
 30
0.0
 11
72.9368526737
 21
596.90999
 31
0.0
  0
SPLINE
  5
97
330
82
100
AcDbEntity
  8
(3_3) 409653038_
  6
Continuous
 62
     7
100
AcDbSpline
210
0.0
220
0.0
230
1.0
 70
     8
 71
     3
 72
     8
 73
     4
 74
     0
 42
0.000000001
 43
0.0000000001
 40
0.8954321142135065
 40
0.8954321142135065
 40
0.8954321142135065
 40
0.8954321142135065
 40
0.9346785507543756
 40
0.9346785507543756
 40
0.9346785507543756
 40
0.9346785507543756
 10
12.17680650609351
 20
565.7052265348393
 30
0.0
 10
12.113351154073
 20
565.7155586593801
 30
0.0
 10
12.05626052683248
 20
565.7232358904781
 30
0.0
 10
12.00223379534575
 20
565.7292443986568
 30
0.0
  0
SPLINE
  5
98
330
82
100
AcDbEntity
  8
(3_3) 409653038_
  6
Continuous
 62
     7
100
AcDbSpline
210
0.0
220
0.0
230
1.0
 70
     8
 71
     3
 72
     8
 73
     4
 74
     0
 42
0.000000001
 43
0.0000000001
 40
0.9454534151654966
 40
0.9454534151654966
 40
0.9454534151654966
 40
0.9454534151654966
 40
1.0
 40
1.0
 40
1.0
 40
1.0
 10
11.95836019965338
 20
565.7338362650105
 30
0.0
 10
11.88526366594095
 20
565.7410170056806
 30
0.0
 10
11.81633506247792
 20
565.7454973073638
 30
0.0
 10
11.74271252624587
 20
565.7499247801063
 30
0.0
  0
SPLINE
  5
99
330
82
100
AcDbEntity
  8
(3_3) 409653038_
  6
Continuous
 62
     7
100
AcDbSpline
210
0.0
220
0.0
230
1.0
 70
     8
 71
     3
 72
     8
 73
     4
 74
     0
 42
0.000000001
 43
0.0000000001
 40
0.0
 40
0.0
 40
0.0
 40
0.0
 40
0.0878290823871602
 40
0.0878290823871602
 40
0.0878290823871602
 40
0.0878290823871602
 10
29.93004881227024
 20
565.749936427324
 30
0.0
 10
29.82258039707058
 20
565.7448302274306
 30
0.0
 10
29.72889512929972
 20
565.7395917928908
 30
0.0
 10
29.61195316348716
 20
565.7235307695618
 30
0.0
  0
LINE
  5
9A
330
82
100
AcDbEntity
  8
(3_3) 409653038_
  6
Continuous
 62
     7
100
AcDbLine
 10
7.3368526737
 20
525.75
 30
0.0
 11
31.9229610343
 21
525.75
 31
0.0
  0
LINE
  5
9B
330
82
100
AcDbEntity
  8
(3_3) 409653038_
  6
Continuous
 62
     7
100
AcDbLine
 10
11.7544389226
 20
565.75
 30
0.0
 11
7.3368526737
 21
565.75
 31
0.0
  0
LINE
  5
9C
330
82
100
AcDbEntity
  8
(3_3) 409653038_
  6
Continuous
 62
     7
100
AcDbLine
 10
31.9248203235
 20
565.75
 30
0.0
 11
29.9192532851
 21
565.75
 31
0.0
  0
ARC
  5
9D
330
82
100
AcDbEntity
  8
(3_3) 409653038_
  6
Continuous
 62
     7
100
AcDbCircle
 10
31.5792609804
 20
567.4743837524
 30
0.0
 40
1.956363581380503
100
AcDbArc
 50
284.1031103058
 51
345.8209579531
  0
SPLINE
  5
9E
330
82
100
AcDbEntity
  8
(3_3) 409653038_
  6
Continuous
 62
     7
100
AcDbSpline
210
0.0
220
0.0
230
1.0
 70
     8
 71
     3
 72
    17
 73
    13
 74
     0
 42
0.000000001
 43
0.0000000001
 40
0.0
 40
0.0
 40
0.0
 40
0.0
 40
0.1542416836348647
 40
0.2772383229447171
 40
0.3775492380797604
 40
0.4235586831456051
 40
0.4692726194529994
 40
0.516652868236087
 40
0.5673999425900907
 40
0.6836801114758311
 40
0.8262278015423149
 40
1.0
 40
1.0
 40
1.0
 40
1.0
 10
32.02755072194747
 20
525.8879547356559
 30
0.0
 10
32.07751709255781
 20
525.868888977073
 30
0.0
 10
32.16025906165089
 20
525.8353096578231
 30
0.0
 10
32.36390458506646
 20
525.7627782587224
 30
0.0
 10
32.56880882109764
 20
525.6664526993021
 30
0.0
 10
32.73259546550757
 20
525.5642870834248
 30
0.0
 10
32.85088651545159
 20
525.4762765256431
 30
0.0
 10
32.96463375055824
 20
525.3750479886286
 30
0.0
 10
33.11279355771816
 20
525.2165796467958
 30
0.0
 10
33.26951570526334
 20
524.9875340616094
 30
0.0
 10
33.39354557514145
 20
524.7007374429905
 30
0.0
 10
33.42919514772989
 20
524.5580283306292
 30
0.0
 10
33.44785623579813
 20
524.4681734860558
 30
0.0
  0
ARC
  5
9F
330
82
100
AcDbEntity
  8
(3_3) 409653038_
  6
Continuous
 62
     7
100
AcDbCircle
 10
7.3368526737
 20
526.25
 30
0.0
 40
0.5000000000000073
100
AcDbArc
 50
180.0
 51
270.0
  0
ARC
  5
A0
330
82
100
AcDbEntity
  8
(3_3) 409653038_
  6
Continuous
 62
     7
100
AcDbCircle
 10
7.3368526737
 20
565.25
 30
0.0
 40
0.500000000000056
100
AcDbArc
 50
90.0
 51
180.0
  0
LINE
  5
A1
330
82
100
AcDbEntity
  8
(3_3) 409653038_
  6
Continuous
 62
     7
100
AcDbLine
 10
84.3368526737
 20
567.1650278045
 30
0.0
 11
84.3368526737
 21
596.5822425751
 31
0.0
  0
LINE
  5
A2
330
82
100
AcDbEntity
  8
(3_3) 409653038_
  6
Continuous
 62
     7
100
AcDbLine
 10
84.3368526737
 20
451.75
 30
0.0
 11
84.3368526737
 21
524.2795357845
 31
0.0
  0
LINE
  5
A3
330
82
100
AcDbEntity
  8
(3_3) 409653038_
  6
Continuous
 62
     7
100
AcDbLine
 10
33.3368526737
 20
524.3346994659
 30
0.0
 11
33.3368526737
 21
451.75
 31
0.0
  0
LINE
  5
A4
330
82
100
AcDbEntity
  8
(3_3) 409653038_
  6
Continuous
 62
     7
100
AcDbLine
 10
33.3368526737
 20
596.5822425751
 30
0.0
 11
33.3368526737
 21
567.1652476152
 31
0.0
  0
ARC
  5
A5
330
82
100
AcDbEntity
  8
(3_3) 409653038_
  6
Continuous
 62
     7
100
AcDbCircle
 10
85.3368526737
 20
451.75
 30
0.0
 40
1.000000000000015
100
AcDbArc
 50
180.0
 51
270.0
  0
ARC
  5
A6
330
82
100
AcDbEntity
  8
(3_3) 409653038_
  6
Continuous
 62
     7
100
AcDbCircle
 10
32.3368526737
 20
451.75
 30
0.0
 40
1.000000000000077
100
AcDbArc
 50
270.0
 51
0.0
  0
ARC
  5
A7
330
82
100
AcDbEntity
  8
(3_3) 409653038_
  6
Continuous
 62
     7
100
AcDbCircle
 10
85.6872391129
 20
524.4182358569
 30
0.0
 40
1.427231888948427
100
AcDbArc
 50
90.4498241335
 51
179.4347638298
  0
ARC
  5
A8
330
82
100
AcDbEntity
  8
(3_3) 409653038_
  6
Continuous
 62
     7
100
AcDbCircle
 10
85.663502242
 20
567.0510388593
 30
0.0
 40
1.432219284685464
100
AcDbArc
 50
180.7772782139
 51
269.7377432644
  0
LINE
  5
A9
330
82
100
AcDbEntity
  8
(3_3) 409653038_
  6
Continuous
 62
     7
100
AcDbLine
 10
85.7513293737
 20
525.75
 30
0.0
 11
114.3368526737
 21
525.75
 31
0.0
  0
LINE
  5
AA
330
82
100
AcDbEntity
  8
(3_3) 409653038_
  6
Continuous
 62
     7
100
AcDbLine
 10
114.3368526737
 20
565.75
 30
0.0
 11
85.7488279645
 21
565.75
 31
0.0
  0
ARC
  5
AB
330
82
100
AcDbEntity
  8
(3_3) 409653038_
  6
Continuous
 62
     7
100
AcDbCircle
 10
88.6368526737
 20
450.05
 30
0.0
 40
0.7000000000000027
100
AcDbArc
 50
0.0
 51
90.0
  0
ARC
  5
AC
330
82
100
AcDbEntity
  8
(3_3) 409653038_
  6
Continuous
 62
     7
100
AcDbCircle
 10
29.0368526737
 20
450.05
 30
0.0
 40
0.7000000000000062
100
AcDbArc
 50
90.0
 51
180.0
  0
ARC
  5
AD
330
82
100
AcDbEntity
  8
(3_3) 409653038_
  6
Continuous
 62
     7
100
AcDbCircle
 10
114.3368526737
 20
526.25
 30
0.0
 40
0.5000000000000282
100
AcDbArc
 50
270.0
 51
0.0
  0
ARC
  5
AE
330
82
100
AcDbEntity
  8
(3_3) 409653038_
  6
Continuous
 62
     7
100
AcDbCircle
 10
114.3368526737
 20
565.25
 30
0.0
 40
0.5000000000000491
100
AcDbArc
 50
0.0
 51
90.0
  0
ARC
  5
AF
330
82
100
AcDbEntity
  8
(3_3) 409653038_
  6
Continuous
 62
     7
100
AcDbCircle
 10
44.8368526737
 20
96.9099999982
 30
0.0
 40
500.0000000017866
100
AcDbArc
 50
90.011459156
 51
91.2955131651
  0
ARC
  5
B0
330
82
100
AcDbEntity
  8
(3_3) 409653038_
  6
Continuous
 62
     7
100
AcDbCircle
 10
72.8368526736
 20
96.9099999982
 30
0.0
 40
500.0000000017864
100
AcDbArc
 50
88.7044868349
 51
89.988540844
  0
LINE
  5
B1
330
82
100
AcDbEntity
  8
(3_3) 409653038_
  6
Continuous
 62
     7
100
AcDbLine
 10
89.3368526737
 20
445.75
 30
0.0
 11
89.3368526737
 21
450.05
 31
0.0
  0
LINE
  5
B2
330
82
100
AcDbEntity
  8
(3_3) 409653038_
  6
Continuous
 62
     7
100
AcDbLine
 10
28.3368526737
 20
450.05
 30
0.0
 11
28.3368526737
 21
445.75
 31
0.0
  0
ARC
  5
B3
330
82
100
AcDbEntity
  8
(3_3) 409653038_
  6
Continuous
 62
     7
100
AcDbCircle
 10
33.5368526737
 20
596.5822425751
 30
0.0
 40
0.1999999999998221
100
AcDbArc
 50
91.2955131672
 51
180.0
  0
ARC
  5
B4
330
82
100
AcDbEntity
  8
(3_3) 409653038_
  6
Continuous
 62
     7
100
AcDbCircle
 10
84.1368526737
 20
596.5822425751
 30
0.0
 40
0.1999999999996276
100
AcDbArc
 50
0.0
 51
88.7044868327
  0
ARC
  5
B6
330
82
100
AcDbEntity
  8
(3_3) 07055038_2
  6
Continuous
 62
     7
100
AcDbCircle
 10
106.4368526737
 20
545.75
 30
0.0
 40
20.0
100
AcDbArc
 50
294.8345874897
 51
298.2225634841
  0
ARC
  5
B7
330
82
100
AcDbEntity
  8
(3_3) 07055038_2
  6
Continuous
 62
     7
100
AcDbCircle
 10
106.4368526737
 20
545.75
 30
0.0
 40
20.0
100
AcDbArc
 50
61.7513910614
 51
65.1654125103
  0
ELLIPSE
  5
B9
330
82
100
AcDbEntity
  8
(3_3) 407148038_
  6
Continuous
 62
     7
100
AcDbEllipse
 10
128.6314482087
 20
619.5690778006
 30
0.0
 11
-4.029950325350737
 21
-2.775557561562891E-14
 31
0.0
210
0.0
220
0.0
230
1.0
 40
0.5
 41
0.0
 42
0.0661963113834302
  0
ELLIPSE
  5
BA
330
82
100
AcDbEntity
  8
(3_3) 407148038_
  6
Continuous
 62
     7
100
AcDbEllipse
 10
128.6314482087
 20
619.7401165849
 30
0.0
 11
3.861483043780103
 21
2.775557561562892E-14
 31
0.0
210
0.0
220
0.0
230
1.0
 40
0.5
 41
0.8923291368293924
 42
2.311219126337672
  0
ELLIPSE
  5
BB
330
82
100
AcDbEntity
  8
(3_3) 407148038_
  6
Continuous
 62
     7
100
AcDbEllipse
 10
128.6314482087
 20
619.7401165849
 30
0.0
 11
3.861483043780103
 21
2.775557561562892E-14
 31
0.0
210
0.0
220
0.0
230
1.0
 40
0.5
 41
4.035303783232493
 42
5.384770783859502
  0
LINE
  5
BC
330
82
100
AcDbEntity
  8
(3_3) 407148038_
  6
Continuous
 62
     7
100
AcDbLine
 10
132.6613985341
 20
564.0010031068
 30
0.0
 11
132.6613985341
 21
619.5690778006
 31
0.0
  0
LINE
  5
BD
330
82
100
AcDbEntity
  8
(3_3) 407148038_
  6
Continuous
 62
     7
100
AcDbLine
 10
124.6014978834
 20
619.5690778006
 30
0.0
 11
124.6014978834
 21
564.0401189448
 31
0.0
  0
SPLINE
  5
BE
330
82
100
AcDbEntity
  8
(3_3) 407148038_
  6
Continuous
 62
     7
100
AcDbSpline
210
0.0
220
0.0
230
1.0
 70
     8
 71
     3
 72
    13
 73
     9
 74
     0
 42
0.000000001
 43
0.0000000001
 40
0.0
 40
0.0
 40
0.0
 40
0.0
 40
0.1741359404527325
 40
0.3548690754505884
 40
0.5358632652134347
 40
0.7147902874905768
 40
0.8885413688670691
 40
1.0
 40
1.0
 40
1.0
 40
1.0
 10
125.9468076449339
 20
621.1552700240013
 30
0.0
 10
125.7826470044368
 20
621.0737098880749
 30
0.0
 10
125.5025679954259
 20
620.9310712020366
 30
0.0
 10
125.1304371221255
 20
620.6488111561308
 30
0.0
 10
124.8478569416685
 20
620.3375929231319
 30
0.0
 10
124.6659708260726
 20
620.0012283841262
 30
0.0
 10
124.5879950656297
 20
619.6801332640667
 30
0.0
 10
124.611084587297
 20
619.4998405630909
 30
0.0
 10
124.6229173012527
 20
619.4169134334115
 30
0.0
  0
SPLINE
  5
BF
330
82
100
AcDbEntity
  8
(3_3) 407148038_
  6
Continuous
 62
     7
100
AcDbSpline
210
0.0
220
0.0
230
1.0
 70
     8
 71
     3
 72
    14
 73
    10
 74
     0
 42
0.000000001
 43
0.0000000001
 40
0.0
 40
0.0
 40
0.0
 40
0.0
 40
0.0965472194459673
 40
0.2637773425593165
 40
0.432795259501183
 40
0.6067708835388599
 40
0.7849266681464795
 40
0.9647914076857247
 40
1.0
 40
1.0
 40
1.0
 40
1.0
 10
132.661398534076
 20
619.5690778005594
 30
0.0
 10
132.658295088765
 20
619.6410919149594
 30
0.0
 10
132.6487603870994
 20
619.8079706250758
 30
0.0
 10
132.5531592413036
 20
620.1021040158616
 30
0.0
 10
132.3533739911959
 20
620.4149914974137
 30
0.0
 10
132.0619284458896
 20
620.710348950301
 30
0.0
 10
131.6838719470645
 20
620.9723648882801
 30
0.0
 10
131.3489326643191
 20
621.1545019491184
 30
0.0
 10
131.1515613403242
 20
621.2251426749942
 30
0.0
 10
131.1138372302474
 20
621.2385725077629
 30
0.0
  0
ARC
  5
C1
330
82
100
AcDbEntity
  8
(5_5) 407147038_
  6
Continuous
 62
     7
100
AcDbCircle
 10
118.9279562474
 20
2996.1198553729
 30
0.0
 40
2460.803495689572
100
AcDbArc
 50
269.933766509
 51
270.5891418151
  0
SPLINE
  5
C2
330
82
100
AcDbEntity
  8
(5_5) 407147038_
  6
Continuous
 62
     7
100
AcDbSpline
210
0.0
220
0.0
230
1.0
 70
     8
 71
     3
 72
    10
 73
     6
 74
     0
 42
0.000000001
 43
0.0000000001
 40
0.0
 40
0.0
 40
0.0
 40
0.0
 40
0.5
 40
0.5
 40
1.0
 40
1.0
 40
1.0
 40
1.0
 10
116.0832865147125
 20
535.3180038919282
 30
0.0
 10
116.034675969962
 20
535.3181130825354
 30
0.0
 10
115.9772204711116
 20
535.3282194535727
 30
0.0
 10
115.8979658984603
 20
535.3693999820063
 30
0.0
 10
115.8798130388627
 20
535.3984016114555
 30
0.0
 10
115.8819318563638
 20
535.4224424602094
 30
0.0
  0
SPLINE
  5
C3
330
82
100
AcDbEntity
  8
(5_5) 407147038_
  6
Continuous
 62
     7
100
AcDbSpline
210
0.0
220
0.0
230
1.0
 70
     8
 71
     2
 72
    16
 73
    13
 74
     0
 42
0.000000001
 43
0.0000000001
 40
0.6679548568857617
 40
0.6679548568857617
 40
0.6679548568857617
 40
0.6875
 40
0.6875
 40
0.75
 40
0.75
 40
0.8125
 40
0.8125
 40
0.875
 40
0.875
 40
0.9375
 40
0.9375
 40
1.0
 40
1.0
 40
1.0
 10
115.8814482087254
 20
525.1637209997327
 30
0.0
 10
115.8814482087254
 20
525.1653371679391
 30
0.0
 10
115.8814482087254
 20
525.2050959416947
 30
0.0
 10
115.8814482087254
 20
525.3317120554948
 30
0.0
 10
115.8814482087254
 20
525.8381391742062
 30
0.0
 10
115.8814482087254
 20
526.3498351775127
 30
0.0
 10
115.8814482087254
 20
527.2283101116396
 30
0.0
 10
115.8814482087254
 20
528.1066996704509
 30
0.0
 10
115.8814482087254
 20
529.3345708557176
 30
0.0
 10
115.8814482087254
 20
530.5694145075821
 30
0.0
 10
115.8814482087254
 20
532.1084093038913
 30
0.0
 10
115.8814482087254
 20
533.5296798827774
 30
0.0
 10
115.8819318563638
 20
535.4224424602094
 30
0.0
  0
SPLINE
  5
C4
330
82
100
AcDbEntity
  8
(5_5) 407147038_
  6
Continuous
 62
     7
100
AcDbSpline
210
0.0
220
0.0
230
1.0
 70
     8
 71
     3
 72
    12
 73
     8
 74
     0
 42
0.000000001
 43
0.0000000001
 40
0.0
 40
0.0
 40
0.0
 40
0.0
 40
0.1250000000000001
 40
0.1250000000000001
 40
0.2500000000000003
 40
0.2500000000000003
 40
0.332222890848753
 40
0.332222890848753
 40
0.332222890848753
 40
0.332222890848753
 10
116.0832865147125
 20
535.3180038919282
 30
0.0
 10
116.0832981284298
 20
532.9012762541824
 30
0.0
 10
116.0831964384291
 20
530.793337749384
 30
0.0
 10
116.0828247622342
 20
527.4840836141715
 30
0.0
 10
116.0830669783012
 20
526.2907211201276
 30
0.0
 10
116.0833158382772
 20
525.1675901148855
 30
0.0
 10
116.0833205956529
 20
524.9429550694373
 30
0.0
 10
116.083311515791
 20
524.9434778227397
 30
0.0
  0
SPLINE
  5
C5
330
82
100
AcDbEntity
  8
(5_5) 407147038_
  6
Continuous
 62
     7
100
AcDbSpline
210
0.0
220
0.0
230
1.0
 70
     8
 71
     2
 72
    16
 73
    13
 74
     0
 42
0.000000001
 43
0.0000000001
 40
0.0
 40
0.0
 40
0.0
 40
0.125
 40
0.125
 40
0.25
 40
0.25
 40
0.375
 40
0.375
 40
0.5
 40
0.5
 40
0.625
 40
0.625
 40
0.669516784921325
 40
0.669516784921325
 40
0.669516784921325
 10
115.8819318563638
 20
535.4224424602094
 30
0.0
 10
115.8814482087254
 20
539.1276031664764
 30
0.0
 10
115.8814482087254
 20
543.1715696319909
 30
0.0
 10
115.8814482087254
 20
547.3450673647865
 30
0.0
 10
115.8814482087254
 20
551.3030995553885
 30
0.0
 10
115.8814482087254
 20
555.2356804464554
 30
0.0
 10
115.8814482087254
 20
558.5726531936116
 30
0.0
 10
115.8814482087254
 20
561.9032288124802
 30
0.0
 10
115.8814482087253
 20
563.9469749096786
 30
0.0
 10
115.8814482087253
 20
565.9995221788045
 30
0.0
 10
115.8814482087253
 20
566.572144923146
 30
0.0
 10
115.8814482087253
 20
566.7764834090127
 30
0.0
 10
115.8814482087253
 20
566.7779460165062
 30
0.0
  0
SPLINE
  5
C6
330
82
100
AcDbEntity
  8
(5_5) 407147038_
  6
Continuous
 62
     7
100
AcDbSpline
210
0.0
220
0.0
230
1.0
 70
     8
 71
     3
 72
     8
 73
     4
 74
     0
 42
0.000000001
 43
0.0000000001
 40
0.0
 40
0.0
 40
0.0
 40
0.0
 40
0.0095666440738656
 40
0.0095666440738656
 40
0.0095666440738656
 40
0.0095666440738656
 10
124.581460159059
 20
564.1482609807932
 30
0.0
 10
124.5812606618438
 20
564.1891965825987
 30
0.0
 10
124.5836458325926
 20
564.2295633385838
 30
0.0
 10
124.5885543961302
 20
564.2693346762321
 30
0.0
  0
SPLINE
  5
C7
330
82
100
AcDbEntity
  8
(5_5) 407147038_
  6
Continuous
 62
     7
100
AcDbSpline
210
0.0
220
0.0
230
1.0
 70
     8
 71
     3
 72
    16
 73
    12
 74
     0
 42
0.000000001
 43
0.0000000001
 40
0.4918148715845808
 40
0.4918148715845808
 40
0.4918148715845808
 40
0.4918148715845808
 40
0.5
 40
0.5
 40
0.6249999999999999
 40
0.6249999999999999
 40
0.75
 40
0.75
 40
0.875
 40
0.875
 40
1.0
 40
1.0
 40
1.0
 40
1.0
 10
132.675219563448
 20
564.2607324739346
 30
0.0
 10
132.6791224708355
 20
564.2270056457885
 30
0.0
 10
132.6812022301294
 20
564.192883766756
 30
0.0
 10
132.6848584299297
 20
563.6315544583485
 30
0.0
 10
132.2497173545061
 20
563.0206162710091
 30
0.0
 10
130.7617252754006
 20
562.0921207889749
 30
0.0
 10
129.7152867802119
 20
561.7876119131153
 30
0.0
 10
127.5757256136119
 20
561.7836978488518
 30
0.0
 10
126.5249118595484
 20
562.0853002413652
 30
0.0
 10
125.0303257928773
 20
563.0061172157514
 30
0.0
 10
124.5840668361446
 20
563.6133868717342
 30
0.0
 10
124.581460159059
 20
564.1482609807932
 30
0.0
  0
SPLINE
  5
C8
330
82
100
AcDbEntity
  8
(5_5) 407147038_
  6
Continuous
 62
     7
100
AcDbSpline
210
0.0
220
0.0
230
1.0
 70
     8
 71
     3
 72
     8
 73
     4
 74
     0
 42
0.000000001
 43
0.0000000001
 40
0.0
 40
0.0
 40
0.0
 40
0.0
 40
0.4110204085295966
 40
0.4110204085295966
 40
0.4110204085295966
 40
0.4110204085295966
 10
144.2297557649035
 20
566.929313375069
 30
0.0
 10
140.3736849851488
 20
566.9356728447178
 30
0.0
 10
136.5175658530607
 20
566.9420450198315
 30
0.0
 10
132.6613983686393
 20
566.9484299004104
 30
0.0
  0
SPLINE
  5
C9
330
82
100
AcDbEntity
  8
(5_5) 407147038_
  6
Continuous
 62
     7
100
AcDbSpline
210
0.0
220
0.0
230
1.0
 70
     8
 71
     3
 72
     8
 73
     4
 74
     0
 42
0.000000001
 43
0.0000000001
 40
0.6973802701306406
 40
0.6973802701306406
 40
0.6973802701306406
 40
0.6973802701306406
 40
1.0
 40
1.0
 40
1.0
 40
1.0
 10
124.6014976124448
 20
566.9617935314582
 30
0.0
 10
121.7622888356248
 20
566.9665075270404
 30
0.0
 10
118.9230538477111
 20
566.9712284100697
 30
0.0
 10
116.0837926487039
 20
566.975956180546
 30
0.0
  0
ARC
  5
CA
330
82
100
AcDbEntity
  8
(5_5) 407147038_
  6
Continuous
 62
     7
100
AcDbCircle
 10
116.0814369751
 20
525.1443792407
 30
0.0
 40
0.1999791358670696
100
AcDbArc
 50
195.7185248065
 51
270.0476995606
  0
LINE
  5
CB
330
82
100
AcDbEntity
  8
(5_5) 407147038_
  6
Continuous
 62
     7
100
AcDbLine
 10
115.8889362449
 20
525.0909447798
 30
0.0
 11
115.8828865772
 21
525.1683497775
 31
0.0
  0
ARC
  5
CC
330
82
100
AcDbEntity
  8
(5_5) 407147038_
  6
Continuous
 62
     7
100
AcDbCircle
 10
116.0814426073
 20
566.7758107922
 30
0.0
 40
0.1999931439082184
100
AcDbArc
 50
89.901720912
 51
158.5468431213
  0
SPLINE
  5
CD
330
82
100
AcDbEntity
  8
(5_5) 407147038_
  6
Continuous
 62
     7
100
AcDbSpline
210
0.0
220
0.0
230
1.0
 70
     8
 71
     3
 72
    13
 73
     9
 74
     0
 42
0.000000001
 43
0.0000000001
 40
0.0
 40
0.0
 40
0.0
 40
0.0
 40
0.240219524435576
 40
0.3695883134352339
 40
0.5029375715101706
 40
0.6352588520349307
 40
0.7622916484179683
 40
1.0
 40
1.0
 40
1.0
 40
1.0
 10
144.7314552606236
 20
566.4288287669378
 30
0.0
 10
144.7268232869272
 20
566.4990568968283
 30
0.0
 10
144.7184738861228
 20
566.5912526867144
 30
0.0
 10
144.6594119230936
 20
566.7149918333265
 30
0.0
 10
144.5941837886829
 20
566.7982168013834
 30
0.0
 10
144.5128053322196
 20
566.8648499744054
 30
0.0
 10
144.3904004295795
 20
566.9237139804011
 30
0.0
 10
144.2985487008059
 20
566.9279754945138
 30
0.0
 10
144.2289163139735
 20
566.9292984703824
 30
0.0
  0
SPLINE
  5
CE
330
82
100
AcDbEntity
  8
(5_5) 407147038_
  6
Continuous
 62
     7
100
AcDbSpline
210
0.0
220
0.0
230
1.0
 70
     8
 71
     3
 72
    13
 73
     9
 74
     0
 42
0.000000001
 43
0.0000000001
 40
0.0
 40
0.0
 40
0.0
 40
0.0
 40
0.2375893034895027
 40
0.3645415723780243
 40
0.4968436900453967
 40
0.6302493926743915
 40
0.7597100293012379
 40
1.0
 40
1.0
 40
1.0
 40
1.0
 10
144.2305768557111
 20
524.9636502291044
 30
0.0
 10
144.3000402390424
 20
524.9649177507519
 30
0.0
 10
144.3916946642532
 20
524.9691125657962
 30
0.0
 10
144.51373430508
 20
525.028023763257
 30
0.0
 10
144.5948003419448
 20
525.0947008622804
 30
0.0
 10
144.6597381225087
 20
525.1779332281507
 30
0.0
 10
144.7185106106258
 20
525.3015711859612
 30
0.0
 10
144.7268337022329
 20
525.3936123817437
 30
0.0
 10
144.7314552434992
 20
525.4637249292354
 30
0.0
  0
ARC
  5
CF
330
82
100
AcDbEntity
  8
(5_5) 407147038_
  6
Continuous
 62
     7
100
AcDbCircle
 10
-275.3666914296
 20
545.965970686
 30
0.0
 40
420.5981400993299
100
AcDbArc
 50
357.2059383698
 51
359.997317512
  0
ARC
  5
D0
330
82
100
AcDbEntity
  8
(5_5) 407147038_
  6
Continuous
 62
     7
100
AcDbCircle
 10
-274.9366309835
 20
545.9370853729
 30
0.0
 40
420.1680792927806
100
AcDbArc
 50
0.0012536818
 51
2.7954904639
  0
SPLINE
  5
D1
330
82
100
AcDbEntity
  8
(5_5) 407147038_
  6
Continuous
 62
     7
100
AcDbSpline
210
0.0
220
0.0
230
1.0
 70
     8
 71
     3
 72
     8
 73
     4
 74
     0
 42
0.000000001
 43
0.0000000001
 40
0.0
 40
0.0
 40
0.0
 40
0.0
 40
1.0
 40
1.0
 40
1.0
 40
1.0
 10
116.0833076729806
 20
524.9430511030928
 30
0.0
 10
125.4097211054293
 20
524.9498429652384
 30
0.0
 10
134.7924346173479
 20
524.9567133105393
 30
0.0
 10
144.2314482087363
 20
524.9636621389955
 30
0.0
  0
LINE
  5
D3
330
82
100
AcDbEntity
  8
(1_1) 407541040_
  6
Continuous
 62
     7
100
AcDbLine
 10
11.9368526737
 20
565.6497487428
 30
0.0
 11
11.9368526737
 21
548.75
 31
0.0
  0
SPLINE
  5
D4
330
82
100
AcDbEntity
  8
(1_1) 407541040_
  6
Continuous
 62
     7
100
AcDbSpline
210
0.0
220
0.0
230
1.0
 70
    12
 71
     4
 72
    10
 73
     5
 74
     0
 42
0.000000001
 43
0.0000000001
 40
0.0
 40
0.0
 40
0.0
 40
0.0
 40
0.0
 40
0.0815623916612104
 40
0.0815623916612104
 40
0.0815623916612104
 40
0.0815623916612104
 40
0.0815623916612104
 10
29.73685267365551
 20
548.9148340306949
 30
0.0
 41
1.0
 10
29.76639487077358
 20
548.9148341389501
 30
0.0
 41
0.9761109285722614
 10
29.79586839299615
 20
548.9144510676047
 30
0.0
 41
0.9539012821671166
 10
29.82506817127988
 20
548.9136874819683
 30
0.0
 41
0.9332779674716642
 10
29.85379104121999
 20
548.9125486948699
 30
0.0
 41
0.9141630769994993
  0
SPLINE
  5
D5
330
82
100
AcDbEntity
  8
(1_1) 407541040_
  6
Continuous
 62
     7
100
AcDbSpline
210
0.0
220
0.0
230
1.0
 70
     8
 71
     3
 72
     8
 73
     4
 74
     0
 42
0.000000001
 43
0.0000000001
 40
0.0
 40
0.0
 40
0.0
 40
0.0
 40
0.071906143994166
 40
0.071906143994166
 40
0.071906143994166
 40
0.071906143994166
 10
11.9368526736555
 20
565.6497487427738
 30
0.0
 10
11.9368526737728
 20
565.7178034320871
 30
0.0
 10
12.01464934995494
 20
565.7494180893807
 30
0.0
 10
12.16622748858612
 20
565.7493660033342
 30
0.0
  0
SPLINE
  5
D6
330
82
100
AcDbEntity
  8
(1_1) 407541040_
  6
Continuous
 62
     7
100
AcDbSpline
210
0.0
220
0.0
230
1.0
 70
     8
 71
     3
 72
     8
 73
     4
 74
     0
 42
0.000000001
 43
0.0000000001
 40
0.9283841574468509
 40
0.9283841574468509
 40
0.9283841574468509
 40
0.9283841574468509
 40
1.0
 40
1.0
 40
1.0
 40
1.0
 10
29.5073589100889
 20
565.749097006672
 30
0.0
 10
29.65844657434871
 20
565.7490108702746
 30
0.0
 10
29.73685267348768
 20
565.7175492637573
 30
0.0
 10
29.73685267350162
 20
565.6497487430918
 30
0.0
  0
ARC
  5
D7
330
82
100
AcDbEntity
  8
(1_1) 407541040_
  6
Continuous
 62
     7
100
AcDbCircle
 10
20.8368526738
 20
548.7500000001
 30
0.0
 40
8.900000000100002
100
AcDbArc
 50
180.0000000006
 51
359.9999999994
  0
LINE
  5
D8
330
82
100
AcDbEntity
  8
(1_1) 407541040_
  6
Continuous
 62
     7
100
AcDbLine
 10
29.7368526735
 20
565.6497487431
 30
0.0
 11
29.7368526739
 21
548.75
 31
0.0
  0
LINE
  5
D9
330
82
100
AcDbEntity
  8
(1_1) 407541040_
  6
Continuous
 62
     7
100
AcDbLine
 10
13.4368526734
 20
565.6497485424
 30
0.0
 11
13.4368526733
 21
548.7500038286
 31
0.0
  0
SPLINE
  5
DA
330
82
100
AcDbEntity
  8
(1_1) 407541040_
  6
Continuous
 62
     7
100
AcDbSpline
210
0.0
220
0.0
230
1.0
 70
     8
 71
     3
 72
     8
 73
     4
 74
     0
 42
0.000000001
 43
0.0000000001
 40
0.0
 40
0.0
 40
0.0
 40
0.0
 40
0.0986888201897607
 40
0.0986888201897607
 40
0.0986888201897607
 40
0.0986888201897607
 10
13.4368526734055
 20
565.6497485423627
 30
0.0
 10
13.43685267345048
 20
565.727210349239
 30
0.0
 10
13.55766459444513
 20
565.7573350060745
 30
0.0
 10
13.79179523629073
 20
565.7480632017498
 30
0.0
  0
SPLINE
  5
DB
330
82
100
AcDbEntity
  8
(1_1) 407541040_
  6
Continuous
 62
     7
100
AcDbSpline
210
0.0
220
0.0
230
1.0
 70
     8
 71
     3
 72
     8
 73
     4
 74
     0
 42
0.000000001
 43
0.0000000001
 40
0.8983109404964655
 40
0.8983109404964655
 40
0.8983109404964655
 40
0.8983109404964655
 40
1.0
 40
1.0
 40
1.0
 40
1.0
 10
27.85358945662748
 20
565.7407944994214
 30
0.0
 10
28.10364828051359
 20
565.7544477798656
 30
0.0
 10
28.23685267373709
 20
565.7295783465707
 30
0.0
 10
28.2368526738055
 20
565.6497485423625
 30
0.0
  0
LINE
  5
DC
330
82
100
AcDbEntity
  8
(1_1) 407541040_
  6
Continuous
 62
     7
100
AcDbLine
 10
28.2368526738
 20
565.6497485424
 30
0.0
 11
28.236852674
 21
548.7500025386
 31
0.0
  0
ARC
  5
DD
330
82
100
AcDbEntity
  8
(1_1) 407541040_
  6
Continuous
 62
     7
100
AcDbCircle
 10
20.8368526737
 20
548.7500025389
 30
0.0
 40
7.400000000179944
100
AcDbArc
 50
179.9999900145
 51
359.9999999979
  0
LINE
  5
DE
330
82
100
AcDbEntity
  8
(1_1) 407541040_
  6
Continuous
 62
     7
100
AcDbLine
 10
29.7368526735
 20
559.921833552
 30
0.0
 11
29.736851602
 21
560.7926951935
 31
0.0
  0
SPLINE
  5
DF
330
82
100
AcDbEntity
  8
(1_1) 407541040_
  6
Continuous
 62
     7
100
AcDbSpline
210
0.0
220
0.0
230
1.0
 70
     8
 71
     3
 72
     8
 73
     4
 74
     0
 42
0.000000001
 43
0.0000000001
 40
0.0
 40
0.0
 40
0.0
 40
0.0
 40
0.051352238484234
 40
0.051352238484234
 40
0.051352238484234
 40
0.051352238484234
 10
13.436852673509
 20
564.6444434178958
 30
0.0
 10
13.43685267352107
 20
564.6868884754842
 30
0.0
 10
13.46958710867539
 20
564.7158344702777
 30
0.0
 10
13.53399015507747
 20
564.7324597392126
 30
0.0
  0
SPLINE
  5
E0
330
82
100
AcDbEntity
  8
(1_1) 407541040_
  6
Continuous
 62
     7
100
AcDbSpline
210
0.0
220
0.0
230
1.0
 70
     8
 71
     3
 72
     8
 73
     4
 74
     0
 42
0.000000001
 43
0.0000000001
 40
0.9514833654061641
 40
0.9514833654061641
 40
0.9514833654061641
 40
0.9514833654061641
 40
1.0
 40
1.0
 40
1.0
 40
1.0
 10
28.14750350546206
 20
564.7271104489658
 30
0.0
 10
28.20646572390942
 20
564.7114806261678
 30
0.0
 10
28.23685267350121
 20
564.6845524093433
 30
0.0
 10
28.23685267347406
 20
564.6444434171742
 30
0.0
  0
ARC
  5
E1
330
82
100
AcDbEntity
  8
(1_1) 407541040_
  6
Continuous
 62
     7
100
AcDbCircle
 10
20.8368526737
 20
548.75
 30
0.0
 40
7.300000000000001
100
AcDbArc
 50
179.9999999997
 51
0.0
  0
LINE
  5
E2
330
82
100
AcDbEntity
  8
(1_1) 407541040_
  6
Continuous
 62
     7
100
AcDbLine
 10
13.5368526737
 20
565.6497487424
 30
0.0
 11
13.5368526737
 21
548.75
 31
0.0
  0
SPLINE
  5
E3
330
82
100
AcDbEntity
  8
(1_1) 407541040_
  6
Continuous
 62
     7
100
AcDbSpline
210
0.0
220
0.0
230
1.0
 70
     8
 71
     3
 72
     8
 73
     4
 74
     0
 42
0.000000001
 43
0.0000000001
 40
0.0
 40
0.0
 40
0.0
 40
0.0
 40
0.0883082087467335
 40
0.0883082087467335
 40
0.0883082087467335
 40
0.0883082087467335
 10
13.53685267365551
 20
565.64974874238
 30
0.0
 10
13.53685267366355
 20
565.7181163785115
 30
0.0
 10
13.63223150561626
 20
565.7496004933166
 30
0.0
 10
13.81773957926273
 20
565.7497075521674
 30
0.0
  0
SPLINE
  5
E4
330
82
100
AcDbEntity
  8
(1_1) 407541040_
  6
Continuous
 62
     7
100
AcDbSpline
210
0.0
220
0.0
230
1.0
 70
     8
 71
     3
 72
     8
 73
     4
 74
     0
 42
0.000000001
 43
0.0000000001
 40
0.9117301166890226
 40
0.9117301166890226
 40
0.9117301166890226
 40
0.9117301166890226
 40
1.0
 40
1.0
 40
1.0
 40
1.0
 10
27.85051289781335
 20
565.7443373509299
 30
0.0
 10
28.03791348415478
 20
565.7461508520803
 30
0.0
 10
28.13685267365674
 20
565.7180974700453
 30
0.0
 10
28.13685267365551
 20
565.6497487423793
 30
0.0
  0
LINE
  5
E5
330
82
100
AcDbEntity
  8
(1_1) 407541040_
  6
Continuous
 62
     7
100
AcDbLine
 10
28.1368526737
 20
565.6497487424
 30
0.0
 11
28.1368526737
 21
548.75
 31
0.0
  0
LINE
  5
E6
330
82
100
AcDbEntity
  8
(1_1) 407541040_
  6
Continuous
 62
     7
100
AcDbLine
 10
13.7329134977
 20
565.750000001
 30
0.0
 11
12.193343218
 21
565.750000001
 31
0.0
  0
LINE
  5
E7
330
82
100
AcDbEntity
  8
(1_1) 407541040_
  6
Continuous
 62
     7
100
AcDbLine
 10
29.4900055321
 20
565.750000001
 30
0.0
 11
27.9345615501
 21
565.750000001
 31
0.0
  0
LINE
  5
E8
330
82
100
AcDbEntity
  8
(1_1) 407541040_
  6
Continuous
 62
     7
100
AcDbLine
 10
27.8319080224
 20
565.75
 30
0.0
 11
13.8356421451
 21
565.75
 31
0.0
  0
ARC
  5
EA
330
82
100
AcDbEntity
  8
(4_4) 07769038_2
  6
Continuous
 62
     7
100
AcDbCircle
 10
58.8368526737
 20
801.31
 30
0.0
 40
14.0
100
AcDbArc
 50
0.0
 51
90.0
  0
ARC
  5
EB
330
82
100
AcDbEntity
  8
(4_4) 07769038_2
  6
Continuous
 62
     7
100
AcDbCircle
 10
58.8368526737
 20
801.31
 30
0.0
 40
14.0
100
AcDbArc
 50
180.0
 51
214.2300448635
  0
ARC
  5
EC
330
82
100
AcDbEntity
  8
(4_4) 07769038_2
  6
Continuous
 62
     7
100
AcDbCircle
 10
58.8368526737
 20
801.31
 30
0.0
 40
14.0
100
AcDbArc
 50
325.7699551365
 51
0.0
  0
LINE
  5
ED
330
82
100
AcDbEntity
  8
(4_4) 07769038_2
  6
Continuous
 62
     7
100
AcDbLine
 10
44.8368526737
 20
753.31
 30
0.0
 11
44.8368526737
 21
596.90999
 31
0.0
  0
LINE
  5
EE
330
82
100
AcDbEntity
  8
(4_4) 07769038_2
  6
Continuous
 62
     7
100
AcDbLine
 10
72.8368526737
 20
596.90999
 30
0.0
 11
72.8368526737
 21
753.31
 31
0.0
  0
LINE
  5
EF
330
82
100
AcDbEntity
  8
(4_4) 07769038_2
  6
Continuous
 62
     7
100
AcDbLine
 10
44.8368526737
 20
801.31
 30
0.0
 11
44.8368526737
 21
753.31
 31
0.0
  0
LINE
  5
F0
330
82
100
AcDbEntity
  8
(4_4) 07769038_2
  6
Continuous
 62
     7
100
AcDbLine
 10
72.8368526737
 20
753.31
 30
0.0
 11
72.8368526737
 21
801.31
 31
0.0
  0
CIRCLE
  5
F2
330
82
100
AcDbEntity
  8
(2_2) 409754038_
  6
Continuous
 62
     7
100
AcDbCircle
 10
58.8368526737
 20
801.31
 30
0.0
 40
14.0
  0
LINE
  5
F4
330
82
100
AcDbEntity
  8
(11_11) 40716403
  6
Continuous
 62
     7
100
AcDbLine
 10
6.8368526737
 20
527.5
 30
0.0
 11
6.8353784818
 21
527.5
 31
0.0
  0
ARC
  5
F5
330
82
100
AcDbEntity
  8
(11_11) 40716403
  6
Continuous
 62
     7
100
AcDbCircle
 10
349.6883481078
 20
545.75
 30
0.0
 40
343.3383481077992
100
AcDbArc
 50
176.9484071712
 51
180.0
  0
ARC
  5
F6
330
82
100
AcDbEntity
  8
(11_11) 40716403
  6
Continuous
 62
     7
100
AcDbCircle
 10
349.6883481078
 20
545.75
 30
0.0
 40
343.3383481077992
100
AcDbArc
 50
180.0
 51
183.0469681174
  0
LINE
  5
F8
330
82
100
AcDbEntity
  8
(1_1) 08066138_2
  6
Continuous
 62
     7
100
AcDbLine
 10
48.2618526737
 20
781.56
 30
0.0
 11
69.4118526737
 21
781.56
 31
0.0
  0
LINE
  5
F9
330
82
100
AcDbEntity
  8
(1_1) 08066138_2
  6
Continuous
 62
     7
100
AcDbLine
 10
62.2939257513
 20
778.36
 30
0.0
 11
55.379779596
 21
778.36
 31
0.0
  0
LINE
  5
FA
330
82
100
AcDbEntity
  8
(1_1) 08066138_2
  6
Continuous
 62
     7
100
AcDbLine
 10
70.4118526737
 20
782.56
 30
0.0
 11
70.4118526737
 21
793.4347619084
 31
0.0
  0
LINE
  5
FB
330
82
100
AcDbEntity
  8
(1_1) 08066138_2
  6
Continuous
 62
     7
100
AcDbLine
 10
47.2618526737
 20
793.4347619084
 30
0.0
 11
47.2618526737
 21
782.56
 31
0.0
  0
ARC
  5
FC
330
82
100
AcDbEntity
  8
(1_1) 08066138_2
  6
Continuous
 62
     7
100
AcDbCircle
 10
69.4118526737
 20
782.56
 30
0.0
 40
1.000000000000001
100
AcDbArc
 50
270.0
 51
0.0
  0
ARC
  5
FD
330
82
100
AcDbEntity
  8
(1_1) 08066138_2
  6
Continuous
 62
     7
100
AcDbCircle
 10
48.2618526737
 20
782.56
 30
0.0
 40
1.000000000000001
100
AcDbArc
 50
180.0
 51
270.0
  0
LINE
  5
FE
330
82
100
AcDbEntity
  8
(1_1) 08066138_2
  6
Continuous
 62
     7
100
AcDbLine
 10
55.379779596
 20
781.56
 30
0.0
 11
55.379779596
 21
778.36
 31
0.0
  0
LINE
  5
FF
330
82
100
AcDbEntity
  8
(1_1) 08066138_2
  6
Continuous
 62
     7
100
AcDbLine
 10
62.2939257513
 20
778.36
 30
0.0
 11
62.2939257513
 21
781.56
 31
0.0
  0
ENDBLK
  5
101
330
82
100
AcDbEntity
  8
0
100
AcDbBlockEnd
  0
BLOCK
  5
142
330
102
100
AcDbEntity
  8
0
100
AcDbBlockBegin
  2
SE1
 70
     0
 10
0.0
 20
0.0
 30
0.0
  3
SE1
  1
SE1
  0
CIRCLE
  5
104
330
102
100
AcDbEntity
  8
(3_3) 409653038_
  6
Continuous
 62
     7
100
AcDbCircle
 10
238.4318854084
 20
545.75
 30
0.0
 40
20.00000000000002
  0
LINE
  5
105
330
102
100
AcDbEntity
  8
(3_3) 409653038_
  6
Continuous
 62
     7
100
AcDbLine
 10
268.2318854084
 20
450.75
 30
0.0
 11
208.6318854084
 21
450.75
 31
0.0
  0
LINE
  5
106
330
102
100
AcDbEntity
  8
(3_3) 409653038_
  6
Continuous
 62
     7
100
AcDbLine
 10
268.9318854084
 20
445.75
 30
0.0
 11
207.9318854084
 21
445.75
 31
0.0
  0
LINE
  5
107
330
102
100
AcDbEntity
  8
(3_3) 409653038_
  6
Continuous
 62
     7
100
AcDbLine
 10
252.5318854084
 20
596.90999
 30
0.0
 11
224.3318854084
 21
596.90999
 31
0.0
  0
CIRCLE
  5
108
330
102
100
AcDbEntity
  8
(3_3) 409653038_
  6
Continuous
 62
     7
100
AcDbCircle
 10
238.4318854084
 20
545.75
 30
0.0
 40
18.54999999999998
  0
LINE
  5
109
330
102
100
AcDbEntity
  8
(3_3) 409653038_
  6
Continuous
 62
     7
100
AcDbLine
 10
263.9318854084
 20
451.75
 30
0.0
 11
263.9318854084
 21
596.5822425751
 31
0.0
  0
LINE
  5
10A
330
102
100
AcDbEntity
  8
(3_3) 409653038_
  6
Continuous
 62
     7
100
AcDbLine
 10
212.9318854084
 20
596.5822425751
 30
0.0
 11
212.9318854084
 21
451.75
 31
0.0
  0
ARC
  5
10B
330
102
100
AcDbEntity
  8
(3_3) 409653038_
  6
Continuous
 62
     7
100
AcDbCircle
 10
264.9318854084
 20
451.75
 30
0.0
 40
1.000000000000015
100
AcDbArc
 50
180.0
 51
270.0
  0
ARC
  5
10C
330
102
100
AcDbEntity
  8
(3_3) 409653038_
  6
Continuous
 62
     7
100
AcDbCircle
 10
211.9318854084
 20
451.75
 30
0.0
 40
1.000000000000077
100
AcDbArc
 50
270.0
 51
0.0
  0
ARC
  5
10D
330
102
100
AcDbEntity
  8
(3_3) 409653038_
  6
Continuous
 62
     7
100
AcDbCircle
 10
268.2318854084
 20
450.05
 30
0.0
 40
0.7000000000000027
100
AcDbArc
 50
0.0
 51
90.0
  0
ARC
  5
10E
330
102
100
AcDbEntity
  8
(3_3) 409653038_
  6
Continuous
 62
     7
100
AcDbCircle
 10
208.6318854084
 20
450.05
 30
0.0
 40
0.7000000000000062
100
AcDbArc
 50
90.0
 51
180.0
  0
ARC
  5
10F
330
102
100
AcDbEntity
  8
(3_3) 409653038_
  6
Continuous
 62
     7
100
AcDbCircle
 10
224.4318854085
 20
96.9099999982
 30
0.0
 40
500.0000000017866
100
AcDbArc
 50
90.011459156
 51
91.2955131651
  0
ARC
  5
110
330
102
100
AcDbEntity
  8
(3_3) 409653038_
  6
Continuous
 62
     7
100
AcDbCircle
 10
252.4318854084
 20
96.9099999982
 30
0.0
 40
500.0000000017864
100
AcDbArc
 50
88.7044868349
 51
89.988540844
  0
LINE
  5
111
330
102
100
AcDbEntity
  8
(3_3) 409653038_
  6
Continuous
 62
     7
100
AcDbLine
 10
268.9318854084
 20
445.75
 30
0.0
 11
268.9318854084
 21
450.05
 31
0.0
  0
LINE
  5
112
330
102
100
AcDbEntity
  8
(3_3) 409653038_
  6
Continuous
 62
     7
100
AcDbLine
 10
207.9318854084
 20
450.05
 30
0.0
 11
207.9318854084
 21
445.75
 31
0.0
  0
ARC
  5
113
330
102
100
AcDbEntity
  8
(3_3) 409653038_
  6
Continuous
 62
     7
100
AcDbCircle
 10
213.1318854084
 20
596.5822425751
 30
0.0
 40
0.1999999999998304
100
AcDbArc
 50
91.2955131673
 51
180.0
  0
ARC
  5
114
330
102
100
AcDbEntity
  8
(3_3) 409653038_
  6
Continuous
 62
     7
100
AcDbCircle
 10
263.7318854084
 20
596.5822425751
 30
0.0
 40
0.1999999999999988
100
AcDbArc
 50
0.0
 51
88.7044868328
  0
ARC
  5
115
330
102
100
AcDbEntity
  8
(3_3) 407148038_
  6
Continuous
 62
     7
100
AcDbCircle
 10
269.1154161011
 20
598.8663611684
 30
0.0
 40
24.39971408740669
100
AcDbArc
 50
50.9286913162
 51
60.0
  0
ARC
  5
116
330
102
100
AcDbEntity
  8
(3_3) 407148038_
  6
Continuous
 62
     7
100
AcDbCircle
 10
269.0902381906
 20
598.8808976418
 30
0.0
 40
24.39971408740666
100
AcDbArc
 50
60.0
 51
69.0713086838
  0
LINE
  5
117
330
102
100
AcDbEntity
  8
(3_3) 407148038_
  6
Continuous
 62
     7
100
AcDbLine
 10
281.3152731448
 20
619.9971334132
 30
0.0
 11
281.2900952343
 21
620.0116698866
 31
0.0
  0
LINE
  5
118
330
102
100
AcDbEntity
  8
(3_3) 407148038_
  6
Continuous
 62
     7
100
AcDbLine
 10
263.9318854084
 20
581.8573949423
 30
0.0
 11
284.5413892057
 21
617.5541026379
 31
0.0
  0
LINE
  5
119
330
102
100
AcDbEntity
  8
(3_3) 407148038_
  6
Continuous
 62
     7
100
AcDbLine
 10
277.5613104902
 20
621.5840529632
 30
0.0
 11
263.2481858973
 21
596.7929939533
 31
0.0
  0
ARC
  5
11A
330
102
100
AcDbEntity
  8
(3_3) 407148038_
  6
Continuous
 62
     7
100
AcDbCircle
 10
277.7345155709
 20
621.4840529632
 30
0.0
 40
0.1999999999999934
100
AcDbArc
 50
69.0713086838
 51
150.0
  0
ARC
  5
11B
330
102
100
AcDbEntity
  8
(3_3) 407148038_
  6
Continuous
 62
     7
100
AcDbCircle
 10
284.3681841249
 20
617.6541026379
 30
0.0
 40
0.1999999999999904
100
AcDbArc
 50
330.0
 51
50.9286913162
  0
ARC
  5
11C
330
102
100
AcDbEntity
  8
(1_1) 407541040_
  6
Continuous
 62
     7
100
AcDbCircle
 10
238.4318854059
 20
545.7500000036
 30
0.0
 40
19.99999999724779
100
AcDbArc
 50
84.2608295172
 51
94.4160857154
  0
ARC
  5
11D
330
102
100
AcDbEntity
  8
(1_1) 407541040_
  6
Continuous
 62
     7
100
AcDbCircle
 10
238.4318854059
 20
545.7500000036
 30
0.0
 40
19.99999999724779
100
AcDbArc
 50
106.8641322462
 51
110.1817841824
  0
ARC
  5
11E
330
102
100
AcDbEntity
  8
(1_1) 407541040_
  6
Continuous
 62
     7
100
AcDbCircle
 10
238.4318854071
 20
545.75
 30
0.0
 40
20.00000000095261
100
AcDbArc
 50
359.8496281508
 51
8.6269265583
  0
ARC
  5
11F
330
102
100
AcDbEntity
  8
(1_1) 407541040_
  6
Continuous
 62
     7
100
AcDbCircle
 10
238.4318854071
 20
545.75
 30
0.0
 40
20.00000000095261
100
AcDbArc
 50
342.8424698213
 51
347.7425883013
  0
LINE
  5
120
330
102
100
AcDbEntity
  8
(1_1) 407541040_
  6
Continuous
 62
     7
100
AcDbLine
 10
231.5318854084
 20
564.5326080177
 30
0.0
 11
231.5318854084
 21
564.5220536969
 31
0.0
  0
LINE
  5
121
330
102
100
AcDbEntity
  8
(1_1) 407541040_
  6
Continuous
 62
     7
100
AcDbLine
 10
257.5418304633
 20
539.85
 30
0.0
 11
257.5500815056
 21
539.85
 31
0.0
  0
LINE
  5
122
330
102
100
AcDbEntity
  8
(1_1) 407541040_
  6
Continuous
 62
     7
100
AcDbLine
 10
257.9641663812
 20
541.45
 30
0.0
 11
257.9783679282
 21
541.45
 31
0.0
  0
LINE
  5
123
330
102
100
AcDbEntity
  8
(1_1) 407541040_
  6
Continuous
 62
     7
100
AcDbLine
 10
233.1318854084
 20
565.0536493259
 30
0.0
 11
233.1318854084
 21
565.0349682395
 31
0.0
  0
LINE
  5
124
330
102
100
AcDbEntity
  8
(4_4) 07769038_2
  6
Continuous
 62
     7
100
AcDbLine
 10
364.4318854084
 20
787.31
 30
0.0
 11
364.4318854084
 21
815.31
 31
0.0
  0
LINE
  5
125
330
102
100
AcDbEntity
  8
(4_4) 07769038_2
  6
Continuous
 62
     7
100
AcDbLine
 10
224.4318854084
 20
753.31
 30
0.0
 11
224.4318854084
 21
596.90999
 31
0.0
  0
LINE
  5
126
330
102
100
AcDbEntity
  8
(4_4) 07769038_2
  6
Continuous
 62
     7
100
AcDbLine
 10
252.4318854084
 20
596.90999
 30
0.0
 11
252.4318854084
 21
753.31
 31
0.0
  0
ARC
  5
127
330
102
100
AcDbEntity
  8
(4_4) 07769038_2
  6
Continuous
 62
     7
100
AcDbCircle
 10
286.4318854084
 20
753.31
 30
0.0
 40
34.0
100
AcDbArc
 50
90.0
 51
180.0
  0
ARC
  5
128
330
102
100
AcDbEntity
  8
(4_4) 07769038_2
  6
Continuous
 62
     7
100
AcDbCircle
 10
286.4318854084
 20
753.31
 30
0.0
 40
62.0
100
AcDbArc
 50
90.0
 51
180.0
  0
LINE
  5
129
330
102
100
AcDbEntity
  8
(4_4) 07769038_2
  6
Continuous
 62
     7
100
AcDbLine
 10
364.4318854084
 20
815.31
 30
0.0
 11
286.4318854084
 21
815.31
 31
0.0
  0
LINE
  5
12A
330
102
100
AcDbEntity
  8
(4_4) 07769038_2
  6
Continuous
 62
     7
100
AcDbLine
 10
286.4318854084
 20
787.31
 30
0.0
 11
364.4318854084
 21
787.31
 31
0.0
  0
LINE
  5
12B
330
102
100
AcDbEntity
  8
(2_2) 409754038_
  6
Continuous
 62
     7
100
AcDbLine
 10
484.6318854084
 20
788.31
 30
0.0
 11
484.6318854084
 21
814.31
 31
0.0
  0
SPLINE
  5
12C
330
102
100
AcDbEntity
  8
(2_2) 409754038_
  6
Continuous
 62
     7
100
AcDbSpline
210
0.0
220
0.0
230
1.0
 70
     8
 71
     3
 72
    24
 73
    20
 74
     0
 42
0.000000001
 43
0.0000000001
 40
0.5003840407870958
 40
0.5003840407870958
 40
0.5003840407870958
 40
0.5003840407870958
 40
0.5625000000000026
 40
0.5625000000000026
 40
0.6250000000000026
 40
0.6250000000000026
 40
0.6875000000000024
 40
0.6875000000000024
 40
0.7500000000000024
 40
0.7500000000000024
 40
0.7812500000000022
 40
0.7812500000000022
 40
0.8125000000000019
 40
0.8125000000000019
 40
0.8750000000000013
 40
0.8750000000000013
 40
0.9375000000000007
 40
0.9375000000000007
 40
1.0
 40
1.0
 40
1.0
 40
1.0
 10
473.5818841259367
 20
787.3100013833414
 30
0.0
 10
473.5816544588185
 20
787.3102270250837
 30
0.0
 10
473.2620182425518
 20
787.5811340633177
 30
0.0
 10
472.135930025399
 20
788.5035222322753
 30
0.0
 10
471.3319085867481
 20
789.152986353171
 30
0.0
 10
469.4410520161156
 20
790.5656081193868
 30
0.0
 10
468.3358868255886
 20
791.349638203137
 30
0.0
 10
465.8663352805415
 20
792.7552610524535
 30
0.0
 10
464.4426234698258
 20
793.4089741996617
 30
0.0
 10
462.1318198050759
 20
793.7307091683717
 30
0.0
 10
461.3512781671978
 20
793.7213246674444
 30
0.0
 10
459.8069800032276
 20
793.4705324235198
 30
0.0
 10
459.0709435654218
 20
793.2379436096967
 30
0.0
 10
456.9812697299956
 20
792.3737171882992
 30
0.0
 10
455.7638315314531
 20
791.6077963407298
 30
0.0
 10
453.592190802178
 20
790.1205386547683
 30
0.0
 10
452.6390824879182
 20
789.3839056649329
 30
0.0
 10
451.1181733197755
 20
788.1757802945062
 30
0.0
 10
450.5461435121821
 20
787.6981453022756
 30
0.0
 10
450.2710679633005
 20
787.4683960467
 30
0.0
  0
LINE
  5
12D
330
102
100
AcDbEntity
  8
(2_2) 409754038_
  6
Continuous
 62
     7
100
AcDbLine
 10
364.6318854084
 20
814.81
 30
0.0
 11
364.6318854084
 21
787.81
 31
0.0
  0
LINE
  5
12E
330
102
100
AcDbEntity
  8
(2_2) 409754038_
  6
Continuous
 62
     7
100
AcDbLine
 10
445.6318854084
 20
787.4017290794
 30
0.0
 11
445.6318854084
 21
787.31
 31
0.0
  0
LINE
  5
12F
330
102
100
AcDbEntity
  8
(2_2) 409754038_
  6
Continuous
 62
     7
100
AcDbLine
 10
446.1318854084
 20
787.4683960467
 30
0.0
 11
450.2710679633
 21
787.4683960467
 31
0.0
  0
SPLINE
  5
130
330
102
100
AcDbEntity
  8
(2_2) 409754038_
  6
Continuous
 62
     7
100
AcDbSpline
210
0.0
220
0.0
230
1.0
 70
     8
 71
     3
 72
    10
 73
     6
 74
     0
 42
0.000000001
 43
0.0000000001
 40
0.0
 40
0.0
 40
0.0
 40
0.0
 40
0.5
 40
0.5
 40
1.0
 40
1.0
 40
1.0
 40
1.0
 10
446.131885408447
 20
787.4683960467
 30
0.0
 10
445.9992369765827
 20
787.4683960467
 30
0.0
 10
445.8695323167188
 20
787.4598721569628
 30
0.0
 10
445.6855851583439
 20
787.4338474245693
 30
0.0
 10
445.6318854084469
 20
787.4168855076784
 30
0.0
 10
445.6318854084469
 20
787.4017290794287
 30
0.0
  0
ARC
  5
131
330
102
100
AcDbEntity
  8
(2_2) 409754038_
  6
Continuous
 62
     7
100
AcDbCircle
 10
483.6318854084
 20
814.31
 30
0.0
 40
1.000000000000001
100
AcDbArc
 50
0.0
 51
90.0
  0
ARC
  5
132
330
102
100
AcDbEntity
  8
(2_2) 409754038_
  6
Continuous
 62
     7
100
AcDbCircle
 10
483.6318854084
 20
788.31
 30
0.0
 40
1.000000000000001
100
AcDbArc
 50
270.0
 51
0.0
  0
LINE
  5
133
330
102
100
AcDbEntity
  8
(2_2) 409754038_
  6
Continuous
 62
     7
100
AcDbLine
 10
473.5626340108
 20
787.31
 30
0.0
 11
483.6318854084
 21
787.31
 31
0.0
  0
LINE
  5
134
330
102
100
AcDbEntity
  8
(2_2) 409754038_
  6
Continuous
 62
     7
100
AcDbLine
 10
365.1318854084
 20
787.31
 30
0.0
 11
445.6318854084
 21
787.31
 31
0.0
  0
LINE
  5
135
330
102
100
AcDbEntity
  8
(2_2) 409754038_
  6
Continuous
 62
     7
100
AcDbLine
 10
483.6318854084
 20
815.31
 30
0.0
 11
365.1318854084
 21
815.31
 31
0.0
  0
ARC
  5
136
330
102
100
AcDbEntity
  8
(2_2) 409754038_
  6
Continuous
 62
     7
100
AcDbCircle
 10
365.1318854084
 20
787.81
 30
0.0
 40
0.5000000000000004
100
AcDbArc
 50
180.0
 51
270.0
  0
ARC
  5
137
330
102
100
AcDbEntity
  8
(2_2) 409754038_
  6
Continuous
 62
     7
100
AcDbCircle
 10
365.1318854084
 20
814.81
 30
0.0
 40
0.5000000000000004
100
AcDbArc
 50
90.0
 51
180.0
  0
ARC
  5
138
330
102
100
AcDbEntity
  8
(11_11) 40716403
  6
Continuous
 62
     7
100
AcDbCircle
 10
238.4318854084
 20
545.75
 30
0.0
 40
18.45000000000001
100
AcDbArc
 50
278.4439867166
 51
261.5560132834
  0
LINE
  5
139
330
102
100
AcDbEntity
  8
(11_11) 40716403
  6
Continuous
 62
     7
100
AcDbLine
 10
235.7226419716
 20
527.5
 30
0.0
 11
241.1411288453
 21
527.5
 31
0.0
  0
LINE
  5
13A
330
102
100
AcDbEntity
  8
(1_1) 08066138_2
  6
Continuous
 62
     7
100
AcDbLine
 10
451.2568854084
 20
781.56
 30
0.0
 11
472.4068854084
 21
781.56
 31
0.0
  0
LINE
  5
13B
330
102
100
AcDbEntity
  8
(1_1) 08066138_2
  6
Continuous
 62
     7
100
AcDbLine
 10
465.2889584861
 20
778.36
 30
0.0
 11
458.3748123308
 21
778.36
 31
0.0
  0
LINE
  5
13C
330
102
100
AcDbEntity
  8
(1_1) 08066138_2
  6
Continuous
 62
     7
100
AcDbLine
 10
473.4068854084
 20
782.56
 30
0.0
 11
473.4068854084
 21
787.4564362706
 31
0.0
  0
LINE
  5
13D
330
102
100
AcDbEntity
  8
(1_1) 08066138_2
  6
Continuous
 62
     7
100
AcDbLine
 10
450.2568854084
 20
787.4683960467
 30
0.0
 11
450.2568854084
 21
782.56
 31
0.0
  0
ARC
  5
13E
330
102
100
AcDbEntity
  8
(1_1) 08066138_2
  6
Continuous
 62
     7
100
AcDbCircle
 10
472.4068854084
 20
782.56
 30
0.0
 40
1.000000000000001
100
AcDbArc
 50
270.0
 51
0.0
  0
ARC
  5
13F
330
102
100
AcDbEntity
  8
(1_1) 08066138_2
  6
Continuous
 62
     7
100
AcDbCircle
 10
451.2568854084
 20
782.56
 30
0.0
 40
1.000000000000001
100
AcDbArc
 50
180.0
 51
270.0
  0
LINE
  5
140
330
102
100
AcDbEntity
  8
(1_1) 08066138_2
  6
Continuous
 62
     7
100
AcDbLine
 10
458.3748123308
 20
781.56
 30
0.0
 11
458.3748123308
 21
778.36
 31
0.0
  0
LINE
  5
141
330
102
100
AcDbEntity
  8
(1_1) 08066138_2
  6
Continuous
 62
     7
100
AcDbLine
 10
465.2889584861
 20
778.36
 30
0.0
 11
465.2889584861
 21
781.56
 31
0.0
  0
ENDBLK
  5
143
330
102
100
AcDbEntity
  8
0
100
AcDbBlockEnd
  0
BLOCK
  5
1A1
330
144
100
AcDbEntity
  8
0
100
AcDbBlockBegin
  2
SE2
 70
     0
 10
0.0
 20
0.0
 30
0.0
  3
SE2
  1
SE2
  0
ARC
  5
146
330
144
100
AcDbEntity
  8
(3_3) 409653038_
  6
Continuous
 62
     7
100
AcDbCircle
 10
20.8368526737
 20
350.55
 30
0.0
 40
9.000000000000002
100
AcDbArc
 50
0.0000001944
 51
179.9999998057
  0
LINE
  5
147
330
144
100
AcDbEntity
  8
(3_3) 409653038_
  6
Continuous
 62
     7
100
AcDbLine
 10
29.8368526737
 20
333.0797663039
 30
0.0
 11
29.8368526737
 21
350.5500000306
 31
0.0
  0
LINE
  5
148
330
144
100
AcDbEntity
  8
(3_3) 409653038_
  6
Continuous
 62
     7
100
AcDbLine
 10
11.8368526737
 20
350.5500000305
 30
0.0
 11
11.8368526737
 21
333.0797663039
 31
0.0
  0
SPLINE
  5
149
330
144
100
AcDbEntity
  8
(3_3) 409653038_
  6
Continuous
 62
     7
100
AcDbSpline
210
0.0
220
0.0
230
1.0
 70
    12
 71
     3
 72
     8
 73
     4
 74
     0
 42
0.000000001
 43
0.0000000001
 40
0.104527540497476
 40
0.104527540497476
 40
0.104527540497476
 40
0.104527540497476
 40
0.1117805650294707
 40
0.1117805650294707
 40
0.1117805650294707
 40
0.1117805650294707
 10
12.03837305765702
 20
332.550003223795
 30
0.0
 41
1.0
 10
12.06123349190287
 20
332.5500469990429
 30
0.0
 41
1.0
 10
12.08484037740257
 20
332.5504352769878
 30
0.0
 41
1.0
 10
12.1091917774054
 20
332.5511588674018
 30
0.0
 41
1.0
  0
ARC
  5
14A
330
144
100
AcDbEntity
  8
(3_3) 409653038_
  6
Continuous
 62
     7
100
AcDbCircle
 10
56.8822441878
 20
352.5330492794
 30
0.0
 40
24.95742944834392
100
AcDbArc
 50
179.9610830389
 51
233.1956027792
  0
ARC
  5
14B
330
144
100
AcDbEntity
  8
(3_3) 409653038_
  6
Continuous
 62
     7
100
AcDbCircle
 10
56.9148626361
 20
352.5498246946
 30
0.0
 40
24.99190163323712
100
AcDbArc
 50
126.8494371659
 51
172.9432235701
  0
LINE
  5
14C
330
144
100
AcDbEntity
  8
(3_3) 409653038_
  6
Continuous
 62
     7
100
AcDbLine
 10
6.8368526737
 20
372.05
 30
0.0
 11
6.8368526737
 21
333.05
 31
0.0
  0
ARC
  5
14D
330
144
100
AcDbEntity
  8
(3_3) 409653038_
  6
Continuous
 62
     7
100
AcDbCircle
 10
60.7586255437
 20
352.5508721654
 30
0.0
 40
24.99252396877332
100
AcDbArc
 50
306.8493259796
 51
352.9416993392
  0
ARC
  5
14E
330
144
100
AcDbEntity
  8
(3_3) 409653038_
  6
Continuous
 62
     7
100
AcDbCircle
 10
58.8368526737
 20
352.55
 30
0.0
 40
30.50000000000003
100
AcDbArc
 50
40.9756103426
 51
139.0243896574
  0
ARC
  5
14F
330
144
100
AcDbEntity
  8
(3_3) 409653038_
  6
Continuous
 62
     7
100
AcDbCircle
 10
58.8368526737
 20
352.55
 30
0.0
 40
30.50000000000003
100
AcDbArc
 50
220.9756103426
 51
242.6763446357
  0
ARC
  5
150
330
144
100
AcDbEntity
  8
(3_3) 409653038_
  6
Continuous
 62
     7
100
AcDbCircle
 10
58.8368526737
 20
352.55
 30
0.0
 40
30.50000000000003
100
AcDbArc
 50
297.3236553643
 51
319.0243896574
  0
LINE
  5
151
330
144
100
AcDbEntity
  8
(3_3) 409653038_
  6
Continuous
 62
     7
100
AcDbLine
 10
114.8368526737
 20
333.05
 30
0.0
 11
114.8368526737
 21
372.05
 31
0.0
  0
ARC
  5
152
330
144
100
AcDbEntity
  8
(3_3) 409653038_
  6
Continuous
 62
     7
100
AcDbCircle
 10
58.8368526737
 20
352.55
 30
0.0
 40
25.49999999999997
100
AcDbArc
 50
303.2997799396
 51
0.0
  0
ARC
  5
153
330
144
100
AcDbEntity
  8
(3_3) 409653038_
  6
Continuous
 62
     7
100
AcDbCircle
 10
58.8368526737
 20
352.55
 30
0.0
 40
25.49999999999997
100
AcDbArc
 50
0.0
 51
236.7002200604
  0
ARC
  5
154
330
144
100
AcDbEntity
  8
(3_3) 409653038_
  6
Continuous
 62
     7
100
AcDbCircle
 10
58.8368526737
 20
352.55
 30
0.0
 40
14.1
100
AcDbArc
 50
0.0
 51
186.8278674815
  0
ARC
  5
155
330
144
100
AcDbEntity
  8
(3_3) 409653038_
  6
Continuous
 62
     7
100
AcDbCircle
 10
58.8368526737
 20
352.55
 30
0.0
 40
14.1
100
AcDbArc
 50
353.1721325185
 51
0.0
  0
LINE
  5
156
330
144
100
AcDbEntity
  8
(3_3) 409653038_
  6
Continuous
 62
     7
100
AcDbLine
 10
29.5250196481
 20
332.5583996686
 30
0.0
 11
29.5621487055
 21
332.5556524708
 31
0.0
  0
ARC
  5
157
330
144
100
AcDbEntity
  8
(3_3) 409653038_
  6
Continuous
 62
     7
100
AcDbCircle
 10
20.8310651937
 20
298.290846915
 30
0.0
 40
35.35321789839747
100
AcDbArc
 50
103.6772947195
 51
104.059819787
  0
ARC
  5
158
330
144
100
AcDbEntity
  8
(3_3) 409653038_
  6
Continuous
 62
     7
100
AcDbCircle
 10
20.8310651937
 20
298.290846915
 30
0.0
 40
35.35321789839747
100
AcDbArc
 50
77.8623823694
 51
78.0537399815
  0
ARC
  5
159
330
144
100
AcDbEntity
  8
(3_3) 409653038_
  6
Continuous
 62
     7
100
AcDbCircle
 10
20.8310651937
 20
298.290846915
 30
0.0
 40
35.35321789839747
100
AcDbArc
 50
75.76397269
 51
76.2742597627
  0
LINE
  5
15A
330
144
100
AcDbEntity
  8
(3_3) 409653038_
  6
Continuous
 62
     7
100
AcDbLine
 10
12.0346207414
 20
332.5499991321
 30
0.0
 11
12.1389194065
 21
332.5588584912
 31
0.0
  0
LINE
  5
15B
330
144
100
AcDbEntity
  8
(3_3) 409653038_
  6
Continuous
 62
     7
100
AcDbLine
 10
29.5980550382
 20
332.55
 30
0.0
 11
41.9755756255
 21
332.55
 31
0.0
  0
LINE
  5
15C
330
144
100
AcDbEntity
  8
(3_3) 409653038_
  6
Continuous
 62
     7
100
AcDbLine
 10
7.3368526737
 20
332.55
 30
0.0
 11
12.0760225622
 21
332.55
 31
0.0
  0
LINE
  5
15D
330
144
100
AcDbEntity
  8
(3_3) 409653038_
  6
Continuous
 62
     7
100
AcDbLine
 10
41.9755756255
 20
372.55
 30
0.0
 11
7.3368526737
 21
372.55
 31
0.0
  0
SPLINE
  5
15E
330
144
100
AcDbEntity
  8
(3_3) 409653038_
  6
Continuous
 62
     7
100
AcDbSpline
210
0.0
220
0.0
230
1.0
 70
     8
 71
     3
 72
    14
 73
    10
 74
     0
 42
0.000000001
 43
0.0000000001
 40
0.0
 40
0.0
 40
0.0
 40
0.0
 40
0.0149978410689535
 40
0.0301228669786285
 40
0.0462008834257296
 40
0.0639845465651526
 40
0.1067835203443554
 40
0.1618541529701106
 40
0.186403930792437
 40
0.186403930792437
 40
0.186403930792437
 40
0.186403930792437
 10
41.92563480507066
 20
332.5505122444928
 30
0.0
 10
42.00589627862986
 20
332.5491382198677
 30
0.0
 10
42.14270953979284
 20
332.5464399305623
 30
0.0
 10
42.35239290146725
 20
332.5251901608227
 30
0.0
 10
42.53611065156508
 20
332.4965408451569
 30
0.0
 10
42.76610936341704
 20
332.4495739912047
 30
0.0
 10
42.97816958399537
 20
332.3939308614679
 30
0.0
 10
43.0669027637616
 20
332.3781999770092
 30
0.0
 10
43.08332246940228
 20
332.3873823253731
 30
0.0
 10
43.08492589852116
 20
332.3919629274362
 30
0.0
  0
SPLINE
  5
15F
330
144
100
AcDbEntity
  8
(3_3) 409653038_
  6
Continuous
 62
     7
100
AcDbSpline
210
0.0
220
0.0
230
1.0
 70
     8
 71
     3
 72
    15
 73
    11
 74
     0
 42
0.000000001
 43
0.0000000001
 40
0.8907859749515465
 40
0.8907859749515465
 40
0.8907859749515465
 40
0.8907859749515465
 40
0.8986108988542135
 40
0.925477340126758
 40
0.9476861232737936
 40
0.965502321949612
 40
0.9794266163131747
 40
0.9903735100279074
 40
0.9952333654627746
 40
1.0
 40
1.0
 40
1.0
 40
1.0
 10
42.88347752455604
 20
372.6240922341047
 30
0.0
 10
42.88237947046477
 20
372.6272820047745
 30
0.0
 10
42.87405074901713
 20
372.6397234899111
 30
0.0
 10
42.83385710571319
 20
372.6476106693556
 30
0.0
 10
42.72545328205728
 20
372.6346201066896
 30
0.0
 10
42.57639673581852
 20
372.6089510158185
 30
0.0
 10
42.3936280845969
 20
372.5800610575964
 30
0.0
 10
42.2053337146809
 20
372.5594367409484
 30
0.0
 10
42.04217303862212
 20
372.5505408741887
 30
0.0
 10
41.96812354625488
 20
372.5498084034126
 30
0.0
 10
41.92500680156953
 20
372.5494602968296
 30
0.0
  0
ARC
  5
160
330
144
100
AcDbEntity
  8
(3_3) 409653038_
  6
Continuous
 62
     7
100
AcDbCircle
 10
7.3368526737
 20
333.05
 30
0.0
 40
0.5000000000000073
100
AcDbArc
 50
180.0
 51
270.0
  0
ARC
  5
161
330
144
100
AcDbEntity
  8
(3_3) 409653038_
  6
Continuous
 62
     7
100
AcDbCircle
 10
7.3368526737
 20
372.05
 30
0.0
 40
0.5000000000000491
100
AcDbArc
 50
90.0
 51
180.0
  0
ARC
  5
162
330
144
100
AcDbEntity
  8
(3_3) 409653038_
  6
Continuous
 62
     7
100
AcDbCircle
 10
75.6332105416
 20
329.635788658
 30
0.0
 40
2.916458366335648
100
AcDbArc
 50
87.8188912708
 51
122.8128304134
  0
ARC
  5
163
330
144
100
AcDbEntity
  8
(3_3) 409653038_
  6
Continuous
 62
     7
100
AcDbCircle
 10
75.7538214629
 20
375.9592703709
 30
0.0
 40
3.40899123983962
100
AcDbArc
 50
240.9478594821
 51
269.9846173245
  0
LINE
  5
164
330
144
100
AcDbEntity
  8
(3_3) 409653038_
  6
Continuous
 62
     7
100
AcDbLine
 10
75.717814853
 20
332.55
 30
0.0
 11
114.3368526737
 21
332.55
 31
0.0
  0
LINE
  5
165
330
144
100
AcDbEntity
  8
(3_3) 409653038_
  6
Continuous
 62
     7
100
AcDbLine
 10
114.3368526737
 20
372.55
 30
0.0
 11
75.717814853
 21
372.55
 31
0.0
  0
ARC
  5
166
330
144
100
AcDbEntity
  8
(3_3) 409653038_
  6
Continuous
 62
     7
100
AcDbCircle
 10
114.3368526737
 20
333.05
 30
0.0
 40
0.5000000000000282
100
AcDbArc
 50
270.0
 51
0.0
  0
ARC
  5
167
330
144
100
AcDbEntity
  8
(3_3) 409653038_
  6
Continuous
 62
     7
100
AcDbCircle
 10
114.3368526737
 20
372.05
 30
0.0
 40
0.5000000000000491
100
AcDbArc
 50
0.0
 51
90.0
  0
ARC
  5
168
330
144
100
AcDbEntity
  8
(3_3) 07055038_2
  6
Continuous
 62
     7
100
AcDbCircle
 10
106.4368526737
 20
352.55
 30
0.0
 40
20.0
100
AcDbArc
 50
294.8345874897
 51
298.2225634841
  0
ARC
  5
169
330
144
100
AcDbEntity
  8
(3_3) 07055038_2
  6
Continuous
 62
     7
100
AcDbCircle
 10
106.4368526737
 20
352.55
 30
0.0
 40
20.0
100
AcDbArc
 50
61.7513910614
 51
65.1654125103
  0
ELLIPSE
  5
16A
330
144
100
AcDbEntity
  8
(3_3) 407148038_
  6
Continuous
 62
     7
100
AcDbEllipse
 10
128.6314482087
 20
309.9305355605
 30
0.0
 11
4.029950325350737
 21
-3.469446951953614E-14
 31
0.0
210
0.0
220
0.0
230
1.0
 40
0.8660254038
 41
0.0
 42
6.283185307179586
  0
LINE
  5
16B
330
144
100
AcDbEntity
  8
(3_3) 407148038_
  6
Continuous
 62
     7
100
AcDbLine
 10
124.6014978834
 20
341.925025326
 30
0.0
 11
124.6014978834
 21
309.9305355605
 31
0.0
  0
LINE
  5
16C
330
144
100
AcDbEntity
  8
(3_3) 407148038_
  6
Continuous
 62
     7
100
AcDbLine
 10
132.6613985341
 20
309.9305355605
 30
0.0
 11
132.6613985341
 21
341.9266639538
 31
0.0
  0
LINE
  5
16D
330
144
100
AcDbEntity
  8
(3_3) 407148038_
  6
Continuous
 62
     7
100
AcDbLine
 10
132.6613985341
 20
341.9268078422
 30
0.0
 11
132.6613985341
 21
342.1185213783
 31
0.0
  0
SPLINE
  5
16E
330
144
100
AcDbEntity
  8
(5_5) 407147038_
  6
Continuous
 62
     7
100
AcDbSpline
210
0.0
220
0.0
230
1.0
 70
     8
 71
     2
 72
     8
 73
     5
 74
     0
 42
0.000000001
 43
0.0000000001
 40
0.0
 40
0.0
 40
0.0
 40
0.125
 40
0.125
 40
0.1644135818599278
 40
0.1644135818599278
 40
0.1644135818599278
 10
115.8819318561873
 20
370.6275773779032
 30
0.0
 10
115.8814482087254
 20
372.69914968553
 30
0.0
 10
115.8814482087254
 20
373.1934898728969
 30
0.0
 10
115.8814482087254
 20
373.3468490080381
 30
0.0
 10
115.8814482087254
 20
373.336354111774
 30
0.0
  0
SPLINE
  5
16F
330
144
100
AcDbEntity
  8
(5_5) 407147038_
  6
Continuous
 62
     7
100
AcDbSpline
210
0.0
220
0.0
230
1.0
 70
     8
 71
     3
 72
    10
 73
     6
 74
     0
 42
0.000000001
 43
0.0000000001
 40
0.8451191236851908
 40
0.8451191236851908
 40
0.8451191236851908
 40
0.8451191236851908
 40
0.8750000000000001
 40
0.8750000000000001
 40
1.0
 40
1.0
 40
1.0
 40
1.0
 10
116.0829353336794
 20
373.5429820534592
 30
0.0
 10
116.0829377069044
 20
373.5296331354314
 30
0.0
 10
116.0829574347666
 20
373.4846421088564
 30
0.0
 10
116.0831864668743
 20
373.0832615886875
 30
0.0
 10
116.0832871354859
 20
372.2025659159661
 30
0.0
 10
116.0832866358053
 20
370.8079021526482
 30
0.0
  0
SPLINE
  5
170
330
144
100
AcDbEntity
  8
(5_5) 407147038_
  6
Continuous
 62
     7
100
AcDbSpline
210
0.0
220
0.0
230
1.0
 70
     8
 71
     2
 72
    18
 73
    15
 74
     0
 42
0.000000001
 43
0.0000000001
 40
0.1656638691882757
 40
0.1656638691882757
 40
0.1656638691882757
 40
0.25
 40
0.25
 40
0.375
 40
0.375
 40
0.5
 40
0.5
 40
0.625
 40
0.625
 40
0.75
 40
0.75
 40
0.875
 40
0.875
 40
1.0
 40
1.0
 40
1.0
 10
115.8814482087254
 20
331.4424238038673
 30
0.0
 10
115.8814482087254
 20
331.4451255339599
 30
0.0
 10
115.8814482087254
 20
332.1828381807548
 30
0.0
 10
115.8814482087254
 20
333.2692185562311
 30
0.0
 10
115.8814482087254
 20
335.852894108523
 30
0.0
 10
115.8814482087254
 20
338.4316166374568
 30
0.0
 10
115.8814482087253
 20
341.9657532397795
 30
0.0
 10
115.8814482087253
 20
345.5151092198394
 30
0.0
 10
115.8814482087253
 20
349.6817135597756
 30
0.0
 10
115.8814482087253
 20
353.8566518497012
 30
0.0
 10
115.8814482087253
 20
357.8266806469094
 30
0.0
 10
115.8814482087253
 20
361.8030376637805
 30
0.0
 10
115.8814482087253
 20
365.1695288834575
 30
0.0
 10
115.8814482087253
 20
368.6159489214162
 30
0.0
 10
115.8819318561873
 20
370.6275773779032
 30
0.0
  0
SPLINE
  5
171
330
144
100
AcDbEntity
  8
(5_5) 407147038_
  6
Continuous
 62
     7
100
AcDbSpline
210
0.0
220
0.0
230
1.0
 70
     8
 71
     3
 72
    16
 73
    12
 74
     0
 42
0.000000001
 43
0.0000000001
 40
0.0
 40
0.0
 40
0.0
 40
0.0
 40
0.125
 40
0.125
 40
0.25
 40
0.25
 40
0.375
 40
0.375
 40
0.5
 40
0.5
 40
0.5121921885261977
 40
0.5121921885261977
 40
0.5121921885261977
 40
0.5121921885261977
 10
124.581460159059
 20
341.9163984621691
 30
0.0
 10
124.5788534819733
 20
342.8466082467598
 30
0.0
 10
125.0175179738637
 20
343.8026543250894
 30
0.0
 10
126.5040099210893
 20
345.2025203840885
 30
0.0
 10
127.559035334266
 20
345.6350193859016
 30
0.0
 10
129.6776384900105
 20
345.6419996183499
 30
0.0
 10
130.7318248446049
 20
345.22130469474
 30
0.0
 10
132.2419233600308
 20
343.8137990016096
 30
0.0
 10
132.6779954268231
 20
342.8551988654984
 30
0.0
 10
132.6817616284873
 20
341.8475215967198
 30
0.0
 10
132.6779239396573
 20
341.7584337146046
 30
0.0
 10
132.6700342306825
 20
341.670016778446
 30
0.0
  0
SPLINE
  5
172
330
144
100
AcDbEntity
  8
(5_5) 407147038_
  6
Continuous
 62
     7
100
AcDbSpline
210
0.0
220
0.0
230
1.0
 70
     8
 71
     3
 72
     8
 73
     4
 74
     0
 42
0.000000001
 43
0.0000000001
 40
0.9917895438996792
 40
0.9917895438996792
 40
0.9917895438996792
 40
0.9917895438996792
 40
1.0
 40
1.0
 40
1.0
 40
1.0
 10
124.5876755944737
 20
341.7340605131708
 30
0.0
 10
124.5837166587227
 20
341.7945007411263
 30
0.0
 10
124.5816313751212
 20
341.8552988893654
 30
0.0
 10
124.581460159059
 20
341.9163984621691
 30
0.0
  0
SPLINE
  5
173
330
144
100
AcDbEntity
  8
(5_5) 407147038_
  6
Continuous
 62
     7
100
AcDbSpline
210
0.0
220
0.0
230
1.0
 70
     8
 71
     3
 72
     8
 73
     4
 74
     0
 42
0.000000001
 43
0.0000000001
 40
0.0
 40
0.0
 40
0.0
 40
0.0
 40
0.3026203901010812
 40
0.3026203901010812
 40
0.3026203901010812
 40
0.3026203901010812
 10
116.083706300322
 20
331.2476422901306
 30
0.0
 10
118.9229914491062
 20
331.2652994450691
 30
0.0
 10
121.7622552202981
 20
331.2829478079313
 30
0.0
 10
124.6014976138979
 20
331.300587378717
 30
0.0
  0
SPLINE
  5
174
330
144
100
AcDbEntity
  8
(5_5) 407147038_
  6
Continuous
 62
     7
100
AcDbSpline
210
0.0
220
0.0
230
1.0
 70
     8
 71
     3
 72
     8
 73
     4
 74
     0
 42
0.000000001
 43
0.0000000001
 40
0.5889770245471097
 40
0.5889770245471097
 40
0.5889770245471097
 40
0.5889770245471097
 40
0.999995328448857
 40
0.999995328448857
 40
0.999995328448857
 40
0.999995328448857
 10
132.6613983692504
 20
331.3506384584824
 30
0.0
 10
136.5175957783752
 20
331.3745738829199
 30
0.0
 10
140.3737537522372
 20
331.3984930886064
 30
0.0
 10
144.2298722908363
 20
331.4223960755419
 30
0.0
  0
ARC
  5
175
330
144
100
AcDbEntity
  8
(5_5) 407147038_
  6
Continuous
 62
     7
100
AcDbCircle
 10
116.0814870326
 20
373.348616005
 30
0.0
 40
0.2000208630005571
100
AcDbArc
 50
89.6562222449
 51
164.2444386866
  0
LINE
  5
176
330
144
100
AcDbEntity
  8
(5_5) 407147038_
  6
Continuous
 62
     7
100
AcDbLine
 10
115.8828938674
 20
373.3246469975
 30
0.0
 11
115.8889792779
 21
373.399592745
 31
0.0
  0
ARC
  5
177
330
144
100
AcDbEntity
  8
(5_5) 407147038_
  6
Continuous
 62
     7
100
AcDbCircle
 10
116.0814649624
 20
331.4410709823
 30
0.0
 40
0.2000079581519588
100
AcDbArc
 50
201.5030161491
 51
270.3530018571
  0
SPLINE
  5
178
330
144
100
AcDbEntity
  8
(5_5) 407147038_
  6
Continuous
 62
     7
100
AcDbSpline
210
0.0
220
0.0
230
1.0
 70
     8
 71
     3
 72
    13
 73
     9
 74
     0
 42
0.000000001
 43
0.0000000001
 40
0.0
 40
0.0
 40
0.0
 40
0.0
 40
0.2402724987939844
 40
0.3695753515798738
 40
0.5028352750752816
 40
0.6351031018005635
 40
0.7621519603374635
 40
1.0
 40
1.0
 40
1.0
 40
1.0
 10
144.7314552459884
 20
372.8803175151504
 30
0.0
 10
144.7268483941785
 20
372.9503863908436
 30
0.0
 10
144.7185403163718
 20
373.0423422579689
 30
0.0
 10
144.6597445534672
 20
373.1657931432034
 30
0.0
 10
144.5947844573018
 20
373.2488214889556
 30
0.0
 10
144.5137075011581
 20
373.315351342413
 30
0.0
 10
144.3916961856308
 20
373.3742771572953
 30
0.0
 10
144.3000834746381
 20
373.3788902146583
 30
0.0
 10
144.2305905298355
 20
373.3804927511935
 30
0.0
  0
SPLINE
  5
179
330
144
100
AcDbEntity
  8
(5_5) 407147038_
  6
Continuous
 62
     7
100
AcDbSpline
210
0.0
220
0.0
230
1.0
 70
     8
 71
     3
 72
    13
 73
     9
 74
     0
 42
0.000000001
 43
0.0000000001
 40
0.0
 40
0.0
 40
0.0
 40
0.0
 40
0.2380076129820559
 40
0.365197232211864
 40
0.4975196394326271
 40
0.6307092295054313
 40
0.7598693462148363
 40
1.0
 40
1.0
 40
1.0
 40
1.0
 10
144.229177737083
 20
331.4161548288086
 30
0.0
 10
144.2987317636831
 20
331.4177856022657
 30
0.0
 10
144.3903966953555
 20
331.4224185039793
 30
0.0
 10
144.5126764949578
 20
331.4810257048741
 30
0.0
 10
144.5940697980184
 20
331.5472506361224
 30
0.0
 10
144.6593631109379
 20
331.6299966254036
 30
0.0
 10
144.7185141954847
 20
331.7532225061655
 30
0.0
 10
144.7268439569004
 20
331.8451584396385
 30
0.0
 10
144.7314552460799
 20
331.9152005931787
 30
0.0
  0
ARC
  5
17A
330
144
100
AcDbEntity
  8
(5_5) 407147038_
  6
Continuous
 62
     7
100
AcDbCircle
 10
-275.2364163286
 20
352.414229311
 30
0.0
 40
420.4678648616068
100
AcDbArc
 50
357.2055058521
 51
359.9977499181
  0
ARC
  5
17B
330
144
100
AcDbEntity
  8
(5_5) 407147038_
  6
Continuous
 62
     7
100
AcDbCircle
 10
-275.2098701437
 20
352.3818522761
 30
0.0
 40
420.4413186517444
100
AcDbArc
 50
0.0021619672
 51
2.7945823151
  0
SPLINE
  5
17C
330
144
100
AcDbEntity
  8
(5_5) 407147038_
  6
Continuous
 62
     7
100
AcDbSpline
210
0.0
220
0.0
230
1.0
 70
     8
 71
     3
 72
     8
 73
     4
 74
     0
 42
0.000000001
 43
0.0000000001
 40
0.0
 40
0.0
 40
0.0
 40
0.0
 40
1.0
 40
1.0
 40
1.0
 40
1.0
 10
144.2314482087362
 20
373.3742336501705
 30
0.0
 10
134.7922930820865
 20
373.4301914071072
 30
0.0
 10
125.4095362906303
 20
373.4869730253371
 30
0.0
 10
116.0831778343676
 20
373.5445785048601
 30
0.0
  0
LINE
  5
17D
330
144
100
AcDbEntity
  8
(1_1) 407541040_
  6
Continuous
 62
     7
100
AcDbLine
 10
11.9368526737
 20
343.3
 30
0.0
 11
11.9368521728
 21
342.2630302613
 31
0.0
  0
LINE
  5
17E
330
144
100
AcDbEntity
  8
(1_1) 407541040_
  6
Continuous
 62
     7
100
AcDbLine
 10
11.9368526737
 20
350.5500000009
 30
0.0
 11
11.9368526737
 21
332.7762800668
 31
0.0
  0
ARC
  5
17F
330
144
100
AcDbEntity
  8
(1_1) 407541040_
  6
Continuous
 62
     7
100
AcDbCircle
 10
20.8368526736
 20
350.5500000001
 30
0.0
 40
8.899999999923056
100
AcDbArc
 50
0.0000000082
 51
179.9999999945
  0
SPLINE
  5
180
330
144
100
AcDbEntity
  8
(1_1) 407541040_
  6
Continuous
 62
     7
100
AcDbSpline
210
0.0
220
0.0
230
1.0
 70
     8
 71
     3
 72
     8
 73
     4
 74
     0
 42
0.000000001
 43
0.0000000001
 40
0.0
 40
0.0
 40
0.0
 40
0.0
 40
0.1095235286222335
 40
0.1095235286222335
 40
0.1095235286222335
 40
0.1095235286222335
 10
29.73685267385551
 20
332.7762800671319
 30
0.0
 10
29.73685267368017
 20
332.621082181699
 30
0.0
 10
29.55898837332219
 20
332.5503688239794
 30
0.0
 10
29.21386686435588
 20
332.5501280131011
 30
0.0
  0
SPLINE
  5
181
330
144
100
AcDbEntity
  8
(1_1) 407541040_
  6
Continuous
 62
     7
100
AcDbSpline
210
0.0
220
0.0
230
1.0
 70
     8
 71
     3
 72
     8
 73
     4
 74
     0
 42
0.000000001
 43
0.0000000001
 40
0.8907201427146179
 40
0.8907201427146179
 40
0.8907201427146179
 40
0.8907201427146179
 40
1.0
 40
1.0
 40
1.0
 40
1.0
 10
12.45983276331347
 20
332.5501815921424
 30
0.0
 10
12.11664154285878
 20
332.5506459465791
 30
0.0
 10
11.93685267365561
 20
332.6213835579886
 30
0.0
 10
11.9368526736555
 20
332.7762800671366
 30
0.0
  0
LINE
  5
182
330
144
100
AcDbEntity
  8
(1_1) 407541040_
  6
Continuous
 62
     7
100
AcDbLine
 10
29.7368526735
 20
350.5500000014
 30
0.0
 11
29.7368526739
 21
332.7762800672
 31
0.0
  0
LINE
  5
183
330
144
100
AcDbEntity
  8
(1_1) 407541040_
  6
Continuous
 62
     7
100
AcDbLine
 10
13.4368526734
 20
350.5499980038
 30
0.0
 11
13.4368526733
 21
332.776280648
 31
0.0
  0
ARC
  5
184
330
144
100
AcDbEntity
  8
(1_1) 407541040_
  6
Continuous
 62
     7
100
AcDbCircle
 10
20.8368526736
 20
350.5499980037
 30
0.0
 40
7.400000000200002
100
AcDbArc
 50
0.0000000006
 51
179.9999999994
  0
LINE
  5
185
330
144
100
AcDbEntity
  8
(1_1) 407541040_
  6
Continuous
 62
     7
100
AcDbLine
 10
28.2368526738
 20
350.5499980038
 30
0.0
 11
28.236852674
 21
332.7762804523
 31
0.0
  0
SPLINE
  5
186
330
144
100
AcDbEntity
  8
(1_1) 407541040_
  6
Continuous
 62
     7
100
AcDbSpline
210
0.0
220
0.0
230
1.0
 70
     8
 71
     3
 72
    10
 73
     6
 74
     0
 42
0.000000001
 43
0.0000000001
 40
0.0
 40
0.0
 40
0.0
 40
0.0
 40
0.1249999999999996
 40
0.1249999999999996
 40
0.1486479410952069
 40
0.1486479410952069
 40
0.1486479410952069
 40
0.1486479410952069
 10
13.43685267347573
 20
332.776280647994
 30
0.0
 10
13.43685250476673
 20
332.6292522518273
 30
0.0
 10
13.62810616216557
 20
332.5583669278327
 30
0.0
 10
14.06941410281316
 20
332.5492804325638
 30
0.0
 10
14.14609862165952
 20
332.5500884673073
 30
0.0
 10
14.22891285255773
 20
332.5528675788821
 30
0.0
  0
SPLINE
  5
187
330
144
100
AcDbEntity
  8
(1_1) 407541040_
  6
Continuous
 62
     7
100
AcDbSpline
210
0.0
220
0.0
230
1.0
 70
     8
 71
     3
 72
    10
 73
     6
 74
     0
 42
0.000000001
 43
0.0000000001
 40
0.8666907315255755
 40
0.8666907315255755
 40
0.8666907315255755
 40
0.8666907315255755
 40
0.875
 40
0.875
 40
1.0
 40
1.0
 40
1.0
 40
1.0
 10
27.59691954278624
 20
332.5500253307749
 30
0.0
 10
27.62309851126265
 20
332.5499815306326
 30
0.0
 10
27.6484967138354
 20
332.5502016417935
 30
0.0
 10
28.04323659732076
 20
332.558157354171
 30
0.0
 10
28.23685267361867
 20
332.6292252373575
 30
0.0
 10
28.23685267383551
 20
332.7762804522885
 30
0.0
  0
SPLINE
  5
188
330
144
100
AcDbEntity
  8
(1_1) 407541040_
  6
Continuous
 62
     7
100
AcDbSpline
210
0.0
220
0.0
230
1.0
 70
     8
 71
     3
 72
     8
 73
     4
 74
     0
 42
0.000000001
 43
0.0000000001
 40
0.0
 40
0.0
 40
0.0
 40
0.0
 40
0.0515736920218272
 40
0.0515736920218272
 40
0.0515736920218272
 40
0.0515736920218272
 10
13.43685267361377
 20
333.7883375739284
 30
0.0
 10
13.43685262381877
 20
333.7244641445943
 30
0.0
 10
13.46938531094107
 20
333.6742285794226
 30
0.0
 10
13.53366878501742
 20
333.6366841374221
 30
0.0
  0
SPLINE
  5
189
330
144
100
AcDbEntity
  8
(1_1) 407541040_
  6
Continuous
 62
     7
100
AcDbSpline
210
0.0
220
0.0
230
1.0
 70
     8
 71
     3
 72
     8
 73
     4
 74
     0
 42
0.000000001
 43
0.0000000001
 40
0.9513335466544617
 40
0.9513335466544617
 40
0.9513335466544617
 40
0.9513335466544617
 40
1.0
 40
1.0
 40
1.0
 40
1.0
 10
28.14982092424396
 20
333.6430744818991
 30
0.0
 10
28.20750326512762
 20
333.679885135086
 30
0.0
 10
28.23685267360869
 20
333.7280520339227
 30
0.0
 10
28.23685267363463
 20
333.7883373653845
 30
0.0
  0
SPLINE
  5
18A
330
144
100
AcDbEntity
  8
(1_1) 407541040_
  6
Continuous
 62
     7
100
AcDbSpline
210
0.0
220
0.0
230
1.0
 70
     8
 71
     3
 72
    10
 73
     6
 74
     0
 42
0.000000001
 43
0.0000000001
 40
0.0
 40
0.0
 40
0.0
 40
0.0
 40
0.1249999999999999
 40
0.1249999999999999
 40
0.1353102507467324
 40
0.1353102507467324
 40
0.1353102507467324
 40
0.1353102507467324
 10
13.53685267365551
 20
332.7762800669034
 30
0.0
 10
13.5368526736461
 20
332.6312507656818
 30
0.0
 10
13.72544407596296
 20
332.5603356357841
 30
0.0
 10
14.12165938802911
 20
332.5503293884627
 30
0.0
 10
14.15306462887899
 20
332.5499847973679
 30
0.0
 10
14.18565622096818
 20
332.5500353479785
 30
0.0
  0
SPLINE
  5
18B
330
144
100
AcDbEntity
  8
(1_1) 407541040_
  6
Continuous
 62
     7
100
AcDbSpline
210
0.0
220
0.0
230
1.0
 70
     8
 71
     3
 72
     8
 73
     4
 74
     0
 42
0.000000001
 43
0.0000000001
 40
0.8647627012666895
 40
0.8647627012666895
 40
0.8647627012666895
 40
0.8647627012666895
 40
1.0
 40
1.0
 40
1.0
 40
1.0
 10
27.48099255415264
 20
332.5566543609953
 30
0.0
 10
27.90651310916668
 20
332.5572853827919
 30
0.0
 10
28.1368526736657
 20
332.6193451766982
 30
0.0
 10
28.13685267365551
 20
332.7762800669034
 30
0.0
  0
LINE
  5
18C
330
144
100
AcDbEntity
  8
(1_1) 407541040_
  6
Continuous
 62
     7
100
AcDbLine
 10
13.5368526737
 20
350.55
 30
0.0
 11
13.5368526737
 21
332.7762800673
 31
0.0
  0
ARC
  5
18D
330
144
100
AcDbEntity
  8
(1_1) 407541040_
  6
Continuous
 62
     7
100
AcDbCircle
 10
20.8368526737
 20
350.55
 30
0.0
 40
7.300000000000001
100
AcDbArc
 50
0.0
 51
180.0
  0
LINE
  5
18E
330
144
100
AcDbEntity
  8
(1_1) 407541040_
  6
Continuous
 62
     7
100
AcDbLine
 10
28.1368526737
 20
350.55
 30
0.0
 11
28.1368526737
 21
332.7762800673
 31
0.0
  0
LINE
  5
18F
330
144
100
AcDbEntity
  8
(1_1) 407541040_
  6
Continuous
 62
     7
100
AcDbLine
 10
27.574176339
 20
332.5500000004
 30
0.0
 11
29.1975403573
 21
332.5500000004
 31
0.0
  0
LINE
  5
190
330
144
100
AcDbEntity
  8
(1_1) 407541040_
  6
Continuous
 62
     7
100
AcDbLine
 10
12.4742712663
 20
332.5500000004
 30
0.0
 11
14.0957900342
 21
332.5500000004
 31
0.0
  0
LINE
  5
191
330
144
100
AcDbEntity
  8
(1_1) 407541040_
  6
Continuous
 62
     7
100
AcDbLine
 10
14.2041133717
 20
332.55
 30
0.0
 11
27.4649908525
 21
332.55
 31
0.0
  0
ARC
  5
192
330
144
100
AcDbEntity
  8
(4_4) 07769038_2
  6
Continuous
 62
     7
100
AcDbCircle
 10
58.8368526737
 20
352.55
 30
0.0
 40
14.0
100
AcDbArc
 50
0.0
 51
180.0
  0
LINE
  5
193
330
144
100
AcDbEntity
  8
(4_4) 07769038_2
  6
Continuous
 62
     7
100
AcDbLine
 10
44.8368526737
 20
226.55
 30
0.0
 11
72.8368526737
 21
226.55
 31
0.0
  0
LINE
  5
194
330
144
100
AcDbEntity
  8
(4_4) 07769038_2
  6
Continuous
 62
     7
100
AcDbLine
 10
44.8368526737
 20
352.55
 30
0.0
 11
44.8368526737
 21
304.55
 31
0.0
  0
LINE
  5
195
330
144
100
AcDbEntity
  8
(4_4) 07769038_2
  6
Continuous
 62
     7
100
AcDbLine
 10
72.8368526737
 20
304.55
 30
0.0
 11
72.8368526737
 21
352.55
 31
0.0
  0
LINE
  5
196
330
144
100
AcDbEntity
  8
(4_4) 07769038_2
  6
Continuous
 62
     7
100
AcDbLine
 10
72.8368526737
 20
226.55
 30
0.0
 11
72.8368526737
 21
304.55
 31
0.0
  0
LINE
  5
197
330
144
100
AcDbEntity
  8
(4_4) 07769038_2
  6
Continuous
 62
     7
100
AcDbLine
 10
44.8368526737
 20
304.55
 30
0.0
 11
44.8368526737
 21
226.55
 31
0.0
  0
LINE
  5
198
330
144
100
AcDbEntity
  8
(2_2) 409754038_
  6
Continuous
 62
     7
100
AcDbLine
 10
45.8368526737
 20
106.35
 30
0.0
 11
71.8368033461
 21
106.35
 31
0.0
  0
LINE
  5
199
330
144
100
AcDbEntity
  8
(2_2) 409754038_
  6
Continuous
 62
     7
100
AcDbLine
 10
72.3368526737
 20
226.35
 30
0.0
 11
45.3368526737
 21
226.35
 31
0.0
  0
ARC
  5
19A
330
144
100
AcDbEntity
  8
(2_2) 409754038_
  6
Continuous
 62
     7
100
AcDbCircle
 10
71.8368526737
 20
107.35
 30
0.0
 40
1.000000000000001
100
AcDbArc
 50
270.0
 51
0.0
  0
ARC
  5
19B
330
144
100
AcDbEntity
  8
(2_2) 409754038_
  6
Continuous
 62
     7
100
AcDbCircle
 10
45.8368526737
 20
107.35
 30
0.0
 40
1.000000000000001
100
AcDbArc
 50
180.0
 51
270.0
  0
LINE
  5
19C
330
144
100
AcDbEntity
  8
(2_2) 409754038_
  6
Continuous
 62
     7
100
AcDbLine
 10
44.8368526737
 20
225.85
 30
0.0
 11
44.8368526737
 21
107.35
 31
0.0
  0
LINE
  5
19D
330
144
100
AcDbEntity
  8
(2_2) 409754038_
  6
Continuous
 62
     7
100
AcDbLine
 10
72.8368526737
 20
107.35
 30
0.0
 11
72.8368526737
 21
225.85
 31
0.0
  0
ARC
  5
19E
330
144
100
AcDbEntity
  8
(2_2) 409754038_
  6
Continuous
 62
     7
100
AcDbCircle
 10
45.3368526737
 20
225.85
 30
0.0
 40
0.5000000000000004
100
AcDbArc
 50
90.0
 51
180.0
  0
ARC
  5
19F
330
144
100
AcDbEntity
  8
(2_2) 409754038_
  6
Continuous
 62
     7
100
AcDbCircle
 10
72.3368526737
 20
225.85
 30
0.0
 40
0.5000000000000004
100
AcDbArc
 50
0.0
 51
90.0
  0
ARC
  5
1A0
330
144
100
AcDbEntity
  8
(11_11) 40716403
  6
Continuous
 62
     7
100
AcDbCircle
 10
349.6883481078
 20
352.55
 30
0.0
 40
343.3383481077992
100
AcDbArc
 50
176.9484071712
 51
183.0515928288
  0
ENDBLK
  5
1A2
330
144
100
AcDbEntity
  8
0
100
AcDbBlockEnd
  0
ENDSEC
  0
SECTION
  2
ENTITIES
  0
INSERT
  5
6C
330
1F
100
AcDbEntity
  8
Default
100
AcDbBlockReference
  2
SEANNOT_GROUP
 10
0.0
 20
0.0
 30
0.0
  0
INSERT
  5
73
330
1F
100
AcDbEntity
  8
Default
100
AcDbBlockReference
  2
SEANNOT_GROUP1
 10
0.0
 20
0.0
 30
0.0
  0
INSERT
  5
79
330
1F
100
AcDbEntity
  8
Default
100
AcDbBlockReference
  2
SEANNOT_GROUP2
 10
0.0
 20
0.0
 30
0.0
  0
INSERT
  5
83
330
1F
100
AcDbEntity
  8
Default
100
AcDbBlockReference
  2
SE
 10
0.0
 20
0.0
 30
0.0
  0
INSERT
  5
103
330
1F
100
AcDbEntity
  8
Default
100
AcDbBlockReference
  2
SE1
 10
0.0
 20
0.0
 30
0.0
  0
INSERT
  5
145
330
1F
100
AcDbEntity
  8
Default
100
AcDbBlockReference
  2
SE2
 10
0.0
 20
0.0
 30
0.0
  0
MTEXT
  5
1A3
330
1F
100
AcDbEntity
  8
Default
100
AcDbMText
 10
5.9362635081
 20
63.4225120485
 30
0.0
 40
10.0
 41
113.8626497168
 71
     1
 72
     1
  1
{\fSolid Edge ISO|b0||i0||c0|p34;\C7;\H10.;\W1.;Grohe AG\P}{\fSolid Edge ISO|b0||i0||c0|p34;\C7;\H10.;\W1.;\P}{\fSolid Edge ISO|b0||i0||c0|p34;\C7;\H10.;\W1.;ecn:\P}{\fSolid Edge ISO|b0||i0||c0|p34;\C7;\H10.;\W1.;unit: mm}
 73
     1
 44
1.0
1001
ACAD
1000
ACAD_MTEXT_DEFINED_HEIGHT_BEGIN
1070
    46
1040
65.4545454545
1000
ACAD_MTEXT_DEFINED_HEIGHT_END
  0
LINE
  5
1A4
330
1F
100
AcDbEntity
  8
Default
  6
Continuous
 62
     7
100
AcDbLine
 10
0.0
 20
0.0
 30
0.0
 11
100.0
 21
0.0
 31
0.0
  0
LINE
  5
1A5
330
1F
100
AcDbEntity
  8
Default
  6
Continuous
 62
     7
100
AcDbLine
 10
0.0
 20
0.0
 30
0.0
 11
0.0
 21
100.0
 31
0.0
  0
MTEXT
  5
1A6
330
1F
100
AcDbEntity
  8
Default
100
AcDbMText
 10
24.3923665681
 20
-8.2375342018
 30
0.0
 40
10.0
 41
35.00001
 71
     1
 72
     1
  1
{\fSolid Edge ISO|b0||i0||c0|p34;\C7;\H10.;\W1.;100 mm}
 73
     1
 44
1.0
1001
ACAD
1000
ACAD_MTEXT_DEFINED_HEIGHT_BEGIN
1070
    46
1040
16.3636363636
1000
ACAD_MTEXT_DEFINED_HEIGHT_END
  0
MTEXT
  5
1A7
330
1F
100
AcDbEntity
  8
Default
100
AcDbMText
 10
-20.5695763349
 20
24.6231930421
 30
0.0
 40
10.0
 41
35.00001
 71
     1
 72
     1
  1
{\fSolid Edge ISO|b0||i0||c0|p34;\C7;\H10.;\W1.;100 mm}
 11
6.123233995736766E-17
 21
1.0
 31
0.0
 73
     1
 44
1.0
1001
ACAD
1000
ACAD_MTEXT_DEFINED_HEIGHT_BEGIN
1070
    46
1040
16.3636363636
1000
ACAD_MTEXT_DEFINED_HEIGHT_END
  0
MTEXT
  5
1A8
330
1F
100
AcDbEntity
  8
Default
100
AcDbMText
 10
28.4878128572
 20
24.8634936442
 30
0.0
 40
10.0
 41
86.691737001
 71
     4
 72
     1
  1
{\fSolid Edge ISO|b0||i0||c0|p34;\C7;\H10.;\W1.;240242}
 73
     1
 44
1.0
1001
ACAD
1000
ACAD_MTEXT_DEFINED_HEIGHT_BEGIN
1070
    46
1040
16.3636363636
1000
ACAD_MTEXT_DEFINED_HEIGHT_END
  0
MTEXT
  5
1A9
330
1F
100
AcDbEntity
  8
Default
100
AcDbMText
 10
5.9012241913
 20
41.4970052916
 30
0.0
 40
10.0
 41
109.9146987306
 71
     4
 72
     1
  1
{\fSolid Edge ISO|b0||i0||c0|p34;\C7;\H10.;\W1.;409795045}
 73
     1
 44
1.0
1001
ACAD
1000
ACAD_MTEXT_DEFINED_HEIGHT_BEGIN
1070
    46
1040
16.3636363636
1000
ACAD_MTEXT_DEFINED_HEIGHT_END
  0
ENDSEC
  0
SECTION
  2
OBJECTS
  0
DICTIONARY
  5
C
330
0
100
AcDbDictionary
281
     1
  3
ACAD_GROUP
350
D
  3
ACAD_LAYOUT
350
1A
  3
ACAD_MATERIAL
350
43
  3
ACAD_MLEADERSTYLE
350
1AC
  3
ACAD_MLINESTYLE
350
17
  3
ACAD_PLOTSETTINGS
350
19
  3
ACAD_PLOTSTYLENAME
350
E
  3
ACAD_SCALELIST
350
47
  3
ACAD_VISUALSTYLE
350
2A
  3
AcDbVariableDictionary
350
1AA
  0
DICTIONARY
  5
D
102
{ACAD_REACTORS
330
C
102
}
330
C
100
AcDbDictionary
281
     1
  0
DICTIONARY
  5
1A
102
{ACAD_REACTORS
330
C
102
}
330
C
100
AcDbDictionary
281
     1
  3
Layout1
350
1E
  3
Model
350
22
  0
DICTIONARY
  5
43
102
{ACAD_REACTORS
330
C
102
}
330
C
100
AcDbDictionary
281
     1
  3
ByBlock
350
45
  3
ByLayer
350
44
  3
Global
350
46
  0
DICTIONARY
  5
1AC
102
{ACAD_REACTORS
330
C
102
}
330
C
100
AcDbDictionary
281
     1
  0
DICTIONARY
  5
17
102
{ACAD_REACTORS
330
C
102
}
330
C
100
AcDbDictionary
281
     1
  3
Standard
350
18
  0
DICTIONARY
  5
19
102
{ACAD_REACTORS
330
C
102
}
330
C
100
AcDbDictionary
281
     1
  0
ACDBDICTIONARYWDFLT
  5
E
102
{ACAD_REACTORS
330
C
102
}
330
C
100
AcDbDictionary
281
     1
  3
Normal
350
F
100
AcDbDictionaryWithDefault
340
F
  0
DICTIONARY
  5
47
102
{ACAD_REACTORS
330
C
102
}
330
C
100
AcDbDictionary
281
     1
  3
A0
350
48
  3
A1
350
49
  3
A2
350
4A
  3
A3
350
4B
  3
A4
350
4C
  3
A5
350
4D
  3
A6
350
4E
  3
A7
350
4F
  3
A8
350
50
  3
A9
350
51
  3
B0
350
52
  3
B1
350
53
  3
B2
350
54
  3
B3
350
55
  3
B4
350
56
  3
B5
350
57
  3
B6
350
58
  3
B7
350
59
  3
B8
350
5A
  3
B9
350
5B
  3
C0
350
5C
  3
C1
350
5D
  3
C2
350
5E
  3
C3
350
5F
  3
C4
350
60
  3
C5
350
61
  3
C6
350
62
  3
C7
350
63
  3
C8
350
64
  3
C9
350
65
  3
D0
350
66
  3
D1
350
67
  3
D2
350
68
  0
DICTIONARY
  5
2A
102
{ACAD_REACTORS
330
C
102
}
330
C
100
AcDbDictionary
281
     1
  3
2dWireframe
350
2F
  3
Basic
350
32
  3
Brighten
350
36
  3
ColorChange
350
3A
  3
Conceptual
350
34
  3
Dim
350
35
  3
EdgeColorOff
350
3D
  3
Facepattern
350
39
  3
Flat
350
2B
  3
FlatWithEdges
350
2C
  3
Gouraud
350
2D
  3
GouraudWithEdges
350
2E
  3
Hidden
350
31
  3
JitterOff
350
3B
  3
Linepattern
350
38
  3
OverhangOff
350
3C
  3
Realistic
350
33
  3
Shaded
350
42
  3
Shaded with edges
350
41
  3
Shades of Gray
350
3E
  3
Sketchy
350
3F
  3
Thicken
350
37
  3
Wireframe
350
30
  3
X-Ray
350
40
  0
DICTIONARY
  5
1AA
102
{ACAD_REACTORS
330
C
102
}
330
C
100
AcDbDictionary
281
     1
  3
CANNOSCALE
350
1B3
  3
DIMASSOC
350
1B1
  3
HIDETEXT
350
1B2
  3
MSLTSCALE
350
1B4
  3
PSOLHEIGHT
350
1AE
  3
PSOLWIDTH
350
1AD
  0
LAYOUT
  5
1E
102
{ACAD_REACTORS
330
1A
102
}
330
1A
100
AcDbPlotSettings
  1

  2
none_device
  4

  6

 40
0.0
 41
0.0
 42
0.0
 43
0.0
 44
0.0
 45
0.0
 46
0.0
 47
0.0
 48
0.0
 49
0.0
140
0.0
141
0.0
142
1.0
143
1.0
 70
   688
 72
     1
 73
     0
 74
     5
  7

 75
    16
147
1.0
148
0.0
149
0.0
100
AcDbLayout
  1
Layout1
 70
     1
 71
     1
 10
0.0
 20
0.0
 11
3000.0
 21
4500.0
 12
0.0
 22
0.0
 32
0.0
 14
0.0
 24
0.0
 34
0.0
 15
3000.0
 25
4500.0
 35
0.0
146
0.0
 13
0.0
 23
0.0
 33
0.0
 16
1.0
 26
0.0
 36
0.0
 17
0.0
 27
1.0
 37
0.0
 76
     0
330
1B
  0
LAYOUT
  5
22
102
{ACAD_REACTORS
330
1A
102
}
330
1A
100
AcDbPlotSettings
  1

  2
none_device
  4
Letter_(8.50_x_11.00_Inches)
  6

 40
6.35
 41
6.35
 42
6.35000508
 43
6.35000508
 44
215.9
 45
279.4
 46
0.0
 47
0.0
 48
0.0
 49
0.0
140
0.0
141
0.0
142
1.0
143
1.0
 70
  1712
 72
     1
 73
     0
 74
     0
  7

 75
     0
147
1.0
148
0.0
149
0.0
100
AcDbLayout
  1
Model
 70
     1
 71
     0
 10
0.0
 20
0.0
 11
3000.0
 21
4500.0
 12
0.0
 22
0.0
 32
0.0
 14
0.0
 24
0.0
 34
0.0
 15
3000.0
 25
4500.0
 35
0.0
146
0.0
 13
0.0
 23
0.0
 33
0.0
 16
1.0
 26
0.0
 36
0.0
 17
0.0
 27
1.0
 37
0.0
 76
     0
330
1F
331
29
  0
MATERIAL
  5
45
102
{ACAD_REACTORS
330
43
102
}
102
{ACAD_XDICTIONARY
360
1E7
102
}
330
43
100
AcDbMaterial
  1
ByBlock
  0
MATERIAL
  5
44
102
{ACAD_REACTORS
330
43
102
}
102
{ACAD_XDICTIONARY
360
1E5
102
}
330
43
100
AcDbMaterial
  1
ByLayer
  0
MATERIAL
  5
46
102
{ACAD_REACTORS
330
43
102
}
102
{ACAD_XDICTIONARY
360
1E9
102
}
330
43
100
AcDbMaterial
  1
Global
  0
MLINESTYLE
  5
18
102
{ACAD_REACTORS
330
17
102
}
330
17
100
AcDbMlineStyle
  2
Standard
 70
     0
  3

 62
   256
 51
90.0
 52
90.0
 71
     2
 49
0.5
 62
   256
  6
BYLAYER
 49
-0.5
 62
   256
  6
BYLAYER
  0
ACDBPLACEHOLDER
  5
F
102
{ACAD_REACTORS
330
E
102
}
330
E
  0
SCALE
  5
48
102
{ACAD_REACTORS
330
47
102
}
330
47
100
AcDbScale
 70
     0
300
1:1
140
1.0
141
1.0
290
     1
  0
SCALE
  5
49
102
{ACAD_REACTORS
330
47
102
}
330
47
100
AcDbScale
 70
     0
300
1:2
140
1.0
141
2.0
290
     0
  0
SCALE
  5
4A
102
{ACAD_REACTORS
330
47
102
}
330
47
100
AcDbScale
 70
     0
300
1:4
140
1.0
141
4.0
290
     0
  0
SCALE
  5
4B
102
{ACAD_REACTORS
330
47
102
}
330
47
100
AcDbScale
 70
     0
300
1:5
140
1.0
141
5.0
290
     0
  0
SCALE
  5
4C
102
{ACAD_REACTORS
330
47
102
}
330
47
100
AcDbScale
 70
     0
300
1:8
140
1.0
141
8.0
290
     0
  0
SCALE
  5
4D
102
{ACAD_REACTORS
330
47
102
}
330
47
100
AcDbScale
 70
     0
300
1:10
140
1.0
141
10.0
290
     0
  0
SCALE
  5
4E
102
{ACAD_REACTORS
330
47
102
}
330
47
100
AcDbScale
 70
     0
300
1:16
140
1.0
141
16.0
290
     0
  0
SCALE
  5
4F
102
{ACAD_REACTORS
330
47
102
}
330
47
100
AcDbScale
 70
     0
300
1:20
140
1.0
141
20.0
290
     0
  0
SCALE
  5
50
102
{ACAD_REACTORS
330
47
102
}
330
47
100
AcDbScale
 70
     0
300
1:30
140
1.0
141
30.0
290
     0
  0
SCALE
  5
51
102
{ACAD_REACTORS
330
47
102
}
330
47
100
AcDbScale
 70
     0
300
1:40
140
1.0
141
40.0
290
     0
  0
SCALE
  5
52
102
{ACAD_REACTORS
330
47
102
}
330
47
100
AcDbScale
 70
     0
300
1:50
140
1.0
141
50.0
290
     0
  0
SCALE
  5
53
102
{ACAD_REACTORS
330
47
102
}
330
47
100
AcDbScale
 70
     0
300
1:100
140
1.0
141
100.0
290
     0
  0
SCALE
  5
54
102
{ACAD_REACTORS
330
47
102
}
330
47
100
AcDbScale
 70
     0
300
2:1
140
2.0
141
1.0
290
     0
  0
SCALE
  5
55
102
{ACAD_REACTORS
330
47
102
}
330
47
100
AcDbScale
 70
     0
300
4:1
140
4.0
141
1.0
290
     0
  0
SCALE
  5
56
102
{ACAD_REACTORS
330
47
102
}
330
47
100
AcDbScale
 70
     0
300
8:1
140
8.0
141
1.0
290
     0
  0
SCALE
  5
57
102
{ACAD_REACTORS
330
47
102
}
330
47
100
AcDbScale
 70
     0
300
10:1
140
10.0
141
1.0
290
     0
  0
SCALE
  5
58
102
{ACAD_REACTORS
330
47
102
}
330
47
100
AcDbScale
 70
     0
300
100:1
140
100.0
141
1.0
290
     0
  0
SCALE
  5
59
102
{ACAD_REACTORS
330
47
102
}
330
47
100
AcDbScale
 70
     0
300
1/128" = 1'-0"
140
0.0078125
141
12.0
290
     0
  0
SCALE
  5
5A
102
{ACAD_REACTORS
330
47
102
}
330
47
100
AcDbScale
 70
     0
300
1/64" = 1'-0"
140
0.015625
141
12.0
290
     0
  0
SCALE
  5
5B
102
{ACAD_REACTORS
330
47
102
}
330
47
100
AcDbScale
 70
     0
300
1/32" = 1'-0"
140
0.03125
141
12.0
290
     0
  0
SCALE
  5
5C
102
{ACAD_REACTORS
330
47
102
}
330
47
100
AcDbScale
 70
     0
300
1/16" = 1'-0"
140
0.0625
141
12.0
290
     0
  0
SCALE
  5
5D
102
{ACAD_REACTORS
330
47
102
}
330
47
100
AcDbScale
 70
     0
300
3/32" = 1'-0"
140
0.09375
141
12.0
290
     0
  0
SCALE
  5
5E
102
{ACAD_REACTORS
330
47
102
}
330
47
100
AcDbScale
 70
     0
300
1/8" = 1'-0"
140
0.125
141
12.0
290
     0
  0
SCALE
  5
5F
102
{ACAD_REACTORS
330
47
102
}
330
47
100
AcDbScale
 70
     0
300
3/16" = 1'-0"
140
0.1875
141
12.0
290
     0
  0
SCALE
  5
60
102
{ACAD_REACTORS
330
47
102
}
330
47
100
AcDbScale
 70
     0
300
1/4" = 1'-0"
140
0.25
141
12.0
290
     0
  0
SCALE
  5
61
102
{ACAD_REACTORS
330
47
102
}
330
47
100
AcDbScale
 70
     0
300
3/8" = 1'-0"
140
0.375
141
12.0
290
     0
  0
SCALE
  5
62
102
{ACAD_REACTORS
330
47
102
}
330
47
100
AcDbScale
 70
     0
300
1/2" = 1'-0"
140
0.5
141
12.0
290
     0
  0
SCALE
  5
63
102
{ACAD_REACTORS
330
47
102
}
330
47
100
AcDbScale
 70
     0
300
3/4" = 1'-0"
140
0.75
141
12.0
290
     0
  0
SCALE
  5
64
102
{ACAD_REACTORS
330
47
102
}
330
47
100
AcDbScale
 70
     0
300
1" = 1'-0"
140
1.0
141
12.0
290
     0
  0
SCALE
  5
65
102
{ACAD_REACTORS
330
47
102
}
330
47
100
AcDbScale
 70
     0
300
1-1/2" = 1'-0"
140
1.5
141
12.0
290
     0
  0
SCALE
  5
66
102
{ACAD_REACTORS
330
47
102
}
330
47
100
AcDbScale
 70
     0
300
3" = 1'-0"
140
3.0
141
12.0
290
     0
  0
SCALE
  5
67
102
{ACAD_REACTORS
330
47
102
}
330
47
100
AcDbScale
 70
     0
300
6" = 1'-0"
140
6.0
141
12.0
290
     0
  0
SCALE
  5
68
102
{ACAD_REACTORS
330
47
102
}
330
47
100
AcDbScale
 70
     0
300
1'-0" = 1'-0"
140
12.0
141
12.0
290
     0
  0
VISUALSTYLE
  5
2F
102
{ACAD_REACTORS
330
2A
102
}
102
{ACAD_XDICTIONARY
360
1BD
102
}
330
2A
100
AcDbVisualStyle
  2
2dWireframe
 70
     4
 71
     0
 72
     2
 73
     0
 90
        0
 40
0.6
 41
30.0
 62
     5
 63
     7
 74
     1
 91
        4
 64
     7
 65
   257
 75
     1
175
     1
 42
1.0
 92
        0
 66
   257
 43
1.0
 76
     1
 77
     6
 78
     2
 67
     7
 79
     5
170
     0
171
     0
290
     0
174
     0
 93
        1
 44
0.0
173
     0
291
     0
 45
0.0
1001
ACAD
1000
AcDbSavedByObjectVersion
1070
     0
  0
VISUALSTYLE
  5
32
102
{ACAD_REACTORS
330
2A
102
}
102
{ACAD_XDICTIONARY
360
1C3
102
}
330
2A
100
AcDbVisualStyle
  2
Basic
 70
     7
 71
     1
 72
     0
 73
     1
 90
        0
 40
0.6
 41
30.0
 62
     5
 63
     7
 74
     0
 91
        4
 64
     7
 65
   257
 75
     1
175
     1
 42
1.0
 92
        8
 66
     7
 43
1.0
 76
     1
 77
     6
 78
     2
 67
     7
 79
     5
170
     0
171
     0
290
     0
174
     0
 93
        1
 44
0.0
173
     0
291
     1
 45
0.0
1001
ACAD
1000
AcDbSavedByObjectVersion
1070
     0
  0
VISUALSTYLE
  5
36
102
{ACAD_REACTORS
330
2A
102
}
102
{ACAD_XDICTIONARY
360
1CB
102
}
330
2A
100
AcDbVisualStyle
  2
Brighten
 70
    12
 71
     2
 72
     2
 73
     0
 90
        0
 40
0.6
 41
30.0
 62
     5
 63
     7
 74
     1
 91
        4
 64
     7
 65
   257
 75
     1
175
     1
 42
1.0
 92
        8
 66
     7
 43
1.0
 76
     1
 77
     6
 78
     2
 67
     7
 79
     5
170
     0
171
     0
290
     0
174
     0
 93
        1
 44
50.0
173
     0
291
     1
 45
0.0
1001
ACAD
1000
AcDbSavedByObjectVersion
1070
     0
  0
VISUALSTYLE
  5
3A
102
{ACAD_REACTORS
330
2A
102
}
102
{ACAD_XDICTIONARY
360
1D3
102
}
330
2A
100
AcDbVisualStyle
  2
ColorChange
 70
    16
 71
     2
 72
     2
 73
     3
 90
        0
 40
0.6
 41
30.0
 62
     5
 63
     8
 74
     1
 91
        4
 64
     7
 65
   257
 75
     1
175
     1
 42
1.0
 92
        8
 66
     8
 43
1.0
 76
     1
 77
     6
 78
     2
 67
     7
 79
     5
170
     0
171
     0
290
     0
174
     0
 93
        1
 44
0.0
173
     0
291
     1
 45
0.0
1001
ACAD
1000
AcDbSavedByObjectVersion
1070
     0
  0
VISUALSTYLE
  5
34
102
{ACAD_REACTORS
330
2A
102
}
102
{ACAD_XDICTIONARY
360
1C7
102
}
330
2A
100
AcDbVisualStyle
  2
Conceptual
 70
     9
 71
     3
 72
     2
 73
     0
 90
        0
 40
0.6
 41
30.0
 62
     5
 63
     7
 74
     2
 91
        2
 64
     7
 65
   257
 75
     1
175
     1
 42
179.0
 92
        8
 66
     7
 43
1.0
 76
     1
 77
     6
 78
     2
 67
     7
 79
     3
170
     0
171
     0
290
     0
174
     0
 93
        1
 44
0.0
173
     0
291
     0
 45
0.0
1001
ACAD
1000
AcDbSavedByObjectVersion
1070
     0
  0
VISUALSTYLE
  5
35
102
{ACAD_REACTORS
330
2A
102
}
102
{ACAD_XDICTIONARY
360
1C9
102
}
330
2A
100
AcDbVisualStyle
  2
Dim
 70
    11
 71
     2
 72
     2
 73
     0
 90
        0
 40
0.6
 41
30.0
 62
     5
 63
     7
 74
     1
 91
        4
 64
     7
 65
   257
 75
     1
175
     1
 42
1.0
 92
        8
 66
     7
 43
1.0
 76
     1
 77
     6
 78
     2
 67
     7
 79
     5
170
     0
171
     0
290
     0
174
     0
 93
        1
 44
-50.0
173
     0
291
     1
 45
0.0
1001
ACAD
1000
AcDbSavedByObjectVersion
1070
     0
  0
VISUALSTYLE
  5
3D
102
{ACAD_REACTORS
330
2A
102
}
102
{ACAD_XDICTIONARY
360
1D9
102
}
330
2A
100
AcDbVisualStyle
  2
EdgeColorOff
 70
    22
 71
     2
 72
     2
 73
     0
 90
        0
 40
0.6
 41
30.0
 62
     5
 63
     7
 74
     1
 91
        4
 64
     7
 65
   257
 75
     1
175
     1
 42
1.0
 92
        8
 66
     7
 43
1.0
 76
     1
 77
     6
 78
     2
 67
     7
 79
     5
170
     0
171
     0
290
     0
174
     0
 93
        1
 44
0.0
173
     0
291
     1
 45
0.0
1001
ACAD
1000
AcDbSavedByObjectVersion
1070
     0
  0
VISUALSTYLE
  5
39
102
{ACAD_REACTORS
330
2A
102
}
102
{ACAD_XDICTIONARY
360
1D1
102
}
330
2A
100
AcDbVisualStyle
  2
Facepattern
 70
    15
 71
     2
 72
     2
 73
     0
 90
        0
 40
0.6
 41
30.0
 62
     5
 63
     7
 74
     1
 91
        4
 64
     7
 65
   257
 75
     1
175
     1
 42
1.0
 92
        8
 66
     7
 43
1.0
 76
     1
 77
     6
 78
     2
 67
     7
 79
     5
170
     0
171
     0
290
     0
174
     0
 93
        1
 44
0.0
173
     0
291
     1
 45
0.0
1001
ACAD
1000
AcDbSavedByObjectVersion
1070
     0
  0
VISUALSTYLE
  5
2B
102
{ACAD_REACTORS
330
2A
102
}
102
{ACAD_XDICTIONARY
360
1B5
102
}
330
2A
100
AcDbVisualStyle
  2
Flat
 70
     0
 71
     2
 72
     1
 73
     1
 90
        2
 40
0.6
 41
30.0
 62
     5
 63
     7
 74
     0
 91
        0
 64
     7
 65
   257
 75
     1
175
     1
 42
1.0
 92
        8
 66
     7
 43
1.0
 76
     1
 77
     6
 78
     2
 67
     7
 79
     5
170
     0
171
     0
290
     0
174
     0
 93
       13
 44
0.0
173
     0
291
     1
 45
0.0
1001
ACAD
1000
AcDbSavedByObjectVersion
1070
     0
  0
VISUALSTYLE
  5
2C
102
{ACAD_REACTORS
330
2A
102
}
102
{ACAD_XDICTIONARY
360
1B7
102
}
330
2A
100
AcDbVisualStyle
  2
FlatWithEdges
 70
     1
 71
     2
 72
     1
 73
     1
 90
        2
 40
0.6
 41
30.0
 62
     5
 63
     7
 74
     1
 91
        0
 64
     7
 65
   257
 75
     1
175
     1
 42
1.0
 92
        0
 66
   257
 43
1.0
 76
     1
 77
     6
 78
     2
 67
     7
 79
     5
170
     0
171
     0
290
     0
174
     0
 93
       13
 44
0.0
173
     0
291
     1
 45
0.0
1001
ACAD
1000
AcDbSavedByObjectVersion
1070
     0
  0
VISUALSTYLE
  5
2D
102
{ACAD_REACTORS
330
2A
102
}
102
{ACAD_XDICTIONARY
360
1B9
102
}
330
2A
100
AcDbVisualStyle
  2
Gouraud
 70
     2
 71
     2
 72
     2
 73
     1
 90
        2
 40
0.6
 41
30.0
 62
     5
 63
     7
 74
     0
 91
        0
 64
     7
 65
   257
 75
     1
175
     1
 42
1.0
 92
        0
 66
     7
 43
1.0
 76
     1
 77
     6
 78
     2
 67
     7
 79
     5
170
     0
171
     0
290
     0
174
     0
 93
       13
 44
0.0
173
     0
291
     1
 45
0.0
1001
ACAD
1000
AcDbSavedByObjectVersion
1070
     0
  0
VISUALSTYLE
  5
2E
102
{ACAD_REACTORS
330
2A
102
}
102
{ACAD_XDICTIONARY
360
1BB
102
}
330
2A
100
AcDbVisualStyle
  2
GouraudWithEdges
 70
     3
 71
     2
 72
     2
 73
     1
 90
        2
 40
0.6
 41
30.0
 62
     5
 63
     7
 74
     1
 91
        0
 64
     7
 65
   257
 75
     1
175
     1
 42
1.0
 92
        0
 66
   257
 43
1.0
 76
     1
 77
     6
 78
     2
 67
     7
 79
     5
170
     0
171
     0
290
     0
174
     0
 93
       13
 44
0.0
173
     0
291
     1
 45
0.0
1001
ACAD
1000
AcDbSavedByObjectVersion
1070
     0
  0
VISUALSTYLE
  5
31
102
{ACAD_REACTORS
330
2A
102
}
102
{ACAD_XDICTIONARY
360
1C1
102
}
330
2A
100
AcDbVisualStyle
  2
Hidden
 70
     6
 71
     1
 72
     2
 73
     2
 90
        0
 40
0.6
 41
30.0
 62
     5
 63
     7
 74
     2
 91
        2
 64
     7
 65
   257
 75
     2
175
     1
 42
40.0
 92
        0
 66
   257
 43
1.0
 76
     1
 77
     6
 78
     2
 67
     7
 79
     3
170
     0
171
     0
290
     0
174
     0
 93
        1
 44
0.0
173
     0
291
     0
 45
0.0
1001
ACAD
1000
AcDbSavedByObjectVersion
1070
     0
  0
VISUALSTYLE
  5
3B
102
{ACAD_REACTORS
330
2A
102
}
102
{ACAD_XDICTIONARY
360
1D5
102
}
330
2A
100
AcDbVisualStyle
  2
JitterOff
 70
    20
 71
     2
 72
     2
 73
     0
 90
        0
 40
0.6
 41
30.0
 62
     5
 63
     7
 74
     1
 91
        4
 64
     7
 65
   257
 75
     1
175
     1
 42
1.0
 92
       10
 66
     7
 43
1.0
 76
     1
 77
     6
 78
     2
 67
     7
 79
     5
170
     0
171
     0
290
     0
174
     0
 93
        1
 44
0.0
173
     0
291
     1
 45
0.0
1001
ACAD
1000
AcDbSavedByObjectVersion
1070
     0
  0
VISUALSTYLE
  5
38
102
{ACAD_REACTORS
330
2A
102
}
102
{ACAD_XDICTIONARY
360
1CF
102
}
330
2A
100
AcDbVisualStyle
  2
Linepattern
 70
    14
 71
     2
 72
     2
 73
     0
 90
        0
 40
0.6
 41
30.0
 62
     5
 63
     7
 74
     1
 91
        4
 64
     7
 65
   257
 75
     7
175
     7
 42
1.0
 92
        8
 66
     7
 43
1.0
 76
     1
 77
     6
 78
     2
 67
     7
 79
     5
170
     0
171
     0
290
     0
174
     0
 93
        1
 44
0.0
173
     0
291
     1
 45
0.0
1001
ACAD
1000
AcDbSavedByObjectVersion
1070
     0
  0
VISUALSTYLE
  5
3C
102
{ACAD_REACTORS
330
2A
102
}
102
{ACAD_XDICTIONARY
360
1D7
102
}
330
2A
100
AcDbVisualStyle
  2
OverhangOff
 70
    21
 71
     2
 72
     2
 73
     0
 90
        0
 40
0.6
 41
30.0
 62
     5
 63
     7
 74
     1
 91
        4
 64
     7
 65
   257
 75
     1
175
     1
 42
1.0
 92
        9
 66
     7
 43
1.0
 76
     1
 77
     6
 78
     2
 67
     7
 79
     5
170
     0
171
     0
290
     0
174
     0
 93
        1
 44
0.0
173
     0
291
     1
 45
0.0
1001
ACAD
1000
AcDbSavedByObjectVersion
1070
     0
  0
VISUALSTYLE
  5
33
102
{ACAD_REACTORS
330
2A
102
}
102
{ACAD_XDICTIONARY
360
1C5
102
}
330
2A
100
AcDbVisualStyle
  2
Realistic
 70
     8
 71
     2
 72
     3
 73
     0
 90
        2
 40
0.6
 41
30.0
 62
     5
 63
     7
 74
     0
 91
        0
 64
     7
 65
   257
 75
     1
175
     1
 42
1.0
 92
        8
 66
   257
 43
1.0
 76
     1
 77
     6
 78
     2
 67
     7
 79
     3
170
     0
171
     0
290
     0
174
     0
 93
       13
 44
0.0
173
     0
291
     0
 45
0.0
1001
ACAD
1000
AcDbSavedByObjectVersion
1070
     0
  0
VISUALSTYLE
  5
42
102
{ACAD_REACTORS
330
2A
102
}
102
{ACAD_XDICTIONARY
360
1E3
102
}
330
2A
100
AcDbVisualStyle
  2
Shaded
 70
    27
 71
     2
 72
     2
 73
     1
 90
        2
 40
0.6
 41
30.0
 62
     5
 63
     7
 74
     0
 91
        4
 64
     7
 65
   257
 75
     1
175
     1
 42
1.0
 92
        8
 66
   257
 43
1.0
 76
     1
 77
     6
 78
     2
 67
     8
 79
     3
170
     0
171
     0
290
     0
174
     0
 93
        5
 44
0.0
173
     0
291
     0
 45
0.0
1001
ACAD
1000
AcDbSavedByObjectVersion
1070
     0
  0
VISUALSTYLE
  5
41
102
{ACAD_REACTORS
330
2A
102
}
102
{ACAD_XDICTIONARY
360
1E1
102
}
330
2A
100
AcDbVisualStyle
  2
Shaded with edges
 70
    26
 71
     2
 72
     2
 73
     1
 90
        2
 40
0.6
 41
30.0
 62
     5
 63
     7
 74
     1
 91
       10
 64
     7
 65
   257
 75
     2
175
     1
 42
1.0
 92
        8
 66
   257
 43
1.0
 76
     1
 77
     6
 78
     2
 67
     7
 79
     3
170
     0
171
     0
290
     0
174
     0
 93
        5
 44
0.0
173
     0
291
     0
 45
0.0
1001
ACAD
1000
AcDbSavedByObjectVersion
1070
     0
  0
VISUALSTYLE
  5
3E
102
{ACAD_REACTORS
330
2A
102
}
102
{ACAD_XDICTIONARY
360
1DB
102
}
330
2A
100
AcDbVisualStyle
  2
Shades of Gray
 70
    23
 71
     2
 72
     2
 73
     3
 90
        0
 40
0.6
 41
30.0
 62
     5
 63
     7
 74
     2
 91
        2
 64
     7
 65
     7
 75
     1
175
     1
 42
40.0
 92
        8
 66
     7
 43
1.0
 76
     1
 77
     6
 78
     2
 67
     7
 79
     3
170
     0
171
     0
290
     0
174
     0
 93
        1
 44
0.0
173
     0
291
     0
 45
0.0
1001
ACAD
1000
AcDbSavedByObjectVersion
1070
     0
  0
VISUALSTYLE
  5
3F
102
{ACAD_REACTORS
330
2A
102
}
102
{ACAD_XDICTIONARY
360
1DD
102
}
330
2A
100
AcDbVisualStyle
  2
Sketchy
 70
    24
 71
     1
 72
     2
 73
     2
 90
        0
 40
0.6
 41
30.0
 62
     5
 63
     7
 74
     2
 91
        2
 64
     7
 65
     7
 75
     1
175
     1
 42
40.0
 92
       11
 66
     7
 43
1.0
 76
     1
 77
     6
 78
     2
 67
     7
 79
     6
170
     0
171
     0
290
     0
174
     0
 93
        1
 44
0.0
173
     0
291
     0
 45
0.0
1001
ACAD
1000
AcDbSavedByObjectVersion
1070
     0
  0
VISUALSTYLE
  5
37
102
{ACAD_REACTORS
330
2A
102
}
102
{ACAD_XDICTIONARY
360
1CD
102
}
330
2A
100
AcDbVisualStyle
  2
Thicken
 70
    13
 71
     2
 72
     2
 73
     0
 90
        0
 40
0.6
 41
30.0
 62
     5
 63
     7
 74
     1
 91
        4
 64
     7
 65
   257
 75
     1
175
     1
 42
1.0
 92
       12
 66
     7
 43
1.0
 76
     1
 77
     6
 78
     2
 67
     7
 79
     5
170
     0
171
     0
290
     0
174
     0
 93
        1
 44
0.0
173
     0
291
     1
 45
0.0
1001
ACAD
1000
AcDbSavedByObjectVersion
1070
     0
  0
VISUALSTYLE
  5
30
102
{ACAD_REACTORS
330
2A
102
}
102
{ACAD_XDICTIONARY
360
1BF
102
}
330
2A
100
AcDbVisualStyle
  2
Wireframe
 70
     5
 71
     0
 72
     2
 73
     0
 90
        0
 40
0.6
 41
30.0
 62
     5
 63
     7
 74
     1
 91
        4
 64
     7
 65
   257
 75
     1
175
     1
 42
1.0
 92
        0
 66
   257
 43
1.0
 76
     1
 77
     6
 78
     2
 67
     7
 79
     3
170
     0
171
     0
290
     0
174
     0
 93
        1
 44
0.0
173
     0
291
     0
 45
0.0
1001
ACAD
1000
AcDbSavedByObjectVersion
1070
     0
  0
VISUALSTYLE
  5
40
102
{ACAD_REACTORS
330
2A
102
}
102
{ACAD_XDICTIONARY
360
1DF
102
}
330
2A
100
AcDbVisualStyle
  2
X-Ray
 70
    25
 71
     2
 72
     2
 73
     1
 90
        1
 40
0.5
 41
30.0
 62
     5
 63
     7
 74
     1
 91
        0
 64
     7
 65
   257
 75
     1
175
     1
 42
1.0
 92
        8
 66
     7
 43
1.0
 76
     1
 77
     6
 78
     2
 67
     7
 79
     3
170
     0
171
     0
290
     0
174
     0
 93
       13
 44
0.0
173
     0
291
     0
 45
0.0
1001
ACAD
1000
AcDbSavedByObjectVersion
1070
     0
  0
DICTIONARYVAR
  5
1B3
102
{ACAD_REACTORS
330
1AA
102
}
330
1AA
100
DictionaryVariables
280
     0
  1
1:1
  0
DICTIONARYVAR
  5
1B1
102
{ACAD_REACTORS
330
1AA
102
}
330
1AA
100
DictionaryVariables
280
     0
  1
2
  0
DICTIONARYVAR
  5
1B2
102
{ACAD_REACTORS
330
1AA
102
}
330
1AA
100
DictionaryVariables
280
     0
  1
1
  0
DICTIONARYVAR
  5
1B4
102
{ACAD_REACTORS
330
1AA
102
}
330
1AA
100
DictionaryVariables
280
     0
  1
1
  0
DICTIONARYVAR
  5
1AE
102
{ACAD_REACTORS
330
1AA
102
}
330
1AA
100
DictionaryVariables
280
     0
  1
80.000000
  0
DICTIONARYVAR
  5
1AD
102
{ACAD_REACTORS
330
1AA
102
}
330
1AA
100
DictionaryVariables
280
     0
  1
5.000000
  0
DICTIONARY
  5
1E7
330
45
100
AcDbDictionary
280
     1
281
     1
  3
ACAD_XREC_ROUNDTRIP
360
1E8
  0
DICTIONARY
  5
1E5
330
44
100
AcDbDictionary
280
     1
281
     1
  3
ACAD_XREC_ROUNDTRIP
360
1E6
  0
DICTIONARY
  5
1E9
330
46
100
AcDbDictionary
280
     1
281
     1
  3
ACAD_XREC_ROUNDTRIP
360
1EA
  0
DICTIONARY
  5
1BD
330
2F
100
AcDbDictionary
280
     1
281
     1
  3
ACAD_XREC_ROUNDTRIP
360
1BE
  0
DICTIONARY
  5
1C3
330
32
100
AcDbDictionary
280
     1
281
     1
  3
ACAD_XREC_ROUNDTRIP
360
1C4
  0
DICTIONARY
  5
1CB
330
36
100
AcDbDictionary
280
     1
281
     1
  3
ACAD_XREC_ROUNDTRIP
360
1CC
  0
DICTIONARY
  5
1D3
330
3A
100
AcDbDictionary
280
     1
281
     1
  3
ACAD_XREC_ROUNDTRIP
360
1D4
  0
DICTIONARY
  5
1C7
330
34
100
AcDbDictionary
280
     1
281
     1
  3
ACAD_XREC_ROUNDTRIP
360
1C8
  0
DICTIONARY
  5
1C9
330
35
100
AcDbDictionary
280
     1
281
     1
  3
ACAD_XREC_ROUNDTRIP
360
1CA
  0
DICTIONARY
  5
1D9
330
3D
100
AcDbDictionary
280
     1
281
     1
  3
ACAD_XREC_ROUNDTRIP
360
1DA
  0
DICTIONARY
  5
1D1
330
39
100
AcDbDictionary
280
     1
281
     1
  3
ACAD_XREC_ROUNDTRIP
360
1D2
  0
DICTIONARY
  5
1B5
330
2B
100
AcDbDictionary
280
     1
281
     1
  3
ACAD_XREC_ROUNDTRIP
360
1B6
  0
DICTIONARY
  5
1B7
330
2C
100
AcDbDictionary
280
     1
281
     1
  3
ACAD_XREC_ROUNDTRIP
360
1B8
  0
DICTIONARY
  5
1B9
330
2D
100
AcDbDictionary
280
     1
281
     1
  3
ACAD_XREC_ROUNDTRIP
360
1BA
  0
DICTIONARY
  5
1BB
330
2E
100
AcDbDictionary
280
     1
281
     1
  3
ACAD_XREC_ROUNDTRIP
360
1BC
  0
DICTIONARY
  5
1C1
330
31
100
AcDbDictionary
280
     1
281
     1
  3
ACAD_XREC_ROUNDTRIP
360
1C2
  0
DICTIONARY
  5
1D5
330
3B
100
AcDbDictionary
280
     1
281
     1
  3
ACAD_XREC_ROUNDTRIP
360
1D6
  0
DICTIONARY
  5
1CF
330
38
100
AcDbDictionary
280
     1
281
     1
  3
ACAD_XREC_ROUNDTRIP
360
1D0
  0
DICTIONARY
  5
1D7
330
3C
100
AcDbDictionary
280
     1
281
     1
  3
ACAD_XREC_ROUNDTRIP
360
1D8
  0
DICTIONARY
  5
1C5
330
33
100
AcDbDictionary
280
     1
281
     1
  3
ACAD_XREC_ROUNDTRIP
360
1C6
  0
DICTIONARY
  5
1E3
330
42
100
AcDbDictionary
280
     1
281
     1
  3
ACAD_XREC_ROUNDTRIP
360
1E4
  0
DICTIONARY
  5
1E1
330
41
100
AcDbDictionary
280
     1
281
     1
  3
ACAD_XREC_ROUNDTRIP
360
1E2
  0
DICTIONARY
  5
1DB
330
3E
100
AcDbDictionary
280
     1
281
     1
  3
ACAD_XREC_ROUNDTRIP
360
1DC
  0
DICTIONARY
  5
1DD
330
3F
100
AcDbDictionary
280
     1
281
     1
  3
ACAD_XREC_ROUNDTRIP
360
1DE
  0
DICTIONARY
  5
1CD
330
37
100
AcDbDictionary
280
     1
281
     1
  3
ACAD_XREC_ROUNDTRIP
360
1CE
  0
DICTIONARY
  5
1BF
330
30
100
AcDbDictionary
280
     1
281
     1
  3
ACAD_XREC_ROUNDTRIP
360
1C0
  0
DICTIONARY
  5
1DF
330
40
100
AcDbDictionary
280
     1
281
     1
  3
ACAD_XREC_ROUNDTRIP
360
1E0
  0
XRECORD
  5
1E8
102
{ACAD_REACTORS
330
1E7
102
}
330
1E7
100
AcDbXrecord
280
     1
102
MATERIAL
148
0.0
149
0.0
149
0.0
 93
        0
 94
      127
282
     0
 72
     1
 77
     1
171
     1
175
     1
179
     1
273
     0
  0
XRECORD
  5
1E6
102
{ACAD_REACTORS
330
1E5
102
}
330
1E5
100
AcDbXrecord
280
     1
102
MATERIAL
148
0.0
149
0.0
149
0.0
 93
        0
 94
      127
282
     0
 72
     1
 77
     1
171
     1
175
     1
179
     1
273
     0
  0
XRECORD
  5
1EA
102
{ACAD_REACTORS
330
1E9
102
}
330
1E9
100
AcDbXrecord
280
     1
102
MATERIAL
148
0.0
149
0.0
149
0.0
 93
        0
 94
      127
282
     0
 72
     1
 77
     1
171
     1
175
     1
179
     1
273
     0
  0
XRECORD
  5
1BE
102
{ACAD_REACTORS
330
1BD
102
}
330
1BD
100
AcDbXrecord
280
     1
102
RTVSPropertyOp0
 70
     1
102
RTVSPropertyOp1
 70
     1
102
RTVSPropertyOp2
 70
     1
102
RTVSPropertyOp3
 70
     1
102
RTVSPropertyOp4
 70
     1
102
RTVSPropertyOp5
 70
     1
102
RTVSPropertyOp6
 70
     1
102
RTVSPropertyOp7
 70
     1
102
RTVSPropertyOp8
 70
     1
102
RTVSPropertyOp9
 70
     1
102
RTVSPropertyOp10
 70
     1
102
RTVSPropertyOp11
 70
     1
102
RTVSPropertyOp12
 70
     1
102
RTVSPropertyOp13
 70
     1
102
RTVSPropertyOp14
 70
     1
102
RTVSPropertyOp15
 70
     1
102
RTVSPropertyOp16
 70
     1
102
RTVSPropertyOp17
 70
     1
102
RTVSPropertyOp18
 70
     1
102
RTVSPropertyOp19
 70
     1
102
RTVSPropertyOp20
 70
     1
102
RTVSPropertyOp21
 70
     1
102
RTVSPropertyOp22
 70
     1
102
RTVSPropertyOp23
 70
     1
102
RTVSPropertyOp24
 70
     1
102
RTVSPropertyOp25
 70
     1
102
RTVSPropertyOp26
 70
     1
102
RTVSPropertyOp27
 70
     1
102
RTVSPropertyOp28
 70
     1
102
RTVSPropertyOp29
 70
     1
102
RTVSPropertyOp30
 70
     1
102
RTVSPropertyOp31
 70
     1
102
RTVSPropertyOp32
 70
     1
102
RTVSPropertyOp33
 70
     1
102
RTVSPropertyOp34
 70
     1
102
RTVSPropertyOp35
 70
     1
102
RTVSPropertyOp36
 70
     1
102
RTVSPropertyOp37
 70
     1
102
RTVSPropertyOp38
 70
     1
102
RTVSPropertyOp39
 70
     1
102
RTVSPropertyOp40
 70
     1
102
RTVSPropertyOp41
 70
     1
102
RTVSPropertyOp42
 70
     1
102
RTVSPropertyOp43
 70
     1
102
RTVSPropertyOp44
 70
     1
102
RTVSPropertyOp45
 70
     1
102
RTVSPropertyOp46
 70
     1
102
RTVSPropertyOp47
 70
     1
102
RTVSPropertyOp48
 70
     1
102
RTVSPropertyOp49
 70
     1
102
RTVSPropertyOp50
 70
     1
102
RTVSPropertyOp51
 70
     0
102
RTVSPropertyOp52
 70
     0
102
RTVSPropertyOp53
 70
     1
102
RTVSPropertyOp54
 70
     1
102
RTVSPropertyOp55
 70
     1
102
RTVSPropertyOp56
 70
     1
102
RTVSPropertyOp57
 70
     1
102
RTVSPost2010Prop28
280
     1
102
RTVSPost2010PropOp28
 70
     1
102
RTVSPost2010Prop29
280
     1
102
RTVSPost2010PropOp29
 70
     1
102
RTVSPost2010Prop30
280
     0
102
RTVSPost2010PropOp30
 70
     1
102
RTVSPost2010Prop31
280
     0
102
RTVSPost2010PropOp31
 70
     1
102
RTVSPost2010Prop32
280
     0
102
RTVSPost2010PropOp32
 70
     1
102
RTVSPost2010Prop33
280
     0
102
RTVSPost2010PropOp33
 70
     1
102
RTVSPost2010Prop34
280
     0
102
RTVSPost2010PropOp34
 70
     1
102
RTVSPost2010Prop35
280
     0
102
RTVSPost2010PropOp35
 70
     1
102
RTVSPost2010Prop36
280
     0
102
RTVSPost2010PropOp36
 70
     1
102
RTVSPost2010Prop37
 90
       50
102
RTVSPost2010PropOp37
 70
     1
102
RTVSPost2010Prop38
140
0.0
102
RTVSPost2010PropOp38
 70
     1
102
RTVSPost2010Prop39
140
1.0
102
RTVSPost2010PropOp39
 70
     1
102
RTVSPost2010Prop40
 90
        0
102
RTVSPost2010PropOp40
 70
     1
102
RTVSPost2010Prop41ColorIndex
 90
       18
102
RTVSPost2010Prop41ColorRGB
 90
        0
102
RTVSPost2010PropOp41
 70
     1
102
RTVSPost2010Prop42
 90
       50
102
RTVSPost2010PropOp42
 70
     1
102
RTVSPost2010Prop43
 90
        3
102
RTVSPost2010PropOp43
 70
     1
102
RTVSPost2010Prop44ColorIndex
 90
        5
102
RTVSPost2010Prop44ColorRGB
 90
      255
102
RTVSPost2010PropOp44
 70
     1
102
RTVSPost2010Prop45
280
     0
102
RTVSPost2010PropOp45
 70
     1
102
RTVSPost2010Prop46
 90
       50
102
RTVSPost2010PropOp46
 70
     1
102
RTVSPost2010Prop47
 90
       50
102
RTVSPost2010PropOp47
 70
     1
102
RTVSPost2010Prop48
 90
       50
102
RTVSPost2010PropOp48
 70
     1
102
RTVSPost2010Prop49
280
     0
102
RTVSPost2010PropOp49
 70
     1
102
RTVSPost2010Prop50
 90
       50
102
RTVSPost2010PropOp50
 70
     1
102
RTVSPost2010Prop51ColorIndex
 90
      256
102
RTVSPost2010Prop51ColorRGB
 90
-16777216
102
RTVSPost2010PropOp51
 70
     0
102
RTVSPost2010Prop52
140
1.0
102
RTVSPost2010PropOp52
 70
     0
102
RTVSPost2010Prop53
 90
        2
102
RTVSPost2010PropOp53
 70
     1
102
RTVSPost2010Prop54
  1
strokes_ogs.tif
102
RTVSPost2010PropOp54
 70
     1
102
RTVSPost2010Prop55
280
     0
102
RTVSPost2010PropOp55
 70
     1
102
RTVSPost2010Prop56
140
1.0
102
RTVSPost2010PropOp56
 70
     1
102
RTVSPost2010Prop57
140
1.0
102
RTVSPost2010PropOp57
 70
     1
  0
XRECORD
  5
1C4
102
{ACAD_REACTORS
330
1C3
102
}
330
1C3
100
AcDbXrecord
280
     1
102
RTVSPropertyOp0
 70
     1
102
RTVSPropertyOp1
 70
     1
102
RTVSPropertyOp2
 70
     1
102
RTVSPropertyOp3
 70
     1
102
RTVSPropertyOp4
 70
     1
102
RTVSPropertyOp5
 70
     1
102
RTVSPropertyOp6
 70
     1
102
RTVSPropertyOp7
 70
     1
102
RTVSPropertyOp8
 70
     1
102
RTVSPropertyOp9
 70
     1
102
RTVSPropertyOp10
 70
     1
102
RTVSPropertyOp11
 70
     1
102
RTVSPropertyOp12
 70
     1
102
RTVSPropertyOp13
 70
     1
102
RTVSPropertyOp14
 70
     1
102
RTVSPropertyOp15
 70
     1
102
RTVSPropertyOp16
 70
     1
102
RTVSPropertyOp17
 70
     1
102
RTVSPropertyOp18
 70
     1
102
RTVSPropertyOp19
 70
     1
102
RTVSPropertyOp20
 70
     1
102
RTVSPropertyOp21
 70
     1
102
RTVSPropertyOp22
 70
     1
102
RTVSPropertyOp23
 70
     1
102
RTVSPropertyOp24
 70
     1
102
RTVSPropertyOp25
 70
     1
102
RTVSPropertyOp26
 70
     1
102
RTVSPropertyOp27
 70
     1
102
RTVSPropertyOp28
 70
     1
102
RTVSPropertyOp29
 70
     1
102
RTVSPropertyOp30
 70
     1
102
RTVSPropertyOp31
 70
     1
102
RTVSPropertyOp32
 70
     1
102
RTVSPropertyOp33
 70
     1
102
RTVSPropertyOp34
 70
     1
102
RTVSPropertyOp35
 70
     1
102
RTVSPropertyOp36
 70
     1
102
RTVSPropertyOp37
 70
     1
102
RTVSPropertyOp38
 70
     1
102
RTVSPropertyOp39
 70
     1
102
RTVSPropertyOp40
 70
     1
102
RTVSPropertyOp41
 70
     1
102
RTVSPropertyOp42
 70
     1
102
RTVSPropertyOp43
 70
     1
102
RTVSPropertyOp44
 70
     1
102
RTVSPropertyOp45
 70
     1
102
RTVSPropertyOp46
 70
     1
102
RTVSPropertyOp47
 70
     1
102
RTVSPropertyOp48
 70
     1
102
RTVSPropertyOp49
 70
     1
102
RTVSPropertyOp50
 70
     1
102
RTVSPropertyOp51
 70
     0
102
RTVSPropertyOp52
 70
     0
102
RTVSPropertyOp53
 70
     1
102
RTVSPropertyOp54
 70
     1
102
RTVSPropertyOp55
 70
     1
102
RTVSPropertyOp56
 70
     1
102
RTVSPropertyOp57
 70
     1
102
RTVSPost2010Prop28
280
     0
102
RTVSPost2010PropOp28
 70
     1
102
RTVSPost2010Prop29
280
     1
102
RTVSPost2010PropOp29
 70
     1
102
RTVSPost2010Prop30
280
     1
102
RTVSPost2010PropOp30
 70
     1
102
RTVSPost2010Prop31
280
     0
102
RTVSPost2010PropOp31
 70
     1
102
RTVSPost2010Prop32
280
     0
102
RTVSPost2010PropOp32
 70
     1
102
RTVSPost2010Prop33
280
     0
102
RTVSPost2010PropOp33
 70
     1
102
RTVSPost2010Prop34
280
     0
102
RTVSPost2010PropOp34
 70
     1
102
RTVSPost2010Prop35
280
     0
102
RTVSPost2010PropOp35
 70
     1
102
RTVSPost2010Prop36
280
     0
102
RTVSPost2010PropOp36
 70
     1
102
RTVSPost2010Prop37
 90
       50
102
RTVSPost2010PropOp37
 70
     1
102
RTVSPost2010Prop38
140
0.0
102
RTVSPost2010PropOp38
 70
     1
102
RTVSPost2010Prop39
140
1.0
102
RTVSPost2010PropOp39
 70
     1
102
RTVSPost2010Prop40
 90
        0
102
RTVSPost2010PropOp40
 70
     1
102
RTVSPost2010Prop41ColorIndex
 90
       18
102
RTVSPost2010Prop41ColorRGB
 90
        0
102
RTVSPost2010PropOp41
 70
     1
102
RTVSPost2010Prop42
 90
       50
102
RTVSPost2010PropOp42
 70
     1
102
RTVSPost2010Prop43
 90
        3
102
RTVSPost2010PropOp43
 70
     1
102
RTVSPost2010Prop44ColorIndex
 90
        5
102
RTVSPost2010Prop44ColorRGB
 90
      255
102
RTVSPost2010PropOp44
 70
     1
102
RTVSPost2010Prop45
280
     0
102
RTVSPost2010PropOp45
 70
     1
102
RTVSPost2010Prop46
 90
       50
102
RTVSPost2010PropOp46
 70
     1
102
RTVSPost2010Prop47
 90
       50
102
RTVSPost2010PropOp47
 70
     1
102
RTVSPost2010Prop48
 90
       50
102
RTVSPost2010PropOp48
 70
     1
102
RTVSPost2010Prop49
280
     0
102
RTVSPost2010PropOp49
 70
     1
102
RTVSPost2010Prop50
 90
       50
102
RTVSPost2010PropOp50
 70
     1
102
RTVSPost2010Prop51ColorIndex
 90
      256
102
RTVSPost2010Prop51ColorRGB
 90
-16777216
102
RTVSPost2010PropOp51
 70
     0
102
RTVSPost2010Prop52
140
1.0
102
RTVSPost2010PropOp52
 70
     0
102
RTVSPost2010Prop53
 90
        2
102
RTVSPost2010PropOp53
 70
     1
102
RTVSPost2010Prop54
  1
strokes_ogs.tif
102
RTVSPost2010PropOp54
 70
     1
102
RTVSPost2010Prop55
280
     0
102
RTVSPost2010PropOp55
 70
     1
102
RTVSPost2010Prop56
140
1.0
102
RTVSPost2010PropOp56
 70
     1
102
RTVSPost2010Prop57
140
1.0
102
RTVSPost2010PropOp57
 70
     1
  0
XRECORD
  5
1CC
102
{ACAD_REACTORS
330
1CB
102
}
330
1CB
100
AcDbXrecord
280
     1
102
RTVSPropertyOp0
 70
     1
102
RTVSPropertyOp1
 70
     1
102
RTVSPropertyOp2
 70
     1
102
RTVSPropertyOp3
 70
     1
102
RTVSPropertyOp4
 70
     1
102
RTVSPropertyOp5
 70
     1
102
RTVSPropertyOp6
 70
     1
102
RTVSPropertyOp7
 70
     1
102
RTVSPropertyOp8
 70
     1
102
RTVSPropertyOp9
 70
     1
102
RTVSPropertyOp10
 70
     1
102
RTVSPropertyOp11
 70
     1
102
RTVSPropertyOp12
 70
     1
102
RTVSPropertyOp13
 70
     1
102
RTVSPropertyOp14
 70
     1
102
RTVSPropertyOp15
 70
     1
102
RTVSPropertyOp16
 70
     1
102
RTVSPropertyOp17
 70
     1
102
RTVSPropertyOp18
 70
     1
102
RTVSPropertyOp19
 70
     1
102
RTVSPropertyOp20
 70
     1
102
RTVSPropertyOp21
 70
     1
102
RTVSPropertyOp22
 70
     1
102
RTVSPropertyOp23
 70
     1
102
RTVSPropertyOp24
 70
     1
102
RTVSPropertyOp25
 70
     1
102
RTVSPropertyOp26
 70
     1
102
RTVSPropertyOp27
 70
     1
102
RTVSPropertyOp28
 70
     1
102
RTVSPropertyOp29
 70
     1
102
RTVSPropertyOp30
 70
     1
102
RTVSPropertyOp31
 70
     1
102
RTVSPropertyOp32
 70
     1
102
RTVSPropertyOp33
 70
     1
102
RTVSPropertyOp34
 70
     1
102
RTVSPropertyOp35
 70
     1
102
RTVSPropertyOp36
 70
     1
102
RTVSPropertyOp37
 70
     1
102
RTVSPropertyOp38
 70
     1
102
RTVSPropertyOp39
 70
     1
102
RTVSPropertyOp40
 70
     1
102
RTVSPropertyOp41
 70
     1
102
RTVSPropertyOp42
 70
     1
102
RTVSPropertyOp43
 70
     1
102
RTVSPropertyOp44
 70
     1
102
RTVSPropertyOp45
 70
     1
102
RTVSPropertyOp46
 70
     1
102
RTVSPropertyOp47
 70
     1
102
RTVSPropertyOp48
 70
     1
102
RTVSPropertyOp49
 70
     1
102
RTVSPropertyOp50
 70
     1
102
RTVSPropertyOp51
 70
     0
102
RTVSPropertyOp52
 70
     0
102
RTVSPropertyOp53
 70
     1
102
RTVSPropertyOp54
 70
     1
102
RTVSPropertyOp55
 70
     1
102
RTVSPropertyOp56
 70
     1
102
RTVSPropertyOp57
 70
     1
102
RTVSPost2010Prop28
280
     0
102
RTVSPost2010PropOp28
 70
     1
102
RTVSPost2010Prop29
280
     1
102
RTVSPost2010PropOp29
 70
     1
102
RTVSPost2010Prop30
280
     1
102
RTVSPost2010PropOp30
 70
     1
102
RTVSPost2010Prop31
280
     0
102
RTVSPost2010PropOp31
 70
     1
102
RTVSPost2010Prop32
280
     0
102
RTVSPost2010PropOp32
 70
     1
102
RTVSPost2010Prop33
280
     0
102
RTVSPost2010PropOp33
 70
     1
102
RTVSPost2010Prop34
280
     0
102
RTVSPost2010PropOp34
 70
     1
102
RTVSPost2010Prop35
280
     0
102
RTVSPost2010PropOp35
 70
     1
102
RTVSPost2010Prop36
280
     0
102
RTVSPost2010PropOp36
 70
     1
102
RTVSPost2010Prop37
 90
       50
102
RTVSPost2010PropOp37
 70
     1
102
RTVSPost2010Prop38
140
0.0
102
RTVSPost2010PropOp38
 70
     1
102
RTVSPost2010Prop39
140
1.0
102
RTVSPost2010PropOp39
 70
     1
102
RTVSPost2010Prop40
 90
        0
102
RTVSPost2010PropOp40
 70
     1
102
RTVSPost2010Prop41ColorIndex
 90
       18
102
RTVSPost2010Prop41ColorRGB
 90
        0
102
RTVSPost2010PropOp41
 70
     1
102
RTVSPost2010Prop42
 90
       50
102
RTVSPost2010PropOp42
 70
     1
102
RTVSPost2010Prop43
 90
        3
102
RTVSPost2010PropOp43
 70
     1
102
RTVSPost2010Prop44ColorIndex
 90
        5
102
RTVSPost2010Prop44ColorRGB
 90
      255
102
RTVSPost2010PropOp44
 70
     1
102
RTVSPost2010Prop45
280
     0
102
RTVSPost2010PropOp45
 70
     1
102
RTVSPost2010Prop46
 90
       50
102
RTVSPost2010PropOp46
 70
     1
102
RTVSPost2010Prop47
 90
       50
102
RTVSPost2010PropOp47
 70
     1
102
RTVSPost2010Prop48
 90
       50
102
RTVSPost2010PropOp48
 70
     1
102
RTVSPost2010Prop49
280
     0
102
RTVSPost2010PropOp49
 70
     1
102
RTVSPost2010Prop50
 90
       50
102
RTVSPost2010PropOp50
 70
     1
102
RTVSPost2010Prop51ColorIndex
 90
      256
102
RTVSPost2010Prop51ColorRGB
 90
-16777216
102
RTVSPost2010PropOp51
 70
     0
102
RTVSPost2010Prop52
140
1.0
102
RTVSPost2010PropOp52
 70
     0
102
RTVSPost2010Prop53
 90
        2
102
RTVSPost2010PropOp53
 70
     1
102
RTVSPost2010Prop54
  1
strokes_ogs.tif
102
RTVSPost2010PropOp54
 70
     1
102
RTVSPost2010Prop55
280
     0
102
RTVSPost2010PropOp55
 70
     1
102
RTVSPost2010Prop56
140
1.0
102
RTVSPost2010PropOp56
 70
     1
102
RTVSPost2010Prop57
140
1.0
102
RTVSPost2010PropOp57
 70
     1
  0
XRECORD
  5
1D4
102
{ACAD_REACTORS
330
1D3
102
}
330
1D3
100
AcDbXrecord
280
     1
102
RTVSPropertyOp0
 70
     1
102
RTVSPropertyOp1
 70
     1
102
RTVSPropertyOp2
 70
     1
102
RTVSPropertyOp3
 70
     1
102
RTVSPropertyOp4
 70
     1
102
RTVSPropertyOp5
 70
     1
102
RTVSPropertyOp6
 70
     1
102
RTVSPropertyOp7
 70
     1
102
RTVSPropertyOp8
 70
     1
102
RTVSPropertyOp9
 70
     1
102
RTVSPropertyOp10
 70
     1
102
RTVSPropertyOp11
 70
     1
102
RTVSPropertyOp12
 70
     1
102
RTVSPropertyOp13
 70
     1
102
RTVSPropertyOp14
 70
     1
102
RTVSPropertyOp15
 70
     1
102
RTVSPropertyOp16
 70
     1
102
RTVSPropertyOp17
 70
     1
102
RTVSPropertyOp18
 70
     1
102
RTVSPropertyOp19
 70
     1
102
RTVSPropertyOp20
 70
     1
102
RTVSPropertyOp21
 70
     1
102
RTVSPropertyOp22
 70
     1
102
RTVSPropertyOp23
 70
     1
102
RTVSPropertyOp24
 70
     1
102
RTVSPropertyOp25
 70
     1
102
RTVSPropertyOp26
 70
     1
102
RTVSPropertyOp27
 70
     1
102
RTVSPropertyOp28
 70
     1
102
RTVSPropertyOp29
 70
     1
102
RTVSPropertyOp30
 70
     1
102
RTVSPropertyOp31
 70
     1
102
RTVSPropertyOp32
 70
     1
102
RTVSPropertyOp33
 70
     1
102
RTVSPropertyOp34
 70
     1
102
RTVSPropertyOp35
 70
     1
102
RTVSPropertyOp36
 70
     1
102
RTVSPropertyOp37
 70
     1
102
RTVSPropertyOp38
 70
     1
102
RTVSPropertyOp39
 70
     1
102
RTVSPropertyOp40
 70
     1
102
RTVSPropertyOp41
 70
     1
102
RTVSPropertyOp42
 70
     1
102
RTVSPropertyOp43
 70
     1
102
RTVSPropertyOp44
 70
     1
102
RTVSPropertyOp45
 70
     1
102
RTVSPropertyOp46
 70
     1
102
RTVSPropertyOp47
 70
     1
102
RTVSPropertyOp48
 70
     1
102
RTVSPropertyOp49
 70
     1
102
RTVSPropertyOp50
 70
     1
102
RTVSPropertyOp51
 70
     0
102
RTVSPropertyOp52
 70
     0
102
RTVSPropertyOp53
 70
     1
102
RTVSPropertyOp54
 70
     1
102
RTVSPropertyOp55
 70
     1
102
RTVSPropertyOp56
 70
     1
102
RTVSPropertyOp57
 70
     1
102
RTVSPost2010Prop28
280
     0
102
RTVSPost2010PropOp28
 70
     1
102
RTVSPost2010Prop29
280
     1
102
RTVSPost2010PropOp29
 70
     1
102
RTVSPost2010Prop30
280
     1
102
RTVSPost2010PropOp30
 70
     1
102
RTVSPost2010Prop31
280
     0
102
RTVSPost2010PropOp31
 70
     1
102
RTVSPost2010Prop32
280
     0
102
RTVSPost2010PropOp32
 70
     1
102
RTVSPost2010Prop33
280
     0
102
RTVSPost2010PropOp33
 70
     1
102
RTVSPost2010Prop34
280
     0
102
RTVSPost2010PropOp34
 70
     1
102
RTVSPost2010Prop35
280
     0
102
RTVSPost2010PropOp35
 70
     1
102
RTVSPost2010Prop36
280
     0
102
RTVSPost2010PropOp36
 70
     1
102
RTVSPost2010Prop37
 90
       50
102
RTVSPost2010PropOp37
 70
     1
102
RTVSPost2010Prop38
140
0.0
102
RTVSPost2010PropOp38
 70
     1
102
RTVSPost2010Prop39
140
1.0
102
RTVSPost2010PropOp39
 70
     1
102
RTVSPost2010Prop40
 90
        0
102
RTVSPost2010PropOp40
 70
     1
102
RTVSPost2010Prop41ColorIndex
 90
       18
102
RTVSPost2010Prop41ColorRGB
 90
        0
102
RTVSPost2010PropOp41
 70
     1
102
RTVSPost2010Prop42
 90
       50
102
RTVSPost2010PropOp42
 70
     1
102
RTVSPost2010Prop43
 90
        3
102
RTVSPost2010PropOp43
 70
     1
102
RTVSPost2010Prop44ColorIndex
 90
        5
102
RTVSPost2010Prop44ColorRGB
 90
      255
102
RTVSPost2010PropOp44
 70
     1
102
RTVSPost2010Prop45
280
     0
102
RTVSPost2010PropOp45
 70
     1
102
RTVSPost2010Prop46
 90
       50
102
RTVSPost2010PropOp46
 70
     1
102
RTVSPost2010Prop47
 90
       50
102
RTVSPost2010PropOp47
 70
     1
102
RTVSPost2010Prop48
 90
       50
102
RTVSPost2010PropOp48
 70
     1
102
RTVSPost2010Prop49
280
     0
102
RTVSPost2010PropOp49
 70
     1
102
RTVSPost2010Prop50
 90
       50
102
RTVSPost2010PropOp50
 70
     1
102
RTVSPost2010Prop51ColorIndex
 90
      256
102
RTVSPost2010Prop51ColorRGB
 90
-16777216
102
RTVSPost2010PropOp51
 70
     0
102
RTVSPost2010Prop52
140
1.0
102
RTVSPost2010PropOp52
 70
     0
102
RTVSPost2010Prop53
 90
        2
102
RTVSPost2010PropOp53
 70
     1
102
RTVSPost2010Prop54
  1
strokes_ogs.tif
102
RTVSPost2010PropOp54
 70
     1
102
RTVSPost2010Prop55
280
     0
102
RTVSPost2010PropOp55
 70
     1
102
RTVSPost2010Prop56
140
1.0
102
RTVSPost2010PropOp56
 70
     1
102
RTVSPost2010Prop57
140
1.0
102
RTVSPost2010PropOp57
 70
     1
  0
XRECORD
  5
1C8
102
{ACAD_REACTORS
330
1C7
102
}
330
1C7
100
AcDbXrecord
280
     1
102
RTVSPropertyOp0
 70
     1
102
RTVSPropertyOp1
 70
     1
102
RTVSPropertyOp2
 70
     1
102
RTVSPropertyOp3
 70
     1
102
RTVSPropertyOp4
 70
     1
102
RTVSPropertyOp5
 70
     1
102
RTVSPropertyOp6
 70
     1
102
RTVSPropertyOp7
 70
     1
102
RTVSPropertyOp8
 70
     1
102
RTVSPropertyOp9
 70
     1
102
RTVSPropertyOp10
 70
     1
102
RTVSPropertyOp11
 70
     1
102
RTVSPropertyOp12
 70
     1
102
RTVSPropertyOp13
 70
     1
102
RTVSPropertyOp14
 70
     1
102
RTVSPropertyOp15
 70
     1
102
RTVSPropertyOp16
 70
     1
102
RTVSPropertyOp17
 70
     1
102
RTVSPropertyOp18
 70
     1
102
RTVSPropertyOp19
 70
     1
102
RTVSPropertyOp20
 70
     1
102
RTVSPropertyOp21
 70
     1
102
RTVSPropertyOp22
 70
     1
102
RTVSPropertyOp23
 70
     1
102
RTVSPropertyOp24
 70
     1
102
RTVSPropertyOp25
 70
     1
102
RTVSPropertyOp26
 70
     1
102
RTVSPropertyOp27
 70
     1
102
RTVSPropertyOp28
 70
     1
102
RTVSPropertyOp29
 70
     1
102
RTVSPropertyOp30
 70
     1
102
RTVSPropertyOp31
 70
     1
102
RTVSPropertyOp32
 70
     1
102
RTVSPropertyOp33
 70
     1
102
RTVSPropertyOp34
 70
     1
102
RTVSPropertyOp35
 70
     1
102
RTVSPropertyOp36
 70
     1
102
RTVSPropertyOp37
 70
     1
102
RTVSPropertyOp38
 70
     1
102
RTVSPropertyOp39
 70
     1
102
RTVSPropertyOp40
 70
     1
102
RTVSPropertyOp41
 70
     1
102
RTVSPropertyOp42
 70
     1
102
RTVSPropertyOp43
 70
     1
102
RTVSPropertyOp44
 70
     1
102
RTVSPropertyOp45
 70
     1
102
RTVSPropertyOp46
 70
     1
102
RTVSPropertyOp47
 70
     1
102
RTVSPropertyOp48
 70
     1
102
RTVSPropertyOp49
 70
     1
102
RTVSPropertyOp50
 70
     1
102
RTVSPropertyOp51
 70
     0
102
RTVSPropertyOp52
 70
     0
102
RTVSPropertyOp53
 70
     1
102
RTVSPropertyOp54
 70
     1
102
RTVSPropertyOp55
 70
     1
102
RTVSPropertyOp56
 70
     1
102
RTVSPropertyOp57
 70
     1
102
RTVSPost2010Prop28
280
     0
102
RTVSPost2010PropOp28
 70
     1
102
RTVSPost2010Prop29
280
     1
102
RTVSPost2010PropOp29
 70
     1
102
RTVSPost2010Prop30
280
     1
102
RTVSPost2010PropOp30
 70
     1
102
RTVSPost2010Prop31
280
     0
102
RTVSPost2010PropOp31
 70
     1
102
RTVSPost2010Prop32
280
     0
102
RTVSPost2010PropOp32
 70
     1
102
RTVSPost2010Prop33
280
     0
102
RTVSPost2010PropOp33
 70
     1
102
RTVSPost2010Prop34
280
     0
102
RTVSPost2010PropOp34
 70
     1
102
RTVSPost2010Prop35
280
     0
102
RTVSPost2010PropOp35
 70
     1
102
RTVSPost2010Prop36
280
     0
102
RTVSPost2010PropOp36
 70
     1
102
RTVSPost2010Prop37
 90
       50
102
RTVSPost2010PropOp37
 70
     1
102
RTVSPost2010Prop38
140
0.0
102
RTVSPost2010PropOp38
 70
     1
102
RTVSPost2010Prop39
140
1.0
102
RTVSPost2010PropOp39
 70
     1
102
RTVSPost2010Prop40
 90
        0
102
RTVSPost2010PropOp40
 70
     1
102
RTVSPost2010Prop41ColorIndex
 90
       18
102
RTVSPost2010Prop41ColorRGB
 90
        0
102
RTVSPost2010PropOp41
 70
     1
102
RTVSPost2010Prop42
 90
       50
102
RTVSPost2010PropOp42
 70
     1
102
RTVSPost2010Prop43
 90
        3
102
RTVSPost2010PropOp43
 70
     1
102
RTVSPost2010Prop44ColorIndex
 90
        5
102
RTVSPost2010Prop44ColorRGB
 90
      255
102
RTVSPost2010PropOp44
 70
     1
102
RTVSPost2010Prop45
280
     0
102
RTVSPost2010PropOp45
 70
     1
102
RTVSPost2010Prop46
 90
       50
102
RTVSPost2010PropOp46
 70
     1
102
RTVSPost2010Prop47
 90
       50
102
RTVSPost2010PropOp47
 70
     1
102
RTVSPost2010Prop48
 90
       50
102
RTVSPost2010PropOp48
 70
     1
102
RTVSPost2010Prop49
280
     0
102
RTVSPost2010PropOp49
 70
     1
102
RTVSPost2010Prop50
 90
       50
102
RTVSPost2010PropOp50
 70
     1
102
RTVSPost2010Prop51ColorIndex
 90
      256
102
RTVSPost2010Prop51ColorRGB
 90
-16777216
102
RTVSPost2010PropOp51
 70
     0
102
RTVSPost2010Prop52
140
1.0
102
RTVSPost2010PropOp52
 70
     0
102
RTVSPost2010Prop53
 90
        2
102
RTVSPost2010PropOp53
 70
     1
102
RTVSPost2010Prop54
  1
strokes_ogs.tif
102
RTVSPost2010PropOp54
 70
     1
102
RTVSPost2010Prop55
280
     0
102
RTVSPost2010PropOp55
 70
     1
102
RTVSPost2010Prop56
140
1.0
102
RTVSPost2010PropOp56
 70
     1
102
RTVSPost2010Prop57
140
1.0
102
RTVSPost2010PropOp57
 70
     1
  0
XRECORD
  5
1CA
102
{ACAD_REACTORS
330
1C9
102
}
330
1C9
100
AcDbXrecord
280
     1
102
RTVSPropertyOp0
 70
     1
102
RTVSPropertyOp1
 70
     1
102
RTVSPropertyOp2
 70
     1
102
RTVSPropertyOp3
 70
     1
102
RTVSPropertyOp4
 70
     1
102
RTVSPropertyOp5
 70
     1
102
RTVSPropertyOp6
 70
     1
102
RTVSPropertyOp7
 70
     1
102
RTVSPropertyOp8
 70
     1
102
RTVSPropertyOp9
 70
     1
102
RTVSPropertyOp10
 70
     1
102
RTVSPropertyOp11
 70
     1
102
RTVSPropertyOp12
 70
     1
102
RTVSPropertyOp13
 70
     1
102
RTVSPropertyOp14
 70
     1
102
RTVSPropertyOp15
 70
     1
102
RTVSPropertyOp16
 70
     1
102
RTVSPropertyOp17
 70
     1
102
RTVSPropertyOp18
 70
     1
102
RTVSPropertyOp19
 70
     1
102
RTVSPropertyOp20
 70
     1
102
RTVSPropertyOp21
 70
     1
102
RTVSPropertyOp22
 70
     1
102
RTVSPropertyOp23
 70
     1
102
RTVSPropertyOp24
 70
     1
102
RTVSPropertyOp25
 70
     1
102
RTVSPropertyOp26
 70
     1
102
RTVSPropertyOp27
 70
     1
102
RTVSPropertyOp28
 70
     1
102
RTVSPropertyOp29
 70
     1
102
RTVSPropertyOp30
 70
     1
102
RTVSPropertyOp31
 70
     1
102
RTVSPropertyOp32
 70
     1
102
RTVSPropertyOp33
 70
     1
102
RTVSPropertyOp34
 70
     1
102
RTVSPropertyOp35
 70
     1
102
RTVSPropertyOp36
 70
     1
102
RTVSPropertyOp37
 70
     1
102
RTVSPropertyOp38
 70
     1
102
RTVSPropertyOp39
 70
     1
102
RTVSPropertyOp40
 70
     1
102
RTVSPropertyOp41
 70
     1
102
RTVSPropertyOp42
 70
     1
102
RTVSPropertyOp43
 70
     1
102
RTVSPropertyOp44
 70
     1
102
RTVSPropertyOp45
 70
     1
102
RTVSPropertyOp46
 70
     1
102
RTVSPropertyOp47
 70
     1
102
RTVSPropertyOp48
 70
     1
102
RTVSPropertyOp49
 70
     1
102
RTVSPropertyOp50
 70
     1
102
RTVSPropertyOp51
 70
     0
102
RTVSPropertyOp52
 70
     0
102
RTVSPropertyOp53
 70
     1
102
RTVSPropertyOp54
 70
     1
102
RTVSPropertyOp55
 70
     1
102
RTVSPropertyOp56
 70
     1
102
RTVSPropertyOp57
 70
     1
102
RTVSPost2010Prop28
280
     0
102
RTVSPost2010PropOp28
 70
     1
102
RTVSPost2010Prop29
280
     1
102
RTVSPost2010PropOp29
 70
     1
102
RTVSPost2010Prop30
280
     1
102
RTVSPost2010PropOp30
 70
     1
102
RTVSPost2010Prop31
280
     0
102
RTVSPost2010PropOp31
 70
     1
102
RTVSPost2010Prop32
280
     0
102
RTVSPost2010PropOp32
 70
     1
102
RTVSPost2010Prop33
280
     0
102
RTVSPost2010PropOp33
 70
     1
102
RTVSPost2010Prop34
280
     0
102
RTVSPost2010PropOp34
 70
     1
102
RTVSPost2010Prop35
280
     0
102
RTVSPost2010PropOp35
 70
     1
102
RTVSPost2010Prop36
280
     0
102
RTVSPost2010PropOp36
 70
     1
102
RTVSPost2010Prop37
 90
       50
102
RTVSPost2010PropOp37
 70
     1
102
RTVSPost2010Prop38
140
0.0
102
RTVSPost2010PropOp38
 70
     1
102
RTVSPost2010Prop39
140
1.0
102
RTVSPost2010PropOp39
 70
     1
102
RTVSPost2010Prop40
 90
        0
102
RTVSPost2010PropOp40
 70
     1
102
RTVSPost2010Prop41ColorIndex
 90
       18
102
RTVSPost2010Prop41ColorRGB
 90
        0
102
RTVSPost2010PropOp41
 70
     1
102
RTVSPost2010Prop42
 90
       50
102
RTVSPost2010PropOp42
 70
     1
102
RTVSPost2010Prop43
 90
        3
102
RTVSPost2010PropOp43
 70
     1
102
RTVSPost2010Prop44ColorIndex
 90
        5
102
RTVSPost2010Prop44ColorRGB
 90
      255
102
RTVSPost2010PropOp44
 70
     1
102
RTVSPost2010Prop45
280
     0
102
RTVSPost2010PropOp45
 70
     1
102
RTVSPost2010Prop46
 90
       50
102
RTVSPost2010PropOp46
 70
     1
102
RTVSPost2010Prop47
 90
       50
102
RTVSPost2010PropOp47
 70
     1
102
RTVSPost2010Prop48
 90
       50
102
RTVSPost2010PropOp48
 70
     1
102
RTVSPost2010Prop49
280
     0
102
RTVSPost2010PropOp49
 70
     1
102
RTVSPost2010Prop50
 90
       50
102
RTVSPost2010PropOp50
 70
     1
102
RTVSPost2010Prop51ColorIndex
 90
      256
102
RTVSPost2010Prop51ColorRGB
 90
-16777216
102
RTVSPost2010PropOp51
 70
     0
102
RTVSPost2010Prop52
140
1.0
102
RTVSPost2010PropOp52
 70
     0
102
RTVSPost2010Prop53
 90
        2
102
RTVSPost2010PropOp53
 70
     1
102
RTVSPost2010Prop54
  1
strokes_ogs.tif
102
RTVSPost2010PropOp54
 70
     1
102
RTVSPost2010Prop55
280
     0
102
RTVSPost2010PropOp55
 70
     1
102
RTVSPost2010Prop56
140
1.0
102
RTVSPost2010PropOp56
 70
     1
102
RTVSPost2010Prop57
140
1.0
102
RTVSPost2010PropOp57
 70
     1
  0
XRECORD
  5
1DA
102
{ACAD_REACTORS
330
1D9
102
}
330
1D9
100
AcDbXrecord
280
     1
102
RTVSPropertyOp0
 70
     0
102
RTVSPropertyOp1
 70
     0
102
RTVSPropertyOp2
 70
     0
102
RTVSPropertyOp3
 70
     0
102
RTVSPropertyOp4
 70
     0
102
RTVSPropertyOp5
 70
     0
102
RTVSPropertyOp6
 70
     0
102
RTVSPropertyOp7
 70
     0
102
RTVSPropertyOp8
 70
     0
102
RTVSPropertyOp9
 70
     0
102
RTVSPropertyOp10
 70
     0
102
RTVSPropertyOp11
 70
     0
102
RTVSPropertyOp12
 70
     0
102
RTVSPropertyOp13
 70
     0
102
RTVSPropertyOp14
 70
     2
102
RTVSPropertyOp15
 70
     0
102
RTVSPropertyOp16
 70
     0
102
RTVSPropertyOp17
 70
     0
102
RTVSPropertyOp18
 70
     0
102
RTVSPropertyOp19
 70
     0
102
RTVSPropertyOp20
 70
     0
102
RTVSPropertyOp21
 70
     0
102
RTVSPropertyOp22
 70
     0
102
RTVSPropertyOp23
 70
     0
102
RTVSPropertyOp24
 70
     0
102
RTVSPropertyOp25
 70
     0
102
RTVSPropertyOp26
 70
     0
102
RTVSPropertyOp27
 70
     0
102
RTVSPropertyOp28
 70
     0
102
RTVSPropertyOp29
 70
     0
102
RTVSPropertyOp30
 70
     0
102
RTVSPropertyOp31
 70
     0
102
RTVSPropertyOp32
 70
     0
102
RTVSPropertyOp33
 70
     0
102
RTVSPropertyOp34
 70
     0
102
RTVSPropertyOp35
 70
     0
102
RTVSPropertyOp36
 70
     0
102
RTVSPropertyOp37
 70
     0
102
RTVSPropertyOp38
 70
     0
102
RTVSPropertyOp39
 70
     0
102
RTVSPropertyOp40
 70
     0
102
RTVSPropertyOp41
 70
     0
102
RTVSPropertyOp42
 70
     0
102
RTVSPropertyOp43
 70
     0
102
RTVSPropertyOp44
 70
     0
102
RTVSPropertyOp45
 70
     0
102
RTVSPropertyOp46
 70
     0
102
RTVSPropertyOp47
 70
     0
102
RTVSPropertyOp48
 70
     0
102
RTVSPropertyOp49
 70
     0
102
RTVSPropertyOp50
 70
     0
102
RTVSPropertyOp51
 70
     0
102
RTVSPropertyOp52
 70
     0
102
RTVSPropertyOp53
 70
     0
102
RTVSPropertyOp54
 70
     0
102
RTVSPropertyOp55
 70
     0
102
RTVSPropertyOp56
 70
     0
102
RTVSPropertyOp57
 70
     0
102
RTVSPost2010Prop28
280
     0
102
RTVSPost2010PropOp28
 70
     0
102
RTVSPost2010Prop29
280
     1
102
RTVSPost2010PropOp29
 70
     0
102
RTVSPost2010Prop30
280
     1
102
RTVSPost2010PropOp30
 70
     0
102
RTVSPost2010Prop31
280
     0
102
RTVSPost2010PropOp31
 70
     0
102
RTVSPost2010Prop32
280
     0
102
RTVSPost2010PropOp32
 70
     0
102
RTVSPost2010Prop33
280
     0
102
RTVSPost2010PropOp33
 70
     0
102
RTVSPost2010Prop34
280
     0
102
RTVSPost2010PropOp34
 70
     0
102
RTVSPost2010Prop35
280
     0
102
RTVSPost2010PropOp35
 70
     0
102
RTVSPost2010Prop36
280
     0
102
RTVSPost2010PropOp36
 70
     0
102
RTVSPost2010Prop37
 90
       50
102
RTVSPost2010PropOp37
 70
     0
102
RTVSPost2010Prop38
140
0.0
102
RTVSPost2010PropOp38
 70
     0
102
RTVSPost2010Prop39
140
1.0
102
RTVSPost2010PropOp39
 70
     0
102
RTVSPost2010Prop40
 90
        0
102
RTVSPost2010PropOp40
 70
     0
102
RTVSPost2010Prop41ColorIndex
 90
       18
102
RTVSPost2010Prop41ColorRGB
 90
        0
102
RTVSPost2010PropOp41
 70
     0
102
RTVSPost2010Prop42
 90
       50
102
RTVSPost2010PropOp42
 70
     0
102
RTVSPost2010Prop43
 90
        3
102
RTVSPost2010PropOp43
 70
     0
102
RTVSPost2010Prop44ColorIndex
 90
        5
102
RTVSPost2010Prop44ColorRGB
 90
      255
102
RTVSPost2010PropOp44
 70
     0
102
RTVSPost2010Prop45
280
     0
102
RTVSPost2010PropOp45
 70
     0
102
RTVSPost2010Prop46
 90
       50
102
RTVSPost2010PropOp46
 70
     0
102
RTVSPost2010Prop47
 90
       50
102
RTVSPost2010PropOp47
 70
     0
102
RTVSPost2010Prop48
 90
       50
102
RTVSPost2010PropOp48
 70
     0
102
RTVSPost2010Prop49
280
     0
102
RTVSPost2010PropOp49
 70
     0
102
RTVSPost2010Prop50
 90
       50
102
RTVSPost2010PropOp50
 70
     0
102
RTVSPost2010Prop51ColorIndex
 90
      256
102
RTVSPost2010Prop51ColorRGB
 90
-16777216
102
RTVSPost2010PropOp51
 70
     0
102
RTVSPost2010Prop52
140
1.0
102
RTVSPost2010PropOp52
 70
     0
102
RTVSPost2010Prop53
 90
        2
102
RTVSPost2010PropOp53
 70
     0
102
RTVSPost2010Prop54
  1
strokes_ogs.tif
102
RTVSPost2010PropOp54
 70
     0
102
RTVSPost2010Prop55
280
     0
102
RTVSPost2010PropOp55
 70
     0
102
RTVSPost2010Prop56
140
1.0
102
RTVSPost2010PropOp56
 70
     0
102
RTVSPost2010Prop57
140
1.0
102
RTVSPost2010PropOp57
 70
     0
  0
XRECORD
  5
1D2
102
{ACAD_REACTORS
330
1D1
102
}
330
1D1
100
AcDbXrecord
280
     1
102
RTVSPropertyOp0
 70
     1
102
RTVSPropertyOp1
 70
     1
102
RTVSPropertyOp2
 70
     1
102
RTVSPropertyOp3
 70
     1
102
RTVSPropertyOp4
 70
     1
102
RTVSPropertyOp5
 70
     1
102
RTVSPropertyOp6
 70
     1
102
RTVSPropertyOp7
 70
     1
102
RTVSPropertyOp8
 70
     1
102
RTVSPropertyOp9
 70
     1
102
RTVSPropertyOp10
 70
     1
102
RTVSPropertyOp11
 70
     1
102
RTVSPropertyOp12
 70
     1
102
RTVSPropertyOp13
 70
     1
102
RTVSPropertyOp14
 70
     1
102
RTVSPropertyOp15
 70
     1
102
RTVSPropertyOp16
 70
     1
102
RTVSPropertyOp17
 70
     1
102
RTVSPropertyOp18
 70
     1
102
RTVSPropertyOp19
 70
     1
102
RTVSPropertyOp20
 70
     1
102
RTVSPropertyOp21
 70
     1
102
RTVSPropertyOp22
 70
     1
102
RTVSPropertyOp23
 70
     1
102
RTVSPropertyOp24
 70
     1
102
RTVSPropertyOp25
 70
     1
102
RTVSPropertyOp26
 70
     1
102
RTVSPropertyOp27
 70
     1
102
RTVSPropertyOp28
 70
     1
102
RTVSPropertyOp29
 70
     1
102
RTVSPropertyOp30
 70
     1
102
RTVSPropertyOp31
 70
     1
102
RTVSPropertyOp32
 70
     1
102
RTVSPropertyOp33
 70
     1
102
RTVSPropertyOp34
 70
     1
102
RTVSPropertyOp35
 70
     1
102
RTVSPropertyOp36
 70
     1
102
RTVSPropertyOp37
 70
     1
102
RTVSPropertyOp38
 70
     1
102
RTVSPropertyOp39
 70
     1
102
RTVSPropertyOp40
 70
     1
102
RTVSPropertyOp41
 70
     1
102
RTVSPropertyOp42
 70
     1
102
RTVSPropertyOp43
 70
     1
102
RTVSPropertyOp44
 70
     1
102
RTVSPropertyOp45
 70
     1
102
RTVSPropertyOp46
 70
     1
102
RTVSPropertyOp47
 70
     1
102
RTVSPropertyOp48
 70
     1
102
RTVSPropertyOp49
 70
     1
102
RTVSPropertyOp50
 70
     1
102
RTVSPropertyOp51
 70
     0
102
RTVSPropertyOp52
 70
     0
102
RTVSPropertyOp53
 70
     1
102
RTVSPropertyOp54
 70
     1
102
RTVSPropertyOp55
 70
     1
102
RTVSPropertyOp56
 70
     1
102
RTVSPropertyOp57
 70
     1
102
RTVSPost2010Prop28
280
     0
102
RTVSPost2010PropOp28
 70
     1
102
RTVSPost2010Prop29
280
     1
102
RTVSPost2010PropOp29
 70
     1
102
RTVSPost2010Prop30
280
     1
102
RTVSPost2010PropOp30
 70
     1
102
RTVSPost2010Prop31
280
     0
102
RTVSPost2010PropOp31
 70
     1
102
RTVSPost2010Prop32
280
     0
102
RTVSPost2010PropOp32
 70
     1
102
RTVSPost2010Prop33
280
     0
102
RTVSPost2010PropOp33
 70
     1
102
RTVSPost2010Prop34
280
     0
102
RTVSPost2010PropOp34
 70
     1
102
RTVSPost2010Prop35
280
     0
102
RTVSPost2010PropOp35
 70
     1
102
RTVSPost2010Prop36
280
     0
102
RTVSPost2010PropOp36
 70
     1
102
RTVSPost2010Prop37
 90
       50
102
RTVSPost2010PropOp37
 70
     1
102
RTVSPost2010Prop38
140
0.0
102
RTVSPost2010PropOp38
 70
     1
102
RTVSPost2010Prop39
140
1.0
102
RTVSPost2010PropOp39
 70
     1
102
RTVSPost2010Prop40
 90
        0
102
RTVSPost2010PropOp40
 70
     1
102
RTVSPost2010Prop41ColorIndex
 90
       18
102
RTVSPost2010Prop41ColorRGB
 90
        0
102
RTVSPost2010PropOp41
 70
     1
102
RTVSPost2010Prop42
 90
       50
102
RTVSPost2010PropOp42
 70
     1
102
RTVSPost2010Prop43
 90
        3
102
RTVSPost2010PropOp43
 70
     1
102
RTVSPost2010Prop44ColorIndex
 90
        5
102
RTVSPost2010Prop44ColorRGB
 90
      255
102
RTVSPost2010PropOp44
 70
     1
102
RTVSPost2010Prop45
280
     0
102
RTVSPost2010PropOp45
 70
     1
102
RTVSPost2010Prop46
 90
       50
102
RTVSPost2010PropOp46
 70
     1
102
RTVSPost2010Prop47
 90
       50
102
RTVSPost2010PropOp47
 70
     1
102
RTVSPost2010Prop48
 90
       50
102
RTVSPost2010PropOp48
 70
     1
102
RTVSPost2010Prop49
280
     0
102
RTVSPost2010PropOp49
 70
     1
102
RTVSPost2010Prop50
 90
       50
102
RTVSPost2010PropOp50
 70
     1
102
RTVSPost2010Prop51ColorIndex
 90
      256
102
RTVSPost2010Prop51ColorRGB
 90
-16777216
102
RTVSPost2010PropOp51
 70
     0
102
RTVSPost2010Prop52
140
1.0
102
RTVSPost2010PropOp52
 70
     0
102
RTVSPost2010Prop53
 90
        2
102
RTVSPost2010PropOp53
 70
     1
102
RTVSPost2010Prop54
  1
strokes_ogs.tif
102
RTVSPost2010PropOp54
 70
     1
102
RTVSPost2010Prop55
280
     0
102
RTVSPost2010PropOp55
 70
     1
102
RTVSPost2010Prop56
140
1.0
102
RTVSPost2010PropOp56
 70
     1
102
RTVSPost2010Prop57
140
1.0
102
RTVSPost2010PropOp57
 70
     1
  0
XRECORD
  5
1B6
102
{ACAD_REACTORS
330
1B5
102
}
330
1B5
100
AcDbXrecord
280
     1
102
RTVSPropertyOp0
 70
     1
102
RTVSPropertyOp1
 70
     1
102
RTVSPropertyOp2
 70
     1
102
RTVSPropertyOp3
 70
     1
102
RTVSPropertyOp4
 70
     1
102
RTVSPropertyOp5
 70
     1
102
RTVSPropertyOp6
 70
     1
102
RTVSPropertyOp7
 70
     1
102
RTVSPropertyOp8
 70
     1
102
RTVSPropertyOp9
 70
     1
102
RTVSPropertyOp10
 70
     1
102
RTVSPropertyOp11
 70
     1
102
RTVSPropertyOp12
 70
     1
102
RTVSPropertyOp13
 70
     1
102
RTVSPropertyOp14
 70
     1
102
RTVSPropertyOp15
 70
     1
102
RTVSPropertyOp16
 70
     1
102
RTVSPropertyOp17
 70
     1
102
RTVSPropertyOp18
 70
     1
102
RTVSPropertyOp19
 70
     1
102
RTVSPropertyOp20
 70
     1
102
RTVSPropertyOp21
 70
     1
102
RTVSPropertyOp22
 70
     1
102
RTVSPropertyOp23
 70
     1
102
RTVSPropertyOp24
 70
     1
102
RTVSPropertyOp25
 70
     1
102
RTVSPropertyOp26
 70
     1
102
RTVSPropertyOp27
 70
     1
102
RTVSPropertyOp28
 70
     1
102
RTVSPropertyOp29
 70
     1
102
RTVSPropertyOp30
 70
     1
102
RTVSPropertyOp31
 70
     1
102
RTVSPropertyOp32
 70
     1
102
RTVSPropertyOp33
 70
     1
102
RTVSPropertyOp34
 70
     1
102
RTVSPropertyOp35
 70
     1
102
RTVSPropertyOp36
 70
     1
102
RTVSPropertyOp37
 70
     1
102
RTVSPropertyOp38
 70
     1
102
RTVSPropertyOp39
 70
     1
102
RTVSPropertyOp40
 70
     1
102
RTVSPropertyOp41
 70
     1
102
RTVSPropertyOp42
 70
     1
102
RTVSPropertyOp43
 70
     1
102
RTVSPropertyOp44
 70
     1
102
RTVSPropertyOp45
 70
     1
102
RTVSPropertyOp46
 70
     1
102
RTVSPropertyOp47
 70
     1
102
RTVSPropertyOp48
 70
     1
102
RTVSPropertyOp49
 70
     1
102
RTVSPropertyOp50
 70
     1
102
RTVSPropertyOp51
 70
     0
102
RTVSPropertyOp52
 70
     0
102
RTVSPropertyOp53
 70
     1
102
RTVSPropertyOp54
 70
     1
102
RTVSPropertyOp55
 70
     1
102
RTVSPropertyOp56
 70
     1
102
RTVSPropertyOp57
 70
     1
102
RTVSPost2010Prop28
280
     0
102
RTVSPost2010PropOp28
 70
     1
102
RTVSPost2010Prop29
280
     1
102
RTVSPost2010PropOp29
 70
     1
102
RTVSPost2010Prop30
280
     1
102
RTVSPost2010PropOp30
 70
     1
102
RTVSPost2010Prop31
280
     0
102
RTVSPost2010PropOp31
 70
     1
102
RTVSPost2010Prop32
280
     0
102
RTVSPost2010PropOp32
 70
     1
102
RTVSPost2010Prop33
280
     0
102
RTVSPost2010PropOp33
 70
     1
102
RTVSPost2010Prop34
280
     0
102
RTVSPost2010PropOp34
 70
     1
102
RTVSPost2010Prop35
280
     0
102
RTVSPost2010PropOp35
 70
     1
102
RTVSPost2010Prop36
280
     0
102
RTVSPost2010PropOp36
 70
     1
102
RTVSPost2010Prop37
 90
       50
102
RTVSPost2010PropOp37
 70
     1
102
RTVSPost2010Prop38
140
0.0
102
RTVSPost2010PropOp38
 70
     1
102
RTVSPost2010Prop39
140
1.0
102
RTVSPost2010PropOp39
 70
     1
102
RTVSPost2010Prop40
 90
        0
102
RTVSPost2010PropOp40
 70
     1
102
RTVSPost2010Prop41ColorIndex
 90
       18
102
RTVSPost2010Prop41ColorRGB
 90
        0
102
RTVSPost2010PropOp41
 70
     1
102
RTVSPost2010Prop42
 90
       50
102
RTVSPost2010PropOp42
 70
     1
102
RTVSPost2010Prop43
 90
        3
102
RTVSPost2010PropOp43
 70
     1
102
RTVSPost2010Prop44ColorIndex
 90
        5
102
RTVSPost2010Prop44ColorRGB
 90
      255
102
RTVSPost2010PropOp44
 70
     1
102
RTVSPost2010Prop45
280
     0
102
RTVSPost2010PropOp45
 70
     1
102
RTVSPost2010Prop46
 90
       50
102
RTVSPost2010PropOp46
 70
     1
102
RTVSPost2010Prop47
 90
       50
102
RTVSPost2010PropOp47
 70
     1
102
RTVSPost2010Prop48
 90
       50
102
RTVSPost2010PropOp48
 70
     1
102
RTVSPost2010Prop49
280
     0
102
RTVSPost2010PropOp49
 70
     1
102
RTVSPost2010Prop50
 90
       50
102
RTVSPost2010PropOp50
 70
     1
102
RTVSPost2010Prop51ColorIndex
 90
      256
102
RTVSPost2010Prop51ColorRGB
 90
-16777216
102
RTVSPost2010PropOp51
 70
     0
102
RTVSPost2010Prop52
140
1.0
102
RTVSPost2010PropOp52
 70
     0
102
RTVSPost2010Prop53
 90
        2
102
RTVSPost2010PropOp53
 70
     1
102
RTVSPost2010Prop54
  1
strokes_ogs.tif
102
RTVSPost2010PropOp54
 70
     1
102
RTVSPost2010Prop55
280
     0
102
RTVSPost2010PropOp55
 70
     1
102
RTVSPost2010Prop56
140
1.0
102
RTVSPost2010PropOp56
 70
     1
102
RTVSPost2010Prop57
140
1.0
102
RTVSPost2010PropOp57
 70
     1
  0
XRECORD
  5
1B8
102
{ACAD_REACTORS
330
1B7
102
}
330
1B7
100
AcDbXrecord
280
     1
102
RTVSPropertyOp0
 70
     1
102
RTVSPropertyOp1
 70
     1
102
RTVSPropertyOp2
 70
     1
102
RTVSPropertyOp3
 70
     1
102
RTVSPropertyOp4
 70
     1
102
RTVSPropertyOp5
 70
     1
102
RTVSPropertyOp6
 70
     1
102
RTVSPropertyOp7
 70
     1
102
RTVSPropertyOp8
 70
     1
102
RTVSPropertyOp9
 70
     1
102
RTVSPropertyOp10
 70
     1
102
RTVSPropertyOp11
 70
     1
102
RTVSPropertyOp12
 70
     1
102
RTVSPropertyOp13
 70
     1
102
RTVSPropertyOp14
 70
     1
102
RTVSPropertyOp15
 70
     1
102
RTVSPropertyOp16
 70
     1
102
RTVSPropertyOp17
 70
     1
102
RTVSPropertyOp18
 70
     1
102
RTVSPropertyOp19
 70
     1
102
RTVSPropertyOp20
 70
     1
102
RTVSPropertyOp21
 70
     1
102
RTVSPropertyOp22
 70
     1
102
RTVSPropertyOp23
 70
     1
102
RTVSPropertyOp24
 70
     1
102
RTVSPropertyOp25
 70
     1
102
RTVSPropertyOp26
 70
     1
102
RTVSPropertyOp27
 70
     1
102
RTVSPropertyOp28
 70
     1
102
RTVSPropertyOp29
 70
     1
102
RTVSPropertyOp30
 70
     1
102
RTVSPropertyOp31
 70
     1
102
RTVSPropertyOp32
 70
     1
102
RTVSPropertyOp33
 70
     1
102
RTVSPropertyOp34
 70
     1
102
RTVSPropertyOp35
 70
     1
102
RTVSPropertyOp36
 70
     1
102
RTVSPropertyOp37
 70
     1
102
RTVSPropertyOp38
 70
     1
102
RTVSPropertyOp39
 70
     1
102
RTVSPropertyOp40
 70
     1
102
RTVSPropertyOp41
 70
     1
102
RTVSPropertyOp42
 70
     1
102
RTVSPropertyOp43
 70
     1
102
RTVSPropertyOp44
 70
     1
102
RTVSPropertyOp45
 70
     1
102
RTVSPropertyOp46
 70
     1
102
RTVSPropertyOp47
 70
     1
102
RTVSPropertyOp48
 70
     1
102
RTVSPropertyOp49
 70
     1
102
RTVSPropertyOp50
 70
     1
102
RTVSPropertyOp51
 70
     0
102
RTVSPropertyOp52
 70
     0
102
RTVSPropertyOp53
 70
     1
102
RTVSPropertyOp54
 70
     1
102
RTVSPropertyOp55
 70
     1
102
RTVSPropertyOp56
 70
     1
102
RTVSPropertyOp57
 70
     1
102
RTVSPost2010Prop28
280
     0
102
RTVSPost2010PropOp28
 70
     1
102
RTVSPost2010Prop29
280
     1
102
RTVSPost2010PropOp29
 70
     1
102
RTVSPost2010Prop30
280
     1
102
RTVSPost2010PropOp30
 70
     1
102
RTVSPost2010Prop31
280
     0
102
RTVSPost2010PropOp31
 70
     1
102
RTVSPost2010Prop32
280
     0
102
RTVSPost2010PropOp32
 70
     1
102
RTVSPost2010Prop33
280
     0
102
RTVSPost2010PropOp33
 70
     1
102
RTVSPost2010Prop34
280
     0
102
RTVSPost2010PropOp34
 70
     1
102
RTVSPost2010Prop35
280
     0
102
RTVSPost2010PropOp35
 70
     1
102
RTVSPost2010Prop36
280
     0
102
RTVSPost2010PropOp36
 70
     1
102
RTVSPost2010Prop37
 90
       50
102
RTVSPost2010PropOp37
 70
     1
102
RTVSPost2010Prop38
140
0.0
102
RTVSPost2010PropOp38
 70
     1
102
RTVSPost2010Prop39
140
1.0
102
RTVSPost2010PropOp39
 70
     1
102
RTVSPost2010Prop40
 90
        0
102
RTVSPost2010PropOp40
 70
     1
102
RTVSPost2010Prop41ColorIndex
 90
       18
102
RTVSPost2010Prop41ColorRGB
 90
        0
102
RTVSPost2010PropOp41
 70
     1
102
RTVSPost2010Prop42
 90
       50
102
RTVSPost2010PropOp42
 70
     1
102
RTVSPost2010Prop43
 90
        3
102
RTVSPost2010PropOp43
 70
     1
102
RTVSPost2010Prop44ColorIndex
 90
        5
102
RTVSPost2010Prop44ColorRGB
 90
      255
102
RTVSPost2010PropOp44
 70
     1
102
RTVSPost2010Prop45
280
     0
102
RTVSPost2010PropOp45
 70
     1
102
RTVSPost2010Prop46
 90
       50
102
RTVSPost2010PropOp46
 70
     1
102
RTVSPost2010Prop47
 90
       50
102
RTVSPost2010PropOp47
 70
     1
102
RTVSPost2010Prop48
 90
       50
102
RTVSPost2010PropOp48
 70
     1
102
RTVSPost2010Prop49
280
     0
102
RTVSPost2010PropOp49
 70
     1
102
RTVSPost2010Prop50
 90
       50
102
RTVSPost2010PropOp50
 70
     1
102
RTVSPost2010Prop51ColorIndex
 90
      256
102
RTVSPost2010Prop51ColorRGB
 90
-16777216
102
RTVSPost2010PropOp51
 70
     0
102
RTVSPost2010Prop52
140
1.0
102
RTVSPost2010PropOp52
 70
     0
102
RTVSPost2010Prop53
 90
        2
102
RTVSPost2010PropOp53
 70
     1
102
RTVSPost2010Prop54
  1
strokes_ogs.tif
102
RTVSPost2010PropOp54
 70
     1
102
RTVSPost2010Prop55
280
     0
102
RTVSPost2010PropOp55
 70
     1
102
RTVSPost2010Prop56
140
1.0
102
RTVSPost2010PropOp56
 70
     1
102
RTVSPost2010Prop57
140
1.0
102
RTVSPost2010PropOp57
 70
     1
  0
XRECORD
  5
1BA
102
{ACAD_REACTORS
330
1B9
102
}
330
1B9
100
AcDbXrecord
280
     1
102
RTVSPropertyOp0
 70
     1
102
RTVSPropertyOp1
 70
     1
102
RTVSPropertyOp2
 70
     1
102
RTVSPropertyOp3
 70
     1
102
RTVSPropertyOp4
 70
     1
102
RTVSPropertyOp5
 70
     1
102
RTVSPropertyOp6
 70
     1
102
RTVSPropertyOp7
 70
     1
102
RTVSPropertyOp8
 70
     1
102
RTVSPropertyOp9
 70
     1
102
RTVSPropertyOp10
 70
     1
102
RTVSPropertyOp11
 70
     1
102
RTVSPropertyOp12
 70
     1
102
RTVSPropertyOp13
 70
     1
102
RTVSPropertyOp14
 70
     1
102
RTVSPropertyOp15
 70
     1
102
RTVSPropertyOp16
 70
     1
102
RTVSPropertyOp17
 70
     1
102
RTVSPropertyOp18
 70
     1
102
RTVSPropertyOp19
 70
     1
102
RTVSPropertyOp20
 70
     1
102
RTVSPropertyOp21
 70
     1
102
RTVSPropertyOp22
 70
     1
102
RTVSPropertyOp23
 70
     1
102
RTVSPropertyOp24
 70
     1
102
RTVSPropertyOp25
 70
     1
102
RTVSPropertyOp26
 70
     1
102
RTVSPropertyOp27
 70
     1
102
RTVSPropertyOp28
 70
     1
102
RTVSPropertyOp29
 70
     1
102
RTVSPropertyOp30
 70
     1
102
RTVSPropertyOp31
 70
     1
102
RTVSPropertyOp32
 70
     1
102
RTVSPropertyOp33
 70
     1
102
RTVSPropertyOp34
 70
     1
102
RTVSPropertyOp35
 70
     1
102
RTVSPropertyOp36
 70
     1
102
RTVSPropertyOp37
 70
     1
102
RTVSPropertyOp38
 70
     1
102
RTVSPropertyOp39
 70
     1
102
RTVSPropertyOp40
 70
     1
102
RTVSPropertyOp41
 70
     1
102
RTVSPropertyOp42
 70
     1
102
RTVSPropertyOp43
 70
     1
102
RTVSPropertyOp44
 70
     1
102
RTVSPropertyOp45
 70
     1
102
RTVSPropertyOp46
 70
     1
102
RTVSPropertyOp47
 70
     1
102
RTVSPropertyOp48
 70
     1
102
RTVSPropertyOp49
 70
     1
102
RTVSPropertyOp50
 70
     1
102
RTVSPropertyOp51
 70
     0
102
RTVSPropertyOp52
 70
     0
102
RTVSPropertyOp53
 70
     1
102
RTVSPropertyOp54
 70
     1
102
RTVSPropertyOp55
 70
     1
102
RTVSPropertyOp56
 70
     1
102
RTVSPropertyOp57
 70
     1
102
RTVSPost2010Prop28
280
     0
102
RTVSPost2010PropOp28
 70
     1
102
RTVSPost2010Prop29
280
     1
102
RTVSPost2010PropOp29
 70
     1
102
RTVSPost2010Prop30
280
     1
102
RTVSPost2010PropOp30
 70
     1
102
RTVSPost2010Prop31
280
     0
102
RTVSPost2010PropOp31
 70
     1
102
RTVSPost2010Prop32
280
     0
102
RTVSPost2010PropOp32
 70
     1
102
RTVSPost2010Prop33
280
     0
102
RTVSPost2010PropOp33
 70
     1
102
RTVSPost2010Prop34
280
     0
102
RTVSPost2010PropOp34
 70
     1
102
RTVSPost2010Prop35
280
     0
102
RTVSPost2010PropOp35
 70
     1
102
RTVSPost2010Prop36
280
     0
102
RTVSPost2010PropOp36
 70
     1
102
RTVSPost2010Prop37
 90
       50
102
RTVSPost2010PropOp37
 70
     1
102
RTVSPost2010Prop38
140
0.0
102
RTVSPost2010PropOp38
 70
     1
102
RTVSPost2010Prop39
140
1.0
102
RTVSPost2010PropOp39
 70
     1
102
RTVSPost2010Prop40
 90
        0
102
RTVSPost2010PropOp40
 70
     1
102
RTVSPost2010Prop41ColorIndex
 90
       18
102
RTVSPost2010Prop41ColorRGB
 90
        0
102
RTVSPost2010PropOp41
 70
     1
102
RTVSPost2010Prop42
 90
       50
102
RTVSPost2010PropOp42
 70
     1
102
RTVSPost2010Prop43
 90
        3
102
RTVSPost2010PropOp43
 70
     1
102
RTVSPost2010Prop44ColorIndex
 90
        5
102
RTVSPost2010Prop44ColorRGB
 90
      255
102
RTVSPost2010PropOp44
 70
     1
102
RTVSPost2010Prop45
280
     0
102
RTVSPost2010PropOp45
 70
     1
102
RTVSPost2010Prop46
 90
       50
102
RTVSPost2010PropOp46
 70
     1
102
RTVSPost2010Prop47
 90
       50
102
RTVSPost2010PropOp47
 70
     1
102
RTVSPost2010Prop48
 90
       50
102
RTVSPost2010PropOp48
 70
     1
102
RTVSPost2010Prop49
280
     0
102
RTVSPost2010PropOp49
 70
     1
102
RTVSPost2010Prop50
 90
       50
102
RTVSPost2010PropOp50
 70
     1
102
RTVSPost2010Prop51ColorIndex
 90
      256
102
RTVSPost2010Prop51ColorRGB
 90
-16777216
102
RTVSPost2010PropOp51
 70
     0
102
RTVSPost2010Prop52
140
1.0
102
RTVSPost2010PropOp52
 70
     0
102
RTVSPost2010Prop53
 90
        2
102
RTVSPost2010PropOp53
 70
     1
102
RTVSPost2010Prop54
  1
strokes_ogs.tif
102
RTVSPost2010PropOp54
 70
     1
102
RTVSPost2010Prop55
280
     0
102
RTVSPost2010PropOp55
 70
     1
102
RTVSPost2010Prop56
140
1.0
102
RTVSPost2010PropOp56
 70
     1
102
RTVSPost2010Prop57
140
1.0
102
RTVSPost2010PropOp57
 70
     1
  0
XRECORD
  5
1BC
102
{ACAD_REACTORS
330
1BB
102
}
330
1BB
100
AcDbXrecord
280
     1
102
RTVSPropertyOp0
 70
     1
102
RTVSPropertyOp1
 70
     1
102
RTVSPropertyOp2
 70
     1
102
RTVSPropertyOp3
 70
     1
102
RTVSPropertyOp4
 70
     1
102
RTVSPropertyOp5
 70
     1
102
RTVSPropertyOp6
 70
     1
102
RTVSPropertyOp7
 70
     1
102
RTVSPropertyOp8
 70
     1
102
RTVSPropertyOp9
 70
     1
102
RTVSPropertyOp10
 70
     1
102
RTVSPropertyOp11
 70
     1
102
RTVSPropertyOp12
 70
     1
102
RTVSPropertyOp13
 70
     1
102
RTVSPropertyOp14
 70
     1
102
RTVSPropertyOp15
 70
     1
102
RTVSPropertyOp16
 70
     1
102
RTVSPropertyOp17
 70
     1
102
RTVSPropertyOp18
 70
     1
102
RTVSPropertyOp19
 70
     1
102
RTVSPropertyOp20
 70
     1
102
RTVSPropertyOp21
 70
     1
102
RTVSPropertyOp22
 70
     1
102
RTVSPropertyOp23
 70
     1
102
RTVSPropertyOp24
 70
     1
102
RTVSPropertyOp25
 70
     1
102
RTVSPropertyOp26
 70
     1
102
RTVSPropertyOp27
 70
     1
102
RTVSPropertyOp28
 70
     1
102
RTVSPropertyOp29
 70
     1
102
RTVSPropertyOp30
 70
     1
102
RTVSPropertyOp31
 70
     1
102
RTVSPropertyOp32
 70
     1
102
RTVSPropertyOp33
 70
     1
102
RTVSPropertyOp34
 70
     1
102
RTVSPropertyOp35
 70
     1
102
RTVSPropertyOp36
 70
     1
102
RTVSPropertyOp37
 70
     1
102
RTVSPropertyOp38
 70
     1
102
RTVSPropertyOp39
 70
     1
102
RTVSPropertyOp40
 70
     1
102
RTVSPropertyOp41
 70
     1
102
RTVSPropertyOp42
 70
     1
102
RTVSPropertyOp43
 70
     1
102
RTVSPropertyOp44
 70
     1
102
RTVSPropertyOp45
 70
     1
102
RTVSPropertyOp46
 70
     1
102
RTVSPropertyOp47
 70
     1
102
RTVSPropertyOp48
 70
     1
102
RTVSPropertyOp49
 70
     1
102
RTVSPropertyOp50
 70
     1
102
RTVSPropertyOp51
 70
     0
102
RTVSPropertyOp52
 70
     0
102
RTVSPropertyOp53
 70
     1
102
RTVSPropertyOp54
 70
     1
102
RTVSPropertyOp55
 70
     1
102
RTVSPropertyOp56
 70
     1
102
RTVSPropertyOp57
 70
     1
102
RTVSPost2010Prop28
280
     0
102
RTVSPost2010PropOp28
 70
     1
102
RTVSPost2010Prop29
280
     1
102
RTVSPost2010PropOp29
 70
     1
102
RTVSPost2010Prop30
280
     1
102
RTVSPost2010PropOp30
 70
     1
102
RTVSPost2010Prop31
280
     0
102
RTVSPost2010PropOp31
 70
     1
102
RTVSPost2010Prop32
280
     0
102
RTVSPost2010PropOp32
 70
     1
102
RTVSPost2010Prop33
280
     0
102
RTVSPost2010PropOp33
 70
     1
102
RTVSPost2010Prop34
280
     0
102
RTVSPost2010PropOp34
 70
     1
102
RTVSPost2010Prop35
280
     0
102
RTVSPost2010PropOp35
 70
     1
102
RTVSPost2010Prop36
280
     0
102
RTVSPost2010PropOp36
 70
     1
102
RTVSPost2010Prop37
 90
       50
102
RTVSPost2010PropOp37
 70
     1
102
RTVSPost2010Prop38
140
0.0
102
RTVSPost2010PropOp38
 70
     1
102
RTVSPost2010Prop39
140
1.0
102
RTVSPost2010PropOp39
 70
     1
102
RTVSPost2010Prop40
 90
        0
102
RTVSPost2010PropOp40
 70
     1
102
RTVSPost2010Prop41ColorIndex
 90
       18
102
RTVSPost2010Prop41ColorRGB
 90
        0
102
RTVSPost2010PropOp41
 70
     1
102
RTVSPost2010Prop42
 90
       50
102
RTVSPost2010PropOp42
 70
     1
102
RTVSPost2010Prop43
 90
        3
102
RTVSPost2010PropOp43
 70
     1
102
RTVSPost2010Prop44ColorIndex
 90
        5
102
RTVSPost2010Prop44ColorRGB
 90
      255
102
RTVSPost2010PropOp44
 70
     1
102
RTVSPost2010Prop45
280
     0
102
RTVSPost2010PropOp45
 70
     1
102
RTVSPost2010Prop46
 90
       50
102
RTVSPost2010PropOp46
 70
     1
102
RTVSPost2010Prop47
 90
       50
102
RTVSPost2010PropOp47
 70
     1
102
RTVSPost2010Prop48
 90
       50
102
RTVSPost2010PropOp48
 70
     1
102
RTVSPost2010Prop49
280
     0
102
RTVSPost2010PropOp49
 70
     1
102
RTVSPost2010Prop50
 90
       50
102
RTVSPost2010PropOp50
 70
     1
102
RTVSPost2010Prop51ColorIndex
 90
      256
102
RTVSPost2010Prop51ColorRGB
 90
-16777216
102
RTVSPost2010PropOp51
 70
     0
102
RTVSPost2010Prop52
140
1.0
102
RTVSPost2010PropOp52
 70
     0
102
RTVSPost2010Prop53
 90
        2
102
RTVSPost2010PropOp53
 70
     1
102
RTVSPost2010Prop54
  1
strokes_ogs.tif
102
RTVSPost2010PropOp54
 70
     1
102
RTVSPost2010Prop55
280
     0
102
RTVSPost2010PropOp55
 70
     1
102
RTVSPost2010Prop56
140
1.0
102
RTVSPost2010PropOp56
 70
     1
102
RTVSPost2010Prop57
140
1.0
102
RTVSPost2010PropOp57
 70
     1
  0
XRECORD
  5
1C2
102
{ACAD_REACTORS
330
1C1
102
}
330
1C1
100
AcDbXrecord
280
     1
102
RTVSPropertyOp0
 70
     1
102
RTVSPropertyOp1
 70
     1
102
RTVSPropertyOp2
 70
     1
102
RTVSPropertyOp3
 70
     1
102
RTVSPropertyOp4
 70
     1
102
RTVSPropertyOp5
 70
     1
102
RTVSPropertyOp6
 70
     1
102
RTVSPropertyOp7
 70
     1
102
RTVSPropertyOp8
 70
     1
102
RTVSPropertyOp9
 70
     1
102
RTVSPropertyOp10
 70
     1
102
RTVSPropertyOp11
 70
     1
102
RTVSPropertyOp12
 70
     1
102
RTVSPropertyOp13
 70
     1
102
RTVSPropertyOp14
 70
     1
102
RTVSPropertyOp15
 70
     1
102
RTVSPropertyOp16
 70
     1
102
RTVSPropertyOp17
 70
     1
102
RTVSPropertyOp18
 70
     1
102
RTVSPropertyOp19
 70
     1
102
RTVSPropertyOp20
 70
     1
102
RTVSPropertyOp21
 70
     1
102
RTVSPropertyOp22
 70
     1
102
RTVSPropertyOp23
 70
     1
102
RTVSPropertyOp24
 70
     1
102
RTVSPropertyOp25
 70
     1
102
RTVSPropertyOp26
 70
     1
102
RTVSPropertyOp27
 70
     1
102
RTVSPropertyOp28
 70
     1
102
RTVSPropertyOp29
 70
     1
102
RTVSPropertyOp30
 70
     1
102
RTVSPropertyOp31
 70
     1
102
RTVSPropertyOp32
 70
     1
102
RTVSPropertyOp33
 70
     1
102
RTVSPropertyOp34
 70
     1
102
RTVSPropertyOp35
 70
     1
102
RTVSPropertyOp36
 70
     1
102
RTVSPropertyOp37
 70
     1
102
RTVSPropertyOp38
 70
     1
102
RTVSPropertyOp39
 70
     1
102
RTVSPropertyOp40
 70
     1
102
RTVSPropertyOp41
 70
     1
102
RTVSPropertyOp42
 70
     1
102
RTVSPropertyOp43
 70
     1
102
RTVSPropertyOp44
 70
     1
102
RTVSPropertyOp45
 70
     1
102
RTVSPropertyOp46
 70
     1
102
RTVSPropertyOp47
 70
     1
102
RTVSPropertyOp48
 70
     1
102
RTVSPropertyOp49
 70
     1
102
RTVSPropertyOp50
 70
     1
102
RTVSPropertyOp51
 70
     0
102
RTVSPropertyOp52
 70
     0
102
RTVSPropertyOp53
 70
     1
102
RTVSPropertyOp54
 70
     1
102
RTVSPropertyOp55
 70
     1
102
RTVSPropertyOp56
 70
     1
102
RTVSPropertyOp57
 70
     1
102
RTVSPost2010Prop28
280
     0
102
RTVSPost2010PropOp28
 70
     1
102
RTVSPost2010Prop29
280
     1
102
RTVSPost2010PropOp29
 70
     1
102
RTVSPost2010Prop30
280
     1
102
RTVSPost2010PropOp30
 70
     1
102
RTVSPost2010Prop31
280
     0
102
RTVSPost2010PropOp31
 70
     1
102
RTVSPost2010Prop32
280
     0
102
RTVSPost2010PropOp32
 70
     1
102
RTVSPost2010Prop33
280
     0
102
RTVSPost2010PropOp33
 70
     1
102
RTVSPost2010Prop34
280
     0
102
RTVSPost2010PropOp34
 70
     1
102
RTVSPost2010Prop35
280
     0
102
RTVSPost2010PropOp35
 70
     1
102
RTVSPost2010Prop36
280
     0
102
RTVSPost2010PropOp36
 70
     1
102
RTVSPost2010Prop37
 90
       50
102
RTVSPost2010PropOp37
 70
     1
102
RTVSPost2010Prop38
140
0.0
102
RTVSPost2010PropOp38
 70
     1
102
RTVSPost2010Prop39
140
1.0
102
RTVSPost2010PropOp39
 70
     1
102
RTVSPost2010Prop40
 90
        0
102
RTVSPost2010PropOp40
 70
     1
102
RTVSPost2010Prop41ColorIndex
 90
       18
102
RTVSPost2010Prop41ColorRGB
 90
        0
102
RTVSPost2010PropOp41
 70
     1
102
RTVSPost2010Prop42
 90
       50
102
RTVSPost2010PropOp42
 70
     1
102
RTVSPost2010Prop43
 90
        3
102
RTVSPost2010PropOp43
 70
     1
102
RTVSPost2010Prop44ColorIndex
 90
        5
102
RTVSPost2010Prop44ColorRGB
 90
      255
102
RTVSPost2010PropOp44
 70
     1
102
RTVSPost2010Prop45
280
     0
102
RTVSPost2010PropOp45
 70
     1
102
RTVSPost2010Prop46
 90
       50
102
RTVSPost2010PropOp46
 70
     1
102
RTVSPost2010Prop47
 90
       50
102
RTVSPost2010PropOp47
 70
     1
102
RTVSPost2010Prop48
 90
       50
102
RTVSPost2010PropOp48
 70
     1
102
RTVSPost2010Prop49
280
     0
102
RTVSPost2010PropOp49
 70
     1
102
RTVSPost2010Prop50
 90
       50
102
RTVSPost2010PropOp50
 70
     1
102
RTVSPost2010Prop51ColorIndex
 90
      256
102
RTVSPost2010Prop51ColorRGB
 90
-16777216
102
RTVSPost2010PropOp51
 70
     0
102
RTVSPost2010Prop52
140
1.0
102
RTVSPost2010PropOp52
 70
     0
102
RTVSPost2010Prop53
 90
        2
102
RTVSPost2010PropOp53
 70
     1
102
RTVSPost2010Prop54
  1
strokes_ogs.tif
102
RTVSPost2010PropOp54
 70
     1
102
RTVSPost2010Prop55
280
     0
102
RTVSPost2010PropOp55
 70
     1
102
RTVSPost2010Prop56
140
1.0
102
RTVSPost2010PropOp56
 70
     1
102
RTVSPost2010Prop57
140
1.0
102
RTVSPost2010PropOp57
 70
     1
  0
XRECORD
  5
1D6
102
{ACAD_REACTORS
330
1D5
102
}
330
1D5
100
AcDbXrecord
280
     1
102
RTVSPropertyOp0
 70
     0
102
RTVSPropertyOp1
 70
     0
102
RTVSPropertyOp2
 70
     0
102
RTVSPropertyOp3
 70
     0
102
RTVSPropertyOp4
 70
     0
102
RTVSPropertyOp5
 70
     0
102
RTVSPropertyOp6
 70
     0
102
RTVSPropertyOp7
 70
     0
102
RTVSPropertyOp8
 70
     0
102
RTVSPropertyOp9
 70
     0
102
RTVSPropertyOp10
 70
     0
102
RTVSPropertyOp11
 70
     0
102
RTVSPropertyOp12
 70
     0
102
RTVSPropertyOp13
 70
     0
102
RTVSPropertyOp14
 70
     2
102
RTVSPropertyOp15
 70
     0
102
RTVSPropertyOp16
 70
     0
102
RTVSPropertyOp17
 70
     0
102
RTVSPropertyOp18
 70
     0
102
RTVSPropertyOp19
 70
     0
102
RTVSPropertyOp20
 70
     0
102
RTVSPropertyOp21
 70
     0
102
RTVSPropertyOp22
 70
     0
102
RTVSPropertyOp23
 70
     0
102
RTVSPropertyOp24
 70
     0
102
RTVSPropertyOp25
 70
     0
102
RTVSPropertyOp26
 70
     0
102
RTVSPropertyOp27
 70
     0
102
RTVSPropertyOp28
 70
     0
102
RTVSPropertyOp29
 70
     0
102
RTVSPropertyOp30
 70
     0
102
RTVSPropertyOp31
 70
     0
102
RTVSPropertyOp32
 70
     0
102
RTVSPropertyOp33
 70
     0
102
RTVSPropertyOp34
 70
     0
102
RTVSPropertyOp35
 70
     0
102
RTVSPropertyOp36
 70
     0
102
RTVSPropertyOp37
 70
     0
102
RTVSPropertyOp38
 70
     0
102
RTVSPropertyOp39
 70
     0
102
RTVSPropertyOp40
 70
     0
102
RTVSPropertyOp41
 70
     0
102
RTVSPropertyOp42
 70
     0
102
RTVSPropertyOp43
 70
     0
102
RTVSPropertyOp44
 70
     0
102
RTVSPropertyOp45
 70
     0
102
RTVSPropertyOp46
 70
     0
102
RTVSPropertyOp47
 70
     0
102
RTVSPropertyOp48
 70
     0
102
RTVSPropertyOp49
 70
     0
102
RTVSPropertyOp50
 70
     0
102
RTVSPropertyOp51
 70
     0
102
RTVSPropertyOp52
 70
     0
102
RTVSPropertyOp53
 70
     0
102
RTVSPropertyOp54
 70
     0
102
RTVSPropertyOp55
 70
     0
102
RTVSPropertyOp56
 70
     0
102
RTVSPropertyOp57
 70
     0
102
RTVSPost2010Prop28
280
     0
102
RTVSPost2010PropOp28
 70
     0
102
RTVSPost2010Prop29
280
     1
102
RTVSPost2010PropOp29
 70
     0
102
RTVSPost2010Prop30
280
     1
102
RTVSPost2010PropOp30
 70
     0
102
RTVSPost2010Prop31
280
     0
102
RTVSPost2010PropOp31
 70
     0
102
RTVSPost2010Prop32
280
     0
102
RTVSPost2010PropOp32
 70
     0
102
RTVSPost2010Prop33
280
     0
102
RTVSPost2010PropOp33
 70
     0
102
RTVSPost2010Prop34
280
     0
102
RTVSPost2010PropOp34
 70
     0
102
RTVSPost2010Prop35
280
     0
102
RTVSPost2010PropOp35
 70
     0
102
RTVSPost2010Prop36
280
     0
102
RTVSPost2010PropOp36
 70
     0
102
RTVSPost2010Prop37
 90
       50
102
RTVSPost2010PropOp37
 70
     0
102
RTVSPost2010Prop38
140
0.0
102
RTVSPost2010PropOp38
 70
     0
102
RTVSPost2010Prop39
140
1.0
102
RTVSPost2010PropOp39
 70
     0
102
RTVSPost2010Prop40
 90
        0
102
RTVSPost2010PropOp40
 70
     0
102
RTVSPost2010Prop41ColorIndex
 90
       18
102
RTVSPost2010Prop41ColorRGB
 90
        0
102
RTVSPost2010PropOp41
 70
     0
102
RTVSPost2010Prop42
 90
       50
102
RTVSPost2010PropOp42
 70
     0
102
RTVSPost2010Prop43
 90
        3
102
RTVSPost2010PropOp43
 70
     0
102
RTVSPost2010Prop44ColorIndex
 90
        5
102
RTVSPost2010Prop44ColorRGB
 90
      255
102
RTVSPost2010PropOp44
 70
     0
102
RTVSPost2010Prop45
280
     0
102
RTVSPost2010PropOp45
 70
     0
102
RTVSPost2010Prop46
 90
       50
102
RTVSPost2010PropOp46
 70
     0
102
RTVSPost2010Prop47
 90
       50
102
RTVSPost2010PropOp47
 70
     0
102
RTVSPost2010Prop48
 90
       50
102
RTVSPost2010PropOp48
 70
     0
102
RTVSPost2010Prop49
280
     0
102
RTVSPost2010PropOp49
 70
     0
102
RTVSPost2010Prop50
 90
       50
102
RTVSPost2010PropOp50
 70
     0
102
RTVSPost2010Prop51ColorIndex
 90
      256
102
RTVSPost2010Prop51ColorRGB
 90
-16777216
102
RTVSPost2010PropOp51
 70
     0
102
RTVSPost2010Prop52
140
1.0
102
RTVSPost2010PropOp52
 70
     0
102
RTVSPost2010Prop53
 90
        2
102
RTVSPost2010PropOp53
 70
     0
102
RTVSPost2010Prop54
  1
strokes_ogs.tif
102
RTVSPost2010PropOp54
 70
     0
102
RTVSPost2010Prop55
280
     0
102
RTVSPost2010PropOp55
 70
     0
102
RTVSPost2010Prop56
140
1.0
102
RTVSPost2010PropOp56
 70
     0
102
RTVSPost2010Prop57
140
1.0
102
RTVSPost2010PropOp57
 70
     0
  0
XRECORD
  5
1D0
102
{ACAD_REACTORS
330
1CF
102
}
330
1CF
100
AcDbXrecord
280
     1
102
RTVSPropertyOp0
 70
     1
102
RTVSPropertyOp1
 70
     1
102
RTVSPropertyOp2
 70
     1
102
RTVSPropertyOp3
 70
     1
102
RTVSPropertyOp4
 70
     1
102
RTVSPropertyOp5
 70
     1
102
RTVSPropertyOp6
 70
     1
102
RTVSPropertyOp7
 70
     1
102
RTVSPropertyOp8
 70
     1
102
RTVSPropertyOp9
 70
     1
102
RTVSPropertyOp10
 70
     1
102
RTVSPropertyOp11
 70
     1
102
RTVSPropertyOp12
 70
     1
102
RTVSPropertyOp13
 70
     1
102
RTVSPropertyOp14
 70
     1
102
RTVSPropertyOp15
 70
     1
102
RTVSPropertyOp16
 70
     1
102
RTVSPropertyOp17
 70
     1
102
RTVSPropertyOp18
 70
     1
102
RTVSPropertyOp19
 70
     1
102
RTVSPropertyOp20
 70
     1
102
RTVSPropertyOp21
 70
     1
102
RTVSPropertyOp22
 70
     1
102
RTVSPropertyOp23
 70
     1
102
RTVSPropertyOp24
 70
     1
102
RTVSPropertyOp25
 70
     1
102
RTVSPropertyOp26
 70
     1
102
RTVSPropertyOp27
 70
     1
102
RTVSPropertyOp28
 70
     1
102
RTVSPropertyOp29
 70
     1
102
RTVSPropertyOp30
 70
     1
102
RTVSPropertyOp31
 70
     1
102
RTVSPropertyOp32
 70
     1
102
RTVSPropertyOp33
 70
     1
102
RTVSPropertyOp34
 70
     1
102
RTVSPropertyOp35
 70
     1
102
RTVSPropertyOp36
 70
     1
102
RTVSPropertyOp37
 70
     1
102
RTVSPropertyOp38
 70
     1
102
RTVSPropertyOp39
 70
     1
102
RTVSPropertyOp40
 70
     1
102
RTVSPropertyOp41
 70
     1
102
RTVSPropertyOp42
 70
     1
102
RTVSPropertyOp43
 70
     1
102
RTVSPropertyOp44
 70
     1
102
RTVSPropertyOp45
 70
     1
102
RTVSPropertyOp46
 70
     1
102
RTVSPropertyOp47
 70
     1
102
RTVSPropertyOp48
 70
     1
102
RTVSPropertyOp49
 70
     1
102
RTVSPropertyOp50
 70
     1
102
RTVSPropertyOp51
 70
     0
102
RTVSPropertyOp52
 70
     0
102
RTVSPropertyOp53
 70
     1
102
RTVSPropertyOp54
 70
     1
102
RTVSPropertyOp55
 70
     1
102
RTVSPropertyOp56
 70
     1
102
RTVSPropertyOp57
 70
     1
102
RTVSPost2010Prop28
280
     0
102
RTVSPost2010PropOp28
 70
     1
102
RTVSPost2010Prop29
280
     1
102
RTVSPost2010PropOp29
 70
     1
102
RTVSPost2010Prop30
280
     1
102
RTVSPost2010PropOp30
 70
     1
102
RTVSPost2010Prop31
280
     0
102
RTVSPost2010PropOp31
 70
     1
102
RTVSPost2010Prop32
280
     0
102
RTVSPost2010PropOp32
 70
     1
102
RTVSPost2010Prop33
280
     0
102
RTVSPost2010PropOp33
 70
     1
102
RTVSPost2010Prop34
280
     0
102
RTVSPost2010PropOp34
 70
     1
102
RTVSPost2010Prop35
280
     0
102
RTVSPost2010PropOp35
 70
     1
102
RTVSPost2010Prop36
280
     0
102
RTVSPost2010PropOp36
 70
     1
102
RTVSPost2010Prop37
 90
       50
102
RTVSPost2010PropOp37
 70
     1
102
RTVSPost2010Prop38
140
0.0
102
RTVSPost2010PropOp38
 70
     1
102
RTVSPost2010Prop39
140
1.0
102
RTVSPost2010PropOp39
 70
     1
102
RTVSPost2010Prop40
 90
        0
102
RTVSPost2010PropOp40
 70
     1
102
RTVSPost2010Prop41ColorIndex
 90
       18
102
RTVSPost2010Prop41ColorRGB
 90
        0
102
RTVSPost2010PropOp41
 70
     1
102
RTVSPost2010Prop42
 90
       50
102
RTVSPost2010PropOp42
 70
     1
102
RTVSPost2010Prop43
 90
        3
102
RTVSPost2010PropOp43
 70
     1
102
RTVSPost2010Prop44ColorIndex
 90
        5
102
RTVSPost2010Prop44ColorRGB
 90
      255
102
RTVSPost2010PropOp44
 70
     1
102
RTVSPost2010Prop45
280
     0
102
RTVSPost2010PropOp45
 70
     1
102
RTVSPost2010Prop46
 90
       50
102
RTVSPost2010PropOp46
 70
     1
102
RTVSPost2010Prop47
 90
       50
102
RTVSPost2010PropOp47
 70
     1
102
RTVSPost2010Prop48
 90
       50
102
RTVSPost2010PropOp48
 70
     1
102
RTVSPost2010Prop49
280
     0
102
RTVSPost2010PropOp49
 70
     1
102
RTVSPost2010Prop50
 90
       50
102
RTVSPost2010PropOp50
 70
     1
102
RTVSPost2010Prop51ColorIndex
 90
      256
102
RTVSPost2010Prop51ColorRGB
 90
-16777216
102
RTVSPost2010PropOp51
 70
     0
102
RTVSPost2010Prop52
140
1.0
102
RTVSPost2010PropOp52
 70
     0
102
RTVSPost2010Prop53
 90
        2
102
RTVSPost2010PropOp53
 70
     1
102
RTVSPost2010Prop54
  1
strokes_ogs.tif
102
RTVSPost2010PropOp54
 70
     1
102
RTVSPost2010Prop55
280
     0
102
RTVSPost2010PropOp55
 70
     1
102
RTVSPost2010Prop56
140
1.0
102
RTVSPost2010PropOp56
 70
     1
102
RTVSPost2010Prop57
140
1.0
102
RTVSPost2010PropOp57
 70
     1
  0
XRECORD
  5
1D8
102
{ACAD_REACTORS
330
1D7
102
}
330
1D7
100
AcDbXrecord
280
     1
102
RTVSPropertyOp0
 70
     0
102
RTVSPropertyOp1
 70
     0
102
RTVSPropertyOp2
 70
     0
102
RTVSPropertyOp3
 70
     0
102
RTVSPropertyOp4
 70
     0
102
RTVSPropertyOp5
 70
     0
102
RTVSPropertyOp6
 70
     0
102
RTVSPropertyOp7
 70
     0
102
RTVSPropertyOp8
 70
     0
102
RTVSPropertyOp9
 70
     0
102
RTVSPropertyOp10
 70
     0
102
RTVSPropertyOp11
 70
     0
102
RTVSPropertyOp12
 70
     0
102
RTVSPropertyOp13
 70
     0
102
RTVSPropertyOp14
 70
     2
102
RTVSPropertyOp15
 70
     0
102
RTVSPropertyOp16
 70
     0
102
RTVSPropertyOp17
 70
     0
102
RTVSPropertyOp18
 70
     0
102
RTVSPropertyOp19
 70
     0
102
RTVSPropertyOp20
 70
     0
102
RTVSPropertyOp21
 70
     0
102
RTVSPropertyOp22
 70
     0
102
RTVSPropertyOp23
 70
     0
102
RTVSPropertyOp24
 70
     0
102
RTVSPropertyOp25
 70
     0
102
RTVSPropertyOp26
 70
     0
102
RTVSPropertyOp27
 70
     0
102
RTVSPropertyOp28
 70
     0
102
RTVSPropertyOp29
 70
     0
102
RTVSPropertyOp30
 70
     0
102
RTVSPropertyOp31
 70
     0
102
RTVSPropertyOp32
 70
     0
102
RTVSPropertyOp33
 70
     0
102
RTVSPropertyOp34
 70
     0
102
RTVSPropertyOp35
 70
     0
102
RTVSPropertyOp36
 70
     0
102
RTVSPropertyOp37
 70
     0
102
RTVSPropertyOp38
 70
     0
102
RTVSPropertyOp39
 70
     0
102
RTVSPropertyOp40
 70
     0
102
RTVSPropertyOp41
 70
     0
102
RTVSPropertyOp42
 70
     0
102
RTVSPropertyOp43
 70
     0
102
RTVSPropertyOp44
 70
     0
102
RTVSPropertyOp45
 70
     0
102
RTVSPropertyOp46
 70
     0
102
RTVSPropertyOp47
 70
     0
102
RTVSPropertyOp48
 70
     0
102
RTVSPropertyOp49
 70
     0
102
RTVSPropertyOp50
 70
     0
102
RTVSPropertyOp51
 70
     0
102
RTVSPropertyOp52
 70
     0
102
RTVSPropertyOp53
 70
     0
102
RTVSPropertyOp54
 70
     0
102
RTVSPropertyOp55
 70
     0
102
RTVSPropertyOp56
 70
     0
102
RTVSPropertyOp57
 70
     0
102
RTVSPost2010Prop28
280
     0
102
RTVSPost2010PropOp28
 70
     0
102
RTVSPost2010Prop29
280
     1
102
RTVSPost2010PropOp29
 70
     0
102
RTVSPost2010Prop30
280
     1
102
RTVSPost2010PropOp30
 70
     0
102
RTVSPost2010Prop31
280
     0
102
RTVSPost2010PropOp31
 70
     0
102
RTVSPost2010Prop32
280
     0
102
RTVSPost2010PropOp32
 70
     0
102
RTVSPost2010Prop33
280
     0
102
RTVSPost2010PropOp33
 70
     0
102
RTVSPost2010Prop34
280
     0
102
RTVSPost2010PropOp34
 70
     0
102
RTVSPost2010Prop35
280
     0
102
RTVSPost2010PropOp35
 70
     0
102
RTVSPost2010Prop36
280
     0
102
RTVSPost2010PropOp36
 70
     0
102
RTVSPost2010Prop37
 90
       50
102
RTVSPost2010PropOp37
 70
     0
102
RTVSPost2010Prop38
140
0.0
102
RTVSPost2010PropOp38
 70
     0
102
RTVSPost2010Prop39
140
1.0
102
RTVSPost2010PropOp39
 70
     0
102
RTVSPost2010Prop40
 90
        0
102
RTVSPost2010PropOp40
 70
     0
102
RTVSPost2010Prop41ColorIndex
 90
       18
102
RTVSPost2010Prop41ColorRGB
 90
        0
102
RTVSPost2010PropOp41
 70
     0
102
RTVSPost2010Prop42
 90
       50
102
RTVSPost2010PropOp42
 70
     0
102
RTVSPost2010Prop43
 90
        3
102
RTVSPost2010PropOp43
 70
     0
102
RTVSPost2010Prop44ColorIndex
 90
        5
102
RTVSPost2010Prop44ColorRGB
 90
      255
102
RTVSPost2010PropOp44
 70
     0
102
RTVSPost2010Prop45
280
     0
102
RTVSPost2010PropOp45
 70
     0
102
RTVSPost2010Prop46
 90
       50
102
RTVSPost2010PropOp46
 70
     0
102
RTVSPost2010Prop47
 90
       50
102
RTVSPost2010PropOp47
 70
     0
102
RTVSPost2010Prop48
 90
       50
102
RTVSPost2010PropOp48
 70
     0
102
RTVSPost2010Prop49
280
     0
102
RTVSPost2010PropOp49
 70
     0
102
RTVSPost2010Prop50
 90
       50
102
RTVSPost2010PropOp50
 70
     0
102
RTVSPost2010Prop51ColorIndex
 90
      256
102
RTVSPost2010Prop51ColorRGB
 90
-16777216
102
RTVSPost2010PropOp51
 70
     0
102
RTVSPost2010Prop52
140
1.0
102
RTVSPost2010PropOp52
 70
     0
102
RTVSPost2010Prop53
 90
        2
102
RTVSPost2010PropOp53
 70
     0
102
RTVSPost2010Prop54
  1
strokes_ogs.tif
102
RTVSPost2010PropOp54
 70
     0
102
RTVSPost2010Prop55
280
     0
102
RTVSPost2010PropOp55
 70
     0
102
RTVSPost2010Prop56
140
1.0
102
RTVSPost2010PropOp56
 70
     0
102
RTVSPost2010Prop57
140
1.0
102
RTVSPost2010PropOp57
 70
     0
  0
XRECORD
  5
1C6
102
{ACAD_REACTORS
330
1C5
102
}
330
1C5
100
AcDbXrecord
280
     1
102
RTVSPropertyOp0
 70
     1
102
RTVSPropertyOp1
 70
     1
102
RTVSPropertyOp2
 70
     1
102
RTVSPropertyOp3
 70
     1
102
RTVSPropertyOp4
 70
     1
102
RTVSPropertyOp5
 70
     1
102
RTVSPropertyOp6
 70
     1
102
RTVSPropertyOp7
 70
     1
102
RTVSPropertyOp8
 70
     1
102
RTVSPropertyOp9
 70
     1
102
RTVSPropertyOp10
 70
     1
102
RTVSPropertyOp11
 70
     1
102
RTVSPropertyOp12
 70
     1
102
RTVSPropertyOp13
 70
     1
102
RTVSPropertyOp14
 70
     1
102
RTVSPropertyOp15
 70
     1
102
RTVSPropertyOp16
 70
     1
102
RTVSPropertyOp17
 70
     1
102
RTVSPropertyOp18
 70
     1
102
RTVSPropertyOp19
 70
     1
102
RTVSPropertyOp20
 70
     1
102
RTVSPropertyOp21
 70
     1
102
RTVSPropertyOp22
 70
     1
102
RTVSPropertyOp23
 70
     1
102
RTVSPropertyOp24
 70
     1
102
RTVSPropertyOp25
 70
     1
102
RTVSPropertyOp26
 70
     1
102
RTVSPropertyOp27
 70
     1
102
RTVSPropertyOp28
 70
     1
102
RTVSPropertyOp29
 70
     1
102
RTVSPropertyOp30
 70
     1
102
RTVSPropertyOp31
 70
     1
102
RTVSPropertyOp32
 70
     1
102
RTVSPropertyOp33
 70
     1
102
RTVSPropertyOp34
 70
     1
102
RTVSPropertyOp35
 70
     1
102
RTVSPropertyOp36
 70
     1
102
RTVSPropertyOp37
 70
     1
102
RTVSPropertyOp38
 70
     1
102
RTVSPropertyOp39
 70
     1
102
RTVSPropertyOp40
 70
     1
102
RTVSPropertyOp41
 70
     1
102
RTVSPropertyOp42
 70
     1
102
RTVSPropertyOp43
 70
     1
102
RTVSPropertyOp44
 70
     1
102
RTVSPropertyOp45
 70
     1
102
RTVSPropertyOp46
 70
     1
102
RTVSPropertyOp47
 70
     1
102
RTVSPropertyOp48
 70
     1
102
RTVSPropertyOp49
 70
     1
102
RTVSPropertyOp50
 70
     1
102
RTVSPropertyOp51
 70
     0
102
RTVSPropertyOp52
 70
     0
102
RTVSPropertyOp53
 70
     1
102
RTVSPropertyOp54
 70
     1
102
RTVSPropertyOp55
 70
     1
102
RTVSPropertyOp56
 70
     1
102
RTVSPropertyOp57
 70
     1
102
RTVSPost2010Prop28
280
     0
102
RTVSPost2010PropOp28
 70
     1
102
RTVSPost2010Prop29
280
     1
102
RTVSPost2010PropOp29
 70
     1
102
RTVSPost2010Prop30
280
     1
102
RTVSPost2010PropOp30
 70
     1
102
RTVSPost2010Prop31
280
     0
102
RTVSPost2010PropOp31
 70
     1
102
RTVSPost2010Prop32
280
     0
102
RTVSPost2010PropOp32
 70
     1
102
RTVSPost2010Prop33
280
     0
102
RTVSPost2010PropOp33
 70
     1
102
RTVSPost2010Prop34
280
     0
102
RTVSPost2010PropOp34
 70
     1
102
RTVSPost2010Prop35
280
     0
102
RTVSPost2010PropOp35
 70
     1
102
RTVSPost2010Prop36
280
     0
102
RTVSPost2010PropOp36
 70
     1
102
RTVSPost2010Prop37
 90
       50
102
RTVSPost2010PropOp37
 70
     1
102
RTVSPost2010Prop38
140
0.0
102
RTVSPost2010PropOp38
 70
     1
102
RTVSPost2010Prop39
140
1.0
102
RTVSPost2010PropOp39
 70
     1
102
RTVSPost2010Prop40
 90
        0
102
RTVSPost2010PropOp40
 70
     1
102
RTVSPost2010Prop41ColorIndex
 90
       18
102
RTVSPost2010Prop41ColorRGB
 90
        0
102
RTVSPost2010PropOp41
 70
     1
102
RTVSPost2010Prop42
 90
       50
102
RTVSPost2010PropOp42
 70
     1
102
RTVSPost2010Prop43
 90
        3
102
RTVSPost2010PropOp43
 70
     1
102
RTVSPost2010Prop44ColorIndex
 90
        5
102
RTVSPost2010Prop44ColorRGB
 90
      255
102
RTVSPost2010PropOp44
 70
     1
102
RTVSPost2010Prop45
280
     0
102
RTVSPost2010PropOp45
 70
     1
102
RTVSPost2010Prop46
 90
       50
102
RTVSPost2010PropOp46
 70
     1
102
RTVSPost2010Prop47
 90
       50
102
RTVSPost2010PropOp47
 70
     1
102
RTVSPost2010Prop48
 90
       50
102
RTVSPost2010PropOp48
 70
     1
102
RTVSPost2010Prop49
280
     0
102
RTVSPost2010PropOp49
 70
     1
102
RTVSPost2010Prop50
 90
       50
102
RTVSPost2010PropOp50
 70
     1
102
RTVSPost2010Prop51ColorIndex
 90
      256
102
RTVSPost2010Prop51ColorRGB
 90
-16777216
102
RTVSPost2010PropOp51
 70
     0
102
RTVSPost2010Prop52
140
1.0
102
RTVSPost2010PropOp52
 70
     0
102
RTVSPost2010Prop53
 90
        2
102
RTVSPost2010PropOp53
 70
     1
102
RTVSPost2010Prop54
  1
strokes_ogs.tif
102
RTVSPost2010PropOp54
 70
     1
102
RTVSPost2010Prop55
280
     0
102
RTVSPost2010PropOp55
 70
     1
102
RTVSPost2010Prop56
140
1.0
102
RTVSPost2010PropOp56
 70
     1
102
RTVSPost2010Prop57
140
1.0
102
RTVSPost2010PropOp57
 70
     1
  0
XRECORD
  5
1E4
102
{ACAD_REACTORS
330
1E3
102
}
330
1E3
100
AcDbXrecord
280
     1
102
RTVSPropertyOp0
 70
     1
102
RTVSPropertyOp1
 70
     1
102
RTVSPropertyOp2
 70
     1
102
RTVSPropertyOp3
 70
     1
102
RTVSPropertyOp4
 70
     1
102
RTVSPropertyOp5
 70
     1
102
RTVSPropertyOp6
 70
     1
102
RTVSPropertyOp7
 70
     1
102
RTVSPropertyOp8
 70
     1
102
RTVSPropertyOp9
 70
     1
102
RTVSPropertyOp10
 70
     1
102
RTVSPropertyOp11
 70
     1
102
RTVSPropertyOp12
 70
     1
102
RTVSPropertyOp13
 70
     1
102
RTVSPropertyOp14
 70
     1
102
RTVSPropertyOp15
 70
     1
102
RTVSPropertyOp16
 70
     1
102
RTVSPropertyOp17
 70
     1
102
RTVSPropertyOp18
 70
     1
102
RTVSPropertyOp19
 70
     1
102
RTVSPropertyOp20
 70
     1
102
RTVSPropertyOp21
 70
     1
102
RTVSPropertyOp22
 70
     1
102
RTVSPropertyOp23
 70
     1
102
RTVSPropertyOp24
 70
     1
102
RTVSPropertyOp25
 70
     1
102
RTVSPropertyOp26
 70
     1
102
RTVSPropertyOp27
 70
     1
102
RTVSPropertyOp28
 70
     1
102
RTVSPropertyOp29
 70
     1
102
RTVSPropertyOp30
 70
     1
102
RTVSPropertyOp31
 70
     1
102
RTVSPropertyOp32
 70
     1
102
RTVSPropertyOp33
 70
     1
102
RTVSPropertyOp34
 70
     1
102
RTVSPropertyOp35
 70
     1
102
RTVSPropertyOp36
 70
     1
102
RTVSPropertyOp37
 70
     1
102
RTVSPropertyOp38
 70
     1
102
RTVSPropertyOp39
 70
     1
102
RTVSPropertyOp40
 70
     1
102
RTVSPropertyOp41
 70
     1
102
RTVSPropertyOp42
 70
     1
102
RTVSPropertyOp43
 70
     1
102
RTVSPropertyOp44
 70
     1
102
RTVSPropertyOp45
 70
     1
102
RTVSPropertyOp46
 70
     1
102
RTVSPropertyOp47
 70
     1
102
RTVSPropertyOp48
 70
     1
102
RTVSPropertyOp49
 70
     1
102
RTVSPropertyOp50
 70
     1
102
RTVSPropertyOp51
 70
     0
102
RTVSPropertyOp52
 70
     0
102
RTVSPropertyOp53
 70
     1
102
RTVSPropertyOp54
 70
     1
102
RTVSPropertyOp55
 70
     1
102
RTVSPropertyOp56
 70
     1
102
RTVSPropertyOp57
 70
     1
102
RTVSPost2010Prop28
280
     0
102
RTVSPost2010PropOp28
 70
     1
102
RTVSPost2010Prop29
280
     1
102
RTVSPost2010PropOp29
 70
     1
102
RTVSPost2010Prop30
280
     1
102
RTVSPost2010PropOp30
 70
     1
102
RTVSPost2010Prop31
280
     0
102
RTVSPost2010PropOp31
 70
     1
102
RTVSPost2010Prop32
280
     0
102
RTVSPost2010PropOp32
 70
     1
102
RTVSPost2010Prop33
280
     0
102
RTVSPost2010PropOp33
 70
     1
102
RTVSPost2010Prop34
280
     0
102
RTVSPost2010PropOp34
 70
     1
102
RTVSPost2010Prop35
280
     0
102
RTVSPost2010PropOp35
 70
     1
102
RTVSPost2010Prop36
280
     0
102
RTVSPost2010PropOp36
 70
     1
102
RTVSPost2010Prop37
 90
       50
102
RTVSPost2010PropOp37
 70
     1
102
RTVSPost2010Prop38
140
0.0
102
RTVSPost2010PropOp38
 70
     1
102
RTVSPost2010Prop39
140
1.0
102
RTVSPost2010PropOp39
 70
     1
102
RTVSPost2010Prop40
 90
        0
102
RTVSPost2010PropOp40
 70
     1
102
RTVSPost2010Prop41ColorIndex
 90
       18
102
RTVSPost2010Prop41ColorRGB
 90
        0
102
RTVSPost2010PropOp41
 70
     1
102
RTVSPost2010Prop42
 90
       50
102
RTVSPost2010PropOp42
 70
     1
102
RTVSPost2010Prop43
 90
        3
102
RTVSPost2010PropOp43
 70
     1
102
RTVSPost2010Prop44ColorIndex
 90
        5
102
RTVSPost2010Prop44ColorRGB
 90
      255
102
RTVSPost2010PropOp44
 70
     1
102
RTVSPost2010Prop45
280
     0
102
RTVSPost2010PropOp45
 70
     1
102
RTVSPost2010Prop46
 90
       50
102
RTVSPost2010PropOp46
 70
     1
102
RTVSPost2010Prop47
 90
       50
102
RTVSPost2010PropOp47
 70
     1
102
RTVSPost2010Prop48
 90
       50
102
RTVSPost2010PropOp48
 70
     1
102
RTVSPost2010Prop49
280
     0
102
RTVSPost2010PropOp49
 70
     1
102
RTVSPost2010Prop50
 90
       50
102
RTVSPost2010PropOp50
 70
     1
102
RTVSPost2010Prop51ColorIndex
 90
      256
102
RTVSPost2010Prop51ColorRGB
 90
-16777216
102
RTVSPost2010PropOp51
 70
     0
102
RTVSPost2010Prop52
140
1.0
102
RTVSPost2010PropOp52
 70
     0
102
RTVSPost2010Prop53
 90
        2
102
RTVSPost2010PropOp53
 70
     1
102
RTVSPost2010Prop54
  1
strokes_ogs.tif
102
RTVSPost2010PropOp54
 70
     1
102
RTVSPost2010Prop55
280
     0
102
RTVSPost2010PropOp55
 70
     1
102
RTVSPost2010Prop56
140
1.0
102
RTVSPost2010PropOp56
 70
     1
102
RTVSPost2010Prop57
140
1.0
102
RTVSPost2010PropOp57
 70
     1
  0
XRECORD
  5
1E2
102
{ACAD_REACTORS
330
1E1
102
}
330
1E1
100
AcDbXrecord
280
     1
102
RTVSPropertyOp0
 70
     1
102
RTVSPropertyOp1
 70
     1
102
RTVSPropertyOp2
 70
     1
102
RTVSPropertyOp3
 70
     1
102
RTVSPropertyOp4
 70
     1
102
RTVSPropertyOp5
 70
     1
102
RTVSPropertyOp6
 70
     1
102
RTVSPropertyOp7
 70
     1
102
RTVSPropertyOp8
 70
     1
102
RTVSPropertyOp9
 70
     1
102
RTVSPropertyOp10
 70
     1
102
RTVSPropertyOp11
 70
     1
102
RTVSPropertyOp12
 70
     1
102
RTVSPropertyOp13
 70
     1
102
RTVSPropertyOp14
 70
     1
102
RTVSPropertyOp15
 70
     1
102
RTVSPropertyOp16
 70
     1
102
RTVSPropertyOp17
 70
     1
102
RTVSPropertyOp18
 70
     1
102
RTVSPropertyOp19
 70
     1
102
RTVSPropertyOp20
 70
     1
102
RTVSPropertyOp21
 70
     1
102
RTVSPropertyOp22
 70
     1
102
RTVSPropertyOp23
 70
     1
102
RTVSPropertyOp24
 70
     1
102
RTVSPropertyOp25
 70
     1
102
RTVSPropertyOp26
 70
     1
102
RTVSPropertyOp27
 70
     1
102
RTVSPropertyOp28
 70
     1
102
RTVSPropertyOp29
 70
     1
102
RTVSPropertyOp30
 70
     1
102
RTVSPropertyOp31
 70
     1
102
RTVSPropertyOp32
 70
     1
102
RTVSPropertyOp33
 70
     1
102
RTVSPropertyOp34
 70
     1
102
RTVSPropertyOp35
 70
     1
102
RTVSPropertyOp36
 70
     1
102
RTVSPropertyOp37
 70
     1
102
RTVSPropertyOp38
 70
     1
102
RTVSPropertyOp39
 70
     1
102
RTVSPropertyOp40
 70
     1
102
RTVSPropertyOp41
 70
     1
102
RTVSPropertyOp42
 70
     1
102
RTVSPropertyOp43
 70
     1
102
RTVSPropertyOp44
 70
     1
102
RTVSPropertyOp45
 70
     1
102
RTVSPropertyOp46
 70
     1
102
RTVSPropertyOp47
 70
     1
102
RTVSPropertyOp48
 70
     1
102
RTVSPropertyOp49
 70
     1
102
RTVSPropertyOp50
 70
     1
102
RTVSPropertyOp51
 70
     0
102
RTVSPropertyOp52
 70
     0
102
RTVSPropertyOp53
 70
     1
102
RTVSPropertyOp54
 70
     1
102
RTVSPropertyOp55
 70
     1
102
RTVSPropertyOp56
 70
     1
102
RTVSPropertyOp57
 70
     1
102
RTVSPost2010Prop28
280
     0
102
RTVSPost2010PropOp28
 70
     1
102
RTVSPost2010Prop29
280
     1
102
RTVSPost2010PropOp29
 70
     1
102
RTVSPost2010Prop30
280
     1
102
RTVSPost2010PropOp30
 70
     1
102
RTVSPost2010Prop31
280
     0
102
RTVSPost2010PropOp31
 70
     1
102
RTVSPost2010Prop32
280
     0
102
RTVSPost2010PropOp32
 70
     1
102
RTVSPost2010Prop33
280
     0
102
RTVSPost2010PropOp33
 70
     1
102
RTVSPost2010Prop34
280
     0
102
RTVSPost2010PropOp34
 70
     1
102
RTVSPost2010Prop35
280
     0
102
RTVSPost2010PropOp35
 70
     1
102
RTVSPost2010Prop36
280
     0
102
RTVSPost2010PropOp36
 70
     1
102
RTVSPost2010Prop37
 90
       50
102
RTVSPost2010PropOp37
 70
     1
102
RTVSPost2010Prop38
140
0.0
102
RTVSPost2010PropOp38
 70
     1
102
RTVSPost2010Prop39
140
1.0
102
RTVSPost2010PropOp39
 70
     1
102
RTVSPost2010Prop40
 90
        0
102
RTVSPost2010PropOp40
 70
     1
102
RTVSPost2010Prop41ColorIndex
 90
       18
102
RTVSPost2010Prop41ColorRGB
 90
        0
102
RTVSPost2010PropOp41
 70
     1
102
RTVSPost2010Prop42
 90
       50
102
RTVSPost2010PropOp42
 70
     1
102
RTVSPost2010Prop43
 90
        3
102
RTVSPost2010PropOp43
 70
     1
102
RTVSPost2010Prop44ColorIndex
 90
        5
102
RTVSPost2010Prop44ColorRGB
 90
      255
102
RTVSPost2010PropOp44
 70
     1
102
RTVSPost2010Prop45
280
     0
102
RTVSPost2010PropOp45
 70
     1
102
RTVSPost2010Prop46
 90
       50
102
RTVSPost2010PropOp46
 70
     1
102
RTVSPost2010Prop47
 90
       50
102
RTVSPost2010PropOp47
 70
     1
102
RTVSPost2010Prop48
 90
       50
102
RTVSPost2010PropOp48
 70
     1
102
RTVSPost2010Prop49
280
     0
102
RTVSPost2010PropOp49
 70
     1
102
RTVSPost2010Prop50
 90
       50
102
RTVSPost2010PropOp50
 70
     1
102
RTVSPost2010Prop51ColorIndex
 90
      256
102
RTVSPost2010Prop51ColorRGB
 90
-16777216
102
RTVSPost2010PropOp51
 70
     0
102
RTVSPost2010Prop52
140
1.0
102
RTVSPost2010PropOp52
 70
     0
102
RTVSPost2010Prop53
 90
        2
102
RTVSPost2010PropOp53
 70
     1
102
RTVSPost2010Prop54
  1
strokes_ogs.tif
102
RTVSPost2010PropOp54
 70
     1
102
RTVSPost2010Prop55
280
     0
102
RTVSPost2010PropOp55
 70
     1
102
RTVSPost2010Prop56
140
1.0
102
RTVSPost2010PropOp56
 70
     1
102
RTVSPost2010Prop57
140
1.0
102
RTVSPost2010PropOp57
 70
     1
  0
XRECORD
  5
1DC
102
{ACAD_REACTORS
330
1DB
102
}
330
1DB
100
AcDbXrecord
280
     1
102
RTVSPropertyOp0
 70
     1
102
RTVSPropertyOp1
 70
     1
102
RTVSPropertyOp2
 70
     1
102
RTVSPropertyOp3
 70
     1
102
RTVSPropertyOp4
 70
     1
102
RTVSPropertyOp5
 70
     1
102
RTVSPropertyOp6
 70
     1
102
RTVSPropertyOp7
 70
     1
102
RTVSPropertyOp8
 70
     1
102
RTVSPropertyOp9
 70
     1
102
RTVSPropertyOp10
 70
     1
102
RTVSPropertyOp11
 70
     1
102
RTVSPropertyOp12
 70
     1
102
RTVSPropertyOp13
 70
     1
102
RTVSPropertyOp14
 70
     1
102
RTVSPropertyOp15
 70
     1
102
RTVSPropertyOp16
 70
     1
102
RTVSPropertyOp17
 70
     1
102
RTVSPropertyOp18
 70
     1
102
RTVSPropertyOp19
 70
     1
102
RTVSPropertyOp20
 70
     1
102
RTVSPropertyOp21
 70
     1
102
RTVSPropertyOp22
 70
     1
102
RTVSPropertyOp23
 70
     1
102
RTVSPropertyOp24
 70
     1
102
RTVSPropertyOp25
 70
     1
102
RTVSPropertyOp26
 70
     1
102
RTVSPropertyOp27
 70
     1
102
RTVSPropertyOp28
 70
     1
102
RTVSPropertyOp29
 70
     1
102
RTVSPropertyOp30
 70
     1
102
RTVSPropertyOp31
 70
     1
102
RTVSPropertyOp32
 70
     1
102
RTVSPropertyOp33
 70
     1
102
RTVSPropertyOp34
 70
     1
102
RTVSPropertyOp35
 70
     1
102
RTVSPropertyOp36
 70
     1
102
RTVSPropertyOp37
 70
     1
102
RTVSPropertyOp38
 70
     1
102
RTVSPropertyOp39
 70
     1
102
RTVSPropertyOp40
 70
     1
102
RTVSPropertyOp41
 70
     1
102
RTVSPropertyOp42
 70
     1
102
RTVSPropertyOp43
 70
     1
102
RTVSPropertyOp44
 70
     1
102
RTVSPropertyOp45
 70
     1
102
RTVSPropertyOp46
 70
     1
102
RTVSPropertyOp47
 70
     1
102
RTVSPropertyOp48
 70
     1
102
RTVSPropertyOp49
 70
     1
102
RTVSPropertyOp50
 70
     1
102
RTVSPropertyOp51
 70
     0
102
RTVSPropertyOp52
 70
     0
102
RTVSPropertyOp53
 70
     1
102
RTVSPropertyOp54
 70
     1
102
RTVSPropertyOp55
 70
     1
102
RTVSPropertyOp56
 70
     1
102
RTVSPropertyOp57
 70
     1
102
RTVSPost2010Prop28
280
     0
102
RTVSPost2010PropOp28
 70
     1
102
RTVSPost2010Prop29
280
     1
102
RTVSPost2010PropOp29
 70
     1
102
RTVSPost2010Prop30
280
     1
102
RTVSPost2010PropOp30
 70
     1
102
RTVSPost2010Prop31
280
     0
102
RTVSPost2010PropOp31
 70
     1
102
RTVSPost2010Prop32
280
     0
102
RTVSPost2010PropOp32
 70
     1
102
RTVSPost2010Prop33
280
     0
102
RTVSPost2010PropOp33
 70
     1
102
RTVSPost2010Prop34
280
     0
102
RTVSPost2010PropOp34
 70
     1
102
RTVSPost2010Prop35
280
     0
102
RTVSPost2010PropOp35
 70
     1
102
RTVSPost2010Prop36
280
     0
102
RTVSPost2010PropOp36
 70
     1
102
RTVSPost2010Prop37
 90
       50
102
RTVSPost2010PropOp37
 70
     1
102
RTVSPost2010Prop38
140
0.0
102
RTVSPost2010PropOp38
 70
     1
102
RTVSPost2010Prop39
140
1.0
102
RTVSPost2010PropOp39
 70
     1
102
RTVSPost2010Prop40
 90
        0
102
RTVSPost2010PropOp40
 70
     1
102
RTVSPost2010Prop41ColorIndex
 90
       18
102
RTVSPost2010Prop41ColorRGB
 90
        0
102
RTVSPost2010PropOp41
 70
     1
102
RTVSPost2010Prop42
 90
       50
102
RTVSPost2010PropOp42
 70
     1
102
RTVSPost2010Prop43
 90
        3
102
RTVSPost2010PropOp43
 70
     1
102
RTVSPost2010Prop44ColorIndex
 90
        5
102
RTVSPost2010Prop44ColorRGB
 90
      255
102
RTVSPost2010PropOp44
 70
     1
102
RTVSPost2010Prop45
280
     0
102
RTVSPost2010PropOp45
 70
     1
102
RTVSPost2010Prop46
 90
       50
102
RTVSPost2010PropOp46
 70
     1
102
RTVSPost2010Prop47
 90
       50
102
RTVSPost2010PropOp47
 70
     1
102
RTVSPost2010Prop48
 90
       50
102
RTVSPost2010PropOp48
 70
     1
102
RTVSPost2010Prop49
280
     0
102
RTVSPost2010PropOp49
 70
     1
102
RTVSPost2010Prop50
 90
       50
102
RTVSPost2010PropOp50
 70
     1
102
RTVSPost2010Prop51ColorIndex
 90
      256
102
RTVSPost2010Prop51ColorRGB
 90
-16777216
102
RTVSPost2010PropOp51
 70
     0
102
RTVSPost2010Prop52
140
1.0
102
RTVSPost2010PropOp52
 70
     0
102
RTVSPost2010Prop53
 90
        2
102
RTVSPost2010PropOp53
 70
     1
102
RTVSPost2010Prop54
  1
strokes_ogs.tif
102
RTVSPost2010PropOp54
 70
     1
102
RTVSPost2010Prop55
280
     0
102
RTVSPost2010PropOp55
 70
     1
102
RTVSPost2010Prop56
140
1.0
102
RTVSPost2010PropOp56
 70
     1
102
RTVSPost2010Prop57
140
1.0
102
RTVSPost2010PropOp57
 70
     1
  0
XRECORD
  5
1DE
102
{ACAD_REACTORS
330
1DD
102
}
330
1DD
100
AcDbXrecord
280
     1
102
RTVSPropertyOp0
 70
     1
102
RTVSPropertyOp1
 70
     1
102
RTVSPropertyOp2
 70
     1
102
RTVSPropertyOp3
 70
     1
102
RTVSPropertyOp4
 70
     1
102
RTVSPropertyOp5
 70
     1
102
RTVSPropertyOp6
 70
     1
102
RTVSPropertyOp7
 70
     1
102
RTVSPropertyOp8
 70
     1
102
RTVSPropertyOp9
 70
     1
102
RTVSPropertyOp10
 70
     1
102
RTVSPropertyOp11
 70
     1
102
RTVSPropertyOp12
 70
     1
102
RTVSPropertyOp13
 70
     1
102
RTVSPropertyOp14
 70
     1
102
RTVSPropertyOp15
 70
     1
102
RTVSPropertyOp16
 70
     1
102
RTVSPropertyOp17
 70
     1
102
RTVSPropertyOp18
 70
     1
102
RTVSPropertyOp19
 70
     1
102
RTVSPropertyOp20
 70
     1
102
RTVSPropertyOp21
 70
     1
102
RTVSPropertyOp22
 70
     1
102
RTVSPropertyOp23
 70
     1
102
RTVSPropertyOp24
 70
     1
102
RTVSPropertyOp25
 70
     1
102
RTVSPropertyOp26
 70
     1
102
RTVSPropertyOp27
 70
     1
102
RTVSPropertyOp28
 70
     1
102
RTVSPropertyOp29
 70
     1
102
RTVSPropertyOp30
 70
     1
102
RTVSPropertyOp31
 70
     1
102
RTVSPropertyOp32
 70
     1
102
RTVSPropertyOp33
 70
     1
102
RTVSPropertyOp34
 70
     1
102
RTVSPropertyOp35
 70
     1
102
RTVSPropertyOp36
 70
     1
102
RTVSPropertyOp37
 70
     1
102
RTVSPropertyOp38
 70
     1
102
RTVSPropertyOp39
 70
     1
102
RTVSPropertyOp40
 70
     1
102
RTVSPropertyOp41
 70
     1
102
RTVSPropertyOp42
 70
     1
102
RTVSPropertyOp43
 70
     1
102
RTVSPropertyOp44
 70
     1
102
RTVSPropertyOp45
 70
     1
102
RTVSPropertyOp46
 70
     1
102
RTVSPropertyOp47
 70
     1
102
RTVSPropertyOp48
 70
     1
102
RTVSPropertyOp49
 70
     1
102
RTVSPropertyOp50
 70
     1
102
RTVSPropertyOp51
 70
     0
102
RTVSPropertyOp52
 70
     0
102
RTVSPropertyOp53
 70
     1
102
RTVSPropertyOp54
 70
     1
102
RTVSPropertyOp55
 70
     1
102
RTVSPropertyOp56
 70
     1
102
RTVSPropertyOp57
 70
     1
102
RTVSPost2010Prop28
280
     0
102
RTVSPost2010PropOp28
 70
     1
102
RTVSPost2010Prop29
280
     1
102
RTVSPost2010PropOp29
 70
     1
102
RTVSPost2010Prop30
280
     1
102
RTVSPost2010PropOp30
 70
     1
102
RTVSPost2010Prop31
280
     0
102
RTVSPost2010PropOp31
 70
     1
102
RTVSPost2010Prop32
280
     0
102
RTVSPost2010PropOp32
 70
     1
102
RTVSPost2010Prop33
280
     0
102
RTVSPost2010PropOp33
 70
     1
102
RTVSPost2010Prop34
280
     0
102
RTVSPost2010PropOp34
 70
     1
102
RTVSPost2010Prop35
280
     0
102
RTVSPost2010PropOp35
 70
     1
102
RTVSPost2010Prop36
280
     0
102
RTVSPost2010PropOp36
 70
     1
102
RTVSPost2010Prop37
 90
       50
102
RTVSPost2010PropOp37
 70
     1
102
RTVSPost2010Prop38
140
0.0
102
RTVSPost2010PropOp38
 70
     1
102
RTVSPost2010Prop39
140
1.0
102
RTVSPost2010PropOp39
 70
     1
102
RTVSPost2010Prop40
 90
        0
102
RTVSPost2010PropOp40
 70
     1
102
RTVSPost2010Prop41ColorIndex
 90
       18
102
RTVSPost2010Prop41ColorRGB
 90
        0
102
RTVSPost2010PropOp41
 70
     1
102
RTVSPost2010Prop42
 90
       50
102
RTVSPost2010PropOp42
 70
     1
102
RTVSPost2010Prop43
 90
        3
102
RTVSPost2010PropOp43
 70
     1
102
RTVSPost2010Prop44ColorIndex
 90
        5
102
RTVSPost2010Prop44ColorRGB
 90
      255
102
RTVSPost2010PropOp44
 70
     1
102
RTVSPost2010Prop45
280
     0
102
RTVSPost2010PropOp45
 70
     1
102
RTVSPost2010Prop46
 90
       50
102
RTVSPost2010PropOp46
 70
     1
102
RTVSPost2010Prop47
 90
       50
102
RTVSPost2010PropOp47
 70
     1
102
RTVSPost2010Prop48
 90
       50
102
RTVSPost2010PropOp48
 70
     1
102
RTVSPost2010Prop49
280
     0
102
RTVSPost2010PropOp49
 70
     1
102
RTVSPost2010Prop50
 90
       50
102
RTVSPost2010PropOp50
 70
     1
102
RTVSPost2010Prop51ColorIndex
 90
      256
102
RTVSPost2010Prop51ColorRGB
 90
-16777216
102
RTVSPost2010PropOp51
 70
     0
102
RTVSPost2010Prop52
140
1.0
102
RTVSPost2010PropOp52
 70
     0
102
RTVSPost2010Prop53
 90
        2
102
RTVSPost2010PropOp53
 70
     1
102
RTVSPost2010Prop54
  1
strokes_ogs.tif
102
RTVSPost2010PropOp54
 70
     1
102
RTVSPost2010Prop55
280
     0
102
RTVSPost2010PropOp55
 70
     1
102
RTVSPost2010Prop56
140
1.0
102
RTVSPost2010PropOp56
 70
     1
102
RTVSPost2010Prop57
140
1.0
102
RTVSPost2010PropOp57
 70
     1
  0
XRECORD
  5
1CE
102
{ACAD_REACTORS
330
1CD
102
}
330
1CD
100
AcDbXrecord
280
     1
102
RTVSPropertyOp0
 70
     1
102
RTVSPropertyOp1
 70
     1
102
RTVSPropertyOp2
 70
     1
102
RTVSPropertyOp3
 70
     1
102
RTVSPropertyOp4
 70
     1
102
RTVSPropertyOp5
 70
     1
102
RTVSPropertyOp6
 70
     1
102
RTVSPropertyOp7
 70
     1
102
RTVSPropertyOp8
 70
     1
102
RTVSPropertyOp9
 70
     1
102
RTVSPropertyOp10
 70
     1
102
RTVSPropertyOp11
 70
     1
102
RTVSPropertyOp12
 70
     1
102
RTVSPropertyOp13
 70
     1
102
RTVSPropertyOp14
 70
     1
102
RTVSPropertyOp15
 70
     1
102
RTVSPropertyOp16
 70
     1
102
RTVSPropertyOp17
 70
     1
102
RTVSPropertyOp18
 70
     1
102
RTVSPropertyOp19
 70
     1
102
RTVSPropertyOp20
 70
     1
102
RTVSPropertyOp21
 70
     1
102
RTVSPropertyOp22
 70
     1
102
RTVSPropertyOp23
 70
     1
102
RTVSPropertyOp24
 70
     1
102
RTVSPropertyOp25
 70
     1
102
RTVSPropertyOp26
 70
     1
102
RTVSPropertyOp27
 70
     1
102
RTVSPropertyOp28
 70
     1
102
RTVSPropertyOp29
 70
     1
102
RTVSPropertyOp30
 70
     1
102
RTVSPropertyOp31
 70
     1
102
RTVSPropertyOp32
 70
     1
102
RTVSPropertyOp33
 70
     1
102
RTVSPropertyOp34
 70
     1
102
RTVSPropertyOp35
 70
     1
102
RTVSPropertyOp36
 70
     1
102
RTVSPropertyOp37
 70
     1
102
RTVSPropertyOp38
 70
     1
102
RTVSPropertyOp39
 70
     1
102
RTVSPropertyOp40
 70
     1
102
RTVSPropertyOp41
 70
     1
102
RTVSPropertyOp42
 70
     1
102
RTVSPropertyOp43
 70
     1
102
RTVSPropertyOp44
 70
     1
102
RTVSPropertyOp45
 70
     1
102
RTVSPropertyOp46
 70
     1
102
RTVSPropertyOp47
 70
     1
102
RTVSPropertyOp48
 70
     1
102
RTVSPropertyOp49
 70
     1
102
RTVSPropertyOp50
 70
     1
102
RTVSPropertyOp51
 70
     0
102
RTVSPropertyOp52
 70
     0
102
RTVSPropertyOp53
 70
     1
102
RTVSPropertyOp54
 70
     1
102
RTVSPropertyOp55
 70
     1
102
RTVSPropertyOp56
 70
     1
102
RTVSPropertyOp57
 70
     1
102
RTVSPost2010Prop28
280
     0
102
RTVSPost2010PropOp28
 70
     1
102
RTVSPost2010Prop29
280
     1
102
RTVSPost2010PropOp29
 70
     1
102
RTVSPost2010Prop30
280
     1
102
RTVSPost2010PropOp30
 70
     1
102
RTVSPost2010Prop31
280
     0
102
RTVSPost2010PropOp31
 70
     1
102
RTVSPost2010Prop32
280
     0
102
RTVSPost2010PropOp32
 70
     1
102
RTVSPost2010Prop33
280
     0
102
RTVSPost2010PropOp33
 70
     1
102
RTVSPost2010Prop34
280
     0
102
RTVSPost2010PropOp34
 70
     1
102
RTVSPost2010Prop35
280
     0
102
RTVSPost2010PropOp35
 70
     1
102
RTVSPost2010Prop36
280
     0
102
RTVSPost2010PropOp36
 70
     1
102
RTVSPost2010Prop37
 90
       50
102
RTVSPost2010PropOp37
 70
     1
102
RTVSPost2010Prop38
140
0.0
102
RTVSPost2010PropOp38
 70
     1
102
RTVSPost2010Prop39
140
1.0
102
RTVSPost2010PropOp39
 70
     1
102
RTVSPost2010Prop40
 90
        0
102
RTVSPost2010PropOp40
 70
     1
102
RTVSPost2010Prop41ColorIndex
 90
       18
102
RTVSPost2010Prop41ColorRGB
 90
        0
102
RTVSPost2010PropOp41
 70
     1
102
RTVSPost2010Prop42
 90
       50
102
RTVSPost2010PropOp42
 70
     1
102
RTVSPost2010Prop43
 90
        3
102
RTVSPost2010PropOp43
 70
     1
102
RTVSPost2010Prop44ColorIndex
 90
        5
102
RTVSPost2010Prop44ColorRGB
 90
      255
102
RTVSPost2010PropOp44
 70
     1
102
RTVSPost2010Prop45
280
     0
102
RTVSPost2010PropOp45
 70
     1
102
RTVSPost2010Prop46
 90
       50
102
RTVSPost2010PropOp46
 70
     1
102
RTVSPost2010Prop47
 90
       50
102
RTVSPost2010PropOp47
 70
     1
102
RTVSPost2010Prop48
 90
       50
102
RTVSPost2010PropOp48
 70
     1
102
RTVSPost2010Prop49
280
     0
102
RTVSPost2010PropOp49
 70
     1
102
RTVSPost2010Prop50
 90
       50
102
RTVSPost2010PropOp50
 70
     1
102
RTVSPost2010Prop51ColorIndex
 90
      256
102
RTVSPost2010Prop51ColorRGB
 90
-16777216
102
RTVSPost2010PropOp51
 70
     0
102
RTVSPost2010Prop52
140
1.0
102
RTVSPost2010PropOp52
 70
     0
102
RTVSPost2010Prop53
 90
        2
102
RTVSPost2010PropOp53
 70
     1
102
RTVSPost2010Prop54
  1
strokes_ogs.tif
102
RTVSPost2010PropOp54
 70
     1
102
RTVSPost2010Prop55
280
     0
102
RTVSPost2010PropOp55
 70
     1
102
RTVSPost2010Prop56
140
1.0
102
RTVSPost2010PropOp56
 70
     1
102
RTVSPost2010Prop57
140
1.0
102
RTVSPost2010PropOp57
 70
     1
  0
XRECORD
  5
1C0
102
{ACAD_REACTORS
330
1BF
102
}
330
1BF
100
AcDbXrecord
280
     1
102
RTVSPropertyOp0
 70
     1
102
RTVSPropertyOp1
 70
     1
102
RTVSPropertyOp2
 70
     1
102
RTVSPropertyOp3
 70
     1
102
RTVSPropertyOp4
 70
     1
102
RTVSPropertyOp5
 70
     1
102
RTVSPropertyOp6
 70
     1
102
RTVSPropertyOp7
 70
     1
102
RTVSPropertyOp8
 70
     1
102
RTVSPropertyOp9
 70
     1
102
RTVSPropertyOp10
 70
     1
102
RTVSPropertyOp11
 70
     1
102
RTVSPropertyOp12
 70
     1
102
RTVSPropertyOp13
 70
     1
102
RTVSPropertyOp14
 70
     1
102
RTVSPropertyOp15
 70
     1
102
RTVSPropertyOp16
 70
     1
102
RTVSPropertyOp17
 70
     1
102
RTVSPropertyOp18
 70
     1
102
RTVSPropertyOp19
 70
     1
102
RTVSPropertyOp20
 70
     1
102
RTVSPropertyOp21
 70
     1
102
RTVSPropertyOp22
 70
     1
102
RTVSPropertyOp23
 70
     1
102
RTVSPropertyOp24
 70
     1
102
RTVSPropertyOp25
 70
     1
102
RTVSPropertyOp26
 70
     1
102
RTVSPropertyOp27
 70
     1
102
RTVSPropertyOp28
 70
     1
102
RTVSPropertyOp29
 70
     1
102
RTVSPropertyOp30
 70
     1
102
RTVSPropertyOp31
 70
     1
102
RTVSPropertyOp32
 70
     1
102
RTVSPropertyOp33
 70
     1
102
RTVSPropertyOp34
 70
     1
102
RTVSPropertyOp35
 70
     1
102
RTVSPropertyOp36
 70
     1
102
RTVSPropertyOp37
 70
     1
102
RTVSPropertyOp38
 70
     1
102
RTVSPropertyOp39
 70
     1
102
RTVSPropertyOp40
 70
     1
102
RTVSPropertyOp41
 70
     1
102
RTVSPropertyOp42
 70
     1
102
RTVSPropertyOp43
 70
     1
102
RTVSPropertyOp44
 70
     1
102
RTVSPropertyOp45
 70
     1
102
RTVSPropertyOp46
 70
     1
102
RTVSPropertyOp47
 70
     1
102
RTVSPropertyOp48
 70
     1
102
RTVSPropertyOp49
 70
     1
102
RTVSPropertyOp50
 70
     1
102
RTVSPropertyOp51
 70
     0
102
RTVSPropertyOp52
 70
     0
102
RTVSPropertyOp53
 70
     1
102
RTVSPropertyOp54
 70
     1
102
RTVSPropertyOp55
 70
     1
102
RTVSPropertyOp56
 70
     1
102
RTVSPropertyOp57
 70
     1
102
RTVSPost2010Prop28
280
     0
102
RTVSPost2010PropOp28
 70
     1
102
RTVSPost2010Prop29
280
     1
102
RTVSPost2010PropOp29
 70
     1
102
RTVSPost2010Prop30
280
     1
102
RTVSPost2010PropOp30
 70
     1
102
RTVSPost2010Prop31
280
     0
102
RTVSPost2010PropOp31
 70
     1
102
RTVSPost2010Prop32
280
     0
102
RTVSPost2010PropOp32
 70
     1
102
RTVSPost2010Prop33
280
     0
102
RTVSPost2010PropOp33
 70
     1
102
RTVSPost2010Prop34
280
     0
102
RTVSPost2010PropOp34
 70
     1
102
RTVSPost2010Prop35
280
     0
102
RTVSPost2010PropOp35
 70
     1
102
RTVSPost2010Prop36
280
     0
102
RTVSPost2010PropOp36
 70
     1
102
RTVSPost2010Prop37
 90
       50
102
RTVSPost2010PropOp37
 70
     1
102
RTVSPost2010Prop38
140
0.0
102
RTVSPost2010PropOp38
 70
     1
102
RTVSPost2010Prop39
140
1.0
102
RTVSPost2010PropOp39
 70
     1
102
RTVSPost2010Prop40
 90
        0
102
RTVSPost2010PropOp40
 70
     1
102
RTVSPost2010Prop41ColorIndex
 90
       18
102
RTVSPost2010Prop41ColorRGB
 90
        0
102
RTVSPost2010PropOp41
 70
     1
102
RTVSPost2010Prop42
 90
       50
102
RTVSPost2010PropOp42
 70
     1
102
RTVSPost2010Prop43
 90
        3
102
RTVSPost2010PropOp43
 70
     1
102
RTVSPost2010Prop44ColorIndex
 90
        5
102
RTVSPost2010Prop44ColorRGB
 90
      255
102
RTVSPost2010PropOp44
 70
     1
102
RTVSPost2010Prop45
280
     0
102
RTVSPost2010PropOp45
 70
     1
102
RTVSPost2010Prop46
 90
       50
102
RTVSPost2010PropOp46
 70
     1
102
RTVSPost2010Prop47
 90
       50
102
RTVSPost2010PropOp47
 70
     1
102
RTVSPost2010Prop48
 90
       50
102
RTVSPost2010PropOp48
 70
     1
102
RTVSPost2010Prop49
280
     0
102
RTVSPost2010PropOp49
 70
     1
102
RTVSPost2010Prop50
 90
       50
102
RTVSPost2010PropOp50
 70
     1
102
RTVSPost2010Prop51ColorIndex
 90
      256
102
RTVSPost2010Prop51ColorRGB
 90
-16777216
102
RTVSPost2010PropOp51
 70
     0
102
RTVSPost2010Prop52
140
1.0
102
RTVSPost2010PropOp52
 70
     0
102
RTVSPost2010Prop53
 90
        2
102
RTVSPost2010PropOp53
 70
     1
102
RTVSPost2010Prop54
  1
strokes_ogs.tif
102
RTVSPost2010PropOp54
 70
     1
102
RTVSPost2010Prop55
280
     0
102
RTVSPost2010PropOp55
 70
     1
102
RTVSPost2010Prop56
140
1.0
102
RTVSPost2010PropOp56
 70
     1
102
RTVSPost2010Prop57
140
1.0
102
RTVSPost2010PropOp57
 70
     1
  0
XRECORD
  5
1E0
102
{ACAD_REACTORS
330
1DF
102
}
330
1DF
100
AcDbXrecord
280
     1
102
RTVSPropertyOp0
 70
     1
102
RTVSPropertyOp1
 70
     1
102
RTVSPropertyOp2
 70
     1
102
RTVSPropertyOp3
 70
     1
102
RTVSPropertyOp4
 70
     1
102
RTVSPropertyOp5
 70
     1
102
RTVSPropertyOp6
 70
     1
102
RTVSPropertyOp7
 70
     1
102
RTVSPropertyOp8
 70
     1
102
RTVSPropertyOp9
 70
     1
102
RTVSPropertyOp10
 70
     1
102
RTVSPropertyOp11
 70
     1
102
RTVSPropertyOp12
 70
     1
102
RTVSPropertyOp13
 70
     1
102
RTVSPropertyOp14
 70
     1
102
RTVSPropertyOp15
 70
     1
102
RTVSPropertyOp16
 70
     1
102
RTVSPropertyOp17
 70
     1
102
RTVSPropertyOp18
 70
     1
102
RTVSPropertyOp19
 70
     1
102
RTVSPropertyOp20
 70
     1
102
RTVSPropertyOp21
 70
     1
102
RTVSPropertyOp22
 70
     1
102
RTVSPropertyOp23
 70
     1
102
RTVSPropertyOp24
 70
     1
102
RTVSPropertyOp25
 70
     1
102
RTVSPropertyOp26
 70
     1
102
RTVSPropertyOp27
 70
     1
102
RTVSPropertyOp28
 70
     1
102
RTVSPropertyOp29
 70
     1
102
RTVSPropertyOp30
 70
     1
102
RTVSPropertyOp31
 70
     1
102
RTVSPropertyOp32
 70
     1
102
RTVSPropertyOp33
 70
     1
102
RTVSPropertyOp34
 70
     1
102
RTVSPropertyOp35
 70
     1
102
RTVSPropertyOp36
 70
     1
102
RTVSPropertyOp37
 70
     1
102
RTVSPropertyOp38
 70
     1
102
RTVSPropertyOp39
 70
     1
102
RTVSPropertyOp40
 70
     1
102
RTVSPropertyOp41
 70
     1
102
RTVSPropertyOp42
 70
     1
102
RTVSPropertyOp43
 70
     1
102
RTVSPropertyOp44
 70
     1
102
RTVSPropertyOp45
 70
     1
102
RTVSPropertyOp46
 70
     1
102
RTVSPropertyOp47
 70
     1
102
RTVSPropertyOp48
 70
     1
102
RTVSPropertyOp49
 70
     1
102
RTVSPropertyOp50
 70
     1
102
RTVSPropertyOp51
 70
     0
102
RTVSPropertyOp52
 70
     0
102
RTVSPropertyOp53
 70
     1
102
RTVSPropertyOp54
 70
     1
102
RTVSPropertyOp55
 70
     1
102
RTVSPropertyOp56
 70
     1
102
RTVSPropertyOp57
 70
     1
102
RTVSPost2010Prop28
280
     0
102
RTVSPost2010PropOp28
 70
     1
102
RTVSPost2010Prop29
280
     1
102
RTVSPost2010PropOp29
 70
     1
102
RTVSPost2010Prop30
280
     1
102
RTVSPost2010PropOp30
 70
     1
102
RTVSPost2010Prop31
280
     0
102
RTVSPost2010PropOp31
 70
     1
102
RTVSPost2010Prop32
280
     0
102
RTVSPost2010PropOp32
 70
     1
102
RTVSPost2010Prop33
280
     0
102
RTVSPost2010PropOp33
 70
     1
102
RTVSPost2010Prop34
280
     0
102
RTVSPost2010PropOp34
 70
     1
102
RTVSPost2010Prop35
280
     0
102
RTVSPost2010PropOp35
 70
     1
102
RTVSPost2010Prop36
280
     0
102
RTVSPost2010PropOp36
 70
     1
102
RTVSPost2010Prop37
 90
       50
102
RTVSPost2010PropOp37
 70
     1
102
RTVSPost2010Prop38
140
0.0
102
RTVSPost2010PropOp38
 70
     1
102
RTVSPost2010Prop39
140
1.0
102
RTVSPost2010PropOp39
 70
     1
102
RTVSPost2010Prop40
 90
        0
102
RTVSPost2010PropOp40
 70
     1
102
RTVSPost2010Prop41ColorIndex
 90
       18
102
RTVSPost2010Prop41ColorRGB
 90
        0
102
RTVSPost2010PropOp41
 70
     1
102
RTVSPost2010Prop42
 90
       50
102
RTVSPost2010PropOp42
 70
     1
102
RTVSPost2010Prop43
 90
        3
102
RTVSPost2010PropOp43
 70
     1
102
RTVSPost2010Prop44ColorIndex
 90
        5
102
RTVSPost2010Prop44ColorRGB
 90
      255
102
RTVSPost2010PropOp44
 70
     1
102
RTVSPost2010Prop45
280
     0
102
RTVSPost2010PropOp45
 70
     1
102
RTVSPost2010Prop46
 90
       50
102
RTVSPost2010PropOp46
 70
     1
102
RTVSPost2010Prop47
 90
       50
102
RTVSPost2010PropOp47
 70
     1
102
RTVSPost2010Prop48
 90
       50
102
RTVSPost2010PropOp48
 70
     1
102
RTVSPost2010Prop49
280
     0
102
RTVSPost2010PropOp49
 70
     1
102
RTVSPost2010Prop50
 90
       50
102
RTVSPost2010PropOp50
 70
     1
102
RTVSPost2010Prop51ColorIndex
 90
      256
102
RTVSPost2010Prop51ColorRGB
 90
-16777216
102
RTVSPost2010PropOp51
 70
     0
102
RTVSPost2010Prop52
140
1.0
102
RTVSPost2010PropOp52
 70
     0
102
RTVSPost2010Prop53
 90
        2
102
RTVSPost2010PropOp53
 70
     1
102
RTVSPost2010Prop54
  1
strokes_ogs.tif
102
RTVSPost2010PropOp54
 70
     1
102
RTVSPost2010Prop55
280
     0
102
RTVSPost2010PropOp55
 70
     1
102
RTVSPost2010Prop56
140
1.0
102
RTVSPost2010PropOp56
 70
     1
102
RTVSPost2010Prop57
140
1.0
102
RTVSPost2010PropOp57
 70
     1
  0
ENDSEC
  0
EOF
