  0
SECTION
  2
HEADER
  9
$ACADVER
  1
AC1021
  9
$ACADMAINTVER
 70
    25
  9
$DWGCODEPAGE
  3
UNDEFINED
  9
$INSBASE
 10
0.0
 20
0.0
 30
0.0
  9
$EXTMIN
 10
1.000000000000000E+20
 20
1.000000000000000E+20
 30
1.000000000000000E+20
  9
$EXTMAX
 10
-1.000000000000000E+20
 20
-1.000000000000000E+20
 30
-1.000000000000000E+20
  9
$LIMMIN
 10
0.0
 20
0.0
  9
$LIMMAX
 10
12.0
 20
9.0
  9
$ORTHOMODE
 70
     0
  9
$REGENMODE
 70
     1
  9
$FILLMODE
 70
     1
  9
$QTEXTMODE
 70
     0
  9
$MIRRTEXT
 70
     1
  9
$LTSCALE
 40
1.0
  9
$ATTMODE
 70
     1
  9
$TEXTSIZE
 40
0.2
  9
$TRACEWID
 40
0.05
  9
$TEXTSTYLE
  7
Standard
  9
$CLAYER
  8
0
  9
$CELTYPE
  6
ByLayer
  9
$CECOLOR
 62
   256
  9
$CELTSCALE
 40
1.0
  9
$DISPSILH
 70
     0
  9
$DIMSCALE
 40
1.0
  9
$DIMASZ
 40
0.18
  9
$DIMEXO
 40
0.0625
  9
$DIMDLI
 40
0.38
  9
$DIMRND
 40
0.0
  9
$DIMDLE
 40
0.0
  9
$DIMEXE
 40
0.18
  9
$DIMTP
 40
0.0
  9
$DIMTM
 40
0.0
  9
$DIMTXT
 40
0.18
  9
$DIMCEN
 40
0.09
  9
$DIMTSZ
 40
0.0
  9
$DIMTOL
 70
     0
  9
$DIMLIM
 70
     0
  9
$DIMTIH
 70
     1
  9
$DIMTOH
 70
     1
  9
$DIMSE1
 70
     0
  9
$DIMSE2
 70
     0
  9
$DIMTAD
 70
     0
  9
$DIMZIN
 70
     0
  9
$DIMBLK
  1

  9
$DIMASO
 70
     1
  9
$DIMSHO
 70
     1
  9
$DIMPOST
  1

  9
$DIMAPOST
  1

  9
$DIMALT
 70
     0
  9
$DIMALTD
 70
     2
  9
$DIMALTF
 40
25.4
  9
$DIMLFAC
 40
1.0
  9
$DIMTOFL
 70
     0
  9
$DIMTVP
 40
0.0
  9
$DIMTIX
 70
     0
  9
$DIMSOXD
 70
     0
  9
$DIMSAH
 70
     0
  9
$DIMBLK1
  1

  9
$DIMBLK2
  1

  9
$DIMSTYLE
  2
Standard
  9
$DIMCLRD
 70
     0
  9
$DIMCLRE
 70
     0
  9
$DIMCLRT
 70
     0
  9
$DIMTFAC
 40
1.0
  9
$DIMGAP
 40
0.09
  9
$DIMJUST
 70
     0
  9
$DIMSD1
 70
     0
  9
$DIMSD2
 70
     0
  9
$DIMTOLJ
 70
     1
  9
$DIMTZIN
 70
     0
  9
$DIMALTZ
 70
     0
  9
$DIMALTTZ
 70
     0
  9
$DIMUPT
 70
     0
  9
$DIMDEC
 70
     4
  9
$DIMTDEC
 70
     4
  9
$DIMALTU
 70
     2
  9
$DIMALTTD
 70
     2
  9
$DIMTXSTY
  7
Standard
  9
$DIMAUNIT
 70
     0
  9
$DIMADEC
 70
     0
  9
$DIMALTRND
 40
0.0
  9
$DIMAZIN
 70
     0
  9
$DIMDSEP
 70
    46
  9
$DIMATFIT
 70
     3
  9
$DIMFRAC
 70
     0
  9
$DIMLDRBLK
  1

  9
$DIMLUNIT
 70
     2
  9
$DIMLWD
 70
    -2
  9
$DIMLWE
 70
    -2
  9
$DIMTMOVE
 70
     0
  9
$DIMFXL
 40
1.0
  9
$DIMFXLON
 70
     0
  9
$DIMJOGANG
 40
0.7853981633974483
  9
$DIMTFILL
 70
     0
  9
$DIMTFILLCLR
 70
     0
  9
$DIMARCSYM
 70
     0
  9
$DIMLTYPE
  6

  9
$DIMLTEX1
  6

  9
$DIMLTEX2
  6

  9
$LUNITS
 70
     2
  9
$LUPREC
 70
     4
  9
$SKETCHINC
 40
0.1
  9
$FILLETRAD
 40
0.5
  9
$AUNITS
 70
     0
  9
$AUPREC
 70
     0
  9
$MENU
  1
.
  9
$ELEVATION
 40
0.0
  9
$PELEVATION
 40
0.0
  9
$THICKNESS
 40
0.0
  9
$LIMCHECK
 70
     0
  9
$CHAMFERA
 40
0.5
  9
$CHAMFERB
 40
0.5
  9
$CHAMFERC
 40
1.0
  9
$CHAMFERD
 40
0.0
  9
$SKPOLY
 70
     0
  9
$TDCREATE
 40
2459380.378032396
  9
$TDUCREATE
 40
2459380.336365741
  9
$TDUPDATE
 40
2459380.378032396
  9
$TDUUPDATE
 40
2459380.336365741
  9
$TDINDWG
 40
0.0000000116
  9
$TDUSRTIMER
 40
0.0000000116
  9
$USRTIMER
 70
     1
  9
$ANGBASE
 50
0.0
  9
$ANGDIR
 70
     0
  9
$PDMODE
 70
     0
  9
$PDSIZE
 40
0.0
  9
$PLINEWID
 40
0.0
  9
$SPLFRAME
 70
     0
  9
$SPLINETYPE
 70
     6
  9
$SPLINESEGS
 70
     8
  9
$HANDSEED
  5
11E
  9
$SURFTAB1
 70
     6
  9
$SURFTAB2
 70
     6
  9
$SURFTYPE
 70
     6
  9
$SURFU
 70
     6
  9
$SURFV
 70
     6
  9
$UCSBASE
  2

  9
$UCSNAME
  2

  9
$UCSORG
 10
0.0
 20
0.0
 30
0.0
  9
$UCSXDIR
 10
1.0
 20
0.0
 30
0.0
  9
$UCSYDIR
 10
0.0
 20
1.0
 30
0.0
  9
$UCSORTHOREF
  2

  9
$UCSORTHOVIEW
 70
     0
  9
$UCSORGTOP
 10
0.0
 20
0.0
 30
0.0
  9
$UCSORGBOTTOM
 10
0.0
 20
0.0
 30
0.0
  9
$UCSORGLEFT
 10
0.0
 20
0.0
 30
0.0
  9
$UCSORGRIGHT
 10
0.0
 20
0.0
 30
0.0
  9
$UCSORGFRONT
 10
0.0
 20
0.0
 30
0.0
  9
$UCSORGBACK
 10
0.0
 20
0.0
 30
0.0
  9
$PUCSBASE
  2

  9
$PUCSNAME
  2

  9
$PUCSORG
 10
0.0
 20
0.0
 30
0.0
  9
$PUCSXDIR
 10
1.0
 20
0.0
 30
0.0
  9
$PUCSYDIR
 10
0.0
 20
1.0
 30
0.0
  9
$PUCSORTHOREF
  2

  9
$PUCSORTHOVIEW
 70
     0
  9
$PUCSORGTOP
 10
0.0
 20
0.0
 30
0.0
  9
$PUCSORGBOTTOM
 10
0.0
 20
0.0
 30
0.0
  9
$PUCSORGLEFT
 10
0.0
 20
0.0
 30
0.0
  9
$PUCSORGRIGHT
 10
0.0
 20
0.0
 30
0.0
  9
$PUCSORGFRONT
 10
0.0
 20
0.0
 30
0.0
  9
$PUCSORGBACK
 10
0.0
 20
0.0
 30
0.0
  9
$USERI1
 70
     0
  9
$USERI2
 70
     0
  9
$USERI3
 70
     0
  9
$USERI4
 70
     0
  9
$USERI5
 70
     0
  9
$USERR1
 40
0.0
  9
$USERR2
 40
0.0
  9
$USERR3
 40
0.0
  9
$USERR4
 40
0.0
  9
$USERR5
 40
0.0
  9
$WORLDVIEW
 70
     1
  9
$SHADEDGE
 70
     3
  9
$SHADEDIF
 70
    70
  9
$TILEMODE
 70
     1
  9
$MAXACTVP
 70
    64
  9
$PINSBASE
 10
0.0
 20
0.0
 30
0.0
  9
$PLIMCHECK
 70
     0
  9
$PEXTMIN
 10
1.000000000000000E+20
 20
1.000000000000000E+20
 30
1.000000000000000E+20
  9
$PEXTMAX
 10
-1.000000000000000E+20
 20
-1.000000000000000E+20
 30
-1.000000000000000E+20
  9
$PLIMMIN
 10
0.0
 20
0.0
  9
$PLIMMAX
 10
12.0
 20
9.0
  9
$UNITMODE
 70
     0
  9
$VISRETAIN
 70
     1
  9
$PLINEGEN
 70
     0
  9
$PSLTSCALE
 70
     1
  9
$TREEDEPTH
 70
  3020
  9
$CMLSTYLE
  2
Standard
  9
$CMLJUST
 70
     0
  9
$CMLSCALE
 40
1.0
  9
$PROXYGRAPHICS
 70
     1
  9
$MEASUREMENT
 70
     0
  9
$CELWEIGHT
370
    -1
  9
$ENDCAPS
280
     0
  9
$JOINSTYLE
280
     0
  9
$LWDISPLAY
290
     1
  9
$INSUNITS
 70
     1
  9
$HYPERLINKBASE
  1

  9
$STYLESHEET
  1

  9
$XEDIT
290
     1
  9
$CEPSNTYPE
380
     0
  9
$PSTYLEMODE
290
     1
  9
$FINGERPRINTGUID
  2
{6D110E76-DFB0-EB85-9710-53B40E4EB0BB}
  9
$VERSIONGUID
  2
{FAEB1C32-E019-11D5-929B-00C0DF256EC4}
  9
$EXTNAMES
290
     1
  9
$PSVPSCALE
 40
0.0
  9
$OLESTARTUP
290
     0
  9
$SORTENTS
280
   127
  9
$INDEXCTL
280
     0
  9
$HIDETEXT
280
     1
  9
$XCLIPFRAME
290
     0
  9
$HALOGAP
280
     0
  9
$OBSCOLOR
 70
   257
  9
$OBSLTYPE
280
     0
  9
$INTERSECTIONDISPLAY
280
     0
  9
$INTERSECTIONCOLOR
 70
   257
  9
$DIMASSOC
280
     2
  9
$PROJECTNAME
  1

  9
$CAMERADISPLAY
290
     0
  9
$LENSLENGTH
 40
50.0
  9
$CAMERAHEIGHT
 40
0.0
  9
$STEPSPERSEC
 40
2.0
  9
$STEPSIZE
 40
6.0
  9
$3DDWFPREC
 40
2.0
  9
$PSOLWIDTH
 40
0.25
  9
$PSOLHEIGHT
 40
4.0
  9
$LOFTANG1
 40
1.570796326794897
  9
$LOFTANG2
 40
1.570796326794897
  9
$LOFTMAG1
 40
0.0
  9
$LOFTMAG2
 40
0.0
  9
$LOFTPARAM
 70
     7
  9
$LOFTNORMALS
280
     1
  9
$LATITUDE
 40
37.795
  9
$LONGITUDE
 40
-122.394
  9
$NORTHDIRECTION
 40
0.0
  9
$TIMEZONE
 70
 -8000
  9
$LIGHTGLYPHDISPLAY
280
     1
  9
$TILEMODELIGHTSYNCH
280
     1
  9
$CMATERIAL
347
3C
  9
$SOLIDHIST
280
     1
  9
$SHOWHIST
280
     1
  9
$DWFFRAME
280
     2
  9
$DGNFRAME
280
     2
  9
$REALWORLDSCALE
290
     1
  9
$INTERFERECOLOR
 62
   256
  9
$CSHADOW
280
     0
  9
$SHADOWPLANELOCATION
 40
0.0
  0
ENDSEC
  0
SECTION
  2
CLASSES
  0
CLASS
  1
ACDBDICTIONARYWDFLT
  2
AcDbDictionaryWithDefault
  3
ObjectDBX Classes
 90
        0
 91
        4
280
     0
281
     0
  0
CLASS
  1
VISUALSTYLE
  2
AcDbVisualStyle
  3
ObjectDBX Classes
 90
     4095
 91
        4
280
     0
281
     0
  0
CLASS
  1
MATERIAL
  2
AcDbMaterial
  3
ObjectDBX Classes
 90
     1153
 91
        4
280
     0
281
     0
  0
CLASS
  1
SUN
  2
AcDbSun
  3
SCENEOE
 90
     1024
 91
        4
280
     0
281
     0
  0
ENDSEC
  0
SECTION
  2
TABLES
  0
TABLE
  2
VPORT
  5
8
330
0
100
AcDbSymbolTable
 70
     1
  0
VPORT
  5
29
330
8
100
AcDbSymbolTableRecord
100
AcDbViewportTableRecord
  2
*Active
 70
     0
 10
0.0
 20
0.0
 11
1.0
 21
1.0
 12
0.0
 22
0.0
 13
0.0
 23
0.0
 14
0.5
 24
0.5
 15
0.5
 25
0.5
 16
0.0
 26
0.0
 36
1.0
 17
105.0007777515277
 27
-148.5000416295416
 37
0.0
 40
297.0000832590831
 41
0.7070757462376333
 42
50.0
 43
0.0
 44
0.0
 50
0.0
 51
0.0
 71
     0
 72
   100
 73
     1
 74
     3
 75
     0
 76
     0
 77
     0
 78
     0
281
     0
 65
     1
110
0.0
120
0.0
130
0.0
111
1.0
121
0.0
131
0.0
112
0.0
122
1.0
132
0.0
 79
     0
146
0.0
 60
     3
 61
     5
292
     1
282
     1
141
0.0
142
0.0
 63
   250
361
3F
  0
ENDTAB
  0
TABLE
  2
LTYPE
  5
5
330
0
100
AcDbSymbolTable
 70
    11
  0
LTYPE
  5
14
330
5
100
AcDbSymbolTableRecord
100
AcDbLinetypeTableRecord
  2
ByBlock
 70
     0
  3

 72
    65
 73
     0
 40
0.0
  0
LTYPE
  5
15
330
5
100
AcDbSymbolTableRecord
100
AcDbLinetypeTableRecord
  2
ByLayer
 70
     0
  3

 72
    65
 73
     0
 40
0.0
  0
LTYPE
  5
16
330
5
100
AcDbSymbolTableRecord
100
AcDbLinetypeTableRecord
  2
Continuous
 70
     0
  3
Solid line
 72
    65
 73
     0
 40
0.0
  0
LTYPE
  5
9C
330
5
100
AcDbSymbolTableRecord
100
AcDbLinetypeTableRecord
  2
AI-Linetype-1
 70
     0
  3
Adobe Illustrator Linetype No. 1
 72
    65
 73
     2
 40
8.794681472698926
 49
4.397340736349463
 74
     0
 49
-4.397340736349463
 74
     0
  0
LTYPE
  5
A1
330
5
100
AcDbSymbolTableRecord
100
AcDbLinetypeTableRecord
  2
AI-Linetype-2
 70
     0
  3
Adobe Illustrator Linetype No. 2
 72
    65
 73
     4
 40
39.57626175950664
 49
26.38423955045825
 74
     0
 49
-4.397340736349463
 74
     0
 49
4.397340736349463
 74
     0
 49
-4.397340736349463
 74
     0
  0
LTYPE
  5
B6
330
5
100
AcDbSymbolTableRecord
100
AcDbLinetypeTableRecord
  2
AI-Linetype-3
 70
     0
  3
Adobe Illustrator Linetype No. 3
 72
    65
 73
     2
 40
8.776308078691068
 49
4.388154039345534
 74
     0
 49
-4.388154039345534
 74
     0
  0
LTYPE
  5
BB
330
5
100
AcDbSymbolTableRecord
100
AcDbLinetypeTableRecord
  2
AI-Linetype-4
 70
     0
  3
Adobe Illustrator Linetype No. 4
 72
    65
 73
     4
 40
39.49358014073086
 49
26.32911802269425
 74
     0
 49
-4.388154039345534
 74
     0
 49
4.388154039345534
 74
     0
 49
-4.388154039345534
 74
     0
  0
LTYPE
  5
D2
330
5
100
AcDbSymbolTableRecord
100
AcDbLinetypeTableRecord
  2
AI-Linetype-5
 70
     0
  3
Adobe Illustrator Linetype No. 5
 72
    65
 73
     2
 40
9.58372810971887
 49
4.791864054859435
 74
     0
 49
-4.791864054859435
 74
     0
  0
LTYPE
  5
D7
330
5
100
AcDbSymbolTableRecord
100
AcDbLinetypeTableRecord
  2
AI-Linetype-6
 70
     0
  3
Adobe Illustrator Linetype No. 6
 72
    65
 73
     4
 40
43.12698912072189
 49
28.75139695614359
 74
     0
 49
-4.791864054859435
 74
     0
 49
4.791864054859435
 74
     0
 49
-4.791864054859435
 74
     0
  0
LTYPE
  5
EC
330
5
100
AcDbSymbolTableRecord
100
AcDbLinetypeTableRecord
  2
AI-Linetype-7
 70
     0
  3
Adobe Illustrator Linetype No. 7
 72
    65
 73
     2
 40
9.583718689535901
 49
4.791859344767951
 74
     0
 49
-4.791859344767951
 74
     0
  0
LTYPE
  5
F1
330
5
100
AcDbSymbolTableRecord
100
AcDbLinetypeTableRecord
  2
AI-Linetype-8
 70
     0
  3
Adobe Illustrator Linetype No. 8
 72
    65
 73
     4
 40
43.12694538415811
 49
28.75136734985426
 74
     0
 49
-4.791859344767951
 74
     0
 49
4.791859344767951
 74
     0
 49
-4.791859344767951
 74
     0
  0
LTYPE
  5
F9
330
5
100
AcDbSymbolTableRecord
100
AcDbLinetypeTableRecord
  2
AI-Linetype-9
 70
     0
  3
Adobe Illustrator Linetype No. 9
 72
    65
 73
     2
 40
7.270862246391072
 49
3.635375106750391
 74
     0
 49
-3.635487139640682
 74
     0
  0
LTYPE
  5
FB
330
5
100
AcDbSymbolTableRecord
100
AcDbLinetypeTableRecord
  2
AI-Linetype-10
 70
     0
  3
Adobe Illustrator Linetype No. 10
 72
    65
 73
     2
 40
7.270862246391072
 49
3.635375106750391
 74
     0
 49
-3.635487139640682
 74
     0
  0
ENDTAB
  0
TABLE
  2
LAYER
  5
2
330
0
100
AcDbSymbolTable
 70
     1
  0
LAYER
  5
10
330
2
100
AcDbSymbolTableRecord
100
AcDbLayerTableRecord
  2
0
 70
     0
 62
     7
  6
Continuous
370
    -3
390
F
347
3E
  0
ENDTAB
  0
TABLE
  2
STYLE
  5
3
330
0
100
AcDbSymbolTable
 70
     1
  0
STYLE
  5
11
330
3
100
AcDbSymbolTableRecord
100
AcDbTextStyleTableRecord
  2
Standard
 70
     0
 40
0.0
 41
1.0
 50
0.0
 71
     0
 42
0.2
  3
txt
  4

  0
ENDTAB
  0
TABLE
  2
VIEW
  5
6
330
0
100
AcDbSymbolTable
 70
     0
  0
ENDTAB
  0
TABLE
  2
UCS
  5
7
330
0
100
AcDbSymbolTable
 70
     0
  0
ENDTAB
  0
TABLE
  2
APPID
  5
9
330
0
100
AcDbSymbolTable
 70
     1
  0
APPID
  5
12
330
9
100
AcDbSymbolTableRecord
100
AcDbRegAppTableRecord
  2
ACAD
 70
     0
  0
ENDTAB
  0
TABLE
  2
DIMSTYLE
  5
A
330
0
100
AcDbSymbolTable
 70
     1
100
AcDbDimStyleTable
  0
DIMSTYLE
105
27
330
A
100
AcDbSymbolTableRecord
100
AcDbDimStyleTableRecord
  2
Standard
 70
     0
178
     0
340
11
  0
ENDTAB
  0
TABLE
  2
BLOCK_RECORD
  5
1
330
0
100
AcDbSymbolTable
 70
     9
  0
BLOCK_RECORD
  5
1F
330
1
100
AcDbSymbolTableRecord
100
AcDbBlockTableRecord
  2
*Model_Space
340
22
 70
     0
280
     1
281
     0
  0
BLOCK_RECORD
  5
1B
330
1
100
AcDbSymbolTableRecord
100
AcDbBlockTableRecord
  2
*Paper_Space
340
1E
 70
     0
280
     1
281
     0
  0
BLOCK_RECORD
  5
23
330
1
100
AcDbSymbolTableRecord
100
AcDbBlockTableRecord
  2
*Paper_Space0
340
26
 70
     0
280
     1
281
     0
  0
BLOCK_RECORD
  5
8D
330
1
100
AcDbSymbolTableRecord
100
AcDbBlockTableRecord
  2
block 2
340
0
102
{BLKREFS
331
8E
102
}
 70
     0
280
     1
281
     0
  0
BLOCK_RECORD
  5
91
330
1
100
AcDbSymbolTableRecord
100
AcDbBlockTableRecord
  2
block 3
340
0
102
{BLKREFS
331
92
102
}
 70
     0
280
     1
281
     0
  0
BLOCK_RECORD
  5
A7
330
1
100
AcDbSymbolTableRecord
100
AcDbBlockTableRecord
  2
block 4
340
0
102
{BLKREFS
331
A8
102
}
 70
     0
280
     1
281
     0
  0
BLOCK_RECORD
  5
AB
330
1
100
AcDbSymbolTableRecord
100
AcDbBlockTableRecord
  2
block 5
340
0
102
{BLKREFS
331
AC
102
}
 70
     0
280
     1
281
     0
  0
BLOCK_RECORD
  5
C3
330
1
100
AcDbSymbolTableRecord
100
AcDbBlockTableRecord
  2
block 6
340
0
102
{BLKREFS
331
C4
102
}
 70
     0
280
     1
281
     0
  0
BLOCK_RECORD
  5
C7
330
1
100
AcDbSymbolTableRecord
100
AcDbBlockTableRecord
  2
block 7
340
0
102
{BLKREFS
331
C8
102
}
 70
     0
280
     1
281
     0
  0
BLOCK_RECORD
  5
DD
330
1
100
AcDbSymbolTableRecord
100
AcDbBlockTableRecord
  2
block 8
340
0
102
{BLKREFS
331
DE
102
}
 70
     0
280
     1
281
     0
  0
BLOCK_RECORD
  5
E1
330
1
100
AcDbSymbolTableRecord
100
AcDbBlockTableRecord
  2
block 9
340
0
102
{BLKREFS
331
E2
102
}
 70
     0
280
     1
281
     0
  0
ENDTAB
  0
ENDSEC
  0
SECTION
  2
BLOCKS
  0
BLOCK
  5
20
330
1F
100
AcDbEntity
  8
0
100
AcDbBlockBegin
  2
*Model_Space
 70
     0
 10
0.0
 20
0.0
 30
0.0
  3
*Model_Space
  1

  0
ENDBLK
  5
21
330
1F
100
AcDbEntity
  8
0
100
AcDbBlockEnd
  0
BLOCK
  5
1C
330
1B
100
AcDbEntity
 67
     1
  8
0
100
AcDbBlockBegin
  2
*Paper_Space
 70
     0
 10
0.0
 20
0.0
 30
0.0
  3
*Paper_Space
  1

  0
ENDBLK
  5
1D
330
1B
100
AcDbEntity
 67
     1
  8
0
100
AcDbBlockEnd
  0
BLOCK
  5
24
330
23
100
AcDbEntity
  8
0
100
AcDbBlockBegin
  2
*Paper_Space0
 70
     0
 10
0.0
 20
0.0
 30
0.0
  3
*Paper_Space0
  1

  0
ENDBLK
  5
25
330
23
100
AcDbEntity
  8
0
100
AcDbBlockEnd
  0
BLOCK
  5
8F
330
8D
100
AcDbEntity
  8
0
100
AcDbBlockBegin
  2
block 2
 70
     0
 10
0.0
 20
0.0
 30
0.0
  3
block 2
  1

  0
INSERT
  5
92
330
8D
100
AcDbEntity
  8
0
100
AcDbBlockReference
  2
block 3
 10
0.0
 20
0.0
 30
0.0
  0
ENDBLK
  5
90
330
8D
100
AcDbEntity
  8
0
100
AcDbBlockEnd
  0
BLOCK
  5
93
330
91
100
AcDbEntity
  8
0
100
AcDbBlockBegin
  2
block 3
 70
     0
 10
0.0
 20
0.0
 30
0.0
  3
block 3
  1

  0
POLYLINE
  5
95
330
91
100
AcDbEntity
  8
0
 62
     4
370
    25
100
AcDb2dPolyline
 66
     1
 10
0.0
 20
0.0
 30
0.0
  0
VERTEX
  5
96
330
95
100
AcDbEntity
  8
0
 62
     4
370
    25
100
AcDbVertex
100
AcDb2dVertex
 10
47.34138250227056
 20
-198.0877366312506
 30
0.0
  0
VERTEX
  5
97
330
95
100
AcDbEntity
  8
0
 62
     4
370
    25
100
AcDbVertex
100
AcDb2dVertex
 10
58.59146561747291
 20
-198.0877366312506
 30
0.0
  0
SEQEND
  5
98
330
95
100
AcDbEntity
  8
0
 62
     4
370
    25
  0
POLYLINE
  5
99
330
91
100
AcDbEntity
  8
0
  6
AI-Linetype-1
 62
     4
370
    25
100
AcDb2dPolyline
 66
     1
 10
0.0
 20
0.0
 30
0.0
  0
VERTEX
  5
9A
330
99
100
AcDbEntity
  8
0
  6
AI-Linetype-1
 62
     4
370
    25
100
AcDbVertex
100
AcDb2dVertex
 10
62.98880164373088
 20
-198.0877366312506
 30
0.0
  0
VERTEX
  5
9B
330
99
100
AcDbEntity
  8
0
  6
AI-Linetype-1
 62
     4
370
    25
100
AcDbVertex
100
AcDb2dVertex
 10
69.5848137575604
 20
-198.0877366312506
 30
0.0
  0
SEQEND
  5
9D
330
99
100
AcDbEntity
  8
0
  6
AI-Linetype-1
 62
     4
370
    25
  0
POLYLINE
  5
9E
330
91
100
AcDbEntity
  8
0
  6
AI-Linetype-2
 62
     4
370
    25
100
AcDb2dPolyline
 66
     1
 10
0.0
 20
0.0
 30
0.0
  0
VERTEX
  5
9F
330
9E
100
AcDbEntity
  8
0
  6
AI-Linetype-2
 62
     4
370
    25
100
AcDbVertex
100
AcDb2dVertex
 10
71.78348446217024
 20
-198.0877366312506
 30
0.0
  0
VERTEX
  5
A0
330
9E
100
AcDbEntity
  8
0
  6
AI-Linetype-2
 62
     4
370
    25
100
AcDbVertex
100
AcDb2dVertex
 10
148.7373466967566
 20
-198.0877366312506
 30
0.0
  0
SEQEND
  5
A2
330
9E
100
AcDbEntity
  8
0
  6
AI-Linetype-2
 62
     4
370
    25
  0
POLYLINE
  5
A3
330
91
100
AcDbEntity
  8
0
 62
     4
370
    25
100
AcDb2dPolyline
 66
     1
 10
0.0
 20
0.0
 30
0.0
  0
VERTEX
  5
A4
330
A3
100
AcDbEntity
  8
0
 62
     4
370
    25
100
AcDbVertex
100
AcDb2dVertex
 10
150.9360174013665
 20
-198.0877366312506
 30
0.0
  0
VERTEX
  5
A5
330
A3
100
AcDbEntity
  8
0
 62
     4
370
    25
100
AcDbVertex
100
AcDb2dVertex
 10
162.1860951336071
 20
-198.0877366312506
 30
0.0
  0
SEQEND
  5
A6
330
A3
100
AcDbEntity
  8
0
 62
     4
370
    25
  0
ENDBLK
  5
94
330
91
100
AcDbEntity
  8
0
100
AcDbBlockEnd
  0
BLOCK
  5
A9
330
A7
100
AcDbEntity
  8
0
100
AcDbBlockBegin
  2
block 4
 70
     0
 10
0.0
 20
0.0
 30
0.0
  3
block 4
  1

  0
INSERT
  5
AC
330
A7
100
AcDbEntity
  8
0
100
AcDbBlockReference
  2
block 5
 10
0.0
 20
0.0
 30
0.0
  0
ENDBLK
  5
AA
330
A7
100
AcDbEntity
  8
0
100
AcDbBlockEnd
  0
BLOCK
  5
AD
330
AB
100
AcDbEntity
  8
0
100
AcDbBlockBegin
  2
block 5
 70
     0
 10
0.0
 20
0.0
 30
0.0
  3
block 5
  1

  0
POLYLINE
  5
AF
330
AB
100
AcDbEntity
  8
0
 62
     4
370
    25
100
AcDb2dPolyline
 66
     1
 10
0.0
 20
0.0
 30
0.0
  0
VERTEX
  5
B0
330
AF
100
AcDbEntity
  8
0
 62
     4
370
    25
100
AcDbVertex
100
AcDb2dVertex
 10
104.7637388179388
 20
-141.4818787115099
 30
0.0
  0
VERTEX
  5
B1
330
AF
100
AcDbEntity
  8
0
 62
     4
370
    25
100
AcDbVertex
100
AcDb2dVertex
 10
104.7637388179388
 20
-152.731967209674
 30
0.0
  0
SEQEND
  5
B2
330
AF
100
AcDbEntity
  8
0
 62
     4
370
    25
  0
POLYLINE
  5
B3
330
AB
100
AcDbEntity
  8
0
  6
AI-Linetype-3
 62
     4
370
    25
100
AcDb2dPolyline
 66
     1
 10
0.0
 20
0.0
 30
0.0
  0
VERTEX
  5
B4
330
B3
100
AcDbEntity
  8
0
  6
AI-Linetype-3
 62
     4
370
    25
100
AcDbVertex
100
AcDb2dVertex
 10
104.7637388179388
 20
-157.1201145203174
 30
0.0
  0
VERTEX
  5
B5
330
B3
100
AcDbEntity
  8
0
  6
AI-Linetype-3
 62
     4
370
    25
100
AcDbVertex
100
AcDb2dVertex
 10
104.7637388179388
 20
-163.7023462522059
 30
0.0
  0
SEQEND
  5
B7
330
B3
100
AcDbEntity
  8
0
  6
AI-Linetype-3
 62
     4
370
    25
  0
POLYLINE
  5
B8
330
AB
100
AcDbEntity
  8
0
  6
AI-Linetype-4
 62
     4
370
    25
100
AcDb2dPolyline
 66
     1
 10
0.0
 20
0.0
 30
0.0
  0
VERTEX
  5
B9
330
B8
100
AcDbEntity
  8
0
  6
AI-Linetype-4
 62
     4
370
    25
100
AcDbVertex
100
AcDb2dVertex
 10
104.7637388179388
 20
-165.8964199075276
 30
0.0
  0
VERTEX
  5
BA
330
B8
100
AcDbEntity
  8
0
  6
AI-Linetype-4
 62
     4
370
    25
100
AcDbVertex
100
AcDb2dVertex
 10
104.7637388179388
 20
-242.6895146081102
 30
0.0
  0
SEQEND
  5
BC
330
B8
100
AcDbEntity
  8
0
  6
AI-Linetype-4
 62
     4
370
    25
  0
POLYLINE
  5
BD
330
AB
100
AcDbEntity
  8
0
 62
     4
370
    25
100
AcDb2dPolyline
 66
     1
 10
0.0
 20
0.0
 30
0.0
  0
VERTEX
  5
BE
330
BD
100
AcDbEntity
  8
0
 62
     4
370
    25
100
AcDbVertex
100
AcDb2dVertex
 10
104.7637388179388
 20
-244.8835882634319
 30
0.0
  0
VERTEX
  5
BF
330
BD
100
AcDbEntity
  8
0
 62
     4
370
    25
100
AcDbVertex
100
AcDb2dVertex
 10
104.7637388179388
 20
-256.133676761596
 30
0.0
  0
SEQEND
  5
C0
330
BD
100
AcDbEntity
  8
0
 62
     4
370
    25
  0
ENDBLK
  5
AE
330
AB
100
AcDbEntity
  8
0
100
AcDbBlockEnd
  0
BLOCK
  5
C5
330
C3
100
AcDbEntity
  8
0
100
AcDbBlockBegin
  2
block 6
 70
     0
 10
0.0
 20
0.0
 30
0.0
  3
block 6
  1

  0
INSERT
  5
C8
330
C3
100
AcDbEntity
  8
0
100
AcDbBlockReference
  2
block 7
 10
0.0
 20
0.0
 30
0.0
  0
ENDBLK
  5
C6
330
C3
100
AcDbEntity
  8
0
100
AcDbBlockEnd
  0
BLOCK
  5
C9
330
C7
100
AcDbEntity
  8
0
100
AcDbBlockBegin
  2
block 7
 70
     0
 10
0.0
 20
0.0
 30
0.0
  3
block 7
  1

  0
POLYLINE
  5
CB
330
C7
100
AcDbEntity
  8
0
 62
     4
370
    25
100
AcDb2dPolyline
 66
     1
 10
0.0
 20
0.0
 30
0.0
  0
VERTEX
  5
CC
330
CB
100
AcDbEntity
  8
0
 62
     4
370
    25
100
AcDbVertex
100
AcDb2dVertex
 10
64.70654240156153
 20
-48.3189337291719
 30
0.0
  0
VERTEX
  5
CD
330
CB
100
AcDbEntity
  8
0
 62
     4
370
    25
100
AcDbVertex
100
AcDb2dVertex
 10
75.95662551676388
 20
-48.3189337291719
 30
0.0
  0
SEQEND
  5
CE
330
CB
100
AcDbEntity
  8
0
 62
     4
370
    25
  0
POLYLINE
  5
CF
330
C7
100
AcDbEntity
  8
0
  6
AI-Linetype-5
 62
     4
370
    25
100
AcDb2dPolyline
 66
     1
 10
0.0
 20
0.0
 30
0.0
  0
VERTEX
  5
D0
330
CF
100
AcDbEntity
  8
0
  6
AI-Linetype-5
 62
     4
370
    25
100
AcDbVertex
100
AcDb2dVertex
 10
80.74848957162332
 20
-48.3189337291719
 30
0.0
  0
VERTEX
  5
D1
330
CF
100
AcDbEntity
  8
0
  6
AI-Linetype-5
 62
     4
370
    25
100
AcDbVertex
100
AcDb2dVertex
 10
87.93628296243162
 20
-48.3189337291719
 30
0.0
  0
SEQEND
  5
D3
330
CF
100
AcDbEntity
  8
0
  6
AI-Linetype-5
 62
     4
370
    25
  0
POLYLINE
  5
D4
330
C7
100
AcDbEntity
  8
0
  6
AI-Linetype-6
 62
     4
370
    25
100
AcDb2dPolyline
 66
     1
 10
0.0
 20
0.0
 30
0.0
  0
VERTEX
  5
D5
330
D4
100
AcDbEntity
  8
0
  6
AI-Linetype-6
 62
     4
370
    25
100
AcDbVertex
100
AcDb2dVertex
 10
90.3322122983805
 20
-48.3189337291719
 30
0.0
  0
VERTEX
  5
D6
330
D4
100
AcDbEntity
  8
0
  6
AI-Linetype-6
 62
     4
370
    25
100
AcDbVertex
100
AcDb2dVertex
 10
131.0632747746344
 20
-48.3189337291719
 30
0.0
  0
SEQEND
  5
D8
330
D4
100
AcDbEntity
  8
0
  6
AI-Linetype-6
 62
     4
370
    25
  0
POLYLINE
  5
D9
330
C7
100
AcDbEntity
  8
0
 62
     4
370
    25
100
AcDb2dPolyline
 66
     1
 10
0.0
 20
0.0
 30
0.0
  0
VERTEX
  5
DA
330
D9
100
AcDbEntity
  8
0
 62
     4
370
    25
100
AcDbVertex
100
AcDb2dVertex
 10
133.4592094935449
 20
-48.3189337291719
 30
0.0
  0
VERTEX
  5
DB
330
D9
100
AcDbEntity
  8
0
 62
     4
370
    25
100
AcDbVertex
100
AcDb2dVertex
 10
144.7092872257856
 20
-48.3189337291719
 30
0.0
  0
SEQEND
  5
DC
330
D9
100
AcDbEntity
  8
0
 62
     4
370
    25
  0
ENDBLK
  5
CA
330
C7
100
AcDbEntity
  8
0
100
AcDbBlockEnd
  0
BLOCK
  5
DF
330
DD
100
AcDbEntity
  8
0
100
AcDbBlockBegin
  2
block 8
 70
     0
 10
0.0
 20
0.0
 30
0.0
  3
block 8
  1

  0
INSERT
  5
E2
330
DD
100
AcDbEntity
  8
0
100
AcDbBlockReference
  2
block 9
 10
0.0
 20
0.0
 30
0.0
  0
ENDBLK
  5
E0
330
DD
100
AcDbEntity
  8
0
100
AcDbBlockEnd
  0
BLOCK
  5
E3
330
E1
100
AcDbEntity
  8
0
100
AcDbBlockBegin
  2
block 9
 70
     0
 10
0.0
 20
0.0
 30
0.0
  3
block 9
  1

  0
POLYLINE
  5
E5
330
E1
100
AcDbEntity
  8
0
 62
     4
370
    25
100
AcDb2dPolyline
 66
     1
 10
0.0
 20
0.0
 30
0.0
  0
VERTEX
  5
E6
330
E5
100
AcDbEntity
  8
0
 62
     4
370
    25
100
AcDbVertex
100
AcDb2dVertex
 10
104.7079175051544
 20
-88.3202496201861
 30
0.0
  0
VERTEX
  5
E7
330
E5
100
AcDbEntity
  8
0
 62
     4
370
    25
100
AcDbVertex
100
AcDb2dVertex
 10
104.7079175051544
 20
-77.07016650498376
 30
0.0
  0
SEQEND
  5
E8
330
E5
100
AcDbEntity
  8
0
 62
     4
370
    25
  0
POLYLINE
  5
E9
330
E1
100
AcDbEntity
  8
0
  6
AI-Linetype-7
 62
     4
370
    25
100
AcDb2dPolyline
 66
     1
 10
0.0
 20
0.0
 30
0.0
  0
VERTEX
  5
EA
330
E9
100
AcDbEntity
  8
0
  6
AI-Linetype-7
 62
     4
370
    25
100
AcDbVertex
100
AcDb2dVertex
 10
104.7079175051544
 20
-72.27830783308603
 30
0.0
  0
VERTEX
  5
EB
330
E9
100
AcDbEntity
  8
0
  6
AI-Linetype-7
 62
     4
370
    25
100
AcDbVertex
100
AcDb2dVertex
 10
104.7079175051544
 20
-65.09051982523941
 30
0.0
  0
SEQEND
  5
ED
330
E9
100
AcDbEntity
  8
0
  6
AI-Linetype-7
 62
     4
370
    25
  0
POLYLINE
  5
EE
330
E1
100
AcDbEntity
  8
0
  6
AI-Linetype-8
 62
     4
370
    25
100
AcDb2dPolyline
 66
     1
 10
0.0
 20
0.0
 30
0.0
  0
VERTEX
  5
EF
330
EE
100
AcDbEntity
  8
0
  6
AI-Linetype-8
 62
     4
370
    25
100
AcDbVertex
100
AcDb2dVertex
 10
104.7079175051544
 20
-62.69459048929055
 30
0.0
  0
VERTEX
  5
F0
330
EE
100
AcDbEntity
  8
0
  6
AI-Linetype-8
 62
     4
370
    25
100
AcDbVertex
100
AcDb2dVertex
 10
104.7079175051544
 20
-21.96357242247067
 30
0.0
  0
SEQEND
  5
F2
330
EE
100
AcDbEntity
  8
0
  6
AI-Linetype-8
 62
     4
370
    25
  0
POLYLINE
  5
F3
330
E1
100
AcDbEntity
  8
0
 62
     4
370
    25
100
AcDb2dPolyline
 66
     1
 10
0.0
 20
0.0
 30
0.0
  0
VERTEX
  5
F4
330
F3
100
AcDbEntity
  8
0
 62
     4
370
    25
100
AcDbVertex
100
AcDb2dVertex
 10
104.7079175051544
 20
-19.5676430865218
 30
0.0
  0
VERTEX
  5
F5
330
F3
100
AcDbEntity
  8
0
 62
     4
370
    25
100
AcDbVertex
100
AcDb2dVertex
 10
104.7079175051544
 20
-8.317559298449243
 30
0.0
  0
SEQEND
  5
F6
330
F3
100
AcDbEntity
  8
0
 62
     4
370
    25
  0
ENDBLK
  5
E4
330
E1
100
AcDbEntity
  8
0
100
AcDbBlockEnd
  0
ENDSEC
  0
SECTION
  2
ENTITIES
  0
SPLINE
  5
40
330
1F
100
AcDbEntity
  8
0
 62
   250
370
    25
100
AcDbSpline
210
0.0
220
0.0
230
1.0
 70
     8
 71
     3
 72
    38
 73
    34
 74
     0
 42
0.0000000001
 43
0.0000000001
 12
1.0
 22
0.0
 32
0.0
 13
1.0
 23
0.0
 33
0.0
 40
0.0
 40
0.0
 40
0.0
 40
0.0
 40
1.0
 40
1.0
 40
1.0
 40
2.0
 40
2.0
 40
2.0
 40
3.0
 40
3.0
 40
3.0
 40
4.0
 40
4.0
 40
4.0
 40
5.0
 40
5.0
 40
5.0
 40
6.0
 40
6.0
 40
6.0
 40
7.0
 40
7.0
 40
7.0
 40
8.0
 40
8.0
 40
8.0
 40
9.0
 40
9.0
 40
9.0
 40
10.0
 40
10.0
 40
10.0
 40
11.0
 40
11.0
 40
11.0
 40
11.0
 10
117.4447474599909
 20
-117.8213892279691
 30
0.0
 10
117.4962533576486
 20
-117.8658748001015
 30
0.0
 10
117.5473711971701
 20
-117.9151581817567
 30
0.0
 10
117.5788039059529
 20
-117.9764008092046
 30
0.0
 10
117.603357402372
 20
-118.0241672363733
 30
0.0
 10
117.6159163746797
 20
-118.0791656558399
 30
0.0
 10
117.609248830389
 20
-118.1319768386152
 30
0.0
 10
117.6040276845996
 20
-118.1729698876368
 30
0.0
 10
117.5872353508434
 20
-118.2126223722295
 30
0.0
 10
117.5654335393701
 20
-118.2483237195659
 30
0.0
 10
117.5285327387164
 20
-118.3086843967328
 30
0.0
 10
117.4772385091246
 20
-118.3578266663423
 30
0.0
 10
117.4220989762263
 20
-118.4016066782458
 30
0.0
 10
117.3482620969103
 20
-118.4602740108749
 30
0.0
 10
117.2674754492129
 20
-118.5093810024663
 30
0.0
 10
117.1840782286179
 20
-118.5532668484126
 30
0.0
 10
117.0770094619095
 20
-118.6095705542962
 30
0.0
 10
116.9656720557363
 20
-118.6572664254437
 30
0.0
 10
116.8529235290781
 20
-118.7010111593347
 30
0.0
 10
116.5514729157291
 20
-118.817957766476
 30
0.0
 10
116.2401444589897
 20
-118.9069641887442
 30
0.0
 10
115.9263112633912
 20
-118.9848580374833
 30
0.0
 10
115.5110890610288
 20
-119.0878698302004
 30
0.0
 10
115.0914923851684
 20
-119.1714434387417
 30
0.0
 10
114.6701670867167
 20
-119.244892258067
 30
0.0
 10
114.0294125530346
 20
-119.356582441538
 30
0.0
 10
113.3847421600089
 20
-119.444883303583
 30
0.0
 10
112.738554812465
 20
-119.5193199072158
 30
0.0
 10
111.9170004667847
 20
-119.614006089294
 30
0.0
 10
111.093011938284
 20
-119.6863260122629
 30
0.0
 10
110.2680003474282
 20
-119.7433000003548
 30
0.0
 10
108.5761374433634
 20
-119.8601054954536
 30
0.0
 10
106.8799353438161
 20
-119.9123169520325
 30
0.0
 10
105.1841565804141
 20
-119.9159505871858
 30
0.0
  0
SPLINE
  5
41
330
1F
100
AcDbEntity
  8
0
 62
   250
370
    25
100
AcDbSpline
210
0.0
220
0.0
230
1.0
 70
     8
 71
     3
 72
     8
 73
     4
 74
     0
 42
0.0000000001
 43
0.0000000001
 12
1.0
 22
0.0
 32
0.0
 13
1.0
 23
0.0
 33
0.0
 40
0.0
 40
0.0
 40
0.0
 40
0.0
 40
1.0
 40
1.0
 40
1.0
 40
1.0
 10
105.1116249875501
 20
-116.2522585676348
 30
0.0
 10
105.0874595492672
 20
-116.2522938456465
 30
0.0
 10
105.0632941109779
 20
-116.2522938456465
 30
0.0
 10
105.0391286726946
 20
-116.252329123656
 30
0.0
  0
SPLINE
  5
42
330
1F
100
AcDbEntity
  8
0
 62
   250
370
    25
100
AcDbSpline
210
0.0
220
0.0
230
1.0
 70
    24
 71
     3
 72
    23
 73
    19
 74
     0
 42
0.0000000001
 43
0.0000000001
 12
1.0
 22
0.0
 32
0.0
 13
1.0
 23
0.0
 33
0.0
 40
0.0
 40
0.0
 40
0.0
 40
0.0
 40
1.0
 40
1.0
 40
1.0
 40
2.0
 40
2.0
 40
2.0
 40
3.0
 40
3.0
 40
3.0
 40
4.0
 40
4.0
 40
4.0
 40
5.0
 40
5.0
 40
5.0
 40
6.0
 40
6.0
 40
6.0
 40
6.0
 10
-287.3966881728461
 20
18.67951414946679
 30
0.0
 10
-287.3997220818862
 20
18.67951414946679
 30
0.0
 10
-287.3943245460329
 20
18.67951414946679
 30
0.0
 10
-287.3892445122921
 20
18.67951414946679
 30
0.0
 10
-287.3764385939
 20
18.67951414946679
 30
0.0
 10
-287.3653612980995
 20
18.67951414946679
 30
0.0
 10
-287.3542487242934
 20
18.67951414946679
 30
0.0
 10
-287.3079639724248
 20
18.67951414946679
 30
0.0
 10
-287.2610442163379
 20
18.67951414946679
 30
0.0
 10
-287.2141950162751
 20
18.67951414946679
 30
0.0
 10
-287.0425322094201
 20
18.67951414946679
 30
0.0
 10
-286.8710105146137
 20
18.67951414946679
 30
0.0
 10
-286.6995240978193
 20
18.67951414946679
 30
0.0
 10
-285.9878607598279
 20
18.67951414946679
 30
0.0
 10
-285.2761621438181
 20
18.67951414946679
 30
0.0
 10
-284.5644635278089
 20
18.67951414946679
 30
0.0
 10
-281.8504907793165
 20
18.67951414946679
 30
0.0
 10
-279.1365885868488
 20
18.67951414946679
 30
0.0
 10
-276.4226511163716
 20
18.67951414946679
 30
0.0
  0
POLYLINE
  5
43
330
1F
100
AcDbEntity
  8
0
 62
   250
370
    25
100
AcDb2dPolyline
 66
     1
 10
0.0
 20
0.0
 30
0.0
  0
VERTEX
  5
44
330
43
100
AcDbEntity
  8
0
 62
   250
370
    25
100
AcDbVertex
100
AcDb2dVertex
 10
486.645936369483
 20
18.67951414946679
 30
0.0
  0
VERTEX
  5
45
330
43
100
AcDbEntity
  8
0
 62
   250
370
    25
100
AcDbVertex
100
AcDb2dVertex
 10
497.6223370527649
 20
18.67951414946679
 30
0.0
  0
SEQEND
  5
46
330
43
100
AcDbEntity
  8
0
 62
   250
370
    25
  0
SPLINE
  5
47
330
1F
100
AcDbEntity
  8
0
 62
   250
370
    25
100
AcDbSpline
210
0.0
220
0.0
230
1.0
 70
     8
 71
     3
 72
     8
 73
     4
 74
     0
 42
0.0000000001
 43
0.0000000001
 12
1.0
 22
0.0
 32
0.0
 13
1.0
 23
0.0
 33
0.0
 40
0.0
 40
0.0
 40
0.0
 40
0.0
 40
1.0
 40
1.0
 40
1.0
 40
1.0
 10
-294.9591650696588
 20
15.99281130432533
 30
0.0
 10
-294.9625164808052
 20
15.99164712993439
 30
0.0
 10
-294.9657620579183
 20
15.99034184347596
 30
0.0
 10
-294.9688665229829
 20
15.98854266486024
 30
0.0
  0
SPLINE
  5
48
330
1F
100
AcDbEntity
  8
0
 62
   250
370
    25
100
AcDbSpline
210
0.0
220
0.0
230
1.0
 70
     8
 71
     3
 72
     8
 73
     4
 74
     0
 42
0.0000000001
 43
0.0000000001
 12
1.0
 22
0.0
 32
0.0
 13
1.0
 23
0.0
 33
0.0
 40
0.0
 40
0.0
 40
0.0
 40
0.0
 40
1.0
 40
1.0
 40
1.0
 40
1.0
 10
505.1980784821267
 20
15.97951149377019
 30
0.0
 10
505.2053104746072
 20
15.97951149377019
 30
0.0
 10
505.1958912453738
 20
15.986355428108
 30
0.0
 10
505.1921517760948
 20
15.98854266486024
 30
0.0
  0
SPLINE
  5
49
330
1F
100
AcDbEntity
  8
0
 62
   250
370
    25
100
AcDbSpline
210
0.0
220
0.0
230
1.0
 70
     8
 71
     3
 72
     8
 73
     4
 74
     0
 42
0.0000000001
 43
0.0000000001
 12
1.0
 22
0.0
 32
0.0
 13
1.0
 23
0.0
 33
0.0
 40
0.0
 40
0.0
 40
0.0
 40
0.0
 40
1.0
 40
1.0
 40
1.0
 40
1.0
 10
505.1921517760948
 20
15.98854266486024
 30
0.0
 10
505.1890473110277
 20
15.99034184347596
 30
0.0
 10
505.1858017339181
 20
15.99164712993439
 30
0.0
 10
505.1824503227702
 20
15.99281130432533
 30
0.0
  0
POLYLINE
  5
4A
330
1F
100
AcDbEntity
  8
0
 62
   250
370
    25
100
AcDb2dPolyline
 66
     1
 10
0.0
 20
0.0
 30
0.0
  0
VERTEX
  5
4B
330
4A
100
AcDbEntity
  8
0
 62
   250
370
    25
100
AcDbVertex
100
AcDb2dVertex
 10
-276.4226511163716
 20
18.67951414946679
 30
0.0
  0
VERTEX
  5
4C
330
4A
100
AcDbEntity
  8
0
 62
   250
370
    25
100
AcDbVertex
100
AcDb2dVertex
 10
486.645936369483
 20
18.67951414946679
 30
0.0
  0
SEQEND
  5
4D
330
4A
100
AcDbEntity
  8
0
 62
   250
370
    25
  0
SPLINE
  5
4E
330
1F
100
AcDbEntity
  8
0
 62
   250
370
    25
100
AcDbSpline
210
0.0
220
0.0
230
1.0
 70
     8
 71
     3
 72
     8
 73
     4
 74
     0
 42
0.0000000001
 43
0.0000000001
 12
1.0
 22
0.0
 32
0.0
 13
1.0
 23
0.0
 33
0.0
 40
0.0
 40
0.0
 40
0.0
 40
0.0
 40
1.0
 40
1.0
 40
1.0
 40
1.0
 10
-294.9747932290151
 20
15.97951149377019
 30
0.0
 10
-294.9820252214961
 20
15.97951149377019
 30
0.0
 10
-294.972605992266
 20
15.986355428108
 30
0.0
 10
-294.9688665229829
 20
15.98854266486024
 30
0.0
  0
SPLINE
  5
4F
330
1F
100
AcDbEntity
  8
0
 62
   250
370
    25
100
AcDbSpline
210
0.0
220
0.0
230
1.0
 70
     8
 71
     3
 72
    38
 73
    34
 74
     0
 42
0.0000000001
 43
0.0000000001
 12
1.0
 22
0.0
 32
0.0
 13
1.0
 23
0.0
 33
0.0
 40
0.0
 40
0.0
 40
0.0
 40
0.0
 40
1.0
 40
1.0
 40
1.0
 40
2.0
 40
2.0
 40
2.0
 40
3.0
 40
3.0
 40
3.0
 40
4.0
 40
4.0
 40
4.0
 40
5.0
 40
5.0
 40
5.0
 40
6.0
 40
6.0
 40
6.0
 40
7.0
 40
7.0
 40
7.0
 40
8.0
 40
8.0
 40
8.0
 40
9.0
 40
9.0
 40
9.0
 40
10.0
 40
10.0
 40
10.0
 40
11.0
 40
11.0
 40
11.0
 40
11.0
 10
105.1116249875501
 20
-119.91602114321
 30
0.0
 10
104.2380002960246
 20
-119.9153508609991
 30
0.0
 10
103.3642697704664
 20
-119.9009221544177
 30
0.0
 10
102.4910684150862
 20
-119.8717825171584
 30
0.0
 10
101.6617529067564
 20
-119.8441245563774
 30
0.0
 10
100.8329312905897
 20
-119.80320206338
 30
0.0
 10
100.0050269027452
 20
-119.7467572454507
 30
0.0
 10
99.17535861428742
 20
-119.6902065934952
 30
0.0
 10
98.34660755414866
 20
-119.6180630605837
 30
0.0
 10
97.52046706690432
 20
-119.5234121565212
 30
0.0
 10
96.87025802597972
 20
-119.4489049968571
 30
0.0
 10
96.22160121758321
 20
-119.3604630227664
 30
0.0
 10
95.57650748841188
 20
-119.2489845073653
 30
0.0
 10
95.06197768200114
 20
-119.1600839191296
 30
0.0
 10
94.54967039035823
 20
-119.0565076782311
 30
0.0
 10
94.04621787974794
 20
-118.9190998245979
 30
0.0
 10
93.85395271382912
 20
-118.8666414219374
 30
0.0
 10
93.6629928343594
 20
-118.8092088196974
 30
0.0
 10
93.47534908802659
 20
-118.7410869800603
 30
0.0
 10
93.32792227547895
 20
-118.6875349590523
 30
0.0
 10
93.18257686564706
 20
-118.627385949952
 30
0.0
 10
93.04414594618704
 20
-118.5553482510738
 30
0.0
 10
92.94272166141374
 20
-118.5025723463077
 30
0.0
 10
92.8450015679084
 20
-118.4433758435121
 30
0.0
 10
92.7585704382762
 20
-118.3654114387496
 30
0.0
 10
92.69859781771565
 20
-118.3112949695662
 30
0.0
 10
92.64402273300196
 20
-118.2481120514999
 30
0.0
 10
92.62334981791399
 20
-118.1724759954801
 30
0.0
 10
92.60595775795119
 20
-118.1087991852559
 30
0.0
 10
92.61259002422561
 20
-118.0362675942204
 30
0.0
 10
92.64285855860493
 20
-117.9765066432376
 30
0.0
 10
92.67400904328385
 20
-117.9150170697085
 30
0.0
 10
92.73017163854024
 20
-117.8670389744703
 30
0.0
 10
92.77853779312167
 20
-117.8213892279691
 30
0.0
  0
SPLINE
  5
50
330
1F
100
AcDbEntity
  8
0
 62
   250
370
    25
100
AcDbSpline
210
0.0
220
0.0
230
1.0
 70
     8
 71
     3
 72
     8
 73
     4
 74
     0
 42
0.0000000001
 43
0.0000000001
 12
1.0
 22
0.0
 32
0.0
 13
1.0
 23
0.0
 33
0.0
 40
0.0
 40
0.0
 40
0.0
 40
0.0
 40
1.0
 40
1.0
 40
1.0
 40
1.0
 10
105.1116249875501
 20
-116.2522585676348
 30
0.0
 10
106.7430213788743
 20
-116.2523644016706
 30
0.0
 10
115.8533916123907
 20
-116.5025207791103
 30
0.0
 10
117.4447474599909
 20
-117.8213892279691
 30
0.0
  0
SPLINE
  5
51
330
1F
100
AcDbEntity
  8
0
 62
   250
370
    25
100
AcDbSpline
210
0.0
220
0.0
230
1.0
 70
     8
 71
     3
 72
     8
 73
     4
 74
     0
 42
0.0000000001
 43
0.0000000001
 12
1.0
 22
0.0
 32
0.0
 13
1.0
 23
0.0
 33
0.0
 40
0.0
 40
0.0
 40
0.0
 40
0.0
 40
1.0
 40
1.0
 40
1.0
 40
1.0
 10
105.0391286726946
 20
-116.252329123656
 30
0.0
 10
103.4160931702365
 20
-116.2541635802418
 30
0.0
 10
94.36110941571023
 20
-116.5098233274358
 30
0.0
 10
92.77853779312167
 20
-117.8213892279691
 30
0.0
  0
SPLINE
  5
52
330
1F
100
AcDbEntity
  8
0
 62
   250
370
    25
100
AcDbSpline
210
0.0
220
0.0
230
1.0
 70
     8
 71
     3
 72
     8
 73
     4
 74
     0
 42
0.0000000001
 43
0.0000000001
 12
1.0
 22
0.0
 32
0.0
 13
1.0
 23
0.0
 33
0.0
 40
0.0
 40
0.0
 40
0.0
 40
0.0
 40
1.0
 40
1.0
 40
1.0
 40
1.0
 10
105.1841565804141
 20
-119.9159505871858
 30
0.0
 10
105.1599911421312
 20
-119.9159858651982
 30
0.0
 10
105.1358257038483
 20
-119.91602114321
 30
0.0
 10
105.1116249875501
 20
-119.91602114321
 30
0.0
  0
POLYLINE
  5
53
330
1F
100
AcDbEntity
  8
0
 62
   250
370
    25
100
AcDb2dPolyline
 66
     1
 10
0.0
 20
0.0
 30
0.0
  0
VERTEX
  5
54
330
53
100
AcDbEntity
  8
0
 62
   250
370
    25
100
AcDbVertex
100
AcDb2dVertex
 10
-294.9591650696588
 20
15.99288186034977
 30
0.0
  0
VERTEX
  5
55
330
53
100
AcDbEntity
  8
0
 62
   250
370
    25
100
AcDbVertex
100
AcDb2dVertex
 10
-294.9581067292951
 20
15.99326991847987
 30
0.0
  0
SEQEND
  5
56
330
53
100
AcDbEntity
  8
0
 62
   250
370
    25
  0
SPLINE
  5
57
330
1F
100
AcDbEntity
  8
0
 62
   250
370
    25
100
AcDbSpline
210
0.0
220
0.0
230
1.0
 70
     8
 71
     3
 72
     8
 73
     4
 74
     0
 42
0.0000000001
 43
0.0000000001
 12
1.0
 22
0.0
 32
0.0
 13
1.0
 23
0.0
 33
0.0
 40
0.0
 40
0.0
 40
0.0
 40
0.0
 40
1.0
 40
1.0
 40
1.0
 40
1.0
 10
-294.9431841301781
 20
15.99856162029375
 30
0.0
 10
-292.4284968720132
 20
16.89215366667086
 30
0.0
 10
-289.9138448918571
 20
17.78581626905927
 30
0.0
 10
-287.399228189716
 20
18.67951414946679
 30
0.0
  0
SPLINE
  5
58
330
1F
100
AcDbEntity
  8
0
 62
   250
370
    25
100
AcDbSpline
210
0.0
220
0.0
230
1.0
 70
     8
 71
     3
 72
    38
 73
    34
 74
     0
 42
0.0000000001
 43
0.0000000001
 12
1.0
 22
0.0
 32
0.0
 13
1.0
 23
0.0
 33
0.0
 40
0.0
 40
0.0
 40
0.0
 40
0.0
 40
1.0
 40
1.0
 40
1.0
 40
2.0
 40
2.0
 40
2.0
 40
3.0
 40
3.0
 40
3.0
 40
4.0
 40
4.0
 40
4.0
 40
5.0
 40
5.0
 40
5.0
 40
6.0
 40
6.0
 40
6.0
 40
7.0
 40
7.0
 40
7.0
 40
8.0
 40
8.0
 40
8.0
 40
9.0
 40
9.0
 40
9.0
 40
10.0
 40
10.0
 40
10.0
 40
11.0
 40
11.0
 40
11.0
 40
11.0
 10
505.2017473953842
 20
15.97951149377019
 30
0.0
 10
505.1963145815225
 20
-19.97414508903218
 30
0.0
 10
505.2009712791157
 20
-55.92780167182556
 30
0.0
 10
505.20100655713
 20
-91.8814582546151
 30
0.0
 10
505.2010771131548
 20
-127.8392507915514
 30
0.0
 10
505.2010771131548
 20
-163.7969987153828
 30
0.0
 10
505.2010771131548
 20
-199.7547819172228
 30
0.0
 10
505.2010771131548
 20
-271.6662207935858
 30
0.0
 10
505.2011123911652
 20
-343.577659669959
 30
0.0
 10
505.2011123911652
 20
-415.4890632683166
 30
0.0
 10
505.2011123911652
 20
-419.9870802528418
 30
0.0
 10
505.2567105382309
 20
-424.4846739012325
 30
0.0
 10
505.1907759336248
 20
-428.9830428466853
 30
0.0
 10
505.1231479844391
 20
-433.5957487621727
 30
0.0
 10
504.4560407757135
 20
-437.8310857822556
 30
0.0
 10
502.521570982482
 20
-442.095350772275
 30
0.0
 10
498.817414990502
 20
-450.2606936177845
 30
0.0
 10
491.4713686978907
 20
-456.7557284246183
 30
0.0
 10
482.6051928641052
 20
-458.8255952282778
 30
0.0
 10
478.1290481334448
 20
-459.8706005025666
 30
0.0
 10
473.6882519709105
 20
-459.7148833571675
 30
0.0
 10
469.1897057025682
 20
-459.7560175192691
 30
0.0
 10
464.6916886044174
 20
-459.7971869593953
 30
0.0
 10
460.19370678427
 20
-459.8370863910694
 30
0.0
 10
455.6956896861185
 20
-459.8764566525738
 30
0.0
 10
446.7003257720322
 20
-459.9551618975503
 30
0.0
 10
437.7049618579524
 20
-460.0308685115059
 30
0.0
 10
428.7095626658621
 20
-460.1035059384125
 30
0.0
 10
392.7549535767375
 20
-460.3939498119954
 30
0.0
 10
356.800132819542
 20
-460.6359922529787
 30
0.0
 10
320.8448887262062
 20
-460.829597983352
 30
0.0
 10
248.9340477593999
 20
-461.2168447221238
 30
0.0
 10
177.0234890166985
 20
-461.4104151744936
 30
0.0
 10
105.1116249875501
 20
-461.4104857305113
 30
0.0
  0
SPLINE
  5
59
330
1F
100
AcDbEntity
  8
0
 62
   250
370
    25
100
AcDbSpline
210
0.0
220
0.0
230
1.0
 70
     8
 71
     3
 72
    38
 73
    34
 74
     0
 42
0.0000000001
 43
0.0000000001
 12
1.0
 22
0.0
 32
0.0
 13
1.0
 23
0.0
 33
0.0
 40
0.0
 40
0.0
 40
0.0
 40
0.0
 40
1.0
 40
1.0
 40
1.0
 40
2.0
 40
2.0
 40
2.0
 40
3.0
 40
3.0
 40
3.0
 40
4.0
 40
4.0
 40
4.0
 40
5.0
 40
5.0
 40
5.0
 40
6.0
 40
6.0
 40
6.0
 40
7.0
 40
7.0
 40
7.0
 40
8.0
 40
8.0
 40
8.0
 40
9.0
 40
9.0
 40
9.0
 40
10.0
 40
10.0
 40
10.0
 40
11.0
 40
11.0
 40
11.0
 40
11.0
 10
105.1116249875501
 20
-461.4104857305113
 30
0.0
 10
33.19976095839888
 20
-461.4104151744936
 30
0.0
 10
-38.71079778430643
 20
-461.2168447221238
 30
0.0
 10
-110.6216034730904
 20
-460.829597983352
 30
0.0
 10
-146.5768475664326
 20
-460.6359922529787
 30
0.0
 10
-182.5316683236259
 20
-460.3939498119954
 30
0.0
 10
-218.4862774127529
 20
-460.1035059384125
 30
0.0
 10
-227.4816766048423
 20
-460.0308685115059
 30
0.0
 10
-236.4770405189231
 20
-459.9551618975503
 30
0.0
 10
-245.4724044330069
 20
-459.8764566525738
 30
0.0
 10
-249.9704215311609
 20
-459.8370863910694
 30
0.0
 10
-254.4684386293181
 20
-459.7971869593953
 30
0.0
 10
-258.9664204494601
 20
-459.7560175192691
 30
0.0
 10
-263.4649667177992
 20
-459.7148833571675
 30
0.0
 10
-267.905798158348
 20
-459.8706005025666
 30
0.0
 10
-272.3819076109923
 20
-458.8255952282778
 30
0.0
 10
-281.2480834447794
 20
-456.7557284246183
 30
0.0
 10
-288.5941297373872
 20
-450.2606936177845
 30
0.0
 10
-292.2982857293675
 20
-442.095350772275
 30
0.0
 10
-294.2327555226054
 20
-437.8310505042522
 30
0.0
 10
-294.8998627313258
 20
-433.5957487621727
 30
0.0
 10
-294.9674906805128
 20
-428.9830428466853
 30
0.0
 10
-295.0334252851177
 20
-424.4846739012325
 30
0.0
 10
-294.9778271380552
 20
-419.9870802528418
 30
0.0
 10
-294.9778271380552
 20
-415.4890632683166
 30
0.0
 10
-294.9778271380552
 20
-343.577659669959
 30
0.0
 10
-294.9778271380552
 20
-271.6662207935858
 30
0.0
 10
-294.9777918600435
 20
-199.754817195232
 30
0.0
 10
-294.9777918600435
 20
-163.7719513274192
 30
0.0
 10
-294.9777918600435
 20
-127.7891207376278
 30
0.0
 10
-294.977721304019
 20
-91.80628081084718
 30
0.0
 10
-294.9776860260037
 20
-55.8776716166347
 30
0.0
 10
-294.9730646064241
 20
-19.94909770044294
 30
0.0
 10
-294.9784621422742
 20
15.97951149377019
 30
0.0
  0
SPLINE
  5
5A
330
1F
100
AcDbEntity
  8
0
 62
   250
370
    25
100
AcDbSpline
210
0.0
220
0.0
230
1.0
 70
     8
 71
     3
 72
     8
 73
     4
 74
     0
 42
0.0000000001
 43
0.0000000001
 12
1.0
 22
0.0
 32
0.0
 13
1.0
 23
0.0
 33
0.0
 40
0.0
 40
0.0
 40
0.0
 40
0.0
 40
1.0
 40
1.0
 40
1.0
 40
1.0
 10
497.6225134428281
 20
18.67951414946679
 30
0.0
 10
500.1371301449678
 20
17.78581626905927
 30
0.0
 10
502.6517821251252
 20
16.89215366667086
 30
0.0
 10
505.1664693832865
 20
15.99856162029375
 30
0.0
  0
POLYLINE
  5
5B
330
1F
100
AcDbEntity
  8
0
 62
   250
370
    25
100
AcDb2dPolyline
 66
     1
 10
0.0
 20
0.0
 30
0.0
  0
VERTEX
  5
5C
330
5B
100
AcDbEntity
  8
0
 62
   250
370
    25
100
AcDbVertex
100
AcDb2dVertex
 10
505.1817447625264
 20
15.99312880643131
 30
0.0
  0
VERTEX
  5
5D
330
5B
100
AcDbEntity
  8
0
 62
   250
370
    25
100
AcDbVertex
100
AcDb2dVertex
 10
505.1824503227702
 20
15.99288186034977
 30
0.0
  0
SEQEND
  5
5E
330
5B
100
AcDbEntity
  8
0
 62
   250
370
    25
  0
POLYLINE
  5
5F
330
1F
100
AcDbEntity
  8
0
 62
   250
370
    25
100
AcDb2dPolyline
 66
     1
 10
0.0
 20
0.0
 30
0.0
  0
VERTEX
  5
60
330
5F
100
AcDbEntity
  8
0
 62
   250
370
    25
100
AcDbVertex
100
AcDb2dVertex
 10
-96.18968622707744
 20
-93.32122448424879
 30
0.0
  0
VERTEX
  5
61
330
5F
100
AcDbEntity
  8
0
 62
   250
370
    25
100
AcDbVertex
100
AcDb2dVertex
 10
306.4129714801865
 20
-93.32122448424879
 30
0.0
  0
SEQEND
  5
62
330
5F
100
AcDbEntity
  8
0
 62
   250
370
    25
  0
SPLINE
  5
63
330
1F
100
AcDbEntity
  8
0
 62
   250
370
    25
100
AcDbSpline
210
0.0
220
0.0
230
1.0
 70
     8
 71
     3
 72
    65
 73
    61
 74
     0
 42
0.0000000001
 43
0.0000000001
 12
1.0
 22
0.0
 32
0.0
 13
1.0
 23
0.0
 33
0.0
 40
0.0
 40
0.0
 40
0.0
 40
0.0
 40
1.0
 40
1.0
 40
1.0
 40
2.0
 40
2.0
 40
2.0
 40
3.0
 40
3.0
 40
3.0
 40
4.0
 40
4.0
 40
4.0
 40
5.0
 40
5.0
 40
5.0
 40
6.0
 40
6.0
 40
6.0
 40
7.0
 40
7.0
 40
7.0
 40
8.0
 40
8.0
 40
8.0
 40
9.0
 40
9.0
 40
9.0
 40
10.0
 40
10.0
 40
10.0
 40
11.0
 40
11.0
 40
11.0
 40
12.0
 40
12.0
 40
12.0
 40
13.0
 40
13.0
 40
13.0
 40
14.0
 40
14.0
 40
14.0
 40
15.0
 40
15.0
 40
15.0
 40
16.0
 40
16.0
 40
16.0
 40
17.0
 40
17.0
 40
17.0
 40
18.0
 40
18.0
 40
18.0
 40
19.0
 40
19.0
 40
19.0
 40
20.0
 40
20.0
 40
20.0
 40
20.0
 10
105.1116249875501
 20
-430.6234704091114
 30
0.0
 10
61.00444369329806
 20
-430.6234704091114
 30
0.0
 10
16.89726239904922
 20
-430.5505860361233
 30
0.0
 10
-27.20970722713015
 20
-430.4047820121378
 30
0.0
 10
-50.0362038412477
 20
-430.3293223442631
 30
0.0
 10
-72.86262989934114
 20
-430.234353935704
 30
0.0
 10
-95.68895012339839
 20
-430.1198415084485
 30
0.0
 10
-110.9308505271176
 20
-430.0433940562349
 30
0.0
 10
-126.1726803748155
 20
-429.9582329350394
 30
0.0
 10
-141.4144396664893
 20
-429.8643228668363
 30
0.0
 10
-142.0653895456685
 20
-429.8603364514725
 30
0.0
 10
-142.7163394248473
 20
-429.8563147580982
 30
0.0
 10
-143.3672893040264
 20
-429.8522225086883
 30
0.0
 10
-144.0242011672531
 20
-429.8480949812788
 30
0.0
 10
-144.6810777524642
 20
-429.8439321758403
 30
0.0
 10
-145.3379543376753
 20
-429.8400515945188
 30
0.0
 10
-145.9607876412156
 20
-429.8364179592647
 30
0.0
 10
-146.5836209447559
 20
-429.8330312701127
 30
0.0
 10
-147.206418970281
 20
-429.8269987300423
 30
0.0
 10
-147.8875668278143
 20
-429.8204017417777
 30
0.0
 10
-148.5687146853484
 20
-429.8105944544211
 30
0.0
 10
-149.249580318785
 20
-429.7899568173474
 30
0.0
 10
-150.2679506939361
 20
-429.7590885567575
 30
0.0
 10
-151.285791898905
 20
-429.7040195798725
 30
0.0
 10
-152.3003522487488
 20
-429.6109561839626
 30
0.0
 10
-153.3062694856301
 20
-429.5186336263218
 30
0.0
 10
-154.3089764234122
 20
-429.3889516538586
 30
0.0
 10
-155.3039221985321
 20
-429.2145371620609
 30
0.0
 10
-157.2748694562748
 20
-428.8690243115961
 30
0.0
 10
-159.2153365115688
 20
-428.3479680729478
 30
0.0
 10
-161.093255651417
 20
-427.6574362642018
 30
0.0
 10
-162.8833678191623
 20
-426.9991838365255
 30
0.0
 10
-164.616611831409
 20
-426.1869428860362
 30
0.0
 10
-166.2774300848244
 20
-425.2485486778387
 30
0.0
 10
-168.1059600077388
 20
-424.2153968417187
 30
0.0
 10
-169.8467182365637
 20
-423.0293501050382
 30
0.0
 10
-171.487498579106
 20
-421.7185603207441
 30
0.0
 10
-173.6186080117643
 20
-420.0160082220332
 30
0.0
 10
-175.5810179905801
 20
-418.1030227864809
 30
0.0
 10
-177.3418141302745
 20
-416.0190801086437
 30
0.0
 10
-179.1341840907904
 20
-413.8977074609258
 30
0.0
 10
-180.7176023856704
 20
-411.5992039189366
 30
0.0
 10
-182.0263108003637
 20
-409.1503102151916
 30
0.0
 10
-183.1798312398494
 20
-406.9917898216714
 30
0.0
 10
-184.119919706162
 20
-404.7164286550388
 30
0.0
 10
-184.7946469654936
 20
-402.364090867957
 30
0.0
 10
-185.1425234427658
 20
-401.1513386767946
 30
0.0
 10
-185.4198438958436
 20
-399.9181605171519
 30
0.0
 10
-185.6292541756405
 20
-398.6736933939259
 30
0.0
 10
-185.842791982854
 20
-397.4045316628517
 30
0.0
 10
-185.9857032098517
 20
-396.1236576320526
 30
0.0
 10
-186.0695590446013
 20
-394.8398202483277
 30
0.0
 10
-186.1755341929333
 20
-393.2168553428828
 30
0.0
 10
-186.1871759369244
 20
-391.5891279059371
 30
0.0
 10
-186.1899628998833
 20
-389.96214130722
 30
0.0
 10
-186.1908095721715
 20
-389.4498340285153
 30
0.0
 10
-186.1908095721715
 20
-388.9375973058316
 30
0.0
 10
-186.1908095721715
 20
-388.4253253051445
 30
0.0
 10
-186.189892343856
 20
-325.0576210161813
 30
0.0
 10
-186.1906331821105
 20
-216.689462025508
 30
0.0
 10
-186.1902804019893
 20
-153.3216519025095
 30
0.0
  0
SPLINE
  5
64
330
1F
100
AcDbEntity
  8
0
 62
   250
370
    25
100
AcDbSpline
210
0.0
220
0.0
230
1.0
 70
     8
 71
     3
 72
    62
 73
    58
 74
     0
 42
0.0000000001
 43
0.0000000001
 12
1.0
 22
0.0
 32
0.0
 13
1.0
 23
0.0
 33
0.0
 40
0.0
 40
0.0
 40
0.0
 40
0.0
 40
1.0
 40
1.0
 40
1.0
 40
2.0
 40
2.0
 40
2.0
 40
3.0
 40
3.0
 40
3.0
 40
4.0
 40
4.0
 40
4.0
 40
5.0
 40
5.0
 40
5.0
 40
6.0
 40
6.0
 40
6.0
 40
7.0
 40
7.0
 40
7.0
 40
8.0
 40
8.0
 40
8.0
 40
9.0
 40
9.0
 40
9.0
 40
10.0
 40
10.0
 40
10.0
 40
11.0
 40
11.0
 40
11.0
 40
12.0
 40
12.0
 40
12.0
 40
13.0
 40
13.0
 40
13.0
 40
14.0
 40
14.0
 40
14.0
 40
15.0
 40
15.0
 40
15.0
 40
16.0
 40
16.0
 40
16.0
 40
17.0
 40
17.0
 40
17.0
 40
18.0
 40
18.0
 40
18.0
 40
19.0
 40
19.0
 40
19.0
 40
19.0
 10
105.1116249875501
 20
-455.3671505905463
 30
0.0
 10
42.7108188532875
 20
-455.3669036444513
 30
0.0
 10
-19.68998728097544
 20
-455.2212760105284
 30
0.0
 10
-82.09012313300731
 20
-454.9297032405609
 30
0.0
 10
-113.2901734200174
 20
-454.7838992165715
 30
0.0
 10
-144.4900825949789
 20
-454.6016177280847
 30
0.0
 10
-175.6897095458465
 20
-454.3829998871179
 30
0.0
 10
-191.2871417554614
 20
-454.2737086056474
 30
0.0
 10
-206.8845386870671
 20
-454.1553508750707
 30
0.0
 10
-222.4817945066214
 20
-454.0269741890565
 30
0.0
 10
-235.6379882792538
 20
-453.9187059699426
 30
0.0
 10
-248.79407621785
 20
-453.803276314369
 30
0.0
 10
-261.950199434455
 20
-453.6870352645063
 30
0.0
 10
-262.8148635109079
 20
-453.6793799358882
 30
0.0
 10
-263.6795275873611
 20
-453.6717246072592
 30
0.0
 10
-264.5440152737502
 20
-453.6502050198779
 30
0.0
 10
-265.5471808256907
 20
-453.6252634653277
 30
0.0
 10
-266.5501347095522
 20
-453.5816245643637
 30
0.0
 10
-267.5492080120882
 20
-453.4888786705782
 30
0.0
 10
-268.3868844092876
 20
-453.4111612099265
 30
0.0
 10
-269.2218443995557
 20
-453.2989065754378
 30
0.0
 10
-270.0484787789699
 20
-453.1425544258376
 30
0.0
 10
-270.8983260903426
 20
-452.9817925247212
 30
0.0
 10
-271.7393891767004
 20
-452.7744283696206
 30
0.0
 10
-272.564718269669
 20
-452.5159816530153
 30
0.0
 10
-273.2878822396065
 20
-452.2894968153606
 30
0.0
 10
-273.9989811294097
 20
-452.0237828282607
 30
0.0
 10
-274.6936404655747
 20
-451.7208858164099
 30
0.0
 10
-276.179338666949
 20
-451.073040402291
 30
0.0
 10
-277.5897888685252
 20
-450.2550491358413
 30
0.0
 10
-278.8993439555067
 20
-449.3005672405965
 30
0.0
 10
-280.3168850375182
 20
-448.2673448223564
 30
0.0
 10
-281.6162095009939
 20
-447.0741718972731
 30
0.0
 10
-282.7803839001346
 20
-445.7605598388985
 30
0.0
 10
-284.8037542838509
 20
-443.4775080081456
 30
0.0
 10
-286.4189933456376
 20
-440.8305987606449
 30
0.0
 10
-287.4602238726286
 20
-437.9647188920792
 30
0.0
 10
-287.960854142268
 20
-436.586865573682
 30
0.0
 10
-288.3288038084221
 20
-435.1583883079153
 30
0.0
 10
-288.5596983975863
 20
-433.710966749668
 30
0.0
 10
-288.6795025266617
 20
-432.9597920381282
 30
0.0
 10
-288.762405855084
 20
-432.2035372928427
 30
0.0
 10
-288.8187801184131
 20
-431.444989476762
 30
0.0
 10
-288.8834447145812
 20
-430.5747867524159
 30
0.0
 10
-288.913148800766
 20
-429.7016206750524
 30
0.0
 10
-288.9260958312063
 20
-428.8287720998021
 30
0.0
 10
-288.9374553511007
 20
-428.0644739677604
 30
0.0
 10
-288.9359383965789
 20
-427.3004580598183
 30
0.0
 10
-288.9352681143516
 20
-426.5362657618086
 30
0.0
 10
-288.9347389441662
 20
-425.935834892105
 30
0.0
 10
-288.9347036661574
 20
-425.3352973073877
 30
0.0
 10
-288.9347036661574
 20
-424.734759722657
 30
0.0
 10
-288.9345978321209
 20
-416.709329675864
 30
0.0
 10
-288.9345625541088
 20
-408.6840760191239
 30
0.0
 10
-288.9345272760967
 20
-400.6588223623839
 30
0.0
 10
-288.9341392179631
 20
-268.923884592655
 30
0.0
 10
-288.9350211682666
 20
-137.1888762668994
 30
0.0
 10
-288.9336806038054
 20
-5.453856422716647
 30
0.0
  0
SPLINE
  5
65
330
1F
100
AcDbEntity
  8
0
 62
   250
370
    25
100
AcDbSpline
210
0.0
220
0.0
230
1.0
 70
     8
 71
     3
 72
     8
 73
     4
 74
     0
 42
0.0000000001
 43
0.0000000001
 12
1.0
 22
0.0
 32
0.0
 13
1.0
 23
0.0
 33
0.0
 40
0.0
 40
0.0
 40
0.0
 40
0.0
 40
1.0
 40
1.0
 40
1.0
 40
1.0
 10
-288.9336806038054
 20
-5.453856422716647
 30
0.0
 10
-287.1663580318765
 20
-5.454068090786443
 30
0.0
 10
-285.3990001819311
 20
-5.454244480847065
 30
0.0
 10
-283.6316423319898
 20
-5.455161709162563
 30
0.0
  0
SPLINE
  5
66
330
1F
100
AcDbEntity
  8
0
 62
   250
370
    25
100
AcDbSpline
210
0.0
220
0.0
230
1.0
 70
     8
 71
     3
 72
    65
 73
    61
 74
     0
 42
0.0000000001
 43
0.0000000001
 12
1.0
 22
0.0
 32
0.0
 13
1.0
 23
0.0
 33
0.0
 40
0.0
 40
0.0
 40
0.0
 40
0.0
 40
1.0
 40
1.0
 40
1.0
 40
2.0
 40
2.0
 40
2.0
 40
3.0
 40
3.0
 40
3.0
 40
4.0
 40
4.0
 40
4.0
 40
5.0
 40
5.0
 40
5.0
 40
6.0
 40
6.0
 40
6.0
 40
7.0
 40
7.0
 40
7.0
 40
8.0
 40
8.0
 40
8.0
 40
9.0
 40
9.0
 40
9.0
 40
10.0
 40
10.0
 40
10.0
 40
11.0
 40
11.0
 40
11.0
 40
12.0
 40
12.0
 40
12.0
 40
13.0
 40
13.0
 40
13.0
 40
14.0
 40
14.0
 40
14.0
 40
15.0
 40
15.0
 40
15.0
 40
16.0
 40
16.0
 40
16.0
 40
17.0
 40
17.0
 40
17.0
 40
18.0
 40
18.0
 40
18.0
 40
19.0
 40
19.0
 40
19.0
 40
20.0
 40
20.0
 40
20.0
 40
20.0
 10
-283.6316423319898
 20
-5.455161709162563
 30
0.0
 10
-283.6330181744627
 20
-19.38112170571375
 30
0.0
 10
-283.633159286508
 20
-33.30708170225787
 30
0.0
 10
-283.6332651205445
 20
-47.23304169880585
 30
0.0
 10
-283.6342176268721
 20
-167.3172503413766
 30
0.0
 10
-283.6341117928359
 20
-287.4014837989549
 30
0.0
 10
-283.6347115190419
 20
-407.4857172565383
 30
0.0
 10
-283.6347115190419
 20
-414.0580812998582
 30
0.0
 10
-283.6347467970543
 20
-420.6304453431673
 30
0.0
 10
-283.6339706807871
 20
-427.2024204642019
 30
0.0
 10
-283.6339001247629
 20
-427.645441740089
 30
0.0
 10
-283.6338648467512
 20
-428.0884277379722
 30
0.0
 10
-283.6295609292769
 20
-428.5316254039187
 30
0.0
 10
-283.616437508776
 20
-429.8811152005995
 30
0.0
 10
-283.563943826778
 20
-431.2324394538946
 30
0.0
 10
-283.371537548811
 20
-432.5669713734419
 30
0.0
 10
-283.205872004012
 20
-433.716223173466
 30
0.0
 10
-282.9364538256428
 20
-434.8530218352299
 30
0.0
 10
-282.5537579504355
 20
-435.9497093972242
 30
0.0
 10
-282.1683103902824
 20
-437.0542992339394
 30
0.0
 10
-281.6678917887125
 20
-438.1182135227048
 30
0.0
 10
-281.0769498081063
 20
-439.1282935650083
 30
0.0
 10
-280.4559509611969
 20
-440.189773670947
 30
0.0
 10
-279.7349742280088
 20
-441.1917750484774
 30
0.0
 10
-278.927425253137
 20
-442.1190928744189
 30
0.0
 10
-278.0116433371591
 20
-443.1707304149726
 30
0.0
 10
-276.9844887369962
 20
-444.1263412066104
 30
0.0
 10
-275.8623304502622
 20
-444.9543867064977
 30
0.0
 10
-274.7937594639021
 20
-445.7429208328567
 30
0.0
 10
-273.6390042939914
 20
-446.4158136355506
 30
0.0
 10
-272.4157392245904
 20
-446.9324248446723
 30
0.0
 10
-271.857746907282
 20
-447.1680819654717
 30
0.0
 10
-271.2855022730874
 20
-447.371248037124
 30
0.0
 10
-270.7039795217116
 20
-447.5416408355441
 30
0.0
 10
-270.0649183326051
 20
-447.7288965237478
 30
0.0
 10
-269.4146740136688
 20
-447.8766408384085
 30
0.0
 10
-268.7591027149033
 20
-447.9896715891587
 30
0.0
 10
-267.2667016912296
 20
-448.2469541313604
 30
0.0
 10
-265.7467838181239
 20
-448.3243893679137
 30
0.0
 10
-264.2317343106858
 20
-448.3572331971705
 30
0.0
 10
-263.5111809136433
 20
-448.372861356531
 30
0.0
 10
-262.791721134977
 20
-448.3784000044389
 30
0.0
 10
-262.0714852400405
 20
-448.3844678225126
 30
0.0
 10
-261.5601657327308
 20
-448.3888070180003
 30
0.0
 10
-261.048458167291
 20
-448.3934284375869
 30
0.0
 10
-260.5367506018512
 20
-448.3980145791593
 30
0.0
 10
-254.2097449666246
 20
-448.4549532906839
 30
0.0
 10
-247.8846796220592
 20
-448.511715612135
 30
0.0
 10
-241.5591203853268
 20
-448.5666434769674
 30
0.0
 10
-235.8379440518082
 20
-448.6163501960161
 30
0.0
 10
-230.1163443821439
 20
-448.664575238548
 30
0.0
 10
-224.3947799904917
 20
-448.7116008286744
 30
0.0
 10
-208.7137036142002
 20
-448.8404714068516
 30
0.0
 10
-193.0329800180268
 20
-448.9603460919581
 30
0.0
 10
-177.3521505878169
 20
-449.0710132158987
 30
0.0
 10
-145.9596940228395
 20
-449.2925238538404
 30
0.0
 10
-114.5668493997284
 20
-449.4769573010798
 30
0.0
 10
-83.17382838656019
 20
-449.6244899476591
 30
0.0
 10
-20.41244569067302
 20
-449.9194141287792
 30
0.0
 10
42.34960728744458
 20
-450.0667703852985
 30
0.0
 10
105.1116249875501
 20
-450.0670878874112
 30
0.0
  0
SPLINE
  5
67
330
1F
100
AcDbEntity
  8
0
 62
   250
370
    25
100
AcDbSpline
210
0.0
220
0.0
230
1.0
 70
     8
 71
     3
 72
     8
 73
     4
 74
     0
 42
0.0000000001
 43
0.0000000001
 12
1.0
 22
0.0
 32
0.0
 13
1.0
 23
0.0
 33
0.0
 40
0.0
 40
0.0
 40
0.0
 40
0.0
 40
1.0
 40
1.0
 40
1.0
 40
1.0
 10
-287.4641750099781
 20
0.8367070260199898
 30
0.0
 10
-288.4675169519796
 20
-1.19364840408905
 30
0.0
 10
-288.9336806038054
 20
-3.189113880245905
 30
0.0
 10
-288.9336806038054
 20
-5.453856422716647
 30
0.0
  0
SPLINE
  5
68
330
1F
100
AcDbEntity
  8
0
 62
   250
370
    25
100
AcDbSpline
210
0.0
220
0.0
230
1.0
 70
     8
 71
     3
 72
    17
 73
    13
 74
     0
 42
0.0000000001
 43
0.0000000001
 12
1.0
 22
0.0
 32
0.0
 13
1.0
 23
0.0
 33
0.0
 40
0.0
 40
0.0
 40
0.0
 40
0.0
 40
1.0
 40
1.0
 40
1.0
 40
2.0
 40
2.0
 40
2.0
 40
3.0
 40
3.0
 40
3.0
 40
4.0
 40
4.0
 40
4.0
 40
4.0
 10
485.5259300414855
 20
4.59208669156117
 30
0.0
 10
467.1156055374641
 20
4.592862807828105
 30
0.0
 10
68.29094070149131
 20
5.375188004053253
 30
0.0
 10
49.88061619746922
 20
5.364604600416184
 30
0.0
 10
33.89918282619563
 20
5.355432317274047
 30
0.0
 10
17.91778473293732
 20
5.343226125091821
 30
0.0
 10
1.936386639678683
 20
5.326186845247365
 30
0.0
 10
-30.07502264751053
 20
5.29210828556423
 30
0.0
 10
-62.08639665668479
 20
5.238662097241932
 30
0.0
 10
-94.0977706658584
 20
5.172233600460848
 30
0.0
 10
-154.4995835227607
 20
5.046926101498872
 30
0.0
 10
-214.9013611016512
 20
4.875474962719455
 30
0.0
 10
-275.3026447883746
 20
4.59208669156117
 30
0.0
  0
SPLINE
  5
69
330
1F
100
AcDbEntity
  8
0
 62
   250
370
    25
100
AcDbSpline
210
0.0
220
0.0
230
1.0
 70
     8
 71
     3
 72
     8
 73
     4
 74
     0
 42
0.0000000001
 43
0.0000000001
 12
1.0
 22
0.0
 32
0.0
 13
1.0
 23
0.0
 33
0.0
 40
0.0
 40
0.0
 40
0.0
 40
0.0
 40
1.0
 40
1.0
 40
1.0
 40
1.0
 10
-275.3367586260698
 20
9.174947408807888
 30
0.0
 10
-280.9006303036561
 20
9.147889173536015
 30
0.0
 10
-285.146339059306
 20
5.527200958162328
 30
0.0
 10
-287.4641750099781
 20
0.8367070260199898
 30
0.0
  0
SPLINE
  5
6A
330
1F
100
AcDbEntity
  8
0
 62
   250
370
    25
100
AcDbSpline
210
0.0
220
0.0
230
1.0
 70
     8
 71
     3
 72
     8
 73
     4
 74
     0
 42
0.0000000001
 43
0.0000000001
 12
1.0
 22
0.0
 32
0.0
 13
1.0
 23
0.0
 33
0.0
 40
0.0
 40
0.0
 40
0.0
 40
0.0
 40
1.0
 40
1.0
 40
1.0
 40
1.0
 10
485.5600438791811
 20
9.174947408807888
 30
0.0
 10
358.7441629540595
 20
9.793653184924947
 30
0.0
 10
-148.519748804561
 20
9.17519435489584
 30
0.0
 10
-275.3367586260698
 20
9.174947408807888
 30
0.0
  0
SPLINE
  5
6B
330
1F
100
AcDbEntity
  8
0
 62
   250
370
    25
100
AcDbSpline
210
0.0
220
0.0
230
1.0
 70
     8
 71
     3
 72
    62
 73
    58
 74
     0
 42
0.0000000001
 43
0.0000000001
 12
1.0
 22
0.0
 32
0.0
 13
1.0
 23
0.0
 33
0.0
 40
0.0
 40
0.0
 40
0.0
 40
0.0
 40
1.0
 40
1.0
 40
1.0
 40
2.0
 40
2.0
 40
2.0
 40
3.0
 40
3.0
 40
3.0
 40
4.0
 40
4.0
 40
4.0
 40
5.0
 40
5.0
 40
5.0
 40
6.0
 40
6.0
 40
6.0
 40
7.0
 40
7.0
 40
7.0
 40
8.0
 40
8.0
 40
8.0
 40
9.0
 40
9.0
 40
9.0
 40
10.0
 40
10.0
 40
10.0
 40
11.0
 40
11.0
 40
11.0
 40
12.0
 40
12.0
 40
12.0
 40
13.0
 40
13.0
 40
13.0
 40
14.0
 40
14.0
 40
14.0
 40
15.0
 40
15.0
 40
15.0
 40
16.0
 40
16.0
 40
16.0
 40
17.0
 40
17.0
 40
17.0
 40
18.0
 40
18.0
 40
18.0
 40
19.0
 40
19.0
 40
19.0
 40
19.0
 10
499.156965856918
 20
-5.453856422716647
 30
0.0
 10
499.1583064213769
 20
-137.1888762668994
 30
0.0
 10
499.1573891930627
 20
-268.923884592655
 30
0.0
 10
499.1573539150484
 20
-400.6588929184016
 30
0.0
 10
499.1573539150484
 20
-408.6841465751417
 30
0.0
 10
499.1573539150484
 20
-416.7094355098922
 30
0.0
 10
499.1583769774017
 20
-424.7346891666393
 30
0.0
 10
499.1584475334265
 20
-425.3351914733564
 30
0.0
 10
499.1585180894512
 20
-425.935729058073
 30
0.0
 10
499.1587650355328
 20
-426.5362304837943
 30
0.0
 10
499.1590825376455
 20
-427.3004933378179
 30
0.0
 10
499.1596469858327
 20
-428.0647561918453
 30
0.0
 10
499.1485696900348
 20
-428.8289837678655
 30
0.0
 10
499.1359048836958
 20
-429.7016912310842
 30
0.0
 10
499.1080352541417
 20
-430.5743986942855
 30
0.0
 10
499.0433353799593
 20
-431.4447072526777
 30
0.0
 10
498.9869258386178
 20
-432.2033256247755
 30
0.0
 10
498.9025408336909
 20
-432.9601800962586
 30
0.0
 10
498.7821017003932
 20
-433.7114606418446
 30
0.0
 10
498.5500076588232
 20
-435.1591997022046
 30
0.0
 10
498.1840335613479
 20
-436.5864422375373
 30
0.0
 10
497.6842146859825
 20
-437.9639427758178
 30
0.0
 10
496.6446422255592
 20
-440.8291170841435
 30
0.0
 10
495.0260164746167
 20
-443.4792013527354
 30
0.0
 10
493.002822480952
 20
-445.7613359551709
 30
0.0
 10
491.8386833598256
 20
-447.0744541213753
 30
0.0
 10
490.5406289047899
 20
-448.2657220338016
 30
0.0
 10
489.123228934825
 20
-449.2995441782535
 30
0.0
 10
487.8138149598923
 20
-450.2545552436789
 30
0.0
 10
486.4025533640331
 20
-451.0751923610367
 30
0.0
 10
484.9167140506137
 20
-451.7218383227345
 30
0.0
 10
484.2219841584258
 20
-452.0242061644061
 30
0.0
 10
483.510955824648
 20
-452.2885090310178
 30
0.0
 10
482.7878624107295
 20
-452.5149585906588
 30
0.0
 10
481.9626038737921
 20
-452.7734053072673
 30
0.0
 10
481.1216113434559
 20
-452.9825333629651
 30
0.0
 10
480.2717993100917
 20
-453.1433658201134
 30
0.0
 10
479.4451649306772
 20
-453.2997885257383
 30
0.0
 10
478.6102049404113
 20
-453.4104909277002
 30
0.0
 10
477.7725285432094
 20
-453.4878556082217
 30
0.0
 10
476.7734199626686
 20
-453.5801428878623
 30
0.0
 10
475.7704660787995
 20
-453.6250165192462
 30
0.0
 10
474.7673005268663
 20
-453.6504166879561
 30
0.0
 10
473.902812840474
 20
-453.6723243334678
 30
0.0
 10
473.038148764018
 20
-453.6797679940116
 30
0.0
 10
472.1734846875657
 20
-453.6872469325838
 30
0.0
 10
459.0173967489733
 20
-453.8008068535139
 30
0.0
 10
445.8612735323673
 20
-453.918000409702
 30
0.0
 10
432.7051150377432
 20
-454.0270800230917
 30
0.0
 10
417.107788662168
 20
-454.156373937424
 30
0.0
 10
401.5104270085689
 20
-454.2742377758383
 30
0.0
 10
385.9129947989553
 20
-454.383211555189
 30
0.0
 10
354.7133678480918
 20
-454.6011943919259
 30
0.0
 10
323.51345867313
 20
-454.7836169924757
 30
0.0
 10
292.3134083861199
 20
-454.9294915724936
 30
0.0
 10
229.9132725340842
 20
-455.2212760105284
 30
0.0
 10
167.5124663998216
 20
-455.3669036444513
 30
0.0
 10
105.1116249875501
 20
-455.3671505905463
 30
0.0
  0
POLYLINE
  5
6C
330
1F
100
AcDbEntity
  8
0
 62
   250
370
    25
100
AcDb2dPolyline
 66
     1
 10
0.0
 20
0.0
 30
0.0
  0
VERTEX
  5
6D
330
6C
100
AcDbEntity
  8
0
 62
   250
370
    25
100
AcDbVertex
100
AcDb2dVertex
 10
105.1116249875501
 20
-455.4105072674042
 30
0.0
  0
VERTEX
  5
6E
330
6C
100
AcDbEntity
  8
0
 62
   250
370
    25
100
AcDbVertex
100
AcDb2dVertex
 10
105.1116249875501
 20
-455.3671505905463
 30
0.0
  0
SEQEND
  5
6F
330
6C
100
AcDbEntity
  8
0
 62
   250
370
    25
  0
SPLINE
  5
70
330
1F
100
AcDbEntity
  8
0
 62
   250
370
    25
100
AcDbSpline
210
0.0
220
0.0
230
1.0
 70
     8
 71
     3
 72
     8
 73
     4
 74
     0
 42
0.0000000001
 43
0.0000000001
 12
1.0
 22
0.0
 32
0.0
 13
1.0
 23
0.0
 33
0.0
 40
0.0
 40
0.0
 40
0.0
 40
0.0
 40
1.0
 40
1.0
 40
1.0
 40
1.0
 10
485.5259300414855
 20
4.59208669156117
 30
0.0
 10
485.5420520930084
 20
6.119695171302741
 30
0.0
 10
485.5534116129092
 20
7.647303651044311
 30
0.0
 10
485.5600438791811
 20
9.174947408807888
 30
0.0
  0
SPLINE
  5
71
330
1F
100
AcDbEntity
  8
0
 62
   250
370
    25
100
AcDbSpline
210
0.0
220
0.0
230
1.0
 70
     8
 71
     3
 72
     8
 73
     4
 74
     0
 42
0.0000000001
 43
0.0000000001
 12
1.0
 22
0.0
 32
0.0
 13
1.0
 23
0.0
 33
0.0
 40
0.0
 40
0.0
 40
0.0
 40
0.0
 40
1.0
 40
1.0
 40
1.0
 40
1.0
 10
493.8549275851011
 20
-5.455161709162563
 30
0.0
 10
493.8535164646167
 20
-4.039384527764
 30
0.0
 10
493.5606384082001
 20
-2.792483190255777
 30
0.0
 10
492.9316667305583
 20
-1.524097543386368
 30
0.0
  0
SPLINE
  5
72
330
1F
100
AcDbEntity
  8
0
 62
   250
370
    25
100
AcDbSpline
210
0.0
220
0.0
230
1.0
 70
     8
 71
     3
 72
     8
 73
     4
 74
     0
 42
0.0000000001
 43
0.0000000001
 12
1.0
 22
0.0
 32
0.0
 13
1.0
 23
0.0
 33
0.0
 40
0.0
 40
0.0
 40
0.0
 40
0.0
 40
1.0
 40
1.0
 40
1.0
 40
1.0
 10
497.687460263092
 20
0.8367070260199898
 30
0.0
 10
498.6908022050916
 20
-1.19364840408905
 30
0.0
 10
499.156965856918
 20
-3.189113880245905
 30
0.0
 10
499.156965856918
 20
-5.453856422716647
 30
0.0
  0
SPLINE
  5
73
330
1F
100
AcDbEntity
  8
0
 62
   250
370
    25
100
AcDbSpline
210
0.0
220
0.0
230
1.0
 70
     8
 71
     3
 72
    20
 73
    16
 74
     0
 42
0.0000000001
 43
0.0000000001
 12
1.0
 22
0.0
 32
0.0
 13
1.0
 23
0.0
 33
0.0
 40
0.0
 40
0.0
 40
0.0
 40
0.0
 40
1.0
 40
1.0
 40
1.0
 40
2.0
 40
2.0
 40
2.0
 40
3.0
 40
3.0
 40
3.0
 40
4.0
 40
4.0
 40
4.0
 40
5.0
 40
5.0
 40
5.0
 40
5.0
 10
492.9316667305583
 20
-1.524097543386368
 30
0.0
 10
492.761168098103
 20
-1.063225593380231
 30
0.0
 10
492.5681973719417
 20
-0.6090917436757175
 30
0.0
 10
492.3495795309857
 20
-0.1683635385692606
 30
0.0
 10
492.1357947776946
 20
0.2626632132032427
 30
0.0
 10
491.8974565279793
 20
0.6808487685850951
 30
0.0
 10
491.6322011550351
 20
1.082312546221411
 30
0.0
 10
491.1396495501643
 20
1.827807497817254
 30
0.0
 10
490.5542109394437
 20
2.515693455665418
 30
0.0
 10
489.8648080270786
 20
3.083986952504117
 30
0.0
 10
489.2485717118006
 20
3.591990326673087
 30
0.0
 10
488.5492556780404
 20
4.0044255660801
 30
0.0
 10
487.7948353893839
 20
4.264530349258906
 30
0.0
 10
487.0689197345006
 20
4.514792567055838
 30
0.0
 10
486.291921518103
 20
4.623978014491744
 30
0.0
 10
485.5259300414855
 20
4.59208669156117
 30
0.0
  0
SPLINE
  5
74
330
1F
100
AcDbEntity
  8
0
 62
   250
370
    25
100
AcDbSpline
210
0.0
220
0.0
230
1.0
 70
     8
 71
     3
 72
     8
 73
     4
 74
     0
 42
0.0000000001
 43
0.0000000001
 12
1.0
 22
0.0
 32
0.0
 13
1.0
 23
0.0
 33
0.0
 40
0.0
 40
0.0
 40
0.0
 40
0.0
 40
1.0
 40
1.0
 40
1.0
 40
1.0
 10
485.5600438791811
 20
9.174947408807888
 30
0.0
 10
491.1239155567655
 20
9.147889173536015
 30
0.0
 10
495.3696243124173
 20
5.527200958162328
 30
0.0
 10
497.687460263092
 20
0.8367070260199898
 30
0.0
  0
SPLINE
  5
75
330
1F
100
AcDbEntity
  8
0
 62
   250
370
    25
100
AcDbSpline
210
0.0
220
0.0
230
1.0
 70
     8
 71
     3
 72
     8
 73
     4
 74
     0
 42
0.0000000001
 43
0.0000000001
 12
1.0
 22
0.0
 32
0.0
 13
1.0
 23
0.0
 33
0.0
 40
0.0
 40
0.0
 40
0.0
 40
0.0
 40
1.0
 40
1.0
 40
1.0
 40
1.0
 10
493.8549275851011
 20
-5.455161709162563
 30
0.0
 10
495.6222854350434
 20
-5.454244480847065
 30
0.0
 10
497.3896080069751
 20
-5.454068090786443
 30
0.0
 10
499.156965856918
 20
-5.453856422716647
 30
0.0
  0
SPLINE
  5
76
330
1F
100
AcDbEntity
  8
0
 62
   250
370
    25
100
AcDbSpline
210
0.0
220
0.0
230
1.0
 70
     8
 71
     3
 72
    65
 73
    61
 74
     0
 42
0.0000000001
 43
0.0000000001
 12
1.0
 22
0.0
 32
0.0
 13
1.0
 23
0.0
 33
0.0
 40
0.0
 40
0.0
 40
0.0
 40
0.0
 40
1.0
 40
1.0
 40
1.0
 40
2.0
 40
2.0
 40
2.0
 40
3.0
 40
3.0
 40
3.0
 40
4.0
 40
4.0
 40
4.0
 40
5.0
 40
5.0
 40
5.0
 40
6.0
 40
6.0
 40
6.0
 40
7.0
 40
7.0
 40
7.0
 40
8.0
 40
8.0
 40
8.0
 40
9.0
 40
9.0
 40
9.0
 40
10.0
 40
10.0
 40
10.0
 40
11.0
 40
11.0
 40
11.0
 40
12.0
 40
12.0
 40
12.0
 40
13.0
 40
13.0
 40
13.0
 40
14.0
 40
14.0
 40
14.0
 40
15.0
 40
15.0
 40
15.0
 40
16.0
 40
16.0
 40
16.0
 40
17.0
 40
17.0
 40
17.0
 40
18.0
 40
18.0
 40
18.0
 40
19.0
 40
19.0
 40
19.0
 40
20.0
 40
20.0
 40
20.0
 40
20.0
 10
105.1116249875501
 20
-450.0670878874112
 30
0.0
 10
167.8736779656613
 20
-450.0667703852985
 30
0.0
 10
230.6357309437792
 20
-449.9194141287792
 30
0.0
 10
293.3970783616604
 20
-449.6244899476591
 30
0.0
 10
324.7900640968169
 20
-449.4769573010798
 30
0.0
 10
356.1829087199251
 20
-449.2924885758331
 30
0.0
 10
387.5754711189426
 20
-449.0710132158987
 30
0.0
 10
403.256371105176
 20
-448.9603460919581
 30
0.0
 10
418.9372358133957
 20
-448.8404714068516
 30
0.0
 10
434.6179946875795
 20
-448.7116008286744
 30
0.0
 10
440.3394532451917
 20
-448.6646105165623
 30
0.0
 10
446.0608765247966
 20
-448.6163854740298
 30
0.0
 10
451.7822998043984
 20
-448.566608198964
 30
0.0
 10
458.1080707092077
 20
-448.511609778103
 30
0.0
 10
464.4338416140105
 20
-448.4546710665887
 30
0.0
 10
470.7596830748406
 20
-448.3983320812649
 30
0.0
 10
471.2712848062452
 20
-448.393781217703
 30
0.0
 10
471.7828865376498
 20
-448.3892303541418
 30
0.0
 10
472.2943824350185
 20
-448.384785324626
 30
0.0
 10
473.0149005540505
 20
-448.3785411164845
 30
0.0
 10
473.7351717269978
 20
-448.3725085764071
 30
0.0
 10
474.4559015141003
 20
-448.3567393050042
 30
0.0
 10
475.9712685236491
 20
-448.3235779736379
 30
0.0
 10
477.488505267835
 20
-448.2473421895018
 30
0.0
 10
478.9817882418122
 20
-447.9900949253034
 30
0.0
 10
479.6377828767186
 20
-447.8770994525572
 30
0.0
 10
480.2891560920415
 20
-447.7291787478437
 30
0.0
 10
480.9281467251251
 20
-447.5416761135584
 30
0.0
 10
481.5095989204748
 20
-447.3710363690503
 30
0.0
 10
482.0808204923226
 20
-447.1676233513165
 30
0.0
 10
482.6384247514964
 20
-446.9319309525022
 30
0.0
 10
483.8607725925797
 20
-446.4152139093562
 30
0.0
 10
485.0175033311696
 20
-445.7432736129734
 30
0.0
 10
486.0862859856026
 20
-444.9547747646396
 30
0.0
 10
487.2086206623986
 20
-444.1267645427552
 30
0.0
 10
488.2339760839457
 20
-443.1702718008136
 30
0.0
 10
489.1499343899833
 20
-442.1187048162776
 30
0.0
 10
489.9576597549103
 20
-441.1914222683567
 30
0.0
 10
490.6803298326841
 20
-440.1901970070917
 30
0.0
 10
491.3011875675416
 20
-439.1286816231393
 30
0.0
 10
491.8919884361
 20
-438.1185310248143
 30
0.0
 10
492.3905725810417
 20
-437.0538053417769
 30
0.0
 10
492.7761612532437
 20
-435.9492860610866
 30
0.0
 10
493.1589629624888
 20
-434.8527043331172
 30
0.0
 10
493.4303919875496
 20
-433.7169640117311
 30
0.0
 10
493.5962692004184
 20
-432.5677474897169
 30
0.0
 10
493.7888871464559
 20
-431.2333214042093
 30
0.0
 10
493.8391935917093
 20
-429.8807624204725
 30
0.0
 10
493.8519995100972
 20
-428.5311315117563
 30
0.0
 10
493.8561975935392
 20
-428.0878985677916
 30
0.0
 10
493.8563387055887
 20
-427.6449478479228
 30
0.0
 10
493.8564798176344
 20
-427.2019971280571
 30
0.0
 10
493.8585964983586
 20
-420.6307981232802
 30
0.0
 10
493.8585259423338
 20
-414.0583988019568
 30
0.0
 10
493.8584201082986
 20
-407.4860347586369
 30
0.0
 10
493.8570089878149
 20
-287.4012721308883
 30
0.0
 10
493.8574676019701
 20
-167.3172503413766
 30
0.0
 10
493.8565503736591
 20
-47.23300642079347
 30
0.0
 10
493.8564445396207
 20
-33.30708170225787
 30
0.0
 10
493.8563034275712
 20
-19.38112170571375
 30
0.0
 10
493.8549275851011
 20
-5.455161709162563
 30
0.0
  0
SPLINE
  5
77
330
1F
100
AcDbEntity
  8
0
 62
   250
370
    25
100
AcDbSpline
210
0.0
220
0.0
230
1.0
 70
     8
 71
     3
 72
     8
 73
     4
 74
     0
 42
0.0000000001
 43
0.0000000001
 12
1.0
 22
0.0
 32
0.0
 13
1.0
 23
0.0
 33
0.0
 40
0.0
 40
0.0
 40
0.0
 40
0.0
 40
1.0
 40
1.0
 40
1.0
 40
1.0
 10
-275.3026447883746
 20
4.59208669156117
 30
0.0
 10
-275.3187668399006
 20
6.119695171302741
 30
0.0
 10
-275.330126359795
 20
7.647303651044311
 30
0.0
 10
-275.3367586260698
 20
9.174947408807888
 30
0.0
  0
SPLINE
  5
78
330
1F
100
AcDbEntity
  8
0
 62
   250
370
    25
100
AcDbSpline
210
0.0
220
0.0
230
1.0
 70
     8
 71
     3
 72
    26
 73
    22
 74
     0
 42
0.0000000001
 43
0.0000000001
 12
1.0
 22
0.0
 32
0.0
 13
1.0
 23
0.0
 33
0.0
 40
0.0
 40
0.0
 40
0.0
 40
0.0
 40
1.0
 40
1.0
 40
1.0
 40
2.0
 40
2.0
 40
2.0
 40
3.0
 40
3.0
 40
3.0
 40
4.0
 40
4.0
 40
4.0
 40
5.0
 40
5.0
 40
5.0
 40
6.0
 40
6.0
 40
6.0
 40
7.0
 40
7.0
 40
7.0
 40
7.0
 10
-282.708381477446
 20
-1.524097543386368
 30
0.0
 10
-282.5382003471005
 20
-1.063119759340841
 30
0.0
 10
-282.3448415628088
 20
-0.6093034117484011
 30
0.0
 10
-282.1262589998636
 20
-0.168645762659969
 30
0.0
 10
-281.9124389685566
 20
0.2623457110975861
 30
0.0
 10
-281.6744887769752
 20
0.6807076565362116
 30
0.0
 10
-281.4093039600555
 20
1.082171434179265
 30
0.0
 10
-280.9169287452424
 20
1.827595829744249
 30
0.0
 10
-280.3307845742832
 20
2.514811505358451
 30
0.0
 10
-279.6419108321015
 20
3.083493060337196
 30
0.0
 10
-279.3326990560867
 20
3.33876475585698
 30
0.0
 10
-279.0027790869748
 20
3.570188515199827
 30
0.0
 10
-278.6550789997632
 20
3.769650395590867
 30
0.0
 10
-278.4867676040575
 20
3.866206314686346
 30
0.0
 10
-278.3143286809356
 20
3.955248017216476
 30
0.0
 10
-278.137973898473
 20
4.036246332986233
 30
0.0
 10
-277.9668049837879
 20
4.11484574394101
 30
0.0
 10
-277.7920024338563
 20
4.185825104268268
 30
0.0
 10
-277.6143070869326
 20
4.248584687787042
 30
0.0
 10
-276.8750210654629
 20
4.509712533314639
 30
0.0
 10
-276.0861341589935
 20
4.628387766005399
 30
0.0
 10
-275.3026447883746
 20
4.59208669156117
 30
0.0
  0
SPLINE
  5
79
330
1F
100
AcDbEntity
  8
0
 62
   250
370
    25
100
AcDbSpline
210
0.0
220
0.0
230
1.0
 70
     8
 71
     3
 72
     8
 73
     4
 74
     0
 42
0.0000000001
 43
0.0000000001
 12
1.0
 22
0.0
 32
0.0
 13
1.0
 23
0.0
 33
0.0
 40
0.0
 40
0.0
 40
0.0
 40
0.0
 40
1.0
 40
1.0
 40
1.0
 40
1.0
 10
-283.6316423319898
 20
-5.455161709162563
 30
0.0
 10
-283.6302312115074
 20
-4.039384527764
 30
0.0
 10
-283.3373531550913
 20
-2.792483190255777
 30
0.0
 10
-282.708381477446
 20
-1.524097543386368
 30
0.0
  0
SPLINE
  5
7A
330
1F
100
AcDbEntity
  8
0
 62
   250
370
    25
100
AcDbSpline
210
0.0
220
0.0
230
1.0
 70
     8
 71
     3
 72
    56
 73
    52
 74
     0
 42
0.0000000001
 43
0.0000000001
 12
1.0
 22
0.0
 32
0.0
 13
1.0
 23
0.0
 33
0.0
 40
0.0
 40
0.0
 40
0.0
 40
0.0
 40
1.0
 40
1.0
 40
1.0
 40
2.0
 40
2.0
 40
2.0
 40
3.0
 40
3.0
 40
3.0
 40
4.0
 40
4.0
 40
4.0
 40
5.0
 40
5.0
 40
5.0
 40
6.0
 40
6.0
 40
6.0
 40
7.0
 40
7.0
 40
7.0
 40
8.0
 40
8.0
 40
8.0
 40
9.0
 40
9.0
 40
9.0
 40
10.0
 40
10.0
 40
10.0
 40
11.0
 40
11.0
 40
11.0
 40
12.0
 40
12.0
 40
12.0
 40
13.0
 40
13.0
 40
13.0
 40
14.0
 40
14.0
 40
14.0
 40
15.0
 40
15.0
 40
15.0
 40
16.0
 40
16.0
 40
16.0
 40
17.0
 40
17.0
 40
17.0
 40
17.0
 10
-96.18968622707744
 20
-93.32122448424879
 30
0.0
 10
-116.2906036267238
 20
-93.32125976225797
 30
0.0
 10
-136.3915210263701
 20
-93.32118920623961
 30
0.0
 10
-156.4924384260164
 20
-93.32133031828529
 30
0.0
 10
-157.9592276129061
 20
-93.32136559629703
 30
0.0
 10
-159.4260167997992
 20
-93.32136559629703
 30
0.0
 10
-160.89277070868
 20
-93.32087170412112
 30
0.0
 10
-162.0958567551598
 20
-93.32048364599711
 30
0.0
 10
-163.2989075236309
 20
-93.31974280773903
 30
0.0
 10
-164.5019935701103
 20
-93.32249449268554
 30
0.0
 10
-165.1269082763632
 20
-93.32390561317116
 30
0.0
 10
-165.7518229826164
 20
-93.32626923998082
 30
0.0
 10
-166.3762437967026
 20
-93.35064634633673
 30
0.0
 10
-167.3846657724415
 20
-93.38998132982425
 30
0.0
 10
-168.3918882957715
 20
-93.4867136389871
 30
0.0
 10
-169.3848937802236
 20
-93.66589066242027
 30
0.0
 10
-170.2627518332019
 20
-93.8243242147375
 30
0.0
 10
-171.1294973123644
 20
-94.04717541714132
 30
0.0
 10
-171.9746526481298
 20
-94.33232758891
 30
0.0
 10
-173.7355898998726
 20
-94.92644459060199
 30
0.0
 10
-175.4026170834141
 20
-95.79096755500342
 30
0.0
 10
-176.9309664014135
 20
-96.8494490299058
 30
0.0
 10
-177.9738902729808
 20
-97.57176632755834
 30
0.0
 10
-178.952255382414
 20
-98.3843953361646
 30
0.0
 10
-179.8595000194646
 20
-99.27079066806984
 30
0.0
 10
-180.9361496706002
 20
-100.3227104327219
 30
0.0
 10
-181.912680323405
 20
-101.4785592210119
 30
0.0
 10
-182.7601287299557
 20
-102.72313220971
 30
0.0
 10
-183.6090235350012
 20
-103.9698218791427
 30
0.0
 10
-184.3284480356583
 20
-105.3055532511023
 30
0.0
 10
-184.8775502939188
 20
-106.7096886885154
 30
0.0
 10
-185.3500992659317
 20
-107.9179958807878
 30
0.0
 10
-185.696529344703
 20
-109.177006474606
 30
0.0
 10
-185.9036112757055
 20
-110.4578805053968
 30
0.0
 10
-185.9970980077578
 20
-111.0361929430601
 30
0.0
 10
-186.0621859400717
 20
-111.6189856881527
 30
0.0
 10
-186.1058248410367
 20
-112.2031895536896
 30
0.0
 10
-186.1611407639988
 20
-112.9434986188083
 30
0.0
 10
-186.1819900691474
 20
-113.6860301986271
 30
0.0
 10
-186.1888692815072
 20
-114.4284912224257
 30
0.0
 10
-186.1943020953696
 20
-115.0150587147141
 30
0.0
 10
-186.1909506842197
 20
-115.6015909289896
 30
0.0
 10
-186.1898217878344
 20
-116.1881231432656
 30
0.0
 10
-186.1889045595196
 20
-116.6663871411607
 30
0.0
 10
-186.1894337297047
 20
-117.1446864170585
 30
0.0
 10
-186.1897865098227
 20
-117.6229856929627
 30
0.0
 10
-186.1905626260861
 20
-118.6636164674583
 30
0.0
 10
-186.1905626260861
 20
-119.7042119639434
 30
0.0
 10
-186.1905273480744
 20
-120.7448074604257
 30
0.0
 10
-186.1903156799982
 20
-131.6037320891101
 30
0.0
 10
-186.1902804019893
 20
-142.4626919958095
 30
0.0
 10
-186.1902804019893
 20
-153.3216519025095
 30
0.0
  0
SPLINE
  5
7B
330
1F
100
AcDbEntity
  8
0
 62
   250
370
    25
100
AcDbSpline
210
0.0
220
0.0
230
1.0
 70
     8
 71
     3
 72
    65
 73
    61
 74
     0
 42
0.0000000001
 43
0.0000000001
 12
1.0
 22
0.0
 32
0.0
 13
1.0
 23
0.0
 33
0.0
 40
0.0
 40
0.0
 40
0.0
 40
0.0
 40
1.0
 40
1.0
 40
1.0
 40
2.0
 40
2.0
 40
2.0
 40
3.0
 40
3.0
 40
3.0
 40
4.0
 40
4.0
 40
4.0
 40
5.0
 40
5.0
 40
5.0
 40
6.0
 40
6.0
 40
6.0
 40
7.0
 40
7.0
 40
7.0
 40
8.0
 40
8.0
 40
8.0
 40
9.0
 40
9.0
 40
9.0
 40
10.0
 40
10.0
 40
10.0
 40
11.0
 40
11.0
 40
11.0
 40
12.0
 40
12.0
 40
12.0
 40
13.0
 40
13.0
 40
13.0
 40
14.0
 40
14.0
 40
14.0
 40
15.0
 40
15.0
 40
15.0
 40
16.0
 40
16.0
 40
16.0
 40
17.0
 40
17.0
 40
17.0
 40
18.0
 40
18.0
 40
18.0
 40
19.0
 40
19.0
 40
19.0
 40
20.0
 40
20.0
 40
20.0
 40
20.0
 10
105.1116249875501
 20
-430.6234704091114
 30
0.0
 10
149.218841559811
 20
-430.6234704091114
 30
0.0
 10
193.3260228540631
 20
-430.5505860361233
 30
0.0
 10
237.4329924802421
 20
-430.4047820121378
 30
0.0
 10
260.2594890943539
 20
-430.3293223442631
 30
0.0
 10
283.0859151524538
 20
-430.234353935704
 30
0.0
 10
305.9122353765075
 20
-430.1198415084485
 30
0.0
 10
321.154135780233
 20
-430.0433940562349
 30
0.0
 10
336.3959656279281
 20
-429.9582329350394
 30
0.0
 10
351.6377249195984
 20
-429.8643228668363
 30
0.0
 10
352.2886747987778
 20
-429.8603364514725
 30
0.0
 10
352.9396246779586
 20
-429.8563147580982
 30
0.0
 10
353.5905745571407
 20
-429.8522225086883
 30
0.0
 10
354.2474864203612
 20
-429.8480949812788
 30
0.0
 10
354.9043630055746
 20
-429.8439321758403
 30
0.0
 10
355.5612395907847
 20
-429.8400515945188
 30
0.0
 10
356.1840728943279
 20
-429.8364179592647
 30
0.0
 10
356.8069061978672
 20
-429.8330312701127
 30
0.0
 10
357.4297042233923
 20
-429.8269987300423
 30
0.0
 10
358.110852080927
 20
-429.8204017417777
 30
0.0
 10
358.7919999384616
 20
-429.8105944544211
 30
0.0
 10
359.4728655718973
 20
-429.7899568173474
 30
0.0
 10
360.4912359470455
 20
-429.7590885567575
 30
0.0
 10
361.5090771520132
 20
-429.7040195798725
 30
0.0
 10
362.5236375018576
 20
-429.6109561839626
 30
0.0
 10
363.5295547387373
 20
-429.5186336263218
 30
0.0
 10
364.5322616765255
 20
-429.3889516538586
 30
0.0
 10
365.5272074516425
 20
-429.2145371620609
 30
0.0
 10
367.4981547093856
 20
-428.8690243115961
 30
0.0
 10
369.4386217646808
 20
-428.3479680729478
 30
0.0
 10
371.3165409045289
 20
-427.6574362642018
 30
0.0
 10
373.1066530722762
 20
-426.9991838365255
 30
0.0
 10
374.8398970845165
 20
-426.1869428860362
 30
0.0
 10
376.5007153379348
 20
-425.2485486778387
 30
0.0
 10
378.3292452608476
 20
-424.2153968417187
 30
0.0
 10
380.0700034896744
 20
-423.0293501050382
 30
0.0
 10
381.7107838322173
 20
-421.7185603207441
 30
0.0
 10
383.8418932648753
 20
-420.0160082220332
 30
0.0
 10
385.8043032436888
 20
-418.1030227864809
 30
0.0
 10
387.5650641053703
 20
-416.0190801086437
 30
0.0
 10
389.3574693439024
 20
-413.8977074609258
 30
0.0
 10
390.9408876387823
 20
-411.5992039189366
 30
0.0
 10
392.2495960534744
 20
-409.1503102151916
 30
0.0
 10
393.403116492962
 20
-406.9917898216714
 30
0.0
 10
394.3432049592707
 20
-404.7164286550388
 30
0.0
 10
395.017932218604
 20
-402.364090867957
 30
0.0
 10
395.3658086958752
 20
-401.1513386767946
 30
0.0
 10
395.6431291489562
 20
-399.9181605171519
 30
0.0
 10
395.8525394287531
 20
-398.6736933939259
 30
0.0
 10
396.0660772359672
 20
-397.4045316628517
 30
0.0
 10
396.2089884629637
 20
-396.1236576320526
 30
0.0
 10
396.2928442977145
 20
-394.8398202483277
 30
0.0
 10
396.3988194460475
 20
-393.2168553428828
 30
0.0
 10
396.4104611900403
 20
-391.5891279059371
 30
0.0
 10
396.4132481529972
 20
-389.96214130722
 30
0.0
 10
396.4140948252873
 20
-389.4498340285153
 30
0.0
 10
396.4140948252873
 20
-388.9375973058316
 30
0.0
 10
396.4140948252873
 20
-388.4253253051445
 30
0.0
 10
396.413142318955
 20
-325.0576210161813
 30
0.0
 10
396.4139184352235
 20
-216.689462025508
 30
0.0
 10
396.4135656551003
 20
-153.3216519025095
 30
0.0
  0
SPLINE
  5
7C
330
1F
100
AcDbEntity
  8
0
 62
   250
370
    25
100
AcDbSpline
210
0.0
220
0.0
230
1.0
 70
     8
 71
     3
 72
    56
 73
    52
 74
     0
 42
0.0000000001
 43
0.0000000001
 12
1.0
 22
0.0
 32
0.0
 13
1.0
 23
0.0
 33
0.0
 40
0.0
 40
0.0
 40
0.0
 40
0.0
 40
1.0
 40
1.0
 40
1.0
 40
2.0
 40
2.0
 40
2.0
 40
3.0
 40
3.0
 40
3.0
 40
4.0
 40
4.0
 40
4.0
 40
5.0
 40
5.0
 40
5.0
 40
6.0
 40
6.0
 40
6.0
 40
7.0
 40
7.0
 40
7.0
 40
8.0
 40
8.0
 40
8.0
 40
9.0
 40
9.0
 40
9.0
 40
10.0
 40
10.0
 40
10.0
 40
11.0
 40
11.0
 40
11.0
 40
12.0
 40
12.0
 40
12.0
 40
13.0
 40
13.0
 40
13.0
 40
14.0
 40
14.0
 40
14.0
 40
15.0
 40
15.0
 40
15.0
 40
16.0
 40
16.0
 40
16.0
 40
17.0
 40
17.0
 40
17.0
 40
17.0
 10
306.4129714801865
 20
-93.32122448424879
 30
0.0
 10
326.5138888798361
 20
-93.32125976225797
 30
0.0
 10
346.6148062794792
 20
-93.32118920623961
 30
0.0
 10
366.7157236791293
 20
-93.32133031828529
 30
0.0
 10
368.1825128660225
 20
-93.32136559629703
 30
0.0
 10
369.6493020529086
 20
-93.32136559629703
 30
0.0
 10
371.1160559617914
 20
-93.32087170412112
 30
0.0
 10
372.3191420082743
 20
-93.32048364599711
 30
0.0
 10
373.5221927767429
 20
-93.31974280773903
 30
0.0
 10
374.7252788232188
 20
-93.32249449268554
 30
0.0
 10
375.3501935294758
 20
-93.32390561317116
 30
0.0
 10
375.9751082357322
 20
-93.32626923998082
 30
0.0
 10
376.5995290498127
 20
-93.35064634633673
 30
0.0
 10
377.6079510255509
 20
-93.38998132982425
 30
0.0
 10
378.6151735488829
 20
-93.4867136389871
 30
0.0
 10
379.6081790333356
 20
-93.66589066242027
 30
0.0
 10
380.4860370863106
 20
-93.8243242147375
 30
0.0
 10
381.3527825654805
 20
-94.04717541714132
 30
0.0
 10
382.1979379012406
 20
-94.33232758891
 30
0.0
 10
383.958875152982
 20
-94.92644459060199
 30
0.0
 10
385.6259023365306
 20
-95.79096755500342
 30
0.0
 10
387.1542516545216
 20
-96.8494490299058
 30
0.0
 10
388.1971755260967
 20
-97.57176632755834
 30
0.0
 10
389.1755406355285
 20
-98.3843953361646
 30
0.0
 10
390.0827852725772
 20
-99.27079066806984
 30
0.0
 10
391.1594349237129
 20
-100.3227104327219
 30
0.0
 10
392.1359302985052
 20
-101.4785592210119
 30
0.0
 10
392.9834139830676
 20
-102.72313220971
 30
0.0
 10
393.8323087881106
 20
-103.9698218791427
 30
0.0
 10
394.5516980107573
 20
-105.3055532511023
 30
0.0
 10
395.1008355470295
 20
-106.7096886885154
 30
0.0
 10
395.5733845190392
 20
-107.9179958807878
 30
0.0
 10
395.9198145978189
 20
-109.177006474606
 30
0.0
 10
396.1268612508067
 20
-110.4578805053968
 30
0.0
 10
396.2203832608679
 20
-111.0361929430601
 30
0.0
 10
396.2854711931878
 20
-111.6189856881527
 30
0.0
 10
396.329110094148
 20
-112.2031895536896
 30
0.0
 10
396.3844260171114
 20
-112.9434986188083
 30
0.0
 10
396.4052753222593
 20
-113.6860301986271
 30
0.0
 10
396.412154534616
 20
-114.4284912224257
 30
0.0
 10
396.4175520704712
 20
-115.0150587147141
 30
0.0
 10
396.4142359373298
 20
-115.6015909289896
 30
0.0
 10
396.4131070409483
 20
-116.1881231432656
 30
0.0
 10
396.4121898126303
 20
-116.6663871411607
 30
0.0
 10
396.4127189828102
 20
-117.1446864170585
 30
0.0
 10
396.4130717629302
 20
-117.6229856929627
 30
0.0
 10
396.4138478791987
 20
-118.6636164674583
 30
0.0
 10
396.4138478791987
 20
-119.7042119639434
 30
0.0
 10
396.413812601185
 20
-120.7448074604257
 30
0.0
 10
396.4136009331178
 20
-131.6037320891101
 30
0.0
 10
396.4135656551003
 20
-142.4626919958095
 30
0.0
 10
396.4135656551003
 20
-153.3216519025095
 30
0.0
  0
SPLINE
  5
7D
330
1F
100
AcDbEntity
  8
0
 62
   250
370
    25
100
AcDbSpline
210
0.0
220
0.0
230
1.0
 70
     8
 71
     3
 72
     8
 73
     4
 74
     0
 42
0.0000000001
 43
0.0000000001
 12
1.0
 22
0.0
 32
0.0
 13
1.0
 23
0.0
 33
0.0
 40
0.0
 40
0.0
 40
0.0
 40
0.0
 40
1.0
 40
1.0
 40
1.0
 40
1.0
 10
117.5788039059529
 20
-117.9764008092046
 30
0.0
 10
133.3068000383309
 20
-117.9764008092046
 30
0.0
 10
216.2511439137183
 20
-117.8353013397151
 30
0.0
 10
231.9791400460963
 20
-117.8353013397151
 30
0.0
  0
SPLINE
  5
7E
330
1F
100
AcDbEntity
  8
0
 62
   250
370
    25
100
AcDbSpline
210
0.0
220
0.0
230
1.0
 70
    24
 71
     3
 72
     8
 73
     4
 74
     0
 42
0.0000000001
 43
0.0000000001
 12
1.0
 22
0.0
 32
0.0
 13
1.0
 23
0.0
 33
0.0
 40
0.0
 40
0.0
 40
0.0
 40
0.0
 40
1.0
 40
1.0
 40
1.0
 40
1.0
 10
-24.80501681067405
 20
-117.8213892279691
 30
0.0
 10
-0.8130052329574287
 20
-117.8213892279691
 30
0.0
 10
69.0521696464828
 20
-117.8213892279691
 30
0.0
 10
93.04414594618704
 20
-117.8213892279691
 30
0.0
  0
SPLINE
  5
7F
330
1F
100
AcDbEntity
  8
0
 62
   250
370
    25
100
AcDbSpline
210
0.0
220
0.0
230
1.0
 70
     8
 71
     3
 72
     8
 73
     4
 74
     0
 42
0.0000000001
 43
0.0000000001
 12
1.0
 22
0.0
 32
0.0
 13
1.0
 23
0.0
 33
0.0
 40
0.0
 40
0.0
 40
0.0
 40
0.0
 40
1.0
 40
1.0
 40
1.0
 40
1.0
 10
-269.7576821252696
 20
-459.3104209485025
 30
0.0
 10
-269.484983091775
 20
-459.3490150937383
 30
0.0
 10
-269.2119312781591
 20
-459.3843283838362
 30
0.0
 10
-268.9383855723733
 20
-459.4163608188288
 30
0.0
  0
SPLINE
  5
80
330
1F
100
AcDbEntity
  8
0
 62
   250
370
    25
100
AcDbSpline
210
0.0
220
0.0
230
1.0
 70
     8
 71
     3
 72
     8
 73
     4
 74
     0
 42
0.0000000001
 43
0.0000000001
 12
1.0
 22
0.0
 32
0.0
 13
1.0
 23
0.0
 33
0.0
 40
0.0
 40
0.0
 40
0.0
 40
0.0
 40
1.0
 40
1.0
 40
1.0
 40
1.0
 10
-278.9827058980928
 20
-456.3541940909534
 30
0.0
 10
-278.8577511792489
 20
-456.4203403636229
 30
0.0
 10
-278.7323025682413
 20
-456.4854988519676
 30
0.0
 10
-278.6063600650606
 20
-456.5497048339799
 30
0.0
  0
SPLINE
  5
81
330
1F
100
AcDbEntity
  8
0
 62
   250
370
    25
100
AcDbSpline
210
0.0
220
0.0
230
1.0
 70
     8
 71
     3
 72
     8
 73
     4
 74
     0
 42
0.0000000001
 43
0.0000000001
 12
1.0
 22
0.0
 32
0.0
 13
1.0
 23
0.0
 33
0.0
 40
0.0
 40
0.0
 40
0.0
 40
0.0
 40
1.0
 40
1.0
 40
1.0
 40
1.0
 10
-280.0930460507748
 20
-455.7341124723606
 30
0.0
 10
-279.849451377255
 20
-455.8774823135058
 30
0.0
 10
-279.6038105790387
 20
-456.0170774073712
 30
0.0
 10
-279.3559825440694
 20
-456.1530741440039
 30
0.0
  0
SPLINE
  5
82
330
1F
100
AcDbEntity
  8
0
 62
   250
370
    25
100
AcDbSpline
210
0.0
220
0.0
230
1.0
 70
     8
 71
     3
 72
     8
 73
     4
 74
     0
 42
0.0000000001
 43
0.0000000001
 12
1.0
 22
0.0
 32
0.0
 13
1.0
 23
0.0
 33
0.0
 40
0.0
 40
0.0
 40
0.0
 40
0.0
 40
1.0
 40
1.0
 40
1.0
 40
1.0
 10
-280.8169861369789
 20
-455.2935253793046
 30
0.0
 10
-280.6974289539883
 20
-455.3687381010836
 30
0.0
 10
-280.5773426008154
 20
-455.4430688725691
 30
0.0
 10
-280.4566917994515
 20
-455.5164824157474
 30
0.0
  0
SPLINE
  5
83
330
1F
100
AcDbEntity
  8
0
 62
   250
370
    25
100
AcDbSpline
210
0.0
220
0.0
230
1.0
 70
     8
 71
     3
 72
     8
 73
     4
 74
     0
 42
0.0000000001
 43
0.0000000001
 12
1.0
 22
0.0
 32
0.0
 13
1.0
 23
0.0
 33
0.0
 40
0.0
 40
0.0
 40
0.0
 40
0.0
 40
1.0
 40
1.0
 40
1.0
 40
1.0
 10
-294.8700528111046
 20
-431.5041507030616
 30
0.0
 10
-294.8346336869603
 20
-432.0562515923513
 30
0.0
 10
-294.7865850344883
 20
-432.6068355271158
 30
0.0
 10
-294.725871575673
 20
-433.1567491796495
 30
0.0
  0
SPLINE
  5
84
330
1F
100
AcDbEntity
  8
0
 62
   250
370
    25
100
AcDbSpline
210
0.0
220
0.0
230
1.0
 70
     8
 71
     3
 72
     8
 73
     4
 74
     0
 42
0.0000000001
 43
0.0000000001
 12
1.0
 22
0.0
 32
0.0
 13
1.0
 23
0.0
 33
0.0
 40
0.0
 40
0.0
 40
0.0
 40
0.0
 40
1.0
 40
1.0
 40
1.0
 40
1.0
 10
-294.9626928708659
 20
-429.0516233021995
 30
0.0
 10
-294.958424231404
 20
-429.3232287173196
 30
0.0
 10
-294.9526033594086
 20
-429.5947635764227
 30
0.0
 10
-294.9448069187332
 20
-429.8662631575006
 30
0.0
  0
SPLINE
  5
85
330
1F
100
AcDbEntity
  8
0
 62
   250
370
    25
100
AcDbSpline
210
0.0
220
0.0
230
1.0
 70
     8
 71
     3
 72
     8
 73
     4
 74
     0
 42
0.0000000001
 43
0.0000000001
 12
1.0
 22
0.0
 32
0.0
 13
1.0
 23
0.0
 33
0.0
 40
0.0
 40
0.0
 40
0.0
 40
0.0
 40
1.0
 40
1.0
 40
1.0
 40
1.0
 10
479.9809673783777
 20
-459.3104209485025
 30
0.0
 10
479.7082683448828
 20
-459.3490150937383
 30
0.0
 10
479.4352165312678
 20
-459.3843283838362
 30
0.0
 10
479.1616708254828
 20
-459.4163608188288
 30
0.0
  0
SPLINE
  5
86
330
1F
100
AcDbEntity
  8
0
 62
   250
370
    25
100
AcDbSpline
210
0.0
220
0.0
230
1.0
 70
     8
 71
     3
 72
     8
 73
     4
 74
     0
 42
0.0000000001
 43
0.0000000001
 12
1.0
 22
0.0
 32
0.0
 13
1.0
 23
0.0
 33
0.0
 40
0.0
 40
0.0
 40
0.0
 40
0.0
 40
1.0
 40
1.0
 40
1.0
 40
1.0
 10
489.205991151201
 20
-456.3541940909534
 30
0.0
 10
489.0810364323628
 20
-456.4203403636229
 30
0.0
 10
488.9555878213519
 20
-456.4854988519676
 30
0.0
 10
488.8296453181709
 20
-456.5497048339799
 30
0.0
  0
SPLINE
  5
87
330
1F
100
AcDbEntity
  8
0
 62
   250
370
    25
100
AcDbSpline
210
0.0
220
0.0
230
1.0
 70
     8
 71
     3
 72
     8
 73
     4
 74
     0
 42
0.0000000001
 43
0.0000000001
 12
1.0
 22
0.0
 32
0.0
 13
1.0
 23
0.0
 33
0.0
 40
0.0
 40
0.0
 40
0.0
 40
0.0
 40
1.0
 40
1.0
 40
1.0
 40
1.0
 10
490.3163313038842
 20
-455.7341124723606
 30
0.0
 10
490.0727366303702
 20
-455.8774823135058
 30
0.0
 10
489.8270958321471
 20
-456.0170774073712
 30
0.0
 10
489.5792677971775
 20
-456.1530741440039
 30
0.0
  0
SPLINE
  5
88
330
1F
100
AcDbEntity
  8
0
 62
   250
370
    25
100
AcDbSpline
210
0.0
220
0.0
230
1.0
 70
     8
 71
     3
 72
     8
 73
     4
 74
     0
 42
0.0000000001
 43
0.0000000001
 12
1.0
 22
0.0
 32
0.0
 13
1.0
 23
0.0
 33
0.0
 40
0.0
 40
0.0
 40
0.0
 40
0.0
 40
1.0
 40
1.0
 40
1.0
 40
1.0
 10
491.0402713900889
 20
-455.2935253793046
 30
0.0
 10
490.9207142070989
 20
-455.3687381010836
 30
0.0
 10
490.8006278539283
 20
-455.4430688725691
 30
0.0
 10
490.6799770525641
 20
-455.5164824157474
 30
0.0
  0
SPLINE
  5
89
330
1F
100
AcDbEntity
  8
0
 62
   250
370
    25
100
AcDbSpline
210
0.0
220
0.0
230
1.0
 70
     8
 71
     3
 72
     8
 73
     4
 74
     0
 42
0.0000000001
 43
0.0000000001
 12
1.0
 22
0.0
 32
0.0
 13
1.0
 23
0.0
 33
0.0
 40
0.0
 40
0.0
 40
0.0
 40
0.0
 40
1.0
 40
1.0
 40
1.0
 40
1.0
 10
505.0933380642137
 20
-431.5041507030616
 30
0.0
 10
505.0579189400697
 20
-432.0562515923513
 30
0.0
 10
505.009870287601
 20
-432.6068355271158
 30
0.0
 10
504.9491568287862
 20
-433.1567491796495
 30
0.0
  0
SPLINE
  5
8A
330
1F
100
AcDbEntity
  8
0
 62
   250
370
    25
100
AcDbSpline
210
0.0
220
0.0
230
1.0
 70
     8
 71
     3
 72
     8
 73
     4
 74
     0
 42
0.0000000001
 43
0.0000000001
 12
1.0
 22
0.0
 32
0.0
 13
1.0
 23
0.0
 33
0.0
 40
0.0
 40
0.0
 40
0.0
 40
0.0
 40
1.0
 40
1.0
 40
1.0
 40
1.0
 10
505.1859781239749
 20
-429.0516233021995
 30
0.0
 10
505.1817094845159
 20
-429.3232287173196
 30
0.0
 10
505.175888612516
 20
-429.5947635764227
 30
0.0
 10
505.1680921718445
 20
-429.8662631575006
 30
0.0
  0
SPLINE
  5
8B
330
1F
100
AcDbEntity
  8
0
 62
   250
370
    25
100
AcDbSpline
210
0.0
220
0.0
230
1.0
 70
     8
 71
     3
 72
    11
 73
     7
 74
     0
 42
0.0000000001
 43
0.0000000001
 12
1.0
 22
0.0
 32
0.0
 13
1.0
 23
0.0
 33
0.0
 40
0.0
 40
0.0
 40
0.0
 40
0.0
 40
1.0
 40
1.0
 40
1.0
 40
2.0
 40
2.0
 40
2.0
 40
2.0
 10
87.62635730668299
 20
-48.15139387443276
 30
0.0
 10
87.62635730668299
 20
-38.48634033026031
 30
0.0
 10
95.46143298218789
 20
-30.65126445682238
 30
0.0
 10
105.1264862821987
 20
-30.65126445682238
 30
0.0
 10
114.7915395822094
 20
-30.65126445682238
 30
0.0
 10
122.6266152577147
 20
-38.48634033026031
 30
0.0
 10
122.6266152577147
 20
-48.15139387443276
 30
0.0
  0
SPLINE
  5
8C
330
1F
100
AcDbEntity
  8
0
 62
   250
370
    25
100
AcDbSpline
210
0.0
220
0.0
230
1.0
 70
     8
 71
     3
 72
    11
 73
     7
 74
     0
 42
0.0000000001
 43
0.0000000001
 12
1.0
 22
0.0
 32
0.0
 13
1.0
 23
0.0
 33
0.0
 40
0.0
 40
0.0
 40
0.0
 40
0.0
 40
1.0
 40
1.0
 40
1.0
 40
2.0
 40
2.0
 40
2.0
 40
2.0
 10
122.6266152577147
 20
-48.15139387443276
 30
0.0
 10
122.6266152577147
 20
-57.816447418602
 30
0.0
 10
114.7915395822094
 20
-65.6515232920303
 30
0.0
 10
105.1264862821987
 20
-65.6515232920303
 30
0.0
 10
95.46143298218789
 20
-65.6515232920303
 30
0.0
 10
87.62635730668299
 20
-57.816447418602
 30
0.0
 10
87.62635730668299
 20
-48.15139387443276
 30
0.0
  0
INSERT
  5
8E
330
1F
100
AcDbEntity
  8
0
100
AcDbBlockReference
  2
block 2
 10
0.0
 20
0.0
 30
0.0
  0
INSERT
  5
A8
330
1F
100
AcDbEntity
  8
0
100
AcDbBlockReference
  2
block 4
 10
0.0
 20
0.0
 30
0.0
  0
SPLINE
  5
C1
330
1F
100
AcDbEntity
  8
0
 62
   250
370
    25
100
AcDbSpline
210
0.0
220
0.0
230
1.0
 70
    11
 71
     3
 72
    17
 73
    13
 74
     0
 42
0.0000000001
 43
0.0000000001
 12
1.0
 22
0.0
 32
0.0
 13
1.0
 23
0.0
 33
0.0
 40
0.0
 40
0.0
 40
0.0
 40
0.0
 40
1.0
 40
1.0
 40
1.0
 40
2.0
 40
2.0
 40
2.0
 40
3.0
 40
3.0
 40
3.0
 40
4.0
 40
4.0
 40
4.0
 40
4.0
 10
130.5340780735593
 20
-198.0877450531854
 30
0.0
 10
130.5340780735593
 20
-183.8464905069382
 30
0.0
 10
118.990781184773
 20
-172.3217111248189
 30
0.0
 10
104.7650296673634
 20
-172.3217111248189
 30
0.0
 10
90.53066535615532
 20
-172.3217111248189
 30
0.0
 10
78.98004759263999
 20
-183.8464905069382
 30
0.0
 10
78.98004759263999
 20
-198.0877450531854
 30
0.0
 10
78.98004759263999
 20
-212.332444716952
 30
0.0
 10
90.53066535615532
 20
-223.8641143341065
 30
0.0
 10
104.7650296673634
 20
-223.8641143341065
 30
0.0
 10
118.990781184773
 20
-223.8641143341065
 30
0.0
 10
130.5340780735593
 20
-212.332444716952
 30
0.0
 10
130.5340780735593
 20
-198.0877450531854
 30
0.0
  0
SPLINE
  5
C2
330
1F
100
AcDbEntity
  8
0
 62
   250
370
    25
100
AcDbSpline
210
0.0
220
0.0
230
1.0
 70
    11
 71
     3
 72
    17
 73
    13
 74
     0
 42
0.0000000001
 43
0.0000000001
 12
1.0
 22
0.0
 32
0.0
 13
1.0
 23
0.0
 33
0.0
 40
0.0
 40
0.0
 40
0.0
 40
0.0
 40
1.0
 40
1.0
 40
1.0
 40
2.0
 40
2.0
 40
2.0
 40
3.0
 40
3.0
 40
3.0
 40
4.0
 40
4.0
 40
4.0
 40
4.0
 10
141.7156376227973
 20
-198.0877450531854
 30
0.0
 10
141.7156376227973
 20
-177.6693947944684
 30
0.0
 10
125.1730445735219
 20
-161.1431660534104
 30
0.0
 10
104.7710586230229
 20
-161.1431660534104
 30
0.0
 10
84.36907267252363
 20
-161.1431660534104
 30
0.0
 10
67.81269915316955
 20
-177.6693947944684
 30
0.0
 10
67.81269915316955
 20
-198.0877450531854
 30
0.0
 10
67.81269915316955
 20
-218.506956591282
 30
0.0
 10
84.36907267252363
 20
-235.0366304498561
 30
0.0
 10
104.7710586230229
 20
-235.0366304498561
 30
0.0
 10
125.1730445735219
 20
-235.0366304498561
 30
0.0
 10
141.7156376227973
 20
-218.506956591282
 30
0.0
 10
141.7156376227973
 20
-198.0877450531854
 30
0.0
  0
INSERT
  5
C4
330
1F
100
AcDbEntity
  8
0
100
AcDbBlockReference
  2
block 6
 10
0.0
 20
0.0
 30
0.0
  0
INSERT
  5
DE
330
1F
100
AcDbEntity
  8
0
100
AcDbBlockReference
  2
block 8
 10
0.0
 20
0.0
 30
0.0
  0
SPLINE
  5
F7
330
1F
100
AcDbEntity
  8
0
 62
   250
370
    25
100
AcDbSpline
210
0.0
220
0.0
230
1.0
 70
     8
 71
     3
 72
    23
 73
    19
 74
     0
 42
0.0000000001
 43
0.0000000001
 12
1.0
 22
0.0
 32
0.0
 13
1.0
 23
0.0
 33
0.0
 40
0.0
 40
0.0
 40
0.0
 40
0.0
 40
1.0
 40
1.0
 40
1.0
 40
2.0
 40
2.0
 40
2.0
 40
3.0
 40
3.0
 40
3.0
 40
4.0
 40
4.0
 40
4.0
 40
5.0
 40
5.0
 40
5.0
 40
6.0
 40
6.0
 40
6.0
 40
6.0
 10
-156.9558820468704
 20
-198.0877450531854
 30
0.0
 10
-156.9558820468704
 20
-198.0877450531854
 30
0.0
 10
-157.2936092260375
 20
-334.0564071617086
 30
0.0
 10
-156.685700303537
 20
-344.0867304628746
 30
0.0
 10
-156.0777913810362
 20
-354.1170537640457
 30
0.0
 10
-154.1826153115449
 20
-379.5643795202843
 30
0.0
 10
-132.6738315279441
 20
-386.9433906073702
 30
0.0
 10
-111.4083591691579
 20
-394.2388575946075
 30
0.0
 10
31.15212123498072
 20
-393.3388470471053
 30
0.0
 10
105.1116249875501
 20
-393.3262323669578
 30
0.0
 10
173.5321086096732
 20
-393.3145624331063
 30
0.0
 10
286.2722146279113
 20
-391.926770780512
 30
0.0
 10
306.4129714801865
 20
-390.5906615401494
 30
0.0
 10
333.7200826192486
 20
-388.7791465217134
 30
0.0
 10
364.8882126879088
 20
-391.5105752383117
 30
0.0
 10
364.8882126879088
 20
-346.5183661528966
 30
0.0
 10
364.8882126879088
 20
-301.5261570674834
 30
0.0
 10
364.8882126879088
 20
-198.0877450531854
 30
0.0
 10
364.8882126879088
 20
-198.0877450531854
 30
0.0
  0
SPLINE
  5
F8
330
1F
100
AcDbEntity
  8
0
  6
AI-Linetype-9
 62
     6
370
    25
100
AcDbSpline
210
0.0
220
0.0
230
1.0
 70
    11
 71
     3
 72
    17
 73
    13
 74
     0
 42
0.0000000001
 43
0.0000000001
 12
1.0
 22
0.0
 32
0.0
 13
1.0
 23
0.0
 33
0.0
 40
0.0
 40
0.0
 40
0.0
 40
0.0
 40
1.0
 40
1.0
 40
1.0
 40
2.0
 40
2.0
 40
2.0
 40
3.0
 40
3.0
 40
3.0
 40
4.0
 40
4.0
 40
4.0
 40
4.0
 10
206.1813750375274
 20
-62.51589048399619
 30
0.0
 10
214.4081433809912
 20
-62.51589048399619
 30
0.0
 10
221.080135697224
 20
-55.84660108147366
 30
0.0
 10
221.080135697224
 20
-47.61983273800985
 30
0.0
 10
221.080135697224
 20
-39.39036148083839
 30
0.0
 10
214.4081433809912
 20
-32.72107207831969
 30
0.0
 10
206.1813750375274
 20
-32.72107207831969
 30
0.0
 10
197.9546066940758
 20
-32.72107207831969
 30
0.0
 10
191.282614377843
 20
-39.39036148083839
 30
0.0
 10
191.282614377843
 20
-47.61983273800985
 30
0.0
 10
191.282614377843
 20
-55.84660108147366
 30
0.0
 10
197.9546066940758
 20
-62.51589048399619
 30
0.0
 10
206.1813750375274
 20
-62.51589048399619
 30
0.0
  0
SPLINE
  5
FA
330
1F
100
AcDbEntity
  8
0
  6
AI-Linetype-10
 62
     6
370
    25
100
AcDbSpline
210
0.0
220
0.0
230
1.0
 70
    11
 71
     3
 72
    17
 73
    13
 74
     0
 42
0.0000000001
 43
0.0000000001
 12
1.0
 22
0.0
 32
0.0
 13
1.0
 23
0.0
 33
0.0
 40
0.0
 40
0.0
 40
0.0
 40
0.0
 40
1.0
 40
1.0
 40
1.0
 40
2.0
 40
2.0
 40
2.0
 40
3.0
 40
3.0
 40
3.0
 40
4.0
 40
4.0
 40
4.0
 40
4.0
 10
5.503136251501189
 20
-62.51589048399619
 30
0.0
 10
13.72990459496211
 20
-62.51589048399619
 30
0.0
 10
20.40189691119487
 20
-55.84660108147366
 30
0.0
 10
20.40189691119487
 20
-47.61983273800985
 30
0.0
 10
20.40189691119487
 20
-39.39036148083839
 30
0.0
 10
13.72990459496211
 20
-32.72107207831969
 30
0.0
 10
5.503136251501189
 20
-32.72107207831969
 30
0.0
 10
-2.72363209195299
 20
-32.72107207831969
 30
0.0
 10
-9.395624408185759
 20
-39.39036148083839
 30
0.0
 10
-9.395624408185759
 20
-47.61983273800985
 30
0.0
 10
-9.395624408185759
 20
-55.84660108147366
 30
0.0
 10
-2.72363209195299
 20
-62.51589048399619
 30
0.0
 10
5.503136251501189
 20
-62.51589048399619
 30
0.0
  0
ENDSEC
  0
SECTION
  2
OBJECTS
  0
DICTIONARY
  5
C
330
0
100
AcDbDictionary
281
     1
  3
ACAD_GROUP
350
D
  3
ACAD_LAYOUT
350
1A
  3
ACAD_MATERIAL
350
3B
  3
ACAD_MLEADERSTYLE
350
11D
  3
ACAD_MLINESTYLE
350
17
  3
ACAD_PLOTSETTINGS
350
19
  3
ACAD_PLOTSTYLENAME
350
E
  3
ACAD_TABLESTYLE
350
11C
  3
ACAD_VISUALSTYLE
350
2A
  0
SUN
  5
3F
330
29
100
AcDbSun
 90
        1
290
     0
 63
     7
421
 16777215
 40
1.0
291
     1
 91
  2455826
 92
 54000000
292
     0
 70
     2
 71
   256
280
     1
  0
DICTIONARY
  5
D
102
{ACAD_REACTORS
330
C
102
}
330
C
100
AcDbDictionary
281
     1
  0
DICTIONARY
  5
1A
102
{ACAD_REACTORS
330
C
102
}
330
C
100
AcDbDictionary
281
     1
  3
Layout1
350
1E
  3
Layout2
350
26
  3
Model
350
22
  0
DICTIONARY
  5
3B
102
{ACAD_REACTORS
330
C
102
}
330
C
100
AcDbDictionary
281
     1
  3
ByBlock
350
3D
  3
ByLayer
350
3C
  3
Global
350
3E
  0
DICTIONARY
  5
11D
102
{ACAD_REACTORS
330
C
102
}
330
C
100
AcDbDictionary
281
     1
  0
DICTIONARY
  5
17
102
{ACAD_REACTORS
330
C
102
}
330
C
100
AcDbDictionary
281
     1
  3
Standard
350
18
  0
DICTIONARY
  5
19
102
{ACAD_REACTORS
330
C
102
}
330
C
100
AcDbDictionary
281
     1
  0
ACDBDICTIONARYWDFLT
  5
E
102
{ACAD_REACTORS
330
C
102
}
330
C
100
AcDbDictionary
281
     1
  3
Normal
350
F
100
AcDbDictionaryWithDefault
340
F
  0
DICTIONARY
  5
11C
102
{ACAD_REACTORS
330
C
102
}
330
C
100
AcDbDictionary
281
     1
  0
DICTIONARY
  5
2A
102
{ACAD_REACTORS
330
C
102
}
330
C
100
AcDbDictionary
281
     1
  3
2dWireframe
350
2F
  3
3D Hidden
350
31
  3
3dWireframe
350
30
  3
Basic
350
32
  3
Brighten
350
36
  3
ColorChange
350
3A
  3
Conceptual
350
34
  3
Dim
350
35
  3
Facepattern
350
39
  3
Flat
350
2B
  3
FlatWithEdges
350
2C
  3
Gouraud
350
2D
  3
GouraudWithEdges
350
2E
  3
Linepattern
350
38
  3
Realistic
350
33
  3
Thicken
350
37
  0
LAYOUT
  5
1E
102
{ACAD_REACTORS
330
1A
102
}
330
1A
100
AcDbPlotSettings
  1

  2
none_device
  4

  6

 40
0.0
 41
0.0
 42
0.0
 43
0.0
 44
0.0
 45
0.0
 46
0.0
 47
0.0
 48
0.0
 49
0.0
140
0.0
141
0.0
142
1.0
143
1.0
 70
   688
 72
     0
 73
     0
 74
     5
  7

 75
    16
 76
     0
 77
     2
 78
   300
147
1.0
148
0.0
149
0.0
100
AcDbLayout
  1
Layout1
 70
     1
 71
     1
 10
0.0
 20
0.0
 11
12.0
 21
9.0
 12
0.0
 22
0.0
 32
0.0
 14
1.000000000000000E+20
 24
1.000000000000000E+20
 34
1.000000000000000E+20
 15
-1.000000000000000E+20
 25
-1.000000000000000E+20
 35
-1.000000000000000E+20
146
0.0
 13
0.0
 23
0.0
 33
0.0
 16
1.0
 26
0.0
 36
0.0
 17
0.0
 27
1.0
 37
0.0
 76
     0
330
1B
  0
LAYOUT
  5
26
102
{ACAD_REACTORS
330
1A
102
}
330
1A
100
AcDbPlotSettings
  1

  2
none_device
  4

  6

 40
0.0
 41
0.0
 42
0.0
 43
0.0
 44
0.0
 45
0.0
 46
0.0
 47
0.0
 48
0.0
 49
0.0
140
0.0
141
0.0
142
1.0
143
1.0
 70
   688
 72
     0
 73
     0
 74
     5
  7

 75
    16
 76
     0
 77
     2
 78
   300
147
1.0
148
0.0
149
0.0
100
AcDbLayout
  1
Layout2
 70
     1
 71
     2
 10
0.0
 20
0.0
 11
0.0
 21
0.0
 12
0.0
 22
0.0
 32
0.0
 14
0.0
 24
0.0
 34
0.0
 15
0.0
 25
0.0
 35
0.0
146
0.0
 13
0.0
 23
0.0
 33
0.0
 16
1.0
 26
0.0
 36
0.0
 17
0.0
 27
1.0
 37
0.0
 76
     0
330
23
  0
LAYOUT
  5
22
102
{ACAD_REACTORS
330
1A
102
}
330
1A
100
AcDbPlotSettings
  1

  2
none_device
  4

  6

 40
0.0
 41
0.0
 42
0.0
 43
0.0
 44
0.0
 45
0.0
 46
0.0
 47
0.0
 48
0.0
 49
0.0
140
0.0
141
0.0
142
1.0
143
1.0
 70
  1712
 72
     0
 73
     0
 74
     0
  7

 75
     0
 76
     0
 77
     2
 78
   300
147
1.0
148
0.0
149
0.0
100
AcDbLayout
  1
Model
 70
     1
 71
     0
 10
0.0
 20
0.0
 11
12.0
 21
9.0
 12
0.0
 22
0.0
 32
0.0
 14
1.000000000000000E+20
 24
1.000000000000000E+20
 34
1.000000000000000E+20
 15
-1.000000000000000E+20
 25
-1.000000000000000E+20
 35
-1.000000000000000E+20
146
0.0
 13
0.0
 23
0.0
 33
0.0
 16
1.0
 26
0.0
 36
0.0
 17
0.0
 27
1.0
 37
0.0
 76
     0
330
1F
331
29
  0
MATERIAL
  5
3D
102
{ACAD_REACTORS
330
3B
102
}
330
3B
100
AcDbMaterial
  1
ByBlock
 72
     1
 94
      127
  0
MATERIAL
  5
3C
102
{ACAD_REACTORS
330
3B
102
}
330
3B
100
AcDbMaterial
  1
ByLayer
 72
     1
 94
      127
  0
MATERIAL
  5
3E
102
{ACAD_REACTORS
330
3B
102
}
330
3B
100
AcDbMaterial
  1
Global
 72
     1
 94
      127
  0
MLINESTYLE
  5
18
102
{ACAD_REACTORS
330
17
102
}
330
17
100
AcDbMlineStyle
  2
Standard
 70
     0
  3

 62
   256
 51
90.0
 52
90.0
 71
     2
 49
0.5
 62
   256
  6
BYLAYER
 49
-0.5
 62
   256
  6
BYLAYER
  0
ACDBPLACEHOLDER
  5
F
102
{ACAD_REACTORS
330
E
102
}
330
E
  0
VISUALSTYLE
  5
2F
102
{ACAD_REACTORS
330
2A
102
}
102
{ACAD_XDICTIONARY
360
104
102
}
330
2A
100
AcDbVisualStyle
  2
2dWireframe
 70
     4
 71
     0
 72
     2
 73
     0
 90
        0
 40
-0.6
 41
-30.0
 62
     5
 63
     7
421
 16777215
 74
     1
 91
        4
 64
     7
 65
   257
 75
     1
175
     1
 42
1.0
 92
        0
 66
   257
 43
1.0
 76
     1
 77
     6
 78
     2
 67
     7
 79
     5
170
     0
171
     0
290
     0
174
     0
 93
        1
 44
0.0
173
     0
291
     0
 45
0.0
  0
VISUALSTYLE
  5
31
102
{ACAD_REACTORS
330
2A
102
}
102
{ACAD_XDICTIONARY
360
108
102
}
330
2A
100
AcDbVisualStyle
  2
3D Hidden
 70
     6
 71
     1
 72
     2
 73
     2
 90
        0
 40
-0.6
 41
-30.0
 62
     5
 63
     7
421
 16777215
 74
     2
 91
        2
 64
     7
 65
   257
 75
     2
175
     1
 42
40.0
 92
        0
 66
   257
 43
1.0
 76
     1
 77
     6
 78
     2
 67
     7
 79
     3
170
     0
171
     0
290
     0
174
     0
 93
        1
 44
0.0
173
     0
291
     0
 45
0.0
  0
VISUALSTYLE
  5
30
102
{ACAD_REACTORS
330
2A
102
}
102
{ACAD_XDICTIONARY
360
106
102
}
330
2A
100
AcDbVisualStyle
  2
3dWireframe
 70
     5
 71
     0
 72
     2
 73
     0
 90
        0
 40
-0.6
 41
-30.0
 62
     5
 63
     7
421
 16777215
 74
     1
 91
        4
 64
     7
 65
   257
 75
     1
175
     1
 42
1.0
 92
        0
 66
   257
 43
1.0
 76
     1
 77
     6
 78
     2
 67
     7
 79
     5
170
     0
171
     0
290
     0
174
     0
 93
        1
 44
0.0
173
     0
291
     0
 45
0.0
  0
VISUALSTYLE
  5
32
102
{ACAD_REACTORS
330
2A
102
}
102
{ACAD_XDICTIONARY
360
10A
102
}
330
2A
100
AcDbVisualStyle
  2
Basic
 70
     7
 71
     1
 72
     0
 73
     1
 90
        0
 40
-0.6
 41
-30.0
 62
     5
 63
     7
421
 16777215
 74
     0
 91
        4
 64
     7
 65
   257
 75
     1
175
     1
 42
1.0
 92
        8
 66
     7
 43
1.0
 76
     1
 77
     6
 78
     2
 67
     7
 79
     5
170
     0
171
     0
290
     0
174
     0
 93
        1
 44
0.0
173
     0
291
     1
 45
0.0
  0
VISUALSTYLE
  5
36
102
{ACAD_REACTORS
330
2A
102
}
102
{ACAD_XDICTIONARY
360
112
102
}
330
2A
100
AcDbVisualStyle
  2
Brighten
 70
    12
 71
     2
 72
     2
 73
     0
 90
        0
 40
-0.6
 41
-30.0
 62
     5
 63
     7
421
 16777215
 74
     1
 91
        4
 64
     7
 65
   257
 75
     1
175
     1
 42
1.0
 92
        8
 66
     7
 43
1.0
 76
     1
 77
     6
 78
     2
 67
     7
 79
     5
170
     0
171
     0
290
     0
174
     0
 93
        1
 44
50.0
173
     0
291
     1
 45
0.0
  0
VISUALSTYLE
  5
3A
102
{ACAD_REACTORS
330
2A
102
}
102
{ACAD_XDICTIONARY
360
11A
102
}
330
2A
100
AcDbVisualStyle
  2
ColorChange
 70
    16
 71
     2
 72
     2
 73
     3
 90
        0
 40
-0.6
 41
-30.0
 62
     5
 63
     8
421
  8421504
 74
     1
 91
        4
 64
     7
 65
   257
 75
     1
175
     1
 42
1.0
 92
        8
 66
     8
424
  8421504
 43
1.0
 76
     1
 77
     6
 78
     2
 67
     7
 79
     5
170
     0
171
     0
290
     0
174
     0
 93
        1
 44
0.0
173
     0
291
     1
 45
0.0
  0
VISUALSTYLE
  5
34
102
{ACAD_REACTORS
330
2A
102
}
102
{ACAD_XDICTIONARY
360
10E
102
}
330
2A
100
AcDbVisualStyle
  2
Conceptual
 70
     9
 71
     3
 72
     2
 73
     0
 90
        0
 40
-0.6
 41
-30.0
 62
     5
 63
     7
421
 16777215
 74
     2
 91
        2
 64
     7
 65
   257
 75
     1
175
     1
 42
40.0
 92
        8
 66
     7
 43
1.0
 76
     1
 77
     6
 78
     2
 67
     7
 79
     3
170
     0
171
     0
290
     0
174
     0
 93
        1
 44
0.0
173
     0
291
     0
 45
0.0
  0
VISUALSTYLE
  5
35
102
{ACAD_REACTORS
330
2A
102
}
102
{ACAD_XDICTIONARY
360
110
102
}
330
2A
100
AcDbVisualStyle
  2
Dim
 70
    11
 71
     2
 72
     2
 73
     0
 90
        0
 40
-0.6
 41
-30.0
 62
     5
 63
     7
421
 16777215
 74
     1
 91
        4
 64
     7
 65
   257
 75
     1
175
     1
 42
1.0
 92
        8
 66
     7
 43
1.0
 76
     1
 77
     6
 78
     2
 67
     7
 79
     5
170
     0
171
     0
290
     0
174
     0
 93
        1
 44
-50.0
173
     0
291
     1
 45
0.0
  0
VISUALSTYLE
  5
39
102
{ACAD_REACTORS
330
2A
102
}
102
{ACAD_XDICTIONARY
360
118
102
}
330
2A
100
AcDbVisualStyle
  2
Facepattern
 70
    15
 71
     2
 72
     2
 73
     0
 90
        0
 40
-0.6
 41
-30.0
 62
     5
 63
     7
421
 16777215
 74
     1
 91
        4
 64
     7
 65
   257
 75
     1
175
     1
 42
1.0
 92
        8
 66
     7
 43
1.0
 76
     1
 77
     6
 78
     2
 67
     7
 79
     5
170
     0
171
     0
290
     0
174
     0
 93
        1
 44
0.0
173
     0
291
     1
 45
0.0
  0
VISUALSTYLE
  5
2B
102
{ACAD_REACTORS
330
2A
102
}
102
{ACAD_XDICTIONARY
360
FC
102
}
330
2A
100
AcDbVisualStyle
  2
Flat
 70
     0
 71
     2
 72
     1
 73
     1
 90
        2
 40
-0.6
 41
30.0
 62
     5
 63
     7
421
 16777215
 74
     0
 91
        4
 64
     7
 65
   257
 75
     1
175
     1
 42
1.0
 92
        8
 66
     7
 43
1.0
 76
     1
 77
     6
 78
     2
 67
     7
 79
     5
170
     0
171
     0
290
     0
174
     0
 93
       13
 44
0.0
173
     0
291
     1
 45
0.0
  0
VISUALSTYLE
  5
2C
102
{ACAD_REACTORS
330
2A
102
}
102
{ACAD_XDICTIONARY
360
FE
102
}
330
2A
100
AcDbVisualStyle
  2
FlatWithEdges
 70
     1
 71
     2
 72
     1
 73
     1
 90
        2
 40
-0.6
 41
30.0
 62
     5
 63
     7
421
 16777215
 74
     1
 91
        4
 64
     7
 65
   257
 75
     1
175
     1
 42
1.0
 92
        0
 66
   257
 43
1.0
 76
     1
 77
     6
 78
     2
 67
     7
 79
     5
170
     0
171
     0
290
     0
174
     0
 93
       13
 44
0.0
173
     0
291
     1
 45
0.0
  0
VISUALSTYLE
  5
2D
102
{ACAD_REACTORS
330
2A
102
}
102
{ACAD_XDICTIONARY
360
100
102
}
330
2A
100
AcDbVisualStyle
  2
Gouraud
 70
     2
 71
     2
 72
     2
 73
     1
 90
        2
 40
-0.6
 41
30.0
 62
     5
 63
     7
421
 16777215
 74
     0
 91
        4
 64
     7
 65
   257
 75
     1
175
     1
 42
1.0
 92
        0
 66
     7
 43
1.0
 76
     1
 77
     6
 78
     2
 67
     7
 79
     5
170
     0
171
     0
290
     0
174
     0
 93
       13
 44
0.0
173
     0
291
     1
 45
0.0
  0
VISUALSTYLE
  5
2E
102
{ACAD_REACTORS
330
2A
102
}
102
{ACAD_XDICTIONARY
360
102
102
}
330
2A
100
AcDbVisualStyle
  2
GouraudWithEdges
 70
     3
 71
     2
 72
     2
 73
     1
 90
        2
 40
-0.6
 41
30.0
 62
     5
 63
     7
421
 16777215
 74
     1
 91
        4
 64
     7
 65
   257
 75
     1
175
     1
 42
1.0
 92
        0
 66
   257
 43
1.0
 76
     1
 77
     6
 78
     2
 67
     7
 79
     5
170
     0
171
     0
290
     0
174
     0
 93
       13
 44
0.0
173
     0
291
     1
 45
0.0
  0
VISUALSTYLE
  5
38
102
{ACAD_REACTORS
330
2A
102
}
102
{ACAD_XDICTIONARY
360
116
102
}
330
2A
100
AcDbVisualStyle
  2
Linepattern
 70
    14
 71
     2
 72
     2
 73
     0
 90
        0
 40
-0.6
 41
-30.0
 62
     5
 63
     7
421
 16777215
 74
     1
 91
        4
 64
     7
 65
   257
 75
     7
175
     7
 42
1.0
 92
        8
 66
     7
 43
1.0
 76
     1
 77
     6
 78
     2
 67
     7
 79
     5
170
     0
171
     0
290
     0
174
     0
 93
        1
 44
0.0
173
     0
291
     1
 45
0.0
  0
VISUALSTYLE
  5
33
102
{ACAD_REACTORS
330
2A
102
}
102
{ACAD_XDICTIONARY
360
10C
102
}
330
2A
100
AcDbVisualStyle
  2
Realistic
 70
     8
 71
     2
 72
     2
 73
     0
 90
        0
 40
-0.6
 41
-30.0
 62
     5
 63
     7
421
 16777215
 74
     1
 91
        0
 64
     7
 65
   257
 75
     1
175
     1
 42
1.0
 92
        8
 66
     8
424
  7895160
 43
1.0
 76
     1
 77
     6
 78
     2
 67
     7
 79
     5
170
     0
171
     0
290
     0
174
     0
 93
       13
 44
0.0
173
     0
291
     0
 45
0.0
  0
VISUALSTYLE
  5
37
102
{ACAD_REACTORS
330
2A
102
}
102
{ACAD_XDICTIONARY
360
114
102
}
330
2A
100
AcDbVisualStyle
  2
Thicken
 70
    13
 71
     2
 72
     2
 73
     0
 90
        0
 40
-0.6
 41
-30.0
 62
     5
 63
     7
421
 16777215
 74
     1
 91
        4
 64
     7
 65
   257
 75
     1
175
     1
 42
1.0
 92
       12
 66
     7
 43
1.0
 76
     1
 77
     6
 78
     2
 67
     7
 79
     5
170
     0
171
     0
290
     0
174
     0
 93
        1
 44
0.0
173
     0
291
     1
 45
0.0
  0
DICTIONARY
  5
104
330
2F
100
AcDbDictionary
280
     1
281
     1
  3
ACAD_XREC_ROUNDTRIP
360
105
  0
DICTIONARY
  5
108
330
31
100
AcDbDictionary
280
     1
281
     1
  3
ACAD_XREC_ROUNDTRIP
360
109
  0
DICTIONARY
  5
106
330
30
100
AcDbDictionary
280
     1
281
     1
  3
ACAD_XREC_ROUNDTRIP
360
107
  0
DICTIONARY
  5
10A
330
32
100
AcDbDictionary
280
     1
281
     1
  3
ACAD_XREC_ROUNDTRIP
360
10B
  0
DICTIONARY
  5
112
330
36
100
AcDbDictionary
280
     1
281
     1
  3
ACAD_XREC_ROUNDTRIP
360
113
  0
DICTIONARY
  5
11A
330
3A
100
AcDbDictionary
280
     1
281
     1
  3
ACAD_XREC_ROUNDTRIP
360
11B
  0
DICTIONARY
  5
10E
330
34
100
AcDbDictionary
280
     1
281
     1
  3
ACAD_XREC_ROUNDTRIP
360
10F
  0
DICTIONARY
  5
110
330
35
100
AcDbDictionary
280
     1
281
     1
  3
ACAD_XREC_ROUNDTRIP
360
111
  0
DICTIONARY
  5
118
330
39
100
AcDbDictionary
280
     1
281
     1
  3
ACAD_XREC_ROUNDTRIP
360
119
  0
DICTIONARY
  5
FC
330
2B
100
AcDbDictionary
280
     1
281
     1
  3
ACAD_XREC_ROUNDTRIP
360
FD
  0
DICTIONARY
  5
FE
330
2C
100
AcDbDictionary
280
     1
281
     1
  3
ACAD_XREC_ROUNDTRIP
360
FF
  0
DICTIONARY
  5
100
330
2D
100
AcDbDictionary
280
     1
281
     1
  3
ACAD_XREC_ROUNDTRIP
360
101
  0
DICTIONARY
  5
102
330
2E
100
AcDbDictionary
280
     1
281
     1
  3
ACAD_XREC_ROUNDTRIP
360
103
  0
DICTIONARY
  5
116
330
38
100
AcDbDictionary
280
     1
281
     1
  3
ACAD_XREC_ROUNDTRIP
360
117
  0
DICTIONARY
  5
10C
330
33
100
AcDbDictionary
280
     1
281
     1
  3
ACAD_XREC_ROUNDTRIP
360
10D
  0
DICTIONARY
  5
114
330
37
100
AcDbDictionary
280
     1
281
     1
  3
ACAD_XREC_ROUNDTRIP
360
115
  0
XRECORD
  5
105
102
{ACAD_REACTORS
330
104
102
}
330
104
100
AcDbXrecord
280
     1
102
RTVSPropertyOp0
 70
     1
102
RTVSPropertyOp1
 70
     1
102
RTVSPropertyOp2
 70
     1
102
RTVSPropertyOp3
 70
     1
102
RTVSPropertyOp4
 70
     1
102
RTVSPropertyOp5
 70
     1
102
RTVSPropertyOp6
 70
     1
102
RTVSPropertyOp7
 70
     1
102
RTVSPropertyOp8
 70
     1
102
RTVSPropertyOp9
 70
     1
102
RTVSPropertyOp10
 70
     1
102
RTVSPropertyOp11
 70
     1
102
RTVSPropertyOp12
 70
     1
102
RTVSPropertyOp13
 70
     1
102
RTVSPropertyOp14
 70
     1
102
RTVSPropertyOp15
 70
     1
102
RTVSPropertyOp16
 70
     1
102
RTVSPropertyOp17
 70
     1
102
RTVSPropertyOp18
 70
     1
102
RTVSPropertyOp19
 70
     1
102
RTVSPropertyOp20
 70
     1
102
RTVSPropertyOp21
 70
     1
102
RTVSPropertyOp22
 70
     1
102
RTVSPropertyOp23
 70
     1
102
RTVSPropertyOp24
 70
     1
102
RTVSPropertyOp25
 70
     1
102
RTVSPropertyOp26
 70
     1
102
RTVSPropertyOp27
 70
     1
102
RTVSPropertyOp28
 70
     1
102
RTVSPropertyOp29
 70
     1
102
RTVSPropertyOp30
 70
     1
102
RTVSPropertyOp31
 70
     1
102
RTVSPropertyOp32
 70
     1
  0
XRECORD
  5
109
102
{ACAD_REACTORS
330
108
102
}
330
108
100
AcDbXrecord
280
     1
102
RTVSPropertyOp0
 70
     1
102
RTVSPropertyOp1
 70
     1
102
RTVSPropertyOp2
 70
     1
102
RTVSPropertyOp3
 70
     1
102
RTVSPropertyOp4
 70
     1
102
RTVSPropertyOp5
 70
     1
102
RTVSPropertyOp6
 70
     1
102
RTVSPropertyOp7
 70
     1
102
RTVSPropertyOp8
 70
     1
102
RTVSPropertyOp9
 70
     1
102
RTVSPropertyOp10
 70
     1
102
RTVSPropertyOp11
 70
     1
102
RTVSPropertyOp12
 70
     1
102
RTVSPropertyOp13
 70
     1
102
RTVSPropertyOp14
 70
     1
102
RTVSPropertyOp15
 70
     1
102
RTVSPropertyOp16
 70
     1
102
RTVSPropertyOp17
 70
     1
102
RTVSPropertyOp18
 70
     1
102
RTVSPropertyOp19
 70
     1
102
RTVSPropertyOp20
 70
     1
102
RTVSPropertyOp21
 70
     1
102
RTVSPropertyOp22
 70
     1
102
RTVSPropertyOp23
 70
     1
102
RTVSPropertyOp24
 70
     1
102
RTVSPropertyOp25
 70
     1
102
RTVSPropertyOp26
 70
     1
102
RTVSPropertyOp27
 70
     1
102
RTVSPropertyOp28
 70
     1
102
RTVSPropertyOp29
 70
     1
102
RTVSPropertyOp30
 70
     1
102
RTVSPropertyOp31
 70
     1
102
RTVSPropertyOp32
 70
     1
  0
XRECORD
  5
107
102
{ACAD_REACTORS
330
106
102
}
330
106
100
AcDbXrecord
280
     1
102
RTVSPropertyOp0
 70
     1
102
RTVSPropertyOp1
 70
     1
102
RTVSPropertyOp2
 70
     1
102
RTVSPropertyOp3
 70
     1
102
RTVSPropertyOp4
 70
     1
102
RTVSPropertyOp5
 70
     1
102
RTVSPropertyOp6
 70
     1
102
RTVSPropertyOp7
 70
     1
102
RTVSPropertyOp8
 70
     1
102
RTVSPropertyOp9
 70
     1
102
RTVSPropertyOp10
 70
     1
102
RTVSPropertyOp11
 70
     1
102
RTVSPropertyOp12
 70
     1
102
RTVSPropertyOp13
 70
     1
102
RTVSPropertyOp14
 70
     1
102
RTVSPropertyOp15
 70
     1
102
RTVSPropertyOp16
 70
     1
102
RTVSPropertyOp17
 70
     1
102
RTVSPropertyOp18
 70
     1
102
RTVSPropertyOp19
 70
     1
102
RTVSPropertyOp20
 70
     1
102
RTVSPropertyOp21
 70
     1
102
RTVSPropertyOp22
 70
     1
102
RTVSPropertyOp23
 70
     1
102
RTVSPropertyOp24
 70
     1
102
RTVSPropertyOp25
 70
     1
102
RTVSPropertyOp26
 70
     1
102
RTVSPropertyOp27
 70
     1
102
RTVSPropertyOp28
 70
     1
102
RTVSPropertyOp29
 70
     1
102
RTVSPropertyOp30
 70
     1
102
RTVSPropertyOp31
 70
     1
102
RTVSPropertyOp32
 70
     1
  0
XRECORD
  5
10B
102
{ACAD_REACTORS
330
10A
102
}
330
10A
100
AcDbXrecord
280
     1
102
RTVSPropertyOp0
 70
     1
102
RTVSPropertyOp1
 70
     1
102
RTVSPropertyOp2
 70
     1
102
RTVSPropertyOp3
 70
     1
102
RTVSPropertyOp4
 70
     1
102
RTVSPropertyOp5
 70
     1
102
RTVSPropertyOp6
 70
     1
102
RTVSPropertyOp7
 70
     1
102
RTVSPropertyOp8
 70
     1
102
RTVSPropertyOp9
 70
     1
102
RTVSPropertyOp10
 70
     1
102
RTVSPropertyOp11
 70
     1
102
RTVSPropertyOp12
 70
     1
102
RTVSPropertyOp13
 70
     1
102
RTVSPropertyOp14
 70
     1
102
RTVSPropertyOp15
 70
     1
102
RTVSPropertyOp16
 70
     1
102
RTVSPropertyOp17
 70
     1
102
RTVSPropertyOp18
 70
     1
102
RTVSPropertyOp19
 70
     1
102
RTVSPropertyOp20
 70
     1
102
RTVSPropertyOp21
 70
     1
102
RTVSPropertyOp22
 70
     1
102
RTVSPropertyOp23
 70
     1
102
RTVSPropertyOp24
 70
     1
102
RTVSPropertyOp25
 70
     1
102
RTVSPropertyOp26
 70
     1
102
RTVSPropertyOp27
 70
     1
102
RTVSPropertyOp28
 70
     1
102
RTVSPropertyOp29
 70
     1
102
RTVSPropertyOp30
 70
     1
102
RTVSPropertyOp31
 70
     1
102
RTVSPropertyOp32
 70
     1
  0
XRECORD
  5
113
102
{ACAD_REACTORS
330
112
102
}
330
112
100
AcDbXrecord
280
     1
102
RTVSPropertyOp0
 70
     1
102
RTVSPropertyOp1
 70
     1
102
RTVSPropertyOp2
 70
     1
102
RTVSPropertyOp3
 70
     1
102
RTVSPropertyOp4
 70
     1
102
RTVSPropertyOp5
 70
     1
102
RTVSPropertyOp6
 70
     1
102
RTVSPropertyOp7
 70
     1
102
RTVSPropertyOp8
 70
     1
102
RTVSPropertyOp9
 70
     1
102
RTVSPropertyOp10
 70
     1
102
RTVSPropertyOp11
 70
     1
102
RTVSPropertyOp12
 70
     1
102
RTVSPropertyOp13
 70
     1
102
RTVSPropertyOp14
 70
     1
102
RTVSPropertyOp15
 70
     1
102
RTVSPropertyOp16
 70
     1
102
RTVSPropertyOp17
 70
     1
102
RTVSPropertyOp18
 70
     1
102
RTVSPropertyOp19
 70
     1
102
RTVSPropertyOp20
 70
     1
102
RTVSPropertyOp21
 70
     1
102
RTVSPropertyOp22
 70
     1
102
RTVSPropertyOp23
 70
     1
102
RTVSPropertyOp24
 70
     1
102
RTVSPropertyOp25
 70
     1
102
RTVSPropertyOp26
 70
     1
102
RTVSPropertyOp27
 70
     1
102
RTVSPropertyOp28
 70
     1
102
RTVSPropertyOp29
 70
     1
102
RTVSPropertyOp30
 70
     1
102
RTVSPropertyOp31
 70
     1
102
RTVSPropertyOp32
 70
     1
  0
XRECORD
  5
11B
102
{ACAD_REACTORS
330
11A
102
}
330
11A
100
AcDbXrecord
280
     1
102
RTVSPropertyOp0
 70
     1
102
RTVSPropertyOp1
 70
     1
102
RTVSPropertyOp2
 70
     1
102
RTVSPropertyOp3
 70
     1
102
RTVSPropertyOp4
 70
     1
102
RTVSPropertyOp5
 70
     1
102
RTVSPropertyOp6
 70
     1
102
RTVSPropertyOp7
 70
     1
102
RTVSPropertyOp8
 70
     1
102
RTVSPropertyOp9
 70
     1
102
RTVSPropertyOp10
 70
     1
102
RTVSPropertyOp11
 70
     1
102
RTVSPropertyOp12
 70
     1
102
RTVSPropertyOp13
 70
     1
102
RTVSPropertyOp14
 70
     1
102
RTVSPropertyOp15
 70
     1
102
RTVSPropertyOp16
 70
     1
102
RTVSPropertyOp17
 70
     1
102
RTVSPropertyOp18
 70
     1
102
RTVSPropertyOp19
 70
     1
102
RTVSPropertyOp20
 70
     1
102
RTVSPropertyOp21
 70
     1
102
RTVSPropertyOp22
 70
     1
102
RTVSPropertyOp23
 70
     1
102
RTVSPropertyOp24
 70
     1
102
RTVSPropertyOp25
 70
     1
102
RTVSPropertyOp26
 70
     1
102
RTVSPropertyOp27
 70
     1
102
RTVSPropertyOp28
 70
     1
102
RTVSPropertyOp29
 70
     1
102
RTVSPropertyOp30
 70
     1
102
RTVSPropertyOp31
 70
     1
102
RTVSPropertyOp32
 70
     1
  0
XRECORD
  5
10F
102
{ACAD_REACTORS
330
10E
102
}
330
10E
100
AcDbXrecord
280
     1
102
RTVSPropertyOp0
 70
     1
102
RTVSPropertyOp1
 70
     1
102
RTVSPropertyOp2
 70
     1
102
RTVSPropertyOp3
 70
     1
102
RTVSPropertyOp4
 70
     1
102
RTVSPropertyOp5
 70
     1
102
RTVSPropertyOp6
 70
     1
102
RTVSPropertyOp7
 70
     1
102
RTVSPropertyOp8
 70
     1
102
RTVSPropertyOp9
 70
     1
102
RTVSPropertyOp10
 70
     1
102
RTVSPropertyOp11
 70
     1
102
RTVSPropertyOp12
 70
     1
102
RTVSPropertyOp13
 70
     1
102
RTVSPropertyOp14
 70
     1
102
RTVSPropertyOp15
 70
     1
102
RTVSPropertyOp16
 70
     1
102
RTVSPropertyOp17
 70
     1
102
RTVSPropertyOp18
 70
     1
102
RTVSPropertyOp19
 70
     1
102
RTVSPropertyOp20
 70
     1
102
RTVSPropertyOp21
 70
     1
102
RTVSPropertyOp22
 70
     1
102
RTVSPropertyOp23
 70
     1
102
RTVSPropertyOp24
 70
     1
102
RTVSPropertyOp25
 70
     1
102
RTVSPropertyOp26
 70
     1
102
RTVSPropertyOp27
 70
     1
102
RTVSPropertyOp28
 70
     1
102
RTVSPropertyOp29
 70
     1
102
RTVSPropertyOp30
 70
     1
102
RTVSPropertyOp31
 70
     1
102
RTVSPropertyOp32
 70
     1
  0
XRECORD
  5
111
102
{ACAD_REACTORS
330
110
102
}
330
110
100
AcDbXrecord
280
     1
102
RTVSPropertyOp0
 70
     1
102
RTVSPropertyOp1
 70
     1
102
RTVSPropertyOp2
 70
     1
102
RTVSPropertyOp3
 70
     1
102
RTVSPropertyOp4
 70
     1
102
RTVSPropertyOp5
 70
     1
102
RTVSPropertyOp6
 70
     1
102
RTVSPropertyOp7
 70
     1
102
RTVSPropertyOp8
 70
     1
102
RTVSPropertyOp9
 70
     1
102
RTVSPropertyOp10
 70
     1
102
RTVSPropertyOp11
 70
     1
102
RTVSPropertyOp12
 70
     1
102
RTVSPropertyOp13
 70
     1
102
RTVSPropertyOp14
 70
     1
102
RTVSPropertyOp15
 70
     1
102
RTVSPropertyOp16
 70
     1
102
RTVSPropertyOp17
 70
     1
102
RTVSPropertyOp18
 70
     1
102
RTVSPropertyOp19
 70
     1
102
RTVSPropertyOp20
 70
     1
102
RTVSPropertyOp21
 70
     1
102
RTVSPropertyOp22
 70
     1
102
RTVSPropertyOp23
 70
     1
102
RTVSPropertyOp24
 70
     1
102
RTVSPropertyOp25
 70
     1
102
RTVSPropertyOp26
 70
     1
102
RTVSPropertyOp27
 70
     1
102
RTVSPropertyOp28
 70
     1
102
RTVSPropertyOp29
 70
     1
102
RTVSPropertyOp30
 70
     1
102
RTVSPropertyOp31
 70
     1
102
RTVSPropertyOp32
 70
     1
  0
XRECORD
  5
119
102
{ACAD_REACTORS
330
118
102
}
330
118
100
AcDbXrecord
280
     1
102
RTVSPropertyOp0
 70
     1
102
RTVSPropertyOp1
 70
     1
102
RTVSPropertyOp2
 70
     1
102
RTVSPropertyOp3
 70
     1
102
RTVSPropertyOp4
 70
     1
102
RTVSPropertyOp5
 70
     1
102
RTVSPropertyOp6
 70
     1
102
RTVSPropertyOp7
 70
     1
102
RTVSPropertyOp8
 70
     1
102
RTVSPropertyOp9
 70
     1
102
RTVSPropertyOp10
 70
     1
102
RTVSPropertyOp11
 70
     1
102
RTVSPropertyOp12
 70
     1
102
RTVSPropertyOp13
 70
     1
102
RTVSPropertyOp14
 70
     1
102
RTVSPropertyOp15
 70
     1
102
RTVSPropertyOp16
 70
     1
102
RTVSPropertyOp17
 70
     1
102
RTVSPropertyOp18
 70
     1
102
RTVSPropertyOp19
 70
     1
102
RTVSPropertyOp20
 70
     1
102
RTVSPropertyOp21
 70
     1
102
RTVSPropertyOp22
 70
     1
102
RTVSPropertyOp23
 70
     1
102
RTVSPropertyOp24
 70
     1
102
RTVSPropertyOp25
 70
     1
102
RTVSPropertyOp26
 70
     1
102
RTVSPropertyOp27
 70
     1
102
RTVSPropertyOp28
 70
     1
102
RTVSPropertyOp29
 70
     1
102
RTVSPropertyOp30
 70
     1
102
RTVSPropertyOp31
 70
     1
102
RTVSPropertyOp32
 70
     1
  0
XRECORD
  5
FD
102
{ACAD_REACTORS
330
FC
102
}
330
FC
100
AcDbXrecord
280
     1
102
RTVSPropertyOp0
 70
     1
102
RTVSPropertyOp1
 70
     1
102
RTVSPropertyOp2
 70
     1
102
RTVSPropertyOp3
 70
     1
102
RTVSPropertyOp4
 70
     1
102
RTVSPropertyOp5
 70
     1
102
RTVSPropertyOp6
 70
     1
102
RTVSPropertyOp7
 70
     1
102
RTVSPropertyOp8
 70
     1
102
RTVSPropertyOp9
 70
     1
102
RTVSPropertyOp10
 70
     1
102
RTVSPropertyOp11
 70
     1
102
RTVSPropertyOp12
 70
     1
102
RTVSPropertyOp13
 70
     1
102
RTVSPropertyOp14
 70
     1
102
RTVSPropertyOp15
 70
     1
102
RTVSPropertyOp16
 70
     1
102
RTVSPropertyOp17
 70
     1
102
RTVSPropertyOp18
 70
     1
102
RTVSPropertyOp19
 70
     1
102
RTVSPropertyOp20
 70
     1
102
RTVSPropertyOp21
 70
     1
102
RTVSPropertyOp22
 70
     1
102
RTVSPropertyOp23
 70
     1
102
RTVSPropertyOp24
 70
     1
102
RTVSPropertyOp25
 70
     1
102
RTVSPropertyOp26
 70
     1
102
RTVSPropertyOp27
 70
     1
102
RTVSPropertyOp28
 70
     1
102
RTVSPropertyOp29
 70
     1
102
RTVSPropertyOp30
 70
     1
102
RTVSPropertyOp31
 70
     1
102
RTVSPropertyOp32
 70
     1
  0
XRECORD
  5
FF
102
{ACAD_REACTORS
330
FE
102
}
330
FE
100
AcDbXrecord
280
     1
102
RTVSPropertyOp0
 70
     1
102
RTVSPropertyOp1
 70
     1
102
RTVSPropertyOp2
 70
     1
102
RTVSPropertyOp3
 70
     1
102
RTVSPropertyOp4
 70
     1
102
RTVSPropertyOp5
 70
     1
102
RTVSPropertyOp6
 70
     1
102
RTVSPropertyOp7
 70
     1
102
RTVSPropertyOp8
 70
     1
102
RTVSPropertyOp9
 70
     1
102
RTVSPropertyOp10
 70
     1
102
RTVSPropertyOp11
 70
     1
102
RTVSPropertyOp12
 70
     1
102
RTVSPropertyOp13
 70
     1
102
RTVSPropertyOp14
 70
     1
102
RTVSPropertyOp15
 70
     1
102
RTVSPropertyOp16
 70
     1
102
RTVSPropertyOp17
 70
     1
102
RTVSPropertyOp18
 70
     1
102
RTVSPropertyOp19
 70
     1
102
RTVSPropertyOp20
 70
     1
102
RTVSPropertyOp21
 70
     1
102
RTVSPropertyOp22
 70
     1
102
RTVSPropertyOp23
 70
     1
102
RTVSPropertyOp24
 70
     1
102
RTVSPropertyOp25
 70
     1
102
RTVSPropertyOp26
 70
     1
102
RTVSPropertyOp27
 70
     1
102
RTVSPropertyOp28
 70
     1
102
RTVSPropertyOp29
 70
     1
102
RTVSPropertyOp30
 70
     1
102
RTVSPropertyOp31
 70
     1
102
RTVSPropertyOp32
 70
     1
  0
XRECORD
  5
101
102
{ACAD_REACTORS
330
100
102
}
330
100
100
AcDbXrecord
280
     1
102
RTVSPropertyOp0
 70
     1
102
RTVSPropertyOp1
 70
     1
102
RTVSPropertyOp2
 70
     1
102
RTVSPropertyOp3
 70
     1
102
RTVSPropertyOp4
 70
     1
102
RTVSPropertyOp5
 70
     1
102
RTVSPropertyOp6
 70
     1
102
RTVSPropertyOp7
 70
     1
102
RTVSPropertyOp8
 70
     1
102
RTVSPropertyOp9
 70
     1
102
RTVSPropertyOp10
 70
     1
102
RTVSPropertyOp11
 70
     1
102
RTVSPropertyOp12
 70
     1
102
RTVSPropertyOp13
 70
     1
102
RTVSPropertyOp14
 70
     1
102
RTVSPropertyOp15
 70
     1
102
RTVSPropertyOp16
 70
     1
102
RTVSPropertyOp17
 70
     1
102
RTVSPropertyOp18
 70
     1
102
RTVSPropertyOp19
 70
     1
102
RTVSPropertyOp20
 70
     1
102
RTVSPropertyOp21
 70
     1
102
RTVSPropertyOp22
 70
     1
102
RTVSPropertyOp23
 70
     1
102
RTVSPropertyOp24
 70
     1
102
RTVSPropertyOp25
 70
     1
102
RTVSPropertyOp26
 70
     1
102
RTVSPropertyOp27
 70
     1
102
RTVSPropertyOp28
 70
     1
102
RTVSPropertyOp29
 70
     1
102
RTVSPropertyOp30
 70
     1
102
RTVSPropertyOp31
 70
     1
102
RTVSPropertyOp32
 70
     1
  0
XRECORD
  5
103
102
{ACAD_REACTORS
330
102
102
}
330
102
100
AcDbXrecord
280
     1
102
RTVSPropertyOp0
 70
     1
102
RTVSPropertyOp1
 70
     1
102
RTVSPropertyOp2
 70
     1
102
RTVSPropertyOp3
 70
     1
102
RTVSPropertyOp4
 70
     1
102
RTVSPropertyOp5
 70
     1
102
RTVSPropertyOp6
 70
     1
102
RTVSPropertyOp7
 70
     1
102
RTVSPropertyOp8
 70
     1
102
RTVSPropertyOp9
 70
     1
102
RTVSPropertyOp10
 70
     1
102
RTVSPropertyOp11
 70
     1
102
RTVSPropertyOp12
 70
     1
102
RTVSPropertyOp13
 70
     1
102
RTVSPropertyOp14
 70
     1
102
RTVSPropertyOp15
 70
     1
102
RTVSPropertyOp16
 70
     1
102
RTVSPropertyOp17
 70
     1
102
RTVSPropertyOp18
 70
     1
102
RTVSPropertyOp19
 70
     1
102
RTVSPropertyOp20
 70
     1
102
RTVSPropertyOp21
 70
     1
102
RTVSPropertyOp22
 70
     1
102
RTVSPropertyOp23
 70
     1
102
RTVSPropertyOp24
 70
     1
102
RTVSPropertyOp25
 70
     1
102
RTVSPropertyOp26
 70
     1
102
RTVSPropertyOp27
 70
     1
102
RTVSPropertyOp28
 70
     1
102
RTVSPropertyOp29
 70
     1
102
RTVSPropertyOp30
 70
     1
102
RTVSPropertyOp31
 70
     1
102
RTVSPropertyOp32
 70
     1
  0
XRECORD
  5
117
102
{ACAD_REACTORS
330
116
102
}
330
116
100
AcDbXrecord
280
     1
102
RTVSPropertyOp0
 70
     1
102
RTVSPropertyOp1
 70
     1
102
RTVSPropertyOp2
 70
     1
102
RTVSPropertyOp3
 70
     1
102
RTVSPropertyOp4
 70
     1
102
RTVSPropertyOp5
 70
     1
102
RTVSPropertyOp6
 70
     1
102
RTVSPropertyOp7
 70
     1
102
RTVSPropertyOp8
 70
     1
102
RTVSPropertyOp9
 70
     1
102
RTVSPropertyOp10
 70
     1
102
RTVSPropertyOp11
 70
     1
102
RTVSPropertyOp12
 70
     1
102
RTVSPropertyOp13
 70
     1
102
RTVSPropertyOp14
 70
     1
102
RTVSPropertyOp15
 70
     1
102
RTVSPropertyOp16
 70
     1
102
RTVSPropertyOp17
 70
     1
102
RTVSPropertyOp18
 70
     1
102
RTVSPropertyOp19
 70
     1
102
RTVSPropertyOp20
 70
     1
102
RTVSPropertyOp21
 70
     1
102
RTVSPropertyOp22
 70
     1
102
RTVSPropertyOp23
 70
     1
102
RTVSPropertyOp24
 70
     1
102
RTVSPropertyOp25
 70
     1
102
RTVSPropertyOp26
 70
     1
102
RTVSPropertyOp27
 70
     1
102
RTVSPropertyOp28
 70
     1
102
RTVSPropertyOp29
 70
     1
102
RTVSPropertyOp30
 70
     1
102
RTVSPropertyOp31
 70
     1
102
RTVSPropertyOp32
 70
     1
  0
XRECORD
  5
10D
102
{ACAD_REACTORS
330
10C
102
}
330
10C
100
AcDbXrecord
280
     1
102
RTVSPropertyOp0
 70
     1
102
RTVSPropertyOp1
 70
     1
102
RTVSPropertyOp2
 70
     1
102
RTVSPropertyOp3
 70
     1
102
RTVSPropertyOp4
 70
     1
102
RTVSPropertyOp5
 70
     1
102
RTVSPropertyOp6
 70
     1
102
RTVSPropertyOp7
 70
     1
102
RTVSPropertyOp8
 70
     1
102
RTVSPropertyOp9
 70
     1
102
RTVSPropertyOp10
 70
     1
102
RTVSPropertyOp11
 70
     1
102
RTVSPropertyOp12
 70
     1
102
RTVSPropertyOp13
 70
     1
102
RTVSPropertyOp14
 70
     1
102
RTVSPropertyOp15
 70
     1
102
RTVSPropertyOp16
 70
     1
102
RTVSPropertyOp17
 70
     1
102
RTVSPropertyOp18
 70
     1
102
RTVSPropertyOp19
 70
     1
102
RTVSPropertyOp20
 70
     1
102
RTVSPropertyOp21
 70
     1
102
RTVSPropertyOp22
 70
     1
102
RTVSPropertyOp23
 70
     1
102
RTVSPropertyOp24
 70
     1
102
RTVSPropertyOp25
 70
     1
102
RTVSPropertyOp26
 70
     1
102
RTVSPropertyOp27
 70
     1
102
RTVSPropertyOp28
 70
     1
102
RTVSPropertyOp29
 70
     1
102
RTVSPropertyOp30
 70
     1
102
RTVSPropertyOp31
 70
     1
102
RTVSPropertyOp32
 70
     1
  0
XRECORD
  5
115
102
{ACAD_REACTORS
330
114
102
}
330
114
100
AcDbXrecord
280
     1
102
RTVSPropertyOp0
 70
     1
102
RTVSPropertyOp1
 70
     1
102
RTVSPropertyOp2
 70
     1
102
RTVSPropertyOp3
 70
     1
102
RTVSPropertyOp4
 70
     1
102
RTVSPropertyOp5
 70
     1
102
RTVSPropertyOp6
 70
     1
102
RTVSPropertyOp7
 70
     1
102
RTVSPropertyOp8
 70
     1
102
RTVSPropertyOp9
 70
     1
102
RTVSPropertyOp10
 70
     1
102
RTVSPropertyOp11
 70
     1
102
RTVSPropertyOp12
 70
     1
102
RTVSPropertyOp13
 70
     1
102
RTVSPropertyOp14
 70
     1
102
RTVSPropertyOp15
 70
     1
102
RTVSPropertyOp16
 70
     1
102
RTVSPropertyOp17
 70
     1
102
RTVSPropertyOp18
 70
     1
102
RTVSPropertyOp19
 70
     1
102
RTVSPropertyOp20
 70
     1
102
RTVSPropertyOp21
 70
     1
102
RTVSPropertyOp22
 70
     1
102
RTVSPropertyOp23
 70
     1
102
RTVSPropertyOp24
 70
     1
102
RTVSPropertyOp25
 70
     1
102
RTVSPropertyOp26
 70
     1
102
RTVSPropertyOp27
 70
     1
102
RTVSPropertyOp28
 70
     1
102
RTVSPropertyOp29
 70
     1
102
RTVSPropertyOp30
 70
     1
102
RTVSPropertyOp31
 70
     1
102
RTVSPropertyOp32
 70
     1
  0
ENDSEC
  0
EOF
