  0
SECTION
  2
HEADER
  9
$ACADVER
  1
AC1018
  9
$ACADMAINTVER
 70
   104
  9
$DWGCODEPAGE
  3
ANSI_1252
  9
$LASTSAVEDBY
  1
Administrator
  9
$CUSTOMPROPERTYTAG
  1
AmdtFileType
  9
$CUSTOMPROPERTY
  1
84
  9
$INSBASE
 10
0.0
 20
0.0
 30
0.0
  9
$EXTMIN
 10
-629.8519822855812
 20
-337.8627397066754
 30
0.0
  9
$EXTMAX
 10
6.130392721567517
 20
435.5928366844219
 30
0.0
  9
$LIMMIN
 10
0.0
 20
0.0
  9
$LIMMAX
 10
420.0
 20
297.0
  9
$ORTHOMODE
 70
     0
  9
$REGENMODE
 70
     1
  9
$FILLMODE
 70
     1
  9
$QTEXTMODE
 70
     0
  9
$MIRRTEXT
 70
     1
  9
$LTSCALE
 40
1.0
  9
$ATTMODE
 70
     1
  9
$TEXTSIZE
 40
2.5
  9
$TRACEWID
 40
1.0
  9
$TEXTSTYLE
  7
STANDARD
  9
$CLAYER
  8
0
  9
$CELTYPE
  6
ByLayer
  9
$CECOLOR
 62
   256
  9
$CELTSCALE
 40
1.0
  9
$DISPSILH
 70
     0
  9
$DIMSCALE
 40
1.0
  9
$DIMASZ
 40
3.5
  9
$DIMEXO
 40
1.0
  9
$DIMDLI
 40
10.0
  9
$DIMRND
 40
0.0
  9
$DIMDLE
 40
0.0
  9
$DIMEXE
 40
1.0
  9
$DIMTP
 40
0.1
  9
$DIMTM
 40
0.1
  9
$DIMTXT
 40
3.5
  9
$DIMCEN
 40
0.0
  9
$DIMTSZ
 40
0.0
  9
$DIMTOL
 70
     0
  9
$DIMLIM
 70
     0
  9
$DIMTIH
 70
     0
  9
$DIMTOH
 70
     0
  9
$DIMSE1
 70
     0
  9
$DIMSE2
 70
     0
  9
$DIMTAD
 70
     1
  9
$DIMZIN
 70
     8
  9
$DIMBLK
  1

  9
$DIMASO
 70
     1
  9
$DIMSHO
 70
     1
  9
$DIMPOST
  1

  9
$DIMAPOST
  1
"
  9
$DIMALT
 70
     0
  9
$DIMALTD
 70
     2
  9
$DIMALTF
 40
0.0393701
  9
$DIMLFAC
 40
1.0
  9
$DIMTOFL
 70
     1
  9
$DIMTVP
 40
0.0
  9
$DIMTIX
 70
     0
  9
$DIMSOXD
 70
     0
  9
$DIMSAH
 70
     0
  9
$DIMBLK1
  1

  9
$DIMBLK2
  1

  9
$DIMSTYLE
  2
AM_DIN
  9
$DIMCLRD
 70
   256
  9
$DIMCLRE
 70
   256
  9
$DIMCLRT
 70
   140
  9
$DIMTFAC
 40
0.71
  9
$DIMGAP
 40
1.5
  9
$DIMJUST
 70
     0
  9
$DIMSD1
 70
     0
  9
$DIMSD2
 70
     0
  9
$DIMTOLJ
 70
     0
  9
$DIMTZIN
 70
     8
  9
$DIMALTZ
 70
     0
  9
$DIMALTTZ
 70
     0
  9
$DIMUPT
 70
     0
  9
$DIMDEC
 70
     2
  9
$DIMTDEC
 70
     3
  9
$DIMALTU
 70
     2
  9
$DIMALTTD
 70
     4
  9
$DIMTXSTY
  7
STANDARD
  9
$DIMAUNIT
 70
     0
  9
$DIMADEC
 70
     0
  9
$DIMALTRND
 40
0.0
  9
$DIMAZIN
 70
     2
  9
$DIMDSEP
 70
    46
  9
$DIMATFIT
 70
     3
  9
$DIMFRAC
 70
     0
  9
$DIMLDRBLK
  1

  9
$DIMLUNIT
 70
     2
  9
$DIMLWD
 70
    -1
  9
$DIMLWE
 70
    -1
  9
$DIMTMOVE
 70
     0
  9
$LUNITS
 70
     2
  9
$LUPREC
 70
     2
  9
$SKETCHINC
 40
1.0
  9
$FILLETRAD
 40
0.0
  9
$AUNITS
 70
     0
  9
$AUPREC
 70
     0
  9
$MENU
  1
.
  9
$ELEVATION
 40
0.0
  9
$PELEVATION
 40
0.0
  9
$THICKNESS
 40
0.0
  9
$LIMCHECK
 70
     0
  9
$CHAMFERA
 40
2.5
  9
$CHAMFERB
 40
2.5
  9
$CHAMFERC
 40
20.0
  9
$CHAMFERD
 40
0.0
  9
$SKPOLY
 70
     0
  9
$TDCREATE
 40
2453918.262673241
  9
$TDUCREATE
 40
2453918.179339908
  9
$TDUPDATE
 40
2457178.648491898
  9
$TDUUPDATE
 40
2457178.565158565
  9
$TDINDWG
 40
0.6285146181
  9
$TDUSRTIMER
 40
0.6285104630
  9
$USRTIMER
 70
     1
  9
$ANGBASE
 50
0.0
  9
$ANGDIR
 70
     0
  9
$PDMODE
 70
     0
  9
$PDSIZE
 40
0.0
  9
$PLINEWID
 40
0.0
  9
$SPLFRAME
 70
     0
  9
$SPLINETYPE
 70
     6
  9
$SPLINESEGS
 70
     8
  9
$HANDSEED
  5
A553
  9
$SURFTAB1
 70
     6
  9
$SURFTAB2
 70
     6
  9
$SURFTYPE
 70
     6
  9
$SURFU
 70
     6
  9
$SURFV
 70
     6
  9
$UCSBASE
  2

  9
$UCSNAME
  2

  9
$UCSORG
 10
0.0
 20
0.0
 30
0.0
  9
$UCSXDIR
 10
1.0
 20
0.0
 30
0.0
  9
$UCSYDIR
 10
0.0
 20
1.0
 30
0.0
  9
$UCSORTHOREF
  2

  9
$UCSORTHOVIEW
 70
     0
  9
$UCSORGTOP
 10
0.0
 20
0.0
 30
0.0
  9
$UCSORGBOTTOM
 10
0.0
 20
0.0
 30
0.0
  9
$UCSORGLEFT
 10
0.0
 20
0.0
 30
0.0
  9
$UCSORGRIGHT
 10
0.0
 20
0.0
 30
0.0
  9
$UCSORGFRONT
 10
0.0
 20
0.0
 30
0.0
  9
$UCSORGBACK
 10
0.0
 20
0.0
 30
0.0
  9
$PUCSBASE
  2

  9
$PUCSNAME
  2

  9
$PUCSORG
 10
0.0
 20
0.0
 30
0.0
  9
$PUCSXDIR
 10
1.0
 20
0.0
 30
0.0
  9
$PUCSYDIR
 10
0.0
 20
1.0
 30
0.0
  9
$PUCSORTHOREF
  2

  9
$PUCSORTHOVIEW
 70
     0
  9
$PUCSORGTOP
 10
0.0
 20
0.0
 30
0.0
  9
$PUCSORGBOTTOM
 10
0.0
 20
0.0
 30
0.0
  9
$PUCSORGLEFT
 10
0.0
 20
0.0
 30
0.0
  9
$PUCSORGRIGHT
 10
0.0
 20
0.0
 30
0.0
  9
$PUCSORGFRONT
 10
0.0
 20
0.0
 30
0.0
  9
$PUCSORGBACK
 10
0.0
 20
0.0
 30
0.0
  9
$USERI1
 70
     0
  9
$USERI2
 70
     0
  9
$USERI3
 70
     0
  9
$USERI4
 70
     0
  9
$USERI5
 70
     0
  9
$USERR1
 40
0.0
  9
$USERR2
 40
0.0
  9
$USERR3
 40
0.0
  9
$USERR4
 40
0.0
  9
$USERR5
 40
0.0
  9
$WORLDVIEW
 70
     1
  9
$SHADEDGE
 70
     3
  9
$SHADEDIF
 70
    70
  9
$TILEMODE
 70
     1
  9
$MAXACTVP
 70
    64
  9
$PINSBASE
 10
0.0
 20
0.0
 30
0.0
  9
$PLIMCHECK
 70
     0
  9
$PEXTMIN
 10
1.000000000000000E+20
 20
1.000000000000000E+20
 30
1.000000000000000E+20
  9
$PEXTMAX
 10
-1.000000000000000E+20
 20
-1.000000000000000E+20
 30
-1.000000000000000E+20
  9
$PLIMMIN
 10
0.0
 20
0.0
  9
$PLIMMAX
 10
420.0
 20
297.0
  9
$UNITMODE
 70
     0
  9
$VISRETAIN
 70
     1
  9
$PLINEGEN
 70
     0
  9
$PSLTSCALE
 70
     1
  9
$TREEDEPTH
 70
  3020
  9
$CMLSTYLE
  2
Standard
  9
$CMLJUST
 70
     0
  9
$CMLSCALE
 40
20.0
  9
$PROXYGRAPHICS
 70
     1
  9
$MEASUREMENT
 70
     1
  9
$CELWEIGHT
370
    -1
  9
$ENDCAPS
280
     0
  9
$JOINSTYLE
280
     0
  9
$LWDISPLAY
290
     0
  9
$INSUNITS
 70
     4
  9
$HYPERLINKBASE
  1

  9
$STYLESHEET
  1

  9
$XEDIT
290
     1
  9
$CEPSNTYPE
380
     0
  9
$PSTYLEMODE
290
     1
  9
$FINGERPRINTGUID
  2
{E66C8CC1-E66B-408F-9010-06FD783B68A0}
  9
$VERSIONGUID
  2
{B033D6E3-77A8-4B56-8808-391799FB0D5D}
  9
$EXTNAMES
290
     1
  9
$PSVPSCALE
 40
0.0
  9
$OLESTARTUP
290
     0
  9
$SORTENTS
280
   127
  9
$INDEXCTL
280
     0
  9
$HIDETEXT
280
     1
  9
$XCLIPFRAME
290
     0
  9
$HALOGAP
280
     0
  9
$OBSCOLOR
 70
   257
  9
$OBSLTYPE
280
     0
  9
$INTERSECTIONDISPLAY
280
     0
  9
$INTERSECTIONCOLOR
 70
   257
  9
$DIMASSOC
280
     2
  9
$PROJECTNAME
  1

  0
ENDSEC
  0
SECTION
  2
CLASSES
  0
CLASS
  1
ACDBDICTIONARYWDFLT
  2
AcDbDictionaryWithDefault
  3
ObjectDBX Classes
 90
        0
 91
        1
280
     0
281
     0
  0
CLASS
  1
ACME_DOCUMENT
  2
AcMeDbDoc
  3
AcMeServices
 90
     1024
 91
        2
280
     0
281
     0
  0
CLASS
  1
ACMESCOPE
  2
AcMeScope
  3
AcMeServices
 90
     1024
 91
        1
280
     0
281
     0
  0
CLASS
  1
ACMECOMMANDHISTORY
  2
AcMeCommandHistory
  3
AcMeServices
 90
     1024
 91
        1
280
     0
281
     0
  0
CLASS
  1
ACIMSYSVARMAN
  2
AcImSysVarManager
  3
AcMeServices
 90
     1024
 91
        4
280
     0
281
     0
  0
CLASS
  1
ACIMREALSYSVAR
  2
AcImRealSysVar
  3
AcMeServices
 90
     1024
 91
        1
280
     0
281
     0
  0
CLASS
  1
ACIMINTSYSVAR
  2
AcImIntSysVar
  3
AcMeServices
 90
     1024
 91
       27
280
     0
281
     0
  0
CLASS
  1
ACMEDRAWINGMAN
  2
AcMeDrawingMan
  3
AcMeServices
 90
     1024
 91
        0
280
     0
281
     0
  0
CLASS
  1
ACMEVIEW
  2
AcMeView
  3
AcMeServices
 90
     1024
 91
        0
280
     0
281
     0
  0
CLASS
  1
ACDBENTITYCACHE
  2
AcMeEntityCache
  3
AcMeServices
 90
     1024
 91
        1
280
     0
281
     0
  0
CLASS
  1
GSMANAGER
  2
AcMeGSManager
  3
AcMeServices
 90
     1024
 91
        0
280
     0
281
     0
  0
CLASS
  1
AMDTINTERNALREACTOR
  2
AmdtInternalReactor
  3
AcMeServices
 90
     1024
 91
        1
280
     0
281
     0
  0
CLASS
  1
ACMESTATEMGR
  2
AcMeStateMgr
  3
AcMeServices
 90
     1024
 91
        1
280
     0
281
     0
  0
CLASS
  1
ACGREFMASTER
  2
AcGrefMaster
  3
AcAttribServices
 90
     1024
 91
        1
280
     0
281
     0
  0
CLASS
  1
ACME_DATABASE
  2
AcMeDbDatabase
  3
AcMeServices
 90
     1024
 91
        2
280
     0
281
     0
  0
CLASS
  1
ACRFINSADJUSTERMGR
  2
AcRfInsAdjusterMgr
  3
AcMeServices
 90
     1024
 91
        1
280
     0
281
     0
  0
CLASS
  1
ACGREFACADMASTER
  2
AcGrefacadMaster
  3
AcGrefServices
 90
     1024
 91
        1
280
     0
281
     0
  0
CLASS
  1
AMIMASTER
  2
AmiMaster
  3
AmiServices
 90
     1024
 91
        1
280
     0
281
     0
  0
CLASS
  1
AMGSETTINGSOBJ
  2
AmgSettingsObj
  3
"AcadM|Product Description: AutoCAD Mechanical|Company: Autodesk, Inc."
 90
     1024
 91
        2
280
     0
281
     0
  0
CLASS
  1
ACMDATADICTIONARY
  2
AcmDataDictionary
  3
"AcmSymBB|Product Description: AutoCAD Mechanical|Company: Autodesk, Inc."
 90
     1024
 91
        1
280
     0
281
     0
  0
CLASS
  1
ACMDATAENTRYBLOCK
  2
AcmDataEntryBlock
  3
AcmSymBB|Product Description: AutoCAD Mechanical|Company: Autodesk, Inc.
 90
     1024
 91
        0
280
     0
281
     0
  0
CLASS
  1
ACIMSTRSYSVAR
  2
AcImStrSysVar
  3
AcMeServices
 90
     1024
 91
        5
280
     0
281
     0
  0
CLASS
  1
ACMSTANDARDDIN
  2
AcmStandardDIN
  3
"Amdt_StdImp|Product Description: AutoCAD Mechanical|Company: Autodesk, Inc."
 90
     1024
 91
        1
280
     0
281
     0
  0
CLASS
  1
AMGOBJPROPCFG
  2
AmgObjPropCfg
  3
"AmgLay|Product Description: AutoCAD Mechanical|Company: Autodesk, Inc."
 90
     1025
 91
        1
280
     0
281
     0
  0
CLASS
  1
AMDTEDGESTANDARDDIN
  2
AmdtEdgeStdDIN
  3
"Amdt_StdImp|Product Description: AutoCAD Mechanical|Company: Autodesk, Inc."
 90
     1024
 91
        0
280
     0
281
     0
  0
CLASS
  1
ACMSURFSTANDARDDIN
  2
AcmSurfTextStdDIN
  3
"Amdt_StdImp|Product Description: AutoCAD Mechanical|Company: Autodesk, Inc."
 90
     1024
 91
        0
280
     0
281
     0
  0
CLASS
  1
ACMFCFSTANDARDDIN
  2
AcmFCFStdDIN
  3
"Amdt_StdImp|Product Description: AutoCAD Mechanical|Company: Autodesk, Inc."
 90
     1024
 91
        1
280
     0
281
     0
  0
CLASS
  1
ACMWELDSTANDARDDIN
  2
AcmWeldingStdDIN
  3
"Amdt_StdImp|Product Description: AutoCAD Mechanical|Company: Autodesk, Inc."
 90
     1024
 91
        1
280
     0
281
     0
  0
CLASS
  1
ACMIDSTANDARDDIN
  2
AcmIdStdDIN
  3
"Amdt_StdImp|Product Description: AutoCAD Mechanical|Company: Autodesk, Inc."
 90
     1024
 91
        1
280
     0
281
     0
  0
CLASS
  1
ACMDATUMSTANDARDDIN
  2
AcmDatumStdDIN
  3
"Amdt_StdImp|Product Description: AutoCAD Mechanical|Company: Autodesk, Inc."
 90
     1024
 91
        1
280
     0
281
     0
  0
CLASS
  1
ACMBOMSTANDARDDIN
  2
AcmBOMStdDIN
  3
"Amdt_StdImp|Product Description: AutoCAD Mechanical|Company: Autodesk, Inc."
 90
     1024
 91
        1
280
     0
281
     0
  0
CLASS
  1
ACMDETAILSTANDARDDIN
  2
AmdtDetailSymStdDIN
  3
"Amdt_StdImp|Product Description: AutoCAD Mechanical|Company: Autodesk, Inc."
 90
     1024
 91
        1
280
     0
281
     0
  0
CLASS
  1
ACMSECTIONSTANDARDDIN
  2
AmdtSectionSymStdDIN
  3
"Amdt_StdImp|Product Description: AutoCAD Mechanical|Company: Autodesk, Inc."
 90
     1024
 91
        1
280
     0
281
     0
  0
CLASS
  1
ACMCENTERLINESTANDARDDIN
  2
AmdtCenterLineStdDIN
  3
"Amdt_StdImp|Product Description: AutoCAD Mechanical|Company: Autodesk, Inc."
 90
     1024
 91
        1
280
     0
281
     0
  0
CLASS
  1
ACMNOTESTANDARDDIN
  2
AmdtNoteStdDIN
  3
"Amdt_StdImp|Product Description: AutoCAD Mechanical|Company: Autodesk, Inc."
 90
     1024
 91
        1
280
     0
281
     0
  0
CLASS
  1
ACAMGLAYSTD
  2
AcAmgLayStd
  3
"AmgLay|Product Description: AutoCAD Mechanical|Company: Autodesk, Inc."
 90
     1024
 91
        1
280
     0
281
     0
  0
CLASS
  1
ACAMGDIMSTD
  2
AcAmgDimStd
  3
"AmgDim|Product Description: AutoCAD Mechanical|Company: Autodesk, Inc."
 90
     1024
 91
        1
280
     0
281
     0
  0
CLASS
  1
ACAMGHOLECHARTSTDDIN
  2
AcAmgHoleChartStdDIN
  3
AmgDim|Product Description: AutoCAD Mechanical|Company: Autodesk, Inc.
 90
     1024
 91
        1
280
     0
281
     0
  0
CLASS
  1
ACAMGTITLESTD
  2
AcAmgTitleStd
  3
"AmgTitle|Product Description: AutoCAD Mechanical|Company: Autodesk, Inc."
 90
     4095
 91
        1
280
     0
281
     0
  0
CLASS
  1
LAYER_INDEX
  2
AcDbLayerIndex
  3
ObjectDBX Classes
 90
        0
 91
        0
280
     0
281
     0
  0
CLASS
  1
IDBUFFER
  2
AcDbIdBuffer
  3
ObjectDBX Classes
 90
        0
 91
        0
280
     0
281
     0
  0
CLASS
  1
DICTIONARYVAR
  2
AcDbDictionaryVar
  3
ObjectDBX Classes
 90
        0
 91
       10
280
     0
281
     0
  0
CLASS
  1
ACAMGFILTERDAT
  2
AcAmgFilterDat
  3
"AcadM|Product Description: AutoCAD Mechanical|Company: Autodesk, Inc."
 90
     1024
 91
        0
280
     0
281
     0
  0
CLASS
  1
ACMSTANDARDANSI
  2
AcmStandardANSI
  3
"Amdt_StdImp|Product Description: AutoCAD Mechanical|Company: Autodesk, Inc."
 90
     1024
 91
        0
280
     0
281
     0
  0
CLASS
  1
ACMSURFSTANDARDANSI
  2
AcmSurfTextStdANSI
  3
"Amdt_StdImp|Product Description: AutoCAD Mechanical|Company: Autodesk, Inc."
 90
     1024
 91
        0
280
     0
281
     0
  0
CLASS
  1
ACMFCFSTANDARDANSI
  2
AcmFCFStdANSI
  3
"Amdt_StdImp|Product Description: AutoCAD Mechanical|Company: Autodesk, Inc."
 90
     1024
 91
        0
280
     0
281
     0
  0
CLASS
  1
ACMWELDSTANDARDANSI
  2
AcmWeldingStdANSI
  3
"Amdt_StdImp|Product Description: AutoCAD Mechanical|Company: Autodesk, Inc."
 90
     1024
 91
        0
280
     0
281
     0
  0
CLASS
  1
ACMIDSTANDARDANSI
  2
AcmIdStdANSI
  3
"Amdt_StdImp|Product Description: AutoCAD Mechanical|Company: Autodesk, Inc."
 90
     1024
 91
        0
280
     0
281
     0
  0
CLASS
  1
ACMDATUMSTANDARDANSI
  2
AcmDatumStdANSI
  3
"Amdt_StdImp|Product Description: AutoCAD Mechanical|Company: Autodesk, Inc."
 90
     1024
 91
        0
280
     0
281
     0
  0
CLASS
  1
ACMBOMSTANDARDANSI
  2
AcmBOMStdANSI
  3
"Amdt_StdImp|Product Description: AutoCAD Mechanical|Company: Autodesk, Inc."
 90
     1024
 91
        0
280
     0
281
     0
  0
CLASS
  1
ACMDETAILSTANDARDANSI
  2
AmdtDetailSymStdANSI
  3
"Amdt_StdImp|Product Description: AutoCAD Mechanical|Company: Autodesk, Inc."
 90
     1024
 91
        0
280
     0
281
     0
  0
CLASS
  1
ACMSECTIONSTANDARDANSI
  2
AmdtSectionSymStdANSI
  3
"Amdt_StdImp|Product Description: AutoCAD Mechanical|Company: Autodesk, Inc."
 90
     1024
 91
        0
280
     0
281
     0
  0
CLASS
  1
ACMCENTERLINESTANDARDANSI
  2
AmdtCenterLineStdANSI
  3
"Amdt_StdImp|Product Description: AutoCAD Mechanical|Company: Autodesk, Inc."
 90
     1024
 91
        0
280
     0
281
     0
  0
CLASS
  1
ACMNOTESTANDARDANSI
  2
AmdtNoteStdANSI
  3
"Amdt_StdImp|Product Description: AutoCAD Mechanical|Company: Autodesk, Inc."
 90
     1024
 91
        0
280
     0
281
     0
  0
CLASS
  1
ACAMGHOLECHARTSTDANSI
  2
AcAmgHoleChartStdANSI
  3
AmgDim|Product Description: AutoCAD Mechanical|Company: Autodesk, Inc.
 90
     1024
 91
        0
280
     0
281
     0
  0
CLASS
  1
AMDTFORMULAUPDATEDISPATCHER
  2
AmdtFormulaUpdateDispatcher
  3
AcMeServices
 90
     1024
 91
        0
280
     0
281
     0
  0
CLASS
  1
DIMASSOC
  2
AcDbDimAssoc
  3
"AcDbDimAssoc|Product Desc:     AcDim ARX App For Dimension|Company:          Autodesk, Inc.|WEB Address:      www.autodesk.com"
 90
        0
 91
        0
280
     0
281
     0
  0
CLASS
  1
MATERIAL
  2
AcDbMaterial
  3
ObjectDBX Classes
 90
     1153
 91
        3
280
     0
281
     0
  0
CLASS
  1
VISUALSTYLE
  2
AcDbVisualStyle
  3
ObjectDBX Classes
 90
     4095
 91
       26
280
     0
281
     0
  0
CLASS
  1
TABLESTYLE
  2
AcDbTableStyle
  3
ObjectDBX Classes
 90
     4095
 91
        1
280
     0
281
     0
  0
CLASS
  1
SCALE
  2
AcDbScale
  3
ObjectDBX Classes
 90
     1153
 91
       17
280
     0
281
     0
  0
CLASS
  1
MLEADERSTYLE
  2
AcDbMLeaderStyle
  3
ACDB_MLEADERSTYLE_CLASS
 90
     4095
 91
        1
280
     0
281
     0
  0
CLASS
  1
AM_DRAWING_MGR
  2
AcDmDwgMgr
  3
AcMechDwgViewMgmt
 90
     1024
 91
        1
280
     0
281
     0
  0
CLASS
  1
AM_DWG_DOCUMENT
  2
AcDmDwgDocument
  3
AcMechDwgViewMgmt
 90
     1024
 91
        1
280
     0
281
     0
  0
CLASS
  1
AM_DWG_SHEET
  2
AcDmSheet
  3
AcMechDwgViewMgmt
 90
     1024
 91
        2
280
     0
281
     0
  0
CLASS
  1
AM_VIEWDIMPARMAP
  2
AcDmViewDimParMap
  3
AcMechDwgViewMgmt
 90
     1024
 91
        2
280
     0
281
     0
  0
CLASS
  1
AM_DWGMGR_NAME
  2
AcDmDwgMgrName
  3
AcMechDwgViewMgmt
 90
     1024
 91
        1
280
     0
281
     0
  0
CLASS
  1
AMDTMENUSTATEMGR
  2
AmdtMenuStateMgr
  3
McadcomServices
 90
     1024
 91
        1
280
     0
281
     0
  0
CLASS
  1
AMDTMCOMMENUSTATE
  2
AmdtMcomMenuState
  3
McadcomServices
 90
     1024
 91
        1
280
     0
281
     0
  0
CLASS
  1
MAPIAMMOUDLE
  2
MApiAmModule
  3
MApiAmServices
 90
     1024
 91
        1
280
     0
281
     0
  0
CLASS
  1
AMDTADMENUSTATE
  2
AmdtAdMenuState
  3
DesignerServices
 90
     1024
 91
        0
280
     0
281
     0
  0
CLASS
  1
ADAPPL
  2
AcAdAppl
  3
DesignerAssemblies
 90
     1024
 91
        0
280
     0
281
     0
  0
CLASS
  1
DEPMGR
  2
AcAdDepMgr
  3
DesignerAssemblies
 90
     1024
 91
        0
280
     0
281
     0
  0
CLASS
  1
PARAMMGR
  2
AcAdParamMgr
  3
DesignerAssemblies
 90
     1024
 91
        0
280
     0
281
     0
  0
CLASS
  1
PARAMSCOPE
  2
AcAdParamScope
  3
DesignerAssemblies
 90
     1024
 91
        0
280
     0
281
     0
  0
CLASS
  1
NAMEDAPPL
  2
AcAdNamedAppl
  3
DesignerAssemblies
 90
     1024
 91
        0
280
     0
281
     0
  0
CLASS
  1
AMDTDMMENUSTATE
  2
AmdtDmMenuState
  3
AcMechDwgViewMgmt
 90
     1024
 91
        1
280
     0
281
     0
  0
CLASS
  1
AMDTAMMENUSTATE
  2
AmdtAmMenuState
  3
DesignerAssemblies
 90
     1024
 91
        1
280
     0
281
     0
  0
CLASS
  1
ACAMPROJECT
  2
AcAmProject
  3
DesignerAssemblies
 90
     1024
 91
        1
280
     0
281
     0
  0
CLASS
  1
ACAMGRCOMPDEF
  2
AcAmGrCompDef
  3
DesignerAssemblies
 90
     1024
 91
        1
280
     0
281
     0
  0
CLASS
  1
ACCMCONTEXT
  2
AcCmContext
  3
DesignerAssemblies
 90
     1024
 91
        0
280
     0
281
     0
  0
CLASS
  1
ACAMCOMPDEF
  2
AcAmCompDef
  3
DesignerAssemblies
 90
     1024
 91
        1
280
     0
281
     0
  0
CLASS
  1
ACAMCOMPDEFMGR
  2
AcAmCompDefMgr
  3
DesignerAssemblies
 90
     1024
 91
        1
280
     0
281
     0
  0
CLASS
  1
AMCONTEXTMGR
  2
AcAmContextMgr
  3
DesignerAssemblies
 90
     1024
 91
        1
280
     0
281
     0
  0
CLASS
  1
ACAMCONTEXTMODELER
  2
AcAmContextModeler
  3
DesignerAssemblies
 90
     1024
 91
        1
280
     0
281
     0
  0
CLASS
  1
ACRFATTGENMGR
  2
AcRfAttGeneralMgr
  3
AcAttribServices
 90
     1024
 91
        0
280
     0
281
     0
  0
CLASS
  1
ACRFOBJATTMGR
  2
AcRfObjAttGroupMgr
  3
AcAttribServices
 90
     1024
 91
        0
280
     0
281
     0
  0
CLASS
  1
ACRFMCADAPIATTHOLDER
  2
AcRfMCADAPIAttHolder
  3
AcAttribServices
 90
     1024
 91
        0
280
     0
281
     0
  0
CLASS
  1
AMDTSYSATTR
  2
AmdtSystemAttribute
  3
AcAttribServices
 90
     1024
 91
        0
280
     0
281
     0
  0
CLASS
  1
ACMTHREADLINESTANDARDDIN
  2
AmdtThreadLineStdDIN
  3
"Amdt_StdImp|Product Description: AutoCAD Mechanical|Company: Autodesk, Inc."
 90
     1024
 91
        1
280
     0
281
     0
  0
CLASS
  1
ACMTAPERSTANDARDDIN
  2
AcmTaperStdDIN
  3
"Amdt_StdImp|Product Description: AutoCAD Mechanical|Company: Autodesk, Inc."
 90
     1024
 91
        1
280
     0
281
     0
  0
CLASS
  1
ACMANOOTATIONVIEWSTANDARDDIN
  2
AmdtAnViewStdDIN
  3
"Amdt_StdImp|Product Description: AutoCAD Mechanical|Company: Autodesk, Inc."
 90
     1024
 91
        1
280
     0
281
     0
  0
CLASS
  1
ACMTHREADLINESTANDARDANSI
  2
AmdtThreadLineStdANSI
  3
"Amdt_StdImp|Product Description: AutoCAD Mechanical|Company: Autodesk, Inc."
 90
     1024
 91
        0
280
     0
281
     0
  0
CLASS
  1
ACMTAPERSTANDARDANSI
  2
AcmTaperStdANSI
  3
"Amdt_StdImp|Product Description: AutoCAD Mechanical|Company: Autodesk, Inc."
 90
     1024
 91
        0
280
     0
281
     0
  0
CLASS
  1
ACMANOOTATIONVIEWSTANDARDANSI
  2
AmdtAnViewStdANSI
  3
"Amdt_StdImp|Product Description: AutoCAD Mechanical|Company: Autodesk, Inc."
 90
     1024
 91
        0
280
     0
281
     0
  0
CLASS
  1
CATALOGSTATE
  2
AcAmCatalogState
  3
DesignerAssemblies
 90
     1024
 91
        0
280
     0
281
     0
  0
CLASS
  1
ACAMGRCOMPDEFSET
  2
AcAmGrCompDefSet
  3
DesignerAssemblies
 90
     1024
 91
        1
280
     0
281
     0
  0
CLASS
  1
AMDTBROWSERDBTAB
  2
AmdtBrowserDbTab
  3
McadcomServices
 90
     1024
 91
        1
280
     0
281
     0
  0
CLASS
  1
CBROWSERAPPOBJECT
  2
CBrowserAppObject
  3
McadcomServices
 90
     1024
 91
        2
280
     0
281
     0
  0
CLASS
  1
DM_PLACEHOLDER
  2
AcDmSelsetPlaceholder
  3
AcMechDwgViewMgmt
 90
     1024
 91
        1
280
     0
281
     0
  0
CLASS
  1
SORTENTSTABLE
  2
AcDbSortentsTable
  3
ObjectDBX Classes
 90
        0
 91
        2
280
     0
281
     0
  0
CLASS
  1
CELLSTYLEMAP
  2
AcDbCellStyleMap
  3
ObjectDBX Classes
 90
     1152
 91
        3
280
     0
281
     0
  0
CLASS
  1
AMDTEDGESTANDARDDIN13715
  2
AmdtEdgeStdDIN13715
  3
"Amdt_StdImp|Product Description: AutoCAD Mechanical|Company: Autodesk, Inc."
 90
     1024
 91
        1
280
     0
281
     0
  0
CLASS
  1
ACMSURFSTANDARDDIN2002
  2
AcmSurfTextStdDIN2002
  3
"Amdt_StdImp|Product Description: AutoCAD Mechanical|Company: Autodesk, Inc."
 90
     1024
 91
        1
280
     0
281
     0
  0
CLASS
  1
AMDTNOTETEMPLATEDB
  2
AmdtNoteTemplateDB
  3
AcmSymBB|Product Description: AutoCAD Mechanical|Company: Autodesk, Inc.
 90
     1024
 91
        6
280
     0
281
     0
  0
CLASS
  1
CAMSSTRUCTBTNSTATE
  2
StructBtnState
  3
DesignerAssemblies
 90
     1024
 91
        0
280
     0
281
     0
  0
CLASS
  1
AEC_REFEDIT_STATUS_TRACKER
  2
AecDbRefEditStatusTracker
  3
AecArchBase60|Product Desc: Autodesk Architectural Desktop 2007 |Company: Autodesk,Inc. |WEB Address: www.autodesk.com
 90
      129
 91
        1
280
     0
281
     0
  0
CLASS
  1
NPOCOLLECTION
  2
AcDbImpNonPersistentObjectsCollection
  3
ObjectDBX Classes
 90
     1153
 91
        1
280
     0
281
     0
  0
ENDSEC
  0
SECTION
  2
TABLES
  0
TABLE
  2
VPORT
  5
8
102
{ACAD_XDICTIONARY
360
2939
102
}
330
0
100
AcDbSymbolTable
 70
     1
  0
VPORT
  5
2861
330
8
100
AcDbSymbolTableRecord
100
AcDbViewportTableRecord
  2
*Active
 70
     0
 10
0.0
 20
0.0
 11
1.0
 21
1.0
 12
-284.301536539343
 22
11.75447066474964
 13
0.0
 23
0.0
 14
2.5
 24
2.5
 15
10.0
 25
10.0
 16
0.0
 26
0.0
 36
1.0
 17
0.0
 27
0.0
 37
0.0
 40
933.1992526264091
 41
2.241920590951061
 42
50.0
 43
0.0
 44
0.0
 50
0.0
 51
0.0
 71
     0
 72
   100
 73
     1
 74
     3
 75
     0
 76
     0
 77
     0
 78
     0
281
     0
 65
     1
110
0.0
120
0.0
130
0.0
111
1.0
121
0.0
131
0.0
112
0.0
122
1.0
132
0.0
 79
     0
146
0.0
  0
ENDTAB
  0
TABLE
  2
LTYPE
  5
5
330
0
100
AcDbSymbolTable
 70
    35
  0
LTYPE
  5
14
330
5
100
AcDbSymbolTableRecord
100
AcDbLinetypeTableRecord
  2
ByBlock
 70
     0
  3

 72
    65
 73
     0
 40
0.0
  0
LTYPE
  5
15
330
5
100
AcDbSymbolTableRecord
100
AcDbLinetypeTableRecord
  2
ByLayer
 70
     0
  3

 72
    65
 73
     0
 40
0.0
  0
LTYPE
  5
16
330
5
100
AcDbSymbolTableRecord
100
AcDbLinetypeTableRecord
  2
Continuous
 70
     0
  3
Solid line
 72
    65
 73
     0
 40
0.0
  0
LTYPE
  5
50
330
5
100
AcDbSymbolTableRecord
100
AcDbLinetypeTableRecord
  2
Amconstr
 70
     0
  3
_______________________
 72
    65
 73
     2
 40
9999.0
 49
9999.0
 74
     0
 49
0.0
 74
     0
  0
LTYPE
  5
55
330
5
100
AcDbSymbolTableRecord
100
AcDbLinetypeTableRecord
  2
Amzigzag
 70
     0
  3
/\/-/\/-/\/-/\/-/\/-/\/
 72
    65
 73
     2
 40
11.0001
 49
0.0001
 74
     4
 75
   135
340
54
 46
0.04
 50
0.0
 44
0.0
 45
0.0
 49
-11.0
 74
     0
  0
LTYPE
  5
56
330
5
100
AcDbSymbolTableRecord
100
AcDbLinetypeTableRecord
  2
AM_DIN_F_W050
 70
     0
  3
__ __ __ __ __ __ __ __ __ __ __ __ __ __ __
 72
    65
 73
     2
 40
6.25
 49
4.75
 74
     0
 49
-1.5
 74
     0
  0
LTYPE
  5
57
330
5
100
AcDbSymbolTableRecord
100
AcDbLinetypeTableRecord
  2
AM_DIN_G_W050
 70
     0
  3
____ . ____ . ____ . ____ . ____ . ____ . ____
 72
    65
 73
     4
 40
13.75
 49
9.75
 74
     0
 49
-1.5
 74
     0
 49
1.0
 74
     0
 49
-1.5
 74
     0
  0
LTYPE
  5
58
330
5
100
AcDbSymbolTableRecord
100
AcDbLinetypeTableRecord
  2
AM_DIN_K_W050
 70
     0
  3
_____ . . _____ . . _____ . . ____ .. ____
 72
    65
 73
     6
 40
16.25
 49
9.75
 74
     0
 49
-1.5
 74
     0
 49
1.0
 74
     0
 49
-1.5
 74
     0
 49
1.0
 74
     0
 49
-1.5
 74
     0
  0
LTYPE
  5
59
330
5
100
AcDbSymbolTableRecord
100
AcDbLinetypeTableRecord
  2
AM_DIN_G_W050x2
 70
     0
  3
__ . __ . __ . __ . __ . __
 72
    65
 73
     4
 40
6.875
 49
4.75
 74
     0
 49
-0.875
 74
     0
 49
0.375
 74
     0
 49
-0.875
 74
     0
  0
LTYPE
  5
5A
330
5
100
AcDbSymbolTableRecord
100
AcDbLinetypeTableRecord
  2
AM_DIN_F_W050x2
 70
     0
  3
 _ _ _ _ _ _ _ _ _ _ _ _
 72
    65
 73
     2
 40
3.125
 49
2.25
 74
     0
 49
-0.875
 74
     0
  0
LTYPE
  5
68
330
5
100
AcDbSymbolTableRecord
100
AcDbLinetypeTableRecord
  2
ACDINWELD
 70
     0
  3
_ _ _ _ _
 72
    65
 73
     2
 40
2.0
 49
2.0
 74
     0
 49
-1.0
 74
     0
  0
LTYPE
  5
69
330
5
100
AcDbSymbolTableRecord
100
AcDbLinetypeTableRecord
  2
ACDINTGB
 70
     0
  3
__ . . __ . .
 72
    65
 73
     6
 40
9.0
 49
4.0
 74
     0
 49
-1.0
 74
     0
 49
1.0
 74
     0
 49
-1.0
 74
     0
 49
1.0
 74
     0
 49
-1.0
 74
     0
  0
LTYPE
  5
6A
330
5
100
AcDbSymbolTableRecord
100
AcDbLinetypeTableRecord
  2
ACDINTGL
 70
     0
  3
_ _ _ _ _
 72
    65
 73
     2
 40
3.0
 49
2.0
 74
     0
 49
-1.0
 74
     0
  0
LTYPE
  5
6C
330
5
100
AcDbSymbolTableRecord
100
AcDbLinetypeTableRecord
  2
CENTER
 70
     0
  3
__ . __
 72
    65
 73
     4
 40
7.0
 49
4.0
 74
     0
 49
-1.0
 74
     0
 49
1.0
 74
     0
 49
-1.0
 74
     0
  0
LTYPE
  5
33D
330
5
100
AcDbSymbolTableRecord
100
AcDbLinetypeTableRecord
  2
PHANTOM2
 70
     0
  3
Phantom (.5x) ___ _ _ ___ _ _ ___ _ _ ___ _ _
 72
    65
 73
     6
 40
1.25
 49
0.625
 74
     0
 49
-0.125
 74
     0
 49
0.125
 74
     0
 49
-0.125
 74
     0
 49
0.125
 74
     0
 49
-0.125
 74
     0
  0
LTYPE
  5
341
330
5
100
AcDbSymbolTableRecord
100
AcDbLinetypeTableRecord
  2
ACANSTGB
 70
     0
  3
__ . . __ . .
 72
    65
 73
     6
 40
0.35433070866
 49
0.15748031496
 74
     0
 49
-0.03937007874
 74
     0
 49
0.03937007874
 74
     0
 49
-0.03937007874
 74
     0
 49
0.03937007874
 74
     0
 49
-0.03937007874
 74
     0
  0
LTYPE
  5
342
330
5
100
AcDbSymbolTableRecord
100
AcDbLinetypeTableRecord
  2
ACANSTGL
 70
     0
  3
_ _ _ _ _
 72
    65
 73
     2
 40
0.11811023622
 49
0.07874015748
 74
     0
 49
-0.03937007874
 74
     0
  0
LTYPE
  5
28D2
330
5
100
AcDbSymbolTableRecord
100
AcDbLinetypeTableRecord
  2
HIDDEN
 70
     0
  3
Verdeckt
 72
    65
 73
     2
 40
9.525
 49
6.349999999999999
 74
     0
 49
-3.174999999999999
 74
     0
  0
LTYPE
  5
29BA
330
5
100
AcDbSymbolTableRecord
100
AcDbLinetypeTableRecord
  2
AM_ISO02W050
 70
     0
  3
__ __ __ __ __ __ __ __ __ __ __ __ __ __ __
 72
    65
 73
     2
 40
7.5
 49
6.0
 74
     0
 49
-1.5
 74
     0
  0
LTYPE
  5
29BB
330
5
100
AcDbSymbolTableRecord
100
AcDbLinetypeTableRecord
  2
AM_ISO08W050
 70
     0
  3
____ . ____ . ____ . ____ . ____ . ____ . ____
 72
    65
 73
     4
 40
18.0
 49
12.0
 74
     0
 49
-1.5
 74
     0
 49
3.0
 74
     0
 49
-1.5
 74
     0
  0
LTYPE
  5
29BC
330
5
100
AcDbSymbolTableRecord
100
AcDbLinetypeTableRecord
  2
AM_ISO09W050
 70
     0
  3
_____ . . _____ . . _____ . . ____ .. ____
 72
    65
 73
     6
 40
22.5
 49
12.0
 74
     0
 49
-1.5
 74
     0
 49
3.0
 74
     0
 49
-1.5
 74
     0
 49
3.0
 74
     0
 49
-1.5
 74
     0
  0
LTYPE
  5
29BD
330
5
100
AcDbSymbolTableRecord
100
AcDbLinetypeTableRecord
  2
AM_ISO08W050x2
 70
     0
  3
__ . __ . __ . __ . __ . __
 72
    65
 73
     4
 40
9.0
 49
6.0
 74
     0
 49
-0.75
 74
     0
 49
1.5
 74
     0
 49
-0.75
 74
     0
  0
LTYPE
  5
29BE
330
5
100
AcDbSymbolTableRecord
100
AcDbLinetypeTableRecord
  2
AM_ISO02W050x2
 70
     0
  3
 _ _ _ _ _ _ _ _ _ _ _ _
 72
    65
 73
     2
 40
3.75
 49
3.0
 74
     0
 49
-0.75
 74
     0
  0
LTYPE
  5
29C7
330
5
100
AcDbSymbolTableRecord
100
AcDbLinetypeTableRecord
  2
CENTER2
 70
     0
  3
Center (.5x) ___ _ ___ _ ___ _ ___ _ ___ _ ___
 72
    65
 73
     4
 40
1.125
 49
0.75
 74
     0
 49
-0.125
 74
     0
 49
0.125
 74
     0
 49
-0.125
 74
     0
  0
LTYPE
  5
29C8
330
5
100
AcDbSymbolTableRecord
100
AcDbLinetypeTableRecord
  2
HIDDEN2
 70
     0
  3
Hidden (.5x) _ _ _ _ _ _ _ _ _ _ _ _ _ _ _ _ _
 72
    65
 73
     2
 40
0.1875
 49
0.125
 74
     0
 49
-0.0625
 74
     0
  0
LTYPE
  5
29C9
330
5
100
AcDbSymbolTableRecord
100
AcDbLinetypeTableRecord
  2
Amzigzag2
 70
     0
  3
/\/-/\/-/\/-/\/-/\/-/\/
 72
    65
 73
     2
 40
0.4401
 49
0.0001
 74
     4
 75
   135
340
54
 46
0.0016
 50
0.0
 44
0.0
 45
0.0
 49
-0.4400000000000001
 74
     0
  0
LTYPE
  5
882A
330
5
100
AcDbSymbolTableRecord
100
AcDbLinetypeTableRecord
  2
AI-Linetype-1
 70
     0
  3
Adobe Illustrator Linetype No. 1
 72
    65
 73
     4
 40
6.349999998412501
 49
4.233333332275
 74
     0
 49
-0.7055555553791667
 74
     0
 49
0.7055555553791667
 74
     0
 49
-0.7055555553791667
 74
     0
  0
LTYPE
  5
882B
330
5
100
AcDbSymbolTableRecord
100
AcDbLinetypeTableRecord
  2
AI-Linetype-2
 70
     0
  3
Adobe Illustrator Linetype No. 2
 72
    65
 73
     2
 40
0.7055555553791667
 49
0.3527777776895833
 74
     0
 49
-0.3527777776895833
 74
     0
  0
LTYPE
  5
882C
330
5
100
AcDbSymbolTableRecord
100
AcDbLinetypeTableRecord
  2
AI-Linetype-3
 70
     0
  3
Adobe Illustrator Linetype No. 3
 72
    65
 73
     2
 40
0.7055555553791667
 49
0.3527777776895833
 74
     0
 49
-0.3527777776895833
 74
     0
  0
LTYPE
  5
882D
330
5
100
AcDbSymbolTableRecord
100
AcDbLinetypeTableRecord
  2
AI-Linetype-4
 70
     0
  3
Adobe Illustrator Linetype No. 4
 72
    65
 73
     2
 40
0.7055555553791667
 49
0.3527777776895833
 74
     0
 49
-0.3527777776895833
 74
     0
  0
LTYPE
  5
882E
330
5
100
AcDbSymbolTableRecord
100
AcDbLinetypeTableRecord
  2
AI-Linetype-5
 70
     0
  3
Adobe Illustrator Linetype No. 5
 72
    65
 73
     2
 40
0.7055555553791667
 49
0.3527777776895833
 74
     0
 49
-0.3527777776895833
 74
     0
  0
LTYPE
  5
882F
330
5
100
AcDbSymbolTableRecord
100
AcDbLinetypeTableRecord
  2
AI-Linetype-6
 70
     0
  3
Adobe Illustrator Linetype No. 6
 72
    65
 73
     2
 40
0.7055555553791667
 49
0.3527777776895833
 74
     0
 49
-0.3527777776895833
 74
     0
  0
LTYPE
  5
8830
330
5
100
AcDbSymbolTableRecord
100
AcDbLinetypeTableRecord
  2
AI-Linetype-7
 70
     0
  3
Adobe Illustrator Linetype No. 7
 72
    65
 73
     2
 40
0.7055555553791667
 49
0.3527777776895833
 74
     0
 49
-0.3527777776895833
 74
     0
  0
LTYPE
  5
8831
330
5
100
AcDbSymbolTableRecord
100
AcDbLinetypeTableRecord
  2
AI-Linetype-8
 70
     0
  3
Adobe Illustrator Linetype No. 8
 72
    65
 73
     2
 40
0.7055555553791667
 49
0.3527777776895833
 74
     0
 49
-0.3527777776895833
 74
     0
  0
LTYPE
  5
8832
330
5
100
AcDbSymbolTableRecord
100
AcDbLinetypeTableRecord
  2
AI-Linetype-9
 70
     0
  3
Adobe Illustrator Linetype No. 9
 72
    65
 73
     2
 40
0.7055555553791667
 49
0.3527777776895833
 74
     0
 49
-0.3527777776895833
 74
     0
  0
LTYPE
  5
8833
330
5
100
AcDbSymbolTableRecord
100
AcDbLinetypeTableRecord
  2
AI-Linetype-10
 70
     0
  3
Adobe Illustrator Linetype No. 10
 72
    65
 73
     2
 40
0.7055555553791667
 49
0.3527777776895833
 74
     0
 49
-0.3527777776895833
 74
     0
  0
LTYPE
  5
8834
330
5
100
AcDbSymbolTableRecord
100
AcDbLinetypeTableRecord
  2
AI-Linetype-11
 70
     0
  3
Adobe Illustrator Linetype No. 11
 72
    65
 73
     2
 40
0.7055555553791667
 49
0.3527777776895833
 74
     0
 49
-0.3527777776895833
 74
     0
  0
ENDTAB
  0
TABLE
  2
LAYER
  5
2
102
{ACAD_XDICTIONARY
360
3BB4
102
}
330
0
100
AcDbSymbolTable
 70
     1
  0
LAYER
  5
10
102
{ACAD_XDICTIONARY
360
2932
102
}
330
2
100
AcDbSymbolTableRecord
100
AcDbLayerTableRecord
  2
0
 70
     0
 62
     7
  6
Continuous
370
    -3
390
F
  0
ENDTAB
  0
TABLE
  2
STYLE
  5
3
330
0
100
AcDbSymbolTable
 70
     7
  0
STYLE
  5
11
330
3
100
AcDbSymbolTableRecord
100
AcDbTextStyleTableRecord
  2
STANDARD
 70
     0
 40
0.0
 41
1.0
 50
0.0
 71
     0
 42
2.5
  3
ISOCP.SHX
  4

  0
STYLE
  5
54
330
3
100
AcDbSymbolTableRecord
100
AcDbTextStyleTableRecord
  2

 70
     1
 40
0.0
 41
1.0
 50
0.0
 71
     0
 42
2.5
  3
ltypeshp.shx
  4

  0
STYLE
  5
5B
330
3
100
AcDbSymbolTableRecord
100
AcDbTextStyleTableRecord
  2
ACDINTS
 70
     0
 40
1.0
 41
1.0
 50
0.0
 71
     0
 42
2.5
  3
isocp.shx
  4

  0
STYLE
  5
67
330
3
100
AcDbSymbolTableRecord
100
AcDbTextStyleTableRecord
  2
ACDINGDT
 70
     0
 40
0.0
 41
1.0
 50
0.0
 71
     0
 42
2.5
  3
amgdt.shx
  4

  0
STYLE
  5
343
330
3
100
AcDbSymbolTableRecord
100
AcDbTextStyleTableRecord
  2
ACANSTS
 70
     0
 40
1.0
 41
1.0
 50
0.0
 71
     0
 42
0.2
  3
romans.shx
  4

  0
STYLE
  5
344
330
3
100
AcDbSymbolTableRecord
100
AcDbTextStyleTableRecord
  2
ACANSGDT
 70
     0
 40
0.0
 41
1.0
 50
0.0
 71
     0
 42
0.2
  3
amgdtans.shx
  4

  0
STYLE
  5
2B01
330
3
100
AcDbSymbolTableRecord
100
AcDbTextStyleTableRecord
  2

 70
     1
 40
0.0
 41
1.0
 50
0.0
 71
     0
 42
0.2
  3
genltshp.shx
  4

  0
ENDTAB
  0
TABLE
  2
VIEW
  5
6
330
0
100
AcDbSymbolTable
 70
     1
  0
ENDTAB
  0
TABLE
  2
UCS
  5
7
330
0
100
AcDbSymbolTable
 70
     0
  0
ENDTAB
  0
TABLE
  2
APPID
  5
9
330
0
100
AcDbSymbolTable
 70
    22
  0
APPID
  5
12
330
9
100
AcDbSymbolTableRecord
100
AcDbRegAppTableRecord
  2
ACAD
 70
     0
  0
APPID
  5
2C
330
9
100
AcDbSymbolTableRecord
100
AcDbRegAppTableRecord
  2
MCAD_NO_VIS
 70
     0
  0
APPID
  5
2D
330
9
100
AcDbSymbolTableRecord
100
AcDbRegAppTableRecord
  2
ACAD_TEMP_GRAPHIC
 70
     0
  0
APPID
  5
3E
330
9
100
AcDbSymbolTableRecord
100
AcDbRegAppTableRecord
  2
ACATTRIBSERVICES
 70
     0
  0
APPID
  5
428
330
9
100
AcDbSymbolTableRecord
100
AcDbRegAppTableRecord
  2
DCO15
 70
     0
  0
APPID
  5
217D
330
9
100
AcDbSymbolTableRecord
100
AcDbRegAppTableRecord
  2
GENIUS_GENREC_14
 70
     0
  0
APPID
  5
217E
330
9
100
AcDbSymbolTableRecord
100
AcDbRegAppTableRecord
  2
GENIUS_GENODEF_13
 70
     0
  0
APPID
  5
217F
330
9
100
AcDbSymbolTableRecord
100
AcDbRegAppTableRecord
  2
GENIUS_GENOBJ-N-REC_13
 70
     0
  0
APPID
  5
28A4
330
9
100
AcDbSymbolTableRecord
100
AcDbRegAppTableRecord
  2
ACAD_MLEADERVER
 70
     0
  0
APPID
  5
28D4
330
9
100
AcDbSymbolTableRecord
100
AcDbRegAppTableRecord
  2
AD_DRAW
 70
     0
  0
APPID
  5
28F3
330
9
100
AcDbSymbolTableRecord
100
AcDbRegAppTableRecord
  2
DESIGNERASSEMBLIES
 70
     0
  0
APPID
  5
2902
330
9
100
AcDbSymbolTableRecord
100
AcDbRegAppTableRecord
  2
ACADM_DIM_EDIT
 70
     0
  0
APPID
  5
2903
330
9
100
AcDbSymbolTableRecord
100
AcDbRegAppTableRecord
  2
AMDT_DM_ADJ
 70
     0
  0
APPID
  5
2A08
330
9
100
AcDbSymbolTableRecord
100
AcDbRegAppTableRecord
  2
ACAD_DSTYLE_DIMJOGGED_JOGANGLE_SYMBOL
 70
     0
  0
APPID
  5
2A09
330
9
100
AcDbSymbolTableRecord
100
AcDbRegAppTableRecord
  2
ACAD_DSTYLE_DIM_LINETYPE
 70
     0
  0
APPID
  5
2A0A
330
9
100
AcDbSymbolTableRecord
100
AcDbRegAppTableRecord
  2
ACAD_DSTYLE_DIM_EXT1_LINETYPE
 70
     0
  0
APPID
  5
2A0B
330
9
100
AcDbSymbolTableRecord
100
AcDbRegAppTableRecord
  2
ACAD_DSTYLE_DIM_EXT2_LINETYPE
 70
     0
  0
APPID
  5
37DA
330
9
100
AcDbSymbolTableRecord
100
AcDbRegAppTableRecord
  2
ACAD_EXEMPT_FROM_CAD_STANDARDS
 70
     0
  0
APPID
  5
37E8
330
9
100
AcDbSymbolTableRecord
100
AcDbRegAppTableRecord
  2
GENIUS_GENOBJ-N-FIL_13
 70
     0
  0
APPID
  5
3C65
330
9
100
AcDbSymbolTableRecord
100
AcDbRegAppTableRecord
  2
ACAD_DSTYLE_DIMBREAK
 70
     0
  0
APPID
  5
3C66
330
9
100
AcDbSymbolTableRecord
100
AcDbRegAppTableRecord
  2
ACAD_DSTYLE_DIMJAG
 70
     0
  0
APPID
  5
4770
330
9
100
AcDbSymbolTableRecord
100
AcDbRegAppTableRecord
  2
ACAD_PSEXT
 70
     0
  0
ENDTAB
  0
TABLE
  2
DIMSTYLE
  5
A
330
0
100
AcDbSymbolTable
 70
    14
100
AcDbDimStyleTable
 71
     1
340
6F
  0
DIMSTYLE
105
6F
102
{ACAD_REACTORS
330
A437
102
}
330
A
100
AcDbSymbolTableRecord
100
AcDbDimStyleTableRecord
  2
AM_DIN
 70
     0
  4
"
 41
3.5
 42
1.0
 43
10.0
 44
1.0
 47
0.1
 48
0.1
 73
     0
 74
     0
 77
     1
 78
     8
 79
     2
140
3.5
141
0.0
143
0.0393701
146
0.71
147
1.5
172
     1
176
   256
177
   256
178
   140
271
     2
272
     3
274
     4
283
     0
284
     8
340
11
371
    -1
372
    -1
1001
ACAD_DSTYLE_DIMJOGGED_JOGANGLE_SYMBOL
1070
   384
1040
1.570796326794896
1001
ACAD_DSTYLE_DIM_LINETYPE
1070
   380
1005
14
1001
ACAD_DSTYLE_DIM_EXT1_LINETYPE
1070
   381
1005
14
1001
ACAD_DSTYLE_DIM_EXT2_LINETYPE
1070
   382
1005
14
  0
DIMSTYLE
105
70
330
A
100
AcDbSymbolTableRecord
100
AcDbDimStyleTableRecord
  2
AM_DIN$3
 70
     0
  4
"
 41
3.5
 42
1.0
 43
10.0
 44
1.0
 47
0.1
 48
0.1
 73
     0
 77
     1
 78
     8
 79
     2
140
3.5
141
0.0
143
0.0393701
146
0.71
147
1.5
176
   256
177
   256
178
   140
271
     2
272
     3
274
     4
283
     0
284
     8
288
     1
289
     0
340
11
371
    -1
372
    -1
1001
ACAD_DSTYLE_DIMJOGGED_JOGANGLE_SYMBOL
1070
   384
1040
1.570796326794896
1001
ACAD_DSTYLE_DIM_LINETYPE
1070
   380
1005
14
1001
ACAD_DSTYLE_DIM_EXT1_LINETYPE
1070
   381
1005
14
1001
ACAD_DSTYLE_DIM_EXT2_LINETYPE
1070
   382
1005
14
  0
DIMSTYLE
105
71
330
A
100
AcDbSymbolTableRecord
100
AcDbDimStyleTableRecord
  2
AM_DIN$4
 70
     0
  4
"
 41
3.5
 42
1.0
 43
10.0
 44
1.0
 47
0.1
 48
0.1
 73
     0
 74
     0
 77
     1
 78
     8
 79
     2
140
3.5
141
0.0
143
0.0393701
146
0.71
147
1.5
172
     1
176
   256
177
   256
178
   140
271
     2
272
     3
274
     4
283
     0
284
     8
340
11
371
    -1
372
    -1
1001
ACAD_DSTYLE_DIMJOGGED_JOGANGLE_SYMBOL
1070
   384
1040
1.570796326794896
1001
ACAD_DSTYLE_DIM_LINETYPE
1070
   380
1005
14
1001
ACAD_DSTYLE_DIM_EXT1_LINETYPE
1070
   381
1005
14
1001
ACAD_DSTYLE_DIM_EXT2_LINETYPE
1070
   382
1005
14
  0
DIMSTYLE
105
72
330
A
100
AcDbSymbolTableRecord
100
AcDbDimStyleTableRecord
  2
AM_DIN$6
 70
     0
  4
"
 41
3.5
 42
1.0
 43
10.0
 44
1.0
 47
0.1
 48
0.1
 73
     0
 74
     0
 78
     8
 79
     2
140
3.5
141
0.0
143
0.0393701
146
0.71
147
1.5
172
     1
176
   256
177
   256
178
   140
271
     2
272
     3
274
     4
283
     0
284
     8
340
11
371
    -1
372
    -1
1001
ACAD_DSTYLE_DIMJOGGED_JOGANGLE_SYMBOL
1070
   384
1040
1.570796326794896
1001
ACAD_DSTYLE_DIM_LINETYPE
1070
   380
1005
14
1001
ACAD_DSTYLE_DIM_EXT1_LINETYPE
1070
   381
1005
14
1001
ACAD_DSTYLE_DIM_EXT2_LINETYPE
1070
   382
1005
14
  0
DIMSTYLE
105
73
330
A
100
AcDbSymbolTableRecord
100
AcDbDimStyleTableRecord
  2
AM_DIN$7
 70
     0
  4
"
 41
3.5
 42
1.0
 43
10.0
 44
1.0
 47
0.1
 48
0.1
 73
     0
 74
     0
 77
     1
 78
     8
 79
     2
140
3.5
141
0.0
143
0.0393701
146
0.71
147
1.5
172
     1
176
   256
177
   256
178
   140
271
     2
272
     3
274
     4
283
     0
284
     8
340
11
371
    -1
372
    -1
1001
ACAD_DSTYLE_DIMJOGGED_JOGANGLE_SYMBOL
1070
   384
1040
1.570796326794896
1001
ACAD_DSTYLE_DIM_LINETYPE
1070
   380
1005
14
1001
ACAD_DSTYLE_DIM_EXT1_LINETYPE
1070
   381
1005
14
1001
ACAD_DSTYLE_DIM_EXT2_LINETYPE
1070
   382
1005
14
  0
DIMSTYLE
105
74
330
A
100
AcDbSymbolTableRecord
100
AcDbDimStyleTableRecord
  2
AM_DIN$SF
 70
     0
  4
"
 41
3.5
 42
1.0
 43
10.0
 44
1.0
 47
0.1
 48
0.1
 73
     0
 74
     0
 75
     1
 76
     1
 77
     1
 78
     8
 79
     2
140
3.5
141
0.0
143
0.0393701
146
0.71
147
1.5
172
     1
176
   256
177
   256
178
   140
271
     2
272
     3
274
     4
283
     0
284
     8
340
11
371
    -1
372
    -1
1001
ACAD_DSTYLE_DIMJOGGED_JOGANGLE_SYMBOL
1070
   384
1040
1.570796326794896
1001
ACAD_DSTYLE_DIM_LINETYPE
1070
   380
1005
14
1001
ACAD_DSTYLE_DIM_EXT1_LINETYPE
1070
   381
1005
14
1001
ACAD_DSTYLE_DIM_EXT2_LINETYPE
1070
   382
1005
14
  0
DIMSTYLE
105
79
330
A
100
AcDbSymbolTableRecord
100
AcDbDimStyleTableRecord
  2
AM_DIN$SH
 70
     0
  4
"
 41
3.5
 42
1.0
 43
10.0
 44
1.0
 47
0.1
 48
0.1
 73
     0
 74
     0
 75
     1
 76
     1
 77
     1
 78
     8
 79
     2
140
3.5
141
0.0
143
0.0393701
144
2.0
146
0.71
147
1.5
172
     1
173
     1
176
   256
177
   256
178
   140
271
     2
272
     3
274
     4
283
     0
284
     8
340
11
343
75
371
    -1
372
    -1
1001
ACAD_DSTYLE_DIMJOGGED_JOGANGLE_SYMBOL
1070
   384
1040
1.570796326794896
1001
ACAD_DSTYLE_DIM_LINETYPE
1070
   380
1005
14
1001
ACAD_DSTYLE_DIM_EXT1_LINETYPE
1070
   381
1005
14
1001
ACAD_DSTYLE_DIM_EXT2_LINETYPE
1070
   382
1005
14
  0
DIMSTYLE
105
92
330
A
100
AcDbSymbolTableRecord
100
AcDbDimStyleTableRecord
  2
STANDARD
 70
     0
279
     2
340
11
  0
DIMSTYLE
105
345
330
A
100
AcDbSymbolTableRecord
100
AcDbDimStyleTableRecord
  2
AM_ANSI
 70
     0
  4
mm
 41
0.1
 42
0.05
 43
0.5
 44
0.1
 47
0.1
 48
0.1
 78
     7
 79
     2
140
0.12
141
0.0
146
0.71
147
0.06
176
   256
177
   256
178
     2
274
     4
284
     7
340
11
371
    -1
372
    -1
  0
DIMSTYLE
105
346
330
A
100
AcDbSymbolTableRecord
100
AcDbDimStyleTableRecord
  2
AM_ANSI$3
 70
     0
  4
mm
 41
0.1
 42
0.05
 43
0.5
 44
0.1
 47
0.1
 48
0.1
 78
     7
 79
     2
140
0.12
141
0.0
146
0.71
147
0.06
176
   256
177
   256
178
     2
274
     4
284
     7
288
     1
289
     0
340
11
371
    -1
372
    -1
  0
DIMSTYLE
105
347
330
A
100
AcDbSymbolTableRecord
100
AcDbDimStyleTableRecord
  2
AM_ANSI$4
 70
     0
  4
mm
 41
0.1
 42
0.05
 43
0.5
 44
0.1
 47
0.1
 48
0.1
 78
     7
 79
     2
140
0.12
141
0.0
146
0.71
147
0.06
176
   256
177
   256
178
     2
274
     4
284
     7
288
     1
289
     0
340
11
371
    -1
372
    -1
  0
DIMSTYLE
105
348
330
A
100
AcDbSymbolTableRecord
100
AcDbDimStyleTableRecord
  2
AM_ANSI$7
 70
     0
  4
mm
 41
0.1
 42
0.05
 43
0.5
 44
0.1
 47
0.1
 48
0.1
 78
     7
 79
     2
140
0.24
141
0.0
146
0.71
147
0.06
176
   256
177
   256
178
     2
274
     4
284
     7
340
11
371
    -1
372
    -1
  0
DIMSTYLE
105
349
330
A
100
AcDbSymbolTableRecord
100
AcDbDimStyleTableRecord
  2
AM_ANSI$SF
 70
     0
  4
mm
 41
0.1
 42
0.05
 43
0.5
 44
0.1
 47
0.1
 48
0.1
 75
     1
 76
     1
 78
     7
 79
     2
140
0.12
141
0.0
146
0.71
147
0.06
176
   256
177
   256
178
     2
274
     4
284
     7
340
11
371
    -1
372
    -1
  0
DIMSTYLE
105
34A
330
A
100
AcDbSymbolTableRecord
100
AcDbDimStyleTableRecord
  2
AM_ANSI$SH
 70
     0
  4
mm
 41
0.1
 42
0.05
 43
0.5
 44
0.1
 47
0.1
 48
0.1
 75
     1
 76
     1
 78
     7
 79
     2
140
0.12
141
0.0
146
0.71
147
0.06
173
     1
176
   256
177
   256
178
     2
274
     4
284
     7
340
11
343
75
371
    -1
372
    -1
  0
ENDTAB
  0
TABLE
  2
BLOCK_RECORD
  5
1
330
0
100
AcDbSymbolTable
 70
     6
  0
BLOCK_RECORD
  5
1F
102
{ACAD_XDICTIONARY
360
81
102
}
330
1
100
AcDbSymbolTableRecord
100
AcDbBlockTableRecord
  2
*Model_Space
340
22
  0
BLOCK_RECORD
  5
1B
330
1
100
AcDbSymbolTableRecord
100
AcDbBlockTableRecord
  2
*Paper_Space
340
1E
  0
BLOCK_RECORD
  5
23
330
1
100
AcDbSymbolTableRecord
100
AcDbBlockTableRecord
  2
*Paper_Space0
340
26
  0
BLOCK_RECORD
  5
75
330
1
100
AcDbSymbolTableRecord
100
AcDbBlockTableRecord
  2
GENAXEH
340
0
  0
BLOCK_RECORD
  5
87EB
330
1
100
AcDbSymbolTableRecord
100
AcDbBlockTableRecord
  2
block 2
340
0
102
{BLKREFS
331
8B22
102
}
  0
BLOCK_RECORD
  5
8B21
330
1
100
AcDbSymbolTableRecord
100
AcDbBlockTableRecord
  2
A$C66496C9C
340
0
1001
ACAD
1000
DesignCenter Data
1002
{
1070
     1
1070
     1
1002
}
  0
ENDTAB
  0
ENDSEC
  0
SECTION
  2
BLOCKS
  0
BLOCK
  5
20
330
1F
100
AcDbEntity
  8
0
100
AcDbBlockBegin
  2
*Model_Space
 70
     0
 10
0.0
 20
0.0
 30
0.0
  3
*Model_Space
  1

  0
ENDBLK
  5
21
330
1F
100
AcDbEntity
  8
0
100
AcDbBlockEnd
  0
BLOCK
  5
1C
330
1B
100
AcDbEntity
 67
     1
  8
0
100
AcDbBlockBegin
  2
*Paper_Space
 70
     0
 10
0.0
 20
0.0
 30
0.0
  3
*Paper_Space
  1

  0
ENDBLK
  5
1D
330
1B
100
AcDbEntity
 67
     1
  8
0
100
AcDbBlockEnd
  0
BLOCK
  5
24
330
23
100
AcDbEntity
 67
     1
  8
0
100
AcDbBlockBegin
  2
*Paper_Space0
 70
     0
 10
0.0
 20
0.0
 30
0.0
  3
*Paper_Space0
  1

  0
ENDBLK
  5
25
330
23
100
AcDbEntity
 67
     1
  8
0
100
AcDbBlockEnd
  0
BLOCK
  5
77
330
75
100
AcDbEntity
  8
0
100
AcDbBlockBegin
  2
GENAXEH
 70
     0
 10
0.0
 20
0.0
 30
0.0
  3
GENAXEH
  1

  0
LINE
  5
76
330
75
100
AcDbEntity
  8
0
100
AcDbLine
 10
-1.0
 20
0.0
 30
0.0
 11
1.0
 21
0.0
 31
0.0
  0
ENDBLK
  5
78
330
75
100
AcDbEntity
  8
0
100
AcDbBlockEnd
  0
BLOCK
  5
87EC
330
87EB
100
AcDbEntity
  8
0
100
AcDbBlockBegin
  2
block 2
 70
     0
 10
0.0
 20
0.0
 30
0.0
  3
block 2
  1

  0
POLYLINE
  5
87ED
330
87EB
100
AcDbEntity
  8
0
  6
AI-Linetype-1
 62
   250
420
  1842203
370
     9
100
AcDb2dPolyline
 66
     1
 10
0.0
 20
0.0
 30
0.0
  0
VERTEX
  5
87EE
330
87ED
100
AcDbEntity
  8
0
  6
AI-Linetype-1
 62
   250
420
  1842203
370
     9
100
AcDbVertex
100
AcDb2dVertex
 10
-205.4875433514059
 20
147.6623046505844
 30
0.0
  0
VERTEX
  5
87EF
330
87ED
100
AcDbEntity
  8
0
  6
AI-Linetype-1
 62
   250
420
  1842203
370
     9
100
AcDbVertex
100
AcDb2dVertex
 10
388.6866969514395
 20
147.6623046505844
 30
0.0
  0
SEQEND
  5
87F0
330
87ED
100
AcDbEntity
  8
0
  6
AI-Linetype-1
370
     9
  0
SPLINE
  5
87F1
330
87EB
100
AcDbEntity
  8
0
  6
AI-Linetype-2
 62
   250
420
  1842203
370
     9
100
AcDbSpline
210
0.0
220
0.0
230
1.0
 70
    11
 71
     3
 72
    26
 73
    22
 74
     0
 42
0.0000000001
 43
0.0000000001
 40
0.0
 40
0.0
 40
0.0
 40
0.0
 40
1.0
 40
1.0
 40
1.0
 40
2.0
 40
2.0
 40
2.0
 40
3.0
 40
3.0
 40
3.0
 40
4.0
 40
4.0
 40
4.0
 40
5.0
 40
5.0
 40
5.0
 40
6.0
 40
6.0
 40
6.0
 40
7.0
 40
7.0
 40
7.0
 40
7.0
 10
57.56341144394248
 20
303.5680337782747
 30
0.0
 10
53.30527342417369
 20
303.6424478407561
 30
0.0
 10
49.91529946668784
 20
307.1068358607233
 30
0.0
 10
49.98971352916925
 20
311.3649738804921
 30
0.0
 10
50.06137151526243
 20
315.6203558238727
 30
0.0
 10
53.57536891021727
 20
319.0130858577467
 30
0.0
 10
57.83075085359786
 20
318.9386717952654
 30
0.0
 10
57.83075085359786
 20
318.9386717952654
 30
0.0
 10
81.53851994489315
 20
318.5721136356348
 30
0.0
 10
81.53851994489315
 20
318.5721136356348
 30
0.0
 10
85.79390188827375
 20
318.4976995731533
 30
0.0
 10
89.18387584575958
 20
314.9396049559874
 30
0.0
 10
89.10946178327819
 20
310.6842230126067
 30
0.0
 10
89.0350477207968
 20
306.426084992838
 30
0.0
 10
85.52380640223017
 20
303.0361110353521
 30
0.0
 10
81.26566838246137
 20
303.1077690214453
 30
0.0
 10
81.26566838246137
 20
303.1077690214453
 30
0.0
 10
57.56341144394248
 20
303.5680337782747
 30
0.0
 10
57.56341144394248
 20
303.5680337782747
 30
0.0
 10
57.56341144394248
 20
303.5680337782747
 30
0.0
 10
57.56341144394248
 20
303.5680337782747
 30
0.0
 10
57.56341144394248
 20
303.5680337782747
 30
0.0
  0
SPLINE
  5
87F2
330
87EB
100
AcDbEntity
  8
0
  6
AI-Linetype-3
 62
   250
420
  1842203
370
     9
100
AcDbSpline
210
0.0
220
0.0
230
1.0
 70
    11
 71
     3
 72
    26
 73
    22
 74
     0
 42
0.0000000001
 43
0.0000000001
 40
0.0
 40
0.0
 40
0.0
 40
0.0
 40
1.0
 40
1.0
 40
1.0
 40
2.0
 40
2.0
 40
2.0
 40
3.0
 40
3.0
 40
3.0
 40
4.0
 40
4.0
 40
4.0
 40
5.0
 40
5.0
 40
5.0
 40
6.0
 40
6.0
 40
6.0
 40
7.0
 40
7.0
 40
7.0
 40
7.0
 10
-101.255490426075
 20
266.2755641695422
 30
0.0
 10
-104.6592447655018
 20
263.7124131285164
 30
0.0
 10
-109.4658419865224
 20
264.354578926967
 30
0.0
 10
-112.0262369511601
 20
267.7555771900056
 30
0.0
 10
-114.589387992186
 20
271.1565754530442
 30
0.0
 10
-113.9113932006888
 20
275.9879773615586
 30
0.0
 10
-110.5103949376502
 20
278.5511284025844
 30
0.0
 10
-110.5103949376502
 20
278.5511284025844
 30
0.0
 10
-91.60371091459907
 20
292.85792093373
 30
0.0
 10
-91.60371091459907
 20
292.85792093373
 30
0.0
 10
-88.20271265156042
 20
295.4183158983677
 30
0.0
 10
-83.34099390277586
 20
294.7044921138239
 30
0.0
 10
-80.77784286174999
 20
291.3034938507852
 30
0.0
 10
-78.21469182072411
 20
287.9052516641348
 30
0.0
 10
-78.89544268860948
 20
283.0710936792323
 30
0.0
 10
-82.29368487525992
 20
280.5079426382064
 30
0.0
 10
-82.29368487525992
 20
280.5079426382064
 30
0.0
 10
-101.255490426075
 20
266.2755641695422
 30
0.0
 10
-101.255490426075
 20
266.2755641695422
 30
0.0
 10
-101.255490426075
 20
266.2755641695422
 30
0.0
 10
-101.255490426075
 20
266.2755641695422
 30
0.0
 10
-101.255490426075
 20
266.2755641695422
 30
0.0
  0
SPLINE
  5
87F3
330
87EB
100
AcDbEntity
  8
0
  6
AI-Linetype-4
 62
   250
420
  1842203
370
     9
100
AcDbSpline
210
0.0
220
0.0
230
1.0
 70
     8
 71
     3
 72
    14
 73
    10
 74
     0
 42
0.0000000001
 43
0.0000000001
 40
0.0
 40
0.0
 40
0.0
 40
0.0
 40
1.0
 40
1.0
 40
1.0
 40
2.0
 40
2.0
 40
2.0
 40
3.0
 40
3.0
 40
3.0
 40
3.0
 10
165.4527777364146
 20
147.6623046505844
 30
0.0
 10
165.4527777364146
 20
190.624023389844
 30
0.0
 10
145.8074652413259
 20
228.5200737275922
 30
0.0
 10
104.8190971960174
 20
253.0215928186891
 30
0.0
 10
80.7833550145264
 20
267.3862629539868
 30
0.0
 10
49.94561630695804
 20
265.8097872599364
 30
0.0
 10
10.01006944194193
 20
265.8097872599364
 30
0.0
 10
-96.70245223276884
 20
265.8097872599364
 30
0.0
 10
-126.4708333017156
 20
196.6543185272253
 30
0.0
 10
-126.4708333017156
 20
147.6623046505844
 30
0.0
  0
SPLINE
  5
87F4
330
87EB
100
AcDbEntity
  8
0
 62
   250
420
  1842203
370
     9
100
AcDbSpline
210
0.0
220
0.0
230
1.0
 70
     8
 71
     3
 72
    32
 73
    28
 74
     0
 42
0.0000000001
 43
0.0000000001
 40
0.0
 40
0.0
 40
0.0
 40
0.0
 40
1.0
 40
1.0
 40
1.0
 40
2.0
 40
2.0
 40
2.0
 40
3.0
 40
3.0
 40
3.0
 40
4.0
 40
4.0
 40
4.0
 40
5.0
 40
5.0
 40
5.0
 40
6.0
 40
6.0
 40
6.0
 40
7.0
 40
7.0
 40
7.0
 40
8.0
 40
8.0
 40
8.0
 40
9.0
 40
9.0
 40
9.0
 40
9.0
 10
-182.584548565465
 20
147.54654944228
 30
0.0
 10
-182.584548565465
 20
208.2629122743231
 30
0.0
 10
-150.9447916289305
 20
259.8566622614247
 30
0.0
 10
-114.0078558742758
 20
289.4789712817969
 30
0.0
 10
-80.00062932027763
 20
316.7503471430347
 30
0.0
 10
-42.92313366982477
 20
329.8361978342076
 30
0.0
 10
5.393641491707145
 20
331.0847004380621
 30
0.0
 10
85.41631942309036
 20
333.1517577292121
 30
0.0
 10
173.8312499565422
 20
333.9399955762373
 30
0.0
 10
242.0524087936536
 20
329.7397351606206
 30
0.0
 10
244.5742186888565
 20
329.7397351606206
 30
0.0
 10
245.80894091077
 20
328.7227429733749
 30
0.0
 10
245.8116969871582
 20
326.8844400224456
 30
0.0
 10
245.864062438534
 20
290.3746961079619
 30
0.0
 10
245.864062438534
 20
273.3393879524985
 30
0.0
 10
245.864062438534
 20
240.3271049746404
 30
0.0
 10
245.864062438534
 20
237.397395773984
 30
0.0
 10
243.6399087932567
 20
236.0744791076481
 30
0.0
 10
241.410242995203
 20
236.0744791076481
 30
0.0
 10
223.3662108816584
 20
236.0744791076481
 30
0.0
 10
217.4874999456282
 20
236.0744791076481
 30
0.0
 10
203.1779513380944
 20
236.0744791076481
 30
0.0
 10
198.5229383184248
 20
236.0744791076481
 30
0.0
 10
194.9235025554358
 20
232.1057291086403
 30
0.0
 10
194.9235025554358
 20
227.4507160889707
 30
0.0
 10
194.9235025554358
 20
195.2873046386782
 30
0.0
 10
194.9235025554358
 20
178.9713324205349
 30
0.0
 10
194.9235025554358
 20
147.54654944228
 30
0.0
  0
SPLINE
  5
87F5
330
87EB
100
AcDbEntity
  8
0
 62
   250
420
  1842203
370
     9
100
AcDbSpline
210
0.0
220
0.0
230
1.0
 70
     8
 71
     3
 72
    32
 73
    28
 74
     0
 42
0.0000000001
 43
0.0000000001
 40
0.0
 40
0.0
 40
0.0
 40
0.0
 40
1.0
 40
1.0
 40
1.0
 40
2.0
 40
2.0
 40
2.0
 40
3.0
 40
3.0
 40
3.0
 40
4.0
 40
4.0
 40
4.0
 40
5.0
 40
5.0
 40
5.0
 40
6.0
 40
6.0
 40
6.0
 40
7.0
 40
7.0
 40
7.0
 40
8.0
 40
8.0
 40
8.0
 40
9.0
 40
9.0
 40
9.0
 40
9.0
 10
346.0667316843167
 20
147.6623046505844
 30
0.0
 10
346.0667316843167
 20
197.0208766868559
 30
0.0
 10
346.0667316843167
 20
272.0054469806097
 30
0.0
 10
346.0667316843167
 20
316.6566405458358
 30
0.0
 10
346.0667316843167
 20
324.6988714466031
 30
0.0
 10
341.9519096367343
 20
327.6754339458589
 30
0.0
 10
337.6910155405773
 20
328.1026257860299
 30
0.0
 10
337.6910155405773
 20
328.1026257860299
 30
0.0
 10
255.3725259778236
 20
329.2849825565677
 30
0.0
 10
255.3725259778236
 20
329.2849825565677
 30
0.0
 10
253.0960068811705
 20
329.5661023481641
 30
0.0
 10
251.8916014995271
 20
328.5491101609183
 30
0.0
 10
251.8943575759153
 20
326.7108072099889
 30
0.0
 10
251.9494791036793
 20
290.2010632955053
 30
0.0
 10
251.9494791036793
 20
273.2677299664053
 30
0.0
 10
251.9494791036793
 20
240.2582030649355
 30
0.0
 10
251.9494791036793
 20
237.328493864279
 30
0.0
 10
250.6706596595546
 20
231.2292968171927
 30
0.0
 10
243.2898870919553
 20
231.2292968171927
 30
0.0
 10
225.2430989020226
 20
231.2292968171927
 30
0.0
 10
219.0088541119145
 20
231.2292968171927
 30
0.0
 10
204.6993055043807
 20
231.2292968171927
 30
0.0
 10
202.8472221715104
 20
231.2292968171927
 30
0.0
 10
201.0061631441929
 20
230.5209851854253
 30
0.0
 10
201.0061631441929
 20
227.1144747696103
 30
0.0
 10
201.0061631441929
 20
194.9510633193178
 30
0.0
 10
201.0061631441929
 20
178.9713324205349
 30
0.0
 10
201.0061631441929
 20
147.54654944228
 30
0.0
  0
SPLINE
  5
87F6
330
87EB
100
AcDbEntity
  8
0
 62
   250
420
  1842203
370
     9
100
AcDbSpline
210
0.0
220
0.0
230
1.0
 70
     8
 71
     3
 72
    14
 73
    10
 74
     0
 42
0.0000000001
 43
0.0000000001
 40
0.0
 40
0.0
 40
0.0
 40
0.0
 40
1.0
 40
1.0
 40
1.0
 40
2.0
 40
2.0
 40
2.0
 40
3.0
 40
3.0
 40
3.0
 40
3.0
 10
346.0253905384937
 20
318.0567273510414
 30
0.0
 10
349.5366318570603
 20
317.84450946915
 30
0.0
 10
349.3271700515571
 20
317.9078992260786
 30
0.0
 10
354.3266926197517
 20
317.5744139831064
 30
0.0
 10
355.9197047721312
 20
317.4669270039666
 30
0.0
 10
357.4190103273119
 20
316.852321969398
 30
0.0
 10
357.4190103273119
 20
315.2537976642421
 30
0.0
 10
357.4190103273119
 20
266.1735893431788
 30
0.0
 10
357.4190103273119
 20
191.7292100215121
 30
0.0
 10
357.4190103273119
 20
147.6623046505844
 30
0.0
  0
POLYLINE
  5
87F7
330
87EB
100
AcDbEntity
  8
0
 62
   250
420
  1842203
370
     9
100
AcDb2dPolyline
 66
     1
 10
0.0
 20
0.0
 30
0.0
  0
VERTEX
  5
87F8
330
87F7
100
AcDbEntity
  8
0
 62
   250
420
  1842203
370
     9
100
AcDbVertex
100
AcDb2dVertex
 10
245.8172091399346
 20
320.6612195378903
 30
0.0
  0
VERTEX
  5
87F9
330
87F7
100
AcDbEntity
  8
0
 62
   250
420
  1842203
370
     9
100
AcDbVertex
100
AcDb2dVertex
 10
251.8833332703625
 20
320.6612195378903
 30
0.0
  0
SEQEND
  5
87FA
330
87F7
100
AcDbEntity
  8
0
370
     9
  0
POLYLINE
  5
87FB
330
87EB
100
AcDbEntity
  8
0
 62
   250
420
  1842203
370
     9
100
AcDb2dPolyline
 66
     1
 10
0.0
 20
0.0
 30
0.0
  0
VERTEX
  5
87FC
330
87FB
100
AcDbEntity
  8
0
 62
   250
420
  1842203
370
     9
100
AcDbVertex
100
AcDb2dVertex
 10
302.7246744034855
 20
217.3331596678889
 30
0.0
  0
VERTEX
  5
87FD
330
87FB
100
AcDbEntity
  8
0
 62
   250
420
  1842203
370
     9
100
AcDbVertex
100
AcDb2dVertex
 10
313.748979956285
 20
217.3331596678889
 30
0.0
  0
SEQEND
  5
87FE
330
87FB
100
AcDbEntity
  8
0
370
     9
  0
POLYLINE
  5
87FF
330
87EB
100
AcDbEntity
  8
0
 62
   250
420
  1842203
370
     9
100
AcDb2dPolyline
 66
     1
 10
0.0
 20
0.0
 30
0.0
  0
VERTEX
  5
8800
330
87FF
100
AcDbEntity
  8
0
 62
   250
420
  1842203
370
     9
100
AcDbVertex
100
AcDb2dVertex
 10
267.1078992387786
 20
217.3359157442771
 30
0.0
  0
VERTEX
  5
8801
330
87FF
100
AcDbEntity
  8
0
 62
   250
420
  1842203
370
     9
100
AcDbVertex
100
AcDb2dVertex
 10
278.1322047915781
 20
217.3359157442771
 30
0.0
  0
SEQEND
  5
8802
330
87FF
100
AcDbEntity
  8
0
370
     9
  0
POLYLINE
  5
8803
330
87EB
100
AcDbEntity
  8
0
 62
   250
420
  1842203
370
     9
100
AcDb2dPolyline
 66
     1
 10
0.0
 20
0.0
 30
0.0
  0
VERTEX
  5
8804
330
8803
100
AcDbEntity
  8
0
 62
   250
420
  1842203
370
     9
100
AcDbVertex
100
AcDb2dVertex
 10
290.4215494065613
 20
229.633528588425
 30
0.0
  0
VERTEX
  5
8805
330
8803
100
AcDbEntity
  8
0
 62
   250
420
  1842203
370
     9
100
AcDbVertex
100
AcDb2dVertex
 10
290.4215494065613
 20
240.6578341412244
 30
0.0
  0
SEQEND
  5
8806
330
8803
100
AcDbEntity
  8
0
370
     9
  0
POLYLINE
  5
8807
330
87EB
100
AcDbEntity
  8
0
 62
   250
420
  1842203
370
     9
100
AcDb2dPolyline
 66
     1
 10
0.0
 20
0.0
 30
0.0
  0
VERTEX
  5
8808
330
8807
100
AcDbEntity
  8
0
 62
   250
420
  1842203
370
     9
100
AcDbVertex
100
AcDb2dVertex
 10
290.4215494065613
 20
194.0195095001062
 30
0.0
  0
VERTEX
  5
8809
330
8807
100
AcDbEntity
  8
0
 62
   250
420
  1842203
370
     9
100
AcDbVertex
100
AcDb2dVertex
 10
290.4215494065613
 20
205.0438150529057
 30
0.0
  0
SEQEND
  5
880A
330
8807
100
AcDbEntity
  8
0
370
     9
  0
SPLINE
  5
880B
330
87EB
100
AcDbEntity
  8
0
  6
AI-Linetype-5
 62
   250
420
  1842203
370
     9
100
AcDbSpline
210
0.0
220
0.0
230
1.0
 70
    11
 71
     3
 72
    20
 73
    16
 74
     0
 42
0.0000000001
 43
0.0000000001
 40
0.0
 40
0.0
 40
0.0
 40
0.0
 40
1.0
 40
1.0
 40
1.0
 40
2.0
 40
2.0
 40
2.0
 40
3.0
 40
3.0
 40
3.0
 40
4.0
 40
4.0
 40
4.0
 40
5.0
 40
5.0
 40
5.0
 40
5.0
 10
282.8947047903874
 20
217.3552082789945
 30
0.0
 10
282.8947047903874
 20
221.4066405696483
 30
0.0
 10
286.1799478451217
 20
224.6946397007708
 30
0.0
 10
290.2368922885519
 20
224.6946397007708
 30
0.0
 10
294.2883245792057
 20
224.6946397007708
 30
0.0
 10
297.5735676339399
 20
221.4066405696483
 30
0.0
 10
297.5735676339399
 20
217.3552082789945
 30
0.0
 10
297.5735676339399
 20
213.2982638355644
 30
0.0
 10
294.2883245792057
 20
210.0130207808301
 30
0.0
 10
290.2368922885519
 20
210.0130207808301
 30
0.0
 10
286.1799478451217
 20
210.0130207808301
 30
0.0
 10
282.8947047903874
 20
213.2982638355644
 30
0.0
 10
282.8947047903874
 20
217.3552082789945
 30
0.0
 10
282.8947047903874
 20
217.3552082789945
 30
0.0
 10
282.8947047903874
 20
217.3552082789945
 30
0.0
 10
282.8947047903874
 20
217.3552082789945
 30
0.0
  0
SPLINE
  5
880C
330
87EB
100
AcDbEntity
  8
0
  6
AI-Linetype-6
 62
   250
420
  1842203
370
     9
100
AcDbSpline
210
0.0
220
0.0
230
1.0
 70
    11
 71
     3
 72
    32
 73
    28
 74
     0
 42
0.0000000001
 43
0.0000000001
 40
0.0
 40
0.0
 40
0.0
 40
0.0
 40
1.0
 40
1.0
 40
1.0
 40
2.0
 40
2.0
 40
2.0
 40
3.0
 40
3.0
 40
3.0
 40
4.0
 40
4.0
 40
4.0
 40
5.0
 40
5.0
 40
5.0
 40
6.0
 40
6.0
 40
6.0
 40
7.0
 40
7.0
 40
7.0
 40
8.0
 40
8.0
 40
8.0
 40
9.0
 40
9.0
 40
9.0
 40
9.0
 10
271.9585936820104
 20
228.351953067912
 30
0.0
 10
271.9585936820104
 20
230.0083549772201
 30
0.0
 10
273.3035589594519
 20
231.3533202546617
 30
0.0
 10
274.9599608687601
 20
231.3533202546617
 30
0.0
 10
274.9599608687601
 20
231.3533202546617
 30
0.0
 10
305.9630641596204
 20
231.3533202546617
 30
0.0
 10
305.9630641596204
 20
231.3533202546617
 30
0.0
 10
307.6167099925403
 20
231.3533202546617
 30
0.0
 10
308.9589191935936
 20
230.0083549772201
 30
0.0
 10
308.9589191935936
 20
228.351953067912
 30
0.0
 10
308.9589191935936
 20
228.351953067912
 30
0.0
 10
308.9589191935936
 20
206.3529513373007
 30
0.0
 10
308.9589191935936
 20
206.3529513373007
 30
0.0
 10
308.9589191935936
 20
204.6965494279926
 30
0.0
 10
307.6167099925403
 20
203.3543402269392
 30
0.0
 10
305.9630641596204
 20
203.3543402269392
 30
0.0
 10
305.9630641596204
 20
203.3543402269392
 30
0.0
 10
274.9599608687601
 20
203.3543402269392
 30
0.0
 10
274.9599608687601
 20
203.3543402269392
 30
0.0
 10
273.3035589594519
 20
203.3543402269392
 30
0.0
 10
271.9585936820104
 20
204.6965494279926
 30
0.0
 10
271.9585936820104
 20
206.3529513373007
 30
0.0
 10
271.9585936820104
 20
206.3529513373007
 30
0.0
 10
271.9585936820104
 20
228.351953067912
 30
0.0
 10
271.9585936820104
 20
228.351953067912
 30
0.0
 10
271.9585936820104
 20
228.351953067912
 30
0.0
 10
271.9585936820104
 20
228.351953067912
 30
0.0
 10
271.9585936820104
 20
228.351953067912
 30
0.0
  0
SPLINE
  5
880D
330
87EB
100
AcDbEntity
  8
0
  6
AI-Linetype-7
 62
   250
420
  1842203
370
     9
100
AcDbSpline
210
0.0
220
0.0
230
1.0
 70
    11
 71
     3
 72
    26
 73
    22
 74
     0
 42
0.0000000001
 43
0.0000000001
 40
0.0
 40
0.0
 40
0.0
 40
0.0
 40
1.0
 40
1.0
 40
1.0
 40
2.0
 40
2.0
 40
2.0
 40
3.0
 40
3.0
 40
3.0
 40
4.0
 40
4.0
 40
4.0
 40
5.0
 40
5.0
 40
5.0
 40
6.0
 40
6.0
 40
6.0
 40
7.0
 40
7.0
 40
7.0
 40
7.0
 10
57.55789929116608
 20
-8.359179685410206
 30
0.0
 10
53.30251734778548
 20
-8.433593747891601
 30
0.0
 10
49.90978731391145
 20
-11.89798176785884
 30
0.0
 10
49.98420137639284
 20
-16.15611978762764
 30
0.0
 10
50.05861543887423
 20
-20.41150173100824
 30
0.0
 10
53.56985675744088
 20
-23.80423176488228
 30
0.0
 10
57.82799477720967
 20
-23.72981770240088
 30
0.0
 10
57.82799477720967
 20
-23.72981770240088
 30
0.0
 10
81.53576386850495
 20
-23.3632595427703
 30
0.0
 10
81.53576386850495
 20
-23.3632595427703
 30
0.0
 10
85.79114581188555
 20
-23.2888454802889
 30
0.0
 10
89.18111976937138
 20
-19.73075086312286
 30
0.0
 10
89.10670570688999
 20
-15.47536891974227
 30
0.0
 10
89.0322916444086
 20
-11.21723089997347
 30
0.0
 10
85.52105032584197
 20
-7.82450086609943
 30
0.0
 10
81.26291230607316
 20
-7.898914928580826
 30
0.0
 10
81.26291230607316
 20
-7.898914928580826
 30
0.0
 10
57.55789929116608
 20
-8.359179685410206
 30
0.0
 10
57.55789929116608
 20
-8.359179685410206
 30
0.0
 10
57.55789929116608
 20
-8.359179685410206
 30
0.0
 10
57.55789929116608
 20
-8.359179685410206
 30
0.0
 10
57.55789929116608
 20
-8.359179685410206
 30
0.0
  0
SPLINE
  5
880E
330
87EB
100
AcDbEntity
  8
0
  6
AI-Linetype-8
 62
   250
420
  1842203
370
     9
100
AcDbSpline
210
0.0
220
0.0
230
1.0
 70
    11
 71
     3
 72
    26
 73
    22
 74
     0
 42
0.0000000001
 43
0.0000000001
 40
0.0
 40
0.0
 40
0.0
 40
0.0
 40
1.0
 40
1.0
 40
1.0
 40
2.0
 40
2.0
 40
2.0
 40
3.0
 40
3.0
 40
3.0
 40
4.0
 40
4.0
 40
4.0
 40
5.0
 40
5.0
 40
5.0
 40
6.0
 40
6.0
 40
6.0
 40
7.0
 40
7.0
 40
7.0
 40
7.0
 10
-101.2610025788514
 20
28.93328992332224
 30
0.0
 10
-104.66200084189
 20
31.49644096434812
 30
0.0
 10
-109.4685980629106
 20
30.85427516589755
 30
0.0
 10
-112.0317491039365
 20
27.4532769028589
 30
0.0
 10
-114.5921440685742
 20
24.05227863982027
 30
0.0
 10
-113.914149277077
 20
19.22087673130589
 30
0.0
 10
-110.5131510140384
 20
16.65772569028001
 30
0.0
 10
-110.5131510140384
 20
16.65772569028001
 30
0.0
 10
-91.60646699098727
 20
2.350933159134489
 30
0.0
 10
-91.60646699098727
 20
2.350933159134489
 30
0.0
 10
-88.20546872794864
 20
-0.21221788189139
 30
0.0
 10
-83.34374997916407
 20
0.5043619790405762
 30
0.0
 10
-80.78059893813819
 20
3.905360242079215
 30
0.0
 10
-78.2202039735005
 20
7.303602428729655
 30
0.0
 10
-78.89819876499768
 20
12.14051649002042
 30
0.0
 10
-82.29919702803632
 20
14.7009114546581
 30
0.0
 10
-82.29919702803632
 20
14.7009114546581
 30
0.0
 10
-101.2610025788514
 20
28.93328992332224
 30
0.0
 10
-101.2610025788514
 20
28.93328992332224
 30
0.0
 10
-101.2610025788514
 20
28.93328992332224
 30
0.0
 10
-101.2610025788514
 20
28.93328992332224
 30
0.0
 10
-101.2610025788514
 20
28.93328992332224
 30
0.0
  0
SPLINE
  5
880F
330
87EB
100
AcDbEntity
  8
0
  6
AI-Linetype-9
 62
   250
420
  1842203
370
     9
100
AcDbSpline
210
0.0
220
0.0
230
1.0
 70
     8
 71
     3
 72
    14
 73
    10
 74
     0
 42
0.0000000001
 43
0.0000000001
 40
0.0
 40
0.0
 40
0.0
 40
0.0
 40
1.0
 40
1.0
 40
1.0
 40
2.0
 40
2.0
 40
2.0
 40
3.0
 40
3.0
 40
3.0
 40
3.0
 10
165.4472655836382
 20
147.54654944228
 30
0.0
 10
165.4472655836382
 20
104.5848307030204
 30
0.0
 10
145.8019530885495
 20
66.68878036527225
 30
0.0
 10
104.8163411196292
 20
42.1872612741754
 30
0.0
 10
80.78059893813819
 20
27.82259113887769
 30
0.0
 10
49.94286023056984
 20
29.39906683292802
 30
0.0
 10
10.00731336555372
 20
29.39906683292802
 30
0.0
 10
-96.70520830915704
 20
29.39906683292802
 30
0.0
 10
-126.4735893781038
 20
98.55177948925096
 30
0.0
 10
-126.4735893781038
 20
147.54654944228
 30
0.0
  0
SPLINE
  5
8810
330
87EB
100
AcDbEntity
  8
0
 62
   250
420
  1842203
370
     9
100
AcDbSpline
210
0.0
220
0.0
230
1.0
 70
     8
 71
     3
 72
    32
 73
    28
 74
     0
 42
0.0000000001
 43
0.0000000001
 40
0.0
 40
0.0
 40
0.0
 40
0.0
 40
1.0
 40
1.0
 40
1.0
 40
2.0
 40
2.0
 40
2.0
 40
3.0
 40
3.0
 40
3.0
 40
4.0
 40
4.0
 40
4.0
 40
5.0
 40
5.0
 40
5.0
 40
6.0
 40
6.0
 40
6.0
 40
7.0
 40
7.0
 40
7.0
 40
8.0
 40
8.0
 40
8.0
 40
9.0
 40
9.0
 40
9.0
 40
9.0
 10
-182.5873046418532
 20
147.6623046505844
 30
0.0
 10
-182.5873046418532
 20
86.9459418185413
 30
0.0
 10
-150.9475477053186
 20
35.35219183143973
 30
0.0
 10
-114.0133680270522
 20
5.732638887455729
 30
0.0
 10
-80.00338539666582
 20
-21.54149305017018
 30
0.0
 10
-42.92588974621297
 20
-34.62734374134317
 30
0.0
 10
5.390885415318945
 20
-35.87584634519771
 30
0.0
 10
85.41080727031397
 20
-37.94290363634761
 30
0.0
 10
173.8257378037658
 20
-38.73114148337278
 30
0.0
 10
242.0496527172654
 20
-34.53088106775617
 30
0.0
 10
244.5742186888565
 20
-34.53088106775617
 30
0.0
 10
245.8034287579936
 20
-33.51388888051042
 30
0.0
 10
245.80894091077
 20
-31.67558592958111
 30
0.0
 10
245.8585502857576
 20
4.834157984902572
 30
0.0
 10
245.8585502857576
 20
21.86946614036597
 30
0.0
 10
245.8585502857576
 20
54.88174911822401
 30
0.0
 10
245.8585502857576
 20
57.80870224249227
 30
0.0
 10
243.6371527168685
 20
59.13161890882821
 30
0.0
 10
241.4074869188148
 20
59.13161890882821
 30
0.0
 10
223.3634548052703
 20
59.13161890882821
 30
0.0
 10
217.4847438692399
 20
59.13161890882821
 30
0.0
 10
203.1751952617062
 20
59.13161890882821
 30
0.0
 10
198.5201822420366
 20
59.13161890882821
 30
0.0
 10
194.9207464790476
 20
63.10036890783602
 30
0.0
 10
194.9207464790476
 20
67.7581380038938
 30
0.0
 10
194.9207464790476
 20
99.92154945418629
 30
0.0
 10
194.9207464790476
 20
116.2375216723295
 30
0.0
 10
194.9207464790476
 20
147.6623046505844
 30
0.0
  0
SPLINE
  5
8811
330
87EB
100
AcDbEntity
  8
0
 62
   250
420
  1842203
370
     9
100
AcDbSpline
210
0.0
220
0.0
230
1.0
 70
     8
 71
     3
 72
    32
 73
    28
 74
     0
 42
0.0000000001
 43
0.0000000001
 40
0.0
 40
0.0
 40
0.0
 40
0.0
 40
1.0
 40
1.0
 40
1.0
 40
2.0
 40
2.0
 40
2.0
 40
3.0
 40
3.0
 40
3.0
 40
4.0
 40
4.0
 40
4.0
 40
5.0
 40
5.0
 40
5.0
 40
6.0
 40
6.0
 40
6.0
 40
7.0
 40
7.0
 40
7.0
 40
8.0
 40
8.0
 40
8.0
 40
9.0
 40
9.0
 40
9.0
 40
9.0
 10
346.0639756079284
 20
147.54654944228
 30
0.0
 10
346.0639756079284
 20
98.18797740600857
 30
0.0
 10
346.0639756079284
 20
23.2061631886429
 30
0.0
 10
346.0639756079284
 20
-21.44778645297139
 30
0.0
 10
346.0639756079284
 20
-29.49001735373861
 30
0.0
 10
341.9491535603461
 20
-32.46657985299447
 30
0.0
 10
337.6882594641891
 20
-32.89377169316545
 30
0.0
 10
337.6882594641891
 20
-32.89377169316545
 30
0.0
 10
255.3670138250471
 20
-34.07337238731499
 30
0.0
 10
255.3670138250471
 20
-34.07337238731499
 30
0.0
 10
253.0904947283941
 20
-34.35724825529958
 30
0.0
 10
251.8888454231389
 20
-33.34025606805383
 30
0.0
 10
251.8916014995271
 20
-31.50195311712451
 30
0.0
 10
251.9439669509029
 20
5.007790797359163
 30
0.0
 10
251.9439669509029
 20
21.94112412645917
 30
0.0
 10
251.9439669509029
 20
54.950651027929
 30
0.0
 10
251.9439669509029
 20
57.88036022858547
 30
0.0
 10
250.6679035831664
 20
63.97955727567178
 30
0.0
 10
243.2843749391789
 20
63.97955727567178
 30
0.0
 10
225.2403428256344
 20
63.97955727567178
 30
0.0
 10
219.003341959138
 20
63.97955727567178
 30
0.0
 10
204.6965494279926
 20
63.97955727567178
 30
0.0
 10
202.8444660951222
 20
63.97955727567178
 30
0.0
 10
201.0034070678047
 20
64.69062498382735
 30
0.0
 10
201.0034070678047
 20
68.09437932325419
 30
0.0
 10
201.0034070678047
 20
100.2577907735467
 30
0.0
 10
201.0034070678047
 20
116.2375216723295
 30
0.0
 10
201.0034070678047
 20
147.6623046505844
 30
0.0
  0
SPLINE
  5
8812
330
87EB
100
AcDbEntity
  8
0
 62
   250
420
  1842203
370
     9
100
AcDbSpline
210
0.0
220
0.0
230
1.0
 70
     8
 71
     3
 72
    14
 73
    10
 74
     0
 42
0.0000000001
 43
0.0000000001
 40
0.0
 40
0.0
 40
0.0
 40
0.0
 40
1.0
 40
1.0
 40
1.0
 40
2.0
 40
2.0
 40
2.0
 40
3.0
 40
3.0
 40
3.0
 40
3.0
 10
346.0226344621055
 20
-22.84787325817692
 30
0.0
 10
349.5311197042839
 20
-22.63565537628553
 30
0.0
 10
349.3216578987807
 20
-22.69904513321413
 30
0.0
 10
354.3239365433635
 20
-22.36555989024195
 30
0.0
 10
355.916948695743
 20
-22.25807291110215
 30
0.0
 10
357.4134981745355
 20
-21.64346787653358
 30
0.0
 10
357.4134981745355
 20
-20.04494357137765
 30
0.0
 10
357.4134981745355
 20
29.03526474968563
 30
0.0
 10
357.4134981745355
 20
103.4796440713523
 30
0.0
 10
357.4134981745355
 20
147.54654944228
 30
0.0
  0
POLYLINE
  5
8813
330
87EB
100
AcDbEntity
  8
0
 62
   250
420
  1842203
370
     9
100
AcDb2dPolyline
 66
     1
 10
0.0
 20
0.0
 30
0.0
  0
VERTEX
  5
8814
330
8813
100
AcDbEntity
  8
0
 62
   250
420
  1842203
370
     9
100
AcDbVertex
100
AcDb2dVertex
 10
245.8144530635464
 20
-25.4523654450258
 30
0.0
  0
VERTEX
  5
8815
330
8813
100
AcDbEntity
  8
0
 62
   250
420
  1842203
370
     9
100
AcDbVertex
100
AcDb2dVertex
 10
251.8778211175861
 20
-25.4523654450258
 30
0.0
  0
SEQEND
  5
8816
330
8813
100
AcDbEntity
  8
0
370
     9
  0
POLYLINE
  5
8817
330
87EB
100
AcDbEntity
  8
0
 62
   250
420
  1842203
370
     9
100
AcDb2dPolyline
 66
     1
 10
0.0
 20
0.0
 30
0.0
  0
VERTEX
  5
8818
330
8817
100
AcDbEntity
  8
0
 62
   250
420
  1842203
370
     9
100
AcDbVertex
100
AcDb2dVertex
 10
302.7219183270973
 20
77.87569442497552
 30
0.0
  0
VERTEX
  5
8819
330
8817
100
AcDbEntity
  8
0
 62
   250
420
  1842203
370
     9
100
AcDbVertex
100
AcDb2dVertex
 10
313.7462238798968
 20
77.87569442497552
 30
0.0
  0
SEQEND
  5
881A
330
8817
100
AcDbEntity
  8
0
370
     9
  0
POLYLINE
  5
881B
330
87EB
100
AcDbEntity
  8
0
 62
   250
420
  1842203
370
     9
100
AcDb2dPolyline
 66
     1
 10
0.0
 20
0.0
 30
0.0
  0
VERTEX
  5
881C
330
881B
100
AcDbEntity
  8
0
 62
   250
420
  1842203
370
     9
100
AcDbVertex
100
AcDb2dVertex
 10
267.1051431623904
 20
77.87293834858733
 30
0.0
  0
VERTEX
  5
881D
330
881B
100
AcDbEntity
  8
0
 62
   250
420
  1842203
370
     9
100
AcDbVertex
100
AcDb2dVertex
 10
278.1294487151899
 20
77.87293834858733
 30
0.0
  0
SEQEND
  5
881E
330
881B
100
AcDbEntity
  8
0
370
     9
  0
POLYLINE
  5
881F
330
87EB
100
AcDbEntity
  8
0
 62
   250
420
  1842203
370
     9
100
AcDb2dPolyline
 66
     1
 10
0.0
 20
0.0
 30
0.0
  0
VERTEX
  5
8820
330
881F
100
AcDbEntity
  8
0
 62
   250
420
  1842203
370
     9
100
AcDbVertex
100
AcDb2dVertex
 10
290.4215494065613
 20
65.57532550443951
 30
0.0
  0
VERTEX
  5
8821
330
881F
100
AcDbEntity
  8
0
 62
   250
420
  1842203
370
     9
100
AcDbVertex
100
AcDb2dVertex
 10
290.4215494065613
 20
54.55101995164002
 30
0.0
  0
SEQEND
  5
8822
330
881F
100
AcDbEntity
  8
0
370
     9
  0
POLYLINE
  5
8823
330
87EB
100
AcDbEntity
  8
0
 62
   250
420
  1842203
370
     9
100
AcDb2dPolyline
 66
     1
 10
0.0
 20
0.0
 30
0.0
  0
VERTEX
  5
8824
330
8823
100
AcDbEntity
  8
0
 62
   250
420
  1842203
370
     9
100
AcDbVertex
100
AcDb2dVertex
 10
290.4187933301731
 20
101.1921006691464
 30
0.0
  0
VERTEX
  5
8825
330
8823
100
AcDbEntity
  8
0
 62
   250
420
  1842203
370
     9
100
AcDbVertex
100
AcDb2dVertex
 10
290.4187933301731
 20
90.16779511634693
 30
0.0
  0
SEQEND
  5
8826
330
8823
100
AcDbEntity
  8
0
370
     9
  0
SPLINE
  5
8827
330
87EB
100
AcDbEntity
  8
0
  6
AI-Linetype-10
 62
   250
420
  1842203
370
     9
100
AcDbSpline
210
0.0
220
0.0
230
1.0
 70
    11
 71
     3
 72
    20
 73
    16
 74
     0
 42
0.0000000001
 43
0.0000000001
 40
0.0
 40
0.0
 40
0.0
 40
0.0
 40
1.0
 40
1.0
 40
1.0
 40
2.0
 40
2.0
 40
2.0
 40
3.0
 40
3.0
 40
3.0
 40
4.0
 40
4.0
 40
4.0
 40
5.0
 40
5.0
 40
5.0
 40
5.0
 10
282.8891926376111
 20
77.85640189025812
 30
0.0
 10
282.8891926376111
 20
81.91059025730012
 30
0.0
 10
286.1771917687335
 20
85.19583331203438
 30
0.0
 10
290.2313801357755
 20
85.19583331203438
 30
0.0
 10
294.2828124264293
 20
85.19583331203438
 30
0.0
 10
297.5708115575518
 20
81.91059025730012
 30
0.0
 10
297.5708115575518
 20
77.85640189025812
 30
0.0
 10
297.5708115575518
 20
73.80221352321611
 30
0.0
 10
294.2828124264293
 20
70.51421439209367
 30
0.0
 10
290.2313801357755
 20
70.51421439209367
 30
0.0
 10
286.1771917687335
 20
70.51421439209367
 30
0.0
 10
282.8891926376111
 20
73.80221352321611
 30
0.0
 10
282.8891926376111
 20
77.85640189025812
 30
0.0
 10
282.8891926376111
 20
77.85640189025812
 30
0.0
 10
282.8891926376111
 20
77.85640189025812
 30
0.0
 10
282.8891926376111
 20
77.85640189025812
 30
0.0
  0
SPLINE
  5
8828
330
87EB
100
AcDbEntity
  8
0
  6
AI-Linetype-11
 62
   250
420
  1842203
370
     9
100
AcDbSpline
210
0.0
220
0.0
230
1.0
 70
    11
 71
     3
 72
    32
 73
    28
 74
     0
 42
0.0000000001
 43
0.0000000001
 40
0.0
 40
0.0
 40
0.0
 40
0.0
 40
1.0
 40
1.0
 40
1.0
 40
2.0
 40
2.0
 40
2.0
 40
3.0
 40
3.0
 40
3.0
 40
4.0
 40
4.0
 40
4.0
 40
5.0
 40
5.0
 40
5.0
 40
6.0
 40
6.0
 40
6.0
 40
7.0
 40
7.0
 40
7.0
 40
8.0
 40
8.0
 40
8.0
 40
9.0
 40
9.0
 40
9.0
 40
9.0
 10
271.9558376056221
 20
88.8559027555638
 30
0.0
 10
271.9558376056221
 20
90.51230466487194
 30
0.0
 10
273.2980468066755
 20
91.85451386592527
 30
0.0
 10
274.9572047923718
 20
91.85451386592527
 30
0.0
 10
274.9572047923718
 20
91.85451386592527
 30
0.0
 10
305.9547959304558
 20
91.85451386592527
 30
0.0
 10
305.9547959304558
 20
91.85451386592527
 30
0.0
 10
307.6111978397638
 20
91.85451386592527
 30
0.0
 10
308.9561631172054
 20
90.51230466487194
 30
0.0
 10
308.9561631172054
 20
88.8559027555638
 30
0.0
 10
308.9561631172054
 20
88.8559027555638
 30
0.0
 10
308.9561631172054
 20
66.85690102495245
 30
0.0
 10
308.9561631172054
 20
66.85690102495245
 30
0.0
 10
308.9561631172054
 20
65.20049911564432
 30
0.0
 10
307.6111978397638
 20
63.85553383820279
 30
0.0
 10
305.9547959304558
 20
63.85553383820279
 30
0.0
 10
305.9547959304558
 20
63.85553383820279
 30
0.0
 10
274.9572047923718
 20
63.85553383820279
 30
0.0
 10
274.9572047923718
 20
63.85553383820279
 30
0.0
 10
273.2980468066755
 20
63.85553383820279
 30
0.0
 10
271.9558376056221
 20
65.20049911564432
 30
0.0
 10
271.9558376056221
 20
66.85690102495245
 30
0.0
 10
271.9558376056221
 20
66.85690102495245
 30
0.0
 10
271.9558376056221
 20
88.8559027555638
 30
0.0
 10
271.9558376056221
 20
88.8559027555638
 30
0.0
 10
271.9558376056221
 20
88.8559027555638
 30
0.0
 10
271.9558376056221
 20
88.8559027555638
 30
0.0
 10
271.9558376056221
 20
88.8559027555638
 30
0.0
  0
ENDBLK
  5
8829
330
87EB
100
AcDbEntity
  8
0
100
AcDbBlockEnd
  0
BLOCK
  5
8B23
330
8B21
100
AcDbEntity
  8
0
100
AcDbBlockBegin
  2
A$C66496C9C
 70
     0
 10
0.0
 20
0.0
 30
0.0
  3
A$C66496C9C
  1

  0
INSERT
  5
8B22
330
8B21
100
AcDbEntity
  8
0
100
AcDbBlockReference
  2
block 2
 10
193.892698098806
 20
-3.985286748730402
 30
0.0
  0
ENDBLK
  5
8B24
330
8B21
100
AcDbEntity
  8
0
100
AcDbBlockEnd
  0
ENDSEC
  0
SECTION
  2
ENTITIES
  0
LINE
  5
93C9
330
1F
100
AcDbEntity
  8
0
  6
AM_DIN_F_W050
 62
     6
 48
5.0
100
AcDbLine
 10
-163.0437220457374
 20
3.170656344532289
 30
0.0
 11
-147.0468191118059
 21
3.16897350898364
 31
0.0
  0
LINE
  5
93CD
330
1F
100
AcDbEntity
  8
0
  6
AM_DIN_F_W050
 62
     6
 48
5.0
100
AcDbLine
 10
-146.0467139197564
 20
4.169078714651845
 30
0.0
 11
-146.0508689404282
 21
43.66126767136757
 31
0.0
  0
LINE
  5
93D1
330
1F
100
AcDbEntity
  8
0
  6
AM_DIN_F_W050
 62
     6
 48
5.0
100
AcDbLine
 10
-164.0477718632908
 20
43.66274008447692
 30
0.0
 11
-164.0436168426188
 21
4.17055112779758
 31
0.0
  0
LINE
  5
93D3
330
1F
100
AcDbEntity
  8
0
  6
AM_DIN_F_W050
 62
     6
 48
5.0
100
AcDbLine
 10
-147.0507637373118
 20
44.66116245463285
 30
0.0
 11
-163.0476666712436
 21
44.66284529014513
 31
0.0
  0
LINE
  5
9493
330
1F
100
AcDbEntity
  8
0
  6
AM_DIN_F_W050
 62
     6
 48
5.0
100
AcDbLine
 10
-244.6197070237915
 20
31.30304827638679
 30
0.0
 11
-246.7977990654229
 21
35.58350121632486
 31
0.0
  0
CIRCLE
  5
9496
330
1F
100
AcDbEntity
  8
0
  6
AM_DIN_F_W050
 62
     6
 48
5.0
100
AcDbCircle
 10
-212.1498933405149
 20
30.96299111586279
 30
0.0
 40
8.000000000309997
  0
CIRCLE
  5
9497
330
1F
100
AcDbEntity
  8
0
  6
AM_DIN_F_W050
 62
     6
 48
5.0
100
AcDbCircle
 10
-212.1498933405149
 20
30.96299111586279
 30
0.0
 40
9.900000000489999
  0
LINE
  5
97AE
330
1F
100
AcDbEntity
  8
0
100
AcDbLine
 10
-193.7290701752149
 20
29.5408141423228
 30
0.0
 11
-198.7940062936866
 21
55.07280930182685
 31
0.0
  0
ARC
  5
97C3
330
1F
100
AcDbEntity
  8
0
  6
AM_DIN_F_W050
 62
     6
 48
5.0
100
AcDbCircle
 10
-7865.31966532064
 20
-3656.794085697677
 30
0.0
 40
8461.083544421926
100
AcDbArc
 50
25.82504673079509
 51
25.85770031130243
  0
LINE
  5
9B51
330
1F
100
AcDbEntity
  8
0
100
AcDbLine
 10
-589.8475231323106
 20
4.962898424625564
 30
0.0
 11
-301.5318331970498
 21
4.962898424662284
 31
0.0
  0
LINE
  5
9B59
330
1F
100
AcDbEntity
  8
0
100
AcDbLine
 10
-548.1819554732689
 20
0.013560607184445
 30
0.0
 11
-529.2894540468157
 21
0.0134479819253102
 31
0.0
  0
ARC
  5
9B5A
330
1F
100
AcDbEntity
  8
0
100
AcDbCircle
 10
-548.3106333803895
 20
8.063980802310084
 30
0.0
 40
8.05144852320792
100
AcDbArc
 50
202.6535692421103
 51
270.9157376922803
  0
ARC
  5
9B5C
330
1F
100
AcDbEntity
  8
0
100
AcDbCircle
 10
-529.1607155048421
 20
8.063866642495213
 30
0.0
 40
8.05144852320792
100
AcDbArc
 50
269.0835791846316
 51
337.3457476347931
  0
LINE
  5
9B62
330
1F
100
AcDbEntity
  8
0
100
AcDbLine
 10
-390.7202287792204
 20
0.013560607184445
 30
0.0
 11
-367.3331767452883
 21
0.0134479819253102
 31
0.0
  0
ARC
  5
9B63
330
1F
100
AcDbEntity
  8
0
100
AcDbCircle
 10
-390.848906686341
 20
8.063980802310084
 30
0.0
 40
8.05144852320792
100
AcDbArc
 50
202.6535692421103
 51
270.9157376922803
  0
ARC
  5
9B64
330
1F
100
AcDbEntity
  8
0
100
AcDbCircle
 10
-367.2044382033146
 20
8.063866642495213
 30
0.0
 40
8.05144852320792
100
AcDbArc
 50
269.0835791846316
 51
337.3457476347931
  0
LINE
  5
9C34
330
1F
100
AcDbEntity
  8
0
100
AcDbLine
 10
-107.1318648779659
 20
99.32726656536056
 30
0.0
 11
-219.7187886619502
 21
44.97032999289115
 31
0.0
  0
ARC
  5
9C4D
330
1F
100
AcDbEntity
  8
0
100
AcDbCircle
 10
-213.1813577189121
 20
29.98869712813416
 30
0.0
 40
16.34586573508295
100
AcDbArc
 50
113.5746777617976
 51
176.2651938455168
  0
ARC
  5
9C4E
330
1F
100
AcDbEntity
  8
0
100
AcDbCircle
 10
-232.4105905413439
 20
31.31876922261608
 30
0.0
 40
2.930119508267274
100
AcDbArc
 50
295.1120137260459
 51
354.8046646321831
  0
ARC
  5
9C5B
330
1F
100
AcDbEntity
  8
0
100
AcDbCircle
 10
-301.5318331970616
 20
98.57289842466162
 30
0.0
 40
93.6099999999994
100
AcDbArc
 50
270.000000000013
 51
291.9534437431681
1001
GENIUS_GENODEF_13
1002
{
1000
HIER
1070
     0
1002
}
1002
{
1000
MANEDIT
1070
     0
1002
}
1002
{
1000
NOSEL
1070
     0
1002
}
1002
{
1000
BEHIND
1070
     0
1002
}
1002
{
1000
OTHER
1070
     0
1002
}
1002
{
1000
REACTOR
1002
}
1001
GENIUS_GENOBJ-N-FIL_13
1002
{
1000
OWNER
1000
GEN
1002
}
  0
ARC
  5
9C5C
330
1F
100
AcDbEntity
  8
0
  6
AM_DIN_F_W050
 62
     6
 48
5.0
100
AcDbCircle
 10
-253.7307784420027
 20
32.25353602811322
 30
0.0
 40
2.634647753676065
100
AcDbArc
 50
25.84779144501744
 51
109.0156034447213
  0
ARC
  5
9C5D
330
1F
100
AcDbEntity
  8
0
  6
AM_DIN_F_W050
 62
     6
 48
5.0
100
AcDbCircle
 10
-244.3626711862291
 20
36.71632966371033
 30
0.0
 40
2.685730455431485
100
AcDbArc
 50
117.9349271428099
 51
204.9479834266774
  0
ARC
  5
9C5E
330
1F
100
AcDbEntity
  8
0
100
AcDbCircle
 10
-202.662105246201
 20
56.99367048008821
 30
0.0
 40
2.634647753676065
100
AcDbArc
 50
25.84779144501744
 51
109.0156034447213
  0
ARC
  5
9C5F
330
1F
100
AcDbEntity
  8
0
100
AcDbCircle
 10
-193.2939979904274
 20
61.45646411568532
 30
0.0
 40
2.685730455431485
100
AcDbArc
 50
117.9349271428099
 51
204.9479834266774
  0
LINE
  5
9C60
330
1F
100
AcDbEntity
  8
0
100
AcDbLine
 10
-200.2910397096345
 20
58.1423292663502
 30
0.0
 11
-198.7870653023608
 21
55.03781996592556
 31
0.0
  0
LINE
  5
9C61
330
1F
100
AcDbEntity
  8
0
100
AcDbLine
 10
-195.7291258696211
 20
60.32363566829985
 30
0.0
 11
-194.2114895024312
 21
57.2852471782046
 31
0.0
  0
LINE
  5
9C73
330
1F
100
AcDbEntity
  8
0
100
AcDbLine
 10
-248.8513569603342
 20
4.409107457631876
 30
0.0
 11
-261.1538187106696
 21
3.487241673391395
 31
0.0
  0
ARC
  5
9C76
330
1F
100
AcDbEntity
  8
0
100
AcDbCircle
 10
-238.3744925495009
 20
0.0133128434487162
 30
0.0
 40
11.3616767324662
100
AcDbArc
 50
130.3110237843184
 51
157.2384630932987
  0
ARC
  5
9C77
330
1F
100
AcDbEntity
  8
0
100
AcDbCircle
 10
-258.7897603439442
 20
21.98577883052656
 30
0.0
 40
18.64979944388926
100
AcDbArc
 50
314.470576157589
 51
330.7227359223389
  0
ARC
  5
9C78
330
1F
100
AcDbEntity
  8
0
100
AcDbCircle
 10
-254.3054819061429
 20
19.40578185694187
 30
0.0
 40
13.47673766163869
100
AcDbArc
 50
330.9670327227045
 51
13.1466948374979
  0
ARC
  5
9C7C
330
1F
100
AcDbEntity
  8
0
100
AcDbCircle
 10
-244.9934618290661
 20
0.2561395830538231
 30
0.0
 40
5.668376929169348
100
AcDbArc
 50
86.03755274221347
 51
132.8905165246844
  0
LINE
  5
9C7E
330
1F
100
AcDbEntity
  8
0
100
AcDbLine
 10
-176.3682889958197
 20
8.858575893388319
 30
0.0
 11
-175.3635188786663
 21
66.38504233453613
 31
0.0
  0
ARC
  5
9C7F
330
1F
100
AcDbEntity
  8
0
100
AcDbCircle
 10
-179.3678314970511
 20
8.91096657296282
 30
0.0
 40
3.0
100
AcDbArc
 50
270.0
 51
358.9993608586519
1001
GENIUS_GENOBJ-N-FIL_13
1002
{
1000
OWNER
1000
GEN
1002
}
1001
GENIUS_GENODEF_13
1002
{
1000
HIER
1070
     0
1002
}
1002
{
1000
MANEDIT
1070
     0
1002
}
1002
{
1000
NOSEL
1070
     0
1002
}
1002
{
1000
BEHIND
1070
     0
1002
}
1002
{
1000
OTHER
1070
     0
1002
}
1002
{
1000
REACTOR
1002
}
  0
LINE
  5
9C80
330
1F
100
AcDbEntity
  8
0
  6
AM_DIN_G_W050
 62
     4
 48
2.0
100
AcDbLine
 10
-212.1187810847248
 20
43.35136650258812
 30
0.0
 11
-212.1098660816631
 21
18.57464132610346
 31
0.0
  0
LINE
  5
9C81
330
1F
100
AcDbEntity
  8
0
  6
AM_DIN_G_W050
 62
     4
 48
2.0
100
AcDbLine
 10
-199.7259601930234
 20
30.96301671282879
 30
0.0
 11
-224.5026869733645
 21
30.96299111586279
 31
0.0
  0
LWPOLYLINE
  5
9C8A
330
1F
100
AcDbEntity
  8
0
100
AcDbPolyline
 90
        8
 70
     1
 43
0.0
 10
-163.049893339815
 20
45.86299111586288
 10
-147.0853990122252
 20
45.86299111586288
 42
0.4142135623730951
 10
-146.0853990122252
 20
46.86299111586288
 10
-146.0853990122252
 20
58.21184715406537
 42
0.4142135623730951
 10
-147.0853990122252
 20
59.21184715406536
 10
-163.049893339815
 20
59.21184715406536
 42
0.4142135623730951
 10
-164.049893339815
 20
58.21184715406537
 10
-164.049893339815
 20
46.86299111586288
 42
0.4142135623730951
1001
GENIUS_GENREC_14
1002
{
1000
PYDIR
1011
-164.049893339815
1021
59.21184715406536
1031
0.0
1002
}
1002
{
1000
PXDIR
1011
-146.0853990122252
1021
45.86299111586288
1031
0.0
1002
}
1002
{
1000
PORI
1011
-164.049893339815
1021
45.86299111586288
1031
0.0
1002
}
1002
{
1000
PINS
1011
-164.049893339815
1021
45.86299111586288
1031
0.0
1002
}
1002
{
1000
PINS2
1011
-146.0853990122252
1021
59.21184715406536
1031
0.0
1002
}
1002
{
1000
C
1070
     1
1002
}
1001
GENIUS_GENODEF_13
1002
{
1000
HIER
1070
     0
1002
}
1002
{
1000
MANEDIT
1070
     0
1002
}
1002
{
1000
NOSEL
1070
     0
1002
}
1002
{
1000
BEHIND
1070
     0
1002
}
1002
{
1000
OTHER
1070
     0
1002
}
1002
{
1000
REACTOR
1002
}
1001
GENIUS_GENOBJ-N-REC_13
1002
{
1000
OWNER
1000
GEN
1002
}
  0
CIRCLE
  5
9C8E
330
1F
100
AcDbEntity
  8
0
  6
AM_DIN_F_W050
 62
     6
 48
5.0
100
AcDbCircle
 10
-155.0497513900147
 20
38.06924510540284
 30
0.0
 40
4.842439800186997
  0
CIRCLE
  5
9C8F
330
1F
100
AcDbEntity
  8
0
  6
AM_DIN_F_W050
 62
     6
 48
5.0
100
AcDbCircle
 10
-155.0409240998149
 20
25.08503961953284
 30
0.0
 40
4.842439800186997
  0
CIRCLE
  5
9C90
330
1F
100
AcDbEntity
  8
0
  6
AM_DIN_F_W050
 62
     6
 48
5.0
100
AcDbCircle
 10
-155.0395566117147
 20
12.08748644196282
 30
0.0
 40
4.842439800186997
  0
ARC
  5
9C91
330
1F
100
AcDbEntity
  8
0
  6
AM_DIN_F_W050
 62
     6
 48
5.0
100
AcDbCircle
 10
-163.0477718688253
 20
43.66284529567837
 30
0.0
 40
1.0
100
AcDbArc
 50
89.99397262254474
 51
180.0060281578121
1001
GENIUS_GENODEF_13
1002
{
1000
HIER
1070
     0
1002
}
1002
{
1000
MANEDIT
1070
     0
1002
}
1002
{
1000
NOSEL
1070
     0
1002
}
1002
{
1000
BEHIND
1070
     0
1002
}
1002
{
1000
OTHER
1070
     0
1002
}
1002
{
1000
REACTOR
1002
}
1001
GENIUS_GENOBJ-N-FIL_13
1002
{
1000
OWNER
1000
GEN
1002
}
  0
ARC
  5
9C92
330
1F
100
AcDbEntity
  8
0
  6
AM_DIN_F_W050
 62
     6
 48
5.0
100
AcDbCircle
 10
-147.0508689348935
 20
43.66116246016611
 30
0.0
 40
1.0
100
AcDbArc
 50
0.006028157812147
 51
89.99397262254474
1001
GENIUS_GENOBJ-N-FIL_13
1002
{
1000
OWNER
1000
GEN
1002
}
1001
GENIUS_GENODEF_13
1002
{
1000
HIER
1070
     0
1002
}
1002
{
1000
MANEDIT
1070
     0
1002
}
1002
{
1000
NOSEL
1070
     0
1002
}
1002
{
1000
BEHIND
1070
     0
1002
}
1002
{
1000
OTHER
1070
     0
1002
}
1002
{
1000
REACTOR
1002
}
  0
ARC
  5
9C93
330
1F
100
AcDbEntity
  8
0
  6
AM_DIN_F_W050
 62
     6
 48
5.0
100
AcDbCircle
 10
-163.0436168481535
 20
4.170656338999037
 30
0.0
 40
1.0
100
AcDbArc
 50
180.0060281578121
 51
269.9939726224145
1001
GENIUS_GENOBJ-N-FIL_13
1002
{
1000
OWNER
1000
GEN
1002
}
1001
GENIUS_GENODEF_13
1002
{
1000
HIER
1070
     0
1002
}
1002
{
1000
MANEDIT
1070
     0
1002
}
1002
{
1000
NOSEL
1070
     0
1002
}
1002
{
1000
BEHIND
1070
     0
1002
}
1002
{
1000
OTHER
1070
     0
1002
}
1002
{
1000
REACTOR
1002
}
  0
ARC
  5
9C94
330
1F
100
AcDbEntity
  8
0
  6
AM_DIN_F_W050
 62
     6
 48
5.0
100
AcDbCircle
 10
-147.0467139142217
 20
4.168973503450388
 30
0.0
 40
1.0
100
AcDbArc
 50
269.9939726224145
 51
0.006028157812147
1001
GENIUS_GENODEF_13
1002
{
1000
HIER
1070
     0
1002
}
1002
{
1000
MANEDIT
1070
     0
1002
}
1002
{
1000
NOSEL
1070
     0
1002
}
1002
{
1000
BEHIND
1070
     0
1002
}
1002
{
1000
OTHER
1070
     0
1002
}
1002
{
1000
REACTOR
1002
}
1001
GENIUS_GENOBJ-N-FIL_13
1002
{
1000
OWNER
1000
GEN
1002
}
  0
LWPOLYLINE
  5
9C95
330
1F
100
AcDbEntity
  8
0
  6
AM_DIN_F_W050
 62
     6
 48
5.0
100
AcDbPolyline
 90
        4
 70
     1
 43
0.0
 10
-211.9847967681546
 20
5.91096657296282
 10
-201.3173067891241
 20
5.91096657296282
 10
-201.3173067891241
 20
12.45368154213304
 10
-211.9847967681546
 20
13.35014035758206
1001
GENIUS_GENREC_14
1002
{
1000
PYDIR
1011
-211.9847967681546
1021
13.35014035758206
1031
0.0
1002
}
1002
{
1000
PXDIR
1011
-201.3173067891241
1021
5.91096657296282
1031
0.0
1002
}
1002
{
1000
PORI
1011
-211.9847967681546
1021
5.91096657296282
1031
0.0
1002
}
1002
{
1000
PINS
1011
-211.9847967681546
1021
5.91096657296282
1031
0.0
1002
}
1002
{
1000
PINS2
1011
-201.3173067891241
1021
12.45368154213304
1031
0.0
1002
}
1002
{
1000
C
1070
     1
1002
}
1001
GENIUS_GENODEF_13
1002
{
1000
HIER
1070
     0
1002
}
1002
{
1000
MANEDIT
1070
     0
1002
}
1002
{
1000
NOSEL
1070
     0
1002
}
1002
{
1000
BEHIND
1070
     0
1002
}
1002
{
1000
OTHER
1070
     0
1002
}
1002
{
1000
REACTOR
1002
}
1001
GENIUS_GENOBJ-N-REC_13
1002
{
1000
OWNER
1000
GEN
1002
}
  0
ARC
  5
9C97
330
1F
100
AcDbEntity
  8
0
100
AcDbCircle
 10
-212.6766414129104
 20
29.01439051710088
 30
0.0
 40
15.95617044214916
100
AcDbArc
 50
1.885140748611632
 51
117.0764963519694
  0
LINE
  5
9C99
330
1F
100
AcDbEntity
  8
0
100
AcDbLine
 10
-179.3678314970511
 20
5.91096657296282
 30
0.0
 11
-244.6017620392579
 21
5.91096657296282
 31
0.0
  0
LINE
  5
9C9A
330
1F
100
AcDbEntity
  8
0
100
AcDbLine
 10
-193.7290701752149
 20
29.5408141423228
 30
0.0
 11
-196.729106755133
 21
29.53928433294016
 31
0.0
  0
ARC
  5
9C9B
330
1F
100
AcDbEntity
  8
0
100
AcDbCircle
 10
-212.1143235831939
 20
30.96300391434579
 30
0.0
 40
15.47232192379394
100
AcDbArc
 50
238.184021454308
 51
354.7203755073769
  0
ARC
  5
9C9C
330
1F
100
AcDbEntity
  8
0
100
AcDbCircle
 10
-236.6116770715264
 20
-6.154603098221514
 30
0.0
 40
29.00990673162061
100
AcDbArc
 50
55.71764521988925
 51
104.2109710885651
  0
LINE
  5
9CA5
330
1F
100
AcDbEntity
  8
0
  6
AM_DIN_F_W050
 62
     6
 48
5.0
100
AcDbLine
 10
-225.7841317132754
 20
40.39818387227069
 30
0.0
 11
-269.6161173647933
 21
19.22246555876859
 31
0.0
  0
ARC
  5
9CA6
330
1F
100
AcDbEntity
  8
0
  6
AM_DIN_F_W050
 62
     6
 48
5.0
100
AcDbCircle
 10
-256.1840360311123
 20
-13.35506912439734
 30
0.0
 40
35.23799902076594
100
AcDbArc
 50
112.406900790418
 51
134.5865011569125
  0
ARC
  5
9CA7
330
1F
100
AcDbEntity
  8
0
  6
AM_DIN_F_W050
 62
     6
 48
5.0
100
AcDbCircle
 10
-258.0158796714784
 20
-11.57559396943259
 30
0.0
 40
32.68480725725732
100
AcDbArc
 50
134.4573492489825
 51
179.055833276202
  0
LINE
  5
9CA8
330
1F
100
AcDbEntity
  8
0
100
AcDbLine
 10
-225.7841317132754
 20
40.39818387227069
 30
0.0
 11
-219.9395661178155
 21
43.22175832080723
 31
0.0
  0
LINE
  5
9CBE
330
1F
100
AcDbEntity
  8
0
100
AcDbLine
 10
-241.5875961011791
 20
-17.194872763229
 30
0.0
 11
-216.0800928386177
 21
-0.0424238393225096
 31
0.0
  0
ARC
  5
9CC7
330
1F
100
AcDbEntity
  8
0
  6
AM_DIN_F_W050
 62
     6
 48
5.0
100
AcDbCircle
 10
-588.7118504257984
 20
-15.22126102675679
 30
0.0
 40
27.45388197233431
100
AcDbArc
 50
8.766622941702649
 51
93.22038267790945
  0
LINE
  5
A23D
330
1F
100
AcDbEntity
  8
0
  6
AM_DIN_F_W050
 62
     6
 48
5.0
100
AcDbLine
 10
-295.9064923431217
 20
12.18926694996003
 30
0.0
 11
-620.7511428072364
 21
12.18926694996003
 31
0.0
  0
ELLIPSE
  5
A23F
330
1F
100
AcDbEntity
  8
0
  6
AM_DIN_F_W050
 62
     6
 48
5.0
100
AcDbEllipse
 10
-287.1658861526014
 20
1.279896225287302
 30
0.0
 11
3.683002233017375
 21
335.684010257567
 31
0.0
210
0.0
220
0.0
230
1.0
 40
0.9999999908555269
 41
1.55506594165708
 42
1.570796326794674
  0
ARC
  5
A240
330
1F
100
AcDbEntity
  8
0
  6
AM_DIN_F_W050
 62
     6
 48
5.0
100
AcDbCircle
 10
-620.7511428072123
 20
10.18926694995935
 30
0.0
 40
2.0
100
AcDbArc
 50
90.00000000070349
 51
178.4701122067588
1001
GENIUS_GENODEF_13
1002
{
1000
HIER
1070
     0
1002
}
1002
{
1000
MANEDIT
1070
     0
1002
}
1002
{
1000
NOSEL
1070
     0
1002
}
1002
{
1000
BEHIND
1070
     0
1002
}
1002
{
1000
OTHER
1070
     0
1002
}
1002
{
1000
REACTOR
1002
}
1001
GENIUS_GENOBJ-N-FIL_13
1002
{
1000
OWNER
1000
GEN
1002
}
  0
ARC
  5
A241
330
1F
100
AcDbEntity
  8
0
  6
AM_DIN_F_W050
 62
     6
 48
5.0
100
AcDbCircle
 10
-300.4254735477978
 20
81.73522849359949
 30
0.0
 40
69.69262484766662
100
AcDbArc
 50
273.7177582234342
 51
296.2363393920607
  0
ELLIPSE
  5
A264
330
1F
100
AcDbEntity
  8
0
  6
AM_DIN_F_W050
 62
     6
 48
5.0
100
AcDbEllipse
 10
-214.4547001772462
 20
118.1537823065194
 30
0.0
 11
317.4390572807155
 21
-109.2234597546762
 31
0.0
210
0.0
220
0.0
230
1.0
 40
0.9999999908555269
 41
1.534397580045986
 42
1.570796326794674
  0
LINE
  5
A266
330
1F
100
AcDbEntity
  8
0
  6
AM_DIN_F_W050
 62
     6
 48
5.0
100
AcDbLine
 10
-91.97355968761804
 20
427.6928325879428
 30
0.0
 11
-195.5888191905701
 21
111.000617518792
 31
0.0
  0
ARC
  5
A267
330
1F
100
AcDbEntity
  8
0
  6
AM_DIN_F_W050
 62
     6
 48
5.0
100
AcDbCircle
 10
-94.8304085650159
 20
428.6084823527136
 30
0.0
 40
3.0
100
AcDbArc
 50
342.228805154779
 51
68.92734656627542
  0
LINE
  5
A268
330
1F
100
AcDbEntity
  8
0
  6
AM_DIN_F_W050
 62
     6
 48
5.0
100
AcDbLine
 10
-117.8304917865996
 20
397.6264237315464
 30
0.0
 11
-208.6391499439203
 21
123.9848247987227
 31
0.0
  0
ARC
  5
A269
330
1F
100
AcDbEntity
  8
0
  6
AM_DIN_F_W050
 62
     6
 48
5.0
100
AcDbCircle
 10
-119.7935165971774
 20
94.50117619113042
 30
0.0
 40
93.6099999999994
100
AcDbArc
 50
161.6414442384838
 51
183.5948879816485
1001
GENIUS_GENODEF_13
1002
{
1000
HIER
1070
     0
1002
}
1002
{
1000
MANEDIT
1070
     0
1002
}
1002
{
1000
NOSEL
1070
     0
1002
}
1002
{
1000
BEHIND
1070
     0
1002
}
1002
{
1000
OTHER
1070
     0
1002
}
1002
{
1000
REACTOR
1002
}
1001
GENIUS_GENOBJ-N-FIL_13
1002
{
1000
OWNER
1000
GEN
1002
}
  0
LINE
  5
A26A
330
1F
100
AcDbEntity
  8
0
  6
AM_DIN_F_W050
 62
     6
 48
5.0
100
AcDbLine
 10
-197.6411241950461
 20
88.93566200603414
 30
0.0
 11
-187.7623233268921
 21
13.78962767842472
 31
0.0
  0
LINE
  5
A26C
330
1F
100
AcDbEntity
  8
0
  6
AM_DIN_F_W050
 62
     6
 48
5.0
100
AcDbLine
 10
-105.2312414213611
 20
435.5928366844219
 30
0.0
 11
-117.8304917865996
 21
397.6264237315464
 31
0.0
  0
LINE
  5
A26D
330
1F
100
AcDbEntity
  8
0
  6
AM_DIN_F_W050
 62
     6
 48
5.0
100
AcDbLine
 10
-210.7979248651584
 20
69.46653656813032
 30
0.0
 11
-213.2193227017599
 21
88.63169123000886
 31
0.0
  0
ARC
  5
A26E
330
1F
100
AcDbEntity
  8
0
  6
AM_DIN_F_W050
 62
     6
 48
5.0
100
AcDbCircle
 10
-190.3967978452986
 20
13.75941513439693
 30
0.0
 40
2.634647753676065
100
AcDbArc
 50
277.489235683485
 51
0.6570476831986746
  0
LINE
  5
A26F
330
1F
100
AcDbEntity
  8
0
  6
AM_DIN_F_W050
 62
     6
 48
5.0
100
AcDbLine
 10
-190.053398056184
 20
11.14724259591742
 30
0.0
 11
-194.8733733205813
 21
10.51360202855471
 31
0.0
  0
ARC
  5
A272
330
1F
100
AcDbEntity
  8
0
  6
AM_DIN_F_W050
 62
     6
 48
5.0
100
AcDbCircle
 10
-213.7978424301719
 20
32.07667896441114
 30
0.0
 40
15.9561704421492
100
AcDbArc
 50
253.5265849870854
 51
6.260530776534976
  0
ARC
  5
A274
330
1F
100
AcDbEntity
  8
0
  6
AM_DIN_F_W050
 62
     6
 48
5.0
100
AcDbCircle
 10
-212.125514579205
 20
30.92924048134546
 30
0.0
 40
15.47232192379394
100
AcDbArc
 50
129.825465692778
 51
246.3618197458463
  0
ARC
  5
A275
330
1F
100
AcDbEntity
  8
0
  6
AM_DIN_F_W050
 62
     6
 48
5.0
100
AcDbCircle
 10
-240.1625137228507
 20
66.15000015123985
 30
0.0
 40
29.55128580258157
100
AcDbArc
 50
307.8381461489751
 51
6.443872758569875
  0
LINE
  5
A278
330
1F
100
AcDbEntity
  8
0
  6
AM_DIN_F_W050
 62
     6
 48
5.0
100
AcDbLine
 10
-200.5715773811973
 20
53.85868445907283
 30
0.0
 11
-194.8733733205813
 21
10.51360202855471
 31
0.0
  0
ARC
  5
A281
330
1F
100
AcDbEntity
  8
0
  6
AM_DIN_F_W050
 62
     6
 48
5.0
100
AcDbCircle
 10
-217.8466222434122
 20
51.42875694893769
 30
0.0
 40
17.44510598122156
100
AcDbArc
 50
8.006759382785496
 51
54.57946550029951
  0
ARC
  5
A282
330
1F
100
AcDbEntity
  8
0
  6
AM_DIN_F_W050
 62
     6
 48
5.0
100
AcDbCircle
 10
-205.5496717892804
 20
70.5343824928326
 30
0.0
 40
5.355787081967337
100
AcDbArc
 50
191.500804775692
 51
245.9081802041376
  0
ARC
  5
A284
330
1F
100
AcDbEntity
  8
0
  6
AM_DIN_F_W050
 62
     6
 48
5.0
100
AcDbCircle
 10
-148.0676558853872
 20
95.45265822754913
 30
0.0
 40
50.0
100
AcDbArc
 50
161.8829550170116
 51
187.4892356834859
1001
GENIUS_GENODEF_13
1002
{
1000
HIER
1070
     0
1002
}
1002
{
1000
MANEDIT
1070
     0
1002
}
1002
{
1000
NOSEL
1070
     0
1002
}
1002
{
1000
BEHIND
1070
     0
1002
}
1002
{
1000
OTHER
1070
     0
1002
}
1002
{
1000
REACTOR
1002
}
1001
GENIUS_GENOBJ-N-FIL_13
1002
{
1000
OWNER
1000
GEN
1002
}
  0
LINE
  5
A294
330
1F
100
AcDbEntity
  8
0
  6
AM_DIN_G_W050
 62
     4
 48
2.0
100
AcDbLine
 10
-155.0119659668396
 20
-21.43165941321797
 30
0.0
 11
-155.0395566117147
 21
12.08748644196282
 31
0.0
  0
LINE
  5
A297
330
1F
100
AcDbEntity
  8
0
100
AcDbLine
 10
-253.1246488511422
 20
-0.0380567327280232
 30
0.0
 11
-209.1755369404409
 21
-0.0432378032309089
 31
0.0
  0
LINE
  5
A299
330
1F
100
AcDbEntity
  8
0
100
AcDbLine
 10
-248.8512629118236
 20
20.20817878761136
 30
0.0
 11
-231.1670791970312
 21
28.66560509853821
 31
0.0
  0
REGION
  5
A397
330
1F
100
AcDbEntity
  8
0
100
AcDbModelerGeometry
 70
     1
  1
mogoo nlh m o         
  1
ni ^ *+0;:,4 ^ *+0\^ [ nf ^ LR mniqoqoqkjon QK o  
  1
n fqfffffffffffffffj:rooh n:rono 
  1
>,27:>;:- {rn rn _nm mniqoqoqkjon |
  1
=0;& {rn rn {rn {m {rn {rn |
  1
3*2/ {rn rn {rn {rn {l {n |
  1
,7:33 {rn rn {rn {rn {rn {k {rn {m |
  1
9><: {rn rn {rn {rn {j {l {rn {i 90-(>-; ;0*=3: 0*+ |
  1
300/ {rn rn {rn {rn {h {k |
  1
/3>1:r,*-9><: {rn rn {rn rlljqiglkmognffoof ngqomkljfjjlmjkfjl o o o n n o o 90-(>-;@) V V V V |
  1
<0:;8: {rn rn {rn {g {f {rn {no 90-(>-; {j {rn |
  1
<0:;8: {rn rn {rn {nn {h {rn {nm 90-(>-; {j {rn |
  1
<0:;8: {rn rn {rn {h {nl {rn {nk 90-(>-; {j {rn |
  1
:;8: {rn rn {rn {nj o {ni nfqiomjnolgihikgh {h {nh 90-(>-; _h *1410(1 |
  1
<0:;8: {rn rn {rn {ng {g {rn {nf 90-(>-; {j {rn |
  1
:;8: {rn rn {rn {ni roqohmijmlmnkoghlolhj {mo oqohmijmlmnkoghllfmg {g {mn 90-(>-; _h *1410(1 |
  1
<0:;8: {rn rn {rn {f {mm {rn {ml 90-(>-; {j {rn |
  1
:;8: {rn rn {rn {mk roqngkiolfkofkoojomj {nj oqngkiolfkofkoojohl {f {mj 90-(>-; _h *1410(1 |
  1
):-+:' {rn rn {rn {no {mi |
  1
):-+:' {rn rn {rn {no {mh |
  1
,+->687+r<*-): {rn rn {rn rmiiqjljkkiimiinlmf nnqhjohjmkhiigjikg o oqfomnlghmklhnmgilf oqklnkkiogmliifomgj o V V |
  1
<0:;8: {rn rn {rn {mg {nn {rn {mf 90-(>-; {j {rn |
  1
:;8: {rn rn {rn {mo roqjjmkknffiiglomhk {lo oqjjmkknffiiglomhhk {nn {ln 90-(>-; _h *1410(1 |
  1
):-+:' {rn rn {rn {nm {lm |
  1
:336/,:r<*-): {rn rn {rn rmlkqmojkholjmhfgll rnkqohnhollgmkhmkfm o ro ro rn rnmqnngglkojngmhfhn ljqmjmjiinglmomhln o n V V |
  1
<0:;8: {rn rn {rn {nl {ll {rn {lk 90-(>-; {j {rn |
  1
:;8: {rn rn {rn {lj roqllnogmmigfgokikfk {mk oqllnogmmigfgokilkj {nl {li 90-(>-; _h *1410(1 |
  1
):-+:' {rn rn {rn {ml {lh |
  1
:336/,:r<*-): {rn rn {rn rmjjqlogmgkjnkhmlol rnkqkfmoinmgmlimmnj o ro ro rn rnjqgjlkjfioonflih mlqhliofinhgmillil o n V V |
  1
/061+ {rn rn {rn rmiiqjljkkiimiinlmf nnqhjohjmkhiigjikg o |
  1
/061+ {rn rn {rn rmkgqgjnmimfnngmmki moqmognhghghinnfmg o |
  1
<0:;8: {rn rn {rn {lg {ng {rn {lf 90-(>-; {j {rn |
  1
:;8: {rn rn {rn {lo roqoghiinfgmkfoiljjok {ko oqoghiinfgmkfoilkglg {ng {kn 90-(>-; _h *1410(1 |
  1
):-+:' {rn rn {rn {nf {km |
  1
:336/,:r<*-): {rn rn {rn rmjoqhimmkhkjjfhlon mnqjfnmhookokmgngj o ro ro rn iqngohloghnofnmgoj rlqlignfglfmmkffkki o n V V |
  1
/061+ {rn rn {rn rmklqhllkoikimfnonm mnqfihjjmfngfllfin o |
  1
<0:;8: {rn rn {rn {mm {kl {rn {kk 90-(>-; {j {rn |
  1
:;8: {rn rn {rn {kj roqihmjjnhhkikohhlij {lj oqihmjjnhhkikohhjm {mm {ki 90-(>-; _h *1410(1 |
  1
):-+:' {rn rn {rn {lk {kh |
  1
:336/,:r<*-): {rn rn {rn rmjgqonhfiginijkjm rnnqilonjnljgkilij o ro ro rn rmmqoolfgolffmfhffn nnqoojgmmihnfnnnfm o n V V |
  1
/061+ {rn rn {rn rmhjqmkflnomomljmok jqflohngjghmgkfook o |
  1
<0:;8: {rn rn {rn {kg {mg {rn {kf 90-(>-; {j {rn |
  1
:;8: {rn rn {rn {ko roqllhljnfgfooggmfng {jo oqllhljnfgfooggk {mg {jn 90-(>-; _h *1410(1 |
  1
):-+:' {rn rn {rn {mf {jm |
  1
:336/,:r<*-): {rn rn {rn rmolqolnghkkoknmlfg rjfqlgggmgifnnjnnoj o o o n rjoqimnjnhkgoooihhl hoqhofoffohmfhhimm o n V V |
  1
/061+ {rn rn {rn rmkhqmigkkghihjlgfg njqkgoijfnihfmglii o |
  1
<0:;8: {rn rn {rn {ll {jl {rn {jk 90-(>-; {j {rn |
  1
:;8: {rn rn {rn {jj o {kj mgnqjionjhknmilgjj {ll {ji 90-(>-; _h *1410(1 |
  1
):-+:' {rn rn {rn {kk {jh |
  1
:336/,:r<*-): {rn rn {rn rmgjqgnjgooghgjgnfh rhqjfnjiggoljfogoll o o o n mqngokkklnokflgjgh rmqhlhgmohonnnfnkjj o n V V |
  1
/061+ {rn rn {rn rmgmqkokjilljnlgnmg rgqlhkgokkhknijllom o |
  1
<0:;8: {rn rn {rn {jg {lg {rn {jf 90-(>-; {j {rn |
  1
:;8: {rn rn {rn {jo o {io lqjmjnghfkhonmkool {lg {in 90-(>-; _h *1410(1 |
  1
):-+:' {rn rn {rn {lf {im |
  1
:336/,:r<*-): {rn rn {rn rmjjqfkojnonjlmihmh mqfohhfoognlnjmglh o o o n rkqhmhiijofojmgflmg mqmhmlkoghjkojijjl o n V V |
  1
/061+ {rn rn {rn rmjfqikfjhihijnnlgn iqinigjiiflnilhjkm o |
  1
<0:;8: {rn rn {rn {kl {il {rn {ik 90-(>-; {j {rn |
  1
:;8: {rn rn {rn {ij roqiojiljnlllhghiogj {jj oqiojiljnlllhgihnjf {kl {ii 90-(>-; _h *1410(1 |
  1
):-+:' {rn rn {rn {jk {ih |
  1
,+->687+r<*-): {rn rn {rn rjihqlhjfjgmfnmmooi rnnqofnjighklfignfi o n o o V V |
  1
/061+ {rn rn {rn rmgjqgnjgooghgjgnjn rnnqofnjighklfignfi o |
  1
<0:;8: {rn rn {rn {ig {kg {rn {if 90-(>-; {j {rn |
  1
:;8: {rn rn {rn {io o {ho gqnoiljgfmmmonfknh {kg {hn 90-(>-; _h *1410(1 |
  1
):-+:' {rn rn {rn {kf {hm |
  1
,+->687+r<*-): {rn rn {rn rminqnjlgnghnoiifin lqkghmknihllfogmih o roqomngfikmmfhmkjlh roqfffhiomkkjgfnhhml o V V |
  1
/061+ {rn rn {rn rminqnjlgnghnoiifin lqkghmknihllfogmih o |
  1
<0:;8: {rn rn {rn {jl {hl {rn {hk 90-(>-; {j {rn |
  1
:;8: {rn rn {rn {hj roqillhlgmhlgmfifgoj {ij oqillhlgmhlgmfholfk {jl {hi 90-(>-; _h *1410(1 |
  1
):-+:' {rn rn {rn {ik {hh |
  1
:336/,:r<*-): {rn rn {rn rjihqlhjfjgmfnmmooi rfqofnjighklfiglofh o o o n rnqnlgjighmoogkilki rnqikkmgnlglfimnjkm o n V V |
  1
/061+ {rn rn {rn rjihqlhjfjgmfnmmooi rnnqofnjighklfignfi o |
  1
<0:;8: {rn rn {rn {hg {jg {rn {hf 90-(>-; {j {rn |
  1
:;8: {rn rn {rn {ho o {go mkqjmgilihokggjjnk {jg {gn 90-(>-; _h *1410(1 |
  1
):-+:' {rn rn {rn {jf {gm |
  1
,+->687+r<*-): {rn rn {rn rminqmlnoohhnhonkhf roqolhnonofohlhnnoofg o oqfffffffflojnmninm roqooonnhgghfkkjmknngjg o V V |
  1
/061+ {rn rn {rn rminqmlnoohhnhonkhf roqolhnonofohlhnnoofg o |
  1
<0:;8: {rn rn {rn {il {gl {rn {gk 90-(>-; {j {rn |
  1
:;8: {rn rn {rn {gj nqkhhfmggfolgnoogk:ronm {hj koqoomlhomognfolnk {il {gi 90-(>-; _h *1410(1 |
  1
):-+:' {rn rn {rn {hk {gh |
  1
:336/,:r<*-): {rn rn {rn rjgfqjjlmlgjnfjjnhh rniqkiogljojoimooim o ro ro rn nmqknjnhkhonlgngn nhqlfjnfflihnhomhn o n V V |
  1
/061+ {rn rn {rn rjifqmkgogjikmonhol rfqhfjmloonlinlolin o |
  1
<0:;8: {rn rn {rn {gg {ig {rn {gf 90-(>-; {j {rn |
  1
:;8: {rn rn {rn {go o {fo liqkihlgggonmikmik {ig {fn 90-(>-; _h *1410(1 |
  1
):-+:' {rn rn {rn {if {fm |
  1
,+->687+r<*-): {rn rn {rn rmjlqnmkikggjnnkmng roqolgojihlmhmgomlmlj o oqjjgoniihjomoilnig roqgmfgmfhljhggjikji o V V |
  1
/061+ {rn rn {rn rmjlqnmkikggjnnkmng roqolgojihlmhmgomlmlj o |
  1
<0:;8: {rn rn {rn {hl {fl {rn {fk 90-(>-; {j {rn |
  1
:;8: {rn rn {rn {fj nqjlklfhjgookjfggn {gj nqjhohfilmihfkihkj {hl {fi 90-(>-; _h *1410(1 |
  1
):-+:' {rn rn {rn {gk {fh |
  1
,+->687+r<*-): {rn rn {rn rimfqgjnfgmmgjjgmin kqfoglknoljjfkjolk o n o o V V |
  1
/061+ {rn rn {rn rjgfqgkfinmohhlfmoh kqfoglknoljjfkjolk o |
  1
<0:;8: {rn rn {rn {fg {hg {rn {ff 90-(>-; {j {rn |
  1
:;8: {rn rn {rn {fo o {noo nngqknifikngfkifhm {hg {non 90-(>-; _h *1410(1 |
  1
):-+:' {rn rn {rn {hf {nom |
  1
,+->687+r<*-): {rn rn {rn rmlfqklhmiojjkmfloi rmoqlfmikggkghfigjl o oqgmfgmfhljhggjiilk oqjjgoniihjomoimfom o V V |
  1
/061+ {rn rn {rn rmlfqklhmiojjkmfloi rmoqlfmikggkghfigjl o |
  1
<0:;8: {rn rn {rn {gl {nol {rn {nok 90-(>-; {j {rn |
  1
:;8: {rn rn {rn {noj roqhijighngggmkjfikn {fj oqhijighngggmkjglhj {gl {noi 90-(>-; _h *1410(1 |
  1
):-+:' {rn rn {rn {fk {noh |
  1
:336/,:r<*-): {rn rn {rn rmfkqnihfhjofhiigm nqmmjllgglimjimkng o o o n lqigloommllonhlhjl lljqigkonomjhjihom o oqffffffffogjjjmifl V V |
  1
/061+ {rn rn {rn rimfqgjnfgmmgjjgnmk kqfoglknoljiifogm o |
  1
<0:;8: {rn rn {rn {nog {gg {rn {nof 90-(>-; {j {rn |
  1
:;8: {rn rn {rn {noo o {nno nooqhmknioomkomggg {gg {nnn 90-(>-; _h *1410(1 |
  1
):-+:' {rn rn {rn {gf {nnm |
  1
,+->687+r<*-): {rn rn {rn rmofqnhjjlifkokknnl roqoklmlhgolmlofoggih o oqfffffffflojnmniml roqooonnhgghfkkjmliglh o V V |
  1
/061+ {rn rn {rn rmofqnhjjlifkokknnl roqoklmlhgolmlofoggih o |
  1
<0:;8: {rn rn {rn {fl {nnl {rn {nnk 90-(>-; {j {rn |
  1
:;8: {rn rn {rn {nnj o {noj lllqmnnhiinmfmfhkh {fl {nni 90-(>-; _h *1410(1 |
  1
):-+:' {rn rn {rn {nok {nnh |
  1
:336/,:r<*-): {rn rn {rn rimiqkfigghkllkfggk nhqolkngnhkngmofl o o o n rmqnonnjgfokgjnikf mqnknmfnfjfihlinoi o n V V |
  1
/061+ {rn rn {rn rimfqkfjinnnknoomm nhqnmnignolljgngog o |
  1
<0:;8: {rn rn {rn {nng {fg {rn {nnf 90-(>-; {j {rn |
  1
:;8: {rn rn {rn {nno o {nmo jqinjhnnonoofmijfl {fg {nmn 90-(>-; _h *1410(1 |
  1
):-+:' {rn rn {rn {ff {nmm |
  1
,+->687+r<*-): {rn rn {rn rfoqhjgjhljhlgmjohj roqojhnfhhljhljfkonnk o roqnimjjjhkfmgglonni oqfgiifflioigljkimk o V V |
  1
/061+ {rn rn {rn rfoqhjgjhljhlgmjohj roqojhnfhhljhljfkonnk o |
  1
<0:;8: {rn rn {rn {nol {nng {rn {nml 90-(>-; {j {rn |
  1
:;8: {rn rn {rn {nmk roqmmlkjifjlkofgjjnn {nnj oqmmlkjifjlkofgjjhh {nol {nmj 90-(>-; _h *1410(1 |
  1
):-+:' {rn rn {rn {nnk {nmi |
  1
,+->687+r<*-): {rn rn {rn rmflqlnggljogilnljg mnqklgjiomhhimmimg o roqfffffnnnimlljjjil roqookmnjnkjhgmkjnmhgl o V V |
  1
/061+ {rn rn {rn rimiqjmhiknokonokoh moqolkomknoifjfjhg o |
  1
<0:;8: {rn rn {rn {nnl {nog {rn {nmh 90-(>-; {j {rn |
  1
:;8: {rn rn {rn {nmo o {nmg lqmllghihgkhionil {nog {nmf 90-(>-; _h *1410(1 |
  1
):-+:' {rn rn {rn {nof {nlo |
  1
,+->687+r<*-): {rn rn {rn rnohqnlngikghhfijf ffqlmhmiijijlioji o oqfoojlhnknlofgnjmn oqklkhhfofoomllijjn o V V |
  1
/061+ {rn rn {rn rnohqnlngikghhfijf ffqlmhmiijijlioji o |
  1
:;8: {rn rn {rn {nln o {nmk ngmqkingohjigkonh {nnl {nlm 90-(>-; _h *1410(1 |
  1
):-+:' {rn rn {rn {nml {nll |
  1
:336/,:r<*-): {rn rn {rn rmflqjmfjfmlhjkljgh hnqklgnniogfloolij o ro ro rn nnqmgjjnioingnjmnf rkgqhofhmlnmgnmkoin o n V V |
  1
/061+ {rn rn {rn rmflqlnggljogilnljg mnqklgjiomhhimmimg o |
  1
:;8: {rn rn {rn {nmg roqhhjinmfiginomhlk {nln oqhhjinmfiginomhfhl {nng {nlk 90-(>-; _h *1410(1 |
  1
):-+:' {rn rn {rn {nnf {nlj |
  1
,+->687+r<*-): {rn rn {rn rnomqohkhogjlgjnjnn nonqhiggiomggnimgk o roqkjljofhginliiooof oqgfnmjnmfihokffjnk o V V |
  1
/061+ {rn rn {rn rnomqohkhogjlgjnjnn nonqhiggiomggnimgk o |
  1
):-+:' {rn rn {rn {nmh {nli |
  1
,+->687+r<*-): {rn rn {rn rnohqjmloomfjhhgnfh nojqffolfkohffnkgk o roqgfffjjkmknmooiknl roqkljfgnfmoolklfmjn o V V |
  1
/061+ {rn rn {rn rmhnqhlokfilhlhnimg miqkkolkkgglmfhmjh o |
  1
:336/,:r<*-): {rn rn {rn rnoiqmnjojhnfhihgjg nolqmfojmhgohjjkih o o o n oqfjikjgffmkijfhffg mqgklkkinglonffgfn o n V V |
  1
/061+ {rn rn {rn rnolqjknlollohjilgn nokqijnojhnijfikjm o |
  1
/061+ {rn rn {rn rnohqjmloomfjhhgnfh nojqffolfkohffnkgk o |
  0
LINE
  5
A451
330
1F
100
AcDbEntity
  8
0
100
AcDbLine
 10
-90.75857357382508
 20
-0.0571977357359401
 30
0.0
 11
-90.75857357382508
 21
-0.0571977356756861
 31
0.0
  0
LINE
  5
A490
330
1F
100
AcDbEntity
  8
0
  6
AM_DIN_F_W050
 62
     6
 48
3.0
100
AcDbLine
 10
-566.5418361313501
 20
-49.0606417948353
 30
0.0
 11
-224.1449574229851
 21
-60.83495288595469
 31
0.0
  0
ARC
  5
A491
330
1F
100
AcDbEntity
  8
0
  6
AM_DIN_F_W050
 62
     6
 48
3.0
100
AcDbCircle
 10
-202.1360183305672
 20
-7.040907271903904
 30
0.0
 40
7.0
100
AcDbArc
 50
90.0
 51
166.544373041033
1001
GENIUS_GENODEF_13
1002
{
1000
HIER
1070
     0
1002
}
1002
{
1000
MANEDIT
1070
     0
1002
}
1002
{
1000
NOSEL
1070
     0
1002
}
1002
{
1000
BEHIND
1070
     0
1002
}
1002
{
1000
OTHER
1070
     0
1002
}
1002
{
1000
REACTOR
1002
}
1001
GENIUS_GENOBJ-N-FIL_13
1002
{
1000
OWNER
1000
GEN
1002
}
  0
LINE
  5
A492
330
1F
100
AcDbEntity
  8
0
  6
AM_DIN_F_W050
 62
     6
 48
3.0
100
AcDbLine
 10
-217.7598843384362
 20
-55.59021139818639
 30
0.0
 11
-208.9438712835827
 21
-5.412061616196638
 31
0.0
  0
ARC
  5
A493
330
1F
100
AcDbEntity
  8
0
  6
AM_DIN_F_W050
 62
     6
 48
3.0
100
AcDbCircle
 10
-210.9520313854205
 20
-57.21905705389355
 30
0.0
 40
7.0
100
AcDbArc
 50
166.544373041033
 51
260.5618278994744
1001
GENIUS_GENOBJ-N-FIL_13
1002
{
1000
OWNER
1000
GEN
1002
}
1001
GENIUS_GENODEF_13
1002
{
1000
HIER
1070
     0
1002
}
1002
{
1000
MANEDIT
1070
     0
1002
}
1002
{
1000
NOSEL
1070
     0
1002
}
1002
{
1000
BEHIND
1070
     0
1002
}
1002
{
1000
OTHER
1070
     0
1002
}
1002
{
1000
REACTOR
1002
}
  0
LINE
  5
A494
330
1F
100
AcDbEntity
  8
0
  6
AM_DIN_F_W050
 62
     6
 48
3.0
100
AcDbLine
 10
-191.9192506263635
 20
-73.63479041034969
 30
0.0
 11
-212.0999138468063
 21
-64.12429896528545
 31
0.0
  0
ARC
  5
A495
330
1F
100
AcDbEntity
  8
0
  6
AM_DIN_F_W050
 62
     6
 48
3.0
100
AcDbCircle
 10
-397.1737226859492
 20
99.99842380967079
 30
0.0
 40
267.1027851622672
100
AcDbArc
 50
220.0978937095585
 51
268.9102795500932
  0
ARC
  5
A496
330
1F
100
AcDbEntity
  8
0
  6
AM_DIN_F_W050
 62
     6
 48
3.0
100
AcDbCircle
 10
-402.3454645832597
 20
-174.0554490902661
 30
0.0
 40
7.0
100
AcDbArc
 50
4.334982947630638
 51
89.24724064522788
1001
GENIUS_GENOBJ-N-FIL_13
1002
{
1000
OWNER
1000
GEN
1002
}
1001
GENIUS_GENODEF_13
1002
{
1000
HIER
1070
     0
1002
}
1002
{
1000
MANEDIT
1070
     0
1002
}
1002
{
1000
NOSEL
1070
     0
1002
}
1002
{
1000
BEHIND
1070
     0
1002
}
1002
{
1000
OTHER
1070
     0
1002
}
1002
{
1000
REACTOR
1002
}
  0
LINE
  5
A497
330
1F
100
AcDbEntity
  8
0
100
AcDbLine
 10
-616.3684790661813
 20
-16.42832967018671
 30
0.0
 11
0.030067423985173
 21
-16.38126968704216
 31
0.0
  0
ARC
  5
A498
330
1F
100
AcDbEntity
  8
0
  6
AM_DIN_F_W050
 62
     6
 48
3.0
100
AcDbCircle
 10
-582.2012694117034
 20
-7.046192945625705
 30
0.0
 40
6.999999999999979
100
AcDbArc
 50
13.45562695896024
 51
90.0
1001
GENIUS_GENODEF_13
1002
{
1000
HIER
1070
     0
1002
}
1002
{
1000
MANEDIT
1070
     0
1002
}
1002
{
1000
NOSEL
1070
     0
1002
}
1002
{
1000
BEHIND
1070
     0
1002
}
1002
{
1000
OTHER
1070
     0
1002
}
1002
{
1000
REACTOR
1002
}
1001
GENIUS_GENOBJ-N-FIL_13
1002
{
1000
OWNER
1000
GEN
1002
}
  0
LINE
  5
A499
330
1F
100
AcDbEntity
  8
0
  6
AM_DIN_F_W050
 62
     6
 48
3.0
100
AcDbLine
 10
-568.787588521509
 20
-44.54702832839337
 30
0.0
 11
-575.3934164586877
 21
-5.417347289918893
 31
0.0
  0
ARC
  5
A49A
330
1F
100
AcDbEntity
  8
0
  6
AM_DIN_F_W050
 62
     6
 48
3.0
100
AcDbCircle
 10
-575.5954414745246
 20
-46.17587398410051
 30
0.0
 40
7.0
100
AcDbArc
 50
279.4381721005256
 51
13.45562695896379
1001
GENIUS_GENOBJ-N-FIL_13
1002
{
1000
OWNER
1000
GEN
1002
}
1001
GENIUS_GENODEF_13
1002
{
1000
HIER
1070
     0
1002
}
1002
{
1000
MANEDIT
1070
     0
1002
}
1002
{
1000
NOSEL
1070
     0
1002
}
1002
{
1000
BEHIND
1070
     0
1002
}
1002
{
1000
OTHER
1070
     0
1002
}
1002
{
1000
REACTOR
1002
}
  0
LINE
  5
A49B
330
1F
100
AcDbEntity
  8
0
  6
AM_DIN_F_W050
 62
     6
 48
3.0
100
AcDbLine
 10
-574.4475590131385
 20
-53.08111589549236
 30
0.0
 11
-603.2177217661711
 21
-61.64505142172334
 31
0.0
  0
LINE
  5
A49C
330
1F
100
AcDbEntity
  8
0
  6
AM_DIN_F_W050
 62
     6
 48
3.0
100
AcDbLine
 10
-72.92657388152761
 20
-231.1136405113595
 30
0.0
 11
-25.23450773432902
 21
-231.1136405113595
 31
0.0
  0
LINE
  5
A49D
330
1F
100
AcDbEntity
  8
0
  6
AM_DIN_F_W050
 62
     6
 48
3.0
100
AcDbLine
 10
-174.8236029003731
 20
-129.4612512632426
 30
0.0
 11
-25.23450773432902
 21
-129.1139654183351
 31
0.0
  0
ARC
  5
A49E
330
1F
100
AcDbEntity
  8
0
  6
AM_DIN_F_W050
 62
     6
 48
3.0
100
AcDbCircle
 10
-434.1290212227139
 20
-304.8797090431238
 30
0.0
 40
96.68710753916965
100
AcDbArc
 50
5.841060132305981
 51
29.88891317274911
  0
ARC
  5
A49F
330
1F
100
AcDbEntity
  8
0
  6
AM_DIN_F_W050
 62
     6
 48
3.0
100
AcDbCircle
 10
-85.66288006924835
 20
-286.8875498365336
 30
0.0
 40
183.4097298652059
100
AcDbArc
 50
131.2951785991992
 51
171.1328340220545
  0
LINE
  5
A4A0
330
1F
100
AcDbEntity
  8
0
  6
AM_DIN_F_W050
 62
     6
 48
3.0
100
AcDbLine
 10
-212.0207530333173
 20
-252.4133589894236
 30
0.0
 11
-222.247497780319
 21
-295.039935879984
 31
0.0
  0
ARC
  5
A4A1
330
1F
100
AcDbEntity
  8
0
  6
AM_DIN_F_W050
 62
     6
 48
3.0
100
AcDbCircle
 10
-195.4898491700221
 20
-256.3793667380914
 30
0.0
 40
17.0
100
AcDbArc
 50
93.8404076450257
 51
166.508884985867
1001
GENIUS_GENOBJ-N-FIL_13
1002
{
1000
OWNER
1000
GEN
1002
}
1001
GENIUS_GENODEF_13
1002
{
1000
HIER
1070
     0
1002
}
1002
{
1000
MANEDIT
1070
     0
1002
}
1002
{
1000
NOSEL
1070
     0
1002
}
1002
{
1000
BEHIND
1070
     0
1002
}
1002
{
1000
OTHER
1070
     0
1002
}
1002
{
1000
REACTOR
1002
}
  0
ARC
  5
A4A2
330
1F
100
AcDbEntity
  8
0
  6
AM_DIN_F_W050
 62
     6
 48
3.0
100
AcDbCircle
 10
-278.2140180251006
 20
-93.55464461483354
 30
0.0
 40
90.5424987315297
100
AcDbArc
 50
322.16841407313
 51
10.0946817853294
1001
GENIUS_GENODEF_13
1002
{
1000
HIER
1070
     0
1002
}
1002
{
1000
MANEDIT
1070
     0
1002
}
1002
{
1000
NOSEL
1070
     0
1002
}
1002
{
1000
BEHIND
1070
     0
1002
}
1002
{
1000
OTHER
1070
     0
1002
}
1002
{
1000
REACTOR
1002
}
1001
GENIUS_GENOBJ-N-FIL_13
1002
{
1000
OWNER
1000
GEN
1002
}
  0
ARC
  5
A4A3
330
1F
100
AcDbEntity
  8
0
  6
AM_DIN_F_W050
 62
     6
 48
3.0
100
AcDbCircle
 10
-194.0507508584421
 20
-78.15769951408464
 30
0.0
 40
5.0
100
AcDbArc
 50
5.427405235022817
 51
64.76702010836878
1001
GENIUS_GENOBJ-N-FIL_13
1002
{
1000
OWNER
1000
GEN
1002
}
1001
GENIUS_GENODEF_13
1002
{
1000
HIER
1070
     0
1002
}
1002
{
1000
MANEDIT
1070
     0
1002
}
1002
{
1000
NOSEL
1070
     0
1002
}
1002
{
1000
BEHIND
1070
     0
1002
}
1002
{
1000
OTHER
1070
     0
1002
}
1002
{
1000
REACTOR
1002
}
  0
LINE
  5
A4A4
330
1F
100
AcDbEntity
  8
0
  6
CENTER2
 62
     4
 48
30.0
100
AcDbLine
 10
-173.4472018921557
 20
-179.5524465874495
 30
0.0
 11
6.130392721567517
 21
-179.5524465874495
 31
0.0
  0
ARC
  5
A4A5
330
1F
100
AcDbEntity
  8
0
  6
AM_DIN_F_W050
 62
     6
 48
3.0
100
AcDbCircle
 10
-286.3654012346577
 20
-165.2636470203877
 30
0.0
 40
109.3128147625259
100
AcDbArc
 50
184.3349829476306
 51
230.8210977404477
  0
LINE
  5
A4A6
330
1F
100
AcDbEntity
  8
0
  6
AM_DIN_F_W050
 62
     6
 48
3.0
100
AcDbLine
 10
-25.23450773432902
 20
-230.7084009274872
 30
0.0
 11
-25.23450773432902
 21
-129.1139654183351
 31
0.0
  0
LINE
  5
A4A7
330
1F
100
AcDbEntity
  8
0
  6
AM_DIN_F_W050
 62
     6
 48
3.0
100
AcDbLine
 10
-188.757304023874
 20
-81.83040289140194
 30
0.0
 11
-66.06547915532875
 21
-74.78462367954927
 31
0.0
  0
LINE
  5
A4A8
330
1F
100
AcDbEntity
  8
0
  6
AM_DIN_F_W050
 62
     6
 48
3.0
100
AcDbLine
 10
-63.66541614218229
 20
-74.70938915191851
 30
0.0
 11
-18.1909743750804
 21
-74.73655372336271
 31
0.0
  0
LINE
  5
A4A9
330
1F
100
AcDbEntity
  8
0
  6
AM_DIN_F_W050
 62
     6
 48
3.0
100
AcDbLine
 10
-18.1909743750804
 20
-74.73655372336271
 30
0.0
 11
-18.1909743750804
 21
-16.9990633525183
 31
0.0
  0
LINE
  5
A4AA
330
1F
100
AcDbEntity
  8
0
  6
CENTER2
 62
     4
 48
30.0
100
AcDbLine
 10
-85.24432092088629
 20
-44.55244658744947
 30
0.0
 11
5.799068970519186
 21
-44.55244658744947
 31
0.0
  0
LINE
  5
A4AB
330
1F
100
AcDbEntity
  8
0
  6
AM_DIN_F_W050
 62
     6
 48
3.0
100
AcDbLine
 10
0.0301353695355999
 20
-17.27123045076166
 30
0.0
 11
-66.06547915532875
 21
-17.27627663155357
 31
0.0
  0
LINE
  5
A4AC
330
1F
100
AcDbEntity
  8
0
  6
AM_DIN_F_W050
 62
     6
 48
3.0
100
AcDbLine
 10
-66.06547915532875
 20
-17.27627663155357
 30
0.0
 11
-66.06547915532875
 21
-74.78462367954927
 31
0.0
  0
LINE
  5
A4AD
330
1F
100
AcDbEntity
  8
0
  6
AM_DIN_F_W050
 62
     6
 48
3.0
100
AcDbLine
 10
-64.1084032231843
 20
-231.1136405113595
 30
0.0
 11
-64.1084032231843
 21
-286.2609069814567
 31
0.0
  0
ARC
  5
A4AE
330
1F
100
AcDbEntity
  8
0
  6
AM_DIN_F_W050
 62
     6
 48
3.0
100
AcDbCircle
 10
-54.1084032231843
 20
-261.0382310570051
 30
0.0
 40
10.0
100
AcDbArc
 50
180.0
 51
270.0043743425858
1001
GENIUS_GENOBJ-N-FIL_13
1002
{
1000
OWNER
1000
GEN
1002
}
1001
GENIUS_GENODEF_13
1002
{
1000
HIER
1070
     0
1002
}
1002
{
1000
MANEDIT
1070
     0
1002
}
1002
{
1000
NOSEL
1070
     0
1002
}
1002
{
1000
BEHIND
1070
     0
1002
}
1002
{
1000
OTHER
1070
     0
1002
}
1002
{
1000
REACTOR
1002
}
  0
LINE
  5
A4AF
330
1F
100
AcDbEntity
  8
0
  6
AM_DIN_F_W050
 62
     6
 48
3.0
100
AcDbLine
 10
-64.1084032231843
 20
-286.2609069814567
 30
0.0
 11
0.0506718385388183
 21
-286.2609069814568
 31
0.0
  0
LINE
  5
A4B0
330
1F
100
AcDbEntity
  8
0
  6
AM_DIN_F_W050
 62
     6
 48
3.0
100
AcDbLine
 10
-54.10763975637738
 20
-271.038231027861
 30
0.0
 11
0.0495093220830256
 21
-271.0340963092812
 31
0.0
  0
LINE
  5
A4B1
330
1F
100
AcDbEntity
  8
0
  6
AM_DIN_F_W050
 62
     6
 48
3.0
100
AcDbLine
 10
-196.6284680266597
 20
-239.4175405657918
 30
0.0
 11
-72.92657388152761
 21
-231.1136405113595
 31
0.0
  0
ARC
  5
A4B2
330
1F
100
AcDbEntity
  8
0
  6
AM_DIN_F_W050
 62
     6
 48
3.0
100
AcDbCircle
 10
-175.0756093525167
 20
-114.5495722610389
 30
0.0
 40
14.91380829689996
100
AcDbArc
 50
177.2595217278939
 51
270.9682029588571
  0
LINE
  5
A4B3
330
1F
100
AcDbEntity
  8
0
  6
AM_DIN_F_W050
 62
     6
 48
3.0
100
AcDbLine
 10
-339.2515372021129
 20
-286.2609069814567
 30
0.0
 11
-495.0977988760816
 21
-286.2609069814567
 31
0.0
  0
LINE
  5
A4B4
330
1F
100
AcDbEntity
  8
0
  6
AM_DIN_F_W050
 62
     6
 48
3.0
100
AcDbLine
 10
-495.0977988760816
 20
-286.2609069814567
 30
0.0
 11
-505.1791484529497
 21
-295.0399358799839
 31
0.0
  0
CIRCLE
  5
A4B5
330
1F
100
AcDbEntity
  8
0
  6
AM_DIN_F_W050
 62
     6
 48
4.0
100
AcDbCircle
 10
-76.5092260780481
 20
-71.6315928050671
 30
0.0
 40
13.54918078495065
  0
CIRCLE
  5
A4B6
330
1F
100
AcDbEntity
  8
0
  6
AM_DIN_F_W050
 62
     6
 48
4.0
100
AcDbCircle
 10
-76.5092260780481
 20
-71.6315928050671
 30
0.0
 40
7.579809740149905
  0
LINE
  5
A4B7
330
1F
100
AcDbEntity
  8
0
  6
AM_DIN_F_W050
 62
     6
 48
4.0
100
AcDbLine
 10
-82.37329537917108
 20
-272.563250120482
 30
0.0
 11
-82.37329537917108
 21
-83.84605108920329
 31
0.0
  0
LINE
  5
A4B8
330
1F
100
AcDbEntity
  8
0
  6
AM_DIN_G_W050
 62
     4
 48
3.0
100
AcDbLine
 10
-76.5092260780481
 20
-56.42458377771134
 30
0.0
 11
-76.5092260780481
 21
-87.11016898556176
 31
0.0
  0
LINE
  5
A4B9
330
1F
100
AcDbEntity
  8
0
  6
AM_DIN_F_W050
 62
     6
 48
4.0
100
AcDbLine
 10
-70.64515677692511
 20
-272.563250120482
 30
0.0
 11
-70.64515677692511
 21
-83.84605108920329
 31
0.0
  0
LINE
  5
A4BA
330
1F
100
AcDbEntity
  8
0
  6
AM_DIN_G_W050
 62
     4
 48
3.0
100
AcDbLine
 10
-92.27282738027785
 20
-71.73454805723867
 30
0.0
 11
-61.33266370888455
 21
-71.73454805723867
 31
0.0
  0
LWPOLYLINE
  5
A4BB
330
1F
100
AcDbEntity
  8
0
  6
AM_DIN_F_W050
 62
     6
 48
4.0
100
AcDbPolyline
 90
        4
 70
     1
 43
0.0
 10
-84.46945914981748
 20
-272.563250120482
 10
-68.88130058654283
 20
-272.563250120482
 10
-68.88130058654283
 20
-279.4780833493389
 10
-84.46945914981748
 20
-279.4780833493389
1001
GENIUS_GENREC_14
1002
{
1000
PYDIR
1011
-84.46945914981748
1021
-279.4780833493389
1031
0.0
1002
}
1002
{
1000
PXDIR
1011
-68.88130058654283
1021
-272.563250120482
1031
0.0
1002
}
1002
{
1000
PORI
1011
-84.46945914981748
1021
-272.563250120482
1031
0.0
1002
}
1002
{
1000
PINS
1011
-84.46945914981748
1021
-272.563250120482
1031
0.0
1002
}
1002
{
1000
PINS2
1011
-68.88130058654283
1021
-279.4780833493389
1031
0.0
1002
}
1002
{
1000
C
1070
     1
1002
}
1001
GENIUS_GENODEF_13
1002
{
1000
HIER
1070
     0
1002
}
1002
{
1000
MANEDIT
1070
     0
1002
}
1002
{
1000
NOSEL
1070
     0
1002
}
1002
{
1000
BEHIND
1070
     0
1002
}
1002
{
1000
OTHER
1070
     0
1002
}
1002
{
1000
REACTOR
1002
}
1001
GENIUS_GENOBJ-N-REC_13
1002
{
1000
OWNER
1000
GEN
1002
}
  0
LINE
  5
A4BC
330
1F
100
AcDbEntity
  8
0
  6
AM_DIN_F_W050
 62
     6
 48
4.0
100
AcDbLine
 10
-65.28624952949204
 20
-64.0404731686869
 30
0.0
 11
0.0664541346053227
 21
-56.02818729682366
 31
0.0
  0
LINE
  5
A4BD
330
1F
100
AcDbEntity
  8
0
  6
AM_DIN_F_W050
 62
     6
 48
4.0
100
AcDbLine
 10
-65.28624952949204
 20
-79.42862294579043
 30
0.0
 11
0.0664541346053227
 21
-87.44090881765368
 31
0.0
  0
LINE
  5
A4BE
330
1F
100
AcDbEntity
  8
0
100
AcDbLine
 10
-337.9439099612048
 20
-295.0399358799842
 30
0.0
 11
-222.2474977803192
 21
-295.0399358799847
 31
0.0
  0
LWPOLYLINE
  5
A4BF
330
1F
100
AcDbEntity
  8
0
100
AcDbPolyline
 90
       12
 70
     1
 43
0.0
 10
0.0291249787195227
 20
-4.036983670449444
 42
0.4142151117528073
 10
-3.971201555986823
 20
-0.0372890705012878
 10
-617.4499620046161
 20
-0.0873713853197842
 42
0.4033026888956239
 10
-624.9685302384635
 20
-8.253500139851382
 42
0.4063472012555563
 10
-617.366381407467
 20
-16.4242077215801
 42
-0.3775717681096491
 10
-610.548484802703
 20
-21.59681711114547
 42
0.115458369951451
 10
-513.5653263749405
 20
-290.4871388191734
 42
0.2539418609458188
 10
-505.1791484529497
 20
-295.0399358799839
 10
-337.9439099612049
 20
-295.039935879984
 42
0.4906297083184439
 10
-253.4629159490948
 20
-330.4409453448347
 42
0.2096467373110284
 10
-222.247497780319
 20
-295.039935879984
 10
0.0513420882568596
 20
-295.039935879984
  0
ENDSEC
  0
SECTION
  2
OBJECTS
  0
DICTIONARY
  5
C
330
0
100
AcDbDictionary
281
     1
  3
ACAD_2007HEADERVARS_RT
350
A516
  3
ACAD_COLOR
350
288D
  3
ACAD_GROUP
350
D
  3
ACAD_LAYOUT
350
1A
  3
ACAD_MATERIAL
350
2863
  3
ACAD_MLEADERSTYLE
350
28A2
  3
ACAD_MLINESTYLE
350
17
  3
ACAD_PLOTSETTINGS
350
19
  3
ACAD_PLOTSTYLENAME
350
E
  3
ACAD_SCALELIST
350
2890
  3
ACAD_TABLESTYLE
350
288E
  3
ACAD_VISUALSTYLE
350
287C
  3
ACDB_RECOMPOSE_DATA
350
A515
  3
AcDbVariableDictionary
350
86
  3
AcmDictionary
350
45
  3
AEC_PROPERTY_SET_DEFS
350
3CD0
  3
AMG
350
41
  3
AMGSNAPSETTINGS
350
332
  3
ASE_INDEX_DICTIONARY
350
378B
  0
DICTIONARY
  5
2939
330
8
100
AcDbDictionary
280
     1
281
     1
  0
DICTIONARY
  5
3BB4
330
2
100
AcDbDictionary
280
     1
281
     1
  3
ACAD_LAYERSTATES
360
3BB5
  0
DICTIONARY
  5
2932
330
10
100
AcDbDictionary
280
     1
281
     1
  3
ADSK_XREC_LAYER_RECONCILED
360
2933
  0
DICTIONARY
  5
81
330
1F
100
AcDbDictionary
280
     1
281
     1
  3
ACAD_SORTENTS
360
37E7
  0
DICTIONARY
  5
A516
102
{ACAD_REACTORS
330
C
102
}
330
C
100
AcDbDictionary
281
     1
  3
DIMJOGANG
350
A517
  3
DIMLTEX1
350
A519
  3
DIMLTEX2
350
A51A
  3
DIMLTYPE
350
A518
  0
DICTIONARY
  5
288D
102
{ACAD_REACTORS
330
C
102
}
330
C
100
AcDbDictionary
281
     1
  0
DICTIONARY
  5
D
102
{ACAD_REACTORS
330
C
102
}
330
C
100
AcDbDictionary
281
     1
  0
DICTIONARY
  5
1A
102
{ACAD_REACTORS
330
C
102
}
330
C
100
AcDbDictionary
281
     1
  3
Layout1
350
1E
  3
Layout2
350
26
  3
Model
350
22
  0
DICTIONARY
  5
2863
102
{ACAD_REACTORS
330
C
102
}
330
C
100
AcDbDictionary
281
     1
  3
ByBlock
350
286C
  3
ByLayer
350
2864
  3
Global
350
2874
  0
DICTIONARY
  5
28A2
102
{ACAD_REACTORS
330
C
102
}
330
C
100
AcDbDictionary
281
     1
  3
Standard
350
28A3
  0
DICTIONARY
  5
17
102
{ACAD_REACTORS
330
C
102
}
330
C
100
AcDbDictionary
281
     1
  3
Standard
350
18
  0
DICTIONARY
  5
19
102
{ACAD_REACTORS
330
C
102
}
330
C
100
AcDbDictionary
281
     1
  0
ACDBDICTIONARYWDFLT
  5
E
102
{ACAD_REACTORS
330
C
102
}
330
C
100
AcDbDictionary
281
     1
  3
Normal
350
F
100
AcDbDictionaryWithDefault
340
F
  0
DICTIONARY
  5
2890
102
{ACAD_REACTORS
330
C
102
}
330
C
100
AcDbDictionary
281
     1
  3
A0
350
2891
  3
A1
350
2892
  3
A2
350
2893
  3
A3
350
2894
  3
A4
350
2895
  3
A5
350
2896
  3
A6
350
2897
  3
A7
350
2898
  3
A8
350
2899
  3
A9
350
289A
  3
B0
350
289B
  3
B1
350
289C
  3
B2
350
289D
  3
B3
350
289E
  3
B4
350
289F
  3
B5
350
28A0
  3
B6
350
28A1
  0
DICTIONARY
  5
288E
102
{ACAD_REACTORS
330
C
102
}
330
C
100
AcDbDictionary
281
     1
  3
Standard
350
288F
  0
DICTIONARY
  5
287C
102
{ACAD_REACTORS
330
C
102
}
330
C
100
AcDbDictionary
281
     1
  3
2dWireframe
350
2882
  3
3D Hidden
350
2884
  3
3dWireframe
350
2883
  3
Basic
350
2881
  3
Brighten
350
2888
  3
ColorChange
350
288C
  3
Conceptual
350
2885
  3
Dim
350
2887
  3
EdgeColorOff
350
3B4B
  3
Facepattern
350
288B
  3
Flat
350
287D
  3
FlatWithEdges
350
287E
  3
Gouraud
350
287F
  3
GouraudWithEdges
350
2880
  3
Hidden
350
3B43
  3
JitterOff
350
3B49
  3
Linepattern
350
288A
  3
OverhangOff
350
3B4A
  3
Realistic
350
2886
  3
Shaded
350
3B48
  3
Shaded with edges
350
3B47
  3
Shades of Gray
350
3B44
  3
Sketchy
350
3B45
  3
Thicken
350
2889
  3
Wireframe
350
3B42
  3
X-Ray
350
3B46
  0
XRECORD
  5
A515
102
{ACAD_REACTORS
330
C
102
}
330
C
100
AcDbXrecord
280
     1
 90
        1
330
288F
  0
DICTIONARY
  5
86
102
{ACAD_REACTORS
330
C
102
}
330
C
100
AcDbDictionary
281
     1
  3
CANNOSCALE
350
2941
  3
CMLEADERSTYLE
350
2940
  3
CTABLESTYLE
350
293F
  3
DIMASSOC
350
89
  3
HIDETEXT
350
88
  3
INDEXCTL
350
87
  3
LAYEREVAL
350
3795
  3
LAYERNOTIFY
350
3796
  3
LIGHTINGUNITS
350
3794
  3
MSLTSCALE
350
3793
  0
DICTIONARY
  5
45
102
{ACAD_REACTORS
330
C
102
}
330
C
100
AcDbDictionary
281
     1
  3
AcmStdDictionary
350
4A
  3
AMDTSECTSYM_ARROWCOLOR
350
28FB
  0
DICTIONARY
  5
3CD0
102
{ACAD_REACTORS
330
C
102
}
330
C
100
AcDbDictionary
281
     1
  0
DICTIONARY
  5
41
102
{ACAD_REACTORS
330
C
102
}
330
C
100
AcDbDictionary
281
     1
  0
DICTIONARY
  5
332
102
{ACAD_REACTORS
330
C
102
}
330
C
100
AcDbDictionary
281
     1
  0
DICTIONARY
  5
378B
102
{ACAD_REACTORS
330
C
102
}
330
C
100
AcDbDictionary
281
     1
  3
ASEBlockHierarchyIndexRecord
350
378C
1001
DCO15
1040
1695625580.312
  0
DICTIONARY
  5
3BB5
102
{ACAD_REACTORS
330
3BB4
102
}
330
3BB4
100
AcDbDictionary
281
     1
  0
XRECORD
  5
2933
102
{ACAD_REACTORS
330
2932
102
}
330
2932
100
AcDbXrecord
280
     1
290
     1
  0
SORTENTSTABLE
  5
37E7
102
{ACAD_REACTORS
330
81
102
}
330
81
100
AcDbSortentsTable
330
1F
331
9C81
  5
9C97
331
97C3
  5
97F9
331
9C61
  5
9C7E
331
9CA8
  5
9CB4
331
9497
  5
964F
331
9493
  5
962E
331
A26F
  5
A274
331
9C5D
  5
9C78
331
9C9C
  5
9CAA
331
A267
  5
A269
331
9C4D
  5
9C5F
331
93D3
  5
9497
331
9C94
  5
93D1
331
9C90
  5
9C9C
331
A23F
  5
A240
331
9B5A
  5
9BC9
331
9C80
  5
9C95
331
9CC7
  5
9C59
331
9C7C
  5
9C93
331
A282
  5
A284
331
9C78
  5
9C8F
331
9C60
  5
9C7C
331
A272
  5
A275
331
97AE
  5
97E1
331
9496
  5
962F
331
9CA7
  5
9C74
331
A26E
  5
A272
331
9C5C
  5
9C77
331
A26A
  5
A26D
331
9C9B
  5
9CA9
331
A266
  5
A267
331
9C97
  5
9CA6
331
9C34
  5
9C5C
331
9C93
  5
9481
331
9C8F
  5
9C9B
331
9B64
  5
9BCD
331
9B59
  5
9BC8
331
9C7F
  5
9C81
331
A281
  5
A283
331
9B51
  5
9B63
331
9C77
  5
9C8E
331
9CBE
  5
9CC3
331
9C73
  5
9C7F
331
A275
  5
A281
331
9C5F
  5
9C7B
331
9CA6
  5
9C76
331
A26D
  5
A26F
331
9C5B
  5
9B64
331
A269
  5
A26B
331
9C9A
  5
9CA8
331
93D1
  5
9480
331
93CD
  5
93CD
331
93C9
  5
93C9
331
9C92
  5
93D3
331
9C8E
  5
9C9A
331
A241
  5
A241
331
9C8A
  5
9C99
331
9B63
  5
9BCC
331
A23D
  5
A23F
331
9B5C
  5
9BCA
331
A294
  5
A294
331
9C7E
  5
9C94
331
A284
  5
A268
331
9C76
  5
9C8A
331
A278
  5
A282
331
A274
  5
A278
331
9CA5
  5
9CB3
331
9C5E
  5
9C7A
331
A26C
  5
A26E
331
9C4E
  5
9C60
331
A268
  5
A26A
331
9C99
  5
9CA7
331
A264
  5
A266
331
9C95
  5
9CA5
331
9C91
  5
9494
331
9B62
  5
9BCB
  0
XRECORD
  5
A517
102
{ACAD_REACTORS
330
A516
102
}
330
A516
100
AcDbXrecord
280
     1
 40
1.570796326794896
  0
XRECORD
  5
A519
102
{ACAD_REACTORS
330
A516
102
}
330
A516
100
AcDbXrecord
280
     1
340
14
  0
XRECORD
  5
A51A
102
{ACAD_REACTORS
330
A516
102
}
330
A516
100
AcDbXrecord
280
     1
340
14
  0
XRECORD
  5
A518
102
{ACAD_REACTORS
330
A516
102
}
330
A516
100
AcDbXrecord
280
     1
340
14
  0
LAYOUT
  5
1E
102
{ACAD_REACTORS
330
1A
102
}
330
1A
100
AcDbPlotSettings
  1

  2
Epson Stylus COLOR 440 ESC/P 2
  4

  6

 40
0.0
 41
0.0
 42
0.0
 43
0.0
 44
0.0
 45
0.0
 46
0.0
 47
0.0
 48
0.0
 49
0.0
140
0.0
141
0.0
142
1.0
143
1.0
 70
   688
 72
     0
 73
     0
 74
     5
  7

 75
    16
147
1.0
 76
     0
 77
     2
 78
   300
148
0.0
149
0.0
100
AcDbLayout
  1
Layout1
 70
     1
 71
     1
 10
0.0
 20
0.0
 11
420.0
 21
297.0
 12
0.0
 22
0.0
 32
0.0
 14
1.000000000000000E+20
 24
1.000000000000000E+20
 34
1.000000000000000E+20
 15
-1.000000000000000E+20
 25
-1.000000000000000E+20
 35
-1.000000000000000E+20
146
0.0
 13
0.0
 23
0.0
 33
0.0
 16
1.0
 26
0.0
 36
0.0
 17
0.0
 27
1.0
 37
0.0
 76
     0
330
1B
  0
LAYOUT
  5
26
102
{ACAD_REACTORS
330
1A
102
}
330
1A
100
AcDbPlotSettings
  1

  2
Epson Stylus COLOR 440 ESC/P 2
  4

  6

 40
0.0
 41
0.0
 42
0.0
 43
0.0
 44
0.0
 45
0.0
 46
0.0
 47
0.0
 48
0.0
 49
0.0
140
0.0
141
0.0
142
1.0
143
1.0
 70
   688
 72
     0
 73
     0
 74
     5
  7

 75
    16
147
1.0
 76
     0
 77
     2
 78
   300
148
0.0
149
0.0
100
AcDbLayout
  1
Layout2
 70
     1
 71
     2
 10
0.0
 20
0.0
 11
12.0
 21
9.0
 12
0.0
 22
0.0
 32
0.0
 14
0.0
 24
0.0
 34
0.0
 15
0.0
 25
0.0
 35
0.0
146
0.0
 13
0.0
 23
0.0
 33
0.0
 16
1.0
 26
0.0
 36
0.0
 17
0.0
 27
1.0
 37
0.0
 76
     0
330
23
  0
LAYOUT
  5
22
102
{ACAD_XDICTIONARY
360
3BBA
102
}
102
{ACAD_REACTORS
330
1A
102
}
330
1A
100
AcDbPlotSettings
  1

  2
Epson Stylus COLOR 440 ESC/P 2
  4

  6

 40
0.0
 41
0.0
 42
0.0
 43
0.0
 44
0.0
 45
0.0
 46
0.0
 47
0.0
 48
0.0
 49
0.0
140
0.0
141
0.0
142
1.0
143
1.0
 70
  1712
 72
     0
 73
     0
 74
     0
  7

 75
     0
147
1.0
 76
     0
 77
     2
 78
   300
148
0.0
149
0.0
100
AcDbLayout
  1
Model
 70
     1
 71
     0
 10
0.0
 20
0.0
 11
12.0
 21
9.0
 12
0.0
 22
0.0
 32
0.0
 14
0.0
 24
0.0
 34
0.0
 15
0.0
 25
0.0
 35
0.0
146
0.0
 13
0.0
 23
0.0
 33
0.0
 16
1.0
 26
0.0
 36
0.0
 17
0.0
 27
1.0
 37
0.0
 76
     0
330
1F
331
2861
  0
MATERIAL
  5
286C
102
{ACAD_XDICTIONARY
360
286D
102
}
102
{ACAD_REACTORS
330
2863
102
}
330
2863
100
AcDbMaterial
  1
ByBlock
 72
     0
 43
0.0008202099737533
 43
0.0
 43
0.0
 43
0.0
 43
0.0
 43
0.0008202099737533
 43
0.0
 43
0.0
 43
0.0
 43
0.0
 43
1.0
 43
0.0
 43
0.0
 43
0.0
 43
0.0
 43
1.0
 77
     0
 47
0.0008202099737533
 47
0.0
 47
0.0
 47
0.0
 47
0.0
 47
0.0008202099737533
 47
0.0
 47
0.0
 47
0.0
 47
0.0
 47
1.0
 47
0.0
 47
0.0
 47
0.0
 47
0.0
 47
1.0
171
     0
 49
0.0008202099737533
 49
0.0
 49
0.0
 49
0.0
 49
0.0
 49
0.0008202099737533
 49
0.0
 49
0.0
 49
0.0
 49
0.0
 49
1.0
 49
0.0
 49
0.0
 49
0.0
 49
0.0
 49
1.0
175
     0
142
0.0008202099737533
142
0.0
142
0.0
142
0.0
142
0.0
142
0.0008202099737533
142
0.0
142
0.0
142
0.0
142
0.0
142
1.0
142
0.0
142
0.0
142
0.0
142
0.0
142
1.0
179
     0
144
0.0008202099737533
144
0.0
144
0.0
144
0.0
144
0.0
144
0.0008202099737533
144
0.0
144
0.0
144
0.0
144
0.0
144
1.0
144
0.0
144
0.0
144
0.0
144
0.0
144
1.0
147
0.0008202099737533
147
0.0
147
0.0
147
0.0
147
0.0
147
0.0008202099737533
147
0.0
147
0.0
147
0.0
147
0.0
147
1.0
147
0.0
147
0.0
147
0.0
147
0.0
147
1.0
  0
MATERIAL
  5
2864
102
{ACAD_XDICTIONARY
360
2865
102
}
102
{ACAD_REACTORS
330
2863
102
}
330
2863
100
AcDbMaterial
  1
ByLayer
 72
     0
 43
0.0008202099737533
 43
0.0
 43
0.0
 43
0.0
 43
0.0
 43
0.0008202099737533
 43
0.0
 43
0.0
 43
0.0
 43
0.0
 43
1.0
 43
0.0
 43
0.0
 43
0.0
 43
0.0
 43
1.0
 77
     0
 47
0.0008202099737533
 47
0.0
 47
0.0
 47
0.0
 47
0.0
 47
0.0008202099737533
 47
0.0
 47
0.0
 47
0.0
 47
0.0
 47
1.0
 47
0.0
 47
0.0
 47
0.0
 47
0.0
 47
1.0
171
     0
 49
0.0008202099737533
 49
0.0
 49
0.0
 49
0.0
 49
0.0
 49
0.0008202099737533
 49
0.0
 49
0.0
 49
0.0
 49
0.0
 49
1.0
 49
0.0
 49
0.0
 49
0.0
 49
0.0
 49
1.0
175
     0
142
0.0008202099737533
142
0.0
142
0.0
142
0.0
142
0.0
142
0.0008202099737533
142
0.0
142
0.0
142
0.0
142
0.0
142
1.0
142
0.0
142
0.0
142
0.0
142
0.0
142
1.0
179
     0
144
0.0008202099737533
144
0.0
144
0.0
144
0.0
144
0.0
144
0.0008202099737533
144
0.0
144
0.0
144
0.0
144
0.0
144
1.0
144
0.0
144
0.0
144
0.0
144
0.0
144
1.0
147
0.0008202099737533
147
0.0
147
0.0
147
0.0
147
0.0
147
0.0008202099737533
147
0.0
147
0.0
147
0.0
147
0.0
147
1.0
147
0.0
147
0.0
147
0.0
147
0.0
147
1.0
  0
MATERIAL
  5
2874
102
{ACAD_XDICTIONARY
360
2875
102
}
102
{ACAD_REACTORS
330
2863
102
}
330
2863
100
AcDbMaterial
  1
Global
 72
     0
 43
0.0008202099737533
 43
0.0
 43
0.0
 43
0.0
 43
0.0
 43
0.0008202099737533
 43
0.0
 43
0.0
 43
0.0
 43
0.0
 43
1.0
 43
0.0
 43
0.0
 43
0.0
 43
0.0
 43
1.0
 77
     0
 47
0.0008202099737533
 47
0.0
 47
0.0
 47
0.0
 47
0.0
 47
0.0008202099737533
 47
0.0
 47
0.0
 47
0.0
 47
0.0
 47
1.0
 47
0.0
 47
0.0
 47
0.0
 47
0.0
 47
1.0
171
     0
 49
0.0008202099737533
 49
0.0
 49
0.0
 49
0.0
 49
0.0
 49
0.0008202099737533
 49
0.0
 49
0.0
 49
0.0
 49
0.0
 49
1.0
 49
0.0
 49
0.0
 49
0.0
 49
0.0
 49
1.0
175
     0
142
0.0008202099737533
142
0.0
142
0.0
142
0.0
142
0.0
142
0.0008202099737533
142
0.0
142
0.0
142
0.0
142
0.0
142
1.0
142
0.0
142
0.0
142
0.0
142
0.0
142
1.0
179
     0
144
0.0008202099737533
144
0.0
144
0.0
144
0.0
144
0.0
144
0.0008202099737533
144
0.0
144
0.0
144
0.0
144
0.0
144
1.0
144
0.0
144
0.0
144
0.0
144
0.0
144
1.0
147
0.0008202099737533
147
0.0
147
0.0
147
0.0
147
0.0
147
0.0008202099737533
147
0.0
147
0.0
147
0.0
147
0.0
147
1.0
147
0.0
147
0.0
147
0.0
147
0.0
147
1.0
  0
MLEADERSTYLE
  5
28A3
102
{ACAD_REACTORS
330
28A2
102
}
330
28A2
100
AcDbMLeaderStyle
170
     2
171
     1
172
     0
 90
        2
 40
0.0
 41
0.0
173
     1
 91
-1056964608
340
14
 92
       -2
290
     1
 42
2.0
291
     1
 43
0.36
  3
Standard
 44
4.0
300

342
11
174
     1
178
     6
175
     1
176
     0
 93
-1056964608
 45
4.0
292
     0
297
     0
 46
4.0
 94
-1056964608
 47
1.0
 49
1.0
140
1.0
293
     1
141
0.0
294
     1
177
     0
142
1.0
295
     0
296
     0
143
0.125
1001
ACAD_MLEADERVER
1070
     2
  0
MLINESTYLE
  5
18
102
{ACAD_REACTORS
330
17
102
}
330
17
100
AcDbMlineStyle
  2
STANDARD
 70
     0
  3

 62
   256
 51
90.0
 52
90.0
 71
     2
 49
0.5
 62
   256
  6
BYLAYER
 49
-0.5
 62
   256
  6
BYLAYER
  0
ACDBPLACEHOLDER
  5
F
102
{ACAD_REACTORS
330
E
102
}
330
E
  0
SCALE
  5
2891
102
{ACAD_REACTORS
330
2890
102
}
330
2890
100
AcDbScale
 70
     0
300
1:1
140
1.0
141
1.0
290
     1
  0
SCALE
  5
2892
102
{ACAD_REACTORS
330
2890
102
}
330
2890
100
AcDbScale
 70
     0
300
1:2
140
1.0
141
2.0
290
     0
  0
SCALE
  5
2893
102
{ACAD_REACTORS
330
2890
102
}
330
2890
100
AcDbScale
 70
     0
300
1:4
140
1.0
141
4.0
290
     0
  0
SCALE
  5
2894
102
{ACAD_REACTORS
330
2890
102
}
330
2890
100
AcDbScale
 70
     0
300
1:5
140
1.0
141
5.0
290
     0
  0
SCALE
  5
2895
102
{ACAD_REACTORS
330
2890
102
}
330
2890
100
AcDbScale
 70
     0
300
1:8
140
1.0
141
8.0
290
     0
  0
SCALE
  5
2896
102
{ACAD_REACTORS
330
2890
102
}
330
2890
100
AcDbScale
 70
     0
300
1:10
140
1.0
141
10.0
290
     0
  0
SCALE
  5
2897
102
{ACAD_REACTORS
330
2890
102
}
330
2890
100
AcDbScale
 70
     0
300
1:16
140
1.0
141
16.0
290
     0
  0
SCALE
  5
2898
102
{ACAD_REACTORS
330
2890
102
}
330
2890
100
AcDbScale
 70
     0
300
1:20
140
1.0
141
20.0
290
     0
  0
SCALE
  5
2899
102
{ACAD_REACTORS
330
2890
102
}
330
2890
100
AcDbScale
 70
     0
300
1:30
140
1.0
141
30.0
290
     0
  0
SCALE
  5
289A
102
{ACAD_REACTORS
330
2890
102
}
330
2890
100
AcDbScale
 70
     0
300
1:40
140
1.0
141
40.0
290
     0
  0
SCALE
  5
289B
102
{ACAD_REACTORS
330
2890
102
}
330
2890
100
AcDbScale
 70
     0
300
1:50
140
1.0
141
50.0
290
     0
  0
SCALE
  5
289C
102
{ACAD_REACTORS
330
2890
102
}
330
2890
100
AcDbScale
 70
     0
300
1:100
140
1.0
141
100.0
290
     0
  0
SCALE
  5
289D
102
{ACAD_REACTORS
330
2890
102
}
330
2890
100
AcDbScale
 70
     0
300
2:1
140
2.0
141
1.0
290
     0
  0
SCALE
  5
289E
102
{ACAD_REACTORS
330
2890
102
}
330
2890
100
AcDbScale
 70
     0
300
4:1
140
4.0
141
1.0
290
     0
  0
SCALE
  5
289F
102
{ACAD_REACTORS
330
2890
102
}
330
2890
100
AcDbScale
 70
     0
300
8:1
140
8.0
141
1.0
290
     0
  0
SCALE
  5
28A0
102
{ACAD_REACTORS
330
2890
102
}
330
2890
100
AcDbScale
 70
     0
300
10:1
140
10.0
141
1.0
290
     0
  0
SCALE
  5
28A1
102
{ACAD_REACTORS
330
2890
102
}
330
2890
100
AcDbScale
 70
     0
300
100:1
140
100.0
141
1.0
290
     0
  0
TABLESTYLE
  5
288F
102
{ACAD_XDICTIONARY
360
2936
102
}
102
{ACAD_REACTORS
330
288E
102
}
330
288E
100
AcDbTableStyle
  3
Standard
 70
     0
 71
     0
 40
1.5
 41
1.5
280
     0
281
     0
  7
STANDARD
140
4.5
170
     2
 62
     0
 63
     7
283
     0
274
    -2
284
     1
 64
     0
275
    -2
285
     1
 65
     0
276
    -2
286
     1
 66
     0
277
    -2
287
     1
 67
     0
278
    -2
288
     1
 68
     0
279
    -2
289
     1
 69
     0
  7
STANDARD
140
6.0
170
     5
 62
     0
 63
     7
283
     0
274
    -2
284
     1
 64
     0
275
    -2
285
     1
 65
     0
276
    -2
286
     1
 66
     0
277
    -2
287
     1
 67
     0
278
    -2
288
     1
 68
     0
279
    -2
289
     1
 69
     0
  7
STANDARD
140
4.5
170
     5
 62
     0
 63
     7
283
     0
274
    -2
284
     1
 64
     0
275
    -2
285
     1
 65
     0
276
    -2
286
     1
 66
     0
277
    -2
287
     1
 67
     0
278
    -2
288
     1
 68
     0
279
    -2
289
     1
 69
     0
  0
VISUALSTYLE
  5
2882
102
{ACAD_XDICTIONARY
360
A528
102
}
102
{ACAD_REACTORS
330
287C
102
}
330
287C
100
AcDbVisualStyle
  2
2dWireframe
 70
     4
 71
     0
 72
     2
 73
     0
 90
        0
 40
-0.6
 41
-30.0
 62
     5
 63
     7
421
 16777215
 74
     1
 91
        4
 64
     7
 65
   257
 75
     1
175
     1
 42
1.0
 92
        0
 66
   257
 43
1.0
 76
     1
 77
     6
 78
     2
 67
     7
 79
     5
170
     0
171
     0
290
     0
174
     0
 93
        1
 44
0.0
173
     0
291
     0
 45
0.0
1001
ACAD
1000
AcDbSavedByObjectVersion
1070
     0
  0
VISUALSTYLE
  5
2884
102
{ACAD_XDICTIONARY
360
A52C
102
}
102
{ACAD_REACTORS
330
287C
102
}
330
287C
100
AcDbVisualStyle
  2
3D Hidden
 70
     6
 71
     1
 72
     2
 73
     2
 90
        0
 40
-0.6
 41
-30.0
 62
     5
 63
     7
421
 16777215
 74
     2
 91
        2
 64
     7
 65
   257
 75
     2
175
     1
 42
40.0
 92
        0
 66
   257
 43
1.0
 76
     1
 77
     6
 78
     2
 67
     7
 79
     3
170
     0
171
     0
290
     0
174
     0
 93
        1
 44
0.0
173
     0
291
     0
 45
0.0
1001
ACAD
1000
AcDbSavedByObjectVersion
1070
     0
  0
VISUALSTYLE
  5
2883
102
{ACAD_XDICTIONARY
360
A52A
102
}
102
{ACAD_REACTORS
330
287C
102
}
330
287C
100
AcDbVisualStyle
  2
3dWireframe
 70
     5
 71
     0
 72
     2
 73
     0
 90
        0
 40
-0.6
 41
-30.0
 62
     5
 63
     7
421
 16777215
 74
     1
 91
        4
 64
     7
 65
   257
 75
     1
175
     1
 42
1.0
 92
        0
 66
   257
 43
1.0
 76
     1
 77
     6
 78
     2
 67
     7
 79
     5
170
     0
171
     0
290
     0
174
     0
 93
        1
 44
0.0
173
     0
291
     0
 45
0.0
1001
ACAD
1000
AcDbSavedByObjectVersion
1070
     0
  0
VISUALSTYLE
  5
2881
102
{ACAD_XDICTIONARY
360
A526
102
}
102
{ACAD_REACTORS
330
287C
102
}
330
287C
100
AcDbVisualStyle
  2
Basic
 70
     7
 71
     1
 72
     0
 73
     1
 90
        0
 40
-0.6
 41
-30.0
 62
     5
 63
     7
421
 16777215
 74
     0
 91
        4
 64
     7
 65
   257
 75
     1
175
     1
 42
1.0
 92
        8
 66
     7
 43
1.0
 76
     1
 77
     6
 78
     2
 67
     7
 79
     5
170
     0
171
     0
290
     0
174
     0
 93
        1
 44
0.0
173
     0
291
     1
 45
0.0
1001
ACAD
1000
AcDbSavedByObjectVersion
1070
     0
  0
VISUALSTYLE
  5
2888
102
{ACAD_XDICTIONARY
360
A534
102
}
102
{ACAD_REACTORS
330
287C
102
}
330
287C
100
AcDbVisualStyle
  2
Brighten
 70
    12
 71
     2
 72
     2
 73
     0
 90
        0
 40
-0.6
 41
-30.0
 62
     5
 63
     7
421
 16777215
 74
     1
 91
        4
 64
     7
 65
   257
 75
     1
175
     1
 42
1.0
 92
        8
 66
     7
 43
1.0
 76
     1
 77
     6
 78
     2
 67
     7
 79
     5
170
     0
171
     0
290
     0
174
     0
 93
        1
 44
50.0
173
     0
291
     1
 45
0.0
1001
ACAD
1000
AcDbSavedByObjectVersion
1070
     0
  0
VISUALSTYLE
  5
288C
102
{ACAD_XDICTIONARY
360
A53C
102
}
102
{ACAD_REACTORS
330
287C
102
}
330
287C
100
AcDbVisualStyle
  2
ColorChange
 70
    16
 71
     2
 72
     2
 73
     3
 90
        0
 40
-0.6
 41
-30.0
 62
     5
 63
     8
421
  8421504
 74
     1
 91
        4
 64
     7
 65
   257
 75
     1
175
     1
 42
1.0
 92
        8
 66
     8
424
  8421504
 43
1.0
 76
     1
 77
     6
 78
     2
 67
     7
 79
     5
170
     0
171
     0
290
     0
174
     0
 93
        1
 44
0.0
173
     0
291
     1
 45
0.0
1001
ACAD
1000
AcDbSavedByObjectVersion
1070
     0
  0
VISUALSTYLE
  5
2885
102
{ACAD_XDICTIONARY
360
A52E
102
}
102
{ACAD_REACTORS
330
287C
102
}
330
287C
100
AcDbVisualStyle
  2
Conceptual
 70
     9
 71
     3
 72
     2
 73
     0
 90
        0
 40
-0.6
 41
-30.0
 62
     5
 63
     7
421
 16777215
 74
     2
 91
        2
 64
     7
 65
   257
 75
     1
175
     1
 42
40.0
 92
        8
 66
     7
 43
1.0
 76
     1
 77
     6
 78
     2
 67
     7
 79
     3
170
     0
171
     0
290
     0
174
     0
 93
        1
 44
0.0
173
     0
291
     0
 45
0.0
1001
ACAD
1000
AcDbSavedByObjectVersion
1070
     0
  0
VISUALSTYLE
  5
2887
102
{ACAD_XDICTIONARY
360
A532
102
}
102
{ACAD_REACTORS
330
287C
102
}
330
287C
100
AcDbVisualStyle
  2
Dim
 70
    11
 71
     2
 72
     2
 73
     0
 90
        0
 40
-0.6
 41
-30.0
 62
     5
 63
     7
421
 16777215
 74
     1
 91
        4
 64
     7
 65
   257
 75
     1
175
     1
 42
1.0
 92
        8
 66
     7
 43
1.0
 76
     1
 77
     6
 78
     2
 67
     7
 79
     5
170
     0
171
     0
290
     0
174
     0
 93
        1
 44
-50.0
173
     0
291
     1
 45
0.0
1001
ACAD
1000
AcDbSavedByObjectVersion
1070
     0
  0
VISUALSTYLE
  5
3B4B
102
{ACAD_XDICTIONARY
360
A551
102
}
102
{ACAD_REACTORS
330
287C
102
}
330
287C
100
AcDbVisualStyle
  2
EdgeColorOff
 70
    22
 71
     2
 72
     2
 73
     0
 90
        0
 40
-0.6
 41
-30.0
 62
     5
 63
     7
421
 16777215
 74
     1
 91
        4
 64
     7
 65
   257
 75
     1
175
     1
 42
1.0
 92
        8
 66
     7
 43
1.0
 76
     1
 77
     6
 78
     2
 67
     7
 79
     5
170
     0
171
     0
290
     0
174
     0
 93
        1
 44
0.0
173
     0
291
     1
 45
0.0
1001
ACAD
1000
AcDbSavedByObjectVersion
1070
     0
  0
VISUALSTYLE
  5
288B
102
{ACAD_XDICTIONARY
360
A53A
102
}
102
{ACAD_REACTORS
330
287C
102
}
330
287C
100
AcDbVisualStyle
  2
Facepattern
 70
    15
 71
     2
 72
     2
 73
     0
 90
        0
 40
-0.6
 41
-30.0
 62
     5
 63
     7
421
 16777215
 74
     1
 91
        4
 64
     7
 65
   257
 75
     1
175
     1
 42
1.0
 92
        8
 66
     7
 43
1.0
 76
     1
 77
     6
 78
     2
 67
     7
 79
     5
170
     0
171
     0
290
     0
174
     0
 93
        1
 44
0.0
173
     0
291
     1
 45
0.0
1001
ACAD
1000
AcDbSavedByObjectVersion
1070
     0
  0
VISUALSTYLE
  5
287D
102
{ACAD_XDICTIONARY
360
A51E
102
}
102
{ACAD_REACTORS
330
287C
102
}
330
287C
100
AcDbVisualStyle
  2
Flat
 70
     0
 71
     2
 72
     1
 73
     1
 90
        2
 40
-0.6
 41
30.0
 62
     5
 63
     7
421
 16777215
 74
     0
 91
        4
 64
     7
 65
   257
 75
     1
175
     1
 42
1.0
 92
        8
 66
     7
 43
1.0
 76
     1
 77
     6
 78
     2
 67
     7
 79
     5
170
     0
171
     0
290
     0
174
     0
 93
       13
 44
0.0
173
     0
291
     1
 45
0.0
1001
ACAD
1000
AcDbSavedByObjectVersion
1070
     0
  0
VISUALSTYLE
  5
287E
102
{ACAD_XDICTIONARY
360
A520
102
}
102
{ACAD_REACTORS
330
287C
102
}
330
287C
100
AcDbVisualStyle
  2
FlatWithEdges
 70
     1
 71
     2
 72
     1
 73
     1
 90
        2
 40
-0.6
 41
30.0
 62
     5
 63
     7
421
 16777215
 74
     1
 91
        4
 64
     7
 65
   257
 75
     1
175
     1
 42
1.0
 92
        0
 66
   257
 43
1.0
 76
     1
 77
     6
 78
     2
 67
     7
 79
     5
170
     0
171
     0
290
     0
174
     0
 93
       13
 44
0.0
173
     0
291
     1
 45
0.0
1001
ACAD
1000
AcDbSavedByObjectVersion
1070
     0
  0
VISUALSTYLE
  5
287F
102
{ACAD_XDICTIONARY
360
A522
102
}
102
{ACAD_REACTORS
330
287C
102
}
330
287C
100
AcDbVisualStyle
  2
Gouraud
 70
     2
 71
     2
 72
     2
 73
     1
 90
        2
 40
-0.6
 41
30.0
 62
     5
 63
     7
421
 16777215
 74
     0
 91
        4
 64
     7
 65
   257
 75
     1
175
     1
 42
1.0
 92
        0
 66
     7
 43
1.0
 76
     1
 77
     6
 78
     2
 67
     7
 79
     5
170
     0
171
     0
290
     0
174
     0
 93
       13
 44
0.0
173
     0
291
     1
 45
0.0
1001
ACAD
1000
AcDbSavedByObjectVersion
1070
     0
  0
VISUALSTYLE
  5
2880
102
{ACAD_XDICTIONARY
360
A524
102
}
102
{ACAD_REACTORS
330
287C
102
}
330
287C
100
AcDbVisualStyle
  2
GouraudWithEdges
 70
     3
 71
     2
 72
     2
 73
     1
 90
        2
 40
-0.6
 41
30.0
 62
     5
 63
     7
421
 16777215
 74
     1
 91
        4
 64
     7
 65
   257
 75
     1
175
     1
 42
1.0
 92
        0
 66
   257
 43
1.0
 76
     1
 77
     6
 78
     2
 67
     7
 79
     5
170
     0
171
     0
290
     0
174
     0
 93
       13
 44
0.0
173
     0
291
     1
 45
0.0
1001
ACAD
1000
AcDbSavedByObjectVersion
1070
     0
  0
VISUALSTYLE
  5
3B43
102
{ACAD_XDICTIONARY
360
A541
102
}
102
{ACAD_REACTORS
330
287C
102
}
330
287C
100
AcDbVisualStyle
  2
Hidden
 70
     6
 71
     1
 72
     2
 73
     2
 90
        0
 40
-0.6
 41
-30.0
 62
     5
 63
     7
421
 16777215
 74
     2
 91
        2
 64
     7
 65
   257
 75
     2
175
     1
 42
40.0
 92
        0
 66
   257
 43
1.0
 76
     1
 77
     6
 78
     2
 67
     7
 79
     3
170
     0
171
     0
290
     0
174
     0
 93
        1
 44
0.0
173
     0
291
     0
 45
0.0
1001
ACAD
1000
AcDbSavedByObjectVersion
1070
     0
  0
VISUALSTYLE
  5
3B49
102
{ACAD_XDICTIONARY
360
A54D
102
}
102
{ACAD_REACTORS
330
287C
102
}
330
287C
100
AcDbVisualStyle
  2
JitterOff
 70
    20
 71
     2
 72
     2
 73
     0
 90
        0
 40
-0.6
 41
-30.0
 62
     5
 63
     7
421
 16777215
 74
     1
 91
        4
 64
     7
 65
   257
 75
     1
175
     1
 42
1.0
 92
       10
 66
     7
 43
1.0
 76
     1
 77
     6
 78
     2
 67
     7
 79
     5
170
     0
171
     0
290
     0
174
     0
 93
        1
 44
0.0
173
     0
291
     1
 45
0.0
1001
ACAD
1000
AcDbSavedByObjectVersion
1070
     0
  0
VISUALSTYLE
  5
288A
102
{ACAD_XDICTIONARY
360
A538
102
}
102
{ACAD_REACTORS
330
287C
102
}
330
287C
100
AcDbVisualStyle
  2
Linepattern
 70
    14
 71
     2
 72
     2
 73
     0
 90
        0
 40
-0.6
 41
-30.0
 62
     5
 63
     7
421
 16777215
 74
     1
 91
        4
 64
     7
 65
   257
 75
     7
175
     7
 42
1.0
 92
        8
 66
     7
 43
1.0
 76
     1
 77
     6
 78
     2
 67
     7
 79
     5
170
     0
171
     0
290
     0
174
     0
 93
        1
 44
0.0
173
     0
291
     1
 45
0.0
1001
ACAD
1000
AcDbSavedByObjectVersion
1070
     0
  0
VISUALSTYLE
  5
3B4A
102
{ACAD_XDICTIONARY
360
A54F
102
}
102
{ACAD_REACTORS
330
287C
102
}
330
287C
100
AcDbVisualStyle
  2
OverhangOff
 70
    21
 71
     2
 72
     2
 73
     0
 90
        0
 40
-0.6
 41
-30.0
 62
     5
 63
     7
421
 16777215
 74
     1
 91
        4
 64
     7
 65
   257
 75
     1
175
     1
 42
1.0
 92
        9
 66
     7
 43
1.0
 76
     1
 77
     6
 78
     2
 67
     7
 79
     5
170
     0
171
     0
290
     0
174
     0
 93
        1
 44
0.0
173
     0
291
     1
 45
0.0
1001
ACAD
1000
AcDbSavedByObjectVersion
1070
     0
  0
VISUALSTYLE
  5
2886
102
{ACAD_XDICTIONARY
360
A530
102
}
102
{ACAD_REACTORS
330
287C
102
}
330
287C
100
AcDbVisualStyle
  2
Realistic
 70
     8
 71
     2
 72
     2
 73
     0
 90
        0
 40
-0.6
 41
-30.0
 62
     5
 63
     7
421
 16777215
 74
     1
 91
        0
 64
     7
 65
   257
 75
     1
175
     1
 42
1.0
 92
        8
 66
     8
424
  7895160
 43
1.0
 76
     1
 77
     6
 78
     2
 67
     7
 79
     5
170
     0
171
     0
290
     0
174
     0
 93
       13
 44
0.0
173
     0
291
     0
 45
0.0
1001
ACAD
1000
AcDbSavedByObjectVersion
1070
     0
  0
VISUALSTYLE
  5
3B48
102
{ACAD_XDICTIONARY
360
A54B
102
}
102
{ACAD_REACTORS
330
287C
102
}
330
287C
100
AcDbVisualStyle
  2
Shaded
 70
    27
 71
     2
 72
     2
 73
     1
 90
        2
 40
-0.6
 41
30.0
 62
     5
 63
     7
421
 16777215
 74
     0
 91
        4
 64
     7
 65
   257
 75
     1
175
     1
 42
1.0
 92
        8
 66
   257
 43
1.0
 76
     1
 77
     6
 78
     2
 67
     8
425
  7895160
 79
     3
170
     0
171
     0
290
     0
174
     0
 93
        5
 44
0.0
173
     0
291
     0
 45
0.0
1001
ACAD
1000
AcDbSavedByObjectVersion
1070
     0
  0
VISUALSTYLE
  5
3B47
102
{ACAD_XDICTIONARY
360
A549
102
}
102
{ACAD_REACTORS
330
287C
102
}
330
287C
100
AcDbVisualStyle
  2
Shaded with edges
 70
    26
 71
     2
 72
     2
 73
     1
 90
        2
 40
-0.6
 41
30.0
 62
     5
 63
     7
421
 16777215
 74
     1
 91
       10
 64
     7
 65
   257
 75
     2
175
     1
 42
1.0
 92
        8
 66
   257
 43
1.0
 76
     1
 77
     6
 78
     2
 67
     7
 79
     3
170
     0
171
     0
290
     0
174
     0
 93
        5
 44
0.0
173
     0
291
     0
 45
0.0
1001
ACAD
1000
AcDbSavedByObjectVersion
1070
     0
  0
VISUALSTYLE
  5
3B44
102
{ACAD_XDICTIONARY
360
A543
102
}
102
{ACAD_REACTORS
330
287C
102
}
330
287C
100
AcDbVisualStyle
  2
Shades of Gray
 70
    23
 71
     2
 72
     2
 73
     3
 90
        0
 40
-0.6
 41
-30.0
 62
     5
 63
     7
421
 16777215
 74
     2
 91
        2
 64
     7
 65
     7
 75
     1
175
     1
 42
40.0
 92
        8
 66
     7
 43
1.0
 76
     1
 77
     6
 78
     2
 67
     7
 79
     3
170
     0
171
     0
290
     0
174
     0
 93
        1
 44
0.0
173
     0
291
     0
 45
0.0
1001
ACAD
1000
AcDbSavedByObjectVersion
1070
     0
  0
VISUALSTYLE
  5
3B45
102
{ACAD_XDICTIONARY
360
A545
102
}
102
{ACAD_REACTORS
330
287C
102
}
330
287C
100
AcDbVisualStyle
  2
Sketchy
 70
    24
 71
     1
 72
     2
 73
     2
 90
        0
 40
-0.6
 41
-30.0
 62
     5
 63
     7
421
 16777215
 74
     2
 91
        2
 64
     7
 65
     7
 75
     1
175
     1
 42
40.0
 92
       11
 66
     7
 43
1.0
 76
     1
 77
     6
 78
     2
 67
     7
 79
     6
170
     0
171
     0
290
     0
174
     0
 93
        1
 44
0.0
173
     0
291
     0
 45
0.0
1001
ACAD
1000
AcDbSavedByObjectVersion
1070
     0
  0
VISUALSTYLE
  5
2889
102
{ACAD_XDICTIONARY
360
A536
102
}
102
{ACAD_REACTORS
330
287C
102
}
330
287C
100
AcDbVisualStyle
  2
Thicken
 70
    13
 71
     2
 72
     2
 73
     0
 90
        0
 40
-0.6
 41
-30.0
 62
     5
 63
     7
421
 16777215
 74
     1
 91
        4
 64
     7
 65
   257
 75
     1
175
     1
 42
1.0
 92
       12
 66
     7
 43
1.0
 76
     1
 77
     6
 78
     2
 67
     7
 79
     5
170
     0
171
     0
290
     0
174
     0
 93
        1
 44
0.0
173
     0
291
     1
 45
0.0
1001
ACAD
1000
AcDbSavedByObjectVersion
1070
     0
  0
VISUALSTYLE
  5
3B42
102
{ACAD_XDICTIONARY
360
A53F
102
}
102
{ACAD_REACTORS
330
287C
102
}
330
287C
100
AcDbVisualStyle
  2
Wireframe
 70
     5
 71
     0
 72
     2
 73
     0
 90
        0
 40
-0.6
 41
-30.0
 62
     5
 63
     7
421
 16777215
 74
     1
 91
        4
 64
     7
 65
   257
 75
     1
175
     1
 42
1.0
 92
        0
 66
   257
 43
1.0
 76
     1
 77
     6
 78
     2
 67
     7
 79
     3
170
     0
171
     0
290
     0
174
     0
 93
        1
 44
0.0
173
     0
291
     0
 45
0.0
1001
ACAD
1000
AcDbSavedByObjectVersion
1070
     0
  0
VISUALSTYLE
  5
3B46
102
{ACAD_XDICTIONARY
360
A547
102
}
102
{ACAD_REACTORS
330
287C
102
}
330
287C
100
AcDbVisualStyle
  2
X-Ray
 70
    25
 71
     2
 72
     2
 73
     1
 90
        1
 40
0.5
 41
-30.0
 62
     5
 63
     7
421
 16777215
 74
     1
 91
        0
 64
     7
 65
   257
 75
     1
175
     1
 42
1.0
 92
        8
 66
     7
 43
1.0
 76
     1
 77
     6
 78
     2
 67
     7
 79
     3
170
     0
171
     0
290
     0
174
     0
 93
       13
 44
0.0
173
     0
291
     0
 45
0.0
1001
ACAD
1000
AcDbSavedByObjectVersion
1070
     0
  0
DICTIONARYVAR
  5
2941
102
{ACAD_REACTORS
330
86
102
}
330
86
100
DictionaryVariables
280
     0
  1
1:1
  0
DICTIONARYVAR
  5
2940
102
{ACAD_REACTORS
330
86
102
}
330
86
100
DictionaryVariables
280
     0
  1
STANDARD
  0
DICTIONARYVAR
  5
293F
102
{ACAD_REACTORS
330
86
102
}
330
86
100
DictionaryVariables
280
     0
  1
STANDARD
  0
DICTIONARYVAR
  5
89
102
{ACAD_REACTORS
330
86
102
}
330
86
100
DictionaryVariables
280
     0
  1
2
  0
DICTIONARYVAR
  5
88
102
{ACAD_REACTORS
330
86
102
}
330
86
100
DictionaryVariables
280
     0
  1
1
  0
DICTIONARYVAR
  5
87
102
{ACAD_REACTORS
330
86
102
}
330
86
100
DictionaryVariables
280
     0
  1
1
  0
DICTIONARYVAR
  5
3795
102
{ACAD_REACTORS
330
86
102
}
330
86
100
DictionaryVariables
280
     0
  1
1
  0
DICTIONARYVAR
  5
3796
102
{ACAD_REACTORS
330
86
102
}
330
86
100
DictionaryVariables
280
     0
  1
15
  0
DICTIONARYVAR
  5
3794
102
{ACAD_REACTORS
330
86
102
}
330
86
100
DictionaryVariables
280
     0
  1
0
  0
DICTIONARYVAR
  5
3793
102
{ACAD_REACTORS
330
86
102
}
330
86
100
DictionaryVariables
280
     0
  1
0
  0
DICTIONARY
  5
4A
102
{ACAD_REACTORS
330
45
102
}
330
45
100
AcDbDictionary
281
     1
  0
XRECORD
  5
28FB
102
{ACAD_REACTORS
330
45
102
}
330
45
100
AcDbXrecord
280
     1
 90
-1023410169
  0
XRECORD
  5
378C
102
{ACAD_REACTORS
330
378B
102
}
330
378B
100
AcDbXrecord
280
     1
  0
DICTIONARY
  5
3BBA
330
22
100
AcDbDictionary
280
     1
281
     1
  3
ADSK_XREC_LAYOUTTHUMBNAIL
360
3BBB
  0
DICTIONARY
  5
286D
330
286C
100
AcDbDictionary
280
     1
281
     1
  3
ACAD_XREC_ROUNDTRIP
360
A51C
  3
BUMPTILE
360
286F
  3
DIFFUSETILE
360
286E
  3
OPACITYTILE
360
2872
  3
REFLECTIONTILE
360
2871
  3
REFRACTIONTILE
360
2873
  3
SPECULARTILE
360
2870
  0
DICTIONARY
  5
2865
330
2864
100
AcDbDictionary
280
     1
281
     1
  3
ACAD_XREC_ROUNDTRIP
360
A51B
  3
BUMPTILE
360
2867
  3
DIFFUSETILE
360
2866
  3
OPACITYTILE
360
286A
  3
REFLECTIONTILE
360
2869
  3
REFRACTIONTILE
360
286B
  3
SPECULARTILE
360
2868
  0
DICTIONARY
  5
2875
330
2874
100
AcDbDictionary
280
     1
281
     1
  3
ACAD_XREC_ROUNDTRIP
360
A51D
  3
BUMPTILE
360
2877
  3
DIFFUSETILE
360
2876
  3
OPACITYTILE
360
287A
  3
REFLECTIONTILE
360
2879
  3
REFRACTIONTILE
360
287B
  3
SPECULARTILE
360
2878
  0
DICTIONARY
  5
2936
330
288F
100
AcDbDictionary
280
     1
281
     1
  3
ACAD_ROUNDTRIP_2008_TABLESTYLE_CELLSTYLEMAP
360
A514
  3
ACAD_XREC_ROUNDTRIP
360
A53E
  0
DICTIONARY
  5
A528
330
2882
100
AcDbDictionary
280
     1
281
     1
  3
ACAD_XREC_ROUNDTRIP
360
A529
  0
DICTIONARY
  5
A52C
330
2884
100
AcDbDictionary
280
     1
281
     1
  3
ACAD_XREC_ROUNDTRIP
360
A52D
  0
DICTIONARY
  5
A52A
330
2883
100
AcDbDictionary
280
     1
281
     1
  3
ACAD_XREC_ROUNDTRIP
360
A52B
  0
DICTIONARY
  5
A526
330
2881
100
AcDbDictionary
280
     1
281
     1
  3
ACAD_XREC_ROUNDTRIP
360
A527
  0
DICTIONARY
  5
A534
330
2888
100
AcDbDictionary
280
     1
281
     1
  3
ACAD_XREC_ROUNDTRIP
360
A535
  0
DICTIONARY
  5
A53C
330
288C
100
AcDbDictionary
280
     1
281
     1
  3
ACAD_XREC_ROUNDTRIP
360
A53D
  0
DICTIONARY
  5
A52E
330
2885
100
AcDbDictionary
280
     1
281
     1
  3
ACAD_XREC_ROUNDTRIP
360
A52F
  0
DICTIONARY
  5
A532
330
2887
100
AcDbDictionary
280
     1
281
     1
  3
ACAD_XREC_ROUNDTRIP
360
A533
  0
DICTIONARY
  5
A551
330
3B4B
100
AcDbDictionary
280
     1
281
     1
  3
ACAD_XREC_ROUNDTRIP
360
A552
  0
DICTIONARY
  5
A53A
330
288B
100
AcDbDictionary
280
     1
281
     1
  3
ACAD_XREC_ROUNDTRIP
360
A53B
  0
DICTIONARY
  5
A51E
330
287D
100
AcDbDictionary
280
     1
281
     1
  3
ACAD_XREC_ROUNDTRIP
360
A51F
  0
DICTIONARY
  5
A520
330
287E
100
AcDbDictionary
280
     1
281
     1
  3
ACAD_XREC_ROUNDTRIP
360
A521
  0
DICTIONARY
  5
A522
330
287F
100
AcDbDictionary
280
     1
281
     1
  3
ACAD_XREC_ROUNDTRIP
360
A523
  0
DICTIONARY
  5
A524
330
2880
100
AcDbDictionary
280
     1
281
     1
  3
ACAD_XREC_ROUNDTRIP
360
A525
  0
DICTIONARY
  5
A541
330
3B43
100
AcDbDictionary
280
     1
281
     1
  3
ACAD_XREC_ROUNDTRIP
360
A542
  0
DICTIONARY
  5
A54D
330
3B49
100
AcDbDictionary
280
     1
281
     1
  3
ACAD_XREC_ROUNDTRIP
360
A54E
  0
DICTIONARY
  5
A538
330
288A
100
AcDbDictionary
280
     1
281
     1
  3
ACAD_XREC_ROUNDTRIP
360
A539
  0
DICTIONARY
  5
A54F
330
3B4A
100
AcDbDictionary
280
     1
281
     1
  3
ACAD_XREC_ROUNDTRIP
360
A550
  0
DICTIONARY
  5
A530
330
2886
100
AcDbDictionary
280
     1
281
     1
  3
ACAD_XREC_ROUNDTRIP
360
A531
  0
DICTIONARY
  5
A54B
330
3B48
100
AcDbDictionary
280
     1
281
     1
  3
ACAD_XREC_ROUNDTRIP
360
A54C
  0
DICTIONARY
  5
A549
330
3B47
100
AcDbDictionary
280
     1
281
     1
  3
ACAD_XREC_ROUNDTRIP
360
A54A
  0
DICTIONARY
  5
A543
330
3B44
100
AcDbDictionary
280
     1
281
     1
  3
ACAD_XREC_ROUNDTRIP
360
A544
  0
DICTIONARY
  5
A545
330
3B45
100
AcDbDictionary
280
     1
281
     1
  3
ACAD_XREC_ROUNDTRIP
360
A546
  0
DICTIONARY
  5
A536
330
2889
100
AcDbDictionary
280
     1
281
     1
  3
ACAD_XREC_ROUNDTRIP
360
A537
  0
DICTIONARY
  5
A53F
330
3B42
100
AcDbDictionary
280
     1
281
     1
  3
ACAD_XREC_ROUNDTRIP
360
A540
  0
DICTIONARY
  5
A547
330
3B46
100
AcDbDictionary
280
     1
281
     1
  3
ACAD_XREC_ROUNDTRIP
360
A548
  0
XRECORD
  5
3BBB
102
{ACAD_REACTORS
330
3BBA
102
}
330
3BBA
100
AcDbXrecord
280
     1
310
28000000000100007200000001000800000000000072000000000000000000000001000000000000FFFFFF0000000000FFFFFF000000000000000000000000000000000000000000000000000000000000000000330000006600000099000000CC000000FF00000000330000333300006633000099330000CC330000FF3300
310
0000660000336600006666000099660000CC660000FF66000000990000339900006699000099990000CC990000FF99000000CC000033CC000066CC000099CC0000CCCC0000FFCC000000FF000033FF000066FF000099FF0000CCFF0000FFFF000000003300330033006600330099003300CC003300FF003300003333003333
310
33006633330099333300CC333300FF33330000663300336633006666330099663300CC663300FF66330000993300339933006699330099993300CC993300FF99330000CC330033CC330066CC330099CC3300CCCC3300FFCC330000FF330033FF330066FF330099FF3300CCFF3300FFFF330000006600330066006600660099
310
006600CC006600FF00660000336600333366006633660099336600CC336600FF33660000666600336666006666660099666600CC666600FF66660000996600339966006699660099996600CC996600FF99660000CC660033CC660066CC660099CC6600CCCC6600FFCC660000FF660033FF660066FF660099FF6600CCFF6600
310
FFFF660000009900330099006600990099009900CC009900FF00990000339900333399006633990099339900CC339900FF33990000669900336699006666990099669900CC669900FF66990000999900339999006699990099999900CC999900FF99990000CC990033CC990066CC990099CC9900CCCC9900FFCC990000FF99
310
0033FF990066FF990099FF9900CCFF9900FFFF99000000CC003300CC006600CC009900CC00CC00CC00FF00CC000033CC003333CC006633CC009933CC00CC33CC00FF33CC000066CC003366CC006666CC009966CC00CC66CC00FF66CC000099CC003399CC006699CC009999CC00CC99CC00FF99CC0000CCCC0033CCCC0066CC
310
CC0099CCCC00CCCCCC00FFCCCC0000FFCC0033FFCC0066FFCC0099FFCC00CCFFCC00FFFFCC000000FF003300FF006600FF009900FF00CC00FF00FF00FF000033FF003333FF006633FF009933FF00CC33FF00FF33FF000066FF003366FF006666FF009966FF00CC66FF00FF66FF000099FF003399FF006699FF009999FF00CC
310
99FF00FF99FF0000CCFF0033CCFF0066CCFF0099CCFF00CCCCFF00FFCCFF0000FFFF0033FFFF0066FFFF0099FFFF00CCFFFF00FFFFFF00000000000D0D0D001A1A1A00282828003535350043434300505050005D5D5D006B6B6B00787878008686860093939300A1A1A100AEAEAE00BBBBBB00C9C9C900D6D6D600E4E4E400
310
F1F1F100FFFFFF000000000000000000000000000000000000000000000000000000000000000000000000000000000000000000000000000000000000000000000000000000000000000000000000000000000000000000000000000000000000000000000000000000000000000000000000000000000000000000000000
310
00000000000000000000000000000000000000000000000000000000000000000000000000000000000000000000000000000000000000000000000000000000000000000000000000000000000000000000000000000000000000000000000000000000000000000000000000000000000000000000000000000000000000
310
00000000000000000000000000000000000000000000000000000000000000000000000000000000000000000000000000000000000000000000000000000000000000000000000000000000000000000000000000000000000000000000000000000000000000000000000000000000000000000000000000000000000000
310
00000000000000000000000000000000000000000000000000000000000000000000000000000000000000000000000000000000000000000000000000000000000000000000000000000000000000000000000000000000000000000000000000000000000000000000000000000000000000000000000000000000000000
310
00000000000000000000000000000000000000000000000000000000000000000000000000000000000000000000000000000000000000000000000000000000000000000000000000000000000000000000000000000000000000000000000000000000000000000000000000000000000000000000000000000000000000
310
00000000000000000000000000000000000000000000000000000000000000000000000000000000000000000000000000000000000000000000000000000000000000000000000000000000000000000000000000000000000000000000000000000000000000000000000000000000000000000000000000000000000000
310
00000000000000000000000000000000000000000000000000000000000000000000000000000000000000000000000000000000000000000000000000000000000000000000000000000000000000000000000000000000000000000000000000000000000000000000000000000000000000000000000000000000000000
310
00000000000000000000000000000000000000000000000000000000000000000000000000000000000000000000000000000000000000000000000000000000000000000000000000000000000000000000000000000000000000000000000000000000000000000000000000000000000000000000000000000000000000
310
00000000000000000000000000000000000000000000000000000000000000000000000000000000000000000000000000000000000000000000000000000000000000000000000000000000000000000000000000000000000000000000000000000000000000000000000000000000000000000000000000000000000000
310
00000000000000000000000000000000000000000000000000000000000000000000000000000000000000000000000000000000000000000000000000000000000000000000000000000000000000000000000000000000000000000000000000000000000000000000000000000000000000000000000000000000000000
310
00000000000000000000000000000000000000000000000000000000000000000000000000000000000000000000000000000000000000000000000000000000000000000000000000000000000000000000000000000000000000000000000000000000000000000000000000000000000000000000000000000000000000
310
00000000000000000000000000000000000000000000000000000000000000000000000000000000000000000000000000000000000000000000000000000000000000000000000000000000000000000000000000000000000000000000000000000000000000000000000000000000000000000000000000000000000000
310
00000000000000000000000000000000000000000000000000000000000000000000000000000000000000000000000000000000000000000000000000000000000000000000000000000000000000000000000000000000000000000000000000000000000000000000000000000000000000000000000000000000000000
310
00000000000000000000000000000000000000000000000000000000000000000000000000000000000000000000000000000000000000000000000000000000000000000000000000000000000000000000000000000000000000000000000000000000000000000000000000000000000000000000000000000000000000
310
00000000000000000000000000000000000000000000000000000000000000000000000000000000000000000000000000000000000000000000000000000000000000000000000000000000000000000000000000000000000000000000000000000000000000000000000000000000000000000000000000000000000000
310
00000000000000000000000000000000000000000000000000000000000000000000000000000000000000000000000000000000000000000000000000000000000000000000000000000000000000000000000000000000000000000000000000000000000000000000000000000000000000000000000000000000000000
310
00000000000000000000000000000000000000000000000000000000000000000000000000000000000000000000000000000000000000000000000000000000000000000000000000000000000000000000000000000000000000000000000000000000000000000000000000000000000000000000000000000000000000
310
00000000000000000000000000000000000000000000000000000000000000000000000000000000000000000000000000000000000000000000000000000000000000000000000000000000000000000000000000000000000000000000000000000000000000000000000000000000000000000000000000000000000000
310
00000000000000000000000000000000000000000000000000000000000000000000000000000000000000000000000000000000000000000000000000000000000000000000000000000000000000000000000000000000000000000000000000000000000000000000000000000000000000000000000000000000000000
310
00000000000000000000000000000000000000000000000000000000000000000000000000000000000000000000000000000000000000000000000000000000000000000000000000000000000000000000000000000000000000000000000000000000000000000000000000000000000000000000000000000000000000
310
00000000000000000000000000000000000000000000000000000000000000000000000000000000000000000000000000000000000000000000000000000000000000000000000000000000000000000000000000000000000000000000000000000000000000000000000000000000000000000000000000000000000000
310
00000000000000000000000000000000000000000000000000000000000000000000000000000000000000000000000000000000000000000000000000000000000000000000000000000000000000000000000000000000000000000000000000000000000000000000000000000000000000000000000000000000000000
310
00000000000000000000000000000000000000000000000000000000000000000000000000000000000000000000000000000000000000000000000000000000000000000000000000000000000000000000000000000000000000000000000000000000000000000000000000000000000000000000000000000000000000
310
00000000000000000000000000000000000000000000000000000000000000000000000000000000000000000000000000000000000000000000000000000000000000000000000000000000000000000000000000000000000000000000000000000000000000000000000000000000000000000000000000000000000000
310
00000000000000000000000000000000000000000000000000000000000000000000000000000000000000000000000000000000000000000000000000000000000000000000000000000000000000000000000000000000000000000000000000000000000000000000000000000000000000000000000000000000000000
310
00000000000000000000000000000000000000000000000000000000000000000000000000000000000000000000000000000000000000000000000000000000000000000000000000000000000000000000000000000000000000000000000000000000000000000000000000000000000000000000000000000000000000
310
00000000000000000000000000000000000000000000000000000000000000000000000000000000000000000000000000000000000000000000000000000000000000000000000000000000000000000000000000000000000000000000000000000000000000000000000000000000000000000000000000000000000000
310
00000000000000000000000000000000000000000000000000000000000000000000000000000000000000000000000000000000000000000000000000000000000000000000000000000000000000000000000000000000000000000000000000000000000000000000000000000000000000000000000000000000000000
310
00000000000000000000000000000000000000000000000000000000000000000000000000000000000000000000000000000000000000000000000000000000000000000000000000000000000000000000000000000000000000000000000000000000000000000000000000000000000000000000000000000000000000
310
00000000000000000000000000000000000000000000000000000000000000000000000000000000000000000000000000000000000000000000000000000000000000000000000000000000E2E2E2E20000000000000000000000000000000000000000000000000000000000000000000000000000000000000000000000
310
00000000000000000000000000000000000000000000000000000000000000000000000000000000000000000000000000000000000000000000000000000000000000000000000000000000000000000000000000000000000000000000000000000000000000000000000000000000000000000000000000000000000000
310
000000000000000000000000000000000000000000000000000000000000000000000000000000000000000000000000000000000000000000000000000000000000000000000000000000E2E2E200000000E20000000000000000000000000000000000000000000000000000000000000000000000000000000000000000
310
00000000000000000000000000000000000000000000000000000000000000000000000000000000000000000000000000000000000000000000000000000000000000000000000000000000000000000000000000000000000000000000000000000000000000000000000000000000000000000000000000000000000000
310
00000000000000000000000000000000000000000000000000000000000000000000000000000000000000000000000000000000000000000000000000000000000000000000000000000000E20000000000000000E2E200000000000000000000000000000000000000000000000000000000000000000000000000000000
310
00000000000000000000000000000000000000000000000000000000000000000000000000000000000000000000000000000000000000000000000000000000000000000000000000000000000000000000000000000000000000000000000000000000000000000000000000000000000000000000000000000000000000
310
0000000000000000000000000000000000000000000000000000000000000000000000000000000000000000000000000000000000000000000000000000000000000000000000000000000000E20000000000000000000000E200000000000000000000000000000000000000000000000000000000000000000000000000
310
00000000000000000000000000000000000000000000000000000000000000000000000000000000000000000000000000000000000000000000000000000000000000000000000000000000000000000000000000000000000000000000000000000000000000000000000000000000000000000000000000000000000000
310
00000000000000000000000000000000000000000000000000000000000000000000000000000000000000000000000000000000000000000000000000000000000000000000000000000000000000E20000000000000000000000E20000000000000000000000000000000000000000000000000000000000000000000000
310
00000000000000000000000000000000000000000000000000000000000000000000000000000000000000000000000000000000000000000000000000000000000000000000000000000000000000000000000000000000000000000000000000000000000000000000000000000000000000000000000000000000000000
310
0000000000000000000000000000000000000000000000000000000000000000000000000000000000000000000000000000000000000000000000E2E2E2E2E2E2E2E2E2E2E2E2E2E2E2E2E2E2E2E2E2E2E2E2E2E2E2E2E2E2E2E2E2E2E2E2E2E2E2E2E2E2E2E2E2E2E2E2E2E2E2E2E2E2E2E2E2E2E2E2E2E2E20000000000
310
00000000000000000000000000000000000000000000000000000000000000000000000000000000000000000000000000000000000000000000000000000000000000000000000000000000000000000000000000000000000000000000000000000000000000000000000000000000000000000000000000000000000000
310
00000000000000000000000000000000000000000000000000000000000000000000000000000000000000000000000000000000000000000000000000E200C3C3C3C3C3C3C3C3C3C3C3C3C3C3C3C3C3C3C3C300000000000000000000000000C3000000000000000000000000000000000000C3C3C3C3C3C3C3C3E2000000
310
00000000000000000000000000000000000000000000000000000000000000000000000000000000000000000000000000000000000000000000000000000000000000000000000000000000000000000000000000000000000000000000000000000000000000000000000000000000000000000000000000000000000000
310
0000000000000000000000000000000000000000000000000000000000000000000000000000000000000000000000000000000000000000000000000000E2000000000000000000000000000000000000000000C300000000000000000000000000C300000000000000000000000000000000C3C3C300000000000000E200
310
00000000000000000000000000000000000000000000000000000000000000000000000000000000000000000000000000000000000000000000000000000000000000000000000000000000000000000000000000000000000000000000000000000000000000000000000000000000000000000000000000000000000000
310
00000000000000000000000000000000000000000000000000000000000000000000000000000000000000000000000000000000000000000000000000000000E20000000000000000000000000000000000000000C3000000000000000000000000000000C3000000000000000000000000000000C3C3C3C3C3C3C3C3C3C3
310
E2000000000000000000000000000000000000000000000000000000000000000000000000000000000000000000000000000000000000000000000000000000000000000000000000000000000000000000000000000000000000000000000000000000000000000000000000000000000000000000000000000000000000
310
0000000000000000000000000000000000000000000000000000000000000000000000000000000000000000000000000000000000000000000000000000000000E2000000000000000000000000000000000000000000C3000000000000000000000000000000C3000000000000000000000000000000C300C3C300000000
310
0000E200000000000000000000000000000000000000000000000000000000000000000000000000000000000000000000000000000000000000000000000000000000000000000000000000000000000000000000000000000000000000000000000000000000000000000000000000000000000000000000000000000000
310
00000000000000000000000000000000000000000000000000000000000000000000000000000000000000000000000000000000000000000000000000000000000000E20000000000000000000000000000000000000000C300000000000000000000C30000000000C3000000000000000000000000000000C300C3000000
310
00000000E20000000000000000000000000000000000000000000000000000000000000000000000000000000000000000000000000000000000000000000000000000000000000000000000000000000000000000000000000000000000000000000000000000000000000000000000000000000000000000000000000000
310
0000000000000000000000000000000000000000000000000000000000000000000000000000000000000000000000000000000000000000000000000000000000000000E2000000000000000000000000000000000000000000C300000000000000000000C30000000000C3C30000000000000000000000000000C300C300
310
000000000000E2000000000000000000000000000000000000000000000000000000000000000000000000000000000000000000000000000000000000000000000000000000000000000000000000000000000000000000000000000000000000000000000000000000000000000000000000000000000000000000000000
310
000000000000000000000000000000000000000000000000000000000000000000000000000000000000000000000000000000000000000000000000000000000000000000E20000000000000000000000000000000000000000C3C30000000000000000000000C3000000000000C3C3C3C3C3C3C3C300000000000000C300
310
C300000000000000E200000000000000000000000000000000000000000000000000000000000000000000000000000000000000000000000000000000000000000000000000000000000000000000000000000000000000000000000000000000000000000000000000000000000000000000000000000000000000000000
310
0000000000000000000000000000000000000000000000000000000000000000000000000000000000000000000000000000000000000000000000000000000000000000000000E20000000000000000000000000000000000000000C3000000000000000000000000C30000000000000000000000000000C3C3C3C3C3C3C3
310
C3C3C3C3C3C3C3C30000E20000000000000000000000000000000000000000000000000000000000000000000000000000000000000000000000000000000000000000000000000000000000000000000000000000000000000000000000000000000000000000000000000000000000000000000000000000000000000000
310
000000000000000000000000000000000000000000000000000000000000000000000000000000000000000000000000000000000000000000000000000000000000000000000000E20000000000000000000000000000000000000000C30000000000000000000000000000C3000000000000000000000000000000000000
310
0000C300C300000000C30000E2000000000000000000000000000000000000000000000000000000000000000000000000000000000000000000000000000000000000000000000000000000000000000000000000000000000000000000000000000000000000000000000000000000000000000000000000000000000000
310
0000000000000000000000000000000000000000000000000000000000000000000000000000000000000000000000000000000000000000000000000000000000000000000000000000E20000000000000000000000000000000000000000C30000000000000000000000000000C300000000000000000000000000000000
310
00000000C300C300000000C30000E200000000000000000000000000000000000000000000000000000000000000000000000000000000000000000000000000000000000000000000000000000000000000000000000000000000000000000000000000000000000000000000000000000000000000000000000000000000
310
000000000000000000000000000000000000000000000000000000000000000000000000000000000000000000000000000000000000000000000000000000000000000000000000000000E20000000000000000000000000000000000000000C3000000000000000000000000000000C3C300000000000000000000000000
310
000000000000C300C300000000C30000E20000000000000000000000000000000000000000000000000000000000000000000000000000000000000000000000000000000000000000000000000000000000000000000000000000000000000000000000000000000000000000000000000000000000000000000000000000
310
0000000000000000000000000000000000000000000000000000000000000000000000000000000000000000000000000000000000000000000000000000000000000000000000000000000000E20000000000000000000000000000000000000000C30000000000000000000000000000000000C300000000000000000000
310
0000000000000000C300C300000000C30000E2000000000000000000000000000000000000000000000000000000000000000000000000000000000000000000000000000000000000000000000000000000000000000000000000000000000000000000000000000000000000000000000000000000000000000000000000
310
000000000000000000000000000000000000000000000000000000000000000000000000000000000000000000000000000000000000000000000000000000000000000000000000000000000000E20000000000000000000000000000000000000000C3000000000000000000000000000000000000C30000000000000000
310
00000000000000000000C300C300000000C30000E200000000000000000000000000000000000000000000000000000000000000000000000000000000000000000000000000000000000000000000000000000000000000000000000000000000000000000000000000000000000000000000000000000000000000000000
310
0000000000000000000000000000000000000000000000000000000000000000000000000000000000000000000000000000000000000000000000000000000000000000000000000000000000000000E20000000000000000000000000000000000000000C300000000000000000000000000000000000000C30000000000
310
002D2D2D2D2D2D2D2D2D2D2DC32DC32D2D2D2DC32D2DE22D00000000000000000000000000000000000000000000000000000000000000000000000000000000000000000000000000000000000000000000000000000000000000000000000000000000000000000000000000000000000000000000000000000000000000
310
00000000000000000000000000000000000000000000000000000000000000000000000000000000000000000000000000000000000000000000000000000000000000000000000000000000000000000000E20000000000000000000000000000000000000000C300000000000000000000000000000000000000C3000000
310
0000000000000000000000000000C300C300000000C30000E2000000000000000000000000000000000000000000000000000000000000000000000000000000000000000000000000000000000000000000000000000000000000000000000000000000000000000000000000000000000000000000000000000000000000
310
0000000000000000000000000000000000000000000000000000000000000000000000000000000000000000000000000000000000000000000000000000000000000000000000000000000000000000000000E2000000000000000000000000000000C3C3C3C3C3C3C30000000000000000000000000000000000000000C3
310
00000000000000000000000000000000C300C300000000C30000E200000000000000000000000000000000000000000000000000000000000000000000000000000000000000000000000000000000000000000000000000000000000000000000000000000000000000000000000000000000000000000000000000000000
310
00000000000000000000000000000000000000000000000000000000000000000000000000000000000000000000000000000000000000000000000000000000000000000000000000000000000000000000000000E2000000000000000000000000C3C3C30000000000000000000000000000000000000000000000000000
310
0000C3000000000000000000000000000000C300C300000000C30000E20000000000000000000000000000000000000000000000000000000000000000000000000000000000000000000000000000000000000000000000000000000000000000000000000000000000000000000000000000000000000000000000000000
310
000000000000000000000000000000000000000000000000000000000000000000000000000000000000000000000000000000000000000000000000000000000000000000000000000000000000000000000000000000E20000000000000000C3C3C3C3000000000000000000000000000000000000000000000000000000
310
0000000000C30000000000000000000000000000C300C300000000C30000E2000000000000000000000000000000000000000000000000000000000000000000000000000000000000000000000000000000000000000000000000000000000000000000000000000000000000000000000000000000000000000000000000
310
00000000000000000000000000000000000000000000000000000000000000000000000000000000000000000000000000000000000000000000000000000000000000000000000000000000000000000000000000000000E200000000000000C3C3C300000000000000000000000000000000000000000000000000000000
310
00000000000000C3C300000000000000000000000000C300C300000000C30000E200000000000000000000000000000000000000000000000000000000000000000000000000000000000000000000000000000000000000000000000000000000000000000000000000000000000000000000000000000000000000000000
310
000000000000000000000000000000000000000000000000000000000000000000000000000000000000000000000000000000000000000000000000000000000000000000000000000000000000000000000000000000000000E20000000000C3C30000000000000000000000000000000000000000000000000000000000
310
00000000000000000000C30000C3C3C3C3C3C3C3C3C3C3C3C3C3C3C3C3C3C3C30000E20000000000000000000000000000000000000000000000000000000000000000000000000000000000000000000000000000000000000000000000000000000000000000000000000000000000000000000000000000000000000000
310
00000000000000000000000000000000000000000000000000000000000000000000000000000000000000000000000000000000000000000000000000000000000000000000000000000000000000000000000000000000000000E20000000000C30000000000000000000000000000000000000000000000000000000000
310
000000000000000000000000C3C3C30000000000000000000000C300C300000000000000E2000000000000000000000000000000000000000000000000000000000000000000000000000000000000000000000000000000000000000000000000000000000000000000000000000000000000000000000000000000000000
310
000000000000000000000000000000000000000000000000000000000000000000000000000000000000000000000000000000000000000000000000000000000000000000000000000000000000000000000000000000000000000000E200000000C300000000000000000000000000000000000000000000000000000000
310
000000000000000000000000000000C3000000000000000000000000C300C300000000000000E200000000000000000000000000000000000000000000000000000000000000000000000000000000000000000000000000000000000000000000000000000000000000000000000000000000000000000000000000000000
310
0000000000000000000000000000000000000000000000000000000000000000000000000000000000000000000000000000000000000000000000000000000000000000000000000000000000000000000000000000000000000000000000E20000C3C3000000000000000000000000000000000000000000000000000000
310
0000000000000000000000000000000000C3000000000000000000000000C300C300000000000000E20000000000000000000000000000000000000000000000000000000000000000000000000000000000000000000000000000000000000000000000000000000000000000000000000000000000000000000000000000
310
00000000000000000000000000000000000000000000000000000000000000000000000000000000000000000000000000000000000000000000000000000000000000000000000000000000000000000000000000000000000000000000000000E20000C30000000000000000000000000000000000000000000000000000
310
00000000000000000000000000000000000000C3000000000000000000000000C300C300000000000000E2000000000000000000000000000000000000000000000000000000000000000000000000000000000000000000000000000000000000000000000000000000000000000000000000000000000000000000000000
310
0000000000000000000000000000000000000000000000000000000000000000000000000000000000000000000000000000000000000000000000000000000000000000000000000000000000000000000000000000000000000000000000000000E200C3C300000000000000000000000000000000000000000000000000
310
000000000000000000000000000000000000000000C3000000000000000000000000C300C300000000000000E200000000000000000000000000000000000000000000000000000000000000000000000000000000000000000000000000000000000000000000000000000000000000000000000000000000000000000000
310
00000000000000000000000000000000000000000000000000000000000000000000000000000000000000000000000000000000000000000000000000000000000000000000000000000000000000000000000000000000000000000000000000000000E2C300000000000000000000000000000000000000000000000000
310
0000000000000000000000000000000000000000000000C3C3C3C3C30000000000000000C32DC3C3C3C3C3C3C3C3E20000000000000000000000000000000000000000000000000000000000000000000000000000000000000000000000000000000000000000000000000000000000000000000000000000000000000000
310
000000000000000000000000000000000000000000000000000000000000000000000000000000000000000000000000000000000000000000000000000000000000000000000000000000000000000000000000000000000000000000000000000000000000E2C30000000000000000000000000000000000000000000000
310
00000000000000000000000000000000000000000000000000C300000000C3C3C3C3C3C3C32D2D2D2D2DC3C3C3C3C300E2000000000000000000000000000000000000000000000000000000000000000000000000000000000000000000000000000000000000000000000000000000000000000000000000000000000000
310
0000000000000000000000000000000000000000000000000000000000000000000000000000000000000000000000000000000000000000000000000000000000000000000000000000000000000000000000000000000000000000000000000000000000000000E200000000000000000000000000000000000000000000
310
000000000000000000000000000000000000000000000000C3C3C3000000000000000000000000C3C32DC30000000000C300E200000000000000000000000000000000000000000000000000000000000000000000000000000000000000000000000000000000000000000000000000000000000000000000000000000000
310
00000000000000000000000000000000000000000000000000000000000000000000000000000000000000000000000000000000000000000000000000000000000000000000000000000000000000000000000000000000000000000000000000000000000000000000E2C3C3000000000000000000000000000000000000
310
000000C3C3C3C3C3C3C3C3C3C3C3C3C3C3C3C3C3C3C3C3C3C3C3C3000000000000000000000000000000C32DC3C3C3C3C3C3C3C3E20000000000000000000000000000000000000000000000000000000000000000000000000000000000000000000000000000000000000000000000000000000000000000000000000000
310
000000000000000000000000000000000000000000000000000000000000000000000000000000000000000000000000000000000000000000000000000000000000000000000000000000000000000000000000000000000000000000000000000000000000000000000000E20000C3C3C3C3C3C3C3C3C3C3C3C3C3C3C3C3
310
C3C3C3C3C30000000000000000000000000000000000000000000000C30000000000000000000000000000000000C30000000000C300E2000000000000000000000000000000000000000000000000000000000000000000000000000000000000000000000000000000000000000000000000000000000000000000000000
310
00000000000000000000000000000000000000000000000000000000000000000000000000000000000000000000000000000000000000000000000000000000000000000000000000000000000000000000000000000000000000000000000000000000000000000000000000E200000000C3000000000000000000000000
310
000000000000000000000000000000000000000000000000000000000000C30000000000000000000000000000002D2DC32D2D2D2D2D2D2DE22D000000000000000000000000000000000000000000000000000000000000000000000000000000000000000000000000000000000000000000000000000000000000000000
310
000000000000000000000000000000000000000000000000000000000000000000000000000000000000000000000000000000000000000000000000000000000000000000000000000000000000000000000000000000000000000000000000000000000000000000000000000000E200000000C300000000000000000000
310
0000000000000000000000000000000000000000000000000000000000000000C30000000000000000000000000000000000C30000000000C300E20000000000000000000000000000000000000000000000000000000000000000000000000000000000000000000000000000000000000000000000000000000000000000
310
0000000000000000000000000000000000000000000000000000000000000000000000000000000000000000000000000000000000000000000000000000000000000000000000000000000000000000000000000000000000000000000000000000000000000000000000000000000000E200000000C30000000000000000
310
00000000000000000000000000000000000000000000000000000000000000000000C30000000000002D00000000000000000000C30000000000C300E2000000000000000000000000000000000000000000000000000000000000000000000000000000000000000000000000000000000000000000000000000000000000
310
0000000000000000000000000000000000000000000000000000000000000000000000000000000000000000000000000000000000000000000000000000000000000000000000000000000000000000000000000000000000000000000000000000000000000000000000000000000000E2E2E2E2E2E2C3E2E2E2E2E2E2E2
310
E2E2E2E2E2E2E2E2E2E2E2E2E2E2E2E2E2E2E2E2E2E2E2E2E2E2E2E2E2E2E2E2E2E2E2E2E2E2E2E2E2E2E2E2E2E2E2E2E2E2E2E2E2E2C3C3C3C3C3C3C3C3E200000000000000000000000000000000000000000000000000000000000000000000000000000000000000000000000000000000000000000000000000000000
310
00000000000000000000000000000000000000000000000000000000000000000000000000000000000000000000000000000000000000000000000000000000000000000000000000000000000000000000000000000000000000000000000000000000000000000000000000000000000000E20000000000C3E2E2E2E2E2
310
E2E2E2E2E2E2E2E2E2E2E2E2E2E2E2E2E2E2E2E2E2E2E2E2E2E2E2E2E2E2E2000000E200E2E200C300000000002D000000000000000000000000000000000000E20000000000000000000000000000000000000000000000000000000000000000000000000000000000000000000000000000000000000000000000000000
310
000000000000000000000000000000000000000000000000000000000000000000000000000000000000000000000000000000000000000000000000000000000000000000000000000000000000000000000000000000000000000000000000000000000000000000000000000000000000000000E2E2E2E2E2E2E2E2E2E2
310
E2E2E2E2E2E2E2E2E2E2E2E2E2E2E2E2E2E2E2E2E2E2E2E2E2E2E2E2E2E2E2E2E2E2E2E2E2E2E2E2E2E2E2E2E2E2E2E2E2E2E2E2E2E2E2E2E2E2E2E2E2E2E2E2E2E2E2000000000000000000000000000000000000000000000000000000000000000000000000000000000000000000000000000000000000000000000000
310
00000000000000000000000000000000000000000000000000000000000000000000000000000000000000000000000000000000000000000000000000000000000000000000000000000000000000000000000000000000000000000000000000000000000000000000000000000000000000000000E2E2E2E2E2E2C3C3C3
310
E2E2E2E2E2E2E2E2E2E2E2E2E2E2E2E2E2E2E2E2E2E2E2E2E2E2E2E2E2E2E2E2E2E2C3E2E2E2E2E2E2E2E2E2C3C3E2E2C32DC3000000000000E2000000000000000000000000000000000000000000000000000000000000000000000000000000000000000000000000000000000000000000000000000000000000000000
310
000000000000000000000000000000000000000000000000000000000000000000000000000000000000000000000000000000000000000000000000000000000000000000000000000000000000000000000000000000000000000000000000000000000000000000000000000000000000000000000000E2E2C3C3C3C3C3
310
C3C3C3C3C3C3C3C3C3C3C3C3C3C3C3C3C3C3C3C3C3C3C3C3C3C3C3C3C3C3C3C3C3C3C3C3C3C3C3E2E2E200E2C3C3C3C300E2C32DC3000000000000E200000000000000000000000000000000000000000000000000000000000000000000000000000000000000000000000000000000000000000000000000000000000000
310
000000000000000000000000000000000000000000000000000000000000000000000000000000000000000000000000000000000000000000000000000000000000000000000000000000000000000000000000000000000000000000000000000000000000000000000000000000000000000000000000000000E2E2E2E2
310
E2E2E2E2E2E2E2E2E2E2E2E2E2E2E2E2E2E2E2E2E2E2E2E2E2E2E2E2E2E2E2E2E2E2E2E2E2E2E2E200C3E2E2E2C32DC3C3C300E2C3C3C3000000000000E20000000000000000000000000000000000000000000000000000000000000000000000000000000000000000000000000000000000000000000000000000000000
310
00000000000000000000000000000000000000000000000000000000000000000000000000000000000000000000000000000000000000000000000000000000000000000000000000000000000000000000000000000000000000000000000000000000000000000000000000000000000000000000000000000000000000
310
000000000000000000000000000000000000000000000000000000000000000000000000000000000000E2E2C3E2E22D2D2DC3C300E2C3C3C30000000000E200000000000000000000000000000000000000000000000000000000000000000000000000000000000000000000000000000000000000000000000000000000
310
00000000000000000000000000000000000000000000000000000000000000000000000000000000000000000000000000000000000000000000000000000000000000000000000000000000000000000000000000000000000000000000000000000000000000000000000000000000000000000000000000000000000000
310
00000000000000000000000000000000000000000000000000000000000000000000000000000000000000000000E2E2C3C32DE2C3C300E2C3C3C30000000000E20000000000000000000000000000000000000000000000000000000000000000000000000000000000000000000000000000000000000000000000000000
310
00000000000000000000000000000000000000000000000000000000000000000000000000000000000000000000000000000000000000000000000000000000000000000000000000000000000000000000000000000000000000000000000000000000000000000000000000000000000000000000000000000000000000
310
0000000000000000000000000000000000000000000000000000000000000000000000000000000000000000000000000000E2E2C300C3C300E2E2E2E20000000000E2000000000000000000000000000000000000000000000000000000000000000000000000000000000000000000000000000000000000000000000000
310
00000000000000000000000000000000000000000000000000000000000000000000000000000000000000000000000000000000000000000000000000000000000000000000000000000000000000000000000000000000000000000000000000000000000000000000000000000000000000000000000000000000000000
310
000000000000000000000000000000000000000000000000000000000000000000000000000000000000000000000000000000000000E2E2C30000E2E2E2E20000000000E200000000000000000000000000000000000000000000000000000000000000000000000000000000000000000000000000000000000000000000
310
00000000000000000000000000000000000000000000000000000000000000000000000000000000000000000000000000000000000000000000000000000000000000000000000000000000000000000000000000000000000000000000000000000000000000000000000000000000000000000000000000000000000000
310
0000000000000000000000000000000000000000000000000000000000000000000000000000000000000000000000000000000000000000C3C3E2E2E2E20000000000000000E20000000000000000000000000000000000000000000000000000000000000000000000000000000000000000000000000000000000000000
310
00000000000000000000000000000000000000000000000000000000000000000000000000000000000000000000000000000000000000000000000000000000000000000000000000000000000000000000000000000000000000000000000000000000000000000000000000000000000000000000000000000000000000
310
00000000000000000000000000000000000000000000000000000000000000000000000000000000000000000000000000000000000000000000C300C300E2E2E2E2000000000000E2000000000000000000000000000000000000000000000000000000000000000000000000000000000000000000000000000000000000
310
00000000000000000000000000000000000000000000000000000000000000000000000000000000000000000000000000000000000000000000000000000000000000000000000000000000000000000000000000000000000000000000000000000000000000000000000000000000000000000000000000000000000000
310
000000000000000000000000000000000000000000000000000000000000000000000000000000000000000000000000000000000000000000000000C300C3000000E2E2E2E2000000E20000000000000000000000000000000000000000000000000000000000000000000000000000000000000000000000000000000000
310
00000000000000000000000000000000000000000000000000000000000000000000000000000000000000000000000000000000000000000000000000000000000000000000000000000000000000000000000000000000000000000000000000000000000000000000000000000000000000000000000000000000000000
310
0000000000000000000000000000000000000000000000000000000000000000000000000000000000000000000000000000000000000000000000000000C300C30000000000E2E2E2E200E2000000000000000000000000000000000000000000000000000000000000000000000000000000000000000000000000000000
310
00000000000000000000000000000000000000000000000000000000000000000000000000000000000000000000000000000000000000000000000000000000000000000000000000000000000000000000000000000000000000000000000000000000000000000000000000000000000000000000000000000000000000
310
00000000000000000000000000000000000000000000000000000000000000000000000000000000000000000000000000000000000000000000000000000000C300C300000000000000E2E2E2E2E2000000000000000000000000000000000000000000000000000000000000000000000000000000000000000000000000
310
00000000000000000000000000000000000000000000000000000000000000000000000000000000000000000000000000000000000000000000000000000000000000000000000000000000000000000000000000000000000000000000000000000000000000000000000000000000000000000000000000000000000000
310
000000000000000000000000000000000000000000000000000000000000000000000000000000000000000000000000000000000000000000000000000000000000C300C3000000000000000000E2E2E200000000000000000000000000000000000000000000000000000000000000000000000000000000000000000000
310
00000000000000000000000000000000000000000000000000000000000000000000000000000000000000000000000000000000000000000000000000000000000000000000000000000000000000000000000000000000000000000000000000000000000000000000000000000000000000000000000000000000000000
310
000000000000000000000000000000000000000000000000000000000000000000000000000000000000000000000000000000000000000000000000000000000000000000C3C30000000000000000000000000000000000000000000000000000000000000000000000000000000000000000000000000000000000000000
310
00000000000000000000000000000000000000000000000000000000000000000000000000000000000000000000000000000000000000000000000000000000000000000000000000000000000000000000000000000000000000000000000000000000000000000000000000000000000000000000000000000000000000
310
0000000000000000000000000000000000000000000000000000000000000000000000000000000000000000000000000000000000000000000000000000000000000000000000C300C30000000000000000000000000000000000000000000000000000000000000000000000000000000000000000000000000000000000
310
00000000000000000000000000000000000000000000000000000000000000000000000000000000000000000000000000000000000000000000000000000000000000000000000000000000000000000000000000000000000000000000000000000000000000000000000000000000000000000000000000000000000000
310
00000000000000000000000000000000000000000000000000000000000000000000000000000000000000000000000000000000000000000000000000000000000000000000000000C300C3000000000000000000000000000000000000000000000000000000000000000000000000000000000000000000000000000000
310
00000000000000000000000000000000000000000000000000000000000000000000000000000000000000000000000000000000000000000000000000000000000000000000000000000000000000000000000000000000000000000000000000000000000000000000000000000000000000000000000000000000000000
310
000000000000000000000000000000000000000000000000000000000000000000000000000000000000000000000000000000000000000000000000000000000000000000000000000000C300C300000000000000000000000000000000000000000000000000000000000000000000000000000000000000000000000000
310
00000000000000000000000000000000000000000000000000000000000000000000000000000000000000000000000000000000000000000000000000000000000000000000000000000000000000000000000000000000000000000000000000000000000000000000000000000000000000000000000000000000000000
310
000000000000000000000000000000000000000000000000000000000000000000000000000000000000000000000000000000000000000000000000000000000000000000000000000000000000C3C30000000000000000000000000000000000000000000000000000000000000000000000000000000000000000000000
310
00000000000000000000000000000000000000000000000000000000000000000000000000000000000000000000000000000000000000000000000000000000000000000000000000000000000000000000000000000000000000000000000000000000000000000000000000000000000000000000000000000000000000
310
000000000000000000000000000000000000000000000000000000000000000000000000000000000000000000000000000000000000000000000000000000000000000000000000000000000000000000C3C30000000000000000000000000000000000000000000000000000000000000000000000000000000000000000
310
00000000000000000000000000000000000000000000000000000000000000000000000000000000000000000000000000000000000000000000000000000000000000000000000000000000000000000000000000000000000000000000000000000000000000000000000000000000000000000000000000000000000000
310
0000000000000000000000000000000000000000000000000000000000000000000000000000000000000000000000000000000000000000000000000000000000000000000000000000000000000000000000C3C3000000000000000000000000000000000000000000000000000000000000000000000000000000000000
310
00000000000000000000000000000000000000000000000000000000000000000000000000000000000000000000000000000000000000000000000000000000000000000000000000000000000000000000000000000000000000000000000000000000000000000000000000000000000000000000000000000000000000
310
00000000000000000000000000000000000000000000000000000000000000000000000000000000000000000000000000000000000000000000000000000000000000000000000000000000000000000000000000C300C3000000000000000000000000000000000000000000000000000000000000000000000000000000
310
00000000000000000000000000000000000000000000000000000000000000000000000000000000000000000000000000000000000000000000000000000000000000000000000000000000000000000000000000000000000000000000000000000000000000000000000000000000000000000000000000000000000000
310
000000000000000000000000000000000000000000000000000000000000000000000000000000000000000000000000000000000000000000000000000000000000000000000000000000000000000000000000000000C30000C3000000000000000000000000000000000000000000000000000000000000000000000000
310
00000000000000000000000000000000000000000000000000000000000000000000000000000000000000000000000000000000000000000000000000000000000000000000000000000000000000000000000000000000000000000000000000000000000000000000000000000000000000000000000000000000000000
310
000000000000000000000000000000000000000000000000000000000000000000000000000000000000000000000000000000000000000000000000000000000000000000000000000000000000000000000000000000000000C300C300000000000000000000000000000000000000000000000000000000000000000000
310
00000000000000000000000000000000000000000000000000000000000000000000000000000000000000000000000000000000000000000000000000000000000000000000000000000000000000000000000000000000000000000000000000000000000000000000000000000000000000000000000000000000000000
310
0000000000000000000000000000000000000000000000000000000000000000000000000000000000000000000000000000000000000000000000000000000000000000000000000000000000000000000000000000000000000000C300C30000000000000000000000000000000000000000000000000000000000000000
310
00000000000000000000000000000000000000000000000000000000000000000000000000000000000000000000000000000000000000000000000000000000000000000000000000000000000000000000000000000000000000000000000000000000000000000000000000000000000000000000000000000000000000
310
00000000000000000000000000000000000000000000000000000000000000000000000000000000000000000000000000000000000000000000000000000000000000000000000000000000000000000000000000000000000000000000C300C3000000000000000000000000000000000000000000000000000000000000
310
00000000000000000000000000000000000000000000000000000000000000000000000000000000000000000000000000000000000000000000000000000000000000000000000000000000000000000000000000000000000000000000000000000000000000000000000000000000000000000000000000000000000000
310
000000000000000000000000000000000000000000000000000000000000000000000000000000000000000000000000000000000000000000000000000000000000000000000000000000000000000000000000000000000000000000000000C30000C3000000000000000000000000000000000000000000000000000000
310
00000000000000000000000000000000000000000000000000000000000000000000000000000000000000000000000000000000000000000000000000000000000000000000000000000000000000000000000000000000000000000000000000000000000000000000000000000000000000000000000000000000000000
310
000000000000000000000000000000000000000000000000000000000000000000000000000000000000000000000000000000000000000000000000000000000000000000000000000000000000000000000000000000000000000000000000000000C300C300000000000000000000000000000000000000000000000000
310
00000000000000000000000000000000000000000000000000000000000000000000000000000000000000000000000000000000000000000000000000000000000000000000000000000000000000000000000000000000000000000000000000000000000000000000000000000000000000000000000000000000000000
310
0000000000000000000000000000000000000000000000000000000000000000000000000000000000000000000000000000000000000000000000000000000000000000000000000000000000000000000000000000000000000000000000000000000000C300C30000000000000000000000000000000000000000000000
310
00000000000000000000000000000000000000000000000000000000000000000000000000000000000000000000000000000000000000000000000000000000000000000000000000000000000000000000000000000000000000000000000000000000000000000000000000000000000000000000000000000000000000
310
00000000000000000000000000000000000000000000000000000000000000000000000000000000000000000000000000000000000000000000000000000000000000000000000000000000000000000000000000000000000000000000000000000000000000C30000C30000000000000000000000000000000000000000
310
00000000000000000000000000000000000000000000000000000000000000000000000000000000000000000000000000000000000000000000000000000000000000000000000000000000000000000000000000000000000000000000000000000000000000000000000000000000000000000000000000000000000000
310
00000000000000000000000000000000000000000000000000000000000000000000000000000000000000000000000000000000000000000000000000000000000000000000000000000000000000000000000000000000000000000000000000000000000000000000C300C3000000000000000000000000000000000000
310
00000000000000000000000000000000000000000000000000000000000000000000000000000000000000000000000000000000000000000000000000000000000000000000000000000000000000000000000000000000000000000000000000000000000000000000000000000000000000000000000000000000000000
310
000000000000000000000000000000000000000000000000000000000000000000000000000000000000000000000000000000000000000000000000000000000000000000000000000000000000000000000000000000000000000000000000000000000000000000000000C300C300000000000000000000000000000000
310
00000000000000000000000000000000000000000000000000000000000000000000000000000000000000000000000000000000000000000000000000000000000000000000000000000000000000000000000000000000000000000000000000000000000000000000000000000000000000000000000000000000000000
310
0000000000000000000000000000000000000000000000000000000000000000000000000000000000000000000000000000000000000000000000000000000000000000000000000000000000000000000000000000000000000000000000000000000000000000000000000000C300C30000000000000000000000000000
310
00000000000000000000000000000000000000000000000000000000000000000000000000000000000000000000000000000000000000000000000000000000000000000000000000000000000000000000000000000000000000000000000000000000000000000000000000000000000000000000000000000000000000
310
00000000000000000000000000000000000000000000000000000000000000000000000000000000000000000000000000000000000000000000000000000000000000000000000000000000000000000000000000000000000000000000000000000000000000000000000000000000C30000C30000000000000000000000
310
00000000000000000000000000000000000000000000000000000000000000000000000000000000000000000000000000000000000000000000000000000000000000000000000000000000000000000000000000000000000000000000000000000000000000000000000000000000000000000000000000000000000000
310
00000000000000000000000000000000000000000000000000000000000000000000000000000000000000000000000000000000000000000000000000000000000000000000000000000000000000000000000000000000000000000000000000000000000000000000000000000000000000C300C3000000000000000000
310
00000000000000000000000000000000000000000000000000000000000000000000000000000000000000000000000000000000000000000000000000000000000000000000000000000000000000000000000000000000000000000000000000000000000000000000000000000000000000000000000000000000000000
310
000000000000000000000000000000000000000000000000000000000000000000000000000000000000000000000000000000000000000000000000000000000000000000000000000000000000000000000000000000000000000000000000000000000000000000000000000000000000000000C300C300000000000000
310
00000000000000000000000000000000000000000000000000000000000000000000000000000000000000000000000000000000000000000000000000000000000000000000000000000000000000000000000000000000000000000000000000000000000000000000000000000000000000000000000000000000000000
310
000000000000000000000000000000000000000000000000000000000000000000000000000000000000000000000000000000000000000000000000000000000000000000000000000000000000000000000000000000000000000000000000000000000000000000000000000000000000000000000000C3C30000000000
310
00000000000000000000000000000000000000000000000000000000000000000000000000000000000000000000000000000000000000000000000000000000000000000000000000000000000000000000000000000000000000000000000000000000000000000000000000000000000000000000000000000000000000
310
000000000000000000000000000000000000000000000000000000000000000000000000000000000000000000000000000000000000000000000000000000000000000000000000000000000000000000000000000000000000000000000000000000000000000000000000000000000000000000000000000000C3C30000
310
00000000000000000000000000000000000000000000000000000000000000000000000000000000000000000000000000000000000000000000000000000000000000000000000000000000000000000000000000000000000000000000000000000000000000000000000000000000000000000000000000000000000000
310
0000000000000000000000000000000000000000000000000000000000000000000000000000000000000000000000000000000000000000000000000000000000000000000000000000000000000000000000000000000000000000000000000000000000000000000000000000000000000000000000000000000000C3C3
310
00000000000000000000000000000000000000000000000000000000000000000000000000000000000000000000000000000000000000000000000000000000000000000000000000000000000000000000000000000000000000000000000000000000000000000000000000000000000000000000000000000000000000
310
00000000000000000000000000000000000000000000000000000000000000000000000000000000000000000000000000000000000000000000000000000000000000000000000000000000000000000000000000000000000000000000000000000000000000000000000000000000000000000000000000000000000000
310
C300C300000000000000000000000000000000000000000000000000000000000000000000000000000000000000000000000000000000000000000000000000000000000000000000000000000000000000000000000000000000000000000000000000000000000000000000000000000000000000000000000000000000
310
00000000000000000000000000000000000000000000000000000000000000000000000000000000000000000000000000000000000000000000000000000000000000000000000000000000000000000000000000000000000000000000000000000000000000000000000000000000000000000000000000000000000000
310
0000C300C30000000000000000000000000000000000000000000000000000000000000000000000000000000000000000000000000000000000000000000000000000000000000000000000000000000000000000000000000000000000000000000000000000000000000000000000000000000000000000000000000000
310
00000000000000000000000000000000000000000000000000000000000000000000000000000000000000000000000000000000000000000000000000000000000000000000000000000000000000000000000000000000000000000000000000000000000000000000000000000000000000000000000000000000000000
310
0000000000C3C3000000000000000000000000000000000000000000000000000000000000000000000000000000000000000000000000000000000000000000000000000000000000000000000000000000000000000000000000000000000000000000000000000000000000000000000000000000000000000000000000
310
00000000000000000000000000000000000000000000000000000000000000000000000000000000000000000000000000000000000000000000000000000000000000000000000000000000000000000000000000000000000000000000000000000000000000000000000000000000000000000000000000000000000000
310
00000000000000C300C3000000000000000000000000000000000000000000000000000000000000000000000000000000000000000000000000000000000000000000000000000000000000000000000000000000000000000000000000000000000000000000000000000000000000000000000000000000000000000000
310
00000000000000000000000000000000000000000000000000000000000000000000000000000000000000000000000000000000000000000000000000000000000000000000000000000000000000000000000000000000000000000000000000000000000000000000000000000000000000000000000000000000000000
310
000000000000000000C300C300000000000000000000000000000000000000000000000000000000000000000000000000000000000000000000000000000000000000000000000000000000000000000000000000000000000000000000000000000000000000000000000000000000000000000000000000000000000000
310
00000000000000000000000000000000000000000000000000000000000000000000000000000000000000000000000000000000000000000000000000000000000000000000000000000000000000000000000000000000000000000000000000000000000000000000000000000000000000000000000000000000000000
310
0000000000000000000000C30000C300000000000000000000000000000000000000000000000000000000000000000000000000000000000000000000000000000000000000000000000000000000000000000000000000000000000000000000000000000000000000000000000000000000000000000000000000000000
310
00000000000000000000000000000000000000000000000000000000000000000000000000000000000000000000000000000000000000000000000000000000000000000000000000000000000000000000000000000000000000000000000000000000000000000000000000000000000000000000000000000000000000
310
0000000000000000000000000000C300C30000000000000000000000000000000000000000000000000000000000000000000000000000000000000000000000000000000000000000000000000000000000000000000000000000000000000000000000000000000000000000000000000000000000000000000000000000
310
00000000000000000000000000000000000000000000000000000000000000000000000000000000000000000000000000000000000000000000000000000000000000000000000000000000000000000000000000000000000000000000000000000000000000000000000000000000000000000000000000000000000000
310
00000000000000000000000000000000C300C3000000000000000000000000000000000000000000000000000000000000000000000000000000000000000000000000000000000000000000000000000000000000000000000000000000000000000000000000000000000000000000000000000000000000000000000000
310
00000000000000000000000000000000000000000000000000000000000000000000000000000000000000000000000000000000000000000000000000000000000000000000000000000000000000000000000000000000000000000000000000000000000000000000000000000000000000000000000000000000000000
310
00000000000000000000000000000000000000C300C3000000000000000000000000000000000000000000000000000000000000000000000000000000000000000000000000000000000000000000000000000000000000000000000000000000000000000000000000000000000000000000000000000000000000000000
310
00000000000000000000000000000000000000000000000000000000000000000000000000000000000000000000000000000000000000000000000000000000000000000000000000000000000000000000000000000000000000000000000000000000000000000000000000000000000000000000000000000000000000
310
000000000000000000000000000000000000000000C300C300000000000000000000000000000000000000000000000000000000000000000000000000000000000000000000000000000000000000000000000000000000000000000000000000000000000000000000000000000000000000000000000000000000000000
310
00000000000000000000000000000000000000000000000000000000000000000000000000000000000000000000000000000000000000000000000000000000000000000000000000000000000000000000000000000000000000000000000000000000000000000000000000000000000000000000000000000000000000
310
0000000000000000000000000000000000000000000000C300C30000000000000000000000000000000000000000000000000000000000000000000000000000000000000000000000000000000000000000000000000000000000000000000000000000000000000000000000000000000000000000000000000000000000
310
00000000000000000000000000000000000000000000000000000000000000000000000000000000000000000000000000000000000000000000000000000000000000000000000000000000000000000000000000000000000000000000000000000000000000000000000000000000000000000000000000000000000000
310
00000000000000000000000000000000000000000000000000C300C3000000000000000000000000000000000000000000000000000000000000000000000000000000000000000000000000000000000000000000000000000000000000000000000000000000000000000000000000000000000000000000000000000000
310
00000000000000000000000000000000000000000000000000000000000000000000000000000000000000000000000000000000000000000000000000000000000000000000000000000000000000000000000000000000000000000000000000000000000000000000000000000000000000000000000000000000000000
310
00000000000000000000000000000000000000000000000000000000C300C3000000000000000000000000000000000000000000000000000000000000000000000000000000000000000000000000000000000000000000000000000000000000000000000000000000000000000000000000000000000000000000000000
310
00000000000000000000000000000000000000000000000000000000000000000000000000000000000000000000000000000000000000000000000000000000000000000000000000000000000000000000000000000000000000000000000000000000000000000000000000000000000000000000000000000000000000
310
000000000000000000000000000000000000000000000000000000000000C3C3C300000000000000000000000000000000000000000000000000000000000000000000000000000000000000000000000000000000000000000000000000000000000000000000000000000000000000000000000000000000000000000000
310
00000000000000000000000000000000000000000000000000000000000000000000000000000000000000000000000000000000000000000000000000000000000000000000000000000000000000000000000000000000000000000000000000000000000000000000000000000000000000000000000000000000000000
310
0000000000000000000000000000000000000000000000000000000000000000C3C3000000000000000000000000000000000000000000000000000000000000000000000000000000000000000000000000000000000000000000000000000000000000000000000000000000000000000000000000000000000000000000
310
00000000000000000000000000000000000000000000000000000000000000000000000000000000000000000000000000000000000000000000000000000000000000000000000000000000000000000000000000000000000000000000000000000000000000000000000000000000000000000000000000000000000000
310
00000000000000000000000000000000000000000000000000000000000000000000000000000000000000000000000000000000000000000000000000000000000000000000000000000000000000000000000000000000000000000000000000000000000000000000000000000000000000000000000000000000000000
310
00000000000000000000000000000000000000000000000000000000000000000000000000000000000000000000000000000000000000000000000000000000000000000000000000000000000000000000000000000000000000000000000000000000000000000000000000000000000000000000000000000000000000
310
00000000000000000000000000000000000000000000000000000000000000000000000000000000000000000000000000000000000000000000000000000000000000000000000000000000000000000000000000000000000000000000000000000000000000000000000000000000000000000000000000000000000000
310
00000000000000000000000000000000000000000000000000000000000000000000000000000000000000000000000000000000000000000000000000000000000000000000000000000000000000000000000000000000000000000000000000000000000000000000000000000000000000000000000000000000000000
310
00000000000000000000000000000000000000000000000000000000000000000000000000000000000000000000000000000000000000000000000000000000000000000000000000000000000000000000000000000000000000000000000000000000000000000000000000000000000000000000000000000000000000
310
00000000000000000000000000000000000000000000000000000000000000000000000000000000000000000000000000000000000000000000000000000000000000000000000000000000000000000000000000000000000000000000000000000000000000000000000000000000000000000000000000000000000000
310
00000000000000000000000000000000000000000000000000000000000000000000000000000000000000000000000000000000000000000000000000000000000000000000000000000000000000000000000000000000000000000000000000000000000000000000000000000000000000000000000000000000000000
310
00000000000000000000000000000000000000000000000000000000000000000000000000000000000000000000000000000000000000000000000000000000000000000000000000000000000000000000000000000000000000000000000000000000000000000000000000000000000000000000000000000000000000
310
00000000000000000000000000000000000000000000000000000000000000000000000000000000000000000000000000000000000000000000000000000000000000000000000000000000000000000000000000000000000000000000000000000000000000000000000000000000000000000000000000000000000000
310
00000000000000000000000000000000000000000000
  0
XRECORD
  5
A51C
102
{ACAD_REACTORS
330
286D
102
}
330
286D
100
AcDbXrecord
280
     1
102
MATERIAL
148
0.0
149
0.0
149
0.0
 93
        0
 94
      127
282
     0
 72
     0
 77
     0
171
     0
175
     0
179
     0
273
     0
  0
XRECORD
  5
286F
102
{ACAD_REACTORS
330
286D
102
}
330
286D
100
AcDbXrecord
280
     1
270
     1
271
     1
  0
XRECORD
  5
286E
102
{ACAD_REACTORS
330
286D
102
}
330
286D
100
AcDbXrecord
280
     1
270
     1
271
     1
  0
XRECORD
  5
2872
102
{ACAD_REACTORS
330
286D
102
}
330
286D
100
AcDbXrecord
280
     1
270
     1
271
     1
  0
XRECORD
  5
2871
102
{ACAD_REACTORS
330
286D
102
}
330
286D
100
AcDbXrecord
280
     1
270
     1
271
     1
  0
XRECORD
  5
2873
102
{ACAD_REACTORS
330
286D
102
}
330
286D
100
AcDbXrecord
280
     1
270
     1
271
     1
  0
XRECORD
  5
2870
102
{ACAD_REACTORS
330
286D
102
}
330
286D
100
AcDbXrecord
280
     1
270
     1
271
     1
  0
XRECORD
  5
A51B
102
{ACAD_REACTORS
330
2865
102
}
330
2865
100
AcDbXrecord
280
     1
102
MATERIAL
148
0.0
149
0.0
149
0.0
 93
        0
 94
      127
282
     0
 72
     0
 77
     0
171
     0
175
     0
179
     0
273
     0
  0
XRECORD
  5
2867
102
{ACAD_REACTORS
330
2865
102
}
330
2865
100
AcDbXrecord
280
     1
270
     1
271
     1
  0
XRECORD
  5
2866
102
{ACAD_REACTORS
330
2865
102
}
330
2865
100
AcDbXrecord
280
     1
270
     1
271
     1
  0
XRECORD
  5
286A
102
{ACAD_REACTORS
330
2865
102
}
330
2865
100
AcDbXrecord
280
     1
270
     1
271
     1
  0
XRECORD
  5
2869
102
{ACAD_REACTORS
330
2865
102
}
330
2865
100
AcDbXrecord
280
     1
270
     1
271
     1
  0
XRECORD
  5
286B
102
{ACAD_REACTORS
330
2865
102
}
330
2865
100
AcDbXrecord
280
     1
270
     1
271
     1
  0
XRECORD
  5
2868
102
{ACAD_REACTORS
330
2865
102
}
330
2865
100
AcDbXrecord
280
     1
270
     1
271
     1
  0
XRECORD
  5
A51D
102
{ACAD_REACTORS
330
2875
102
}
330
2875
100
AcDbXrecord
280
     1
102
MATERIAL
148
0.0
149
0.0
149
0.0
 93
        0
 94
      127
282
     0
 72
     0
 77
     0
171
     0
175
     0
179
     0
273
     0
  0
XRECORD
  5
2877
102
{ACAD_REACTORS
330
2875
102
}
330
2875
100
AcDbXrecord
280
     1
270
     1
271
     1
  0
XRECORD
  5
2876
102
{ACAD_REACTORS
330
2875
102
}
330
2875
100
AcDbXrecord
280
     1
270
     1
271
     1
  0
XRECORD
  5
287A
102
{ACAD_REACTORS
330
2875
102
}
330
2875
100
AcDbXrecord
280
     1
270
     1
271
     1
  0
XRECORD
  5
2879
102
{ACAD_REACTORS
330
2875
102
}
330
2875
100
AcDbXrecord
280
     1
270
     1
271
     1
  0
XRECORD
  5
287B
102
{ACAD_REACTORS
330
2875
102
}
330
2875
100
AcDbXrecord
280
     1
270
     1
271
     1
  0
XRECORD
  5
2878
102
{ACAD_REACTORS
330
2875
102
}
330
2875
100
AcDbXrecord
280
     1
270
     1
271
     1
  0
CELLSTYLEMAP
  5
A514
102
{ACAD_REACTORS
330
2936
102
}
330
2936
100
AcDbCellStyleMap
 90
        3
300
CELLSTYLE
  1
TABLEFORMAT_BEGIN
 90
        5
170
     1
 91
        0
 92
    32768
 62
   257
 93
        1
300
CONTENTFORMAT
  1
CONTENTFORMAT_BEGIN
 90
        0
 91
        0
 92
      512
 93
        0
300

 40
0.0
140
1.0
 94
        5
 62
     0
340
11
144
6.0
309
CONTENTFORMAT_END
171
     1
301
MARGIN
  1
CELLMARGIN_BEGIN
 40
1.5
 40
1.5
 40
1.5
 40
1.5
 40
4.5
 40
4.5
309
CELLMARGIN_END
 94
        6
 95
        1
302
GRIDFORMAT
  1
GRIDFORMAT_BEGIN
 90
        0
 91
        1
 62
     0
 92
       -2
340
0
 93
        0
 40
1.125
309
GRIDFORMAT_END
 95
        2
302
GRIDFORMAT
  1
GRIDFORMAT_BEGIN
 90
        0
 91
        1
 62
     0
 92
       -2
340
0
 93
        0
 40
1.125
309
GRIDFORMAT_END
 95
        4
302
GRIDFORMAT
  1
GRIDFORMAT_BEGIN
 90
        0
 91
        1
 62
     0
 92
       -2
340
0
 93
        0
 40
1.125
309
GRIDFORMAT_END
 95
        8
302
GRIDFORMAT
  1
GRIDFORMAT_BEGIN
 90
        0
 91
        1
 62
     0
 92
       -2
340
0
 93
        0
 40
1.125
309
GRIDFORMAT_END
 95
       16
302
GRIDFORMAT
  1
GRIDFORMAT_BEGIN
 90
        0
 91
        1
 62
     0
 92
       -2
340
0
 93
        0
 40
1.125
309
GRIDFORMAT_END
 95
       32
302
GRIDFORMAT
  1
GRIDFORMAT_BEGIN
 90
        0
 91
        1
 62
     0
 92
       -2
340
0
 93
        0
 40
1.125
309
GRIDFORMAT_END
309
TABLEFORMAT_END
  1
CELLSTYLE_BEGIN
 90
        1
 91
        1
300
_TITLE
309
CELLSTYLE_END
300
CELLSTYLE
  1
TABLEFORMAT_BEGIN
 90
        5
170
     1
 91
        0
 92
        0
 62
   257
 93
        1
300
CONTENTFORMAT
  1
CONTENTFORMAT_BEGIN
 90
        0
 91
        0
 92
      512
 93
        0
300

 40
0.0
140
1.0
 94
        5
 62
     0
340
11
144
4.5
309
CONTENTFORMAT_END
171
     1
301
MARGIN
  1
CELLMARGIN_BEGIN
 40
1.5
 40
1.5
 40
1.5
 40
1.5
 40
4.5
 40
4.5
309
CELLMARGIN_END
 94
        6
 95
        1
302
GRIDFORMAT
  1
GRIDFORMAT_BEGIN
 90
        0
 91
        1
 62
     0
 92
       -2
340
0
 93
        0
 40
1.125
309
GRIDFORMAT_END
 95
        2
302
GRIDFORMAT
  1
GRIDFORMAT_BEGIN
 90
        0
 91
        1
 62
     0
 92
       -2
340
0
 93
        0
 40
1.125
309
GRIDFORMAT_END
 95
        4
302
GRIDFORMAT
  1
GRIDFORMAT_BEGIN
 90
        0
 91
        1
 62
     0
 92
       -2
340
0
 93
        0
 40
1.125
309
GRIDFORMAT_END
 95
        8
302
GRIDFORMAT
  1
GRIDFORMAT_BEGIN
 90
        0
 91
        1
 62
     0
 92
       -2
340
0
 93
        0
 40
1.125
309
GRIDFORMAT_END
 95
       16
302
GRIDFORMAT
  1
GRIDFORMAT_BEGIN
 90
        0
 91
        1
 62
     0
 92
       -2
340
0
 93
        0
 40
1.125
309
GRIDFORMAT_END
 95
       32
302
GRIDFORMAT
  1
GRIDFORMAT_BEGIN
 90
        0
 91
        1
 62
     0
 92
       -2
340
0
 93
        0
 40
1.125
309
GRIDFORMAT_END
309
TABLEFORMAT_END
  1
CELLSTYLE_BEGIN
 90
        2
 91
        1
300
_HEADER
309
CELLSTYLE_END
300
CELLSTYLE
  1
TABLEFORMAT_BEGIN
 90
        5
170
     1
 91
        0
 92
        0
 62
   257
 93
        1
300
CONTENTFORMAT
  1
CONTENTFORMAT_BEGIN
 90
        0
 91
        0
 92
      512
 93
        0
300

 40
0.0
140
1.0
 94
        2
 62
     0
340
11
144
4.5
309
CONTENTFORMAT_END
171
     1
301
MARGIN
  1
CELLMARGIN_BEGIN
 40
1.5
 40
1.5
 40
1.5
 40
1.5
 40
4.5
 40
4.5
309
CELLMARGIN_END
 94
        6
 95
        1
302
GRIDFORMAT
  1
GRIDFORMAT_BEGIN
 90
        0
 91
        1
 62
     0
 92
       -2
340
0
 93
        0
 40
1.125
309
GRIDFORMAT_END
 95
        2
302
GRIDFORMAT
  1
GRIDFORMAT_BEGIN
 90
        0
 91
        1
 62
     0
 92
       -2
340
0
 93
        0
 40
1.125
309
GRIDFORMAT_END
 95
        4
302
GRIDFORMAT
  1
GRIDFORMAT_BEGIN
 90
        0
 91
        1
 62
     0
 92
       -2
340
0
 93
        0
 40
1.125
309
GRIDFORMAT_END
 95
        8
302
GRIDFORMAT
  1
GRIDFORMAT_BEGIN
 90
        0
 91
        1
 62
     0
 92
       -2
340
0
 93
        0
 40
1.125
309
GRIDFORMAT_END
 95
       16
302
GRIDFORMAT
  1
GRIDFORMAT_BEGIN
 90
        0
 91
        1
 62
     0
 92
       -2
340
0
 93
        0
 40
1.125
309
GRIDFORMAT_END
 95
       32
302
GRIDFORMAT
  1
GRIDFORMAT_BEGIN
 90
        0
 91
        1
 62
     0
 92
       -2
340
0
 93
        0
 40
1.125
309
GRIDFORMAT_END
309
TABLEFORMAT_END
  1
CELLSTYLE_BEGIN
 90
        3
 91
        2
300
_DATA
309
CELLSTYLE_END
  0
XRECORD
  5
A53E
102
{ACAD_REACTORS
330
2936
102
}
330
2936
100
AcDbXrecord
280
     1
102
ACAD_ROUNDTRIP_PRE2007_TABLESTYLE
 90
      512
 91
        0
  1

 92
      512
 93
        0
  2

 94
      512
 95
        0
  3

  0
XRECORD
  5
A529
102
{ACAD_REACTORS
330
A528
102
}
330
A528
100
AcDbXrecord
280
     1
102
RTVSPropertyOp0
 70
     1
102
RTVSPropertyOp1
 70
     1
102
RTVSPropertyOp2
 70
     1
102
RTVSPropertyOp3
 70
     1
102
RTVSPropertyOp4
 70
     1
102
RTVSPropertyOp5
 70
     1
102
RTVSPropertyOp6
 70
     1
102
RTVSPropertyOp7
 70
     1
102
RTVSPropertyOp8
 70
     1
102
RTVSPropertyOp9
 70
     1
102
RTVSPropertyOp10
 70
     1
102
RTVSPropertyOp11
 70
     1
102
RTVSPropertyOp12
 70
     1
102
RTVSPropertyOp13
 70
     1
102
RTVSPropertyOp14
 70
     1
102
RTVSPropertyOp15
 70
     1
102
RTVSPropertyOp16
 70
     1
102
RTVSPropertyOp17
 70
     1
102
RTVSPropertyOp18
 70
     1
102
RTVSPropertyOp19
 70
     1
102
RTVSPropertyOp20
 70
     1
102
RTVSPropertyOp21
 70
     1
102
RTVSPropertyOp22
 70
     1
102
RTVSPropertyOp23
 70
     1
102
RTVSPropertyOp24
 70
     1
102
RTVSPropertyOp25
 70
     1
102
RTVSPropertyOp26
 70
     1
102
RTVSPropertyOp27
 70
     1
102
RTVSPropertyOp28
 70
     1
102
RTVSPropertyOp29
 70
     1
102
RTVSPropertyOp30
 70
     1
102
RTVSPropertyOp31
 70
     1
102
RTVSPropertyOp32
 70
     1
  0
XRECORD
  5
A52D
102
{ACAD_REACTORS
330
A52C
102
}
330
A52C
100
AcDbXrecord
280
     1
102
RTVSPropertyOp0
 70
     1
102
RTVSPropertyOp1
 70
     1
102
RTVSPropertyOp2
 70
     1
102
RTVSPropertyOp3
 70
     1
102
RTVSPropertyOp4
 70
     1
102
RTVSPropertyOp5
 70
     1
102
RTVSPropertyOp6
 70
     1
102
RTVSPropertyOp7
 70
     1
102
RTVSPropertyOp8
 70
     1
102
RTVSPropertyOp9
 70
     1
102
RTVSPropertyOp10
 70
     1
102
RTVSPropertyOp11
 70
     1
102
RTVSPropertyOp12
 70
     1
102
RTVSPropertyOp13
 70
     1
102
RTVSPropertyOp14
 70
     1
102
RTVSPropertyOp15
 70
     1
102
RTVSPropertyOp16
 70
     1
102
RTVSPropertyOp17
 70
     1
102
RTVSPropertyOp18
 70
     1
102
RTVSPropertyOp19
 70
     1
102
RTVSPropertyOp20
 70
     1
102
RTVSPropertyOp21
 70
     1
102
RTVSPropertyOp22
 70
     1
102
RTVSPropertyOp23
 70
     1
102
RTVSPropertyOp24
 70
     1
102
RTVSPropertyOp25
 70
     1
102
RTVSPropertyOp26
 70
     1
102
RTVSPropertyOp27
 70
     1
102
RTVSPropertyOp28
 70
     1
102
RTVSPropertyOp29
 70
     1
102
RTVSPropertyOp30
 70
     1
102
RTVSPropertyOp31
 70
     1
102
RTVSPropertyOp32
 70
     1
  0
XRECORD
  5
A52B
102
{ACAD_REACTORS
330
A52A
102
}
330
A52A
100
AcDbXrecord
280
     1
102
RTVSPropertyOp0
 70
     1
102
RTVSPropertyOp1
 70
     1
102
RTVSPropertyOp2
 70
     1
102
RTVSPropertyOp3
 70
     1
102
RTVSPropertyOp4
 70
     1
102
RTVSPropertyOp5
 70
     1
102
RTVSPropertyOp6
 70
     1
102
RTVSPropertyOp7
 70
     1
102
RTVSPropertyOp8
 70
     1
102
RTVSPropertyOp9
 70
     1
102
RTVSPropertyOp10
 70
     1
102
RTVSPropertyOp11
 70
     1
102
RTVSPropertyOp12
 70
     1
102
RTVSPropertyOp13
 70
     1
102
RTVSPropertyOp14
 70
     1
102
RTVSPropertyOp15
 70
     1
102
RTVSPropertyOp16
 70
     1
102
RTVSPropertyOp17
 70
     1
102
RTVSPropertyOp18
 70
     1
102
RTVSPropertyOp19
 70
     1
102
RTVSPropertyOp20
 70
     1
102
RTVSPropertyOp21
 70
     1
102
RTVSPropertyOp22
 70
     1
102
RTVSPropertyOp23
 70
     1
102
RTVSPropertyOp24
 70
     1
102
RTVSPropertyOp25
 70
     1
102
RTVSPropertyOp26
 70
     1
102
RTVSPropertyOp27
 70
     1
102
RTVSPropertyOp28
 70
     1
102
RTVSPropertyOp29
 70
     1
102
RTVSPropertyOp30
 70
     1
102
RTVSPropertyOp31
 70
     1
102
RTVSPropertyOp32
 70
     1
  0
XRECORD
  5
A527
102
{ACAD_REACTORS
330
A526
102
}
330
A526
100
AcDbXrecord
280
     1
102
RTVSPropertyOp0
 70
     1
102
RTVSPropertyOp1
 70
     1
102
RTVSPropertyOp2
 70
     1
102
RTVSPropertyOp3
 70
     1
102
RTVSPropertyOp4
 70
     1
102
RTVSPropertyOp5
 70
     1
102
RTVSPropertyOp6
 70
     1
102
RTVSPropertyOp7
 70
     1
102
RTVSPropertyOp8
 70
     1
102
RTVSPropertyOp9
 70
     1
102
RTVSPropertyOp10
 70
     1
102
RTVSPropertyOp11
 70
     1
102
RTVSPropertyOp12
 70
     1
102
RTVSPropertyOp13
 70
     1
102
RTVSPropertyOp14
 70
     1
102
RTVSPropertyOp15
 70
     1
102
RTVSPropertyOp16
 70
     1
102
RTVSPropertyOp17
 70
     1
102
RTVSPropertyOp18
 70
     1
102
RTVSPropertyOp19
 70
     1
102
RTVSPropertyOp20
 70
     1
102
RTVSPropertyOp21
 70
     1
102
RTVSPropertyOp22
 70
     1
102
RTVSPropertyOp23
 70
     1
102
RTVSPropertyOp24
 70
     1
102
RTVSPropertyOp25
 70
     1
102
RTVSPropertyOp26
 70
     1
102
RTVSPropertyOp27
 70
     1
102
RTVSPropertyOp28
 70
     1
102
RTVSPropertyOp29
 70
     1
102
RTVSPropertyOp30
 70
     1
102
RTVSPropertyOp31
 70
     1
102
RTVSPropertyOp32
 70
     1
  0
XRECORD
  5
A535
102
{ACAD_REACTORS
330
A534
102
}
330
A534
100
AcDbXrecord
280
     1
102
RTVSPropertyOp0
 70
     1
102
RTVSPropertyOp1
 70
     1
102
RTVSPropertyOp2
 70
     1
102
RTVSPropertyOp3
 70
     1
102
RTVSPropertyOp4
 70
     1
102
RTVSPropertyOp5
 70
     1
102
RTVSPropertyOp6
 70
     1
102
RTVSPropertyOp7
 70
     1
102
RTVSPropertyOp8
 70
     1
102
RTVSPropertyOp9
 70
     1
102
RTVSPropertyOp10
 70
     1
102
RTVSPropertyOp11
 70
     1
102
RTVSPropertyOp12
 70
     1
102
RTVSPropertyOp13
 70
     1
102
RTVSPropertyOp14
 70
     1
102
RTVSPropertyOp15
 70
     1
102
RTVSPropertyOp16
 70
     1
102
RTVSPropertyOp17
 70
     1
102
RTVSPropertyOp18
 70
     1
102
RTVSPropertyOp19
 70
     1
102
RTVSPropertyOp20
 70
     1
102
RTVSPropertyOp21
 70
     1
102
RTVSPropertyOp22
 70
     1
102
RTVSPropertyOp23
 70
     1
102
RTVSPropertyOp24
 70
     1
102
RTVSPropertyOp25
 70
     1
102
RTVSPropertyOp26
 70
     1
102
RTVSPropertyOp27
 70
     1
102
RTVSPropertyOp28
 70
     1
102
RTVSPropertyOp29
 70
     1
102
RTVSPropertyOp30
 70
     1
102
RTVSPropertyOp31
 70
     1
102
RTVSPropertyOp32
 70
     1
  0
XRECORD
  5
A53D
102
{ACAD_REACTORS
330
A53C
102
}
330
A53C
100
AcDbXrecord
280
     1
102
RTVSPropertyOp0
 70
     1
102
RTVSPropertyOp1
 70
     1
102
RTVSPropertyOp2
 70
     1
102
RTVSPropertyOp3
 70
     1
102
RTVSPropertyOp4
 70
     1
102
RTVSPropertyOp5
 70
     1
102
RTVSPropertyOp6
 70
     1
102
RTVSPropertyOp7
 70
     1
102
RTVSPropertyOp8
 70
     1
102
RTVSPropertyOp9
 70
     1
102
RTVSPropertyOp10
 70
     1
102
RTVSPropertyOp11
 70
     1
102
RTVSPropertyOp12
 70
     1
102
RTVSPropertyOp13
 70
     1
102
RTVSPropertyOp14
 70
     1
102
RTVSPropertyOp15
 70
     1
102
RTVSPropertyOp16
 70
     1
102
RTVSPropertyOp17
 70
     1
102
RTVSPropertyOp18
 70
     1
102
RTVSPropertyOp19
 70
     1
102
RTVSPropertyOp20
 70
     1
102
RTVSPropertyOp21
 70
     1
102
RTVSPropertyOp22
 70
     1
102
RTVSPropertyOp23
 70
     1
102
RTVSPropertyOp24
 70
     1
102
RTVSPropertyOp25
 70
     1
102
RTVSPropertyOp26
 70
     1
102
RTVSPropertyOp27
 70
     1
102
RTVSPropertyOp28
 70
     1
102
RTVSPropertyOp29
 70
     1
102
RTVSPropertyOp30
 70
     1
102
RTVSPropertyOp31
 70
     1
102
RTVSPropertyOp32
 70
     1
  0
XRECORD
  5
A52F
102
{ACAD_REACTORS
330
A52E
102
}
330
A52E
100
AcDbXrecord
280
     1
102
RTVSPropertyOp0
 70
     1
102
RTVSPropertyOp1
 70
     1
102
RTVSPropertyOp2
 70
     1
102
RTVSPropertyOp3
 70
     1
102
RTVSPropertyOp4
 70
     1
102
RTVSPropertyOp5
 70
     1
102
RTVSPropertyOp6
 70
     1
102
RTVSPropertyOp7
 70
     1
102
RTVSPropertyOp8
 70
     1
102
RTVSPropertyOp9
 70
     1
102
RTVSPropertyOp10
 70
     1
102
RTVSPropertyOp11
 70
     1
102
RTVSPropertyOp12
 70
     1
102
RTVSPropertyOp13
 70
     1
102
RTVSPropertyOp14
 70
     1
102
RTVSPropertyOp15
 70
     1
102
RTVSPropertyOp16
 70
     1
102
RTVSPropertyOp17
 70
     1
102
RTVSPropertyOp18
 70
     1
102
RTVSPropertyOp19
 70
     1
102
RTVSPropertyOp20
 70
     1
102
RTVSPropertyOp21
 70
     1
102
RTVSPropertyOp22
 70
     1
102
RTVSPropertyOp23
 70
     1
102
RTVSPropertyOp24
 70
     1
102
RTVSPropertyOp25
 70
     1
102
RTVSPropertyOp26
 70
     1
102
RTVSPropertyOp27
 70
     1
102
RTVSPropertyOp28
 70
     1
102
RTVSPropertyOp29
 70
     1
102
RTVSPropertyOp30
 70
     1
102
RTVSPropertyOp31
 70
     1
102
RTVSPropertyOp32
 70
     1
  0
XRECORD
  5
A533
102
{ACAD_REACTORS
330
A532
102
}
330
A532
100
AcDbXrecord
280
     1
102
RTVSPropertyOp0
 70
     1
102
RTVSPropertyOp1
 70
     1
102
RTVSPropertyOp2
 70
     1
102
RTVSPropertyOp3
 70
     1
102
RTVSPropertyOp4
 70
     1
102
RTVSPropertyOp5
 70
     1
102
RTVSPropertyOp6
 70
     1
102
RTVSPropertyOp7
 70
     1
102
RTVSPropertyOp8
 70
     1
102
RTVSPropertyOp9
 70
     1
102
RTVSPropertyOp10
 70
     1
102
RTVSPropertyOp11
 70
     1
102
RTVSPropertyOp12
 70
     1
102
RTVSPropertyOp13
 70
     1
102
RTVSPropertyOp14
 70
     1
102
RTVSPropertyOp15
 70
     1
102
RTVSPropertyOp16
 70
     1
102
RTVSPropertyOp17
 70
     1
102
RTVSPropertyOp18
 70
     1
102
RTVSPropertyOp19
 70
     1
102
RTVSPropertyOp20
 70
     1
102
RTVSPropertyOp21
 70
     1
102
RTVSPropertyOp22
 70
     1
102
RTVSPropertyOp23
 70
     1
102
RTVSPropertyOp24
 70
     1
102
RTVSPropertyOp25
 70
     1
102
RTVSPropertyOp26
 70
     1
102
RTVSPropertyOp27
 70
     1
102
RTVSPropertyOp28
 70
     1
102
RTVSPropertyOp29
 70
     1
102
RTVSPropertyOp30
 70
     1
102
RTVSPropertyOp31
 70
     1
102
RTVSPropertyOp32
 70
     1
  0
XRECORD
  5
A552
102
{ACAD_REACTORS
330
A551
102
}
330
A551
100
AcDbXrecord
280
     1
102
RTVSPropertyOp0
 70
     0
102
RTVSPropertyOp1
 70
     0
102
RTVSPropertyOp2
 70
     0
102
RTVSPropertyOp3
 70
     0
102
RTVSPropertyOp4
 70
     0
102
RTVSPropertyOp5
 70
     0
102
RTVSPropertyOp6
 70
     0
102
RTVSPropertyOp7
 70
     0
102
RTVSPropertyOp8
 70
     0
102
RTVSPropertyOp9
 70
     0
102
RTVSPropertyOp10
 70
     0
102
RTVSPropertyOp11
 70
     0
102
RTVSPropertyOp12
 70
     0
102
RTVSPropertyOp13
 70
     0
102
RTVSPropertyOp14
 70
     2
102
RTVSPropertyOp15
 70
     0
102
RTVSPropertyOp16
 70
     0
102
RTVSPropertyOp17
 70
     0
102
RTVSPropertyOp18
 70
     0
102
RTVSPropertyOp19
 70
     0
102
RTVSPropertyOp20
 70
     0
102
RTVSPropertyOp21
 70
     0
102
RTVSPropertyOp22
 70
     0
102
RTVSPropertyOp23
 70
     0
102
RTVSPropertyOp24
 70
     0
102
RTVSPropertyOp25
 70
     0
102
RTVSPropertyOp26
 70
     0
102
RTVSPropertyOp27
 70
     0
102
RTVSPropertyOp28
 70
     1
102
RTVSPropertyOp29
 70
     1
102
RTVSPropertyOp30
 70
     1
102
RTVSPropertyOp31
 70
     1
102
RTVSPropertyOp32
 70
     1
  0
XRECORD
  5
A53B
102
{ACAD_REACTORS
330
A53A
102
}
330
A53A
100
AcDbXrecord
280
     1
102
RTVSPropertyOp0
 70
     1
102
RTVSPropertyOp1
 70
     1
102
RTVSPropertyOp2
 70
     1
102
RTVSPropertyOp3
 70
     1
102
RTVSPropertyOp4
 70
     1
102
RTVSPropertyOp5
 70
     1
102
RTVSPropertyOp6
 70
     1
102
RTVSPropertyOp7
 70
     1
102
RTVSPropertyOp8
 70
     1
102
RTVSPropertyOp9
 70
     1
102
RTVSPropertyOp10
 70
     1
102
RTVSPropertyOp11
 70
     1
102
RTVSPropertyOp12
 70
     1
102
RTVSPropertyOp13
 70
     1
102
RTVSPropertyOp14
 70
     1
102
RTVSPropertyOp15
 70
     1
102
RTVSPropertyOp16
 70
     1
102
RTVSPropertyOp17
 70
     1
102
RTVSPropertyOp18
 70
     1
102
RTVSPropertyOp19
 70
     1
102
RTVSPropertyOp20
 70
     1
102
RTVSPropertyOp21
 70
     1
102
RTVSPropertyOp22
 70
     1
102
RTVSPropertyOp23
 70
     1
102
RTVSPropertyOp24
 70
     1
102
RTVSPropertyOp25
 70
     1
102
RTVSPropertyOp26
 70
     1
102
RTVSPropertyOp27
 70
     1
102
RTVSPropertyOp28
 70
     1
102
RTVSPropertyOp29
 70
     1
102
RTVSPropertyOp30
 70
     1
102
RTVSPropertyOp31
 70
     1
102
RTVSPropertyOp32
 70
     1
  0
XRECORD
  5
A51F
102
{ACAD_REACTORS
330
A51E
102
}
330
A51E
100
AcDbXrecord
280
     1
102
RTVSPropertyOp0
 70
     1
102
RTVSPropertyOp1
 70
     1
102
RTVSPropertyOp2
 70
     1
102
RTVSPropertyOp3
 70
     1
102
RTVSPropertyOp4
 70
     1
102
RTVSPropertyOp5
 70
     1
102
RTVSPropertyOp6
 70
     1
102
RTVSPropertyOp7
 70
     1
102
RTVSPropertyOp8
 70
     1
102
RTVSPropertyOp9
 70
     1
102
RTVSPropertyOp10
 70
     1
102
RTVSPropertyOp11
 70
     1
102
RTVSPropertyOp12
 70
     1
102
RTVSPropertyOp13
 70
     1
102
RTVSPropertyOp14
 70
     1
102
RTVSPropertyOp15
 70
     1
102
RTVSPropertyOp16
 70
     1
102
RTVSPropertyOp17
 70
     1
102
RTVSPropertyOp18
 70
     1
102
RTVSPropertyOp19
 70
     1
102
RTVSPropertyOp20
 70
     1
102
RTVSPropertyOp21
 70
     1
102
RTVSPropertyOp22
 70
     1
102
RTVSPropertyOp23
 70
     1
102
RTVSPropertyOp24
 70
     1
102
RTVSPropertyOp25
 70
     1
102
RTVSPropertyOp26
 70
     1
102
RTVSPropertyOp27
 70
     1
102
RTVSPropertyOp28
 70
     1
102
RTVSPropertyOp29
 70
     1
102
RTVSPropertyOp30
 70
     1
102
RTVSPropertyOp31
 70
     1
102
RTVSPropertyOp32
 70
     1
  0
XRECORD
  5
A521
102
{ACAD_REACTORS
330
A520
102
}
330
A520
100
AcDbXrecord
280
     1
102
RTVSPropertyOp0
 70
     1
102
RTVSPropertyOp1
 70
     1
102
RTVSPropertyOp2
 70
     1
102
RTVSPropertyOp3
 70
     1
102
RTVSPropertyOp4
 70
     1
102
RTVSPropertyOp5
 70
     1
102
RTVSPropertyOp6
 70
     1
102
RTVSPropertyOp7
 70
     1
102
RTVSPropertyOp8
 70
     1
102
RTVSPropertyOp9
 70
     1
102
RTVSPropertyOp10
 70
     1
102
RTVSPropertyOp11
 70
     1
102
RTVSPropertyOp12
 70
     1
102
RTVSPropertyOp13
 70
     1
102
RTVSPropertyOp14
 70
     1
102
RTVSPropertyOp15
 70
     1
102
RTVSPropertyOp16
 70
     1
102
RTVSPropertyOp17
 70
     1
102
RTVSPropertyOp18
 70
     1
102
RTVSPropertyOp19
 70
     1
102
RTVSPropertyOp20
 70
     1
102
RTVSPropertyOp21
 70
     1
102
RTVSPropertyOp22
 70
     1
102
RTVSPropertyOp23
 70
     1
102
RTVSPropertyOp24
 70
     1
102
RTVSPropertyOp25
 70
     1
102
RTVSPropertyOp26
 70
     1
102
RTVSPropertyOp27
 70
     1
102
RTVSPropertyOp28
 70
     1
102
RTVSPropertyOp29
 70
     1
102
RTVSPropertyOp30
 70
     1
102
RTVSPropertyOp31
 70
     1
102
RTVSPropertyOp32
 70
     1
  0
XRECORD
  5
A523
102
{ACAD_REACTORS
330
A522
102
}
330
A522
100
AcDbXrecord
280
     1
102
RTVSPropertyOp0
 70
     1
102
RTVSPropertyOp1
 70
     1
102
RTVSPropertyOp2
 70
     1
102
RTVSPropertyOp3
 70
     1
102
RTVSPropertyOp4
 70
     1
102
RTVSPropertyOp5
 70
     1
102
RTVSPropertyOp6
 70
     1
102
RTVSPropertyOp7
 70
     1
102
RTVSPropertyOp8
 70
     1
102
RTVSPropertyOp9
 70
     1
102
RTVSPropertyOp10
 70
     1
102
RTVSPropertyOp11
 70
     1
102
RTVSPropertyOp12
 70
     1
102
RTVSPropertyOp13
 70
     1
102
RTVSPropertyOp14
 70
     1
102
RTVSPropertyOp15
 70
     1
102
RTVSPropertyOp16
 70
     1
102
RTVSPropertyOp17
 70
     1
102
RTVSPropertyOp18
 70
     1
102
RTVSPropertyOp19
 70
     1
102
RTVSPropertyOp20
 70
     1
102
RTVSPropertyOp21
 70
     1
102
RTVSPropertyOp22
 70
     1
102
RTVSPropertyOp23
 70
     1
102
RTVSPropertyOp24
 70
     1
102
RTVSPropertyOp25
 70
     1
102
RTVSPropertyOp26
 70
     1
102
RTVSPropertyOp27
 70
     1
102
RTVSPropertyOp28
 70
     1
102
RTVSPropertyOp29
 70
     1
102
RTVSPropertyOp30
 70
     1
102
RTVSPropertyOp31
 70
     1
102
RTVSPropertyOp32
 70
     1
  0
XRECORD
  5
A525
102
{ACAD_REACTORS
330
A524
102
}
330
A524
100
AcDbXrecord
280
     1
102
RTVSPropertyOp0
 70
     1
102
RTVSPropertyOp1
 70
     1
102
RTVSPropertyOp2
 70
     1
102
RTVSPropertyOp3
 70
     1
102
RTVSPropertyOp4
 70
     1
102
RTVSPropertyOp5
 70
     1
102
RTVSPropertyOp6
 70
     1
102
RTVSPropertyOp7
 70
     1
102
RTVSPropertyOp8
 70
     1
102
RTVSPropertyOp9
 70
     1
102
RTVSPropertyOp10
 70
     1
102
RTVSPropertyOp11
 70
     1
102
RTVSPropertyOp12
 70
     1
102
RTVSPropertyOp13
 70
     1
102
RTVSPropertyOp14
 70
     1
102
RTVSPropertyOp15
 70
     1
102
RTVSPropertyOp16
 70
     1
102
RTVSPropertyOp17
 70
     1
102
RTVSPropertyOp18
 70
     1
102
RTVSPropertyOp19
 70
     1
102
RTVSPropertyOp20
 70
     1
102
RTVSPropertyOp21
 70
     1
102
RTVSPropertyOp22
 70
     1
102
RTVSPropertyOp23
 70
     1
102
RTVSPropertyOp24
 70
     1
102
RTVSPropertyOp25
 70
     1
102
RTVSPropertyOp26
 70
     1
102
RTVSPropertyOp27
 70
     1
102
RTVSPropertyOp28
 70
     1
102
RTVSPropertyOp29
 70
     1
102
RTVSPropertyOp30
 70
     1
102
RTVSPropertyOp31
 70
     1
102
RTVSPropertyOp32
 70
     1
  0
XRECORD
  5
A542
102
{ACAD_REACTORS
330
A541
102
}
330
A541
100
AcDbXrecord
280
     1
102
RTVSPropertyOp0
 70
     1
102
RTVSPropertyOp1
 70
     1
102
RTVSPropertyOp2
 70
     1
102
RTVSPropertyOp3
 70
     1
102
RTVSPropertyOp4
 70
     1
102
RTVSPropertyOp5
 70
     1
102
RTVSPropertyOp6
 70
     1
102
RTVSPropertyOp7
 70
     1
102
RTVSPropertyOp8
 70
     1
102
RTVSPropertyOp9
 70
     1
102
RTVSPropertyOp10
 70
     1
102
RTVSPropertyOp11
 70
     1
102
RTVSPropertyOp12
 70
     1
102
RTVSPropertyOp13
 70
     1
102
RTVSPropertyOp14
 70
     1
102
RTVSPropertyOp15
 70
     1
102
RTVSPropertyOp16
 70
     1
102
RTVSPropertyOp17
 70
     1
102
RTVSPropertyOp18
 70
     1
102
RTVSPropertyOp19
 70
     1
102
RTVSPropertyOp20
 70
     1
102
RTVSPropertyOp21
 70
     1
102
RTVSPropertyOp22
 70
     1
102
RTVSPropertyOp23
 70
     1
102
RTVSPropertyOp24
 70
     1
102
RTVSPropertyOp25
 70
     1
102
RTVSPropertyOp26
 70
     1
102
RTVSPropertyOp27
 70
     1
102
RTVSPropertyOp28
 70
     1
102
RTVSPropertyOp29
 70
     1
102
RTVSPropertyOp30
 70
     1
102
RTVSPropertyOp31
 70
     1
102
RTVSPropertyOp32
 70
     1
  0
XRECORD
  5
A54E
102
{ACAD_REACTORS
330
A54D
102
}
330
A54D
100
AcDbXrecord
280
     1
102
RTVSPropertyOp0
 70
     0
102
RTVSPropertyOp1
 70
     0
102
RTVSPropertyOp2
 70
     0
102
RTVSPropertyOp3
 70
     0
102
RTVSPropertyOp4
 70
     0
102
RTVSPropertyOp5
 70
     0
102
RTVSPropertyOp6
 70
     0
102
RTVSPropertyOp7
 70
     0
102
RTVSPropertyOp8
 70
     0
102
RTVSPropertyOp9
 70
     0
102
RTVSPropertyOp10
 70
     0
102
RTVSPropertyOp11
 70
     0
102
RTVSPropertyOp12
 70
     0
102
RTVSPropertyOp13
 70
     0
102
RTVSPropertyOp14
 70
     2
102
RTVSPropertyOp15
 70
     0
102
RTVSPropertyOp16
 70
     0
102
RTVSPropertyOp17
 70
     0
102
RTVSPropertyOp18
 70
     0
102
RTVSPropertyOp19
 70
     0
102
RTVSPropertyOp20
 70
     0
102
RTVSPropertyOp21
 70
     0
102
RTVSPropertyOp22
 70
     0
102
RTVSPropertyOp23
 70
     0
102
RTVSPropertyOp24
 70
     0
102
RTVSPropertyOp25
 70
     0
102
RTVSPropertyOp26
 70
     0
102
RTVSPropertyOp27
 70
     0
102
RTVSPropertyOp28
 70
     1
102
RTVSPropertyOp29
 70
     1
102
RTVSPropertyOp30
 70
     1
102
RTVSPropertyOp31
 70
     1
102
RTVSPropertyOp32
 70
     1
  0
XRECORD
  5
A539
102
{ACAD_REACTORS
330
A538
102
}
330
A538
100
AcDbXrecord
280
     1
102
RTVSPropertyOp0
 70
     1
102
RTVSPropertyOp1
 70
     1
102
RTVSPropertyOp2
 70
     1
102
RTVSPropertyOp3
 70
     1
102
RTVSPropertyOp4
 70
     1
102
RTVSPropertyOp5
 70
     1
102
RTVSPropertyOp6
 70
     1
102
RTVSPropertyOp7
 70
     1
102
RTVSPropertyOp8
 70
     1
102
RTVSPropertyOp9
 70
     1
102
RTVSPropertyOp10
 70
     1
102
RTVSPropertyOp11
 70
     1
102
RTVSPropertyOp12
 70
     1
102
RTVSPropertyOp13
 70
     1
102
RTVSPropertyOp14
 70
     1
102
RTVSPropertyOp15
 70
     1
102
RTVSPropertyOp16
 70
     1
102
RTVSPropertyOp17
 70
     1
102
RTVSPropertyOp18
 70
     1
102
RTVSPropertyOp19
 70
     1
102
RTVSPropertyOp20
 70
     1
102
RTVSPropertyOp21
 70
     1
102
RTVSPropertyOp22
 70
     1
102
RTVSPropertyOp23
 70
     1
102
RTVSPropertyOp24
 70
     1
102
RTVSPropertyOp25
 70
     1
102
RTVSPropertyOp26
 70
     1
102
RTVSPropertyOp27
 70
     1
102
RTVSPropertyOp28
 70
     1
102
RTVSPropertyOp29
 70
     1
102
RTVSPropertyOp30
 70
     1
102
RTVSPropertyOp31
 70
     1
102
RTVSPropertyOp32
 70
     1
  0
XRECORD
  5
A550
102
{ACAD_REACTORS
330
A54F
102
}
330
A54F
100
AcDbXrecord
280
     1
102
RTVSPropertyOp0
 70
     0
102
RTVSPropertyOp1
 70
     0
102
RTVSPropertyOp2
 70
     0
102
RTVSPropertyOp3
 70
     0
102
RTVSPropertyOp4
 70
     0
102
RTVSPropertyOp5
 70
     0
102
RTVSPropertyOp6
 70
     0
102
RTVSPropertyOp7
 70
     0
102
RTVSPropertyOp8
 70
     0
102
RTVSPropertyOp9
 70
     0
102
RTVSPropertyOp10
 70
     0
102
RTVSPropertyOp11
 70
     0
102
RTVSPropertyOp12
 70
     0
102
RTVSPropertyOp13
 70
     0
102
RTVSPropertyOp14
 70
     2
102
RTVSPropertyOp15
 70
     0
102
RTVSPropertyOp16
 70
     0
102
RTVSPropertyOp17
 70
     0
102
RTVSPropertyOp18
 70
     0
102
RTVSPropertyOp19
 70
     0
102
RTVSPropertyOp20
 70
     0
102
RTVSPropertyOp21
 70
     0
102
RTVSPropertyOp22
 70
     0
102
RTVSPropertyOp23
 70
     0
102
RTVSPropertyOp24
 70
     0
102
RTVSPropertyOp25
 70
     0
102
RTVSPropertyOp26
 70
     0
102
RTVSPropertyOp27
 70
     0
102
RTVSPropertyOp28
 70
     1
102
RTVSPropertyOp29
 70
     1
102
RTVSPropertyOp30
 70
     1
102
RTVSPropertyOp31
 70
     1
102
RTVSPropertyOp32
 70
     1
  0
XRECORD
  5
A531
102
{ACAD_REACTORS
330
A530
102
}
330
A530
100
AcDbXrecord
280
     1
102
RTVSPropertyOp0
 70
     1
102
RTVSPropertyOp1
 70
     1
102
RTVSPropertyOp2
 70
     1
102
RTVSPropertyOp3
 70
     1
102
RTVSPropertyOp4
 70
     1
102
RTVSPropertyOp5
 70
     1
102
RTVSPropertyOp6
 70
     1
102
RTVSPropertyOp7
 70
     1
102
RTVSPropertyOp8
 70
     1
102
RTVSPropertyOp9
 70
     1
102
RTVSPropertyOp10
 70
     1
102
RTVSPropertyOp11
 70
     1
102
RTVSPropertyOp12
 70
     1
102
RTVSPropertyOp13
 70
     1
102
RTVSPropertyOp14
 70
     1
102
RTVSPropertyOp15
 70
     1
102
RTVSPropertyOp16
 70
     1
102
RTVSPropertyOp17
 70
     1
102
RTVSPropertyOp18
 70
     1
102
RTVSPropertyOp19
 70
     1
102
RTVSPropertyOp20
 70
     1
102
RTVSPropertyOp21
 70
     1
102
RTVSPropertyOp22
 70
     1
102
RTVSPropertyOp23
 70
     1
102
RTVSPropertyOp24
 70
     1
102
RTVSPropertyOp25
 70
     1
102
RTVSPropertyOp26
 70
     1
102
RTVSPropertyOp27
 70
     1
102
RTVSPropertyOp28
 70
     1
102
RTVSPropertyOp29
 70
     1
102
RTVSPropertyOp30
 70
     1
102
RTVSPropertyOp31
 70
     1
102
RTVSPropertyOp32
 70
     1
  0
XRECORD
  5
A54C
102
{ACAD_REACTORS
330
A54B
102
}
330
A54B
100
AcDbXrecord
280
     1
102
RTVSPropertyOp0
 70
     1
102
RTVSPropertyOp1
 70
     1
102
RTVSPropertyOp2
 70
     1
102
RTVSPropertyOp3
 70
     1
102
RTVSPropertyOp4
 70
     1
102
RTVSPropertyOp5
 70
     1
102
RTVSPropertyOp6
 70
     1
102
RTVSPropertyOp7
 70
     1
102
RTVSPropertyOp8
 70
     1
102
RTVSPropertyOp9
 70
     1
102
RTVSPropertyOp10
 70
     1
102
RTVSPropertyOp11
 70
     1
102
RTVSPropertyOp12
 70
     1
102
RTVSPropertyOp13
 70
     1
102
RTVSPropertyOp14
 70
     1
102
RTVSPropertyOp15
 70
     1
102
RTVSPropertyOp16
 70
     1
102
RTVSPropertyOp17
 70
     1
102
RTVSPropertyOp18
 70
     1
102
RTVSPropertyOp19
 70
     1
102
RTVSPropertyOp20
 70
     1
102
RTVSPropertyOp21
 70
     1
102
RTVSPropertyOp22
 70
     1
102
RTVSPropertyOp23
 70
     1
102
RTVSPropertyOp24
 70
     1
102
RTVSPropertyOp25
 70
     1
102
RTVSPropertyOp26
 70
     1
102
RTVSPropertyOp27
 70
     1
102
RTVSPropertyOp28
 70
     1
102
RTVSPropertyOp29
 70
     1
102
RTVSPropertyOp30
 70
     1
102
RTVSPropertyOp31
 70
     1
102
RTVSPropertyOp32
 70
     1
  0
XRECORD
  5
A54A
102
{ACAD_REACTORS
330
A549
102
}
330
A549
100
AcDbXrecord
280
     1
102
RTVSPropertyOp0
 70
     1
102
RTVSPropertyOp1
 70
     1
102
RTVSPropertyOp2
 70
     1
102
RTVSPropertyOp3
 70
     1
102
RTVSPropertyOp4
 70
     1
102
RTVSPropertyOp5
 70
     1
102
RTVSPropertyOp6
 70
     1
102
RTVSPropertyOp7
 70
     1
102
RTVSPropertyOp8
 70
     1
102
RTVSPropertyOp9
 70
     1
102
RTVSPropertyOp10
 70
     1
102
RTVSPropertyOp11
 70
     1
102
RTVSPropertyOp12
 70
     1
102
RTVSPropertyOp13
 70
     1
102
RTVSPropertyOp14
 70
     1
102
RTVSPropertyOp15
 70
     1
102
RTVSPropertyOp16
 70
     1
102
RTVSPropertyOp17
 70
     1
102
RTVSPropertyOp18
 70
     1
102
RTVSPropertyOp19
 70
     1
102
RTVSPropertyOp20
 70
     1
102
RTVSPropertyOp21
 70
     1
102
RTVSPropertyOp22
 70
     1
102
RTVSPropertyOp23
 70
     1
102
RTVSPropertyOp24
 70
     1
102
RTVSPropertyOp25
 70
     1
102
RTVSPropertyOp26
 70
     1
102
RTVSPropertyOp27
 70
     1
102
RTVSPropertyOp28
 70
     1
102
RTVSPropertyOp29
 70
     1
102
RTVSPropertyOp30
 70
     1
102
RTVSPropertyOp31
 70
     1
102
RTVSPropertyOp32
 70
     1
  0
XRECORD
  5
A544
102
{ACAD_REACTORS
330
A543
102
}
330
A543
100
AcDbXrecord
280
     1
102
RTVSPropertyOp0
 70
     1
102
RTVSPropertyOp1
 70
     1
102
RTVSPropertyOp2
 70
     1
102
RTVSPropertyOp3
 70
     1
102
RTVSPropertyOp4
 70
     1
102
RTVSPropertyOp5
 70
     1
102
RTVSPropertyOp6
 70
     1
102
RTVSPropertyOp7
 70
     1
102
RTVSPropertyOp8
 70
     1
102
RTVSPropertyOp9
 70
     1
102
RTVSPropertyOp10
 70
     1
102
RTVSPropertyOp11
 70
     1
102
RTVSPropertyOp12
 70
     1
102
RTVSPropertyOp13
 70
     1
102
RTVSPropertyOp14
 70
     1
102
RTVSPropertyOp15
 70
     1
102
RTVSPropertyOp16
 70
     1
102
RTVSPropertyOp17
 70
     1
102
RTVSPropertyOp18
 70
     1
102
RTVSPropertyOp19
 70
     1
102
RTVSPropertyOp20
 70
     1
102
RTVSPropertyOp21
 70
     1
102
RTVSPropertyOp22
 70
     1
102
RTVSPropertyOp23
 70
     1
102
RTVSPropertyOp24
 70
     1
102
RTVSPropertyOp25
 70
     1
102
RTVSPropertyOp26
 70
     1
102
RTVSPropertyOp27
 70
     1
102
RTVSPropertyOp28
 70
     1
102
RTVSPropertyOp29
 70
     1
102
RTVSPropertyOp30
 70
     1
102
RTVSPropertyOp31
 70
     1
102
RTVSPropertyOp32
 70
     1
  0
XRECORD
  5
A546
102
{ACAD_REACTORS
330
A545
102
}
330
A545
100
AcDbXrecord
280
     1
102
RTVSPropertyOp0
 70
     1
102
RTVSPropertyOp1
 70
     1
102
RTVSPropertyOp2
 70
     1
102
RTVSPropertyOp3
 70
     1
102
RTVSPropertyOp4
 70
     1
102
RTVSPropertyOp5
 70
     1
102
RTVSPropertyOp6
 70
     1
102
RTVSPropertyOp7
 70
     1
102
RTVSPropertyOp8
 70
     1
102
RTVSPropertyOp9
 70
     1
102
RTVSPropertyOp10
 70
     1
102
RTVSPropertyOp11
 70
     1
102
RTVSPropertyOp12
 70
     1
102
RTVSPropertyOp13
 70
     1
102
RTVSPropertyOp14
 70
     1
102
RTVSPropertyOp15
 70
     1
102
RTVSPropertyOp16
 70
     1
102
RTVSPropertyOp17
 70
     1
102
RTVSPropertyOp18
 70
     1
102
RTVSPropertyOp19
 70
     1
102
RTVSPropertyOp20
 70
     1
102
RTVSPropertyOp21
 70
     1
102
RTVSPropertyOp22
 70
     1
102
RTVSPropertyOp23
 70
     1
102
RTVSPropertyOp24
 70
     1
102
RTVSPropertyOp25
 70
     1
102
RTVSPropertyOp26
 70
     1
102
RTVSPropertyOp27
 70
     1
102
RTVSPropertyOp28
 70
     1
102
RTVSPropertyOp29
 70
     1
102
RTVSPropertyOp30
 70
     1
102
RTVSPropertyOp31
 70
     1
102
RTVSPropertyOp32
 70
     1
  0
XRECORD
  5
A537
102
{ACAD_REACTORS
330
A536
102
}
330
A536
100
AcDbXrecord
280
     1
102
RTVSPropertyOp0
 70
     1
102
RTVSPropertyOp1
 70
     1
102
RTVSPropertyOp2
 70
     1
102
RTVSPropertyOp3
 70
     1
102
RTVSPropertyOp4
 70
     1
102
RTVSPropertyOp5
 70
     1
102
RTVSPropertyOp6
 70
     1
102
RTVSPropertyOp7
 70
     1
102
RTVSPropertyOp8
 70
     1
102
RTVSPropertyOp9
 70
     1
102
RTVSPropertyOp10
 70
     1
102
RTVSPropertyOp11
 70
     1
102
RTVSPropertyOp12
 70
     1
102
RTVSPropertyOp13
 70
     1
102
RTVSPropertyOp14
 70
     1
102
RTVSPropertyOp15
 70
     1
102
RTVSPropertyOp16
 70
     1
102
RTVSPropertyOp17
 70
     1
102
RTVSPropertyOp18
 70
     1
102
RTVSPropertyOp19
 70
     1
102
RTVSPropertyOp20
 70
     1
102
RTVSPropertyOp21
 70
     1
102
RTVSPropertyOp22
 70
     1
102
RTVSPropertyOp23
 70
     1
102
RTVSPropertyOp24
 70
     1
102
RTVSPropertyOp25
 70
     1
102
RTVSPropertyOp26
 70
     1
102
RTVSPropertyOp27
 70
     1
102
RTVSPropertyOp28
 70
     1
102
RTVSPropertyOp29
 70
     1
102
RTVSPropertyOp30
 70
     1
102
RTVSPropertyOp31
 70
     1
102
RTVSPropertyOp32
 70
     1
  0
XRECORD
  5
A540
102
{ACAD_REACTORS
330
A53F
102
}
330
A53F
100
AcDbXrecord
280
     1
102
RTVSPropertyOp0
 70
     1
102
RTVSPropertyOp1
 70
     1
102
RTVSPropertyOp2
 70
     1
102
RTVSPropertyOp3
 70
     1
102
RTVSPropertyOp4
 70
     1
102
RTVSPropertyOp5
 70
     1
102
RTVSPropertyOp6
 70
     1
102
RTVSPropertyOp7
 70
     1
102
RTVSPropertyOp8
 70
     1
102
RTVSPropertyOp9
 70
     1
102
RTVSPropertyOp10
 70
     1
102
RTVSPropertyOp11
 70
     1
102
RTVSPropertyOp12
 70
     1
102
RTVSPropertyOp13
 70
     1
102
RTVSPropertyOp14
 70
     1
102
RTVSPropertyOp15
 70
     1
102
RTVSPropertyOp16
 70
     1
102
RTVSPropertyOp17
 70
     1
102
RTVSPropertyOp18
 70
     1
102
RTVSPropertyOp19
 70
     1
102
RTVSPropertyOp20
 70
     1
102
RTVSPropertyOp21
 70
     1
102
RTVSPropertyOp22
 70
     1
102
RTVSPropertyOp23
 70
     1
102
RTVSPropertyOp24
 70
     1
102
RTVSPropertyOp25
 70
     1
102
RTVSPropertyOp26
 70
     1
102
RTVSPropertyOp27
 70
     1
102
RTVSPropertyOp28
 70
     1
102
RTVSPropertyOp29
 70
     1
102
RTVSPropertyOp30
 70
     1
102
RTVSPropertyOp31
 70
     1
102
RTVSPropertyOp32
 70
     1
  0
XRECORD
  5
A548
102
{ACAD_REACTORS
330
A547
102
}
330
A547
100
AcDbXrecord
280
     1
102
RTVSPropertyOp0
 70
     1
102
RTVSPropertyOp1
 70
     1
102
RTVSPropertyOp2
 70
     1
102
RTVSPropertyOp3
 70
     1
102
RTVSPropertyOp4
 70
     1
102
RTVSPropertyOp5
 70
     1
102
RTVSPropertyOp6
 70
     1
102
RTVSPropertyOp7
 70
     1
102
RTVSPropertyOp8
 70
     1
102
RTVSPropertyOp9
 70
     1
102
RTVSPropertyOp10
 70
     1
102
RTVSPropertyOp11
 70
     1
102
RTVSPropertyOp12
 70
     1
102
RTVSPropertyOp13
 70
     1
102
RTVSPropertyOp14
 70
     1
102
RTVSPropertyOp15
 70
     1
102
RTVSPropertyOp16
 70
     1
102
RTVSPropertyOp17
 70
     1
102
RTVSPropertyOp18
 70
     1
102
RTVSPropertyOp19
 70
     1
102
RTVSPropertyOp20
 70
     1
102
RTVSPropertyOp21
 70
     1
102
RTVSPropertyOp22
 70
     1
102
RTVSPropertyOp23
 70
     1
102
RTVSPropertyOp24
 70
     1
102
RTVSPropertyOp25
 70
     1
102
RTVSPropertyOp26
 70
     1
102
RTVSPropertyOp27
 70
     1
102
RTVSPropertyOp28
 70
     1
102
RTVSPropertyOp29
 70
     1
102
RTVSPropertyOp30
 70
     1
102
RTVSPropertyOp31
 70
     1
102
RTVSPropertyOp32
 70
     1
  0
ENDSEC
  0
EOF
