  0
SECTION
  2
HEADER
  9
$ACADVER
  1
AC1015
  9
$ACADMAINTVER
 70
     6
  9
$DWGCODEPAGE
  3
ANSI_1252
  9
$INSBASE
 10
0.0
 20
0.0
 30
0.0
  9
$EXTMIN
 10
0.0
 20
0.0
 30
0.0
  9
$EXTMAX
 10
3000.0
 20
4500.0
 30
0.0
  9
$LIMMIN
 10
0.0
 20
0.0
  9
$LIMMAX
 10
3000.0
 20
4500.0
  9
$ORTHOMODE
 70
     0
  9
$REGENMODE
 70
     1
  9
$FILLMODE
 70
     1
  9
$QTEXTMODE
 70
     0
  9
$MIRRTEXT
 70
     1
  9
$LTSCALE
 40
1.0
  9
$ATTMODE
 70
     1
  9
$TEXTSIZE
 40
2.5
  9
$TRACEWID
 40
1.0
  9
$TEXTSTYLE
  7
Standard
  9
$CLAYER
  8
0
  9
$CELTYPE
  6
ByLayer
  9
$CECOLOR
 62
   256
  9
$CELTSCALE
 40
1.0
  9
$DISPSILH
 70
     0
  9
$DIMSCALE
 40
1.0
  9
$DIMASZ
 40
2.5
  9
$DIMEXO
 40
0.625
  9
$DIMDLI
 40
3.75
  9
$DIMRND
 40
0.0
  9
$DIMDLE
 40
0.0
  9
$DIMEXE
 40
1.25
  9
$DIMTP
 40
0.0
  9
$DIMTM
 40
0.0
  9
$DIMTXT
 40
2.5
  9
$DIMCEN
 40
2.5
  9
$DIMTSZ
 40
0.0
  9
$DIMTOL
 70
     0
  9
$DIMLIM
 70
     0
  9
$DIMTIH
 70
     0
  9
$DIMTOH
 70
     0
  9
$DIMSE1
 70
     0
  9
$DIMSE2
 70
     0
  9
$DIMTAD
 70
     1
  9
$DIMZIN
 70
     8
  9
$DIMBLK
  1

  9
$DIMASO
 70
     1
  9
$DIMSHO
 70
     1
  9
$DIMPOST
  1

  9
$DIMAPOST
  1

  9
$DIMALT
 70
     0
  9
$DIMALTD
 70
     3
  9
$DIMALTF
 40
0.0393700787
  9
$DIMLFAC
 40
1.0
  9
$DIMTOFL
 70
     1
  9
$DIMTVP
 40
0.0
  9
$DIMTIX
 70
     0
  9
$DIMSOXD
 70
     0
  9
$DIMSAH
 70
     0
  9
$DIMBLK1
  1

  9
$DIMBLK2
  1

  9
$DIMSTYLE
  2
ISO-25
  9
$DIMCLRD
 70
     0
  9
$DIMCLRE
 70
     0
  9
$DIMCLRT
 70
     0
  9
$DIMTFAC
 40
1.0
  9
$DIMGAP
 40
0.625
  9
$DIMJUST
 70
     0
  9
$DIMSD1
 70
     0
  9
$DIMSD2
 70
     0
  9
$DIMTOLJ
 70
     0
  9
$DIMTZIN
 70
     8
  9
$DIMALTZ
 70
     0
  9
$DIMALTTZ
 70
     0
  9
$DIMUPT
 70
     0
  9
$DIMDEC
 70
     2
  9
$DIMTDEC
 70
     2
  9
$DIMALTU
 70
     2
  9
$DIMALTTD
 70
     3
  9
$DIMTXSTY
  7
Standard
  9
$DIMAUNIT
 70
     0
  9
$DIMADEC
 70
     0
  9
$DIMALTRND
 40
0.0
  9
$DIMAZIN
 70
     0
  9
$DIMDSEP
 70
    44
  9
$DIMATFIT
 70
     3
  9
$DIMFRAC
 70
     0
  9
$DIMLDRBLK
  1

  9
$DIMLUNIT
 70
     2
  9
$DIMLWD
 70
    -2
  9
$DIMLWE
 70
    -2
  9
$DIMTMOVE
 70
     0
  9
$LUNITS
 70
     2
  9
$LUPREC
 70
     4
  9
$SKETCHINC
 40
1.0
  9
$FILLETRAD
 40
10.0
  9
$AUNITS
 70
     0
  9
$AUPREC
 70
     0
  9
$MENU
  1
.
  9
$ELEVATION
 40
0.0
  9
$PELEVATION
 40
0.0
  9
$THICKNESS
 40
0.0
  9
$LIMCHECK
 70
     0
  9
$CHAMFERA
 40
10.0
  9
$CHAMFERB
 40
10.0
  9
$CHAMFERC
 40
20.0
  9
$CHAMFERD
 40
0.0
  9
$SKPOLY
 70
     0
  9
$TDCREATE
 40
2456622.576031863
  9
$TDUCREATE
 40
2456622.534365197
  9
$TDUPDATE
 40
2456622.576031875
  9
$TDUUPDATE
 40
2456622.534365208
  9
$TDINDWG
 40
0.0000000116
  9
$TDUSRTIMER
 40
0.0000000116
  9
$USRTIMER
 70
     1
  9
$ANGBASE
 50
0.0
  9
$ANGDIR
 70
     0
  9
$PDMODE
 70
     0
  9
$PDSIZE
 40
0.0
  9
$PLINEWID
 40
0.0
  9
$SPLFRAME
 70
     0
  9
$SPLINETYPE
 70
     6
  9
$SPLINESEGS
 70
     8
  9
$HANDSEED
  5
51E
  9
$SURFTAB1
 70
     6
  9
$SURFTAB2
 70
     6
  9
$SURFTYPE
 70
     6
  9
$SURFU
 70
     6
  9
$SURFV
 70
     6
  9
$UCSBASE
  2

  9
$UCSNAME
  2

  9
$UCSORG
 10
0.0
 20
0.0
 30
0.0
  9
$UCSXDIR
 10
1.0
 20
0.0
 30
0.0
  9
$UCSYDIR
 10
0.0
 20
1.0
 30
0.0
  9
$UCSORTHOREF
  2

  9
$UCSORTHOVIEW
 70
     0
  9
$UCSORGTOP
 10
0.0
 20
0.0
 30
0.0
  9
$UCSORGBOTTOM
 10
0.0
 20
0.0
 30
0.0
  9
$UCSORGLEFT
 10
0.0
 20
0.0
 30
0.0
  9
$UCSORGRIGHT
 10
0.0
 20
0.0
 30
0.0
  9
$UCSORGFRONT
 10
0.0
 20
0.0
 30
0.0
  9
$UCSORGBACK
 10
0.0
 20
0.0
 30
0.0
  9
$PUCSBASE
  2

  9
$PUCSNAME
  2

  9
$PUCSORG
 10
0.0
 20
0.0
 30
0.0
  9
$PUCSXDIR
 10
1.0
 20
0.0
 30
0.0
  9
$PUCSYDIR
 10
0.0
 20
1.0
 30
0.0
  9
$PUCSORTHOREF
  2

  9
$PUCSORTHOVIEW
 70
     0
  9
$PUCSORGTOP
 10
0.0
 20
0.0
 30
0.0
  9
$PUCSORGBOTTOM
 10
0.0
 20
0.0
 30
0.0
  9
$PUCSORGLEFT
 10
0.0
 20
0.0
 30
0.0
  9
$PUCSORGRIGHT
 10
0.0
 20
0.0
 30
0.0
  9
$PUCSORGFRONT
 10
0.0
 20
0.0
 30
0.0
  9
$PUCSORGBACK
 10
0.0
 20
0.0
 30
0.0
  9
$USERI1
 70
     0
  9
$USERI2
 70
     0
  9
$USERI3
 70
     0
  9
$USERI4
 70
     0
  9
$USERI5
 70
     0
  9
$USERR1
 40
0.0
  9
$USERR2
 40
0.0
  9
$USERR3
 40
0.0
  9
$USERR4
 40
0.0
  9
$USERR5
 40
0.0
  9
$WORLDVIEW
 70
     1
  9
$SHADEDGE
 70
     3
  9
$SHADEDIF
 70
    70
  9
$TILEMODE
 70
     1
  9
$MAXACTVP
 70
    64
  9
$PINSBASE
 10
0.0
 20
0.0
 30
0.0
  9
$PLIMCHECK
 70
     0
  9
$PEXTMIN
 10
0.0
 20
0.0
 30
0.0
  9
$PEXTMAX
 10
3000.0
 20
4500.0
 30
0.0
  9
$PLIMMIN
 10
0.0
 20
0.0
  9
$PLIMMAX
 10
3000.0
 20
4500.0
  9
$UNITMODE
 70
     0
  9
$VISRETAIN
 70
     1
  9
$PLINEGEN
 70
     0
  9
$PSLTSCALE
 70
     1
  9
$TREEDEPTH
 70
  3020
  9
$CMLSTYLE
  2
Standard
  9
$CMLJUST
 70
     0
  9
$CMLSCALE
 40
20.0
  9
$PROXYGRAPHICS
 70
     1
  9
$MEASUREMENT
 70
     1
  9
$CELWEIGHT
370
    -1
  9
$ENDCAPS
280
     0
  9
$JOINSTYLE
280
     0
  9
$LWDISPLAY
290
     0
  9
$INSUNITS
 70
     4
  9
$HYPERLINKBASE
  1

  9
$STYLESHEET
  1

  9
$XEDIT
290
     1
  9
$CEPSNTYPE
380
     0
  9
$PSTYLEMODE
290
     1
  9
$FINGERPRINTGUID
  2
{CDEEB20B-2CD4-464D-A021-AD874E356C93}
  9
$VERSIONGUID
  2
{FAEB1C32-E019-11D5-929B-00C0DF256EC4}
  9
$EXTNAMES
290
     1
  9
$PSVPSCALE
 40
0.0
  9
$OLESTARTUP
290
     0
  0
ENDSEC
  0
SECTION
  2
CLASSES
  0
CLASS
  1
ACDBDICTIONARYWDFLT
  2
AcDbDictionaryWithDefault
  3
ObjectDBX Classes
 90
        0
280
     0
281
     0
  0
CLASS
  1
VISUALSTYLE
  2
AcDbVisualStyle
  3
ObjectDBX Classes
 90
     4095
280
     0
281
     0
  0
CLASS
  1
SCALE
  2
AcDbScale
  3
ObjectDBX Classes
 90
     1153
280
     0
281
     0
  0
CLASS
  1
DICTIONARYVAR
  2
AcDbDictionaryVar
  3
ObjectDBX Classes
 90
        0
280
     0
281
     0
  0
CLASS
  1
ACDBPLACEHOLDER
  2
AcDbPlaceHolder
  3
ObjectDBX Classes
 90
        0
280
     0
281
     0
  0
CLASS
  1
LAYOUT
  2
AcDbLayout
  3
ObjectDBX Classes
 90
        0
280
     0
281
     0
  0
ENDSEC
  0
SECTION
  2
TABLES
  0
TABLE
  2
VPORT
  5
8
330
0
100
AcDbSymbolTable
 70
     1
  0
VPORT
  5
29
330
8
100
AcDbSymbolTableRecord
100
AcDbViewportTableRecord
  2
*Active
 70
     0
 10
0.0
 20
0.0
 11
1.0
 21
1.0
 12
344.1869158879
 22
148.5
 13
0.0
 23
0.0
 14
10.0
 24
10.0
 15
10.0
 25
10.0
 16
0.0
 26
0.0
 36
1.0
 17
0.0
 27
0.0
 37
0.0
 40
297.0
 41
1.9729729729
 42
50.0
 43
0.0
 44
0.0
 50
0.0
 51
0.0
 71
     0
 72
   100
 73
     1
 74
     3
 75
     0
 76
     0
 77
     0
 78
     0
281
     0
 65
     1
110
0.0
120
0.0
130
0.0
111
1.0
121
0.0
131
0.0
112
0.0
122
1.0
132
0.0
 79
     0
146
0.0
  0
ENDTAB
  0
TABLE
  2
LTYPE
  5
5
330
0
100
AcDbSymbolTable
 70
     2
  0
LTYPE
  5
14
330
5
100
AcDbSymbolTableRecord
100
AcDbLinetypeTableRecord
  2
ByBlock
 70
     0
  3

 72
    65
 73
     0
 40
0.0
  0
LTYPE
  5
15
330
5
100
AcDbSymbolTableRecord
100
AcDbLinetypeTableRecord
  2
ByLayer
 70
     0
  3

 72
    65
 73
     0
 40
0.0
  0
LTYPE
  5
16
330
5
100
AcDbSymbolTableRecord
100
AcDbLinetypeTableRecord
  2
Continuous
 70
     0
  3
Solid line
 72
    65
 73
     0
 40
0.0
  0
LTYPE
  5
62
330
5
100
AcDbSymbolTableRecord
100
AcDbLinetypeTableRecord
  2
CENTER2
 70
     0
  3
Center (.5x) ___ _ ___ _ ___ _ ___ _ ___ _ ___
 72
    65
 73
     4
 40
28.575
 49
19.05
 74
     4
 75
     0
340
0
 46
0.0
 50
0.0
 44
0.0
 45
0.0
 49
-3.175
 74
     4
 75
     0
340
0
 46
0.0
 50
0.0
 44
0.0
 45
0.0
 49
3.175
 74
     4
 75
     0
340
0
 46
0.0
 50
0.0
 44
0.0
 45
0.0
 49
-3.175
 74
     4
 75
     0
340
0
 46
0.0
 50
0.0
 44
0.0
 45
0.0
  0
ENDTAB
  0
TABLE
  2
LAYER
  5
2
330
0
100
AcDbSymbolTable
 70
    16
  0
LAYER
  5
10
330
2
100
AcDbSymbolTableRecord
100
AcDbLayerTableRecord
  2
0
 70
     0
 62
     7
  6
Continuous
370
    -3
390
F
  0
LAYER
  5
5D
330
2
100
AcDbSymbolTableRecord
100
AcDbLayerTableRecord
  2
Default
 70
     0
 62
     7
  6
Continuous
370
    -3
390
F
  0
LAYER
  5
6F
330
2
100
AcDbSymbolTableRecord
100
AcDbLayerTableRecord
  2
$DDT_AUDIT_GENERATED_(6F)
 70
     0
 62
     7
  6
Continuous
370
    -3
390
F
  0
LAYER
  5
152
330
2
100
AcDbSymbolTableRecord
100
AcDbLayerTableRecord
  2
$DDT_AUDIT_GENERATED_(152)
 70
     0
 62
     7
  6
Continuous
370
    -3
390
F
  0
LAYER
  5
15F
330
2
100
AcDbSymbolTableRecord
100
AcDbLayerTableRecord
  2
$DDT_AUDIT_GENERATED_(15F)
 70
     0
 62
     7
  6
Continuous
370
    -3
390
F
  0
LAYER
  5
165
330
2
100
AcDbSymbolTableRecord
100
AcDbLayerTableRecord
  2
$DDT_AUDIT_GENERATED_(165)
 70
     0
 62
     7
  6
Continuous
370
    -3
390
F
  0
LAYER
  5
17E
330
2
100
AcDbSymbolTableRecord
100
AcDbLayerTableRecord
  2
$DDT_AUDIT_GENERATED_(17E)
 70
     0
 62
     7
  6
Continuous
370
    -3
390
F
  0
LAYER
  5
1A0
330
2
100
AcDbSymbolTableRecord
100
AcDbLayerTableRecord
  2
$DDT_AUDIT_GENERATED_(1A0)
 70
     0
 62
     7
  6
Continuous
370
    -3
390
F
  0
LAYER
  5
1B6
330
2
100
AcDbSymbolTableRecord
100
AcDbLayerTableRecord
  2
$DDT_AUDIT_GENERATED_(1B6)
 70
     0
 62
     7
  6
Continuous
370
    -3
390
F
  0
LAYER
  5
1B9
330
2
100
AcDbSymbolTableRecord
100
AcDbLayerTableRecord
  2
$DDT_AUDIT_GENERATED_(1B9)
 70
     0
 62
     7
  6
Continuous
370
    -3
390
F
  0
LAYER
  5
1BC
330
2
100
AcDbSymbolTableRecord
100
AcDbLayerTableRecord
  2
DV1_Default
 70
     0
 62
     7
  6
Continuous
370
    -3
390
F
  0
LAYER
  5
20B
330
2
100
AcDbSymbolTableRecord
100
AcDbLayerTableRecord
  2
$DDT_AUDIT_GENERATED_(20B)
 70
     0
 62
     7
  6
Continuous
370
    -3
390
F
  0
LAYER
  5
21A
330
2
100
AcDbSymbolTableRecord
100
AcDbLayerTableRecord
  2
$DDT_AUDIT_GENERATED_(21A)
 70
     0
 62
     7
  6
Continuous
370
    -3
390
F
  0
LAYER
  5
23F
330
2
100
AcDbSymbolTableRecord
100
AcDbLayerTableRecord
  2
$DDT_AUDIT_GENERATED_(23F)
 70
     0
 62
     7
  6
Continuous
370
    -3
390
F
  0
LAYER
  5
244
330
2
100
AcDbSymbolTableRecord
100
AcDbLayerTableRecord
  2
DV2_Default
 70
     0
 62
     7
  6
Continuous
370
    -3
390
F
  0
LAYER
  5
506
330
2
100
AcDbSymbolTableRecord
100
AcDbLayerTableRecord
  2
DV3_Default
 70
     0
 62
     7
  6
Continuous
370
    -3
390
F
  0
ENDTAB
  0
TABLE
  2
STYLE
  5
3
330
0
100
AcDbSymbolTable
 70
     2
  0
STYLE
  5
11
330
3
100
AcDbSymbolTableRecord
100
AcDbTextStyleTableRecord
  2
Standard
 70
     0
 40
0.0
 41
1.0
 50
0.0
 71
     0
 42
2.5
  3
txt
  4

  0
STYLE
  5
50D
330
3
100
AcDbSymbolTableRecord
100
AcDbTextStyleTableRecord
  2
SEACAD_seiso_ttf
 70
     0
 40
0.0
 41
1.0
 50
0.0
 71
     0
 42
0.2
  3
seiso.ttf
  4

  0
ENDTAB
  0
TABLE
  2
VIEW
  5
6
330
0
100
AcDbSymbolTable
 70
     0
  0
ENDTAB
  0
TABLE
  2
UCS
  5
7
330
0
100
AcDbSymbolTable
 70
     0
  0
ENDTAB
  0
TABLE
  2
APPID
  5
9
330
0
100
AcDbSymbolTable
 70
     1
  0
APPID
  5
12
330
9
100
AcDbSymbolTableRecord
100
AcDbRegAppTableRecord
  2
ACAD
 70
     0
  0
ENDTAB
  0
TABLE
  2
DIMSTYLE
  5
A
330
0
100
AcDbSymbolTable
 70
     1
100
AcDbDimStyleTable
  0
DIMSTYLE
105
27
330
A
100
AcDbSymbolTableRecord
100
AcDbDimStyleTableRecord
  2
ISO-25
 70
     0
 41
2.5
 42
0.625
 43
3.75
 44
1.25
 73
     0
 74
     0
 77
     1
 78
     8
140
2.5
141
2.5
143
0.0393700787
147
0.625
171
     3
172
     1
271
     2
272
     2
274
     3
278
    44
283
     0
284
     8
340
11
  0
ENDTAB
  0
TABLE
  2
BLOCK_RECORD
  5
1
330
0
100
AcDbSymbolTable
 70
     6
  0
BLOCK_RECORD
  5
1F
330
1
100
AcDbSymbolTableRecord
100
AcDbBlockTableRecord
  2
*Model_Space
340
22
  0
BLOCK_RECORD
  5
1B
330
1
100
AcDbSymbolTableRecord
100
AcDbBlockTableRecord
  2
*Paper_Space
340
1E
  0
BLOCK_RECORD
  5
60
330
1
100
AcDbSymbolTableRecord
100
AcDbBlockTableRecord
  2
SEANNOT_GROUP
340
0
102
{BLKREFS
331
61
102
}
  0
BLOCK_RECORD
  5
67
330
1
100
AcDbSymbolTableRecord
100
AcDbBlockTableRecord
  2
SEANNOT_GROUP1
340
0
102
{BLKREFS
331
68
102
}
  0
BLOCK_RECORD
  5
6D
330
1
100
AcDbSymbolTableRecord
100
AcDbBlockTableRecord
  2
SE
340
0
102
{BLKREFS
331
6E
102
}
  0
BLOCK_RECORD
  5
1C1
330
1
100
AcDbSymbolTableRecord
100
AcDbBlockTableRecord
  2
SE1
340
0
102
{BLKREFS
331
1C2
102
}
  0
BLOCK_RECORD
  5
24B
330
1
100
AcDbSymbolTableRecord
100
AcDbBlockTableRecord
  2
SE2
340
0
102
{BLKREFS
331
24C
102
}
  0
ENDTAB
  0
ENDSEC
  0
SECTION
  2
BLOCKS
  0
BLOCK
  5
20
330
1F
100
AcDbEntity
  8
0
100
AcDbBlockBegin
  2
*Model_Space
 70
     0
 10
0.0
 20
0.0
 30
0.0
  3
*Model_Space
  1

  0
ENDBLK
  5
21
330
1F
100
AcDbEntity
  8
0
100
AcDbBlockEnd
  0
BLOCK
  5
1C
330
1B
100
AcDbEntity
 67
     1
  8
0
100
AcDbBlockBegin
  2
*Paper_Space
 70
     0
 10
0.0
 20
0.0
 30
0.0
  3
*Paper_Space
  1

  0
ENDBLK
  5
1D
330
1B
100
AcDbEntity
 67
     1
  8
0
100
AcDbBlockEnd
  0
BLOCK
  5
65
330
60
100
AcDbEntity
  8
0
100
AcDbBlockBegin
  2
SEANNOT_GROUP
 70
     0
 10
0.0
 20
0.0
 30
0.0
  3
SEANNOT_GROUP
  1

  0
LINE
  5
63
330
60
100
AcDbEntity
  8
Default
  6
CENTER2
 62
     7
100
AcDbLine
 10
103.249999553
 20
403.25
 30
0.0
 11
63.250000447
 21
403.25
 31
0.0
  0
LINE
  5
64
330
60
100
AcDbEntity
  8
Default
  6
CENTER2
 62
     7
100
AcDbLine
 10
83.25
 20
423.249999553
 30
0.0
 11
83.25
 21
383.250000447
 31
0.0
  0
ENDBLK
  5
66
330
60
100
AcDbEntity
  8
0
100
AcDbBlockEnd
  0
BLOCK
  5
6B
330
67
100
AcDbEntity
  8
0
100
AcDbBlockBegin
  2
SEANNOT_GROUP1
 70
     0
 10
0.0
 20
0.0
 30
0.0
  3
SEANNOT_GROUP1
  1

  0
LINE
  5
69
330
67
100
AcDbEntity
  8
Default
  6
CENTER2
 62
     7
100
AcDbLine
 10
253.249999553
 20
403.25
 30
0.0
 11
213.250000447
 21
403.25
 31
0.0
  0
LINE
  5
6A
330
67
100
AcDbEntity
  8
Default
  6
CENTER2
 62
     7
100
AcDbLine
 10
233.25
 20
423.249999553
 30
0.0
 11
233.25
 21
383.250000447
 31
0.0
  0
ENDBLK
  5
6C
330
67
100
AcDbEntity
  8
0
100
AcDbBlockEnd
  0
BLOCK
  5
1BF
330
6D
100
AcDbEntity
  8
0
100
AcDbBlockBegin
  2
SE
 70
     0
 10
0.0
 20
0.0
 30
0.0
  3
SE
  1

  0
LINE
  5
70
330
6D
100
AcDbEntity
  8
$DDT_AUDIT_GENERATED_(6F)
  6
Continuous
 62
     7
100
AcDbLine
 10
115.25
 20
403.45
 30
0.0
 11
113.75
 21
403.45
 31
0.0
  0
LINE
  5
71
330
6D
100
AcDbEntity
  8
$DDT_AUDIT_GENERATED_(6F)
  6
Continuous
 62
     7
100
AcDbLine
 10
201.25
 20
403.45
 30
0.0
 11
115.25
 21
403.45
 31
0.0
  0
LINE
  5
72
330
6D
100
AcDbEntity
  8
$DDT_AUDIT_GENERATED_(6F)
  6
Continuous
 62
     7
100
AcDbLine
 10
202.75
 20
403.45
 30
0.0
 11
201.25
 21
403.45
 31
0.0
  0
LINE
  5
73
330
6D
100
AcDbEntity
  8
$DDT_AUDIT_GENERATED_(6F)
  6
Continuous
 62
     7
100
AcDbLine
 10
113.25
 20
403.95
 30
0.0
 11
113.25
 21
425.75
 31
0.0
  0
ARC
  5
74
330
6D
100
AcDbEntity
  8
$DDT_AUDIT_GENERATED_(6F)
  6
Continuous
 62
     7
100
AcDbCircle
 10
113.75
 20
403.95
 30
0.0
 40
0.5000000000000004
100
AcDbArc
 50
180.0
 51
270.0
  0
ARC
  5
75
330
6D
100
AcDbEntity
  8
$DDT_AUDIT_GENERATED_(6F)
  6
Continuous
 62
     7
100
AcDbCircle
 10
202.75
 20
403.95
 30
0.0
 40
0.5000000000000004
100
AcDbArc
 50
270.0
 51
360.0
  0
LINE
  5
76
330
6D
100
AcDbEntity
  8
$DDT_AUDIT_GENERATED_(6F)
  6
Continuous
 62
     7
100
AcDbLine
 10
107.25
 20
426.25
 30
0.0
 11
113.75
 21
426.25
 31
0.0
  0
LINE
  5
77
330
6D
100
AcDbEntity
  8
$DDT_AUDIT_GENERATED_(6F)
  6
Continuous
 62
     7
100
AcDbLine
 10
113.75
 20
426.25
 30
0.0
 11
115.25
 21
426.25
 31
0.0
  0
LINE
  5
78
330
6D
100
AcDbEntity
  8
$DDT_AUDIT_GENERATED_(6F)
  6
Continuous
 62
     7
100
AcDbLine
 10
115.25
 20
426.25
 30
0.0
 11
201.25
 21
426.25
 31
0.0
  0
LINE
  5
79
330
6D
100
AcDbEntity
  8
$DDT_AUDIT_GENERATED_(6F)
  6
Continuous
 62
     7
100
AcDbLine
 10
201.25
 20
426.25
 30
0.0
 11
202.75
 21
426.25
 31
0.0
  0
LINE
  5
7A
330
6D
100
AcDbEntity
  8
$DDT_AUDIT_GENERATED_(6F)
  6
Continuous
 62
     7
100
AcDbLine
 10
202.75
 20
426.25
 30
0.0
 11
209.25
 21
426.25
 31
0.0
  0
LINE
  5
7B
330
6D
100
AcDbEntity
  8
$DDT_AUDIT_GENERATED_(6F)
  6
Continuous
 62
     7
100
AcDbLine
 10
209.25
 20
426.25
 30
0.0
 11
254.45
 21
426.25
 31
0.0
  0
LINE
  5
7C
330
6D
100
AcDbEntity
  8
$DDT_AUDIT_GENERATED_(6F)
  6
Continuous
 62
     7
100
AcDbLine
 10
203.25
 20
425.75
 30
0.0
 11
203.25
 21
403.95
 31
0.0
  0
ARC
  5
7D
330
6D
100
AcDbEntity
  8
$DDT_AUDIT_GENERATED_(6F)
  6
Continuous
 62
     7
100
AcDbCircle
 10
113.75
 20
425.75
 30
0.0
 40
0.5000000000000004
100
AcDbArc
 50
90.0
 51
180.0
  0
ARC
  5
7E
330
6D
100
AcDbEntity
  8
$DDT_AUDIT_GENERATED_(6F)
  6
Continuous
 62
     7
100
AcDbCircle
 10
202.75
 20
425.75
 30
0.0
 40
0.5000000000000004
100
AcDbArc
 50
0.0
 51
90.0
  0
ARC
  5
7F
330
6D
100
AcDbEntity
  8
$DDT_AUDIT_GENERATED_(6F)
  6
Continuous
 62
     7
100
AcDbCircle
 10
233.25
 20
403.25
 30
0.0
 40
20.00000000000019
100
AcDbArc
 50
267.7768199436
 51
280.6353687346
  0
ARC
  5
80
330
6D
100
AcDbEntity
  8
$DDT_AUDIT_GENERATED_(6F)
  6
Continuous
 62
     7
100
AcDbCircle
 10
83.25
 20
403.25
 30
0.0
 40
20.00000000000001
100
AcDbArc
 50
259.3646312654
 51
272.1870134407
  0
ARC
  5
81
330
6D
100
AcDbEntity
  8
$DDT_AUDIT_GENERATED_(6F)
  6
Continuous
 62
     7
100
AcDbCircle
 10
84.265536861
 20
406.6415872764
 30
0.0
 40
23.37950553366011
100
AcDbArc
 50
269.1334192709
 51
269.2935265302
  0
LINE
  5
82
330
6D
100
AcDbEntity
  8
$DDT_AUDIT_GENERATED_(6F)
  6
Continuous
 62
     7
100
AcDbLine
 10
61.75
 20
425.75
 30
0.0
 11
61.75
 21
425.95
 31
0.0
  0
LINE
  5
83
330
6D
100
AcDbEntity
  8
$DDT_AUDIT_GENERATED_(6F)
  6
Continuous
 62
     7
100
AcDbLine
 10
61.75
 20
383.8951888338
 30
0.0
 11
61.75
 21
383.893567829
 31
0.0
  0
LINE
  5
84
330
6D
100
AcDbEntity
  8
$DDT_AUDIT_GENERATED_(6F)
  6
Continuous
 62
     7
100
AcDbLine
 10
61.75
 20
383.8951888338
 30
0.0
 11
61.75
 21
386.517537112
 31
0.0
  0
LINE
  5
85
330
6D
100
AcDbEntity
  8
$DDT_AUDIT_GENERATED_(6F)
  6
Continuous
 62
     7
100
AcDbLine
 10
62.05
 20
426.25
 30
0.0
 11
107.25
 21
426.25
 31
0.0
  0
ARC
  5
86
330
6D
100
AcDbEntity
  8
$DDT_AUDIT_GENERATED_(6F)
  6
Continuous
 62
     7
100
AcDbCircle
 10
62.05
 20
425.95
 30
0.0
 40
0.3000000000000017
100
AcDbArc
 50
90.0
 51
180.0
  0
LINE
  5
87
330
6D
100
AcDbEntity
  8
$DDT_AUDIT_GENERATED_(6F)
  6
Continuous
 62
     7
100
AcDbLine
 10
254.75
 20
425.75
 30
0.0
 11
254.75
 21
386.7170739677
 31
0.0
  0
LINE
  5
88
330
6D
100
AcDbEntity
  8
$DDT_AUDIT_GENERATED_(6F)
  6
Continuous
 62
     7
100
AcDbLine
 10
254.75
 20
425.95
 30
0.0
 11
254.75
 21
425.75
 31
0.0
  0
LINE
  5
89
330
6D
100
AcDbEntity
  8
$DDT_AUDIT_GENERATED_(6F)
  6
Continuous
 62
     7
100
AcDbLine
 10
254.75
 20
383.893567829
 30
0.0
 11
254.75
 21
383.8951888338
 31
0.0
  0
ARC
  5
8A
330
6D
100
AcDbEntity
  8
$DDT_AUDIT_GENERATED_(6F)
  6
Continuous
 62
     7
100
AcDbCircle
 10
254.45
 20
425.95
 30
0.0
 40
0.2999999999999947
100
AcDbArc
 50
0.0
 51
90.0
  0
LINE
  5
8B
330
6D
100
AcDbEntity
  8
$DDT_AUDIT_GENERATED_(6F)
  6
Continuous
 62
     7
100
AcDbLine
 10
254.75
 20
386.517537112
 30
0.0
 11
254.75
 21
383.8951888338
 31
0.0
  0
LINE
  5
8C
330
6D
100
AcDbEntity
  8
$DDT_AUDIT_GENERATED_(6F)
  6
Continuous
 62
     7
100
AcDbLine
 10
254.75
 20
386.517537112
 30
0.0
 11
254.75
 21
386.7170739677
 31
0.0
  0
LINE
  5
8D
330
6D
100
AcDbEntity
  8
$DDT_AUDIT_GENERATED_(6F)
  6
Continuous
 62
     7
100
AcDbLine
 10
61.75
 20
386.7170739677
 30
0.0
 11
61.75
 21
425.75
 31
0.0
  0
LINE
  5
8E
330
6D
100
AcDbEntity
  8
$DDT_AUDIT_GENERATED_(6F)
  6
Continuous
 62
     7
100
AcDbLine
 10
61.75
 20
386.7170739677
 30
0.0
 11
61.75
 21
386.517537112
 31
0.0
  0
ELLIPSE
  5
8F
330
6D
100
AcDbEntity
  8
$DDT_AUDIT_GENERATED_(6F)
  6
Continuous
 62
     7
100
AcDbEllipse
 10
108.55
 20
384.8865367861
 30
0.0
 11
9.250000000000009
 21
0.0
 31
0.0
210
0.0
220
0.0
230
1.0
 40
0.0681731607
 41
0.0
 42
3.374614779226555
  0
ELLIPSE
  5
90
330
6D
100
AcDbEntity
  8
$DDT_AUDIT_GENERATED_(6F)
  6
Continuous
 62
     7
100
AcDbEllipse
 10
108.55
 20
384.8865367861
 30
0.0
 11
9.250000000000009
 21
0.0
 31
0.0
210
0.0
220
0.0
230
1.0
 40
0.0681731607
 41
6.050163181542825
 42
6.283185307179586
  0
ARC
  5
91
330
6D
100
AcDbEntity
  8
$DDT_AUDIT_GENERATED_(6F)
  6
Continuous
 62
     7
100
AcDbCircle
 10
60.9169752333
 20
414.4557741408
 30
0.0
 40
7.434147548742224
100
AcDbArc
 50
20.896914494
 51
35.1045063858
  0
ARC
  5
92
330
6D
100
AcDbEntity
  8
$DDT_AUDIT_GENERATED_(6F)
  6
Continuous
 62
     7
100
AcDbCircle
 10
61.4745483347
 20
414.8700539229
 30
0.0
 40
6.739779575140197
100
AcDbArc
 50
34.9490985511
 51
50.6152062219
  0
SPLINE
  5
93
330
6D
100
AcDbEntity
  8
$DDT_AUDIT_GENERATED_(6F)
  6
Continuous
 62
     7
100
AcDbSpline
210
0.0
220
0.0
230
1.0
 70
     8
 71
     3
 72
     8
 73
     4
 74
     0
 42
0.0000000086185418
 43
0.0000000001
 40
0.0
 40
0.0
 40
0.0
 40
0.0
 40
1.0
 40
1.0
 40
1.0
 40
1.0
 10
65.75110972221395
 20
420.0792430555556
 30
0.0
 10
65.44983749999176
 20
420.3258347222222
 30
0.0
 10
65.12034305554734
 20
420.5237430555556
 30
0.0
 10
64.78802638888062
 20
420.7212986111111
 30
0.0
  0
ARC
  5
94
330
6D
100
AcDbEntity
  8
$DDT_AUDIT_GENERATED_(6F)
  6
Continuous
 62
     7
100
AcDbCircle
 10
64.8757075853
 20
420.8963943846
 30
0.0
 40
0.1958226802055724
100
AcDbArc
 50
192.1425075611
 51
243.4000616005
  0
SPLINE
  5
95
330
6D
100
AcDbEntity
  8
$DDT_AUDIT_GENERATED_(6F)
  6
Continuous
 62
     7
100
AcDbSpline
210
0.0
220
0.0
230
1.0
 70
     8
 71
     3
 72
     8
 73
     4
 74
     0
 42
0.0000000168317785
 43
0.0000000001
 40
0.0
 40
0.0
 40
0.0
 40
0.0
 40
1.0
 40
1.0
 40
1.0
 40
1.0
 10
64.68426605504233
 20
420.8552042954947
 30
0.0
 10
64.65639355509124
 20
420.9847489059675
 30
0.0
 10
64.6117327269371
 20
421.2508491838994
 30
0.0
 10
64.79402361110296
 20
421.3104375
 30
0.0
  0
SPLINE
  5
96
330
6D
100
AcDbEntity
  8
$DDT_AUDIT_GENERATED_(6F)
  6
Continuous
 62
     7
100
AcDbSpline
210
0.0
220
0.0
230
1.0
 70
     8
 71
     3
 72
     8
 73
     4
 74
     0
 42
0.0000000330536591
 43
0.0000000001
 40
0.0
 40
0.0
 40
0.0
 40
0.0
 40
1.0
 40
1.0
 40
1.0
 40
1.0
 10
64.79402361110296
 20
421.3104375
 30
0.0
 10
64.90373749999188
 20
421.3457152777777
 30
0.0
 10
64.97887916665843
 20
421.3023236111111
 30
0.0
 10
65.06777916665848
 20
421.2554041666667
 30
0.0
  0
ARC
  5
97
330
6D
100
AcDbEntity
  8
$DDT_AUDIT_GENERATED_(6F)
  6
Continuous
 62
     7
100
AcDbCircle
 10
61.7422938082
 20
414.8995689665
 30
0.0
 40
7.173248494336302
100
AcDbArc
 50
49.9434214223
 51
62.3806402464
  0
ARC
  5
98
330
6D
100
AcDbEntity
  8
$DDT_AUDIT_GENERATED_(6F)
  6
Continuous
 62
     7
100
AcDbCircle
 10
61.2828781177
 20
414.3910384354
 30
0.0
 40
7.858174421302695
100
AcDbArc
 50
36.3187307581
 51
49.7656651874
  0
ARC
  5
99
330
6D
100
AcDbEntity
  8
$DDT_AUDIT_GENERATED_(6F)
  6
Continuous
 62
     7
100
AcDbCircle
 10
59.9517537153
 20
413.3684317715
 30
0.0
 40
9.536439843144567
100
AcDbArc
 50
25.4554190864
 51
36.5323537811
  0
ARC
  5
9A
330
6D
100
AcDbEntity
  8
$DDT_AUDIT_GENERATED_(6F)
  6
Continuous
 62
     7
100
AcDbCircle
 10
59.9676413828
 20
413.3372010919
 30
0.0
 40
9.535582102019596
100
AcDbArc
 50
17.786991652
 51
25.6658866
  0
SPLINE
  5
9B
330
6D
100
AcDbEntity
  8
$DDT_AUDIT_GENERATED_(6F)
  6
Continuous
 62
     7
100
AcDbSpline
210
0.0
220
0.0
230
1.0
 70
     8
 71
     3
 72
     8
 73
     4
 74
     0
 42
0.0000000069919721
 43
0.0000000001
 40
0.0
 40
0.0
 40
0.0
 40
0.0
 40
1.0
 40
1.0
 40
1.0
 40
1.0
 10
68.26570972221404
 20
415.7534819444443
 30
0.0
 10
68.06639027776953
 20
416.1898680555556
 30
0.0
 10
68.03252361110282
 20
416.6650597222222
 30
0.0
 10
67.8621319444362
 20
417.1074430555556
 30
0.0
  0
SPLINE
  5
9C
330
6D
100
AcDbEntity
  8
$DDT_AUDIT_GENERATED_(6F)
  6
Continuous
 62
     7
100
AcDbSpline
210
0.0
220
0.0
230
1.0
 70
     8
 71
     3
 72
     8
 73
     4
 74
     0
 42
0.0000000203507207
 43
0.0000000001
 40
0.0
 40
0.0
 40
0.0
 40
0.0
 40
1.0
 40
1.0
 40
1.0
 40
1.0
 10
68.61884027776958
 20
415.6518819444445
 30
0.0
 10
68.45797361110299
 20
415.5605125
 30
0.0
 10
68.34614305554734
 20
415.5777986111111
 30
0.0
 10
68.26570972221404
 20
415.7534819444443
 30
0.0
  0
SPLINE
  5
9D
330
6D
100
AcDbEntity
  8
$DDT_AUDIT_GENERATED_(6F)
  6
Continuous
 62
     7
100
AcDbSpline
210
0.0
220
0.0
230
1.0
 70
     8
 71
     3
 72
     8
 73
     4
 74
     0
 42
0.0000000295394045
 43
0.0000000001
 40
0.0
 40
0.0
 40
0.0
 40
0.0
 40
1.0
 40
1.0
 40
1.0
 40
1.0
 10
68.92752083332512
 20
415.7908763888889
 30
0.0
 10
68.82486249999178
 20
415.7446624999999
 30
0.0
 10
68.72220416665844
 20
415.6984486111111
 30
0.0
 10
68.61884027776958
 20
415.6518819444445
 30
0.0
  0
SPLINE
  5
9E
330
6D
100
AcDbEntity
  8
$DDT_AUDIT_GENERATED_(6F)
  6
Continuous
 62
     7
100
AcDbSpline
210
0.0
220
0.0
230
1.0
 70
     8
 71
     3
 72
     8
 73
     4
 74
     0
 42
0.0000000398959526
 43
0.0000000001
 40
0.0
 40
0.0
 40
0.0
 40
0.0
 40
1.0
 40
1.0
 40
1.0
 40
1.0
 10
69.07568749999172
 20
415.9566819444445
 30
0.0
 10
69.05346249999175
 20
415.8698986111111
 30
0.0
 10
69.02241805554735
 20
415.8148652777778
 30
0.0
 10
68.92752083332512
 20
415.7908763888889
 30
0.0
  0
SPLINE
  5
9F
330
6D
100
AcDbEntity
  8
$DDT_AUDIT_GENERATED_(6F)
  6
Continuous
 62
     7
100
AcDbSpline
210
0.0
220
0.0
230
1.0
 70
     8
 71
     3
 72
     8
 73
     4
 74
     0
 42
0.0000000328052468
 43
0.0000000001
 40
0.0
 40
0.0
 40
0.0
 40
0.0
 40
1.0
 40
1.0
 40
1.0
 40
1.0
 10
69.04741442024255
 20
416.2501234990386
 30
0.0
 10
69.07853643062279
 20
416.1531141210916
 30
0.0
 10
69.10261127448473
 20
416.0633415126281
 30
0.0
 10
69.07568749999172
 20
415.9566819444445
 30
0.0
  0
SPLINE
  5
A0
330
6D
100
AcDbEntity
  8
$DDT_AUDIT_GENERATED_(6F)
  6
Continuous
 62
     7
100
AcDbSpline
210
0.0
220
0.0
230
1.0
 70
     8
 71
     3
 72
     8
 73
     4
 74
     0
 42
0.0000000218022863
 43
0.0000000001
 40
0.0
 40
0.0
 40
0.0
 40
0.0
 40
1.0
 40
1.0
 40
1.0
 40
1.0
 10
65.79249055554735
 20
418.1795347222222
 30
0.0
 10
65.97029055554735
 20
418.1795347222222
 30
0.0
 10
66.04331555554735
 20
418.2532652777778
 30
0.0
 10
66.04331555554735
 20
418.4303597222222
 30
0.0
  0
SPLINE
  5
A1
330
6D
100
AcDbEntity
  8
$DDT_AUDIT_GENERATED_(6F)
  6
Continuous
 62
     7
100
AcDbSpline
210
0.0
220
0.0
230
1.0
 70
     8
 71
     3
 72
     8
 73
     4
 74
     0
 42
0.0000000217925247
 43
0.0000000001
 40
0.0
 40
0.0
 40
0.0
 40
0.0
 40
1.0
 40
1.0
 40
1.0
 40
1.0
 10
66.04331555554735
 20
418.4303597222222
 30
0.0
 10
66.04331555554735
 20
418.6081597222222
 30
0.0
 10
65.97029055554735
 20
418.6811847222222
 30
0.0
 10
65.79249055554735
 20
418.6811847222222
 30
0.0
  0
SPLINE
  5
A2
330
6D
100
AcDbEntity
  8
$DDT_AUDIT_GENERATED_(6F)
  6
Continuous
 62
     7
100
AcDbSpline
210
0.0
220
0.0
230
1.0
 70
     8
 71
     3
 72
     8
 73
     4
 74
     0
 42
0.0000000218022863
 43
0.0000000001
 40
0.0
 40
0.0
 40
0.0
 40
0.0
 40
1.0
 40
1.0
 40
1.0
 40
1.0
 10
65.79249055554735
 20
418.6811847222222
 30
0.0
 10
65.61539611110281
 20
418.6811847222222
 30
0.0
 10
65.54166555554738
 20
418.6081597222222
 30
0.0
 10
65.54166555554738
 20
418.4303597222222
 30
0.0
  0
SPLINE
  5
A3
330
6D
100
AcDbEntity
  8
$DDT_AUDIT_GENERATED_(6F)
  6
Continuous
 62
     7
100
AcDbSpline
210
0.0
220
0.0
230
1.0
 70
     8
 71
     3
 72
     8
 73
     4
 74
     0
 42
0.0000000218121708
 43
0.0000000001
 40
0.0
 40
0.0
 40
0.0
 40
0.0
 40
1.0
 40
1.0
 40
1.0
 40
1.0
 10
65.54166555554738
 20
418.4303597222222
 30
0.0
 10
65.54166555554738
 20
418.2532652777778
 30
0.0
 10
65.61539611110281
 20
418.1795347222222
 30
0.0
 10
65.79249055554735
 20
418.1795347222222
 30
0.0
  0
SPLINE
  5
A4
330
6D
100
AcDbEntity
  8
$DDT_AUDIT_GENERATED_(6F)
  6
Continuous
 62
     7
100
AcDbSpline
210
0.0
220
0.0
230
1.0
 70
     8
 71
     3
 72
     8
 73
     4
 74
     0
 42
0.0000000218121708
 43
0.0000000001
 40
0.0
 40
0.0
 40
0.0
 40
0.0
 40
1.0
 40
1.0
 40
1.0
 40
1.0
 10
65.17784583332507
 20
417.7689013888889
 30
0.0
 10
65.17784583332507
 20
417.5918069444444
 30
0.0
 10
65.2515763888806
 20
417.5180763888889
 30
0.0
 10
65.42867083332519
 20
417.5180763888889
 30
0.0
  0
SPLINE
  5
A5
330
6D
100
AcDbEntity
  8
$DDT_AUDIT_GENERATED_(6F)
  6
Continuous
 62
     7
100
AcDbSpline
210
0.0
220
0.0
230
1.0
 70
     8
 71
     3
 72
     8
 73
     4
 74
     0
 42
0.0000000218022863
 43
0.0000000001
 40
0.0
 40
0.0
 40
0.0
 40
0.0
 40
1.0
 40
1.0
 40
1.0
 40
1.0
 10
65.42867083332519
 20
418.0197263888889
 30
0.0
 10
65.2515763888806
 20
418.0197263888889
 30
0.0
 10
65.17784583332507
 20
417.9467013888889
 30
0.0
 10
65.17784583332507
 20
417.7689013888889
 30
0.0
  0
SPLINE
  5
A6
330
6D
100
AcDbEntity
  8
$DDT_AUDIT_GENERATED_(6F)
  6
Continuous
 62
     7
100
AcDbSpline
210
0.0
220
0.0
230
1.0
 70
     8
 71
     3
 72
     8
 73
     4
 74
     0
 42
0.0000000217806701
 43
0.0000000001
 40
0.0
 40
0.0
 40
0.0
 40
0.0
 40
1.0
 40
1.0
 40
1.0
 40
1.0
 10
65.67984861110284
 20
417.7689013888889
 30
0.0
 10
65.67984861110284
 20
417.9467013888889
 30
0.0
 10
65.60647083332519
 20
418.0197263888889
 30
0.0
 10
65.42867083332519
 20
418.0197263888889
 30
0.0
  0
SPLINE
  5
A7
330
6D
100
AcDbEntity
  8
$DDT_AUDIT_GENERATED_(6F)
  6
Continuous
 62
     7
100
AcDbSpline
210
0.0
220
0.0
230
1.0
 70
     8
 71
     3
 72
     8
 73
     4
 74
     0
 42
0.0000000217904781
 43
0.0000000001
 40
0.0
 40
0.0
 40
0.0
 40
0.0
 40
1.0
 40
1.0
 40
1.0
 40
1.0
 10
65.42867083332519
 20
417.5180763888889
 30
0.0
 10
65.60647083332519
 20
417.5180763888889
 30
0.0
 10
65.67984861110284
 20
417.5918069444444
 30
0.0
 10
65.67984861110284
 20
417.7689013888889
 30
0.0
  0
ARC
  5
A8
330
6D
100
AcDbEntity
  8
$DDT_AUDIT_GENERATED_(6F)
  6
Continuous
 62
     7
100
AcDbCircle
 10
64.4816617085
 20
418.5184702254
 30
0.0
 40
0.2507433896365875
100
AcDbArc
 50
269.7529518385
 51
45.1882521556
  0
ARC
  5
A9
330
6D
100
AcDbEntity
  8
$DDT_AUDIT_GENERATED_(6F)
  6
Continuous
 62
     7
100
AcDbCircle
 10
64.4804966143
 20
418.5196353196
 30
0.0
 40
0.2507433896365923
100
AcDbArc
 50
44.8117478444
 51
180.2470481615
  0
SPLINE
  5
AA
330
6D
100
AcDbEntity
  8
$DDT_AUDIT_GENERATED_(6F)
  6
Continuous
 62
     7
100
AcDbSpline
210
0.0
220
0.0
230
1.0
 70
     8
 71
     3
 72
     8
 73
     4
 74
     0
 42
0.0000000218121708
 43
0.0000000001
 40
0.0
 40
0.0
 40
0.0
 40
0.0
 40
1.0
 40
1.0
 40
1.0
 40
1.0
 10
64.22975555554736
 20
418.5185541666667
 30
0.0
 10
64.22975555554736
 20
418.3414597222222
 30
0.0
 10
64.30348611110284
 20
418.2677291666667
 30
0.0
 10
64.4805805555473
 20
418.2677291666667
 30
0.0
  0
LINE
  5
AB
330
6D
100
AcDbEntity
  8
$DDT_AUDIT_GENERATED_(6F)
  6
Continuous
 62
     7
100
AcDbLine
 10
63.75
 20
419.3678278811
 30
0.0
 11
63.75
 21
419.1569772145
 31
0.0
  0
ARC
  5
AC
330
6D
100
AcDbEntity
  8
$DDT_AUDIT_GENERATED_(6F)
  6
Continuous
 62
     7
100
AcDbCircle
 10
63.5212458184
 20
419.2638054142
 30
0.0
 40
0.250589629581324
100
AcDbArc
 50
44.7263834132
 51
180.2519213265
  0
SPLINE
  5
AD
330
6D
100
AcDbEntity
  8
$DDT_AUDIT_GENERATED_(6F)
  6
Continuous
 62
     7
100
AcDbSpline
210
0.0
220
0.0
230
1.0
 70
     8
 71
     3
 72
     8
 73
     4
 74
     0
 42
0.0000000218121708
 43
0.0000000001
 40
0.0
 40
0.0
 40
0.0
 40
0.0
 40
1.0
 40
1.0
 40
1.0
 40
1.0
 10
63.52148361110297
 20
419.0118786111111
 30
0.0
 10
63.34438916665849
 20
419.0118786111111
 30
0.0
 10
63.27065861110285
 20
419.0856091666667
 30
0.0
 10
63.27065861110285
 20
419.2627036111111
 30
0.0
  0
ARC
  5
AE
330
6D
100
AcDbEntity
  8
$DDT_AUDIT_GENERATED_(6F)
  6
Continuous
 62
     7
100
AcDbCircle
 10
63.5227351581
 20
419.2624025478
 30
0.0
 40
0.2505270628884621
100
AcDbArc
 50
269.7137687999
 51
45.19403249
  0
ARC
  5
AF
330
6D
100
AcDbEntity
  8
$DDT_AUDIT_GENERATED_(6F)
  6
Continuous
 62
     7
100
AcDbCircle
 10
64.0737800418
 20
419.7807796699
 30
0.0
 40
0.2507433896365474
100
AcDbArc
 50
269.7529518385
 51
45.1882521556
  0
ARC
  5
B0
330
6D
100
AcDbEntity
  8
$DDT_AUDIT_GENERATED_(6F)
  6
Continuous
 62
     7
100
AcDbCircle
 10
64.0726149477
 20
419.7819447641
 30
0.0
 40
0.2507433896365667
100
AcDbArc
 50
44.8117478444
 51
180.2470481615
  0
SPLINE
  5
B1
330
6D
100
AcDbEntity
  8
$DDT_AUDIT_GENERATED_(6F)
  6
Continuous
 62
     7
100
AcDbSpline
210
0.0
220
0.0
230
1.0
 70
     8
 71
     3
 72
     8
 73
     4
 74
     0
 42
0.0000000218121708
 43
0.0000000001
 40
0.0
 40
0.0
 40
0.0
 40
0.0
 40
1.0
 40
1.0
 40
1.0
 40
1.0
 10
63.82187388888064
 20
419.7808636111111
 30
0.0
 10
63.82187388888064
 20
419.6037691666667
 30
0.0
 10
63.89560444443623
 20
419.5300386111111
 30
0.0
 10
64.07269888888065
 20
419.5300386111111
 30
0.0
  0
ARC
  5
B2
330
6D
100
AcDbEntity
  8
$DDT_AUDIT_GENERATED_(6F)
  6
Continuous
 62
     7
100
AcDbCircle
 10
64.6415405974
 20
420.2934010588
 30
0.0
 40
0.2507433896366146
100
AcDbArc
 50
269.7529518385
 51
45.1882521556
  0
ARC
  5
B3
330
6D
100
AcDbEntity
  8
$DDT_AUDIT_GENERATED_(6F)
  6
Continuous
 62
     7
100
AcDbCircle
 10
64.6403755032
 20
420.294566153
 30
0.0
 40
0.2507433896365764
100
AcDbArc
 50
44.8117478444
 51
180.2470481615
  0
SPLINE
  5
B4
330
6D
100
AcDbEntity
  8
$DDT_AUDIT_GENERATED_(6F)
  6
Continuous
 62
     7
100
AcDbSpline
210
0.0
220
0.0
230
1.0
 70
     8
 71
     3
 72
     8
 73
     4
 74
     0
 42
0.0000000218121708
 43
0.0000000001
 40
0.0
 40
0.0
 40
0.0
 40
0.0
 40
1.0
 40
1.0
 40
1.0
 40
1.0
 10
64.38963444443627
 20
420.293485
 30
0.0
 10
64.38963444443627
 20
420.1163905555556
 30
0.0
 10
64.46336499999175
 20
420.04266
 30
0.0
 10
64.64045944443627
 20
420.04266
 30
0.0
  0
ARC
  5
B5
330
6D
100
AcDbEntity
  8
$DDT_AUDIT_GENERATED_(6F)
  6
Continuous
 62
     7
100
AcDbCircle
 10
65.4077033752
 20
419.6980885588
 30
0.0
 40
0.2507433896365945
100
AcDbArc
 50
269.7529518385
 51
45.1882521556
  0
ARC
  5
B6
330
6D
100
AcDbEntity
  8
$DDT_AUDIT_GENERATED_(6F)
  6
Continuous
 62
     7
100
AcDbCircle
 10
65.406538281
 20
419.699253653
 30
0.0
 40
0.2507433896365788
100
AcDbArc
 50
44.8117478444
 51
180.2470481615
  0
SPLINE
  5
B7
330
6D
100
AcDbEntity
  8
$DDT_AUDIT_GENERATED_(6F)
  6
Continuous
 62
     7
100
AcDbSpline
210
0.0
220
0.0
230
1.0
 70
     8
 71
     3
 72
     8
 73
     4
 74
     0
 42
0.0000000218121708
 43
0.0000000001
 40
0.0
 40
0.0
 40
0.0
 40
0.0
 40
1.0
 40
1.0
 40
1.0
 40
1.0
 10
65.15579722221402
 20
419.6981725
 30
0.0
 10
65.15579722221402
 20
419.5210780555556
 30
0.0
 10
65.22952777776955
 20
419.4473475
 30
0.0
 10
65.40662222221391
 20
419.4473475
 30
0.0
  0
SPLINE
  5
B8
330
6D
100
AcDbEntity
  8
$DDT_AUDIT_GENERATED_(6F)
  6
Continuous
 62
     7
100
AcDbSpline
210
0.0
220
0.0
230
1.0
 70
     8
 71
     3
 72
     8
 73
     4
 74
     0
 42
0.0000000218121708
 43
0.0000000001
 40
0.0
 40
0.0
 40
0.0
 40
0.0
 40
1.0
 40
1.0
 40
1.0
 40
1.0
 10
64.93259472221405
 20
418.8465316666667
 30
0.0
 10
64.75550027776958
 20
418.8465316666667
 30
0.0
 10
64.68176972221393
 20
418.9202622222222
 30
0.0
 10
64.68176972221393
 20
419.0973566666667
 30
0.0
  0
ARC
  5
B9
330
6D
100
AcDbEntity
  8
$DDT_AUDIT_GENERATED_(6F)
  6
Continuous
 62
     7
100
AcDbCircle
 10
64.9323569296
 20
419.0984584698
 30
0.0
 40
0.2505896295812409
100
AcDbArc
 50
44.7263834131
 51
180.2519213265
  0
ARC
  5
BA
330
6D
100
AcDbEntity
  8
$DDT_AUDIT_GENERATED_(6F)
  6
Continuous
 62
     7
100
AcDbCircle
 10
64.9338462693
 20
419.0970556034
 30
0.0
 40
0.2505270628883314
100
AcDbArc
 50
269.7137687998
 51
45.1940324901
  0
SPLINE
  5
BB
330
6D
100
AcDbEntity
  8
$DDT_AUDIT_GENERATED_(6F)
  6
Continuous
 62
     7
100
AcDbSpline
210
0.0
220
0.0
230
1.0
 70
     8
 71
     3
 72
     8
 73
     4
 74
     0
 42
0.0000000217904781
 43
0.0000000001
 40
0.0
 40
0.0
 40
0.0
 40
0.0
 40
1.0
 40
1.0
 40
1.0
 40
1.0
 10
66.16181361110287
 20
418.852035
 30
0.0
 10
66.33961361110282
 20
418.852035
 30
0.0
 10
66.41299138888066
 20
418.9257655555556
 30
0.0
 10
66.41299138888066
 20
419.10286
 30
0.0
  0
SPLINE
  5
BC
330
6D
100
AcDbEntity
  8
$DDT_AUDIT_GENERATED_(6F)
  6
Continuous
 62
     7
100
AcDbSpline
210
0.0
220
0.0
230
1.0
 70
     8
 71
     3
 72
     8
 73
     4
 74
     0
 42
0.0000000217855872
 43
0.0000000001
 40
0.0
 40
0.0
 40
0.0
 40
0.0
 40
1.0
 40
1.0
 40
1.0
 40
1.0
 10
66.41299138888066
 20
419.10286
 30
0.0
 10
66.41299138888066
 20
419.2803072222222
 30
0.0
 10
66.33961361110282
 20
419.353685
 30
0.0
 10
66.16181361110287
 20
419.353685
 30
0.0
  0
SPLINE
  5
BD
330
6D
100
AcDbEntity
  8
$DDT_AUDIT_GENERATED_(6F)
  6
Continuous
 62
     7
100
AcDbSpline
210
0.0
220
0.0
230
1.0
 70
     8
 71
     3
 72
     8
 73
     4
 74
     0
 42
0.0000000218072418
 43
0.0000000001
 40
0.0
 40
0.0
 40
0.0
 40
0.0
 40
1.0
 40
1.0
 40
1.0
 40
1.0
 10
66.16181361110287
 20
419.353685
 30
0.0
 10
65.98471916665841
 20
419.353685
 30
0.0
 10
65.91098861110281
 20
419.2803072222222
 30
0.0
 10
65.91098861110281
 20
419.10286
 30
0.0
  0
SPLINE
  5
BE
330
6D
100
AcDbEntity
  8
$DDT_AUDIT_GENERATED_(6F)
  6
Continuous
 62
     7
100
AcDbSpline
210
0.0
220
0.0
230
1.0
 70
     8
 71
     3
 72
     8
 73
     4
 74
     0
 42
0.0000000218121708
 43
0.0000000001
 40
0.0
 40
0.0
 40
0.0
 40
0.0
 40
1.0
 40
1.0
 40
1.0
 40
1.0
 10
65.91098861110281
 20
419.10286
 30
0.0
 10
65.91098861110281
 20
418.9257655555556
 30
0.0
 10
65.98471916665841
 20
418.852035
 30
0.0
 10
66.16181361110287
 20
418.852035
 30
0.0
  0
SPLINE
  5
BF
330
6D
100
AcDbEntity
  8
$DDT_AUDIT_GENERATED_(6F)
  6
Continuous
 62
     7
100
AcDbSpline
210
0.0
220
0.0
230
1.0
 70
     8
 71
     3
 72
     8
 73
     4
 74
     0
 42
0.0000000088705996
 43
0.0000000001
 40
0.0
 40
0.0
 40
0.0
 40
0.0
 40
1.0
 40
1.0
 40
1.0
 40
1.0
 10
67.36470722221402
 20
411.5965866666667
 30
0.0
 10
67.34107111110285
 20
411.8936255555556
 30
0.0
 10
67.44478777776955
 20
412.3850449999999
 30
0.0
 10
67.68926277776957
 20
412.6023561111111
 30
0.0
  0
SPLINE
  5
C0
330
6D
100
AcDbEntity
  8
$DDT_AUDIT_GENERATED_(6F)
  6
Continuous
 62
     7
100
AcDbSpline
210
0.0
220
0.0
230
1.0
 70
     8
 71
     3
 72
     8
 73
     4
 74
     0
 42
0.000000004048615
 43
0.0000000001
 40
0.0
 40
0.0
 40
0.0
 40
0.0
 40
1.0
 40
1.0
 40
1.0
 40
1.0
 10
68.63752944443621
 20
410.2055838888888
 30
0.0
 10
67.78592388888063
 20
410.1509033333332
 30
0.0
 10
67.29591555554734
 20
410.7813172222222
 30
0.0
 10
67.36470722221402
 20
411.5965866666667
 30
0.0
  0
SPLINE
  5
C1
330
6D
100
AcDbEntity
  8
$DDT_AUDIT_GENERATED_(6F)
  6
Continuous
 62
     7
100
AcDbSpline
210
0.0
220
0.0
230
1.0
 70
     8
 71
     3
 72
     8
 73
     4
 74
     0
 42
0.0000000090201005
 43
0.0000000001
 40
0.0
 40
0.0
 40
0.0
 40
0.0
 40
1.0
 40
1.0
 40
1.0
 40
1.0
 10
69.63977111110283
 20
410.5340199999999
 30
0.0
 10
69.33602944443615
 20
410.2620283333333
 30
0.0
 10
69.01076833332512
 20
410.2288672222221
 30
0.0
 10
68.63752944443621
 20
410.2055838888888
 30
0.0
  0
SPLINE
  5
C2
330
6D
100
AcDbEntity
  8
$DDT_AUDIT_GENERATED_(6F)
  6
Continuous
 62
     7
100
AcDbSpline
210
0.0
220
0.0
230
1.0
 70
     8
 71
     3
 72
     8
 73
     4
 74
     0
 42
0.000000008880303
 43
0.0000000001
 40
0.0
 40
0.0
 40
0.0
 40
0.0
 40
1.0
 40
1.0
 40
1.0
 40
1.0
 10
69.96891277776959
 20
411.5408477777778
 30
0.0
 10
69.98690444443625
 20
411.2480422222222
 30
0.0
 10
69.88071833332518
 20
410.7502727777778
 30
0.0
 10
69.63977111110283
 20
410.5340199999999
 30
0.0
  0
SPLINE
  5
C3
330
6D
100
AcDbEntity
  8
$DDT_AUDIT_GENERATED_(6F)
  6
Continuous
 62
     7
100
AcDbSpline
210
0.0
220
0.0
230
1.0
 70
     8
 71
     3
 72
     8
 73
     4
 74
     0
 42
0.0000000090634328
 43
0.0000000001
 40
0.0
 40
0.0
 40
0.0
 40
0.0
 40
1.0
 40
1.0
 40
1.0
 40
1.0
 10
69.6761072222141
 20
412.5603755555555
 30
0.0
 10
69.91881833332505
 20
412.24217
 30
0.0
 10
69.94527666665847
 20
411.9102061111111
 30
0.0
 10
69.96891277776959
 20
411.5408477777778
 30
0.0
  0
SPLINE
  5
C4
330
6D
100
AcDbEntity
  8
$DDT_AUDIT_GENERATED_(6F)
  6
Continuous
 62
     7
100
AcDbSpline
210
0.0
220
0.0
230
1.0
 70
     8
 71
     3
 72
     8
 73
     4
 74
     0
 42
0.0000000088423943
 43
0.0000000001
 40
0.0
 40
0.0
 40
0.0
 40
0.0
 40
1.0
 40
1.0
 40
1.0
 40
1.0
 10
68.69362111110291
 20
412.9304394444445
 30
0.0
 10
68.99947944443626
 20
412.9498422222221
 30
0.0
 10
69.47149611110284
 20
412.8281338888888
 30
0.0
 10
69.6761072222141
 20
412.5603755555555
 30
0.0
  0
SPLINE
  5
C5
330
6D
100
AcDbEntity
  8
$DDT_AUDIT_GENERATED_(6F)
  6
Continuous
 62
     7
100
AcDbSpline
210
0.0
220
0.0
230
1.0
 70
     8
 71
     3
 72
     8
 73
     4
 74
     0
 42
0.0000000140502495
 43
0.0000000001
 40
0.0
 40
0.0
 40
0.0
 40
0.0
 40
1.0
 40
1.0
 40
1.0
 40
1.0
 10
68.66490499999175
 20
412.4861158333333
 30
0.0
 10
68.4031438888806
 20
412.5055186111111
 30
0.0
 10
68.23839666665846
 20
412.4480158333333
 30
0.0
 10
68.10010777776957
 20
412.2105963888889
 30
0.0
  0
SPLINE
  5
C6
330
6D
100
AcDbEntity
  8
$DDT_AUDIT_GENERATED_(6F)
  6
Continuous
 62
     7
100
AcDbSpline
210
0.0
220
0.0
230
1.0
 70
     8
 71
     3
 72
     8
 73
     4
 74
     0
 42
0.0000000025949071
 43
0.0000000001
 40
0.0
 40
0.0
 40
0.0
 40
0.0
 40
1.0
 40
1.0
 40
1.0
 40
1.0
 10
68.66561055554735
 20
410.6664880555555
 30
0.0
 10
69.60752722221395
 20
410.5948741666666
 30
0.0
 10
69.60611611110288
 20
412.5598463888889
 30
0.0
 10
68.66490499999175
 20
412.4861158333333
 30
0.0
  0
SPLINE
  5
C7
330
6D
100
AcDbEntity
  8
$DDT_AUDIT_GENERATED_(6F)
  6
Continuous
 62
     7
100
AcDbSpline
210
0.0
220
0.0
230
1.0
 70
     8
 71
     3
 72
     8
 73
     4
 74
     0
 42
0.0000000067012589
 43
0.0000000001
 40
0.0
 40
0.0
 40
0.0
 40
0.0
 40
1.0
 40
1.0
 40
1.0
 40
1.0
 10
67.95793833332506
 20
411.5759491666667
 30
0.0
 10
67.92583555554724
 20
411.0259686111111
 30
0.0
 10
68.07259111110284
 20
410.7119963888888
 30
0.0
 10
68.66561055554735
 20
410.6664880555555
 30
0.0
  0
SPLINE
  5
C8
330
6D
100
AcDbEntity
  8
$DDT_AUDIT_GENERATED_(6F)
  6
Continuous
 62
     7
100
AcDbSpline
210
0.0
220
0.0
230
1.0
 70
     8
 71
     3
 72
     8
 73
     4
 74
     0
 42
0.000000014985464
 43
0.0000000001
 40
0.0
 40
0.0
 40
0.0
 40
0.0
 40
1.0
 40
1.0
 40
1.0
 40
1.0
 10
68.10010777776957
 20
412.2105963888889
 30
0.0
 10
67.98122166665846
 20
412.0059852777778
 30
0.0
 10
67.97099111110286
 20
411.7978463888888
 30
0.0
 10
67.95793833332506
 20
411.5759491666667
 30
0.0
  0
SPLINE
  5
C9
330
6D
100
AcDbEntity
  8
$DDT_AUDIT_GENERATED_(6F)
  6
Continuous
 62
     7
100
AcDbSpline
210
0.0
220
0.0
230
1.0
 70
     8
 71
     3
 72
     8
 73
     4
 74
     0
 42
0.0000000090157514
 43
0.0000000001
 40
0.0
 40
0.0
 40
0.0
 40
0.0
 40
1.0
 40
1.0
 40
1.0
 40
1.0
 10
67.68926277776957
 20
412.6023561111111
 30
0.0
 10
67.99441555554733
 20
412.872231111111
 30
0.0
 10
68.31967666665848
 20
412.9071561111111
 30
0.0
 10
68.69362111110291
 20
412.9304394444445
 30
0.0
  0
SPLINE
  5
CA
330
6D
100
AcDbEntity
  8
$DDT_AUDIT_GENERATED_(6F)
  6
Continuous
 62
     7
100
AcDbSpline
210
0.0
220
0.0
230
1.0
 70
     8
 71
     3
 72
     8
 73
     4
 74
     0
 42
0.000000006293847
 43
0.0000000001
 40
0.0
 40
0.0
 40
0.0
 40
0.0
 40
1.0
 40
1.0
 40
1.0
 40
1.0
 10
64.98070555554722
 20
411.5626494444443
 30
0.0
 10
64.95459999999173
 20
412.0491299999999
 30
0.0
 10
65.15956388888064
 20
412.5818244444445
 30
0.0
 10
65.64886666665845
 20
412.7878466666666
 30
0.0
  0
SPLINE
  5
CB
330
6D
100
AcDbEntity
  8
$DDT_AUDIT_GENERATED_(6F)
  6
Continuous
 62
     7
100
AcDbSpline
210
0.0
220
0.0
230
1.0
 70
     8
 71
     3
 72
     8
 73
     4
 74
     0
 42
0.0000000027590407
 43
0.0000000001
 40
0.0
 40
0.0
 40
0.0
 40
0.0
 40
1.0
 40
1.0
 40
1.0
 40
1.0
 10
67.12629999999173
 20
410.25843
 30
0.0
 10
65.96777777776956
 20
410.25843
 30
0.0
 10
65.06360833332506
 20
410.0312411111111
 30
0.0
 10
64.98070555554722
 20
411.5626494444443
 30
0.0
  0
LINE
  5
CC
330
6D
100
AcDbEntity
  8
$DDT_AUDIT_GENERATED_(6F)
  6
Continuous
 62
     7
100
AcDbLine
 10
67.1263
 20
410.7173938889
 30
0.0
 11
67.1263
 21
410.25843
 31
0.0
  0
SPLINE
  5
CD
330
6D
100
AcDbEntity
  8
$DDT_AUDIT_GENERATED_(6F)
  6
Continuous
 62
     7
100
AcDbSpline
210
0.0
220
0.0
230
1.0
 70
     8
 71
     3
 72
     8
 73
     4
 74
     0
 42
0.0000000051710949
 43
0.0000000001
 40
0.0
 40
0.0
 40
0.0
 40
0.0
 40
1.0
 40
1.0
 40
1.0
 40
1.0
 10
65.6202916666583
 20
411.1149744444444
 30
0.0
 10
65.80126666665845
 20
410.5491188888889
 30
0.0
 10
66.75694166665843
 20
410.7173938888889
 30
0.0
 10
67.12629999999173
 20
410.7173938888889
 30
0.0
  0
SPLINE
  5
CE
330
6D
100
AcDbEntity
  8
$DDT_AUDIT_GENERATED_(6F)
  6
Continuous
 62
     7
100
AcDbSpline
210
0.0
220
0.0
230
1.0
 70
     8
 71
     3
 72
     8
 73
     4
 74
     0
 42
0.0000000047548975
 43
0.0000000001
 40
0.0
 40
0.0
 40
0.0
 40
0.0
 40
1.0
 40
1.0
 40
1.0
 40
1.0
 10
66.22213055554724
 20
412.4350688888888
 30
0.0
 10
65.53209722221389
 20
412.4971577777777
 30
0.0
 10
65.45907222221395
 20
411.6212105555555
 30
0.0
 10
65.6202916666583
 20
411.1149744444444
 30
0.0
  0
LINE
  5
CF
330
6D
100
AcDbEntity
  8
$DDT_AUDIT_GENERATED_(6F)
  6
Continuous
 62
     7
100
AcDbLine
 10
67.1263
 20
412.4350688889
 30
0.0
 11
66.2221305555
 21
412.4350688889
 31
0.0
  0
LINE
  5
D0
330
6D
100
AcDbEntity
  8
$DDT_AUDIT_GENERATED_(6F)
  6
Continuous
 62
     7
100
AcDbLine
 10
67.1263
 20
412.8774522222
 30
0.0
 11
67.1263
 21
412.4350688889
 31
0.0
  0
SPLINE
  5
D1
330
6D
100
AcDbEntity
  8
$DDT_AUDIT_GENERATED_(6F)
  6
Continuous
 62
     7
100
AcDbSpline
210
0.0
220
0.0
230
1.0
 70
     8
 71
     3
 72
     8
 73
     4
 74
     0
 42
0.0000000065092455
 43
0.0000000001
 40
0.0
 40
0.0
 40
0.0
 40
0.0
 40
1.0
 40
1.0
 40
1.0
 40
1.0
 10
65.64886666665845
 20
412.7878466666666
 30
0.0
 10
66.15333888888061
 20
413.0009244444444
 30
0.0
 10
66.63135277776952
 20
412.8774522222222
 30
0.0
 10
67.12629999999173
 20
412.8774522222222
 30
0.0
  0
SPLINE
  5
D2
330
6D
100
AcDbEntity
  8
$DDT_AUDIT_GENERATED_(6F)
  6
Continuous
 62
     7
100
AcDbSpline
210
0.0
220
0.0
230
1.0
 70
     8
 71
     3
 72
     8
 73
     4
 74
     0
 42
0.0000000062954105
 43
0.0000000001
 40
0.0
 40
0.0
 40
0.0
 40
0.0
 40
1.0
 40
1.0
 40
1.0
 40
1.0
 10
62.5318986111029
 20
411.5629316666667
 30
0.0
 10
62.50508749999176
 20
412.049765
 30
0.0
 10
62.70969861110284
 20
412.5817538888888
 30
0.0
 10
63.19900138888065
 20
412.787776111111
 30
0.0
  0
SPLINE
  5
D3
330
6D
100
AcDbEntity
  8
$DDT_AUDIT_GENERATED_(6F)
  6
Continuous
 62
     7
100
AcDbSpline
210
0.0
220
0.0
230
1.0
 70
     8
 71
     3
 72
     8
 73
     4
 74
     0
 42
0.0000000087966079
 43
0.0000000001
 40
0.0
 40
0.0
 40
0.0
 40
0.0
 40
1.0
 40
1.0
 40
1.0
 40
1.0
 10
63.14679027776951
 20
411.3636122222222
 30
0.0
 10
63.11010138888065
 20
410.9356927777778
 30
0.0
 10
63.25650416665832
 20
410.7187344444445
 30
0.0
 10
63.70206249999175
 20
410.7145011111111
 30
0.0
  0
SPLINE
  5
D4
330
6D
100
AcDbEntity
  8
$DDT_AUDIT_GENERATED_(6F)
  6
Continuous
 62
     7
100
AcDbSpline
210
0.0
220
0.0
230
1.0
 70
     8
 71
     3
 72
     8
 73
     4
 74
     0
 42
0.000000002758081
 43
0.0000000001
 40
0.0
 40
0.0
 40
0.0
 40
0.0
 40
1.0
 40
1.0
 40
1.0
 40
1.0
 10
64.67749305554734
 20
410.2583594444445
 30
0.0
 10
63.51791249999175
 20
410.2583594444445
 30
0.0
 10
62.61480138888062
 20
410.0304649999999
 30
0.0
 10
62.5318986111029
 20
411.5629316666667
 30
0.0
  0
SPLINE
  5
D5
330
6D
100
AcDbEntity
  8
$DDT_AUDIT_GENERATED_(6F)
  6
Continuous
 62
     7
100
AcDbSpline
210
0.0
220
0.0
230
1.0
 70
     8
 71
     3
 72
     8
 73
     4
 74
     0
 42
0.0000000102511386
 43
0.0000000001
 40
0.0
 40
0.0
 40
0.0
 40
0.0
 40
1.0
 40
1.0
 40
1.0
 40
1.0
 10
63.70206249999175
 20
410.7145011111111
 30
0.0
 10
64.02732361110283
 20
410.7113261111111
 30
0.0
 10
64.35223194443616
 20
410.7173233333333
 30
0.0
 10
64.67749305554734
 20
410.7173233333333
 30
0.0
  0
LINE
  5
D6
330
6D
100
AcDbEntity
  8
$DDT_AUDIT_GENERATED_(6F)
  6
Continuous
 62
     7
100
AcDbLine
 10
64.6774930555
 20
411.3636122222
 30
0.0
 11
63.1467902778
 21
411.3636122222
 31
0.0
  0
LINE
  5
D7
330
6D
100
AcDbEntity
  8
$DDT_AUDIT_GENERATED_(6F)
  6
Continuous
 62
     7
100
AcDbLine
 10
63.1506708333
 20
411.8232816667
 30
0.0
 11
64.6774930555
 21
411.821165
 31
0.0
  0
SPLINE
  5
D8
330
6D
100
AcDbEntity
  8
$DDT_AUDIT_GENERATED_(6F)
  6
Continuous
 62
     7
100
AcDbSpline
210
0.0
220
0.0
230
1.0
 70
     8
 71
     3
 72
     8
 73
     4
 74
     0
 42
0.0000000090497203
 43
0.0000000001
 40
0.0
 40
0.0
 40
0.0
 40
0.0
 40
1.0
 40
1.0
 40
1.0
 40
1.0
 10
63.77191249999173
 20
412.4187705555555
 30
0.0
 10
63.39796805554735
 20
412.44664
 30
0.0
 10
63.14290972221395
 20
412.1947566666666
 30
0.0
 10
63.15067083332501
 20
411.8232816666667
 30
0.0
  0
SPLINE
  5
D9
330
6D
100
AcDbEntity
  8
$DDT_AUDIT_GENERATED_(6F)
  6
Continuous
 62
     7
100
AcDbSpline
210
0.0
220
0.0
230
1.0
 70
     8
 71
     3
 72
     8
 73
     4
 74
     0
 42
0.0000000066505993
 43
0.0000000001
 40
0.0
 40
0.0
 40
0.0
 40
0.0
 40
1.0
 40
1.0
 40
1.0
 40
1.0
 10
63.19900138888065
 20
412.787776111111
 30
0.0
 10
63.48439861110286
 20
412.9087788888888
 30
0.0
 10
64.39632916665846
 20
412.8773816666667
 30
0.0
 10
64.67749305554734
 20
412.8773816666667
 30
0.0
  0
LINE
  5
DA
330
6D
100
AcDbEntity
  8
$DDT_AUDIT_GENERATED_(6F)
  6
Continuous
 62
     7
100
AcDbLine
 10
64.6774930555
 20
410.7173233333
 30
0.0
 11
64.6774930555
 21
410.2583594444
 31
0.0
  0
LINE
  5
DB
330
6D
100
AcDbEntity
  8
$DDT_AUDIT_GENERATED_(6F)
  6
Continuous
 62
     7
100
AcDbLine
 10
64.6774930555
 20
411.821165
 30
0.0
 11
64.6774930555
 21
411.3636122222
 31
0.0
  0
LINE
  5
DC
330
6D
100
AcDbEntity
  8
$DDT_AUDIT_GENERATED_(6F)
  6
Continuous
 62
     7
100
AcDbLine
 10
64.6774930555
 20
412.4187705556
 30
0.0
 11
63.7719125
 21
412.4187705556
 31
0.0
  0
LINE
  5
DD
330
6D
100
AcDbEntity
  8
$DDT_AUDIT_GENERATED_(6F)
  6
Continuous
 62
     7
100
AcDbLine
 10
64.6774930555
 20
412.8773816667
 30
0.0
 11
64.6774930555
 21
412.4187705556
 31
0.0
  0
LINE
  5
DE
330
6D
100
AcDbEntity
  8
$DDT_AUDIT_GENERATED_(6F)
  6
Continuous
 62
     7
100
AcDbLine
 10
64.9999672222
 20
407.5
 30
0.0
 11
64.9999672222
 21
404.9998638889
 31
0.0
  0
LINE
  5
DF
330
6D
100
AcDbEntity
  8
$DDT_AUDIT_GENERATED_(6F)
  6
Continuous
 62
     7
100
AcDbLine
 10
67.5001033333
 20
404.9998638889
 30
0.0
 11
67.5001033333
 21
407.4996472222
 31
0.0
  0
LINE
  5
E0
330
6D
100
AcDbEntity
  8
$DDT_AUDIT_GENERATED_(6F)
  6
Continuous
 62
     7
100
AcDbLine
 10
64.9999672222
 20
404.9998638889
 30
0.0
 11
67.5001033333
 21
404.9998638889
 31
0.0
  0
LINE
  5
E1
330
6D
100
AcDbEntity
  8
$DDT_AUDIT_GENERATED_(6F)
  6
Continuous
 62
     7
100
AcDbLine
 10
67.5001033333
 20
407.4996472222
 30
0.0
 11
64.9999672222
 21
407.5
 31
0.0
  0
ARC
  5
E2
330
6D
100
AcDbEntity
  8
$DDT_AUDIT_GENERATED_(6F)
  6
Continuous
 62
     7
100
AcDbCircle
 10
68.6238981998
 20
397.4830987447
 30
0.0
 40
0.5689989556707358
100
AcDbArc
 50
89.9257234105
 51
180.0742765897
  0
ARC
  5
E3
330
6D
100
AcDbEntity
  8
$DDT_AUDIT_GENERATED_(6F)
  6
Continuous
 62
     7
100
AcDbCircle
 10
68.6256748251
 20
397.4837521281
 30
0.0
 40
0.5683460438364791
100
AcDbArc
 50
359.8597694455
 51
90.1047423057
  0
ARC
  5
E4
330
6D
100
AcDbEntity
  8
$DDT_AUDIT_GENERATED_(6F)
  6
Continuous
 62
     7
100
AcDbCircle
 10
68.625392867
 20
397.4816040774
 30
0.0
 40
0.5686268035967117
100
AcDbArc
 50
269.9237200098
 51
0.0762799903
  0
ARC
  5
E5
330
6D
100
AcDbEntity
  8
$DDT_AUDIT_GENERATED_(6F)
  6
Continuous
 62
     7
100
AcDbCircle
 10
68.624181067
 20
397.4822589501
 30
0.0
 40
0.5692813539408571
100
AcDbArc
 50
179.9897179205
 51
270.0457703286
  0
ARC
  5
E6
330
6D
100
AcDbEntity
  8
$DDT_AUDIT_GENERATED_(6F)
  6
Continuous
 62
     7
100
AcDbCircle
 10
68.0468455138
 20
395.5484883651
 30
0.0
 40
0.6553055994823143
100
AcDbArc
 50
276.989164113
 51
296.1968228665
  0
SPLINE
  5
E7
330
6D
100
AcDbEntity
  8
$DDT_AUDIT_GENERATED_(6F)
  6
Continuous
 62
     7
100
AcDbSpline
210
0.0
220
0.0
230
1.0
 70
     8
 71
     3
 72
     8
 73
     4
 74
     0
 42
0.0000001326922849
 43
0.0000000001
 40
0.0
 40
0.0
 40
0.0
 40
0.0
 40
1.0
 40
1.0
 40
1.0
 40
1.0
 10
68.12658416665846
 20
394.8980522222221
 30
0.0
 10
68.10471194443612
 20
394.8952299999999
 30
0.0
 10
68.0814286111029
 20
394.8874688888889
 30
0.0
 10
68.09730361110283
 20
394.8634799999999
 30
0.0
  0
ARC
  5
E8
330
6D
100
AcDbEntity
  8
$DDT_AUDIT_GENERATED_(6F)
  6
Continuous
 62
     7
100
AcDbCircle
 10
66.2181093825
 20
393.6127180057
 30
0.0
 40
2.257382669220573
100
AcDbArc
 50
31.2215159289
 51
33.6471087616
  0
ARC
  5
E9
330
6D
100
AcDbEntity
  8
$DDT_AUDIT_GENERATED_(6F)
  6
Continuous
 62
     7
100
AcDbCircle
 10
19.2153157578
 20
365.1226843346
 30
0.0
 40
57.22049655265771
100
AcDbArc
 50
31.0467968205
 51
31.2215159289
  0
SPLINE
  5
EA
330
6D
100
AcDbEntity
  8
$DDT_AUDIT_GENERATED_(6F)
  6
Continuous
 62
     7
100
AcDbSpline
210
0.0
220
0.0
230
1.0
 70
     8
 71
     3
 72
     8
 73
     4
 74
     0
 42
0.0000000267241352
 43
0.0000000001
 40
0.0
 40
0.0
 40
0.0
 40
0.0
 40
1.0
 40
1.0
 40
1.0
 40
1.0
 10
68.23876749999175
 20
394.6334688888888
 30
0.0
 10
68.30297305554723
 20
394.5272827777778
 30
0.0
 10
68.37635083332505
 20
394.426741111111
 30
0.0
 10
68.42926749999172
 20
394.3127938888888
 30
0.0
  0
SPLINE
  5
EB
330
6D
100
AcDbEntity
  8
$DDT_AUDIT_GENERATED_(6F)
  6
Continuous
 62
     7
100
AcDbSpline
210
0.0
220
0.0
230
1.0
 70
     8
 71
     3
 72
     8
 73
     4
 74
     0
 42
0.0000000066835524
 43
0.0000000001
 40
0.0
 40
0.0
 40
0.0
 40
0.0
 40
1.0
 40
1.0
 40
1.0
 40
1.0
 10
68.42926749999172
 20
394.3127938888888
 30
0.0
 10
68.63811194443625
 20
393.8700577777778
 30
0.0
 10
68.12129249999171
 20
393.7416466666667
 30
0.0
 10
67.87470083332504
 20
394.1466355555556
 30
0.0
  0
SPLINE
  5
EC
330
6D
100
AcDbEntity
  8
$DDT_AUDIT_GENERATED_(6F)
  6
Continuous
 62
     7
100
AcDbSpline
210
0.0
220
0.0
230
1.0
 70
     8
 71
     3
 72
     8
 73
     4
 74
     0
 42
0.0000000203273326
 43
0.0000000001
 40
0.0
 40
0.0
 40
0.0
 40
0.0
 40
1.0
 40
1.0
 40
1.0
 40
1.0
 10
67.87470083332504
 20
394.1466355555556
 30
0.0
 10
67.78932861110287
 20
394.2863355555555
 30
0.0
 10
67.70360361110284
 20
394.426741111111
 30
0.0
 10
67.61823138888062
 20
394.566441111111
 30
0.0
  0
SPLINE
  5
ED
330
6D
100
AcDbEntity
  8
$DDT_AUDIT_GENERATED_(6F)
  6
Continuous
 62
     7
100
AcDbSpline
210
0.0
220
0.0
230
1.0
 70
     8
 71
     3
 72
     8
 73
     4
 74
     0
 42
0.00000000711348
 43
0.0000000001
 40
0.0
 40
0.0
 40
0.0
 40
0.0
 40
1.0
 40
1.0
 40
1.0
 40
1.0
 10
69.02440361110284
 20
396.0361133333333
 30
0.0
 10
68.89916749999175
 20
395.5916133333333
 30
0.0
 10
68.82402583332504
 20
395.196855
 30
0.0
 10
68.33613416665845
 20
394.9604938888889
 30
0.0
  0
SPLINE
  5
EE
330
6D
100
AcDbEntity
  8
$DDT_AUDIT_GENERATED_(6F)
  6
Continuous
 62
     7
100
AcDbSpline
210
0.0
220
0.0
230
1.0
 70
     8
 71
     3
 72
     8
 73
     4
 74
     0
 42
0.0000000104641056
 43
0.0000000001
 40
0.0
 40
0.0
 40
0.0
 40
0.0
 40
1.0
 40
1.0
 40
1.0
 40
1.0
 10
63.30552305554726
 20
396.2255549999999
 30
0.0
 10
63.26001472221407
 20
396.6072605555556
 30
0.0
 10
63.52424527776954
 20
396.6354827777778
 30
0.0
 10
63.82975083332506
 20
396.6354827777778
 30
0.0
  0
SPLINE
  5
EF
330
6D
100
AcDbEntity
  8
$DDT_AUDIT_GENERATED_(6F)
  6
Continuous
 62
     7
100
AcDbSpline
210
0.0
220
0.0
230
1.0
 70
     8
 71
     3
 72
     8
 73
     4
 74
     0
 42
0.0000000050457707
 43
0.0000000001
 40
0.0
 40
0.0
 40
0.0
 40
0.0
 40
1.0
 40
1.0
 40
1.0
 40
1.0
 10
64.30035638888066
 20
394.893466111111
 30
0.0
 10
63.66570916665848
 20
394.9290966666666
 30
0.0
 10
63.41065083332509
 20
395.772941111111
 30
0.0
 10
63.30552305554726
 20
396.2255549999999
 30
0.0
  0
SPLINE
  5
F0
330
6D
100
AcDbEntity
  8
$DDT_AUDIT_GENERATED_(6F)
  6
Continuous
 62
     7
100
AcDbSpline
210
0.0
220
0.0
230
1.0
 70
     8
 71
     3
 72
     8
 73
     4
 74
     0
 42
0.0000000116454803
 43
0.0000000001
 40
0.0
 40
0.0
 40
0.0
 40
0.0
 40
1.0
 40
1.0
 40
1.0
 40
1.0
 10
68.90763416665835
 20
396.6072605555556
 30
0.0
 10
69.2336008333252
 20
396.5031911111111
 30
0.0
 10
69.08790361110285
 20
396.2629494444445
 30
0.0
 10
69.02440361110284
 20
396.0361133333333
 30
0.0
  0
SPLINE
  5
F1
330
6D
100
AcDbEntity
  8
$DDT_AUDIT_GENERATED_(6F)
  6
Continuous
 62
     7
100
AcDbSpline
210
0.0
220
0.0
230
1.0
 70
     8
 71
     3
 72
     8
 73
     4
 74
     0
 42
0.0000000050565539
 43
0.0000000001
 40
0.0
 40
0.0
 40
0.0
 40
0.0
 40
1.0
 40
1.0
 40
1.0
 40
1.0
 10
66.94372027776957
 20
396.6351299999999
 30
0.0
 10
67.1896063888806
 20
396.6351299999999
 30
0.0
 10
68.65328138888066
 20
396.6887522222221
 30
0.0
 10
68.90763416665835
 20
396.6072605555556
 30
0.0
  0
ARC
  5
F2
330
6D
100
AcDbEntity
  8
$DDT_AUDIT_GENERATED_(6F)
  6
Continuous
 62
     7
100
AcDbCircle
 10
65.9605286111
 20
1572.582799863
 30
0.0
 40
1175.948080878578
100
AcDbArc
 50
269.9520958957
 51
270.0479041043
  0
ARC
  5
F3
330
6D
100
AcDbEntity
  8
$DDT_AUDIT_GENERATED_(6F)
  6
Continuous
 62
     7
100
AcDbCircle
 10
64.8411470395
 20
930.442881245
 30
0.0
 40
533.8077686180525
100
AcDbArc
 50
269.9325262968
 51
270.0146178218
  0
LINE
  5
F4
330
6D
100
AcDbEntity
  8
$DDT_AUDIT_GENERATED_(6F)
  6
Continuous
 62
     7
100
AcDbLine
 10
63.8297508333
 20
396.6354827778
 30
0.0
 11
64.2125147222
 21
396.6354827778
 31
0.0
  0
SPLINE
  5
F5
330
6D
100
AcDbEntity
  8
$DDT_AUDIT_GENERATED_(6F)
  6
Continuous
 62
     7
100
AcDbSpline
210
0.0
220
0.0
230
1.0
 70
     8
 71
     3
 72
     8
 73
     4
 74
     0
 42
0.0000000106150199
 43
0.0000000001
 40
0.0
 40
0.0
 40
0.0
 40
0.0
 40
1.0
 40
1.0
 40
1.0
 40
1.0
 10
63.92182583332517
 20
394.0848994444445
 30
0.0
 10
63.88125638888064
 20
394.2785744444445
 30
0.0
 10
64.21957027776942
 20
394.7689355555555
 30
0.0
 10
64.30035638888066
 20
394.893466111111
 30
0.0
  0
SPLINE
  5
F6
330
6D
100
AcDbEntity
  8
$DDT_AUDIT_GENERATED_(6F)
  6
Continuous
 62
     7
100
AcDbSpline
210
0.0
220
0.0
230
1.0
 70
     8
 71
     3
 72
     8
 73
     4
 74
     0
 42
0.0000000065400473
 43
0.0000000001
 40
0.0
 40
0.0
 40
0.0
 40
0.0
 40
1.0
 40
1.0
 40
1.0
 40
1.0
 10
64.64360916665835
 20
394.3748827777778
 30
0.0
 10
64.45981194443611
 20
394.0746688888889
 30
0.0
 10
64.02730638888066
 20
393.5776049999999
 30
0.0
 10
63.92182583332517
 20
394.0848994444445
 30
0.0
  0
ARC
  5
F7
330
6D
100
AcDbEntity
  8
$DDT_AUDIT_GENERATED_(6F)
  6
Continuous
 62
     7
100
AcDbCircle
 10
259.0855495114
 20
276.2001701435
 30
0.0
 40
227.5366583019542
100
AcDbArc
 50
148.586508766
 51
148.7102933104
  0
SPLINE
  5
F8
330
6D
100
AcDbEntity
  8
$DDT_AUDIT_GENERATED_(6F)
  6
Continuous
 62
     7
100
AcDbSpline
210
0.0
220
0.0
230
1.0
 70
     8
 71
     3
 72
     8
 73
     4
 74
     0
 42
0.0000000172235529
 43
0.0000000001
 40
0.0
 40
0.0
 40
0.0
 40
0.0
 40
1.0
 40
1.0
 40
1.0
 40
1.0
 10
65.33928694443614
 20
394.885705
 30
0.0
 10
65.18335916665846
 20
394.8860577777778
 30
0.0
 10
65.01896472221391
 20
394.9908327777778
 30
0.0
 10
64.89937305554733
 20
394.7946883333333
 30
0.0
  0
SPLINE
  5
F9
330
6D
100
AcDbEntity
  8
$DDT_AUDIT_GENERATED_(6F)
  6
Continuous
 62
     7
100
AcDbSpline
210
0.0
220
0.0
230
1.0
 70
     8
 71
     3
 72
     8
 73
     4
 74
     0
 42
0.0000000101745997
 43
0.0000000001
 40
0.0
 40
0.0
 40
0.0
 40
0.0
 40
1.0
 40
1.0
 40
1.0
 40
1.0
 10
66.32212583332509
 20
394.8849994444444
 30
0.0
 10
65.99474805554722
 20
394.8849994444444
 30
0.0
 10
65.66701749999176
 20
394.885705
 30
0.0
 10
65.33928694443614
 20
394.885705
 30
0.0
  0
ARC
  5
FA
330
6D
100
AcDbEntity
  8
$DDT_AUDIT_GENERATED_(6F)
  6
Continuous
 62
     7
100
AcDbCircle
 10
67.5598423959
 20
-298.4300769545
 30
0.0
 40
693.3161811932371
100
AcDbArc
 50
90.0209756785
 51
90.1022851837
  0
SPLINE
  5
FB
330
6D
100
AcDbEntity
  8
$DDT_AUDIT_GENERATED_(6F)
  6
Continuous
 62
     7
100
AcDbSpline
210
0.0
220
0.0
230
1.0
 70
     8
 71
     3
 72
     8
 73
     4
 74
     0
 42
0.0000000176148334
 43
0.0000000001
 40
0.0
 40
0.0
 40
0.0
 40
0.0
 40
1.0
 40
1.0
 40
1.0
 40
1.0
 10
67.61823138888062
 20
394.566441111111
 30
0.0
 10
67.53673972221397
 20
394.699791111111
 30
0.0
 10
67.53109527776957
 20
394.8860577777778
 30
0.0
 10
67.30602305554757
 20
394.8860577777776
 30
0.0
  0
LINE
  5
FC
330
6D
100
AcDbEntity
  8
$DDT_AUDIT_GENERATED_(6F)
  6
Continuous
 62
     7
100
AcDbLine
 10
249.7500625
 20
410.25
 30
0.0
 11
248.7499375
 21
410.25
 31
0.0
  0
LINE
  5
FD
330
6D
100
AcDbEntity
  8
$DDT_AUDIT_GENERATED_(6F)
  6
Continuous
 62
     7
100
AcDbLine
 10
249.7500625
 20
418.7498277778
 30
0.0
 11
249.7500625
 21
410.25
 31
0.0
  0
LINE
  5
FE
330
6D
100
AcDbEntity
  8
$DDT_AUDIT_GENERATED_(6F)
  6
Continuous
 62
     7
100
AcDbLine
 10
248.7499375
 20
418.7498277778
 30
0.0
 11
249.7500625
 21
418.7498277778
 31
0.0
  0
LINE
  5
FF
330
6D
100
AcDbEntity
  8
$DDT_AUDIT_GENERATED_(6F)
  6
Continuous
 62
     7
100
AcDbLine
 10
248.7499375
 20
410.25
 30
0.0
 11
248.7499375
 21
418.7498277778
 31
0.0
  0
SPLINE
  5
100
330
6D
100
AcDbEntity
  8
$DDT_AUDIT_GENERATED_(6F)
  6
Continuous
 62
     7
100
AcDbSpline
210
0.0
220
0.0
230
1.0
 70
     8
 71
     3
 72
     8
 73
     4
 74
     0
 42
0.0000000122325093
 43
0.0000000001
 40
0.0
 40
0.0
 40
0.0
 40
0.0
 40
1.0
 40
1.0
 40
1.0
 40
1.0
 10
251.1141130555474
 20
404.6041797222222
 30
0.0
 10
251.2471102777696
 20
404.6041797222222
 30
0.0
 10
251.6923158333252
 20
404.6800269444444
 30
0.0
 10
251.8687047222139
 20
404.8320741666666
 30
0.0
  0
LINE
  5
101
330
6D
100
AcDbEntity
  8
$DDT_AUDIT_GENERATED_(6F)
  6
Continuous
 62
     7
100
AcDbLine
 10
250.0233241667
 20
404.6041797222
 30
0.0
 11
251.1141130555
 21
404.6041797222
 31
0.0
  0
SPLINE
  5
102
330
6D
100
AcDbEntity
  8
$DDT_AUDIT_GENERATED_(6F)
  6
Continuous
 62
     7
100
AcDbSpline
210
0.0
220
0.0
230
1.0
 70
     8
 71
     3
 72
     8
 73
     4
 74
     0
 42
0.0000000117405132
 43
0.0000000001
 40
0.0
 40
0.0
 40
0.0
 40
0.0
 40
1.0
 40
1.0
 40
1.0
 40
1.0
 10
249.265204722214
 20
404.8320741666666
 30
0.0
 10
249.4426519444363
 20
404.6800269444444
 30
0.0
 10
249.5008602777696
 20
404.6041797222222
 30
0.0
 10
250.0233241666585
 20
404.6041797222222
 30
0.0
  0
SPLINE
  5
103
330
6D
100
AcDbEntity
  8
$DDT_AUDIT_GENERATED_(6F)
  6
Continuous
 62
     7
100
AcDbSpline
210
0.0
220
0.0
230
1.0
 70
     8
 71
     3
 72
     8
 73
     4
 74
     0
 42
0.0000000133305018
 43
0.0000000001
 40
0.0
 40
0.0
 40
0.0
 40
0.0
 40
1.0
 40
1.0
 40
1.0
 40
1.0
 10
248.9999158333251
 20
405.4836547222221
 30
0.0
 10
248.9999158333251
 20
405.2014325
 30
0.0
 10
249.0881102777696
 20
404.9841213888889
 30
0.0
 10
249.265204722214
 20
404.8320741666666
 30
0.0
  0
SPLINE
  5
104
330
6D
100
AcDbEntity
  8
$DDT_AUDIT_GENERATED_(6F)
  6
Continuous
 62
     7
100
AcDbSpline
210
0.0
220
0.0
230
1.0
 70
     8
 71
     3
 72
     8
 73
     4
 74
     0
 42
0.0000000198634566
 43
0.0000000001
 40
0.0
 40
0.0
 40
0.0
 40
0.0
 40
1.0
 40
1.0
 40
1.0
 40
1.0
 10
249.117743611103
 20
405.9599047222222
 30
0.0
 10
249.0394269444361
 20
405.8339630555556
 30
0.0
 10
248.9999158333251
 20
405.6745074999999
 30
0.0
 10
248.9999158333251
 20
405.4836547222221
 30
0.0
  0
SPLINE
  5
105
330
6D
100
AcDbEntity
  8
$DDT_AUDIT_GENERATED_(6F)
  6
Continuous
 62
     7
100
AcDbSpline
210
0.0
220
0.0
230
1.0
 70
     8
 71
     3
 72
     8
 73
     4
 74
     0
 42
0.0000000208851257
 43
0.0000000001
 40
0.0
 40
0.0
 40
0.0
 40
0.0
 40
1.0
 40
1.0
 40
1.0
 40
1.0
 10
249.4768713888807
 20
406.2541213888888
 30
0.0
 10
249.3156519444362
 20
406.1839186111111
 30
0.0
 10
249.1960602777696
 20
406.0858463888889
 30
0.0
 10
249.117743611103
 20
405.9599047222222
 30
0.0
  0
ARC
  5
106
330
6D
100
AcDbEntity
  8
$DDT_AUDIT_GENERATED_(6F)
  6
Continuous
 62
     7
100
AcDbCircle
 10
250.0870130838
 20
407.1570114978
 30
0.0
 40
1.089717136105848
100
AcDbArc
 50
210.4269818012
 51
235.950542048
  0
ARC
  5
107
330
6D
100
AcDbEntity
  8
$DDT_AUDIT_GENERATED_(6F)
  6
Continuous
 62
     7
100
AcDbCircle
 10
249.9371391222
 20
407.0350099323
 30
0.0
 40
0.8991754645736256
100
AcDbArc
 50
179.3827636133
 51
208.5598500585
  0
SPLINE
  5
108
330
6D
100
AcDbEntity
  8
$DDT_AUDIT_GENERATED_(6F)
  6
Continuous
 62
     7
100
AcDbSpline
210
0.0
220
0.0
230
1.0
 70
     8
 71
     3
 72
     8
 73
     4
 74
     0
 42
0.0000000134000035
 43
0.0000000001
 40
0.0
 40
0.0
 40
0.0
 40
0.0
 40
1.0
 40
1.0
 40
1.0
 40
1.0
 10
249.3011880555474
 20
407.6885158333333
 30
0.0
 10
249.1255047222139
 20
407.5502269444443
 30
0.0
 10
249.0380158333251
 20
407.3357380555556
 30
0.0
 10
249.0380158333251
 20
407.0446963888888
 30
0.0
  0
SPLINE
  5
109
330
6D
100
AcDbEntity
  8
$DDT_AUDIT_GENERATED_(6F)
  6
Continuous
 62
     7
100
AcDbSpline
210
0.0
220
0.0
230
1.0
 70
     8
 71
     3
 72
     8
 73
     4
 74
     0
 42
0.0000000114271827
 43
0.0000000001
 40
0.0
 40
0.0
 40
0.0
 40
0.0
 40
1.0
 40
1.0
 40
1.0
 40
1.0
 10
250.1199852777696
 20
407.8955963888889
 30
0.0
 10
249.7495686111029
 20
407.8955963888889
 30
0.0
 10
249.4768713888807
 20
407.8264519444443
 30
0.0
 10
249.3011880555474
 20
407.6885158333333
 30
0.0
  0
LINE
  5
10A
330
6D
100
AcDbEntity
  8
$DDT_AUDIT_GENERATED_(6F)
  6
Continuous
 62
     7
100
AcDbLine
 10
251.0086325
 20
407.8955963889
 30
0.0
 11
250.1199852778
 21
407.8955963889
 31
0.0
  0
SPLINE
  5
10B
330
6D
100
AcDbEntity
  8
$DDT_AUDIT_GENERATED_(6F)
  6
Continuous
 62
     7
100
AcDbSpline
210
0.0
220
0.0
230
1.0
 70
     8
 71
     3
 72
     8
 73
     4
 74
     0
 42
0.0000000114497057
 43
0.0000000001
 40
0.0
 40
0.0
 40
0.0
 40
0.0
 40
1.0
 40
1.0
 40
1.0
 40
1.0
 10
251.8260186111029
 20
407.6885158333333
 30
0.0
 10
251.6489241666585
 20
407.8264519444443
 30
0.0
 10
251.3758741666585
 20
407.8955963888889
 30
0.0
 10
251.0086324999918
 20
407.8955963888889
 30
0.0
  0
SPLINE
  5
10C
330
6D
100
AcDbEntity
  8
$DDT_AUDIT_GENERATED_(6F)
  6
Continuous
 62
     7
100
AcDbSpline
210
0.0
220
0.0
230
1.0
 70
     8
 71
     3
 72
     8
 73
     4
 74
     0
 42
0.0000000280682023
 43
0.0000000001
 40
0.0
 40
0.0
 40
0.0
 40
0.0
 40
1.0
 40
1.0
 40
1.0
 40
1.0
 10
249.9069780555475
 20
405.2656380555555
 30
0.0
 10
249.821958611103
 20
405.3301963888889
 30
0.0
 10
249.7792724999918
 20
405.4321491666666
 30
0.0
 10
249.7792724999918
 20
405.5711436111111
 30
0.0
  0
SPLINE
  5
10D
330
6D
100
AcDbEntity
  8
$DDT_AUDIT_GENERATED_(6F)
  6
Continuous
 62
     7
100
AcDbSpline
210
0.0
220
0.0
230
1.0
 70
     8
 71
     3
 72
     8
 73
     4
 74
     0
 42
0.000000023198648
 43
0.0000000001
 40
0.0
 40
0.0
 40
0.0
 40
0.0
 40
1.0
 40
1.0
 40
1.0
 40
1.0
 10
250.3123197222141
 20
405.1682713888889
 30
0.0
 10
250.1274641666585
 20
405.1682713888889
 30
0.0
 10
249.9923502777696
 20
405.2007269444443
 30
0.0
 10
249.9069780555475
 20
405.2656380555555
 30
0.0
  0
LINE
  5
10E
330
6D
100
AcDbEntity
  8
$DDT_AUDIT_GENERATED_(6F)
  6
Continuous
 62
     7
100
AcDbLine
 10
250.8203197222
 20
405.1682713889
 30
0.0
 11
250.3123197222
 21
405.1682713889
 31
0.0
  0
SPLINE
  5
10F
330
6D
100
AcDbEntity
  8
$DDT_AUDIT_GENERATED_(6F)
  6
Continuous
 62
     7
100
AcDbSpline
210
0.0
220
0.0
230
1.0
 70
     8
 71
     3
 72
     8
 73
     4
 74
     0
 42
0.0000000230639032
 43
0.0000000001
 40
0.0
 40
0.0
 40
0.0
 40
0.0
 40
1.0
 40
1.0
 40
1.0
 40
1.0
 10
251.2284836111029
 20
405.2656380555555
 30
0.0
 10
251.1417002777696
 20
405.2007269444443
 30
0.0
 10
251.0058808333251
 20
405.1682713888889
 30
0.0
 10
250.820319722214
 20
405.1682713888889
 30
0.0
  0
SPLINE
  5
110
330
6D
100
AcDbEntity
  8
$DDT_AUDIT_GENERATED_(6F)
  6
Continuous
 62
     7
100
AcDbSpline
210
0.0
220
0.0
230
1.0
 70
     8
 71
     3
 72
     8
 73
     4
 74
     0
 42
0.0000000279803071
 43
0.0000000001
 40
0.0
 40
0.0
 40
0.0
 40
0.0
 40
1.0
 40
1.0
 40
1.0
 40
1.0
 10
251.3579530555474
 20
405.5711436111111
 30
0.0
 10
251.3579530555474
 20
405.4321491666666
 30
0.0
 10
251.3145613888807
 20
405.3301963888889
 30
0.0
 10
251.2284836111029
 20
405.2656380555555
 30
0.0
  0
SPLINE
  5
111
330
6D
100
AcDbEntity
  8
$DDT_AUDIT_GENERATED_(6F)
  6
Continuous
 62
     7
100
AcDbSpline
210
0.0
220
0.0
230
1.0
 70
     8
 71
     3
 72
     8
 73
     4
 74
     0
 42
0.0000000279868888
 43
0.0000000001
 40
0.0
 40
0.0
 40
0.0
 40
0.0
 40
1.0
 40
1.0
 40
1.0
 40
1.0
 10
251.2270724999918
 20
405.875943611111
 30
0.0
 10
251.3145613888807
 20
405.8099741666666
 30
0.0
 10
251.3579530555474
 20
405.7087269444443
 30
0.0
 10
251.3579530555474
 20
405.5711436111111
 30
0.0
  0
SPLINE
  5
112
330
6D
100
AcDbEntity
  8
$DDT_AUDIT_GENERATED_(6F)
  6
Continuous
 62
     7
100
AcDbSpline
210
0.0
220
0.0
230
1.0
 70
     8
 71
     3
 72
     8
 73
     4
 74
     0
 42
0.0000000231181161
 43
0.0000000001
 40
0.0
 40
0.0
 40
0.0
 40
0.0
 40
1.0
 40
1.0
 40
1.0
 40
1.0
 10
250.820319722214
 20
405.9743686111111
 30
0.0
 10
251.0048224999918
 20
405.9743686111111
 30
0.0
 10
251.1395836111029
 20
405.9415602777778
 30
0.0
 10
251.2270724999918
 20
405.875943611111
 30
0.0
  0
LINE
  5
113
330
6D
100
AcDbEntity
  8
$DDT_AUDIT_GENERATED_(6F)
  6
Continuous
 62
     7
100
AcDbLine
 10
250.3123197222
 20
405.9743686111
 30
0.0
 11
250.8203197222
 21
405.9743686111
 31
0.0
  0
SPLINE
  5
114
330
6D
100
AcDbEntity
  8
$DDT_AUDIT_GENERATED_(6F)
  6
Continuous
 62
     7
100
AcDbSpline
210
0.0
220
0.0
230
1.0
 70
     8
 71
     3
 72
     8
 73
     4
 74
     0
 42
0.0000000232931338
 43
0.0000000001
 40
0.0
 40
0.0
 40
0.0
 40
0.0
 40
1.0
 40
1.0
 40
1.0
 40
1.0
 10
249.9087419444363
 20
405.8766491666667
 30
0.0
 10
249.9958780555473
 20
405.9422658333332
 30
0.0
 10
250.1299336111029
 20
405.9743686111111
 30
0.0
 10
250.3123197222141
 20
405.9743686111111
 30
0.0
  0
SPLINE
  5
115
330
6D
100
AcDbEntity
  8
$DDT_AUDIT_GENERATED_(6F)
  6
Continuous
 62
     7
100
AcDbSpline
210
0.0
220
0.0
230
1.0
 70
     8
 71
     3
 72
     8
 73
     4
 74
     0
 42
0.0000000280461052
 43
0.0000000001
 40
0.0
 40
0.0
 40
0.0
 40
0.0
 40
1.0
 40
1.0
 40
1.0
 40
1.0
 10
251.225449722214
 20
407.2375247222221
 30
0.0
 10
251.3115274999918
 20
407.1733191666667
 30
0.0
 10
251.3542136111029
 20
407.0713663888889
 30
0.0
 10
251.3542136111029
 20
406.9327247222221
 30
0.0
  0
SPLINE
  5
116
330
6D
100
AcDbEntity
  8
$DDT_AUDIT_GENERATED_(6F)
  6
Continuous
 62
     7
100
AcDbSpline
210
0.0
220
0.0
230
1.0
 70
     8
 71
     3
 72
     8
 73
     4
 74
     0
 42
0.000000023253224
 43
0.0000000001
 40
0.0
 40
0.0
 40
0.0
 40
0.0
 40
1.0
 40
1.0
 40
1.0
 40
1.0
 10
250.8204608333251
 20
407.3331274999999
 30
0.0
 10
251.0056691666585
 20
407.3331274999999
 30
0.0
 10
251.1407830555474
 20
407.3013774999999
 30
0.0
 10
251.225449722214
 20
407.2375247222221
 30
0.0
  0
LINE
  5
117
330
6D
100
AcDbEntity
  8
$DDT_AUDIT_GENERATED_(6F)
  6
Continuous
 62
     7
100
AcDbLine
 10
250.3209275
 20
407.3331275
 30
0.0
 11
250.8204608333
 21
407.3331275
 31
0.0
  0
SPLINE
  5
118
330
6D
100
AcDbEntity
  8
$DDT_AUDIT_GENERATED_(6F)
  6
Continuous
 62
     7
100
AcDbSpline
210
0.0
220
0.0
230
1.0
 70
     8
 71
     3
 72
     8
 73
     4
 74
     0
 42
0.0000000231617812
 43
0.0000000001
 40
0.0
 40
0.0
 40
0.0
 40
0.0
 40
1.0
 40
1.0
 40
1.0
 40
1.0
 10
249.9141747222141
 20
407.2364663888889
 30
0.0
 10
250.0009580555474
 20
407.3006719444444
 30
0.0
 10
250.1367774999918
 20
407.3331274999999
 30
0.0
 10
250.3209274999918
 20
407.3331274999999
 30
0.0
  0
SPLINE
  5
119
330
6D
100
AcDbEntity
  8
$DDT_AUDIT_GENERATED_(6F)
  6
Continuous
 62
     7
100
AcDbSpline
210
0.0
220
0.0
230
1.0
 70
     8
 71
     3
 72
     8
 73
     4
 74
     0
 42
0.0000000280923068
 43
0.0000000001
 40
0.0
 40
0.0
 40
0.0
 40
0.0
 40
1.0
 40
1.0
 40
1.0
 40
1.0
 10
249.783999722214
 20
406.9327247222221
 30
0.0
 10
249.783999722214
 20
407.0699552777778
 30
0.0
 10
249.8273913888807
 20
407.1712024999999
 30
0.0
 10
249.9141747222141
 20
407.2364663888889
 30
0.0
  0
SPLINE
  5
11A
330
6D
100
AcDbEntity
  8
$DDT_AUDIT_GENERATED_(6F)
  6
Continuous
 62
     7
100
AcDbSpline
210
0.0
220
0.0
230
1.0
 70
     8
 71
     3
 72
     8
 73
     4
 74
     0
 42
0.0000000285179296
 43
0.0000000001
 40
0.0
 40
0.0
 40
0.0
 40
0.0
 40
1.0
 40
1.0
 40
1.0
 40
1.0
 10
249.9127636111029
 20
406.6342747222221
 30
0.0
 10
249.8273913888807
 20
406.6970691666667
 30
0.0
 10
249.783999722214
 20
406.7969052777778
 30
0.0
 10
249.783999722214
 20
406.9327247222221
 30
0.0
  0
SPLINE
  5
11B
330
6D
100
AcDbEntity
  8
$DDT_AUDIT_GENERATED_(6F)
  6
Continuous
 62
     7
100
AcDbSpline
210
0.0
220
0.0
230
1.0
 70
     8
 71
     3
 72
     8
 73
     4
 74
     0
 42
0.0000000230965423
 43
0.0000000001
 40
0.0
 40
0.0
 40
0.0
 40
0.0
 40
1.0
 40
1.0
 40
1.0
 40
1.0
 10
250.3209274999918
 20
406.5386719444444
 30
0.0
 10
250.1353663888807
 20
406.5386719444444
 30
0.0
 10
249.9984886111029
 20
406.5704219444444
 30
0.0
 10
249.9127636111029
 20
406.6342747222221
 30
0.0
  0
LINE
  5
11C
330
6D
100
AcDbEntity
  8
$DDT_AUDIT_GENERATED_(6F)
  6
Continuous
 62
     7
100
AcDbLine
 10
250.8204608333
 20
406.5386719444
 30
0.0
 11
250.3209275
 21
406.5386719444
 31
0.0
  0
SPLINE
  5
11D
330
6D
100
AcDbEntity
  8
$DDT_AUDIT_GENERATED_(6F)
  6
Continuous
 62
     7
100
AcDbSpline
210
0.0
220
0.0
230
1.0
 70
     8
 71
     3
 72
     8
 73
     4
 74
     0
 42
0.000000023253224
 43
0.0000000001
 40
0.0
 40
0.0
 40
0.0
 40
0.0
 40
1.0
 40
1.0
 40
1.0
 40
1.0
 10
251.225449722214
 20
406.6342747222221
 30
0.0
 10
251.1407830555474
 20
406.5704219444444
 30
0.0
 10
251.0056691666585
 20
406.5386719444444
 30
0.0
 10
250.8204608333251
 20
406.5386719444444
 30
0.0
  0
SPLINE
  5
11E
330
6D
100
AcDbEntity
  8
$DDT_AUDIT_GENERATED_(6F)
  6
Continuous
 62
     7
100
AcDbSpline
210
0.0
220
0.0
230
1.0
 70
     8
 71
     3
 72
     8
 73
     4
 74
     0
 42
0.000000028000088
 43
0.0000000001
 40
0.0
 40
0.0
 40
0.0
 40
0.0
 40
1.0
 40
1.0
 40
1.0
 40
1.0
 10
249.7792724999918
 20
405.5711436111111
 30
0.0
 10
249.7792724999918
 20
405.7097852777778
 30
0.0
 10
249.8226641666585
 20
405.8113852777778
 30
0.0
 10
249.9087419444363
 20
405.8766491666667
 30
0.0
  0
SPLINE
  5
11F
330
6D
100
AcDbEntity
  8
$DDT_AUDIT_GENERATED_(6F)
  6
Continuous
 62
     7
100
AcDbSpline
210
0.0
220
0.0
230
1.0
 70
     8
 71
     3
 72
     8
 73
     4
 74
     0
 42
0.0000000284943744
 43
0.0000000001
 40
0.0
 40
0.0
 40
0.0
 40
0.0
 40
1.0
 40
1.0
 40
1.0
 40
1.0
 10
251.3542136111029
 20
406.9327247222221
 30
0.0
 10
251.3542136111029
 20
406.7969052777778
 30
0.0
 10
251.3115274999918
 20
406.6970691666667
 30
0.0
 10
251.225449722214
 20
406.6342747222221
 30
0.0
  0
SPLINE
  5
120
330
6D
100
AcDbEntity
  8
$DDT_AUDIT_GENERATED_(6F)
  6
Continuous
 62
     7
100
AcDbSpline
210
0.0
220
0.0
230
1.0
 70
     8
 71
     3
 72
     8
 73
     4
 74
     0
 42
0.0000000135178744
 43
0.0000000001
 40
0.0
 40
0.0
 40
0.0
 40
0.0
 40
1.0
 40
1.0
 40
1.0
 40
1.0
 10
252.0923658333251
 20
407.0535158333333
 30
0.0
 10
252.0923658333251
 20
407.3389130555555
 30
0.0
 10
252.0038186111029
 20
407.5502269444443
 30
0.0
 10
251.8260186111029
 20
407.6885158333333
 30
0.0
  0
ARC
  5
121
330
6D
100
AcDbEntity
  8
$DDT_AUDIT_GENERATED_(6F)
  6
Continuous
 62
     7
100
AcDbCircle
 10
251.1882914053
 20
407.0407036544
 30
0.0
 40
0.9041652079545623
100
AcDbArc
 50
331.328669116
 51
0.8119183754
  0
ARC
  5
122
330
6D
100
AcDbEntity
  8
$DDT_AUDIT_GENERATED_(6F)
  6
Continuous
 62
     7
100
AcDbCircle
 10
251.0550481729
 20
407.1360416627
 30
0.0
 40
1.066994953203626
100
AcDbArc
 50
304.2544666312
 51
330.2696669963
  0
SPLINE
  5
123
330
6D
100
AcDbEntity
  8
$DDT_AUDIT_GENERATED_(6F)
  6
Continuous
 62
     7
100
AcDbSpline
210
0.0
220
0.0
230
1.0
 70
     8
 71
     3
 72
     8
 73
     4
 74
     0
 42
0.000000020820428
 43
0.0000000001
 40
0.0
 40
0.0
 40
0.0
 40
0.0
 40
1.0
 40
1.0
 40
1.0
 40
1.0
 10
252.0175769444363
 20
405.9620213888889
 30
0.0
 10
251.9410241666585
 20
406.0865519444444
 30
0.0
 10
251.8203741666585
 20
406.1839186111111
 30
0.0
 10
251.6556269444363
 20
406.2541213888889
 30
0.0
  0
SPLINE
  5
124
330
6D
100
AcDbEntity
  8
$DDT_AUDIT_GENERATED_(6F)
  6
Continuous
 62
     7
100
AcDbSpline
210
0.0
220
0.0
230
1.0
 70
     8
 71
     3
 72
     8
 73
     4
 74
     0
 42
0.000000019632954
 43
0.0000000001
 40
0.0
 40
0.0
 40
0.0
 40
0.0
 40
1.0
 40
1.0
 40
1.0
 40
1.0
 10
252.1332880555474
 20
405.4790686111111
 30
0.0
 10
252.1332880555474
 20
405.6762713888888
 30
0.0
 10
252.0944824999918
 20
405.8371380555555
 30
0.0
 10
252.0175769444363
 20
405.9620213888889
 30
0.0
  0
SPLINE
  5
125
330
6D
100
AcDbEntity
  8
$DDT_AUDIT_GENERATED_(6F)
  6
Continuous
 62
     7
100
AcDbSpline
210
0.0
220
0.0
230
1.0
 70
     8
 71
     3
 72
     8
 73
     4
 74
     0
 42
0.0000000134202516
 43
0.0000000001
 40
0.0
 40
0.0
 40
0.0
 40
0.0
 40
1.0
 40
1.0
 40
1.0
 40
1.0
 10
251.8687047222139
 20
404.8320741666666
 30
0.0
 10
252.0450936111029
 20
404.9841213888889
 30
0.0
 10
252.1332880555474
 20
405.2000213888889
 30
0.0
 10
252.1332880555474
 20
405.4790686111111
 30
0.0
  0
SPLINE
  5
126
330
6D
100
AcDbEntity
  8
$DDT_AUDIT_GENERATED_(6F)
  6
Continuous
 62
     7
100
AcDbSpline
210
0.0
220
0.0
230
1.0
 70
     8
 71
     3
 72
     8
 73
     4
 74
     0
 42
0.0000000113345538
 43
0.0000000001
 40
0.0
 40
0.0
 40
0.0
 40
0.0
 40
1.0
 40
1.0
 40
1.0
 40
1.0
 10
248.4479949999918
 20
407.6824833333333
 30
0.0
 10
248.2712533333251
 20
407.8243
 30
0.0
 10
247.9967922222141
 20
407.8952083333332
 30
0.0
 10
247.6246116666585
 20
407.8952083333332
 30
0.0
  0
SPLINE
  5
127
330
6D
100
AcDbEntity
  8
$DDT_AUDIT_GENERATED_(6F)
  6
Continuous
 62
     7
100
AcDbSpline
210
0.0
220
0.0
230
1.0
 70
     8
 71
     3
 72
     8
 73
     4
 74
     0
 42
0.0000000130673657
 43
0.0000000001
 40
0.0
 40
0.0
 40
0.0
 40
0.0
 40
1.0
 40
1.0
 40
1.0
 40
1.0
 10
248.7132838888807
 20
407.0196138888888
 30
0.0
 10
248.7132838888807
 20
407.3205333333332
 30
0.0
 10
248.6250894444362
 20
407.541725
 30
0.0
 10
248.4479949999918
 20
407.6824833333333
 30
0.0
  0
ARC
  5
128
330
6D
100
AcDbEntity
  8
$DDT_AUDIT_GENERATED_(6F)
  6
Continuous
 62
     7
100
AcDbCircle
 10
247.8985350932
 20
407.0113384412
 30
0.0
 40
0.8147908217036518
100
AcDbArc
 50
330.0652773979
 51
0.5819363272
  0
SPLINE
  5
129
330
6D
100
AcDbEntity
  8
$DDT_AUDIT_GENERATED_(6F)
  6
Continuous
 62
     7
100
AcDbSpline
210
0.0
220
0.0
230
1.0
 70
     8
 71
     3
 72
     8
 73
     4
 74
     0
 42
0.0000000202757461
 43
0.0000000001
 40
0.0
 40
0.0
 40
0.0
 40
0.0
 40
1.0
 40
1.0
 40
1.0
 40
1.0
 10
248.2680783333252
 20
406.2540861111111
 30
0.0
 10
248.4197727777696
 20
406.3634472222222
 30
0.0
 10
248.5326616666585
 20
406.4805694444444
 30
0.0
 10
248.6046283333251
 20
406.6047472222222
 30
0.0
  0
SPLINE
  5
12A
330
6D
100
AcDbEntity
  8
$DDT_AUDIT_GENERATED_(6F)
  6
Continuous
 62
     7
100
AcDbSpline
210
0.0
220
0.0
230
1.0
 70
     8
 71
     3
 72
     8
 73
     4
 74
     0
 42
0.0000000211232383
 43
0.0000000001
 40
0.0
 40
0.0
 40
0.0
 40
0.0
 40
1.0
 40
1.0
 40
1.0
 40
1.0
 10
248.6092144444362
 20
405.9439944444443
 30
0.0
 10
248.5368949999918
 20
406.0692305555555
 30
0.0
 10
248.4225949999918
 20
406.1725944444444
 30
0.0
 10
248.2680783333252
 20
406.2540861111111
 30
0.0
  0
SPLINE
  5
12B
330
6D
100
AcDbEntity
  8
$DDT_AUDIT_GENERATED_(6F)
  6
Continuous
 62
     7
100
AcDbSpline
210
0.0
220
0.0
230
1.0
 70
     8
 71
     3
 72
     8
 73
     4
 74
     0
 42
0.0000000204586348
 43
0.0000000001
 40
0.0
 40
0.0
 40
0.0
 40
0.0
 40
1.0
 40
1.0
 40
1.0
 40
1.0
 10
248.717517222214
 20
405.4790333333332
 30
0.0
 10
248.717517222214
 20
405.6642416666667
 30
0.0
 10
248.6822394444362
 20
405.8198166666667
 30
0.0
 10
248.6092144444362
 20
405.9439944444443
 30
0.0
  0
SPLINE
  5
12C
330
6D
100
AcDbEntity
  8
$DDT_AUDIT_GENERATED_(6F)
  6
Continuous
 62
     7
100
AcDbSpline
210
0.0
220
0.0
230
1.0
 70
     8
 71
     3
 72
     8
 73
     4
 74
     0
 42
0.0000000133883095
 43
0.0000000001
 40
0.0
 40
0.0
 40
0.0
 40
0.0
 40
1.0
 40
1.0
 40
1.0
 40
1.0
 10
248.4501116666585
 20
404.8320388888889
 30
0.0
 10
248.628617222214
 20
404.9844388888889
 30
0.0
 10
248.717517222214
 20
405.1999861111111
 30
0.0
 10
248.717517222214
 20
405.4790333333332
 30
0.0
  0
SPLINE
  5
12D
330
6D
100
AcDbEntity
  8
$DDT_AUDIT_GENERATED_(6F)
  6
Continuous
 62
     7
100
AcDbSpline
210
0.0
220
0.0
230
1.0
 70
     8
 71
     3
 72
     8
 73
     4
 74
     0
 42
0.0000000121552311
 43
0.0000000001
 40
0.0
 40
0.0
 40
0.0
 40
0.0
 40
1.0
 40
1.0
 40
1.0
 40
1.0
 10
247.6948144444362
 20
404.6037916666667
 30
0.0
 10
248.0200755555474
 20
404.6037916666667
 30
0.0
 10
248.2716061111029
 20
404.6796388888889
 30
0.0
 10
248.4501116666585
 20
404.8320388888889
 30
0.0
  0
SPLINE
  5
12E
330
6D
100
AcDbEntity
  8
$DDT_AUDIT_GENERATED_(6F)
  6
Continuous
 62
     7
100
AcDbSpline
210
0.0
220
0.0
230
1.0
 70
     8
 71
     3
 72
     8
 73
     4
 74
     0
 42
0.0000000231732208
 43
0.0000000001
 40
0.0
 40
0.0
 40
0.0
 40
0.0
 40
1.0
 40
1.0
 40
1.0
 40
1.0
 10
247.8073505555474
 20
405.26525
 30
0.0
 10
247.7219783333252
 20
405.2006916666667
 30
0.0
 10
247.5861588888807
 20
405.1682361111111
 30
0.0
 10
247.401303333325
 20
405.1682361111111
 30
0.0
  0
SPLINE
  5
12F
330
6D
100
AcDbEntity
  8
$DDT_AUDIT_GENERATED_(6F)
  6
Continuous
 62
     7
100
AcDbSpline
210
0.0
220
0.0
230
1.0
 70
     8
 71
     3
 72
     8
 73
     4
 74
     0
 42
0.0000000279300421
 43
0.0000000001
 40
0.0
 40
0.0
 40
0.0
 40
0.0
 40
1.0
 40
1.0
 40
1.0
 40
1.0
 10
247.9361144444362
 20
405.5718138888889
 30
0.0
 10
247.9361144444362
 20
405.4321138888888
 30
0.0
 10
247.8934283333251
 20
405.3301611111111
 30
0.0
 10
247.8073505555474
 20
405.26525
 30
0.0
  0
SPLINE
  5
130
330
6D
100
AcDbEntity
  8
$DDT_AUDIT_GENERATED_(6F)
  6
Continuous
 62
     7
100
AcDbSpline
210
0.0
220
0.0
230
1.0
 70
     8
 71
     3
 72
     8
 73
     4
 74
     0
 42
0.0000000280532772
 43
0.0000000001
 40
0.0
 40
0.0
 40
0.0
 40
0.0
 40
1.0
 40
1.0
 40
1.0
 40
1.0
 10
247.8052338888807
 20
405.8759083333333
 30
0.0
 10
247.8927227777696
 20
405.8095861111111
 30
0.0
 10
247.9361144444362
 20
405.7083388888889
 30
0.0
 10
247.9361144444362
 20
405.5718138888889
 30
0.0
  0
SPLINE
  5
131
330
6D
100
AcDbEntity
  8
$DDT_AUDIT_GENERATED_(6F)
  6
Continuous
 62
     7
100
AcDbSpline
210
0.0
220
0.0
230
1.0
 70
     8
 71
     3
 72
     8
 73
     4
 74
     0
 42
0.0000000232762867
 43
0.0000000001
 40
0.0
 40
0.0
 40
0.0
 40
0.0
 40
1.0
 40
1.0
 40
1.0
 40
1.0
 10
247.401303333325
 20
405.9743333333333
 30
0.0
 10
247.5833366666585
 20
405.9743333333333
 30
0.0
 10
247.7177449999919
 20
405.9411722222221
 30
0.0
 10
247.8052338888807
 20
405.8759083333333
 30
0.0
  0
SPLINE
  5
132
330
6D
100
AcDbEntity
  8
$DDT_AUDIT_GENERATED_(6F)
  6
Continuous
 62
     7
100
AcDbSpline
210
0.0
220
0.0
230
1.0
 70
     8
 71
     3
 72
     8
 73
     4
 74
     0
 42
0.0000000231971157
 43
0.0000000001
 40
0.0
 40
0.0
 40
0.0
 40
0.0
 40
1.0
 40
1.0
 40
1.0
 40
1.0
 10
247.7893588888807
 20
406.6343805555555
 30
0.0
 10
247.7039866666586
 20
406.5708805555554
 30
0.0
 10
247.5681672222141
 20
406.5391305555555
 30
0.0
 10
247.3829588888807
 20
406.5391305555555
 30
0.0
  0
SPLINE
  5
133
330
6D
100
AcDbEntity
  8
$DDT_AUDIT_GENERATED_(6F)
  6
Continuous
 62
     7
100
AcDbSpline
210
0.0
220
0.0
230
1.0
 70
     8
 71
     3
 72
     8
 73
     4
 74
     0
 42
0.0000000285479378
 43
0.0000000001
 40
0.0
 40
0.0
 40
0.0
 40
0.0
 40
1.0
 40
1.0
 40
1.0
 40
1.0
 10
247.9184755555474
 20
406.9328305555556
 30
0.0
 10
247.9184755555474
 20
406.7984222222222
 30
0.0
 10
247.8754366666585
 20
406.6992916666666
 30
0.0
 10
247.7893588888807
 20
406.6343805555555
 30
0.0
  0
SPLINE
  5
134
330
6D
100
AcDbEntity
  8
$DDT_AUDIT_GENERATED_(6F)
  6
Continuous
 62
     7
100
AcDbSpline
210
0.0
220
0.0
230
1.0
 70
     8
 71
     3
 72
     8
 73
     4
 74
     0
 42
0.0000000281482083
 43
0.0000000001
 40
0.0
 40
0.0
 40
0.0
 40
0.0
 40
1.0
 40
1.0
 40
1.0
 40
1.0
 10
247.7886533333252
 20
407.2358666666667
 30
0.0
 10
247.8747311111029
 20
407.1716611111111
 30
0.0
 10
247.9184755555474
 20
407.0704138888889
 30
0.0
 10
247.9184755555474
 20
406.9328305555556
 30
0.0
  0
SPLINE
  5
135
330
6D
100
AcDbEntity
  8
$DDT_AUDIT_GENERATED_(6F)
  6
Continuous
 62
     7
100
AcDbSpline
210
0.0
220
0.0
230
1.0
 70
     8
 71
     3
 72
     8
 73
     4
 74
     0
 42
0.0000000231905166
 43
0.0000000001
 40
0.0
 40
0.0
 40
0.0
 40
0.0
 40
1.0
 40
1.0
 40
1.0
 40
1.0
 10
247.3829588888807
 20
407.3335861111111
 30
0.0
 10
247.566756111103
 20
407.3335861111111
 30
0.0
 10
247.7018699999918
 20
407.3007777777778
 30
0.0
 10
247.7886533333252
 20
407.2358666666667
 30
0.0
  0
LINE
  5
136
330
6D
100
AcDbEntity
  8
$DDT_AUDIT_GENERATED_(6F)
  6
Continuous
 62
     7
100
AcDbLine
 10
246.0441672222
 20
407.8952083333
 30
0.0
 11
246.0441672222
 21
407.3335861111
 31
0.0
  0
LINE
  5
137
330
6D
100
AcDbEntity
  8
$DDT_AUDIT_GENERATED_(6F)
  6
Continuous
 62
     7
100
AcDbLine
 10
246.0441672222
 20
405.1682361111
 30
0.0
 11
246.0441672222
 21
404.6037916667
 31
0.0
  0
LINE
  5
138
330
6D
100
AcDbEntity
  8
$DDT_AUDIT_GENERATED_(6F)
  6
Continuous
 62
     7
100
AcDbLine
 10
246.3038116667
 20
406.5391305556
 30
0.0
 11
246.3038116667
 21
405.9743333333
 31
0.0
  0
LINE
  5
139
330
6D
100
AcDbEntity
  8
$DDT_AUDIT_GENERATED_(6F)
  6
Continuous
 62
     7
100
AcDbLine
 10
247.6246116667
 20
407.8952083333
 30
0.0
 11
246.0441672222
 21
407.8952083333
 31
0.0
  0
LINE
  5
13A
330
6D
100
AcDbEntity
  8
$DDT_AUDIT_GENERATED_(6F)
  6
Continuous
 62
     7
100
AcDbLine
 10
246.0441672222
 20
404.6037916667
 30
0.0
 11
247.6948144444
 21
404.6037916667
 31
0.0
  0
LINE
  5
13B
330
6D
100
AcDbEntity
  8
$DDT_AUDIT_GENERATED_(6F)
  6
Continuous
 62
     7
100
AcDbLine
 10
247.4013033333
 20
405.1682361111
 30
0.0
 11
246.0441672222
 21
405.1682361111
 31
0.0
  0
LINE
  5
13C
330
6D
100
AcDbEntity
  8
$DDT_AUDIT_GENERATED_(6F)
  6
Continuous
 62
     7
100
AcDbLine
 10
246.3038116667
 20
405.9743333333
 30
0.0
 11
247.4013033333
 21
405.9743333333
 31
0.0
  0
LINE
  5
13D
330
6D
100
AcDbEntity
  8
$DDT_AUDIT_GENERATED_(6F)
  6
Continuous
 62
     7
100
AcDbLine
 10
247.3829588889
 20
406.5391305556
 30
0.0
 11
246.3038116667
 21
406.5391305556
 31
0.0
  0
LINE
  5
13E
330
6D
100
AcDbEntity
  8
$DDT_AUDIT_GENERATED_(6F)
  6
Continuous
 62
     7
100
AcDbLine
 10
246.0441672222
 20
407.3335861111
 30
0.0
 11
247.3829588889
 21
407.3335861111
 31
0.0
  0
LINE
  5
13F
330
6D
100
AcDbEntity
  8
$DDT_AUDIT_GENERATED_(6F)
  6
Continuous
 62
     7
100
AcDbLine
 10
249.7500625
 20
393.7498777778
 30
0.0
 11
249.7500625
 21
402.2504111111
 31
0.0
  0
LINE
  5
140
330
6D
100
AcDbEntity
  8
$DDT_AUDIT_GENERATED_(6F)
  6
Continuous
 62
     7
100
AcDbLine
 10
249.7500625
 20
402.2504111111
 30
0.0
 11
248.7499375
 21
402.2504111111
 31
0.0
  0
LINE
  5
141
330
6D
100
AcDbEntity
  8
$DDT_AUDIT_GENERATED_(6F)
  6
Continuous
 62
     7
100
AcDbLine
 10
248.7499375
 20
402.2504111111
 30
0.0
 11
248.7499375
 21
393.7498777778
 31
0.0
  0
LINE
  5
142
330
6D
100
AcDbEntity
  8
$DDT_AUDIT_GENERATED_(6F)
  6
Continuous
 62
     7
100
AcDbLine
 10
248.7499375
 20
393.7498777778
 30
0.0
 11
249.7500625
 21
393.7498777778
 31
0.0
  0
LINE
  5
143
330
6D
100
AcDbEntity
  8
$DDT_AUDIT_GENERATED_(6F)
  6
Continuous
 62
     7
100
AcDbLine
 10
236.2682557752
 20
383.593567829
 30
0.0
 11
254.45
 21
383.593567829
 31
0.0
  0
LINE
  5
144
330
6D
100
AcDbEntity
  8
$DDT_AUDIT_GENERATED_(6F)
  6
Continuous
 62
     7
100
AcDbLine
 10
62.05
 20
383.593567829
 30
0.0
 11
80.2317442247
 21
383.593567829
 31
0.0
  0
ARC
  5
145
330
6D
100
AcDbEntity
  8
$DDT_AUDIT_GENERATED_(6F)
  6
Continuous
 62
     7
100
AcDbCircle
 10
231.8727744314
 20
424.5525025187
 30
0.0
 40
41.29373819722872
100
AcDbArc
 50
270.3120809851
 51
270.9703604611
  0
ARC
  5
146
330
6D
100
AcDbEntity
  8
$DDT_AUDIT_GENERATED_(6F)
  6
Continuous
 62
     7
100
AcDbCircle
 10
231.3682557119
 20
476.9157218257
 30
0.0
 40
93.65897993629761
100
AcDbArc
 50
269.9064481275
 51
270.4460286052
  0
ARC
  5
147
330
6D
100
AcDbEntity
  8
$DDT_AUDIT_GENERATED_(6F)
  6
Continuous
 62
     7
100
AcDbCircle
 10
231.143889705
 20
453.1779391605
 30
0.0
 40
69.92110892052858
100
AcDbArc
 50
269.3516827673
 51
270.0585410755
  0
ARC
  5
148
330
6D
100
AcDbEntity
  8
$DDT_AUDIT_GENERATED_(6F)
  6
Continuous
 62
     7
100
AcDbCircle
 10
225.7999566871
 20
19.8919659739
 30
0.0
 40
363.3977512437335
100
AcDbArc
 50
89.2822032076
 51
89.5863501077
  0
ARC
  5
149
330
6D
100
AcDbEntity
  8
$DDT_AUDIT_GENERATED_(6F)
  6
Continuous
 62
     7
100
AcDbCircle
 10
227.1354185009
 20
206.1511174928
 30
0.0
 40
177.1338126872775
100
AcDbArc
 50
89.5833519386
 51
90.0248028475
  0
LINE
  5
14A
330
6D
100
AcDbEntity
  8
$DDT_AUDIT_GENERATED_(6F)
  6
Continuous
 62
     7
100
AcDbLine
 10
89.4412480711
 20
383.2849728085
 30
0.0
 11
99.55
 21
383.2849728085
 31
0.0
  0
LINE
  5
14B
330
6D
100
AcDbEntity
  8
$DDT_AUDIT_GENERATED_(6F)
  6
Continuous
 62
     7
100
AcDbLine
 10
117.55
 20
383.2849728085
 30
0.0
 11
227.0587519289
 21
383.2849728085
 31
0.0
  0
ARC
  5
14C
330
6D
100
AcDbEntity
  8
$DDT_AUDIT_GENERATED_(6F)
  6
Continuous
 62
     7
100
AcDbCircle
 10
89.3933670235
 20
207.1296237682
 30
0.0
 40
176.1554063358808
100
AcDbArc
 50
89.9844211693
 51
90.4272225562
  0
ARC
  5
14D
330
6D
100
AcDbEntity
  8
$DDT_AUDIT_GENERATED_(6F)
  6
Continuous
 62
     7
100
AcDbCircle
 10
90.4445932236
 20
45.0605980901
 30
0.0
 40
338.227801524556
100
AcDbArc
 50
90.4005844386
 51
90.7279020229
  0
ARC
  5
14E
330
6D
100
AcDbEntity
  8
$DDT_AUDIT_GENERATED_(6F)
  6
Continuous
 62
     7
100
AcDbCircle
 10
85.1988093984
 20
459.6836245787
 30
0.0
 40
76.42788806424001
100
AcDbArc
 50
269.4034743566
 51
270.7104770746
  0
ARC
  5
14F
330
6D
100
AcDbEntity
  8
$DDT_AUDIT_GENERATED_(6F)
  6
Continuous
 62
     7
100
AcDbCircle
 10
84.5393604403
 20
416.8828649029
 30
0.0
 40
33.62343787722909
100
AcDbArc
 50
269.0503266147
 51
269.767326089
  0
ARC
  5
150
330
6D
100
AcDbEntity
  8
$DDT_AUDIT_GENERATED_(6F)
  6
Continuous
 62
     7
100
AcDbCircle
 10
62.05
 20
383.893567829
 30
0.0
 40
0.2999999999999947
100
AcDbArc
 50
180.0
 51
270.0
  0
ARC
  5
151
330
6D
100
AcDbEntity
  8
$DDT_AUDIT_GENERATED_(6F)
  6
Continuous
 62
     7
100
AcDbCircle
 10
254.45
 20
383.893567829
 30
0.0
 40
0.3000000000000017
100
AcDbArc
 50
270.0
 51
0.0
  0
LINE
  5
153
330
6D
100
AcDbEntity
  8
$DDT_AUDIT_GENERATED_(152)
  6
Continuous
 62
     7
100
AcDbLine
 10
117.55
 20
377.45
 30
0.0
 11
99.55
 21
377.45
 31
0.0
  0
LINE
  5
154
330
6D
100
AcDbEntity
  8
$DDT_AUDIT_GENERATED_(152)
  6
Continuous
 62
     7
100
AcDbLine
 10
98.07
 20
375.97
 30
0.0
 11
119.03
 21
375.97
 31
0.0
  0
LINE
  5
155
330
6D
100
AcDbEntity
  8
$DDT_AUDIT_GENERATED_(152)
  6
Continuous
 62
     7
100
AcDbLine
 10
99.27
 20
368.55
 30
0.0
 11
117.83
 21
368.55
 31
0.0
  0
LINE
  5
156
330
6D
100
AcDbEntity
  8
$DDT_AUDIT_GENERATED_(152)
  6
Continuous
 62
     7
100
AcDbLine
 10
98.07
 20
369.75
 30
0.0
 11
119.03
 21
369.75
 31
0.0
  0
LINE
  5
157
330
6D
100
AcDbEntity
  8
$DDT_AUDIT_GENERATED_(152)
  6
Continuous
 62
     7
100
AcDbLine
 10
98.07
 20
375.97
 30
0.0
 11
98.07
 21
369.75
 31
0.0
  0
LINE
  5
158
330
6D
100
AcDbEntity
  8
$DDT_AUDIT_GENERATED_(152)
  6
Continuous
 62
     7
100
AcDbLine
 10
119.03
 20
369.75
 30
0.0
 11
119.03
 21
375.97
 31
0.0
  0
LINE
  5
159
330
6D
100
AcDbEntity
  8
$DDT_AUDIT_GENERATED_(152)
  6
Continuous
 62
     7
100
AcDbLine
 10
99.55
 20
385.0321547212
 30
0.0
 11
99.55
 21
377.45
 31
0.0
  0
LINE
  5
15A
330
6D
100
AcDbEntity
  8
$DDT_AUDIT_GENERATED_(152)
  6
Continuous
 62
     7
100
AcDbLine
 10
117.55
 20
377.45
 30
0.0
 11
117.55
 21
385.0321547212
 31
0.0
  0
LINE
  5
15B
330
6D
100
AcDbEntity
  8
$DDT_AUDIT_GENERATED_(152)
  6
Continuous
 62
     7
100
AcDbLine
 10
119.03
 20
375.97
 30
0.0
 11
117.55
 21
377.45
 31
0.0
  0
LINE
  5
15C
330
6D
100
AcDbEntity
  8
$DDT_AUDIT_GENERATED_(152)
  6
Continuous
 62
     7
100
AcDbLine
 10
99.55
 20
377.45
 30
0.0
 11
98.07
 21
375.97
 31
0.0
  0
LINE
  5
15D
330
6D
100
AcDbEntity
  8
$DDT_AUDIT_GENERATED_(152)
  6
Continuous
 62
     7
100
AcDbLine
 10
98.07
 20
369.75
 30
0.0
 11
99.27
 21
368.55
 31
0.0
  0
LINE
  5
15E
330
6D
100
AcDbEntity
  8
$DDT_AUDIT_GENERATED_(152)
  6
Continuous
 62
     7
100
AcDbLine
 10
117.83
 20
368.55
 30
0.0
 11
119.03
 21
369.75
 31
0.0
  0
LINE
  5
160
330
6D
100
AcDbEntity
  8
$DDT_AUDIT_GENERATED_(15F)
  6
Continuous
 62
     7
100
AcDbLine
 10
120.2
 20
399.15
 30
0.0
 11
124.15
 21
399.15
 31
0.0
  0
LINE
  5
161
330
6D
100
AcDbEntity
  8
$DDT_AUDIT_GENERATED_(15F)
  6
Continuous
 62
     7
100
AcDbLine
 10
196.3
 20
399.15
 30
0.0
 11
192.35
 21
399.15
 31
0.0
  0
LINE
  5
162
330
6D
100
AcDbEntity
  8
$DDT_AUDIT_GENERATED_(15F)
  6
Continuous
 62
     7
100
AcDbLine
 10
192.35
 20
399.15
 30
0.0
 11
124.15
 21
399.15
 31
0.0
  0
ARC
  5
163
330
6D
100
AcDbEntity
  8
$DDT_AUDIT_GENERATED_(15F)
  6
Continuous
 62
     7
100
AcDbCircle
 10
196.3
 20
399.45
 30
0.0
 40
0.2999999999999999
100
AcDbArc
 50
270.0
 51
0.0
  0
ARC
  5
164
330
6D
100
AcDbEntity
  8
$DDT_AUDIT_GENERATED_(15F)
  6
Continuous
 62
     7
100
AcDbCircle
 10
120.2
 20
399.45
 30
0.0
 40
0.3000000000000017
100
AcDbArc
 50
180.0
 51
270.0
  0
LINE
  5
166
330
6D
100
AcDbEntity
  8
$DDT_AUDIT_GENERATED_(165)
  6
Continuous
 62
     7
100
AcDbLine
 10
60.95
 20
425.7486892866
 30
0.0
 11
60.95
 21
386.7513107134
 31
0.0
  0
LINE
  5
167
330
6D
100
AcDbEntity
  8
$DDT_AUDIT_GENERATED_(165)
  6
Continuous
 62
     7
100
AcDbLine
 10
60.4486910046
 20
386.2513124269
 30
0.0
 11
7.1479056073
 21
386.3908538755
 31
0.0
  0
ARC
  5
168
330
6D
100
AcDbEntity
  8
$DDT_AUDIT_GENERATED_(165)
  6
Continuous
 62
     7
100
AcDbCircle
 10
60.45
 20
386.7513107134
 30
0.0
 40
0.5000000000000004
100
AcDbArc
 50
269.85
 51
0.0
  0
ARC
  5
169
330
6D
100
AcDbEntity
  8
$DDT_AUDIT_GENERATED_(165)
  6
Continuous
 62
     7
100
AcDbCircle
 10
60.45
 20
425.7486892866
 30
0.0
 40
0.4999999999999979
100
AcDbArc
 50
0.0
 51
90.15
  0
LINE
  5
16A
330
6D
100
AcDbEntity
  8
$DDT_AUDIT_GENERATED_(165)
  6
Continuous
 62
     7
100
AcDbLine
 10
6.35
 20
387.190851134
 30
0.0
 11
6.35
 21
425.309148866
 31
0.0
  0
LINE
  5
16B
330
6D
100
AcDbEntity
  8
$DDT_AUDIT_GENERATED_(165)
  6
Continuous
 62
     7
100
AcDbLine
 10
7.1479056073
 20
426.1091461245
 30
0.0
 11
60.4486910046
 21
426.2486875731
 31
0.0
  0
ARC
  5
16C
330
6D
100
AcDbEntity
  8
$DDT_AUDIT_GENERATED_(165)
  6
Continuous
 62
     7
100
AcDbCircle
 10
7.15
 20
425.309148866
 30
0.0
 40
0.7999999999999988
100
AcDbArc
 50
90.15
 51
180.0
  0
ARC
  5
16D
330
6D
100
AcDbEntity
  8
$DDT_AUDIT_GENERATED_(165)
  6
Continuous
 62
     7
100
AcDbCircle
 10
7.15
 20
387.190851134
 30
0.0
 40
0.7999999999999952
100
AcDbArc
 50
180.0
 51
269.85
  0
ARC
  5
16E
330
6D
100
AcDbEntity
  8
$DDT_AUDIT_GENERATED_(165)
  6
Continuous
 62
     7
100
AcDbCircle
 10
22.85
 20
399.25
 30
0.0
 40
0.4999999999999329
100
AcDbArc
 50
255.0325459811
 51
270.0
  0
ARC
  5
16F
330
6D
100
AcDbEntity
  8
$DDT_AUDIT_GENERATED_(165)
  6
Continuous
 62
     7
100
AcDbCircle
 10
22.85
 20
399.25
 30
0.0
 40
0.4999999999999568
100
AcDbArc
 50
194.9892672191
 51
255.0325459811
  0
ARC
  5
170
330
6D
100
AcDbEntity
  8
$DDT_AUDIT_GENERATED_(165)
  6
Continuous
 62
     7
100
AcDbCircle
 10
22.85
 20
399.25
 30
0.0
 40
0.5000000000003335
100
AcDbArc
 50
180.0
 51
194.9892672191
  0
LINE
  5
171
330
6D
100
AcDbEntity
  8
$DDT_AUDIT_GENERATED_(165)
  6
Continuous
 62
     7
100
AcDbLine
 10
22.35
 20
413.25
 30
0.0
 11
22.35
 21
399.25
 31
0.0
  0
LINE
  5
172
330
6D
100
AcDbEntity
  8
$DDT_AUDIT_GENERATED_(165)
  6
Continuous
 62
     7
100
AcDbLine
 10
22.85
 20
398.75
 30
0.0
 11
36.85
 21
398.75
 31
0.0
  0
ARC
  5
173
330
6D
100
AcDbEntity
  8
$DDT_AUDIT_GENERATED_(165)
  6
Continuous
 62
     7
100
AcDbCircle
 10
22.85
 20
413.25
 30
0.0
 40
0.4999999999998808
100
AcDbArc
 50
90.0
 51
104.9674540189
  0
ARC
  5
174
330
6D
100
AcDbEntity
  8
$DDT_AUDIT_GENERATED_(165)
  6
Continuous
 62
     7
100
AcDbCircle
 10
22.85
 20
413.25
 30
0.0
 40
0.4999999999999415
100
AcDbArc
 50
104.9674540189
 51
165.0107327809
  0
ARC
  5
175
330
6D
100
AcDbEntity
  8
$DDT_AUDIT_GENERATED_(165)
  6
Continuous
 62
     7
100
AcDbCircle
 10
22.85
 20
413.25
 30
0.0
 40
0.500000000000389
100
AcDbArc
 50
165.0107327809
 51
180.0
  0
ARC
  5
176
330
6D
100
AcDbEntity
  8
$DDT_AUDIT_GENERATED_(165)
  6
Continuous
 62
     7
100
AcDbCircle
 10
36.85
 20
399.25
 30
0.0
 40
0.4999999999999031
100
AcDbArc
 50
344.989082172
 51
0.0
  0
ARC
  5
177
330
6D
100
AcDbEntity
  8
$DDT_AUDIT_GENERATED_(165)
  6
Continuous
 62
     7
100
AcDbCircle
 10
36.85
 20
399.25
 30
0.0
 40
0.4999999999999407
100
AcDbArc
 50
285.0324058066
 51
344.9890821721
  0
ARC
  5
178
330
6D
100
AcDbEntity
  8
$DDT_AUDIT_GENERATED_(165)
  6
Continuous
 62
     7
100
AcDbCircle
 10
36.85
 20
399.25
 30
0.0
 40
0.500000000000056
100
AcDbArc
 50
270.0
 51
285.0324058066
  0
LINE
  5
179
330
6D
100
AcDbEntity
  8
$DDT_AUDIT_GENERATED_(165)
  6
Continuous
 62
     7
100
AcDbLine
 10
36.85
 20
413.75
 30
0.0
 11
22.85
 21
413.75
 31
0.0
  0
LINE
  5
17A
330
6D
100
AcDbEntity
  8
$DDT_AUDIT_GENERATED_(165)
  6
Continuous
 62
     7
100
AcDbLine
 10
37.35
 20
399.25
 30
0.0
 11
37.35
 21
413.25
 31
0.0
  0
ARC
  5
17B
330
6D
100
AcDbEntity
  8
$DDT_AUDIT_GENERATED_(165)
  6
Continuous
 62
     7
100
AcDbCircle
 10
36.85
 20
413.25
 30
0.0
 40
0.4999999999998884
100
AcDbArc
 50
15.0109178279
 51
74.9675941934
  0
ARC
  5
17C
330
6D
100
AcDbEntity
  8
$DDT_AUDIT_GENERATED_(165)
  6
Continuous
 62
     7
100
AcDbCircle
 10
36.85
 20
413.25
 30
0.0
 40
0.4999999999999033
100
AcDbArc
 50
0.0
 51
15.010917828
  0
ARC
  5
17D
330
6D
100
AcDbEntity
  8
$DDT_AUDIT_GENERATED_(165)
  6
Continuous
 62
     7
100
AcDbCircle
 10
36.85
 20
413.25
 30
0.0
 40
0.5000000000000536
100
AcDbArc
 50
74.9675941934
 51
90.0
  0
LINE
  5
17F
330
6D
100
AcDbEntity
  8
$DDT_AUDIT_GENERATED_(17E)
  6
Continuous
 62
     7
100
AcDbLine
 10
192.35
 20
399.45
 30
0.0
 11
198.55
 21
399.45
 31
0.0
  0
LINE
  5
180
330
6D
100
AcDbEntity
  8
$DDT_AUDIT_GENERATED_(17E)
  6
Continuous
 62
     7
100
AcDbLine
 10
192.35
 20
399.45
 30
0.0
 11
124.15
 21
399.45
 31
0.0
  0
LINE
  5
181
330
6D
100
AcDbEntity
  8
$DDT_AUDIT_GENERATED_(17E)
  6
Continuous
 62
     7
100
AcDbLine
 10
124.15
 20
399.45
 30
0.0
 11
117.95
 21
399.45
 31
0.0
  0
LINE
  5
182
330
6D
100
AcDbEntity
  8
$DDT_AUDIT_GENERATED_(17E)
  6
Continuous
 62
     7
100
AcDbLine
 10
198.85
 20
399.75
 30
0.0
 11
198.85
 21
402.95
 31
0.0
  0
LINE
  5
183
330
6D
100
AcDbEntity
  8
$DDT_AUDIT_GENERATED_(17E)
  6
Continuous
 62
     7
100
AcDbLine
 10
117.65
 20
402.95
 30
0.0
 11
117.65
 21
399.75
 31
0.0
  0
ARC
  5
184
330
6D
100
AcDbEntity
  8
$DDT_AUDIT_GENERATED_(17E)
  6
Continuous
 62
     7
100
AcDbCircle
 10
199.35
 20
402.95
 30
0.0
 40
0.5000000000000004
100
AcDbArc
 50
90.0
 51
180.0
  0
ARC
  5
185
330
6D
100
AcDbEntity
  8
$DDT_AUDIT_GENERATED_(17E)
  6
Continuous
 62
     7
100
AcDbCircle
 10
117.15
 20
402.95
 30
0.0
 40
0.5
100
AcDbArc
 50
0.0
 51
90.0
  0
ARC
  5
186
330
6D
100
AcDbEntity
  8
$DDT_AUDIT_GENERATED_(17E)
  6
Continuous
 62
     7
100
AcDbCircle
 10
198.55
 20
399.75
 30
0.0
 40
0.2999999999999999
100
AcDbArc
 50
270.0
 51
0.0
  0
ARC
  5
187
330
6D
100
AcDbEntity
  8
$DDT_AUDIT_GENERATED_(17E)
  6
Continuous
 62
     7
100
AcDbCircle
 10
117.95
 20
399.75
 30
0.0
 40
0.3000000000000017
100
AcDbArc
 50
180.0
 51
270.0
  0
LINE
  5
188
330
6D
100
AcDbEntity
  8
$DDT_AUDIT_GENERATED_(165)
  6
Continuous
 62
     7
100
AcDbLine
 10
255.55
 20
386.7513107134
 30
0.0
 11
255.55
 21
425.7486892866
 31
0.0
  0
LINE
  5
189
330
6D
100
AcDbEntity
  8
$DDT_AUDIT_GENERATED_(165)
  6
Continuous
 62
     7
100
AcDbLine
 10
256.0513089954
 20
426.2486875731
 30
0.0
 11
309.3520943927
 21
426.1091461245
 31
0.0
  0
ARC
  5
18A
330
6D
100
AcDbEntity
  8
$DDT_AUDIT_GENERATED_(165)
  6
Continuous
 62
     7
100
AcDbCircle
 10
256.05
 20
425.7486892866
 30
0.0
 40
0.5000000000000004
100
AcDbArc
 50
89.85
 51
180.0
  0
ARC
  5
18B
330
6D
100
AcDbEntity
  8
$DDT_AUDIT_GENERATED_(165)
  6
Continuous
 62
     7
100
AcDbCircle
 10
256.05
 20
386.7513107134
 30
0.0
 40
0.4999999999999979
100
AcDbArc
 50
180.0
 51
270.15
  0
LINE
  5
18C
330
6D
100
AcDbEntity
  8
$DDT_AUDIT_GENERATED_(165)
  6
Continuous
 62
     7
100
AcDbLine
 10
310.15
 20
425.309148866
 30
0.0
 11
310.15
 21
387.190851134
 31
0.0
  0
LINE
  5
18D
330
6D
100
AcDbEntity
  8
$DDT_AUDIT_GENERATED_(165)
  6
Continuous
 62
     7
100
AcDbLine
 10
309.3520943927
 20
386.3908538755
 30
0.0
 11
256.0513089954
 21
386.2513124269
 31
0.0
  0
ARC
  5
18E
330
6D
100
AcDbEntity
  8
$DDT_AUDIT_GENERATED_(165)
  6
Continuous
 62
     7
100
AcDbCircle
 10
309.35
 20
387.190851134
 30
0.0
 40
0.7999999999999988
100
AcDbArc
 50
270.15
 51
0.0
  0
ARC
  5
18F
330
6D
100
AcDbEntity
  8
$DDT_AUDIT_GENERATED_(165)
  6
Continuous
 62
     7
100
AcDbCircle
 10
309.35
 20
425.309148866
 30
0.0
 40
0.7999999999999952
100
AcDbArc
 50
0.0
 51
89.85
  0
ARC
  5
190
330
6D
100
AcDbEntity
  8
$DDT_AUDIT_GENERATED_(165)
  6
Continuous
 62
     7
100
AcDbCircle
 10
293.65
 20
413.25
 30
0.0
 40
0.4999999999999094
100
AcDbArc
 50
75.0325459811
 51
90.0
  0
ARC
  5
191
330
6D
100
AcDbEntity
  8
$DDT_AUDIT_GENERATED_(165)
  6
Continuous
 62
     7
100
AcDbCircle
 10
293.65
 20
413.25
 30
0.0
 40
0.5000000000000202
100
AcDbArc
 50
14.9892672191
 51
75.0325459811
  0
ARC
  5
192
330
6D
100
AcDbEntity
  8
$DDT_AUDIT_GENERATED_(165)
  6
Continuous
 62
     7
100
AcDbCircle
 10
293.65
 20
413.25
 30
0.0
 40
0.4999999999996119
100
AcDbArc
 50
0.0
 51
14.9892672191
  0
LINE
  5
193
330
6D
100
AcDbEntity
  8
$DDT_AUDIT_GENERATED_(165)
  6
Continuous
 62
     7
100
AcDbLine
 10
294.15
 20
399.25
 30
0.0
 11
294.15
 21
413.25
 31
0.0
  0
LINE
  5
194
330
6D
100
AcDbEntity
  8
$DDT_AUDIT_GENERATED_(165)
  6
Continuous
 62
     7
100
AcDbLine
 10
293.65
 20
413.75
 30
0.0
 11
279.65
 21
413.75
 31
0.0
  0
ARC
  5
195
330
6D
100
AcDbEntity
  8
$DDT_AUDIT_GENERATED_(165)
  6
Continuous
 62
     7
100
AcDbCircle
 10
293.65
 20
399.25
 30
0.0
 40
0.499999999999905
100
AcDbArc
 50
270.0
 51
284.9674540189
  0
ARC
  5
196
330
6D
100
AcDbEntity
  8
$DDT_AUDIT_GENERATED_(165)
  6
Continuous
 62
     7
100
AcDbCircle
 10
293.65
 20
399.25
 30
0.0
 40
0.4999999999999415
100
AcDbArc
 50
284.9674540189
 51
345.0107327809
  0
ARC
  5
197
330
6D
100
AcDbEntity
  8
$DDT_AUDIT_GENERATED_(165)
  6
Continuous
 62
     7
100
AcDbCircle
 10
293.65
 20
399.25
 30
0.0
 40
0.5000000000003613
100
AcDbArc
 50
345.0107327809
 51
0.0
  0
ARC
  5
198
330
6D
100
AcDbEntity
  8
$DDT_AUDIT_GENERATED_(165)
  6
Continuous
 62
     7
100
AcDbCircle
 10
279.65
 20
413.25
 30
0.0
 40
0.4999999999999034
100
AcDbArc
 50
164.989082172
 51
180.0
  0
ARC
  5
199
330
6D
100
AcDbEntity
  8
$DDT_AUDIT_GENERATED_(165)
  6
Continuous
 62
     7
100
AcDbCircle
 10
279.65
 20
413.25
 30
0.0
 40
0.4999999999999407
100
AcDbArc
 50
105.0324058066
 51
164.9890821721
  0
ARC
  5
19A
330
6D
100
AcDbEntity
  8
$DDT_AUDIT_GENERATED_(165)
  6
Continuous
 62
     7
100
AcDbCircle
 10
279.65
 20
413.25
 30
0.0
 40
0.4999999999999016
100
AcDbArc
 50
90.0
 51
105.0324058066
  0
LINE
  5
19B
330
6D
100
AcDbEntity
  8
$DDT_AUDIT_GENERATED_(165)
  6
Continuous
 62
     7
100
AcDbLine
 10
279.65
 20
398.75
 30
0.0
 11
293.65
 21
398.75
 31
0.0
  0
LINE
  5
19C
330
6D
100
AcDbEntity
  8
$DDT_AUDIT_GENERATED_(165)
  6
Continuous
 62
     7
100
AcDbLine
 10
279.15
 20
413.25
 30
0.0
 11
279.15
 21
399.25
 31
0.0
  0
ARC
  5
19D
330
6D
100
AcDbEntity
  8
$DDT_AUDIT_GENERATED_(165)
  6
Continuous
 62
     7
100
AcDbCircle
 10
279.65
 20
399.25
 30
0.0
 40
0.4999999999999202
100
AcDbArc
 50
195.0109178279
 51
254.9675941934
  0
ARC
  5
19E
330
6D
100
AcDbEntity
  8
$DDT_AUDIT_GENERATED_(165)
  6
Continuous
 62
     7
100
AcDbCircle
 10
279.65
 20
399.25
 30
0.0
 40
0.4999999999999172
100
AcDbArc
 50
180.0
 51
195.010917828
  0
ARC
  5
19F
330
6D
100
AcDbEntity
  8
$DDT_AUDIT_GENERATED_(165)
  6
Continuous
 62
     7
100
AcDbCircle
 10
279.65
 20
399.25
 30
0.0
 40
0.4999999999999045
100
AcDbArc
 50
254.9675941934
 51
270.0
  0
LINE
  5
1A1
330
6D
100
AcDbEntity
  8
$DDT_AUDIT_GENERATED_(1A0)
  6
Continuous
 62
     7
100
AcDbLine
 10
198.25
 20
368.75
 30
0.0
 11
198.25
 21
383.2849728085
 31
0.0
  0
LINE
  5
1A2
330
6D
100
AcDbEntity
  8
$DDT_AUDIT_GENERATED_(1A0)
  6
Continuous
 62
     7
100
AcDbLine
 10
198.25
 20
426.25
 30
0.0
 11
198.25
 21
437.75
 31
0.0
  0
LINE
  5
1A3
330
6D
100
AcDbEntity
  8
$DDT_AUDIT_GENERATED_(1A0)
  6
Continuous
 62
     7
100
AcDbLine
 10
198.75
 20
438.25
 30
0.0
 11
267.75
 21
438.25
 31
0.0
  0
LINE
  5
1A4
330
6D
100
AcDbEntity
  8
$DDT_AUDIT_GENERATED_(1A0)
  6
Continuous
 62
     7
100
AcDbLine
 10
267.75
 20
368.25
 30
0.0
 11
198.75
 21
368.25
 31
0.0
  0
LINE
  5
1A5
330
6D
100
AcDbEntity
  8
$DDT_AUDIT_GENERATED_(1A0)
  6
Continuous
 62
     7
100
AcDbLine
 10
268.25
 20
437.75
 30
0.0
 11
268.25
 21
426.2167514018
 31
0.0
  0
LINE
  5
1A6
330
6D
100
AcDbEntity
  8
$DDT_AUDIT_GENERATED_(1A0)
  6
Continuous
 62
     7
100
AcDbLine
 10
268.25
 20
386.2832485982
 30
0.0
 11
268.25
 21
368.75
 31
0.0
  0
ARC
  5
1A7
330
6D
100
AcDbEntity
  8
$DDT_AUDIT_GENERATED_(1A0)
  6
Continuous
 62
     7
100
AcDbCircle
 10
267.75
 20
437.75
 30
0.0
 40
0.5000000000000004
100
AcDbArc
 50
0.0
 51
90.0
  0
ARC
  5
1A8
330
6D
100
AcDbEntity
  8
$DDT_AUDIT_GENERATED_(1A0)
  6
Continuous
 62
     7
100
AcDbCircle
 10
267.75
 20
368.75
 30
0.0
 40
0.5000000000000004
100
AcDbArc
 50
270.0
 51
0.0
  0
ARC
  5
1A9
330
6D
100
AcDbEntity
  8
$DDT_AUDIT_GENERATED_(1A0)
  6
Continuous
 62
     7
100
AcDbCircle
 10
198.75
 20
437.75
 30
0.0
 40
0.5000000000000004
100
AcDbArc
 50
90.0
 51
180.0
  0
ARC
  5
1AA
330
6D
100
AcDbEntity
  8
$DDT_AUDIT_GENERATED_(1A0)
  6
Continuous
 62
     7
100
AcDbCircle
 10
198.75
 20
368.75
 30
0.0
 40
0.5000000000000004
100
AcDbArc
 50
180.0
 51
270.0
  0
LINE
  5
1AB
330
6D
100
AcDbEntity
  8
$DDT_AUDIT_GENERATED_(1A0)
  6
Continuous
 62
     7
100
AcDbLine
 10
48.25
 20
368.75
 30
0.0
 11
48.25
 21
386.2832485982
 31
0.0
  0
LINE
  5
1AC
330
6D
100
AcDbEntity
  8
$DDT_AUDIT_GENERATED_(1A0)
  6
Continuous
 62
     7
100
AcDbLine
 10
48.25
 20
426.2167514018
 30
0.0
 11
48.25
 21
437.75
 31
0.0
  0
LINE
  5
1AD
330
6D
100
AcDbEntity
  8
$DDT_AUDIT_GENERATED_(1A0)
  6
Continuous
 62
     7
100
AcDbLine
 10
48.75
 20
438.25
 30
0.0
 11
117.75
 21
438.25
 31
0.0
  0
LINE
  5
1AE
330
6D
100
AcDbEntity
  8
$DDT_AUDIT_GENERATED_(1A0)
  6
Continuous
 62
     7
100
AcDbLine
 10
117.75
 20
368.25
 30
0.0
 11
48.75
 21
368.25
 31
0.0
  0
LINE
  5
1AF
330
6D
100
AcDbEntity
  8
$DDT_AUDIT_GENERATED_(1A0)
  6
Continuous
 62
     7
100
AcDbLine
 10
118.25
 20
437.75
 30
0.0
 11
118.25
 21
426.25
 31
0.0
  0
LINE
  5
1B0
330
6D
100
AcDbEntity
  8
$DDT_AUDIT_GENERATED_(1A0)
  6
Continuous
 62
     7
100
AcDbLine
 10
118.25
 20
383.2849728085
 30
0.0
 11
118.25
 21
376.75
 31
0.0
  0
LINE
  5
1B1
330
6D
100
AcDbEntity
  8
$DDT_AUDIT_GENERATED_(1A0)
  6
Continuous
 62
     7
100
AcDbLine
 10
118.25
 20
368.97
 30
0.0
 11
118.25
 21
368.75
 31
0.0
  0
ARC
  5
1B2
330
6D
100
AcDbEntity
  8
$DDT_AUDIT_GENERATED_(1A0)
  6
Continuous
 62
     7
100
AcDbCircle
 10
117.75
 20
437.75
 30
0.0
 40
0.5000000000000004
100
AcDbArc
 50
0.0
 51
90.0
  0
ARC
  5
1B3
330
6D
100
AcDbEntity
  8
$DDT_AUDIT_GENERATED_(1A0)
  6
Continuous
 62
     7
100
AcDbCircle
 10
117.75
 20
368.75
 30
0.0
 40
0.5000000000000004
100
AcDbArc
 50
270.0
 51
0.0
  0
ARC
  5
1B4
330
6D
100
AcDbEntity
  8
$DDT_AUDIT_GENERATED_(1A0)
  6
Continuous
 62
     7
100
AcDbCircle
 10
48.75
 20
437.75
 30
0.0
 40
0.5000000000000004
100
AcDbArc
 50
90.0
 51
180.0
  0
ARC
  5
1B5
330
6D
100
AcDbEntity
  8
$DDT_AUDIT_GENERATED_(1A0)
  6
Continuous
 62
     7
100
AcDbCircle
 10
48.75
 20
368.75
 30
0.0
 40
0.5000000000000004
100
AcDbArc
 50
180.0
 51
270.0
  0
LINE
  5
1B7
330
6D
100
AcDbEntity
  8
$DDT_AUDIT_GENERATED_(1B6)
  6
Continuous
 62
     7
100
AcDbLine
 10
60.95
 20
388.7571443155
 30
0.0
 11
61.75
 21
388.7571443155
 31
0.0
  0
LINE
  5
1B8
330
6D
100
AcDbEntity
  8
$DDT_AUDIT_GENERATED_(1B6)
  6
Continuous
 62
     7
100
AcDbLine
 10
61.75
 20
423.75
 30
0.0
 11
60.95
 21
423.75
 31
0.0
  0
LINE
  5
1BA
330
6D
100
AcDbEntity
  8
$DDT_AUDIT_GENERATED_(1B9)
  6
Continuous
 62
     7
100
AcDbLine
 10
255.55
 20
423.25
 30
0.0
 11
254.75
 21
423.25
 31
0.0
  0
LINE
  5
1BB
330
6D
100
AcDbEntity
  8
$DDT_AUDIT_GENERATED_(1B9)
  6
Continuous
 62
     7
100
AcDbLine
 10
254.75
 20
389.25
 30
0.0
 11
255.55
 21
389.25
 31
0.0
  0
LINE
  5
1BD
330
6D
100
AcDbEntity
  8
DV1_Default
  6
CENTER2
 62
     7
100
AcDbLine
 10
128.549999553
 20
368.55
 30
0.0
 11
88.550000447
 21
368.55
 31
0.0
  0
LINE
  5
1BE
330
6D
100
AcDbEntity
  8
DV1_Default
  6
CENTER2
 62
     7
100
AcDbLine
 10
108.55
 20
388.549999553
 30
0.0
 11
108.55
 21
348.550000447
 31
0.0
  0
ENDBLK
  5
1C0
330
6D
100
AcDbEntity
  8
0
100
AcDbBlockEnd
  0
BLOCK
  5
249
330
1C1
100
AcDbEntity
  8
0
100
AcDbBlockBegin
  2
SE1
 70
     0
 10
0.0
 20
0.0
 30
0.0
  3
SE1
  1

  0
LINE
  5
1C3
330
1C1
100
AcDbEntity
  8
$DDT_AUDIT_GENERATED_(6F)
  6
Continuous
 62
     7
100
AcDbLine
 10
570.05
 20
403.45
 30
0.0
 11
503.05
 21
403.45
 31
0.0
  0
LINE
  5
1C4
330
1C1
100
AcDbEntity
  8
$DDT_AUDIT_GENERATED_(6F)
  6
Continuous
 62
     7
100
AcDbLine
 10
571.55
 20
403.45
 30
0.0
 11
570.05
 21
403.45
 31
0.0
  0
ARC
  5
1C5
330
1C1
100
AcDbEntity
  8
$DDT_AUDIT_GENERATED_(6F)
  6
Continuous
 62
     7
100
AcDbCircle
 10
571.55
 20
403.95
 30
0.0
 40
0.5000000000000004
100
AcDbArc
 50
270.0
 51
360.0
  0
ARC
  5
1C6
330
1C1
100
AcDbEntity
  8
$DDT_AUDIT_GENERATED_(6F)
  6
Continuous
 62
     7
100
AcDbCircle
 10
503.05
 20
397.45
 30
0.0
 40
6.0
100
AcDbArc
 50
90.0
 51
144.7524930079
  0
ARC
  5
1C7
330
1C1
100
AcDbEntity
  8
$DDT_AUDIT_GENERATED_(6F)
  6
Continuous
 62
     7
100
AcDbCircle
 10
503.05
 20
397.45
 30
0.0
 40
6.0
100
AcDbArc
 50
166.3119449618
 51
180.0
  0
LINE
  5
1C8
330
1C1
100
AcDbEntity
  8
$DDT_AUDIT_GENERATED_(6F)
  6
Continuous
 62
     7
100
AcDbLine
 10
496.55
 20
426.25
 30
0.0
 11
503.05
 21
426.25
 31
0.0
  0
LINE
  5
1C9
330
1C1
100
AcDbEntity
  8
$DDT_AUDIT_GENERATED_(6F)
  6
Continuous
 62
     7
100
AcDbLine
 10
503.05
 20
426.25
 30
0.0
 11
570.05
 21
426.25
 31
0.0
  0
LINE
  5
1CA
330
1C1
100
AcDbEntity
  8
$DDT_AUDIT_GENERATED_(6F)
  6
Continuous
 62
     7
100
AcDbLine
 10
570.05
 20
426.25
 30
0.0
 11
571.55
 21
426.25
 31
0.0
  0
LINE
  5
1CB
330
1C1
100
AcDbEntity
  8
$DDT_AUDIT_GENERATED_(6F)
  6
Continuous
 62
     7
100
AcDbLine
 10
572.05
 20
425.75
 30
0.0
 11
572.05
 21
403.95
 31
0.0
  0
ARC
  5
1CC
330
1C1
100
AcDbEntity
  8
$DDT_AUDIT_GENERATED_(6F)
  6
Continuous
 62
     7
100
AcDbCircle
 10
571.55
 20
425.75
 30
0.0
 40
0.5000000000000004
100
AcDbArc
 50
0.0
 51
90.0
  0
LINE
  5
1CD
330
1C1
100
AcDbEntity
  8
$DDT_AUDIT_GENERATED_(6F)
  6
Continuous
 62
     7
100
AcDbLine
 10
437.05
 20
422.75
 30
0.0
 11
437.05
 21
383.75
 31
0.0
  0
LINE
  5
1CE
330
1C1
100
AcDbEntity
  8
$DDT_AUDIT_GENERATED_(6F)
  6
Continuous
 62
     7
100
AcDbLine
 10
458.1180152906
 20
383.5958835502
 30
0.0
 11
453.3840945623
 21
383.2731572116
 31
0.0
  0
LINE
  5
1CF
330
1C1
100
AcDbEntity
  8
$DDT_AUDIT_GENERATED_(6F)
  6
Continuous
 62
     7
100
AcDbLine
 10
453.382982578
 20
383.2730814042
 30
0.0
 11
453.2154610774
 21
383.261660934
 31
0.0
  0
ARC
  5
1D0
330
1C1
100
AcDbEntity
  8
$DDT_AUDIT_GENERATED_(6F)
  6
Continuous
 62
     7
100
AcDbCircle
 10
457.5499982283
 20
425.7513310339
 30
0.0
 40
0.5000000000019357
100
AcDbArc
 50
160.7232909417
 51
161.6962027874
  0
ARC
  5
1D1
330
1C1
100
AcDbEntity
  8
$DDT_AUDIT_GENERATED_(6F)
  6
Continuous
 62
     7
100
AcDbCircle
 10
457.5499982281
 20
425.7513311295
 30
0.0
 40
0.5000000000022263
100
AcDbArc
 50
162.1473824442
 51
164.7970376273
  0
ARC
  5
1D2
330
1C1
100
AcDbEntity
  8
$DDT_AUDIT_GENERATED_(6F)
  6
Continuous
 62
     7
100
AcDbCircle
 10
458.0497311158
 20
384.5915140582
 30
0.0
 40
0.9979693567719287
100
AcDbArc
 50
251.1588485236
 51
273.923421335
  0
ARC
  5
1D3
330
1C1
100
AcDbEntity
  8
$DDT_AUDIT_GENERATED_(6F)
  6
Continuous
 62
     7
100
AcDbCircle
 10
458.05
 20
384.593567829
 30
0.0
 40
0.9999999999999938
100
AcDbArc
 50
180.0
 51
273.9
  0
LINE
  5
1D4
330
1C1
100
AcDbEntity
  8
$DDT_AUDIT_GENERATED_(6F)
  6
Continuous
 62
     7
100
AcDbLine
 10
457.05
 20
384.593567829
 30
0.0
 11
457.05
 21
392.0001111116
 31
0.0
  0
LINE
  5
1D5
330
1C1
100
AcDbEntity
  8
$DDT_AUDIT_GENERATED_(6F)
  6
Continuous
 62
     7
100
AcDbLine
 10
457.05
 20
414.4998888884
 30
0.0
 11
457.05
 21
425.75
 31
0.0
  0
ARC
  5
1D6
330
1C1
100
AcDbEntity
  8
$DDT_AUDIT_GENERATED_(6F)
  6
Continuous
 62
     7
100
AcDbCircle
 10
457.55
 20
425.75
 30
0.0
 40
0.5000000000000004
100
AcDbArc
 50
90.0
 51
180.0
  0
LINE
  5
1D7
330
1C1
100
AcDbEntity
  8
$DDT_AUDIT_GENERATED_(6F)
  6
Continuous
 62
     7
100
AcDbLine
 10
497.05
 20
425.75
 30
0.0
 11
497.05
 21
413.6316735776
 31
0.0
  0
LINE
  5
1D8
330
1C1
100
AcDbEntity
  8
$DDT_AUDIT_GENERATED_(6F)
  6
Continuous
 62
     7
100
AcDbLine
 10
497.05
 20
398.8683264224
 30
0.0
 11
497.05
 21
386.7170739677
 31
0.0
  0
ARC
  5
1D9
330
1C1
100
AcDbEntity
  8
$DDT_AUDIT_GENERATED_(6F)
  6
Continuous
 62
     7
100
AcDbCircle
 10
496.55
 20
425.75
 30
0.0
 40
0.5000000000000004
100
AcDbArc
 50
0.0
 51
90.0
  0
LINE
  5
1DA
330
1C1
100
AcDbEntity
  8
$DDT_AUDIT_GENERATED_(6F)
  6
Continuous
 62
     7
100
AcDbLine
 10
457.55
 20
426.25
 30
0.0
 11
496.55
 21
426.25
 31
0.0
  0
LINE
  5
1DB
330
1C1
100
AcDbEntity
  8
$DDT_AUDIT_GENERATED_(6F)
  6
Continuous
 62
     7
100
AcDbLine
 10
496.5840076453
 20
386.2182318283
 30
0.0
 11
458.1180152906
 21
383.5958835502
 31
0.0
  0
ARC
  5
1DC
330
1C1
100
AcDbEntity
  8
$DDT_AUDIT_GENERATED_(6F)
  6
Continuous
 62
     7
100
AcDbCircle
 10
496.55
 20
386.7170739677
 30
0.0
 40
0.5000000000000004
100
AcDbArc
 50
273.9
 51
0.0
  0
LINE
  5
1DD
330
1C1
100
AcDbEntity
  8
$DDT_AUDIT_GENERATED_(6F)
  6
Continuous
 62
     7
100
AcDbLine
 10
437.55
 20
383.25
 30
0.0
 11
452.7039416556
 21
383.25
 31
0.0
  0
LINE
  5
1DE
330
1C1
100
AcDbEntity
  8
$DDT_AUDIT_GENERATED_(6F)
  6
Continuous
 62
     7
100
AcDbLine
 10
453.3011891256
 20
423.25
 30
0.0
 11
437.55
 21
423.25
 31
0.0
  0
ARC
  5
1DF
330
1C1
100
AcDbEntity
  8
$DDT_AUDIT_GENERATED_(6F)
  6
Continuous
 62
     7
100
AcDbCircle
 10
437.55
 20
422.75
 30
0.0
 40
0.5000000000000004
100
AcDbArc
 50
90.0
 51
180.0
  0
ARC
  5
1E0
330
1C1
100
AcDbEntity
  8
$DDT_AUDIT_GENERATED_(6F)
  6
Continuous
 62
     7
100
AcDbCircle
 10
437.55
 20
383.75
 30
0.0
 40
0.5000000000000004
100
AcDbArc
 50
180.0
 51
270.0
  0
ARC
  5
1E1
330
1C1
100
AcDbEntity
  8
$DDT_AUDIT_GENERATED_(6F)
  6
Continuous
 62
     7
100
AcDbCircle
 10
452.7039416556
 20
393.25
 30
0.0
 40
10.0
100
AcDbArc
 50
270.0457804959
 51
273.9
  0
ARC
  5
1E2
330
1C1
100
AcDbEntity
  8
$DDT_AUDIT_GENERATED_(6F)
  6
Continuous
 62
     7
100
AcDbCircle
 10
453.5232469996
 20
384.2849464735
 30
0.0
 40
0.9999813231121825
100
AcDbArc
 50
273.8862111069
 51
273.9848709856
  0
ARC
  5
1E3
330
1C1
100
AcDbEntity
  8
$DDT_AUDIT_GENERATED_(6F)
  6
Continuous
 62
     7
100
AcDbCircle
 10
453.0963759295
 20
384.2558635326
 30
0.0
 40
0.999999913537637
100
AcDbArc
 50
268.064683698
 51
273.9085909761
  0
LINE
  5
1E4
330
1C1
100
AcDbEntity
  8
$DDT_AUDIT_GENERATED_(6F)
  6
Continuous
 62
     7
100
AcDbLine
 10
457.0616462531
 20
425.8650619189
 30
0.0
 11
457.0620024458
 21
425.8661619533
 31
0.0
  0
ARC
  5
1E5
330
1C1
100
AcDbEntity
  8
$DDT_AUDIT_GENERATED_(6F)
  6
Continuous
 62
     7
100
AcDbCircle
 10
453.3141399643
 20
427.2414740773
 30
0.0
 40
3.987966230243299
100
AcDbArc
 50
269.8075030215
 51
340.6039578505
  0
LINE
  5
1E6
330
1C1
100
AcDbEntity
  8
$DDT_AUDIT_GENERATED_(152)
  6
Continuous
 62
     7
100
AcDbLine
 10
486.05
 20
377.45
 30
0.0
 11
468.05
 21
377.45
 31
0.0
  0
LINE
  5
1E7
330
1C1
100
AcDbEntity
  8
$DDT_AUDIT_GENERATED_(152)
  6
Continuous
 62
     7
100
AcDbLine
 10
466.57
 20
375.97
 30
0.0
 11
487.53
 21
375.97
 31
0.0
  0
LINE
  5
1E8
330
1C1
100
AcDbEntity
  8
$DDT_AUDIT_GENERATED_(152)
  6
Continuous
 62
     7
100
AcDbLine
 10
467.77
 20
368.55
 30
0.0
 11
486.33
 21
368.55
 31
0.0
  0
LINE
  5
1E9
330
1C1
100
AcDbEntity
  8
$DDT_AUDIT_GENERATED_(152)
  6
Continuous
 62
     7
100
AcDbLine
 10
466.57
 20
369.75
 30
0.0
 11
487.53
 21
369.75
 31
0.0
  0
LINE
  5
1EA
330
1C1
100
AcDbEntity
  8
$DDT_AUDIT_GENERATED_(152)
  6
Continuous
 62
     7
100
AcDbLine
 10
466.57
 20
375.97
 30
0.0
 11
466.57
 21
369.75
 31
0.0
  0
LINE
  5
1EB
330
1C1
100
AcDbEntity
  8
$DDT_AUDIT_GENERATED_(152)
  6
Continuous
 62
     7
100
AcDbLine
 10
487.53
 20
369.75
 30
0.0
 11
487.53
 21
375.97
 31
0.0
  0
LINE
  5
1EC
330
1C1
100
AcDbEntity
  8
$DDT_AUDIT_GENERATED_(152)
  6
Continuous
 62
     7
100
AcDbLine
 10
468.05
 20
384.2729783398
 30
0.0
 11
468.05
 21
377.45
 31
0.0
  0
LINE
  5
1ED
330
1C1
100
AcDbEntity
  8
$DDT_AUDIT_GENERATED_(152)
  6
Continuous
 62
     7
100
AcDbLine
 10
486.05
 20
377.45
 30
0.0
 11
486.05
 21
385.5000952323
 31
0.0
  0
LINE
  5
1EE
330
1C1
100
AcDbEntity
  8
$DDT_AUDIT_GENERATED_(152)
  6
Continuous
 62
     7
100
AcDbLine
 10
487.53
 20
375.97
 30
0.0
 11
486.05
 21
377.45
 31
0.0
  0
LINE
  5
1EF
330
1C1
100
AcDbEntity
  8
$DDT_AUDIT_GENERATED_(152)
  6
Continuous
 62
     7
100
AcDbLine
 10
468.05
 20
377.45
 30
0.0
 11
466.57
 21
375.97
 31
0.0
  0
LINE
  5
1F0
330
1C1
100
AcDbEntity
  8
$DDT_AUDIT_GENERATED_(152)
  6
Continuous
 62
     7
100
AcDbLine
 10
466.57
 20
369.75
 30
0.0
 11
467.77
 21
368.55
 31
0.0
  0
LINE
  5
1F1
330
1C1
100
AcDbEntity
  8
$DDT_AUDIT_GENERATED_(152)
  6
Continuous
 62
     7
100
AcDbLine
 10
486.33
 20
368.55
 30
0.0
 11
487.53
 21
369.75
 31
0.0
  0
LINE
  5
1F2
330
1C1
100
AcDbEntity
  8
$DDT_AUDIT_GENERATED_(15F)
  6
Continuous
 62
     7
100
AcDbLine
 10
563.0000004525
 20
399.15
 30
0.0
 11
555.1000004525
 21
399.15
 31
0.0
  0
ARC
  5
1F3
330
1C1
100
AcDbEntity
  8
$DDT_AUDIT_GENERATED_(15F)
  6
Continuous
 62
     7
100
AcDbCircle
 10
555.1000004525
 20
399.45
 30
0.0
 40
0.3000000000000086
100
AcDbArc
 50
180.0
 51
270.0
  0
ARC
  5
1F4
330
1C1
100
AcDbEntity
  8
$DDT_AUDIT_GENERATED_(15F)
  6
Continuous
 62
     7
100
AcDbCircle
 10
563.0000004525
 20
399.45
 30
0.0
 40
0.3000000000000086
100
AcDbArc
 50
270.0
 51
0.0
  0
ELLIPSE
  5
1F5
330
1C1
100
AcDbEntity
  8
$DDT_AUDIT_GENERATED_(165)
  6
Continuous
 62
     7
100
AcDbEllipse
 10
479.3999543016
 20
388.1635036204
 30
0.0
 11
-0.2121966567508742
 21
0.2121966567508743
 31
0.0
210
0.0
220
0.0
230
1.0
 40
0.9996954599
 41
2.356346783439738
 42
3.371873918538247
  0
ELLIPSE
  5
1F6
330
1C1
100
AcDbEntity
  8
$DDT_AUDIT_GENERATED_(165)
  6
Continuous
 62
     7
100
AcDbEllipse
 10
479.4837386132
 20
388.0797193088
 30
0.0
 11
0.1152120932425144
 21
0.2781465980554211
 31
0.0
210
0.0
220
0.0
230
1.0
 40
0.9756194433
 41
3.543094528172319
 42
4.845851942243651
  0
LINE
  5
1F7
330
1C1
100
AcDbEntity
  8
$DDT_AUDIT_GENERATED_(165)
  6
Continuous
 62
     7
100
AcDbLine
 10
474.6999543085
 20
387.863457922
 30
0.0
 11
479.4000456914
 21
387.863457922
 31
0.0
  0
ELLIPSE
  5
1F8
330
1C1
100
AcDbEntity
  8
$DDT_AUDIT_GENERATED_(165)
  6
Continuous
 62
     7
100
AcDbEllipse
 10
474.7000456984
 20
388.1635036204
 30
0.0
 11
0.2121966567508743
 21
0.2121966567508742
 31
0.0
210
0.0
220
0.0
230
1.0
 40
0.9996954599
 41
2.911311388641928
 42
3.92683852373947
  0
ELLIPSE
  5
1F9
330
1C1
100
AcDbEntity
  8
$DDT_AUDIT_GENERATED_(165)
  6
Continuous
 62
     7
100
AcDbEllipse
 10
474.6162613867
 20
388.0797193088
 30
0.0
 11
0.1152120932425239
 21
-0.2781465980554176
 31
0.0
210
0.0
220
0.0
230
1.0
 40
0.9756194433
 41
4.578926018525623
 42
5.881683432597024
  0
LINE
  5
1FA
330
1C1
100
AcDbEntity
  8
$DDT_AUDIT_GENERATED_(165)
  6
Continuous
 62
     7
100
AcDbLine
 10
474.6999543085
 20
424.636542078
 30
0.0
 11
479.4000456914
 21
424.636542078
 31
0.0
  0
ELLIPSE
  5
1FB
330
1C1
100
AcDbEntity
  8
$DDT_AUDIT_GENERATED_(165)
  6
Continuous
 62
     7
100
AcDbEllipse
 10
474.7000456984
 20
424.3364963796
 30
0.0
 11
0.2121966567508742
 21
-0.2121966567508743
 31
0.0
210
0.0
220
0.0
230
1.0
 40
0.9996954599
 41
2.356346783439928
 42
3.371873918538247
  0
ELLIPSE
  5
1FC
330
1C1
100
AcDbEntity
  8
$DDT_AUDIT_GENERATED_(165)
  6
Continuous
 62
     7
100
AcDbEllipse
 10
474.6162613867
 20
424.4202806912
 30
0.0
 11
-0.1152120932425512
 21
-0.2781465980554038
 31
0.0
210
0.0
220
0.0
230
0.9999999999999999
 40
0.9756194433
 41
3.543094528172512
 42
4.845851942243856
  0
ELLIPSE
  5
1FD
330
1C1
100
AcDbEntity
  8
$DDT_AUDIT_GENERATED_(165)
  6
Continuous
 62
     7
100
AcDbEllipse
 10
479.3999543016
 20
424.3364963796
 30
0.0
 11
-0.2121966567508743
 21
-0.2121966567508742
 31
0.0
210
0.0
220
0.0
230
1.0
 40
0.9996954599
 41
2.91131138864134
 42
3.926838523739849
  0
ELLIPSE
  5
1FE
330
1C1
100
AcDbEntity
  8
$DDT_AUDIT_GENERATED_(165)
  6
Continuous
 62
     7
100
AcDbEllipse
 10
479.4837386132
 20
424.4202806912
 30
0.0
 11
-0.115212093242497
 21
0.2781465980554281
 31
0.0
210
0.0
220
0.0
230
1.0
 40
0.9756194433
 41
4.578926018525686
 42
5.881683432597493
  0
LINE
  5
1FF
330
1C1
100
AcDbEntity
  8
$DDT_AUDIT_GENERATED_(165)
  6
Continuous
 62
     7
100
AcDbLine
 10
496.5486892866
 20
426.2486875731
 30
0.0
 11
457.5513107134
 21
426.2486875731
 31
0.0
  0
LINE
  5
200
330
1C1
100
AcDbEntity
  8
$DDT_AUDIT_GENERATED_(165)
  6
Continuous
 62
     7
100
AcDbLine
 10
457.0513124269
 20
425.7486892866
 30
0.0
 11
457.0513124269
 21
386.7513107134
 31
0.0
  0
LINE
  5
201
330
1C1
100
AcDbEntity
  8
$DDT_AUDIT_GENERATED_(165)
  6
Continuous
 62
     7
100
AcDbLine
 10
457.5513107134
 20
386.2513124269
 30
0.0
 11
496.5486892866
 21
386.2513124269
 31
0.0
  0
ARC
  5
202
330
1C1
100
AcDbEntity
  8
$DDT_AUDIT_GENERATED_(165)
  6
Continuous
 62
     7
100
AcDbCircle
 10
496.5486858596
 20
386.7513141404
 30
0.0
 40
0.5000017134896249
100
AcDbArc
 50
270.0003926982
 51
359.9996073018
  0
ARC
  5
203
330
1C1
100
AcDbEntity
  8
$DDT_AUDIT_GENERATED_(165)
  6
Continuous
 62
     7
100
AcDbCircle
 10
457.5513141403
 20
386.7513141404
 30
0.0
 40
0.5000017134896249
100
AcDbArc
 50
180.0003926982
 51
269.9996073018
  0
ARC
  5
204
330
1C1
100
AcDbEntity
  8
$DDT_AUDIT_GENERATED_(165)
  6
Continuous
 62
     7
100
AcDbCircle
 10
496.5486858596
 20
425.7486858596
 30
0.0
 40
0.5000017134896249
100
AcDbArc
 50
0.0003926982
 51
89.9996073018
  0
ARC
  5
205
330
1C1
100
AcDbEntity
  8
$DDT_AUDIT_GENERATED_(165)
  6
Continuous
 62
     7
100
AcDbCircle
 10
457.5513141403
 20
425.7486858596
 30
0.0
 40
0.5000017134896214
100
AcDbArc
 50
90.0003926982
 51
179.9996073018
  0
ELLIPSE
  5
206
330
1C1
100
AcDbEntity
  8
$DDT_AUDIT_GENERATED_(165)
  6
Continuous
 62
     7
100
AcDbEllipse
 10
496.9502683344
 20
413.2428932188
 30
0.0
 11
0.001477094791261374
 21
-1.131370849893528
 31
0.0
210
0.0
220
0.0
230
0.9999999999999999
 40
0.0022652685
 41
3.327012566567193
 42
4.189543326503564
  0
LINE
  5
207
330
1C1
100
AcDbEntity
  8
$DDT_AUDIT_GENERATED_(165)
  6
Continuous
 62
     7
100
AcDbLine
 10
496.9473102854
 20
398.6921623212
 30
0.0
 11
496.9473102854
 21
413.8078376788
 31
0.0
  0
ELLIPSE
  5
208
330
1C1
100
AcDbEntity
  8
$DDT_AUDIT_GENERATED_(165)
  6
Continuous
 62
     7
100
AcDbEllipse
 10
496.9502683344
 20
399.2571067812
 30
0.0
 11
-0.001477094791271782
 21
-1.131370849893533
 31
0.0
210
0.0
220
0.0
230
0.9999999999999999
 40
0.0022652685
 41
5.235234634265871
 42
6.283185307179586
  0
ARC
  5
209
330
1C1
100
AcDbEntity
  8
$DDT_AUDIT_GENERATED_(165)
  6
Continuous
 62
     7
100
AcDbCircle
 10
457.5513107134
 20
386.7513107134
 30
0.0
 40
0.5000000000000004
100
AcDbArc
 50
180.0
 51
270.0
  0
ARC
  5
20A
330
1C1
100
AcDbEntity
  8
$DDT_AUDIT_GENERATED_(165)
  6
Continuous
 62
     7
100
AcDbCircle
 10
496.674028807
 20
414.3689787372
 30
0.0
 40
0.2745119569066232
100
AcDbArc
 50
355.832771608
 51
358.7018360988
  0
LINE
  5
20C
330
1C1
100
AcDbEntity
  8
$DDT_AUDIT_GENERATED_(20B)
  6
Continuous
 62
     7
100
AcDbLine
 10
498.15
 20
413.423811781
 30
0.0
 11
498.15
 21
413.123823204
 31
0.0
  0
LINE
  5
20D
330
1C1
100
AcDbEntity
  8
$DDT_AUDIT_GENERATED_(20B)
  6
Continuous
 62
     7
100
AcDbLine
 10
498.15
 20
413.123823204
 30
0.0
 11
498.15
 21
399.376176796
 31
0.0
  0
LINE
  5
20E
330
1C1
100
AcDbEntity
  8
$DDT_AUDIT_GENERATED_(20B)
  6
Continuous
 62
     7
100
AcDbLine
 10
498.15
 20
399.376176796
 30
0.0
 11
498.15
 21
399.076188219
 31
0.0
  0
LINE
  5
20F
330
1C1
100
AcDbEntity
  8
$DDT_AUDIT_GENERATED_(20B)
  6
Continuous
 62
     7
100
AcDbLine
 10
497.9517453071
 20
398.8761958344
 30
0.0
 11
496.9473102854
 21
398.8674302628
 31
0.0
  0
ARC
  5
210
330
1C1
100
AcDbEntity
  8
$DDT_AUDIT_GENERATED_(20B)
  6
Continuous
 62
     7
100
AcDbCircle
 10
497.95
 20
413.423811781
 30
0.0
 40
0.2000000000000008
100
AcDbArc
 50
0.0
 51
89.5
  0
ARC
  5
211
330
1C1
100
AcDbEntity
  8
$DDT_AUDIT_GENERATED_(20B)
  6
Continuous
 62
     7
100
AcDbCircle
 10
497.95
 20
399.076188219
 30
0.0
 40
0.1999999999999988
100
AcDbArc
 50
270.5
 51
0.0
  0
LINE
  5
212
330
1C1
100
AcDbEntity
  8
$DDT_AUDIT_GENERATED_(20B)
  6
Continuous
 62
     7
100
AcDbLine
 10
496.9473102854
 20
413.6325697372
 30
0.0
 11
497.9517453071
 21
413.6238041656
 31
0.0
  0
ARC
  5
213
330
1C1
100
AcDbEntity
  8
$DDT_AUDIT_GENERATED_(17E)
  6
Continuous
 62
     7
100
AcDbCircle
 10
552.0500004525
 20
402.95
 30
0.0
 40
0.5
100
AcDbArc
 50
0.0
 51
90.0
  0
ARC
  5
214
330
1C1
100
AcDbEntity
  8
$DDT_AUDIT_GENERATED_(17E)
  6
Continuous
 62
     7
100
AcDbCircle
 10
566.0500004525
 20
402.95
 30
0.0
 40
0.5000000000000004
100
AcDbArc
 50
90.0
 51
180.0
  0
LINE
  5
215
330
1C1
100
AcDbEntity
  8
$DDT_AUDIT_GENERATED_(17E)
  6
Continuous
 62
     7
100
AcDbLine
 10
565.5500004525
 20
399.75
 30
0.0
 11
565.5500004525
 21
402.95
 31
0.0
  0
LINE
  5
216
330
1C1
100
AcDbEntity
  8
$DDT_AUDIT_GENERATED_(17E)
  6
Continuous
 62
     7
100
AcDbLine
 10
552.5500004525
 20
399.75
 30
0.0
 11
552.5500004525
 21
402.95
 31
0.0
  0
LINE
  5
217
330
1C1
100
AcDbEntity
  8
$DDT_AUDIT_GENERATED_(17E)
  6
Continuous
 62
     7
100
AcDbLine
 10
565.2500004525
 20
399.45
 30
0.0
 11
552.8500004525
 21
399.45
 31
0.0
  0
ARC
  5
218
330
1C1
100
AcDbEntity
  8
$DDT_AUDIT_GENERATED_(17E)
  6
Continuous
 62
     7
100
AcDbCircle
 10
552.8500004525
 20
399.75
 30
0.0
 40
0.2999999999999947
100
AcDbArc
 50
180.0
 51
270.0
  0
ARC
  5
219
330
1C1
100
AcDbEntity
  8
$DDT_AUDIT_GENERATED_(17E)
  6
Continuous
 62
     7
100
AcDbCircle
 10
565.2500004525
 20
399.75
 30
0.0
 40
0.2999999999999999
100
AcDbArc
 50
270.0
 51
0.0
  0
LINE
  5
21B
330
1C1
100
AcDbEntity
  8
$DDT_AUDIT_GENERATED_(21A)
  6
Continuous
 62
     7
100
AcDbLine
 10
495.2946720906
 20
424.1947177821
 30
0.0
 11
495.2946720906
 21
388.3052822179
 31
0.0
  0
LINE
  5
21C
330
1C1
100
AcDbEntity
  8
$DDT_AUDIT_GENERATED_(21A)
  6
Continuous
 62
     7
100
AcDbLine
 10
494.9947177821
 20
388.0053279093
 30
0.0
 11
459.1052822179
 21
388.0053279093
 31
0.0
  0
LINE
  5
21D
330
1C1
100
AcDbEntity
  8
$DDT_AUDIT_GENERATED_(21A)
  6
Continuous
 62
     7
100
AcDbLine
 10
458.8053279093
 20
388.3052822179
 30
0.0
 11
458.8053279093
 21
403.5838448967
 31
0.0
  0
LINE
  5
21E
330
1C1
100
AcDbEntity
  8
$DDT_AUDIT_GENERATED_(21A)
  6
Continuous
 62
     7
100
AcDbLine
 10
459.1052822179
 20
424.4946720907
 30
0.0
 11
494.9947177821
 21
424.4946720907
 31
0.0
  0
LINE
  5
21F
330
1C1
100
AcDbEntity
  8
$DDT_AUDIT_GENERATED_(21A)
  6
Continuous
 62
     7
100
AcDbLine
 10
458.8053279093
 20
408.9161551033
 30
0.0
 11
458.8053279093
 21
424.1947177821
 31
0.0
  0
ARC
  5
220
330
1C1
100
AcDbEntity
  8
$DDT_AUDIT_GENERATED_(21A)
  6
Continuous
 62
     7
100
AcDbCircle
 10
459.1052822179
 20
424.1947177821
 30
0.0
 40
0.3000000000000017
100
AcDbArc
 50
90.0
 51
180.0
  0
ARC
  5
221
330
1C1
100
AcDbEntity
  8
$DDT_AUDIT_GENERATED_(21A)
  6
Continuous
 62
     7
100
AcDbCircle
 10
459.1052822179
 20
388.3052822179
 30
0.0
 40
0.3000000000000017
100
AcDbArc
 50
180.0
 51
270.0
  0
ARC
  5
222
330
1C1
100
AcDbEntity
  8
$DDT_AUDIT_GENERATED_(21A)
  6
Continuous
 62
     7
100
AcDbCircle
 10
494.9947177821
 20
424.1947177821
 30
0.0
 40
0.3000000000000017
100
AcDbArc
 50
0.0
 51
90.0
  0
ARC
  5
223
330
1C1
100
AcDbEntity
  8
$DDT_AUDIT_GENERATED_(21A)
  6
Continuous
 62
     7
100
AcDbCircle
 10
494.9947177821
 20
388.3052822179
 30
0.0
 40
0.3000000000000017
100
AcDbArc
 50
270.0
 51
0.0
  0
ARC
  5
224
330
1C1
100
AcDbEntity
  8
$DDT_AUDIT_GENERATED_(21A)
  6
Continuous
 62
     7
100
AcDbCircle
 10
459.1052822179
 20
408.9161551033
 30
0.0
 40
0.3000000000000017
100
AcDbArc
 50
180.0
 51
194.0417295678
  0
ARC
  5
225
330
1C1
100
AcDbEntity
  8
$DDT_AUDIT_GENERATED_(21A)
  6
Continuous
 62
     7
100
AcDbCircle
 10
448.445
 20
406.25
 30
0.0
 40
10.68863048791795
100
AcDbArc
 50
345.9582704322
 51
14.0417295678
  0
ARC
  5
226
330
1C1
100
AcDbEntity
  8
$DDT_AUDIT_GENERATED_(21A)
  6
Continuous
 62
     7
100
AcDbCircle
 10
459.1052822179
 20
403.5838448967
 30
0.0
 40
0.3000000000000009
100
AcDbArc
 50
165.9582704322
 51
180.0
  0
LINE
  5
227
330
1C1
100
AcDbEntity
  8
$DDT_AUDIT_GENERATED_(1A0)
  6
Continuous
 62
     7
100
AcDbLine
 10
385.0495430855
 20
368.75
 30
0.0
 11
385.0495430855
 21
437.75
 31
0.0
  0
LINE
  5
228
330
1C1
100
AcDbEntity
  8
$DDT_AUDIT_GENERATED_(1A0)
  6
Continuous
 62
     7
100
AcDbLine
 10
385.5495430855
 20
438.25
 30
0.0
 11
409.0495430855
 21
438.25
 31
0.0
  0
LINE
  5
229
330
1C1
100
AcDbEntity
  8
$DDT_AUDIT_GENERATED_(1A0)
  6
Continuous
 62
     7
100
AcDbLine
 10
417.5495430855
 20
368.25
 30
0.0
 11
410.0495430855
 21
368.25
 31
0.0
  0
LINE
  5
22A
330
1C1
100
AcDbEntity
  8
$DDT_AUDIT_GENERATED_(1A0)
  6
Continuous
 62
     7
100
AcDbLine
 10
418.0495430855
 20
437.75
 30
0.0
 11
418.0495430855
 21
368.75
 31
0.0
  0
ARC
  5
22B
330
1C1
100
AcDbEntity
  8
$DDT_AUDIT_GENERATED_(1A0)
  6
Continuous
 62
     7
100
AcDbCircle
 10
417.5495430855
 20
437.75
 30
0.0
 40
0.5000000000000004
100
AcDbArc
 50
0.0
 51
90.0
  0
ARC
  5
22C
330
1C1
100
AcDbEntity
  8
$DDT_AUDIT_GENERATED_(1A0)
  6
Continuous
 62
     7
100
AcDbCircle
 10
417.5495430855
 20
368.75
 30
0.0
 40
0.5000000000000004
100
AcDbArc
 50
270.0
 51
0.0
  0
ARC
  5
22D
330
1C1
100
AcDbEntity
  8
$DDT_AUDIT_GENERATED_(1A0)
  6
Continuous
 62
     7
100
AcDbCircle
 10
385.5495430855
 20
437.75
 30
0.0
 40
0.5000000000000004
100
AcDbArc
 50
90.0
 51
180.0
  0
ARC
  5
22E
330
1C1
100
AcDbEntity
  8
$DDT_AUDIT_GENERATED_(1A0)
  6
Continuous
 62
     7
100
AcDbCircle
 10
385.5495430855
 20
368.75
 30
0.0
 40
0.5000000000000004
100
AcDbArc
 50
180.0
 51
270.0
  0
LINE
  5
22F
330
1C1
100
AcDbEntity
  8
$DDT_AUDIT_GENERATED_(1A0)
  6
Continuous
 62
     7
100
AcDbLine
 10
410.0495430855
 20
438.25
 30
0.0
 11
417.5495430855
 21
438.25
 31
0.0
  0
LINE
  5
230
330
1C1
100
AcDbEntity
  8
$DDT_AUDIT_GENERATED_(1A0)
  6
Continuous
 62
     7
100
AcDbLine
 10
409.1959896949
 20
438.1035533906
 30
0.0
 11
409.0495430855
 21
438.25
 31
0.0
  0
LINE
  5
231
330
1C1
100
AcDbEntity
  8
$DDT_AUDIT_GENERATED_(1A0)
  6
Continuous
 62
     7
100
AcDbLine
 10
410.0495430855
 20
438.25
 30
0.0
 11
409.903096476
 21
438.1035533906
 31
0.0
  0
LINE
  5
232
330
1C1
100
AcDbEntity
  8
$DDT_AUDIT_GENERATED_(1A0)
  6
Continuous
 62
     7
100
AcDbLine
 10
409.0495430855
 20
368.25
 30
0.0
 11
385.5495430855
 21
368.25
 31
0.0
  0
LINE
  5
233
330
1C1
100
AcDbEntity
  8
$DDT_AUDIT_GENERATED_(1A0)
  6
Continuous
 62
     7
100
AcDbLine
 10
409.903096476
 20
368.3964466094
 30
0.0
 11
410.0495430855
 21
368.25
 31
0.0
  0
LINE
  5
234
330
1C1
100
AcDbEntity
  8
$DDT_AUDIT_GENERATED_(1A0)
  6
Continuous
 62
     7
100
AcDbLine
 10
409.0495430855
 20
368.25
 30
0.0
 11
409.1959896949
 21
368.3964466094
 31
0.0
  0
LINE
  5
235
330
1C1
100
AcDbEntity
  8
$DDT_AUDIT_GENERATED_(1A0)
  6
Continuous
 62
     7
100
AcDbLine
 10
410.0495430855
 20
368.75
 30
0.0
 11
410.0495430855
 21
437.75
 31
0.0
  0
LINE
  5
236
330
1C1
100
AcDbEntity
  8
$DDT_AUDIT_GENERATED_(1A0)
  6
Continuous
 62
     7
100
AcDbLine
 10
409.0495430855
 20
437.75
 30
0.0
 11
409.0495430855
 21
368.75
 31
0.0
  0
LINE
  5
237
330
1C1
100
AcDbEntity
  8
$DDT_AUDIT_GENERATED_(1A0)
  6
Continuous
 62
     7
100
AcDbLine
 10
409.5495430855
 20
437.75
 30
0.0
 11
409.1959896949
 21
438.1035533906
 31
0.0
  0
ARC
  5
238
330
1C1
100
AcDbEntity
  8
$DDT_AUDIT_GENERATED_(1A0)
  6
Continuous
 62
     7
100
AcDbCircle
 10
409.5495430855
 20
437.75
 30
0.0
 40
0.5000000000000031
100
AcDbArc
 50
135.0
 51
180.0
  0
ARC
  5
239
330
1C1
100
AcDbEntity
  8
$DDT_AUDIT_GENERATED_(1A0)
  6
Continuous
 62
     7
100
AcDbCircle
 10
409.5495430855
 20
368.75
 30
0.0
 40
0.5000000000000143
100
AcDbArc
 50
180.0
 51
225.0
  0
LINE
  5
23A
330
1C1
100
AcDbEntity
  8
$DDT_AUDIT_GENERATED_(1A0)
  6
Continuous
 62
     7
100
AcDbLine
 10
409.1959896949
 20
368.3964466094
 30
0.0
 11
409.5495430855
 21
368.75
 31
0.0
  0
ARC
  5
23B
330
1C1
100
AcDbEntity
  8
$DDT_AUDIT_GENERATED_(1A0)
  6
Continuous
 62
     7
100
AcDbCircle
 10
409.5495430855
 20
437.75
 30
0.0
 40
0.5000000000000004
100
AcDbArc
 50
0.0
 51
45.0
  0
LINE
  5
23C
330
1C1
100
AcDbEntity
  8
$DDT_AUDIT_GENERATED_(1A0)
  6
Continuous
 62
     7
100
AcDbLine
 10
409.903096476
 20
438.1035533906
 30
0.0
 11
409.5495430855
 21
437.75
 31
0.0
  0
LINE
  5
23D
330
1C1
100
AcDbEntity
  8
$DDT_AUDIT_GENERATED_(1A0)
  6
Continuous
 62
     7
100
AcDbLine
 10
409.5495430855
 20
368.75
 30
0.0
 11
409.903096476
 21
368.3964466094
 31
0.0
  0
ARC
  5
23E
330
1C1
100
AcDbEntity
  8
$DDT_AUDIT_GENERATED_(1A0)
  6
Continuous
 62
     7
100
AcDbCircle
 10
409.5495430855
 20
368.75
 30
0.0
 40
0.4999999999999983
100
AcDbArc
 50
315.0
 51
0.0
  0
LINE
  5
240
330
1C1
100
AcDbEntity
  8
$DDT_AUDIT_GENERATED_(23F)
  6
Continuous
 62
     7
100
AcDbLine
 10
436.85
 20
422.5
 30
0.0
 11
418.0495430855
 21
422.5
 31
0.0
  0
LINE
  5
241
330
1C1
100
AcDbEntity
  8
$DDT_AUDIT_GENERATED_(23F)
  6
Continuous
 62
     7
100
AcDbLine
 10
418.0495430855
 20
384.0
 30
0.0
 11
436.85
 21
384.0
 31
0.0
  0
ARC
  5
242
330
1C1
100
AcDbEntity
  8
$DDT_AUDIT_GENERATED_(23F)
  6
Continuous
 62
     7
100
AcDbCircle
 10
436.85
 20
384.2
 30
0.0
 40
0.1999999999999988
100
AcDbArc
 50
270.0
 51
0.0
  0
ARC
  5
243
330
1C1
100
AcDbEntity
  8
$DDT_AUDIT_GENERATED_(23F)
  6
Continuous
 62
     7
100
AcDbCircle
 10
436.85
 20
422.3
 30
0.0
 40
0.2000000000000057
100
AcDbArc
 50
0.0
 51
90.0
  0
LINE
  5
245
330
1C1
100
AcDbEntity
  8
DV2_Default
  6
CENTER2
 62
     7
100
AcDbLine
 10
405.0495426384
 20
403.25
 30
0.0
 11
365.0495435325
 21
403.25
 31
0.0
  0
LINE
  5
246
330
1C1
100
AcDbEntity
  8
DV2_Default
  6
CENTER2
 62
     7
100
AcDbLine
 10
385.0495430855
 20
423.249999553
 30
0.0
 11
385.0495430855
 21
383.250000447
 31
0.0
  0
LINE
  5
247
330
1C1
100
AcDbEntity
  8
DV2_Default
  6
CENTER2
 62
     7
100
AcDbLine
 10
497.0499995529
 20
368.55
 30
0.0
 11
457.050000447
 21
368.55
 31
0.0
  0
LINE
  5
248
330
1C1
100
AcDbEntity
  8
DV2_Default
  6
CENTER2
 62
     7
100
AcDbLine
 10
477.05
 20
388.549999553
 30
0.0
 11
477.05
 21
348.550000447
 31
0.0
  0
ENDBLK
  5
24A
330
1C1
100
AcDbEntity
  8
0
100
AcDbBlockEnd
  0
BLOCK
  5
50B
330
24B
100
AcDbEntity
  8
0
100
AcDbBlockBegin
  2
SE2
 70
     0
 10
0.0
 20
0.0
 30
0.0
  3
SE2
  1

  0
LINE
  5
24D
330
24B
100
AcDbEntity
  8
$DDT_AUDIT_GENERATED_(6F)
  6
Continuous
 62
     7
100
AcDbLine
 10
107.25
 20
181.35
 30
0.0
 11
62.05
 21
181.35
 31
0.0
  0
ARC
  5
24E
330
24B
100
AcDbEntity
  8
$DDT_AUDIT_GENERATED_(6F)
  6
Continuous
 62
     7
100
AcDbCircle
 10
209.25
 20
175.35
 30
0.0
 40
5.999999999999998
100
AcDbArc
 50
90.0
 51
180.0
  0
LINE
  5
24F
330
24B
100
AcDbEntity
  8
$DDT_AUDIT_GENERATED_(6F)
  6
Continuous
 62
     7
100
AcDbLine
 10
203.25
 20
175.35
 30
0.0
 11
203.25
 21
108.35
 31
0.0
  0
ARC
  5
250
330
24B
100
AcDbEntity
  8
$DDT_AUDIT_GENERATED_(6F)
  6
Continuous
 62
     7
100
AcDbCircle
 10
201.25
 20
108.35
 30
0.0
 40
2.000000000000002
100
AcDbArc
 50
270.0
 51
0.0
  0
LINE
  5
251
330
24B
100
AcDbEntity
  8
$DDT_AUDIT_GENERATED_(6F)
  6
Continuous
 62
     7
100
AcDbLine
 10
201.25
 20
106.35
 30
0.0
 11
115.25
 21
106.35
 31
0.0
  0
ARC
  5
252
330
24B
100
AcDbEntity
  8
$DDT_AUDIT_GENERATED_(6F)
  6
Continuous
 62
     7
100
AcDbCircle
 10
115.25
 20
108.35
 30
0.0
 40
2.000000000000002
100
AcDbArc
 50
180.0
 51
270.0
  0
LINE
  5
253
330
24B
100
AcDbEntity
  8
$DDT_AUDIT_GENERATED_(6F)
  6
Continuous
 62
     7
100
AcDbLine
 10
113.25
 20
108.35
 30
0.0
 11
113.25
 21
175.35
 31
0.0
  0
ARC
  5
254
330
24B
100
AcDbEntity
  8
$DDT_AUDIT_GENERATED_(6F)
  6
Continuous
 62
     7
100
AcDbCircle
 10
107.25
 20
175.35
 30
0.0
 40
5.999999999999998
100
AcDbArc
 50
0.0
 51
90.0
  0
LINE
  5
255
330
24B
100
AcDbEntity
  8
$DDT_AUDIT_GENERATED_(6F)
  6
Continuous
 62
     7
100
AcDbLine
 10
213.75
 20
241.35
 30
0.0
 11
252.75
 21
241.35
 31
0.0
  0
LINE
  5
256
330
24B
100
AcDbEntity
  8
$DDT_AUDIT_GENERATED_(6F)
  6
Continuous
 62
     7
100
AcDbLine
 10
102.75
 20
241.35
 30
0.0
 11
63.75
 21
241.35
 31
0.0
  0
SPLINE
  5
257
330
24B
100
AcDbEntity
  8
$DDT_AUDIT_GENERATED_(6F)
  6
Continuous
 62
     7
100
AcDbSpline
210
0.0
220
0.0
230
1.0
 70
     8
 71
     3
 72
    10
 73
     6
 74
     0
 42
0.0000000972608257
 43
0.0000000001
 40
0.2489854671740414
 40
0.2489854671740414
 40
0.2489854671740414
 40
0.2489854671740414
 40
0.25
 40
0.25
 40
0.2670241448746705
 40
0.2670241448746705
 40
0.2670241448746705
 40
0.2670241448746705
 10
107.2491019647035
 20
226.8604872459774
 30
0.0
 10
107.2490778571674
 20
226.8605019115815
 30
0.0
 10
107.249053245993
 20
226.8605161569729
 30
0.0
 10
107.2486066802294
 20
226.8607619432682
 30
0.0
 10
107.2480408088685
 20
226.8608741198301
 30
0.0
 10
107.2473294909236
 20
226.8608635957525
 30
0.0
  0
LINE
  5
258
330
24B
100
AcDbEntity
  8
$DDT_AUDIT_GENERATED_(6F)
  6
Continuous
 62
     7
100
AcDbLine
 10
61.75
 20
181.85
 30
0.0
 11
61.75
 21
220.85
 31
0.0
  0
LINE
  5
259
330
24B
100
AcDbEntity
  8
$DDT_AUDIT_GENERATED_(6F)
  6
Continuous
 62
     7
100
AcDbLine
 10
61.75
 20
181.65
 30
0.0
 11
61.75
 21
181.85
 31
0.0
  0
LINE
  5
25A
330
24B
100
AcDbEntity
  8
$DDT_AUDIT_GENERATED_(6F)
  6
Continuous
 62
     7
100
AcDbLine
 10
61.75
 20
220.85
 30
0.0
 11
61.75
 21
221.05
 31
0.0
  0
LINE
  5
25B
330
24B
100
AcDbEntity
  8
$DDT_AUDIT_GENERATED_(6F)
  6
Continuous
 62
     7
100
AcDbLine
 10
61.75
 20
221.05
 30
0.0
 11
61.75
 21
222.0865653518
 31
0.0
  0
ARC
  5
25C
330
24B
100
AcDbEntity
  8
$DDT_AUDIT_GENERATED_(6F)
  6
Continuous
 62
     7
100
AcDbCircle
 10
62.05
 20
221.05
 30
0.0
 40
0.2999999999999947
100
AcDbArc
 50
90.0
 51
180.0
  0
ARC
  5
25D
330
24B
100
AcDbEntity
  8
$DDT_AUDIT_GENERATED_(6F)
  6
Continuous
 62
     7
100
AcDbCircle
 10
62.05
 20
181.65
 30
0.0
 40
0.3000000000000017
100
AcDbArc
 50
180.0
 51
270.0
  0
LINE
  5
25E
330
24B
100
AcDbEntity
  8
$DDT_AUDIT_GENERATED_(6F)
  6
Continuous
 62
     7
100
AcDbLine
 10
254.75
 20
181.85
 30
0.0
 11
254.75
 21
181.65
 31
0.0
  0
LINE
  5
25F
330
24B
100
AcDbEntity
  8
$DDT_AUDIT_GENERATED_(6F)
  6
Continuous
 62
     7
100
AcDbLine
 10
254.75
 20
220.85
 30
0.0
 11
254.75
 21
181.85
 31
0.0
  0
LINE
  5
260
330
24B
100
AcDbEntity
  8
$DDT_AUDIT_GENERATED_(6F)
  6
Continuous
 62
     7
100
AcDbLine
 10
254.75
 20
221.05
 30
0.0
 11
254.75
 21
220.85
 31
0.0
  0
LINE
  5
261
330
24B
100
AcDbEntity
  8
$DDT_AUDIT_GENERATED_(6F)
  6
Continuous
 62
     7
100
AcDbLine
 10
254.75
 20
221.05
 30
0.0
 11
254.75
 21
222.0865653518
 31
0.0
  0
LINE
  5
262
330
24B
100
AcDbEntity
  8
$DDT_AUDIT_GENERATED_(6F)
  6
Continuous
 62
     7
100
AcDbLine
 10
254.45
 20
181.35
 30
0.0
 11
209.25
 21
181.35
 31
0.0
  0
ARC
  5
263
330
24B
100
AcDbEntity
  8
$DDT_AUDIT_GENERATED_(6F)
  6
Continuous
 62
     7
100
AcDbCircle
 10
254.45
 20
221.05
 30
0.0
 40
0.2999999999999947
100
AcDbArc
 50
0.0
 51
90.0
  0
ARC
  5
264
330
24B
100
AcDbEntity
  8
$DDT_AUDIT_GENERATED_(6F)
  6
Continuous
 62
     7
100
AcDbCircle
 10
254.45
 20
181.65
 30
0.0
 40
0.2999999999999947
100
AcDbArc
 50
270.0
 51
0.0
  0
LINE
  5
265
330
24B
100
AcDbEntity
  8
$DDT_AUDIT_GENERATED_(6F)
  6
Continuous
 62
     7
100
AcDbLine
 10
151.5521654828
 20
179.1139557573
 30
0.0
 11
151.5007978167
 21
179.1807453264
 31
0.0
  0
LINE
  5
266
330
24B
100
AcDbEntity
  8
$DDT_AUDIT_GENERATED_(6F)
  6
Continuous
 62
     7
100
AcDbLine
 10
151.5007978167
 20
179.1807453264
 30
0.0
 11
151.4505826502
 21
179.2548843564
 31
0.0
  0
LINE
  5
267
330
24B
100
AcDbEntity
  8
$DDT_AUDIT_GENERATED_(6F)
  6
Continuous
 62
     7
100
AcDbLine
 10
151.4505826502
 20
179.2548843564
 30
0.0
 11
151.415895119
 21
179.3106251439
 31
0.0
  0
LINE
  5
268
330
24B
100
AcDbEntity
  8
$DDT_AUDIT_GENERATED_(6F)
  6
Continuous
 62
     7
100
AcDbLine
 10
151.415895119
 20
179.3106251439
 30
0.0
 11
151.3816049861
 21
179.371264963
 31
0.0
  0
LINE
  5
269
330
24B
100
AcDbEntity
  8
$DDT_AUDIT_GENERATED_(6F)
  6
Continuous
 62
     7
100
AcDbLine
 10
151.3816049861
 20
179.371264963
 30
0.0
 11
151.3486899552
 21
179.4376998616
 31
0.0
  0
LINE
  5
26A
330
24B
100
AcDbEntity
  8
$DDT_AUDIT_GENERATED_(6F)
  6
Continuous
 62
     7
100
AcDbLine
 10
151.3486899552
 20
179.4376998616
 30
0.0
 11
151.3181277299
 21
179.5108258879
 31
0.0
  0
LINE
  5
26B
330
24B
100
AcDbEntity
  8
$DDT_AUDIT_GENERATED_(6F)
  6
Continuous
 62
     7
100
AcDbLine
 10
151.3181277299
 20
179.5108258879
 30
0.0
 11
151.290896014
 21
179.5915390898
 31
0.0
  0
LINE
  5
26C
330
24B
100
AcDbEntity
  8
$DDT_AUDIT_GENERATED_(6F)
  6
Continuous
 62
     7
100
AcDbLine
 10
151.290896014
 20
179.5915390898
 30
0.0
 11
151.267972511
 21
179.6807355154
 31
0.0
  0
LINE
  5
26D
330
24B
100
AcDbEntity
  8
$DDT_AUDIT_GENERATED_(6F)
  6
Continuous
 62
     7
100
AcDbLine
 10
151.267972511
 20
179.6807355154
 30
0.0
 11
151.2503349248
 21
179.7793112127
 31
0.0
  0
LINE
  5
26E
330
24B
100
AcDbEntity
  8
$DDT_AUDIT_GENERATED_(6F)
  6
Continuous
 62
     7
100
AcDbLine
 10
151.2503349248
 20
179.7793112127
 30
0.0
 11
151.238960959
 21
179.8881622299
 31
0.0
  0
LINE
  5
26F
330
24B
100
AcDbEntity
  8
$DDT_AUDIT_GENERATED_(6F)
  6
Continuous
 62
     7
100
AcDbLine
 10
151.238960959
 20
179.8881622299
 30
0.0
 11
151.2348281741
 21
180.0083158216
 31
0.0
  0
LINE
  5
270
330
24B
100
AcDbEntity
  8
$DDT_AUDIT_GENERATED_(6F)
  6
Continuous
 62
     7
100
AcDbLine
 10
151.2348281741
 20
180.0083158216
 30
0.0
 11
151.238960959
 21
180.1284694268
 31
0.0
  0
LINE
  5
271
330
24B
100
AcDbEntity
  8
$DDT_AUDIT_GENERATED_(6F)
  6
Continuous
 62
     7
100
AcDbLine
 10
151.238960959
 20
180.1284694268
 30
0.0
 11
151.2503349248
 21
180.237320444
 31
0.0
  0
LINE
  5
272
330
24B
100
AcDbEntity
  8
$DDT_AUDIT_GENERATED_(6F)
  6
Continuous
 62
     7
100
AcDbLine
 10
151.2503349248
 20
180.237320444
 30
0.0
 11
151.267972511
 21
180.3358961414
 31
0.0
  0
LINE
  5
273
330
24B
100
AcDbEntity
  8
$DDT_AUDIT_GENERATED_(6F)
  6
Continuous
 62
     7
100
AcDbLine
 10
151.267972511
 20
180.3358961414
 30
0.0
 11
151.290896014
 21
180.425092567
 31
0.0
  0
LINE
  5
274
330
24B
100
AcDbEntity
  8
$DDT_AUDIT_GENERATED_(6F)
  6
Continuous
 62
     7
100
AcDbLine
 10
151.290896014
 20
180.425092567
 30
0.0
 11
151.3181277299
 21
180.5058057689
 31
0.0
  0
LINE
  5
275
330
24B
100
AcDbEntity
  8
$DDT_AUDIT_GENERATED_(6F)
  6
Continuous
 62
     7
100
AcDbLine
 10
151.3181277299
 20
180.5058057689
 30
0.0
 11
151.3486899552
 21
180.5789317951
 31
0.0
  0
LINE
  5
276
330
24B
100
AcDbEntity
  8
$DDT_AUDIT_GENERATED_(6F)
  6
Continuous
 62
     7
100
AcDbLine
 10
151.3486899552
 20
180.5789317951
 30
0.0
 11
151.3816049861
 21
180.6453666937
 31
0.0
  0
LINE
  5
277
330
24B
100
AcDbEntity
  8
$DDT_AUDIT_GENERATED_(6F)
  6
Continuous
 62
     7
100
AcDbLine
 10
151.3816049861
 20
180.6453666937
 30
0.0
 11
151.415895119
 21
180.7060065128
 31
0.0
  0
LINE
  5
278
330
24B
100
AcDbEntity
  8
$DDT_AUDIT_GENERATED_(6F)
  6
Continuous
 62
     7
100
AcDbLine
 10
151.415895119
 20
180.7060065128
 30
0.0
 11
151.4505826502
 21
180.7617473004
 31
0.0
  0
LINE
  5
279
330
24B
100
AcDbEntity
  8
$DDT_AUDIT_GENERATED_(6F)
  6
Continuous
 62
     7
100
AcDbLine
 10
151.4505826502
 20
180.7617473004
 30
0.0
 11
151.5007978167
 21
180.8358863304
 31
0.0
  0
LINE
  5
27A
330
24B
100
AcDbEntity
  8
$DDT_AUDIT_GENERATED_(6F)
  6
Continuous
 62
     7
100
AcDbLine
 10
151.5007978167
 20
180.8358863304
 30
0.0
 11
151.5521654828
 21
180.9026758994
 31
0.0
  0
LINE
  5
27B
330
24B
100
AcDbEntity
  8
$DDT_AUDIT_GENERATED_(6F)
  6
Continuous
 62
     7
100
AcDbLine
 10
151.5521654828
 20
180.9026758994
 30
0.0
 11
151.5882303025
 21
180.9436997413
 31
0.0
  0
LINE
  5
27C
330
24B
100
AcDbEntity
  8
$DDT_AUDIT_GENERATED_(6F)
  6
Continuous
 62
     7
100
AcDbLine
 10
151.5882303025
 20
180.9436997413
 30
0.0
 11
151.6265764914
 21
180.9823279008
 31
0.0
  0
LINE
  5
27D
330
24B
100
AcDbEntity
  8
$DDT_AUDIT_GENERATED_(6F)
  6
Continuous
 62
     7
100
AcDbLine
 10
151.6265764914
 20
180.9823279008
 30
0.0
 11
151.6679117084
 21
181.0189086759
 31
0.0
  0
LINE
  5
27E
330
24B
100
AcDbEntity
  8
$DDT_AUDIT_GENERATED_(6F)
  6
Continuous
 62
     7
100
AcDbLine
 10
151.6679117084
 20
181.0189086759
 30
0.0
 11
151.7129436125
 21
181.0537903643
 31
0.0
  0
LINE
  5
27F
330
24B
100
AcDbEntity
  8
$DDT_AUDIT_GENERATED_(6F)
  6
Continuous
 62
     7
100
AcDbLine
 10
151.7129436125
 20
181.0537903643
 30
0.0
 11
151.7623798625
 21
181.0873212639
 31
0.0
  0
LINE
  5
280
330
24B
100
AcDbEntity
  8
$DDT_AUDIT_GENERATED_(6F)
  6
Continuous
 62
     7
100
AcDbLine
 10
151.7623798625
 20
181.0873212639
 30
0.0
 11
151.8169281172
 21
181.1198496727
 31
0.0
  0
LINE
  5
281
330
24B
100
AcDbEntity
  8
$DDT_AUDIT_GENERATED_(6F)
  6
Continuous
 62
     7
100
AcDbLine
 10
151.8169281172
 20
181.1198496727
 30
0.0
 11
151.8817973811
 21
181.153827315
 31
0.0
  0
LINE
  5
282
330
24B
100
AcDbEntity
  8
$DDT_AUDIT_GENERATED_(6F)
  6
Continuous
 62
     7
100
AcDbLine
 10
151.8817973811
 20
181.153827315
 30
0.0
 11
151.9534292148
 21
181.1862921863
 31
0.0
  0
LINE
  5
283
330
24B
100
AcDbEntity
  8
$DDT_AUDIT_GENERATED_(6F)
  6
Continuous
 62
     7
100
AcDbLine
 10
151.9534292148
 20
181.1862921863
 30
0.0
 11
152.031889344
 21
181.2164843131
 31
0.0
  0
LINE
  5
284
330
24B
100
AcDbEntity
  8
$DDT_AUDIT_GENERATED_(6F)
  6
Continuous
 62
     7
100
AcDbLine
 10
152.031889344
 20
181.2164843131
 30
0.0
 11
152.117243494
 21
181.2436437221
 31
0.0
  0
LINE
  5
285
330
24B
100
AcDbEntity
  8
$DDT_AUDIT_GENERATED_(6F)
  6
Continuous
 62
     7
100
AcDbLine
 10
152.117243494
 20
181.2436437221
 30
0.0
 11
152.2095573906
 21
181.2670104397
 31
0.0
  0
LINE
  5
286
330
24B
100
AcDbEntity
  8
$DDT_AUDIT_GENERATED_(6F)
  6
Continuous
 62
     7
100
AcDbLine
 10
152.2095573906
 20
181.2670104397
 30
0.0
 11
152.3088967592
 21
181.2858244925
 31
0.0
  0
LINE
  5
287
330
24B
100
AcDbEntity
  8
$DDT_AUDIT_GENERATED_(6F)
  6
Continuous
 62
     7
100
AcDbLine
 10
152.3088967592
 20
181.2858244925
 30
0.0
 11
152.4153273254
 21
181.299325907
 31
0.0
  0
LINE
  5
288
330
24B
100
AcDbEntity
  8
$DDT_AUDIT_GENERATED_(6F)
  6
Continuous
 62
     7
100
AcDbLine
 10
152.4153273254
 20
181.299325907
 30
0.0
 11
152.5289148147
 21
181.3067547099
 31
0.0
  0
LINE
  5
289
330
24B
100
AcDbEntity
  8
$DDT_AUDIT_GENERATED_(6F)
  6
Continuous
 62
     7
100
AcDbLine
 10
152.5289148147
 20
181.3067547099
 30
0.0
 11
152.6497249527
 21
181.3073509275
 31
0.0
  0
LINE
  5
28A
330
24B
100
AcDbEntity
  8
$DDT_AUDIT_GENERATED_(6F)
  6
Continuous
 62
     7
100
AcDbLine
 10
152.6497249527
 20
181.3073509275
 30
0.0
 11
152.7721551446
 21
181.3043091898
 31
0.0
  0
LINE
  5
28B
330
24B
100
AcDbEntity
  8
$DDT_AUDIT_GENERATED_(6F)
  6
Continuous
 62
     7
100
AcDbLine
 10
152.7721551446
 20
181.3043091898
 30
0.0
 11
152.894817169
 21
181.295138198
 31
0.0
  0
LINE
  5
28C
330
24B
100
AcDbEntity
  8
$DDT_AUDIT_GENERATED_(6F)
  6
Continuous
 62
     7
100
AcDbLine
 10
152.894817169
 20
181.295138198
 30
0.0
 11
153.0172509667
 21
181.2798031861
 31
0.0
  0
LINE
  5
28D
330
24B
100
AcDbEntity
  8
$DDT_AUDIT_GENERATED_(6F)
  6
Continuous
 62
     7
100
AcDbLine
 10
153.0172509667
 20
181.2798031861
 30
0.0
 11
153.1389924105
 21
181.258315511
 31
0.0
  0
LINE
  5
28E
330
24B
100
AcDbEntity
  8
$DDT_AUDIT_GENERATED_(6F)
  6
Continuous
 62
     7
100
AcDbLine
 10
153.1389924105
 20
181.258315511
 30
0.0
 11
153.2595790972
 21
181.2307330891
 31
0.0
  0
LINE
  5
28F
330
24B
100
AcDbEntity
  8
$DDT_AUDIT_GENERATED_(6F)
  6
Continuous
 62
     7
100
AcDbLine
 10
153.2595790972
 20
181.2307330891
 30
0.0
 11
153.3785561725
 21
181.1971599619
 31
0.0
  0
LINE
  5
290
330
24B
100
AcDbEntity
  8
$DDT_AUDIT_GENERATED_(6F)
  6
Continuous
 62
     7
100
AcDbLine
 10
153.3785561725
 20
181.1971599619
 30
0.0
 11
153.4954820354
 21
181.1577449901
 31
0.0
  0
LINE
  5
291
330
24B
100
AcDbEntity
  8
$DDT_AUDIT_GENERATED_(6F)
  6
Continuous
 62
     7
100
AcDbLine
 10
153.4954820354
 20
181.1577449901
 30
0.0
 11
153.609933773
 21
181.1126797145
 31
0.0
  0
LINE
  5
292
330
24B
100
AcDbEntity
  8
$DDT_AUDIT_GENERATED_(6F)
  6
Continuous
 62
     7
100
AcDbLine
 10
153.609933773
 20
181.1126797145
 30
0.0
 11
153.7215121868
 21
181.0621954432
 31
0.0
  0
LINE
  5
293
330
24B
100
AcDbEntity
  8
$DDT_AUDIT_GENERATED_(6F)
  6
Continuous
 62
     7
100
AcDbLine
 10
153.7215121868
 20
181.0621954432
 30
0.0
 11
153.7215121868
 21
180.5795603565
 31
0.0
  0
LINE
  5
294
330
24B
100
AcDbEntity
  8
$DDT_AUDIT_GENERATED_(6F)
  6
Continuous
 62
     7
100
AcDbLine
 10
153.7215121868
 20
180.5795603565
 30
0.0
 11
153.6298502707
 21
180.635653933
 31
0.0
  0
LINE
  5
295
330
24B
100
AcDbEntity
  8
$DDT_AUDIT_GENERATED_(6F)
  6
Continuous
 62
     7
100
AcDbLine
 10
153.6298502707
 20
180.635653933
 30
0.0
 11
153.5340835902
 21
180.6861209121
 31
0.0
  0
LINE
  5
296
330
24B
100
AcDbEntity
  8
$DDT_AUDIT_GENERATED_(6F)
  6
Continuous
 62
     7
100
AcDbLine
 10
153.5340835902
 20
180.6861209121
 30
0.0
 11
153.4347401611
 21
180.7305351808
 31
0.0
  0
LINE
  5
297
330
24B
100
AcDbEntity
  8
$DDT_AUDIT_GENERATED_(6F)
  6
Continuous
 62
     7
100
AcDbLine
 10
153.4347401611
 20
180.7305351808
 30
0.0
 11
153.3324045158
 21
180.7685383746
 31
0.0
  0
LINE
  5
298
330
24B
100
AcDbEntity
  8
$DDT_AUDIT_GENERATED_(6F)
  6
Continuous
 62
     7
100
AcDbLine
 10
153.3324045158
 20
180.7685383746
 30
0.0
 11
153.2277065438
 21
180.7998488839
 31
0.0
  0
LINE
  5
299
330
24B
100
AcDbEntity
  8
$DDT_AUDIT_GENERATED_(6F)
  6
Continuous
 62
     7
100
AcDbLine
 10
153.2277065438
 20
180.7998488839
 30
0.0
 11
153.1213086848
 21
180.8242686022
 31
0.0
  0
LINE
  5
29A
330
24B
100
AcDbEntity
  8
$DDT_AUDIT_GENERATED_(6F)
  6
Continuous
 62
     7
100
AcDbLine
 10
153.1213086848
 20
180.8242686022
 30
0.0
 11
153.0138920169
 21
180.8416870874
 31
0.0
  0
LINE
  5
29B
330
24B
100
AcDbEntity
  8
$DDT_AUDIT_GENERATED_(6F)
  6
Continuous
 62
     7
100
AcDbLine
 10
153.0138920169
 20
180.8416870874
 30
0.0
 11
152.906141847
 21
180.8520829513
 31
0.0
  0
LINE
  5
29C
330
24B
100
AcDbEntity
  8
$DDT_AUDIT_GENERATED_(6F)
  6
Continuous
 62
     7
100
AcDbLine
 10
152.906141847
 20
180.8520829513
 30
0.0
 11
152.7987334397
 21
180.8555224594
 31
0.0
  0
LINE
  5
29D
330
24B
100
AcDbEntity
  8
$DDT_AUDIT_GENERATED_(6F)
  6
Continuous
 62
     7
100
AcDbLine
 10
152.7987334397
 20
180.8555224594
 30
0.0
 11
152.7230621295
 21
180.8551335779
 31
0.0
  0
LINE
  5
29E
330
24B
100
AcDbEntity
  8
$DDT_AUDIT_GENERATED_(6F)
  6
Continuous
 62
     7
100
AcDbLine
 10
152.7230621295
 20
180.8551335779
 30
0.0
 11
152.6519148376
 21
180.8502881609
 31
0.0
  0
LINE
  5
29F
330
24B
100
AcDbEntity
  8
$DDT_AUDIT_GENERATED_(6F)
  6
Continuous
 62
     7
100
AcDbLine
 10
152.6519148376
 20
180.8502881609
 30
0.0
 11
152.585250396
 21
180.8414818989
 31
0.0
  0
LINE
  5
2A0
330
24B
100
AcDbEntity
  8
$DDT_AUDIT_GENERATED_(6F)
  6
Continuous
 62
     7
100
AcDbLine
 10
152.585250396
 20
180.8414818989
 30
0.0
 11
152.5230276363
 21
180.8292104826
 31
0.0
  0
LINE
  5
2A1
330
24B
100
AcDbEntity
  8
$DDT_AUDIT_GENERATED_(6F)
  6
Continuous
 62
     7
100
AcDbLine
 10
152.5230276363
 20
180.8292104826
 30
0.0
 11
152.4652053904
 21
180.8139696027
 31
0.0
  0
LINE
  5
2A2
330
24B
100
AcDbEntity
  8
$DDT_AUDIT_GENERATED_(6F)
  6
Continuous
 62
     7
100
AcDbLine
 10
152.4652053904
 20
180.8139696027
 30
0.0
 11
152.41174249
 21
180.7962549499
 31
0.0
  0
LINE
  5
2A3
330
24B
100
AcDbEntity
  8
$DDT_AUDIT_GENERATED_(6F)
  6
Continuous
 62
     7
100
AcDbLine
 10
152.41174249
 20
180.7962549499
 30
0.0
 11
152.3625977669
 21
180.7765622149
 31
0.0
  0
LINE
  5
2A4
330
24B
100
AcDbEntity
  8
$DDT_AUDIT_GENERATED_(6F)
  6
Continuous
 62
     7
100
AcDbLine
 10
152.3625977669
 20
180.7765622149
 30
0.0
 11
152.317730053
 21
180.7553870883
 31
0.0
  0
LINE
  5
2A5
330
24B
100
AcDbEntity
  8
$DDT_AUDIT_GENERATED_(6F)
  6
Continuous
 62
     7
100
AcDbLine
 10
152.317730053
 20
180.7553870883
 30
0.0
 11
152.2770981799
 21
180.7332252608
 31
0.0
  0
LINE
  5
2A6
330
24B
100
AcDbEntity
  8
$DDT_AUDIT_GENERATED_(6F)
  6
Continuous
 62
     7
100
AcDbLine
 10
152.2770981799
 20
180.7332252608
 30
0.0
 11
152.2270759046
 21
180.7011694042
 31
0.0
  0
LINE
  5
2A7
330
24B
100
AcDbEntity
  8
$DDT_AUDIT_GENERATED_(6F)
  6
Continuous
 62
     7
100
AcDbLine
 10
152.2270759046
 20
180.7011694042
 30
0.0
 11
152.1837594329
 21
180.6673867621
 31
0.0
  0
LINE
  5
2A8
330
24B
100
AcDbEntity
  8
$DDT_AUDIT_GENERATED_(6F)
  6
Continuous
 62
     7
100
AcDbLine
 10
152.1837594329
 20
180.6673867621
 30
0.0
 11
152.1456527855
 21
180.6311106142
 31
0.0
  0
LINE
  5
2A9
330
24B
100
AcDbEntity
  8
$DDT_AUDIT_GENERATED_(6F)
  6
Continuous
 62
     7
100
AcDbLine
 10
152.1456527855
 20
180.6311106142
 30
0.0
 11
152.1112599829
 21
180.5915742404
 31
0.0
  0
LINE
  5
2AA
330
24B
100
AcDbEntity
  8
$DDT_AUDIT_GENERATED_(6F)
  6
Continuous
 62
     7
100
AcDbLine
 10
152.1112599829
 20
180.5915742404
 30
0.0
 11
152.0790850458
 21
180.5480109203
 31
0.0
  0
LINE
  5
2AB
330
24B
100
AcDbEntity
  8
$DDT_AUDIT_GENERATED_(6F)
  6
Continuous
 62
     7
100
AcDbLine
 10
152.0790850458
 20
180.5480109203
 30
0.0
 11
152.0476319947
 21
180.4996539337
 31
0.0
  0
LINE
  5
2AC
330
24B
100
AcDbEntity
  8
$DDT_AUDIT_GENERATED_(6F)
  6
Continuous
 62
     7
100
AcDbLine
 10
152.0476319947
 20
180.4996539337
 30
0.0
 11
152.0150964508
 21
180.4439570215
 31
0.0
  0
LINE
  5
2AD
330
24B
100
AcDbEntity
  8
$DDT_AUDIT_GENERATED_(6F)
  6
Continuous
 62
     7
100
AcDbLine
 10
152.0150964508
 20
180.4439570215
 30
0.0
 11
151.9838099193
 21
180.3804130029
 31
0.0
  0
LINE
  5
2AE
330
24B
100
AcDbEntity
  8
$DDT_AUDIT_GENERATED_(6F)
  6
Continuous
 62
     7
100
AcDbLine
 10
151.9838099193
 20
180.3804130029
 30
0.0
 11
151.9646667938
 21
180.3327167453
 31
0.0
  0
LINE
  5
2AF
330
24B
100
AcDbEntity
  8
$DDT_AUDIT_GENERATED_(6F)
  6
Continuous
 62
     7
100
AcDbLine
 10
151.9646667938
 20
180.3327167453
 30
0.0
 11
151.9476097846
 21
180.2800717724
 31
0.0
  0
LINE
  5
2B0
330
24B
100
AcDbEntity
  8
$DDT_AUDIT_GENERATED_(6F)
  6
Continuous
 62
     7
100
AcDbLine
 10
151.9476097846
 20
180.2800717724
 30
0.0
 11
151.9332512918
 21
180.2218936393
 31
0.0
  0
LINE
  5
2B1
330
24B
100
AcDbEntity
  8
$DDT_AUDIT_GENERATED_(6F)
  6
Continuous
 62
     7
100
AcDbLine
 10
151.9332512918
 20
180.2218936393
 30
0.0
 11
151.9222037152
 21
180.1575979008
 31
0.0
  0
LINE
  5
2B2
330
24B
100
AcDbEntity
  8
$DDT_AUDIT_GENERATED_(6F)
  6
Continuous
 62
     7
100
AcDbLine
 10
151.9222037152
 20
180.1575979008
 30
0.0
 11
151.9150794546
 21
180.0866001122
 31
0.0
  0
LINE
  5
2B3
330
24B
100
AcDbEntity
  8
$DDT_AUDIT_GENERATED_(6F)
  6
Continuous
 62
     7
100
AcDbLine
 10
151.9150794546
 20
180.0866001122
 30
0.0
 11
151.9124909102
 21
180.0083158284
 31
0.0
  0
LINE
  5
2B4
330
24B
100
AcDbEntity
  8
$DDT_AUDIT_GENERATED_(6F)
  6
Continuous
 62
     7
100
AcDbLine
 10
151.9124909102
 20
180.0083158284
 30
0.0
 11
151.9145030141
 21
179.9300315445
 31
0.0
  0
LINE
  5
2B5
330
24B
100
AcDbEntity
  8
$DDT_AUDIT_GENERATED_(6F)
  6
Continuous
 62
     7
100
AcDbLine
 10
151.9145030141
 20
179.9300315445
 30
0.0
 11
151.9200407796
 21
179.8590337559
 31
0.0
  0
LINE
  5
2B6
330
24B
100
AcDbEntity
  8
$DDT_AUDIT_GENERATED_(6F)
  6
Continuous
 62
     7
100
AcDbLine
 10
151.9200407796
 20
179.8590337559
 30
0.0
 11
151.9286281816
 21
179.7947380175
 31
0.0
  0
LINE
  5
2B7
330
24B
100
AcDbEntity
  8
$DDT_AUDIT_GENERATED_(6F)
  6
Continuous
 62
     7
100
AcDbLine
 10
151.9286281816
 20
179.7947380175
 30
0.0
 11
151.939789195
 21
179.7365598843
 31
0.0
  0
LINE
  5
2B8
330
24B
100
AcDbEntity
  8
$DDT_AUDIT_GENERATED_(6F)
  6
Continuous
 62
     7
100
AcDbLine
 10
151.939789195
 20
179.7365598843
 30
0.0
 11
151.9530477945
 21
179.6839149114
 31
0.0
  0
LINE
  5
2B9
330
24B
100
AcDbEntity
  8
$DDT_AUDIT_GENERATED_(6F)
  6
Continuous
 62
     7
100
AcDbLine
 10
151.9530477945
 20
179.6839149114
 30
0.0
 11
151.967927955
 21
179.6362186538
 31
0.0
  0
LINE
  5
2BA
330
24B
100
AcDbEntity
  8
$DDT_AUDIT_GENERATED_(6F)
  6
Continuous
 62
     7
100
AcDbLine
 10
151.967927955
 20
179.6362186538
 30
0.0
 11
151.9922473178
 21
179.5726746352
 31
0.0
  0
LINE
  5
2BB
330
24B
100
AcDbEntity
  8
$DDT_AUDIT_GENERATED_(6F)
  6
Continuous
 62
     7
100
AcDbLine
 10
151.9922473178
 20
179.5726746352
 30
0.0
 11
152.0175375515
 21
179.5169777231
 31
0.0
  0
LINE
  5
2BC
330
24B
100
AcDbEntity
  8
$DDT_AUDIT_GENERATED_(6F)
  6
Continuous
 62
     7
100
AcDbLine
 10
152.0175375515
 20
179.5169777231
 30
0.0
 11
152.0419863517
 21
179.4686207364
 31
0.0
  0
LINE
  5
2BD
330
24B
100
AcDbEntity
  8
$DDT_AUDIT_GENERATED_(6F)
  6
Continuous
 62
     7
100
AcDbLine
 10
152.0419863517
 20
179.4686207364
 30
0.0
 11
152.0669962819
 21
179.4250574163
 31
0.0
  0
LINE
  5
2BE
330
24B
100
AcDbEntity
  8
$DDT_AUDIT_GENERATED_(6F)
  6
Continuous
 62
     7
100
AcDbLine
 10
152.0669962819
 20
179.4250574163
 30
0.0
 11
152.093730183
 21
179.3855210425
 31
0.0
  0
LINE
  5
2BF
330
24B
100
AcDbEntity
  8
$DDT_AUDIT_GENERATED_(6F)
  6
Continuous
 62
     7
100
AcDbLine
 10
152.093730183
 20
179.3855210425
 30
0.0
 11
152.1233508963
 21
179.3492448947
 31
0.0
  0
LINE
  5
2C0
330
24B
100
AcDbEntity
  8
$DDT_AUDIT_GENERATED_(6F)
  6
Continuous
 62
     7
100
AcDbLine
 10
152.1233508963
 20
179.3492448947
 30
0.0
 11
152.1570212629
 21
179.3154622526
 31
0.0
  0
LINE
  5
2C1
330
24B
100
AcDbEntity
  8
$DDT_AUDIT_GENERATED_(6F)
  6
Continuous
 62
     7
100
AcDbLine
 10
152.1570212629
 20
179.3154622526
 30
0.0
 11
152.195904124
 21
179.2834063959
 31
0.0
  0
LINE
  5
2C2
330
24B
100
AcDbEntity
  8
$DDT_AUDIT_GENERATED_(6F)
  6
Continuous
 62
     7
100
AcDbLine
 10
152.195904124
 20
179.2834063959
 30
0.0
 11
152.2445122342
 21
179.2505026875
 31
0.0
  0
LINE
  5
2C3
330
24B
100
AcDbEntity
  8
$DDT_AUDIT_GENERATED_(6F)
  6
Continuous
 62
     7
100
AcDbLine
 10
152.2445122342
 20
179.2505026875
 30
0.0
 11
152.3005646172
 21
179.220376712
 31
0.0
  0
LINE
  5
2C4
330
24B
100
AcDbEntity
  8
$DDT_AUDIT_GENERATED_(6F)
  6
Continuous
 62
     7
100
AcDbLine
 10
152.3005646172
 20
179.220376712
 30
0.0
 11
152.3421219137
 21
179.2026620663
 31
0.0
  0
LINE
  5
2C5
330
24B
100
AcDbEntity
  8
$DDT_AUDIT_GENERATED_(6F)
  6
Continuous
 62
     7
100
AcDbLine
 10
152.3421219137
 20
179.2026620663
 30
0.0
 11
152.3870677771
 21
179.1874211981
 31
0.0
  0
LINE
  5
2C6
330
24B
100
AcDbEntity
  8
$DDT_AUDIT_GENERATED_(6F)
  6
Continuous
 62
     7
100
AcDbLine
 10
152.3870677771
 20
179.1874211981
 30
0.0
 11
152.435434208
 21
179.1751497992
 31
0.0
  0
LINE
  5
2C7
330
24B
100
AcDbEntity
  8
$DDT_AUDIT_GENERATED_(6F)
  6
Continuous
 62
     7
100
AcDbLine
 10
152.435434208
 20
179.1751497992
 30
0.0
 11
152.4872532068
 21
179.1663435615
 31
0.0
  0
LINE
  5
2C8
330
24B
100
AcDbEntity
  8
$DDT_AUDIT_GENERATED_(6F)
  6
Continuous
 62
     7
100
AcDbLine
 10
152.4872532068
 20
179.1663435615
 30
0.0
 11
152.542556774
 21
179.1614981768
 31
0.0
  0
LINE
  5
2C9
330
24B
100
AcDbEntity
  8
$DDT_AUDIT_GENERATED_(6F)
  6
Continuous
 62
     7
100
AcDbLine
 10
152.542556774
 20
179.1614981768
 30
0.0
 11
152.6013769101
 21
179.161109337
 31
0.0
  0
LINE
  5
2CA
330
24B
100
AcDbEntity
  8
$DDT_AUDIT_GENERATED_(6F)
  6
Continuous
 62
     7
100
AcDbLine
 10
152.6013769101
 20
179.161109337
 30
0.0
 11
152.6639327259
 21
179.1626538402
 31
0.0
  0
LINE
  5
2CB
330
24B
100
AcDbEntity
  8
$DDT_AUDIT_GENERATED_(6F)
  6
Continuous
 62
     7
100
AcDbLine
 10
152.6639327259
 20
179.1626538402
 30
0.0
 11
152.7266116351
 21
179.1673708843
 31
0.0
  0
LINE
  5
2CC
330
24B
100
AcDbEntity
  8
$DDT_AUDIT_GENERATED_(6F)
  6
Continuous
 62
     7
100
AcDbLine
 10
152.7266116351
 20
179.1673708843
 30
0.0
 11
152.7891724065
 21
179.1752790548
 31
0.0
  0
LINE
  5
2CD
330
24B
100
AcDbEntity
  8
$DDT_AUDIT_GENERATED_(6F)
  6
Continuous
 62
     7
100
AcDbLine
 10
152.7891724065
 20
179.1752790548
 30
0.0
 11
152.8513716075
 21
179.1863724363
 31
0.0
  0
LINE
  5
2CE
330
24B
100
AcDbEntity
  8
$DDT_AUDIT_GENERATED_(6F)
  6
Continuous
 62
     7
100
AcDbLine
 10
152.8513716075
 20
179.1863724363
 30
0.0
 11
152.9129667218
 21
179.2006203728
 31
0.0
  0
LINE
  5
2CF
330
24B
100
AcDbEntity
  8
$DDT_AUDIT_GENERATED_(6F)
  6
Continuous
 62
     7
100
AcDbLine
 10
152.9129667218
 20
179.2006203728
 30
0.0
 11
152.9737192842
 21
179.2179677037
 31
0.0
  0
LINE
  5
2D0
330
24B
100
AcDbEntity
  8
$DDT_AUDIT_GENERATED_(6F)
  6
Continuous
 62
     7
100
AcDbLine
 10
152.9737192842
 20
179.2179677037
 30
0.0
 11
153.0333979507
 21
179.2383354734
 31
0.0
  0
LINE
  5
2D1
330
24B
100
AcDbEntity
  8
$DDT_AUDIT_GENERATED_(6F)
  6
Continuous
 62
     7
100
AcDbLine
 10
153.0333979507
 20
179.2383354734
 30
0.0
 11
153.0917814188
 21
179.2616220964
 31
0.0
  0
LINE
  5
2D2
330
24B
100
AcDbEntity
  8
$DDT_AUDIT_GENERATED_(6F)
  6
Continuous
 62
     7
100
AcDbLine
 10
153.0917814188
 20
179.2616220964
 30
0.0
 11
153.1486611229
 21
179.2877049421
 31
0.0
  0
LINE
  5
2D3
330
24B
100
AcDbEntity
  8
$DDT_AUDIT_GENERATED_(6F)
  6
Continuous
 62
     7
100
AcDbLine
 10
153.1486611229
 20
179.2877049421
 30
0.0
 11
153.1486611229
 21
180.0083158284
 31
0.0
  0
LINE
  5
2D4
330
24B
100
AcDbEntity
  8
$DDT_AUDIT_GENERATED_(6F)
  6
Continuous
 62
     7
100
AcDbLine
 10
153.1486611229
 20
180.0083158284
 30
0.0
 11
153.8039802719
 21
180.0083158284
 31
0.0
  0
LINE
  5
2D5
330
24B
100
AcDbEntity
  8
$DDT_AUDIT_GENERATED_(6F)
  6
Continuous
 62
     7
100
AcDbLine
 10
153.8039802719
 20
180.0083158284
 30
0.0
 11
153.8039802719
 21
179.0029966794
 31
0.0
  0
LINE
  5
2D6
330
24B
100
AcDbEntity
  8
$DDT_AUDIT_GENERATED_(6F)
  6
Continuous
 62
     7
100
AcDbLine
 10
153.8039802719
 20
179.0029966794
 30
0.0
 11
153.6856825337
 21
178.9427770391
 31
0.0
  0
LINE
  5
2D7
330
24B
100
AcDbEntity
  8
$DDT_AUDIT_GENERATED_(6F)
  6
Continuous
 62
     7
100
AcDbLine
 10
153.6856825337
 20
178.9427770391
 30
0.0
 11
153.563593168
 21
178.8888781128
 31
0.0
  0
LINE
  5
2D8
330
24B
100
AcDbEntity
  8
$DDT_AUDIT_GENERATED_(6F)
  6
Continuous
 62
     7
100
AcDbLine
 10
153.563593168
 20
178.8888781128
 30
0.0
 11
153.4382257865
 21
178.8416379075
 31
0.0
  0
LINE
  5
2D9
330
24B
100
AcDbEntity
  8
$DDT_AUDIT_GENERATED_(6F)
  6
Continuous
 62
     7
100
AcDbLine
 10
153.4382257865
 20
178.8416379075
 30
0.0
 11
153.310132416
 21
178.8013377892
 31
0.0
  0
LINE
  5
2DA
330
24B
100
AcDbEntity
  8
$DDT_AUDIT_GENERATED_(6F)
  6
Continuous
 62
     7
100
AcDbLine
 10
153.310132416
 20
178.8013377892
 30
0.0
 11
153.1798955447
 21
178.7681972476
 31
0.0
  0
LINE
  5
2DB
330
24B
100
AcDbEntity
  8
$DDT_AUDIT_GENERATED_(6F)
  6
Continuous
 62
     7
100
AcDbLine
 10
153.1798955447
 20
178.7681972476
 30
0.0
 11
153.0481193496
 21
178.7423700238
 31
0.0
  0
LINE
  5
2DC
330
24B
100
AcDbEntity
  8
$DDT_AUDIT_GENERATED_(6F)
  6
Continuous
 62
     7
100
AcDbLine
 10
153.0481193496
 20
178.7423700238
 30
0.0
 11
152.9154203831
 21
178.7239417401
 31
0.0
  0
LINE
  5
2DD
330
24B
100
AcDbEntity
  8
$DDT_AUDIT_GENERATED_(6F)
  6
Continuous
 62
     7
100
AcDbLine
 10
152.9154203831
 20
178.7239417401
 30
0.0
 11
152.7824180168
 21
178.712929109
 31
0.0
  0
LINE
  5
2DE
330
24B
100
AcDbEntity
  8
$DDT_AUDIT_GENERATED_(6F)
  6
Continuous
 62
     7
100
AcDbLine
 10
152.7824180168
 20
178.712929109
 30
0.0
 11
152.6497249527
 21
178.7092807292
 31
0.0
  0
LINE
  5
2DF
330
24B
100
AcDbEntity
  8
$DDT_AUDIT_GENERATED_(6F)
  6
Continuous
 62
     7
100
AcDbLine
 10
152.6497249527
 20
178.7092807292
 30
0.0
 11
152.5289148147
 21
178.7098769469
 31
0.0
  0
LINE
  5
2E0
330
24B
100
AcDbEntity
  8
$DDT_AUDIT_GENERATED_(6F)
  6
Continuous
 62
     7
100
AcDbLine
 10
152.5289148147
 20
178.7098769469
 30
0.0
 11
152.4153273254
 21
178.7173057497
 31
0.0
  0
LINE
  5
2E1
330
24B
100
AcDbEntity
  8
$DDT_AUDIT_GENERATED_(6F)
  6
Continuous
 62
     7
100
AcDbLine
 10
152.4153273254
 20
178.7173057497
 30
0.0
 11
152.3088967592
 21
178.7308071643
 31
0.0
  0
LINE
  5
2E2
330
24B
100
AcDbEntity
  8
$DDT_AUDIT_GENERATED_(6F)
  6
Continuous
 62
     7
100
AcDbLine
 10
152.3088967592
 20
178.7308071643
 30
0.0
 11
152.2095573906
 21
178.7496212171
 31
0.0
  0
LINE
  5
2E3
330
24B
100
AcDbEntity
  8
$DDT_AUDIT_GENERATED_(6F)
  6
Continuous
 62
     7
100
AcDbLine
 10
152.2095573906
 20
178.7496212171
 30
0.0
 11
152.117243494
 21
178.7729879347
 31
0.0
  0
LINE
  5
2E4
330
24B
100
AcDbEntity
  8
$DDT_AUDIT_GENERATED_(6F)
  6
Continuous
 62
     7
100
AcDbLine
 10
152.117243494
 20
178.7729879347
 30
0.0
 11
152.031889344
 21
178.8001473436
 31
0.0
  0
LINE
  5
2E5
330
24B
100
AcDbEntity
  8
$DDT_AUDIT_GENERATED_(6F)
  6
Continuous
 62
     7
100
AcDbLine
 10
152.031889344
 20
178.8001473436
 30
0.0
 11
151.9534292148
 21
178.8303394705
 31
0.0
  0
LINE
  5
2E6
330
24B
100
AcDbEntity
  8
$DDT_AUDIT_GENERATED_(6F)
  6
Continuous
 62
     7
100
AcDbLine
 10
151.9534292148
 20
178.8303394705
 30
0.0
 11
151.8817973811
 21
178.8628043417
 31
0.0
  0
LINE
  5
2E7
330
24B
100
AcDbEntity
  8
$DDT_AUDIT_GENERATED_(6F)
  6
Continuous
 62
     7
100
AcDbLine
 10
151.8817973811
 20
178.8628043417
 30
0.0
 11
151.8169281172
 21
178.896781984
 31
0.0
  0
LINE
  5
2E8
330
24B
100
AcDbEntity
  8
$DDT_AUDIT_GENERATED_(6F)
  6
Continuous
 62
     7
100
AcDbLine
 10
151.8169281172
 20
178.896781984
 30
0.0
 11
151.7623798625
 21
178.9293103928
 31
0.0
  0
LINE
  5
2E9
330
24B
100
AcDbEntity
  8
$DDT_AUDIT_GENERATED_(6F)
  6
Continuous
 62
     7
100
AcDbLine
 10
151.7623798625
 20
178.9293103928
 30
0.0
 11
151.7129436125
 21
178.9628412925
 31
0.0
  0
LINE
  5
2EA
330
24B
100
AcDbEntity
  8
$DDT_AUDIT_GENERATED_(6F)
  6
Continuous
 62
     7
100
AcDbLine
 10
151.7129436125
 20
178.9628412925
 30
0.0
 11
151.6679117084
 21
178.9977229809
 31
0.0
  0
LINE
  5
2EB
330
24B
100
AcDbEntity
  8
$DDT_AUDIT_GENERATED_(6F)
  6
Continuous
 62
     7
100
AcDbLine
 10
151.6679117084
 20
178.9977229809
 30
0.0
 11
151.6265764914
 21
179.0343037559
 31
0.0
  0
LINE
  5
2EC
330
24B
100
AcDbEntity
  8
$DDT_AUDIT_GENERATED_(6F)
  6
Continuous
 62
     7
100
AcDbLine
 10
151.6265764914
 20
179.0343037559
 30
0.0
 11
151.5882303025
 21
179.0729319154
 31
0.0
  0
LINE
  5
2ED
330
24B
100
AcDbEntity
  8
$DDT_AUDIT_GENERATED_(6F)
  6
Continuous
 62
     7
100
AcDbLine
 10
151.5882303025
 20
179.0729319154
 30
0.0
 11
151.5521654828
 21
179.1139557573
 31
0.0
  0
LINE
  5
2EE
330
24B
100
AcDbEntity
  8
$DDT_AUDIT_GENERATED_(6F)
  6
Continuous
 62
     7
100
AcDbLine
 10
155.5264930423
 20
181.2353096934
 30
0.0
 11
155.6029111078
 21
181.2349568797
 31
0.0
  0
LINE
  5
2EF
330
24B
100
AcDbEntity
  8
$DDT_AUDIT_GENERATED_(6F)
  6
Continuous
 62
     7
100
AcDbLine
 10
155.6029111078
 20
181.2349568797
 30
0.0
 11
155.67476051
 21
181.2305608617
 31
0.0
  0
LINE
  5
2F0
330
24B
100
AcDbEntity
  8
$DDT_AUDIT_GENERATED_(6F)
  6
Continuous
 62
     7
100
AcDbLine
 10
155.67476051
 20
181.2305608617
 30
0.0
 11
155.7420828234
 21
181.2225713563
 31
0.0
  0
LINE
  5
2F1
330
24B
100
AcDbEntity
  8
$DDT_AUDIT_GENERATED_(6F)
  6
Continuous
 62
     7
100
AcDbLine
 10
155.7420828234
 20
181.2225713563
 30
0.0
 11
155.8049196225
 21
181.2114380802
 31
0.0
  0
LINE
  5
2F2
330
24B
100
AcDbEntity
  8
$DDT_AUDIT_GENERATED_(6F)
  6
Continuous
 62
     7
100
AcDbLine
 10
155.8049196225
 20
181.2114380802
 30
0.0
 11
155.8633124818
 21
181.1976107501
 31
0.0
  0
LINE
  5
2F3
330
24B
100
AcDbEntity
  8
$DDT_AUDIT_GENERATED_(6F)
  6
Continuous
 62
     7
100
AcDbLine
 10
155.8633124818
 20
181.1976107501
 30
0.0
 11
155.9173029758
 21
181.1815390827
 31
0.0
  0
LINE
  5
2F4
330
24B
100
AcDbEntity
  8
$DDT_AUDIT_GENERATED_(6F)
  6
Continuous
 62
     7
100
AcDbLine
 10
155.9173029758
 20
181.1815390827
 30
0.0
 11
155.9901252259
 21
181.1542072045
 31
0.0
  0
LINE
  5
2F5
330
24B
100
AcDbEntity
  8
$DDT_AUDIT_GENERATED_(6F)
  6
Continuous
 62
     7
100
AcDbLine
 10
155.9901252259
 20
181.1542072045
 30
0.0
 11
156.0532760105
 21
181.1243552241
 31
0.0
  0
LINE
  5
2F6
330
24B
100
AcDbEntity
  8
$DDT_AUDIT_GENERATED_(6F)
  6
Continuous
 62
     7
100
AcDbLine
 10
156.0532760105
 20
181.1243552241
 30
0.0
 11
156.1037919259
 21
181.09527246
 31
0.0
  0
LINE
  5
2F7
330
24B
100
AcDbEntity
  8
$DDT_AUDIT_GENERATED_(6F)
  6
Continuous
 62
     7
100
AcDbLine
 10
156.1037919259
 20
181.09527246
 30
0.0
 11
156.1475358621
 21
181.0646230652
 31
0.0
  0
LINE
  5
2F8
330
24B
100
AcDbEntity
  8
$DDT_AUDIT_GENERATED_(6F)
  6
Continuous
 62
     7
100
AcDbLine
 10
156.1475358621
 20
181.0646230652
 30
0.0
 11
156.1860185614
 21
181.0317114304
 31
0.0
  0
LINE
  5
2F9
330
24B
100
AcDbEntity
  8
$DDT_AUDIT_GENERATED_(6F)
  6
Continuous
 62
     7
100
AcDbLine
 10
156.1860185614
 20
181.0317114304
 30
0.0
 11
156.2207507661
 21
180.9958419466
 31
0.0
  0
LINE
  5
2FA
330
24B
100
AcDbEntity
  8
$DDT_AUDIT_GENERATED_(6F)
  6
Continuous
 62
     7
100
AcDbLine
 10
156.2207507661
 20
180.9958419466
 30
0.0
 11
156.2532432185
 21
180.9563190048
 31
0.0
  0
LINE
  5
2FB
330
24B
100
AcDbEntity
  8
$DDT_AUDIT_GENERATED_(6F)
  6
Continuous
 62
     7
100
AcDbLine
 10
156.2532432185
 20
180.9563190048
 30
0.0
 11
156.2850066611
 21
180.9124469958
 31
0.0
  0
LINE
  5
2FC
330
24B
100
AcDbEntity
  8
$DDT_AUDIT_GENERATED_(6F)
  6
Continuous
 62
     7
100
AcDbLine
 10
156.2850066611
 20
180.9124469958
 30
0.0
 11
156.3178632789
 21
180.8619158192
 31
0.0
  0
LINE
  5
2FD
330
24B
100
AcDbEntity
  8
$DDT_AUDIT_GENERATED_(6F)
  6
Continuous
 62
     7
100
AcDbLine
 10
156.3178632789
 20
180.8619158192
 30
0.0
 11
156.3494585587
 21
180.8042653338
 31
0.0
  0
LINE
  5
2FE
330
24B
100
AcDbEntity
  8
$DDT_AUDIT_GENERATED_(6F)
  6
Continuous
 62
     7
100
AcDbLine
 10
156.3494585587
 20
180.8042653338
 30
0.0
 11
156.3687905963
 21
180.7609927731
 31
0.0
  0
LINE
  5
2FF
330
24B
100
AcDbEntity
  8
$DDT_AUDIT_GENERATED_(6F)
  6
Continuous
 62
     7
100
AcDbLine
 10
156.3687905963
 20
180.7609927731
 30
0.0
 11
156.3860159309
 21
180.7132304768
 31
0.0
  0
LINE
  5
300
330
24B
100
AcDbEntity
  8
$DDT_AUDIT_GENERATED_(6F)
  6
Continuous
 62
     7
100
AcDbLine
 10
156.3860159309
 20
180.7132304768
 30
0.0
 11
156.4005161191
 21
180.6604482056
 31
0.0
  0
LINE
  5
301
330
24B
100
AcDbEntity
  8
$DDT_AUDIT_GENERATED_(6F)
  6
Continuous
 62
     7
100
AcDbLine
 10
156.4005161191
 20
180.6604482056
 30
0.0
 11
156.4116727178
 21
180.6021157203
 31
0.0
  0
LINE
  5
302
330
24B
100
AcDbEntity
  8
$DDT_AUDIT_GENERATED_(6F)
  6
Continuous
 62
     7
100
AcDbLine
 10
156.4116727178
 20
180.6021157203
 30
0.0
 11
156.4188672834
 21
180.5377027815
 31
0.0
  0
LINE
  5
303
330
24B
100
AcDbEntity
  8
$DDT_AUDIT_GENERATED_(6F)
  6
Continuous
 62
     7
100
AcDbLine
 10
156.4188672834
 20
180.5377027815
 30
0.0
 11
156.4214813727
 21
180.4666791499
 31
0.0
  0
LINE
  5
304
330
24B
100
AcDbEntity
  8
$DDT_AUDIT_GENERATED_(6F)
  6
Continuous
 62
     7
100
AcDbLine
 10
156.4214813727
 20
180.4666791499
 30
0.0
 11
156.4188672834
 21
180.3956555184
 31
0.0
  0
LINE
  5
305
330
24B
100
AcDbEntity
  8
$DDT_AUDIT_GENERATED_(6F)
  6
Continuous
 62
     7
100
AcDbLine
 10
156.4188672834
 20
180.3956555184
 30
0.0
 11
156.4116727178
 21
180.3312425796
 31
0.0
  0
LINE
  5
306
330
24B
100
AcDbEntity
  8
$DDT_AUDIT_GENERATED_(6F)
  6
Continuous
 62
     7
100
AcDbLine
 10
156.4116727178
 20
180.3312425796
 30
0.0
 11
156.4005161191
 21
180.2729100943
 31
0.0
  0
LINE
  5
307
330
24B
100
AcDbEntity
  8
$DDT_AUDIT_GENERATED_(6F)
  6
Continuous
 62
     7
100
AcDbLine
 10
156.4005161191
 20
180.2729100943
 30
0.0
 11
156.3860159309
 21
180.2201278231
 31
0.0
  0
LINE
  5
308
330
24B
100
AcDbEntity
  8
$DDT_AUDIT_GENERATED_(6F)
  6
Continuous
 62
     7
100
AcDbLine
 10
156.3860159309
 20
180.2201278231
 30
0.0
 11
156.3687905963
 21
180.1723655268
 31
0.0
  0
LINE
  5
309
330
24B
100
AcDbEntity
  8
$DDT_AUDIT_GENERATED_(6F)
  6
Continuous
 62
     7
100
AcDbLine
 10
156.3687905963
 20
180.1723655268
 30
0.0
 11
156.3494585587
 21
180.1290929661
 31
0.0
  0
LINE
  5
30A
330
24B
100
AcDbEntity
  8
$DDT_AUDIT_GENERATED_(6F)
  6
Continuous
 62
     7
100
AcDbLine
 10
156.3494585587
 20
180.1290929661
 30
0.0
 11
156.3178632789
 21
180.0714424807
 31
0.0
  0
LINE
  5
30B
330
24B
100
AcDbEntity
  8
$DDT_AUDIT_GENERATED_(6F)
  6
Continuous
 62
     7
100
AcDbLine
 10
156.3178632789
 20
180.0714424807
 30
0.0
 11
156.2850066611
 21
180.0209113041
 31
0.0
  0
LINE
  5
30C
330
24B
100
AcDbEntity
  8
$DDT_AUDIT_GENERATED_(6F)
  6
Continuous
 62
     7
100
AcDbLine
 10
156.2850066611
 20
180.0209113041
 30
0.0
 11
156.2532432185
 21
179.9770392951
 31
0.0
  0
LINE
  5
30D
330
24B
100
AcDbEntity
  8
$DDT_AUDIT_GENERATED_(6F)
  6
Continuous
 62
     7
100
AcDbLine
 10
156.2532432185
 20
179.9770392951
 30
0.0
 11
156.2207507661
 21
179.9375163533
 31
0.0
  0
LINE
  5
30E
330
24B
100
AcDbEntity
  8
$DDT_AUDIT_GENERATED_(6F)
  6
Continuous
 62
     7
100
AcDbLine
 10
156.2207507661
 20
179.9375163533
 30
0.0
 11
156.1860185614
 21
179.9016468695
 31
0.0
  0
LINE
  5
30F
330
24B
100
AcDbEntity
  8
$DDT_AUDIT_GENERATED_(6F)
  6
Continuous
 62
     7
100
AcDbLine
 10
156.1860185614
 20
179.9016468695
 30
0.0
 11
156.1475358621
 21
179.8687352347
 31
0.0
  0
LINE
  5
310
330
24B
100
AcDbEntity
  8
$DDT_AUDIT_GENERATED_(6F)
  6
Continuous
 62
     7
100
AcDbLine
 10
156.1475358621
 20
179.8687352347
 30
0.0
 11
156.1037919259
 21
179.8380858399
 31
0.0
  0
LINE
  5
311
330
24B
100
AcDbEntity
  8
$DDT_AUDIT_GENERATED_(6F)
  6
Continuous
 62
     7
100
AcDbLine
 10
156.1037919259
 20
179.8380858399
 30
0.0
 11
156.0532760105
 21
179.8090030758
 31
0.0
  0
LINE
  5
312
330
24B
100
AcDbEntity
  8
$DDT_AUDIT_GENERATED_(6F)
  6
Continuous
 62
     7
100
AcDbLine
 10
156.0532760105
 20
179.8090030758
 30
0.0
 11
156.0078102349
 21
179.786885048
 31
0.0
  0
LINE
  5
313
330
24B
100
AcDbEntity
  8
$DDT_AUDIT_GENERATED_(6F)
  6
Continuous
 62
     7
100
AcDbLine
 10
156.0078102349
 20
179.786885048
 30
0.0
 11
155.9571428119
 21
179.7659103178
 31
0.0
  0
LINE
  5
314
330
24B
100
AcDbEntity
  8
$DDT_AUDIT_GENERATED_(6F)
  6
Continuous
 62
     7
100
AcDbLine
 10
155.9571428119
 20
179.7659103178
 30
0.0
 11
156.778992253
 21
178.7813219633
 31
0.0
  0
LINE
  5
315
330
24B
100
AcDbEntity
  8
$DDT_AUDIT_GENERATED_(6F)
  6
Continuous
 62
     7
100
AcDbLine
 10
156.778992253
 20
178.7813219633
 30
0.0
 11
155.9710015485
 21
178.7813219633
 31
0.0
  0
LINE
  5
316
330
24B
100
AcDbEntity
  8
$DDT_AUDIT_GENERATED_(6F)
  6
Continuous
 62
     7
100
AcDbLine
 10
155.9710015485
 20
178.7813219633
 30
0.0
 11
155.0699377187
 21
179.9859294951
 31
0.0
  0
LINE
  5
317
330
24B
100
AcDbEntity
  8
$DDT_AUDIT_GENERATED_(6F)
  6
Continuous
 62
     7
100
AcDbLine
 10
155.0699377187
 20
179.9859294951
 30
0.0
 11
155.444289792
 21
179.9859294951
 31
0.0
  0
LINE
  5
318
330
24B
100
AcDbEntity
  8
$DDT_AUDIT_GENERATED_(6F)
  6
Continuous
 62
     7
100
AcDbLine
 10
155.444289792
 20
179.9859294951
 30
0.0
 11
155.4834912559
 21
179.989452177
 31
0.0
  0
LINE
  5
319
330
24B
100
AcDbEntity
  8
$DDT_AUDIT_GENERATED_(6F)
  6
Continuous
 62
     7
100
AcDbLine
 10
155.4834912559
 20
179.989452177
 30
0.0
 11
155.5193916221
 21
179.9960067125
 31
0.0
  0
LINE
  5
31A
330
24B
100
AcDbEntity
  8
$DDT_AUDIT_GENERATED_(6F)
  6
Continuous
 62
     7
100
AcDbLine
 10
155.5193916221
 20
179.9960067125
 30
0.0
 11
155.552031106
 21
180.0050657678
 31
0.0
  0
LINE
  5
31B
330
24B
100
AcDbEntity
  8
$DDT_AUDIT_GENERATED_(6F)
  6
Continuous
 62
     7
100
AcDbLine
 10
155.552031106
 20
180.0050657678
 30
0.0
 11
155.5814499233
 21
180.0161020093
 31
0.0
  0
LINE
  5
31C
330
24B
100
AcDbEntity
  8
$DDT_AUDIT_GENERATED_(6F)
  6
Continuous
 62
     7
100
AcDbLine
 10
155.5814499233
 20
180.0161020093
 30
0.0
 11
155.6076882893
 21
180.0285881032
 31
0.0
  0
LINE
  5
31D
330
24B
100
AcDbEntity
  8
$DDT_AUDIT_GENERATED_(6F)
  6
Continuous
 62
     7
100
AcDbLine
 10
155.6076882893
 20
180.0285881032
 30
0.0
 11
155.6307864196
 21
180.0419967157
 31
0.0
  0
LINE
  5
31E
330
24B
100
AcDbEntity
  8
$DDT_AUDIT_GENERATED_(6F)
  6
Continuous
 62
     7
100
AcDbLine
 10
155.6307864196
 20
180.0419967157
 30
0.0
 11
155.6519456536
 21
180.0567635455
 31
0.0
  0
LINE
  5
31F
330
24B
100
AcDbEntity
  8
$DDT_AUDIT_GENERATED_(6F)
  6
Continuous
 62
     7
100
AcDbLine
 10
155.6519456536
 20
180.0567635455
 30
0.0
 11
155.6702683578
 21
180.0723258352
 31
0.0
  0
LINE
  5
320
330
24B
100
AcDbEntity
  8
$DDT_AUDIT_GENERATED_(6F)
  6
Continuous
 62
     7
100
AcDbLine
 10
155.6702683578
 20
180.0723258352
 30
0.0
 11
155.6913799681
 21
180.0949234004
 31
0.0
  0
LINE
  5
321
330
24B
100
AcDbEntity
  8
$DDT_AUDIT_GENERATED_(6F)
  6
Continuous
 62
     7
100
AcDbLine
 10
155.6913799681
 20
180.0949234004
 30
0.0
 11
155.7100737808
 21
180.1204002293
 31
0.0
  0
LINE
  5
322
330
24B
100
AcDbEntity
  8
$DDT_AUDIT_GENERATED_(6F)
  6
Continuous
 62
     7
100
AcDbLine
 10
155.7100737808
 20
180.1204002293
 30
0.0
 11
155.7278497512
 21
180.1495935293
 31
0.0
  0
LINE
  5
323
330
24B
100
AcDbEntity
  8
$DDT_AUDIT_GENERATED_(6F)
  6
Continuous
 62
     7
100
AcDbLine
 10
155.7278497512
 20
180.1495935293
 30
0.0
 11
155.7416121637
 21
180.1752508321
 31
0.0
  0
LINE
  5
324
330
24B
100
AcDbEntity
  8
$DDT_AUDIT_GENERATED_(6F)
  6
Continuous
 62
     7
100
AcDbLine
 10
155.7416121637
 20
180.1752508321
 30
0.0
 11
155.7548462486
 21
180.2045229778
 31
0.0
  0
LINE
  5
325
330
24B
100
AcDbEntity
  8
$DDT_AUDIT_GENERATED_(6F)
  6
Continuous
 62
     7
100
AcDbLine
 10
155.7548462486
 20
180.2045229778
 30
0.0
 11
155.7666777365
 21
180.2383186178
 31
0.0
  0
LINE
  5
326
330
24B
100
AcDbEntity
  8
$DDT_AUDIT_GENERATED_(6F)
  6
Continuous
 62
     7
100
AcDbLine
 10
155.7666777365
 20
180.2383186178
 30
0.0
 11
155.7762323575
 21
180.2775464034
 31
0.0
  0
LINE
  5
327
330
24B
100
AcDbEntity
  8
$DDT_AUDIT_GENERATED_(6F)
  6
Continuous
 62
     7
100
AcDbLine
 10
155.7762323575
 20
180.2775464034
 30
0.0
 11
155.7826358422
 21
180.323114986
 31
0.0
  0
LINE
  5
328
330
24B
100
AcDbEntity
  8
$DDT_AUDIT_GENERATED_(6F)
  6
Continuous
 62
     7
100
AcDbLine
 10
155.7826358422
 20
180.323114986
 30
0.0
 11
155.7850139207
 21
180.3759330169
 31
0.0
  0
LINE
  5
329
330
24B
100
AcDbEntity
  8
$DDT_AUDIT_GENERATED_(6F)
  6
Continuous
 62
     7
100
AcDbLine
 10
155.7850139207
 20
180.3759330169
 30
0.0
 11
155.7826358422
 21
180.4287510479
 31
0.0
  0
LINE
  5
32A
330
24B
100
AcDbEntity
  8
$DDT_AUDIT_GENERATED_(6F)
  6
Continuous
 62
     7
100
AcDbLine
 10
155.7826358422
 20
180.4287510479
 30
0.0
 11
155.7762323575
 21
180.4743196305
 31
0.0
  0
LINE
  5
32B
330
24B
100
AcDbEntity
  8
$DDT_AUDIT_GENERATED_(6F)
  6
Continuous
 62
     7
100
AcDbLine
 10
155.7762323575
 20
180.4743196305
 30
0.0
 11
155.7666777365
 21
180.513547416
 31
0.0
  0
LINE
  5
32C
330
24B
100
AcDbEntity
  8
$DDT_AUDIT_GENERATED_(6F)
  6
Continuous
 62
     7
100
AcDbLine
 10
155.7666777365
 20
180.513547416
 30
0.0
 11
155.7548462486
 21
180.547343056
 31
0.0
  0
LINE
  5
32D
330
24B
100
AcDbEntity
  8
$DDT_AUDIT_GENERATED_(6F)
  6
Continuous
 62
     7
100
AcDbLine
 10
155.7548462486
 20
180.547343056
 30
0.0
 11
155.7416121637
 21
180.5766152017
 31
0.0
  0
LINE
  5
32E
330
24B
100
AcDbEntity
  8
$DDT_AUDIT_GENERATED_(6F)
  6
Continuous
 62
     7
100
AcDbLine
 10
155.7416121637
 20
180.5766152017
 30
0.0
 11
155.7278497512
 21
180.6022725045
 31
0.0
  0
LINE
  5
32F
330
24B
100
AcDbEntity
  8
$DDT_AUDIT_GENERATED_(6F)
  6
Continuous
 62
     7
100
AcDbLine
 10
155.7278497512
 20
180.6022725045
 30
0.0
 11
155.7145452291
 21
180.6245486021
 31
0.0
  0
LINE
  5
330
330
24B
100
AcDbEntity
  8
$DDT_AUDIT_GENERATED_(6F)
  6
Continuous
 62
     7
100
AcDbLine
 10
155.7145452291
 20
180.6245486021
 30
0.0
 11
155.700935352
 21
180.6446164524
 31
0.0
  0
LINE
  5
331
330
24B
100
AcDbEntity
  8
$DDT_AUDIT_GENERATED_(6F)
  6
Continuous
 62
     7
100
AcDbLine
 10
155.700935352
 20
180.6446164524
 30
0.0
 11
155.6812201349
 21
180.6685489986
 31
0.0
  0
LINE
  5
332
330
24B
100
AcDbEntity
  8
$DDT_AUDIT_GENERATED_(6F)
  6
Continuous
 62
     7
100
AcDbLine
 10
155.6812201349
 20
180.6685489986
 30
0.0
 11
155.6583371425
 21
180.6900208847
 31
0.0
  0
LINE
  5
333
330
24B
100
AcDbEntity
  8
$DDT_AUDIT_GENERATED_(6F)
  6
Continuous
 62
     7
100
AcDbLine
 10
155.6583371425
 20
180.6900208847
 30
0.0
 11
155.6307864196
 21
180.7098693181
 31
0.0
  0
LINE
  5
334
330
24B
100
AcDbEntity
  8
$DDT_AUDIT_GENERATED_(6F)
  6
Continuous
 62
     7
100
AcDbLine
 10
155.6307864196
 20
180.7098693181
 30
0.0
 11
155.6043349099
 21
180.725026719
 31
0.0
  0
LINE
  5
335
330
24B
100
AcDbEntity
  8
$DDT_AUDIT_GENERATED_(6F)
  6
Continuous
 62
     7
100
AcDbLine
 10
155.6043349099
 20
180.725026719
 30
0.0
 11
155.5738323838
 21
180.7389045331
 31
0.0
  0
LINE
  5
336
330
24B
100
AcDbEntity
  8
$DDT_AUDIT_GENERATED_(6F)
  6
Continuous
 62
     7
100
AcDbLine
 10
155.5738323838
 20
180.7389045331
 30
0.0
 11
155.539220069
 21
180.7507320976
 31
0.0
  0
LINE
  5
337
330
24B
100
AcDbEntity
  8
$DDT_AUDIT_GENERATED_(6F)
  6
Continuous
 62
     7
100
AcDbLine
 10
155.539220069
 20
180.7507320976
 30
0.0
 11
155.5004391934
 21
180.7597387496
 31
0.0
  0
LINE
  5
338
330
24B
100
AcDbEntity
  8
$DDT_AUDIT_GENERATED_(6F)
  6
Continuous
 62
     7
100
AcDbLine
 10
155.5004391934
 20
180.7597387496
 30
0.0
 11
155.4574309846
 21
180.7651538263
 31
0.0
  0
LINE
  5
339
330
24B
100
AcDbEntity
  8
$DDT_AUDIT_GENERATED_(6F)
  6
Continuous
 62
     7
100
AcDbLine
 10
155.4574309846
 20
180.7651538263
 30
0.0
 11
155.4101366703
 21
180.7662066649
 31
0.0
  0
LINE
  5
33A
330
24B
100
AcDbEntity
  8
$DDT_AUDIT_GENERATED_(6F)
  6
Continuous
 62
     7
100
AcDbLine
 10
155.4101366703
 20
180.7662066649
 30
0.0
 11
154.9880228251
 21
180.7662066649
 31
0.0
  0
LINE
  5
33B
330
24B
100
AcDbEntity
  8
$DDT_AUDIT_GENERATED_(6F)
  6
Continuous
 62
     7
100
AcDbLine
 10
154.9880228251
 20
180.7662066649
 30
0.0
 11
154.9880228251
 21
178.7813219633
 31
0.0
  0
LINE
  5
33C
330
24B
100
AcDbEntity
  8
$DDT_AUDIT_GENERATED_(6F)
  6
Continuous
 62
     7
100
AcDbLine
 10
154.9880228251
 20
178.7813219633
 30
0.0
 11
154.3364270804
 21
178.7813219633
 31
0.0
  0
LINE
  5
33D
330
24B
100
AcDbEntity
  8
$DDT_AUDIT_GENERATED_(6F)
  6
Continuous
 62
     7
100
AcDbLine
 10
154.3364270804
 20
178.7813219633
 30
0.0
 11
154.3364270804
 21
181.2353096934
 31
0.0
  0
LINE
  5
33E
330
24B
100
AcDbEntity
  8
$DDT_AUDIT_GENERATED_(6F)
  6
Continuous
 62
     7
100
AcDbLine
 10
154.3364270804
 20
181.2353096934
 30
0.0
 11
155.5264930423
 21
181.2353096934
 31
0.0
  0
ARC
  5
33F
330
24B
100
AcDbEntity
  8
$DDT_AUDIT_GENERATED_(6F)
  6
Continuous
 62
     7
100
AcDbCircle
 10
158.5984147361
 20
180.0091888142
 30
0.0
 40
1.238748060885845
100
AcDbArc
 50
309.802964599
 51
50.5588426069
  0
ARC
  5
340
330
24B
100
AcDbEntity
  8
$DDT_AUDIT_GENERATED_(6F)
  6
Continuous
 62
     7
100
AcDbCircle
 10
158.3316431566
 20
180.3293438679
 30
0.0
 40
1.655480989814244
100
AcDbArc
 50
230.1970191603
 51
309.8029746804
  0
ARC
  5
341
330
24B
100
AcDbEntity
  8
$DDT_AUDIT_GENERATED_(6F)
  6
Continuous
 62
     7
100
AcDbCircle
 10
158.081330783
 20
180.0087356495
 30
0.0
 40
1.249003250127702
100
AcDbArc
 50
130.3963479627
 51
229.6036520373
  0
ARC
  5
342
330
24B
100
AcDbEntity
  8
$DDT_AUDIT_GENERATED_(6F)
  6
Continuous
 62
     7
100
AcDbCircle
 10
158.3321137741
 20
179.714028575
 30
0.0
 40
1.635971425034642
100
AcDbArc
 50
49.9232687987
 51
130.3963479627
  0
ARC
  5
343
330
24B
100
AcDbEntity
  8
$DDT_AUDIT_GENERATED_(6F)
  6
Continuous
 62
     7
100
AcDbCircle
 10
158.0893179551
 20
179.719665493
 30
0.0
 40
0.4999999999999886
100
AcDbArc
 50
217.034597997
 51
240.1494482366
  0
ARC
  5
344
330
24B
100
AcDbEntity
  8
$DDT_AUDIT_GENERATED_(6F)
  6
Continuous
 62
     7
100
AcDbCircle
 10
158.3313632506
 20
180.1414370779
 30
0.0
 40
0.9862892091245367
100
AcDbArc
 50
240.1494482367
 51
298.6550551869
  0
ARC
  5
345
330
24B
100
AcDbEntity
  8
$DDT_AUDIT_GENERATED_(6F)
  6
Continuous
 62
     7
100
AcDbCircle
 10
158.5645560854
 20
179.7147073078
 30
0.0
 40
0.5000000000000013
100
AcDbArc
 50
298.655055187
 51
326.0793919108
  0
ARC
  5
346
330
24B
100
AcDbEntity
  8
$DDT_AUDIT_GENERATED_(6F)
  6
Continuous
 62
     7
100
AcDbCircle
 10
158.1254212843
 20
180.0100229716
 30
0.0
 40
1.029198181003394
100
AcDbArc
 50
326.0793919107
 51
32.9337797451
  0
ARC
  5
347
330
24B
100
AcDbEntity
  8
$DDT_AUDIT_GENERATED_(6F)
  6
Continuous
 62
     7
100
AcDbCircle
 10
158.5695770427
 20
180.2977318124
 30
0.0
 40
0.4999999999999993
100
AcDbArc
 50
32.9337797451
 51
59.7043309944
  0
ARC
  5
348
330
24B
100
AcDbEntity
  8
$DDT_AUDIT_GENERATED_(6F)
  6
Continuous
 62
     7
100
AcDbCircle
 10
158.3313632506
 20
179.8900070156
 30
0.0
 40
0.9722132152535623
100
AcDbArc
 50
59.7043309944
 51
121.5222523773
  0
ARC
  5
349
330
24B
100
AcDbEntity
  8
$DDT_AUDIT_GENERATED_(6F)
  6
Continuous
 62
     7
100
AcDbCircle
 10
158.0844761705
 20
180.2925391141
 30
0.0
 40
0.5000000000000047
100
AcDbArc
 50
121.5222523772
 51
143.933878161
  0
ARC
  5
34A
330
24B
100
AcDbEntity
  8
$DDT_AUDIT_GENERATED_(6F)
  6
Continuous
 62
     7
100
AcDbCircle
 10
158.4732834723
 20
180.0093679449
 30
0.0
 40
0.9809958721841814
100
AcDbArc
 50
143.933878161
 51
217.0345979971
  0
LINE
  5
34B
330
24B
100
AcDbEntity
  8
$DDT_AUDIT_GENERATED_(6F)
  6
Continuous
 62
     7
100
AcDbLine
 10
160.9323632506
 20
178.7813219633
 30
0.0
 11
160.2980015485
 21
178.7813219633
 31
0.0
  0
LINE
  5
34C
330
24B
100
AcDbEntity
  8
$DDT_AUDIT_GENERATED_(6F)
  6
Continuous
 62
     7
100
AcDbLine
 10
160.2980015485
 20
178.7813219633
 30
0.0
 11
160.2980015485
 21
181.2353096934
 31
0.0
  0
LINE
  5
34D
330
24B
100
AcDbEntity
  8
$DDT_AUDIT_GENERATED_(6F)
  6
Continuous
 62
     7
100
AcDbLine
 10
160.2980015485
 20
181.2353096934
 30
0.0
 11
160.9323632506
 21
181.2353096934
 31
0.0
  0
LINE
  5
34E
330
24B
100
AcDbEntity
  8
$DDT_AUDIT_GENERATED_(6F)
  6
Continuous
 62
     7
100
AcDbLine
 10
160.9323632506
 20
181.2353096934
 30
0.0
 11
160.9323632506
 21
180.3302581336
 31
0.0
  0
LINE
  5
34F
330
24B
100
AcDbEntity
  8
$DDT_AUDIT_GENERATED_(6F)
  6
Continuous
 62
     7
100
AcDbLine
 10
160.9323632506
 20
180.3302581336
 30
0.0
 11
162.0637249527
 21
180.3302581336
 31
0.0
  0
LINE
  5
350
330
24B
100
AcDbEntity
  8
$DDT_AUDIT_GENERATED_(6F)
  6
Continuous
 62
     7
100
AcDbLine
 10
162.0637249527
 20
180.3302581336
 30
0.0
 11
162.0637249527
 21
181.2353096934
 31
0.0
  0
LINE
  5
351
330
24B
100
AcDbEntity
  8
$DDT_AUDIT_GENERATED_(6F)
  6
Continuous
 62
     7
100
AcDbLine
 10
162.0637249527
 20
181.2353096934
 30
0.0
 11
162.7020866548
 21
181.2353096934
 31
0.0
  0
LINE
  5
352
330
24B
100
AcDbEntity
  8
$DDT_AUDIT_GENERATED_(6F)
  6
Continuous
 62
     7
100
AcDbLine
 10
162.7020866548
 20
181.2353096934
 30
0.0
 11
162.7020866548
 21
178.7813219633
 31
0.0
  0
LINE
  5
353
330
24B
100
AcDbEntity
  8
$DDT_AUDIT_GENERATED_(6F)
  6
Continuous
 62
     7
100
AcDbLine
 10
162.7020866548
 20
178.7813219633
 30
0.0
 11
162.0637249527
 21
178.7813219633
 31
0.0
  0
LINE
  5
354
330
24B
100
AcDbEntity
  8
$DDT_AUDIT_GENERATED_(6F)
  6
Continuous
 62
     7
100
AcDbLine
 10
162.0637249527
 20
178.7813219633
 30
0.0
 11
162.0637249527
 21
179.8238751548
 31
0.0
  0
LINE
  5
355
330
24B
100
AcDbEntity
  8
$DDT_AUDIT_GENERATED_(6F)
  6
Continuous
 62
     7
100
AcDbLine
 10
162.0637249527
 20
179.8238751548
 30
0.0
 11
160.9323632506
 21
179.8238751548
 31
0.0
  0
LINE
  5
356
330
24B
100
AcDbEntity
  8
$DDT_AUDIT_GENERATED_(6F)
  6
Continuous
 62
     7
100
AcDbLine
 10
160.9323632506
 20
179.8238751548
 30
0.0
 11
160.9323632506
 21
178.7813219633
 31
0.0
  0
LINE
  5
357
330
24B
100
AcDbEntity
  8
$DDT_AUDIT_GENERATED_(6F)
  6
Continuous
 62
     7
100
AcDbLine
 10
165.2348313357
 20
178.7813219633
 30
0.0
 11
165.2348313357
 21
179.2504708995
 31
0.0
  0
LINE
  5
358
330
24B
100
AcDbEntity
  8
$DDT_AUDIT_GENERATED_(6F)
  6
Continuous
 62
     7
100
AcDbLine
 10
165.2348313357
 20
179.2504708995
 30
0.0
 11
164.0298313357
 21
179.2504708995
 31
0.0
  0
LINE
  5
359
330
24B
100
AcDbEntity
  8
$DDT_AUDIT_GENERATED_(6F)
  6
Continuous
 62
     7
100
AcDbLine
 10
164.0298313357
 20
179.2504708995
 30
0.0
 11
164.0298313357
 21
179.8536623889
 31
0.0
  0
LINE
  5
35A
330
24B
100
AcDbEntity
  8
$DDT_AUDIT_GENERATED_(6F)
  6
Continuous
 62
     7
100
AcDbLine
 10
164.0298313357
 20
179.8536623889
 30
0.0
 11
164.903448357
 21
179.8536623889
 31
0.0
  0
LINE
  5
35B
330
24B
100
AcDbEntity
  8
$DDT_AUDIT_GENERATED_(6F)
  6
Continuous
 62
     7
100
AcDbLine
 10
164.903448357
 20
179.8536623889
 30
0.0
 11
164.903448357
 21
180.307917708
 31
0.0
  0
LINE
  5
35C
330
24B
100
AcDbEntity
  8
$DDT_AUDIT_GENERATED_(6F)
  6
Continuous
 62
     7
100
AcDbLine
 10
164.903448357
 20
180.307917708
 30
0.0
 11
164.0298313357
 21
180.307917708
 31
0.0
  0
LINE
  5
35D
330
24B
100
AcDbEntity
  8
$DDT_AUDIT_GENERATED_(6F)
  6
Continuous
 62
     7
100
AcDbLine
 10
164.0298313357
 20
180.307917708
 30
0.0
 11
164.0298313357
 21
180.7661607572
 31
0.0
  0
LINE
  5
35E
330
24B
100
AcDbEntity
  8
$DDT_AUDIT_GENERATED_(6F)
  6
Continuous
 62
     7
100
AcDbLine
 10
164.0298313357
 20
180.7661607572
 30
0.0
 11
165.0710015485
 21
180.7661607572
 31
0.0
  0
LINE
  5
35F
330
24B
100
AcDbEntity
  8
$DDT_AUDIT_GENERATED_(6F)
  6
Continuous
 62
     7
100
AcDbLine
 10
165.0710015485
 20
180.7661607572
 30
0.0
 11
165.0710015485
 21
181.2353096934
 31
0.0
  0
LINE
  5
360
330
24B
100
AcDbEntity
  8
$DDT_AUDIT_GENERATED_(6F)
  6
Continuous
 62
     7
100
AcDbLine
 10
165.0710015485
 20
181.2353096934
 30
0.0
 11
163.3954696336
 21
181.2353096934
 31
0.0
  0
LINE
  5
361
330
24B
100
AcDbEntity
  8
$DDT_AUDIT_GENERATED_(6F)
  6
Continuous
 62
     7
100
AcDbLine
 10
163.3954696336
 20
181.2353096934
 30
0.0
 11
163.3954696336
 21
178.7813219633
 31
0.0
  0
LINE
  5
362
330
24B
100
AcDbEntity
  8
$DDT_AUDIT_GENERATED_(6F)
  6
Continuous
 62
     7
100
AcDbLine
 10
163.3954696336
 20
178.7813219633
 30
0.0
 11
165.2348313357
 21
178.7813219633
 31
0.0
  0
LINE
  5
363
330
24B
100
AcDbEntity
  8
$DDT_AUDIT_GENERATED_(6F)
  6
Continuous
 62
     7
100
AcDbLine
 10
162.3813396295
 20
178.0874050444
 30
0.0
 11
162.1790592474
 21
178.1449620477
 31
0.0
  0
LINE
  5
364
330
24B
100
AcDbEntity
  8
$DDT_AUDIT_GENERATED_(6F)
  6
Continuous
 62
     7
100
AcDbLine
 10
162.1790592474
 20
178.1449620477
 30
0.0
 11
161.976780206
 21
178.1939521276
 31
0.0
  0
LINE
  5
365
330
24B
100
AcDbEntity
  8
$DDT_AUDIT_GENERATED_(6F)
  6
Continuous
 62
     7
100
AcDbLine
 10
161.976780206
 20
178.1939521276
 30
0.0
 11
161.7745011647
 21
178.2319367414
 31
0.0
  0
LINE
  5
366
330
24B
100
AcDbEntity
  8
$DDT_AUDIT_GENERATED_(6F)
  6
Continuous
 62
     7
100
AcDbLine
 10
161.7745011647
 20
178.2319367414
 30
0.0
 11
161.5722207826
 21
178.2564773461
 31
0.0
  0
LINE
  5
367
330
24B
100
AcDbEntity
  8
$DDT_AUDIT_GENERATED_(6F)
  6
Continuous
 62
     7
100
AcDbLine
 10
161.5722207826
 20
178.2564773461
 30
0.0
 11
161.3699377187
 21
178.265135399
 31
0.0
  0
LINE
  5
368
330
24B
100
AcDbEntity
  8
$DDT_AUDIT_GENERATED_(6F)
  6
Continuous
 62
     7
100
AcDbLine
 10
161.3699377187
 20
178.265135399
 30
0.0
 11
161.1676509004
 21
178.2562860589
 31
0.0
  0
LINE
  5
369
330
24B
100
AcDbEntity
  8
$DDT_AUDIT_GENERATED_(6F)
  6
Continuous
 62
     7
100
AcDbLine
 10
161.1676509004
 20
178.2562860589
 30
0.0
 11
160.9653603277
 21
178.2315592906
 31
0.0
  0
LINE
  5
36A
330
24B
100
AcDbEntity
  8
$DDT_AUDIT_GENERATED_(6F)
  6
Continuous
 62
     7
100
AcDbLine
 10
160.9653603277
 20
178.2315592906
 30
0.0
 11
160.7630662688
 21
178.1933987609
 31
0.0
  0
LINE
  5
36B
330
24B
100
AcDbEntity
  8
$DDT_AUDIT_GENERATED_(6F)
  6
Continuous
 62
     7
100
AcDbLine
 10
160.7630662688
 20
178.1933987609
 30
0.0
 11
160.5607689918
 21
178.1442481363
 31
0.0
  0
LINE
  5
36C
330
24B
100
AcDbEntity
  8
$DDT_AUDIT_GENERATED_(6F)
  6
Continuous
 62
     7
100
AcDbLine
 10
160.5607689918
 20
178.1442481363
 30
0.0
 11
160.358468765
 21
178.0865510834
 31
0.0
  0
LINE
  5
36D
330
24B
100
AcDbEntity
  8
$DDT_AUDIT_GENERATED_(6F)
  6
Continuous
 62
     7
100
AcDbLine
 10
160.358468765
 20
178.0865510834
 30
0.0
 11
160.0212958933
 21
177.9780343847
 31
0.0
  0
LINE
  5
36E
330
24B
100
AcDbEntity
  8
$DDT_AUDIT_GENERATED_(6F)
  6
Continuous
 62
     7
100
AcDbLine
 10
160.0212958933
 20
177.9780343847
 30
0.0
 11
159.684116814
 21
177.8638788412
 31
0.0
  0
LINE
  5
36F
330
24B
100
AcDbEntity
  8
$DDT_AUDIT_GENERATED_(6F)
  6
Continuous
 62
     7
100
AcDbLine
 10
159.684116814
 20
177.8638788412
 30
0.0
 11
159.3469327685
 21
177.7553977242
 31
0.0
  0
LINE
  5
370
330
24B
100
AcDbEntity
  8
$DDT_AUDIT_GENERATED_(6F)
  6
Continuous
 62
     7
100
AcDbLine
 10
159.3469327685
 20
177.7553977242
 30
0.0
 11
159.1446204739
 21
177.6977390995
 31
0.0
  0
LINE
  5
371
330
24B
100
AcDbEntity
  8
$DDT_AUDIT_GENERATED_(6F)
  6
Continuous
 62
     7
100
AcDbLine
 10
159.1446204739
 20
177.6977390995
 30
0.0
 11
158.9423071067
 21
177.6486397126
 31
0.0
  0
LINE
  5
372
330
24B
100
AcDbEntity
  8
$DDT_AUDIT_GENERATED_(6F)
  6
Continuous
 62
     7
100
AcDbLine
 10
158.9423071067
 20
177.6486397126
 30
0.0
 11
158.739992935
 21
177.6105432299
 31
0.0
  0
LINE
  5
373
330
24B
100
AcDbEntity
  8
$DDT_AUDIT_GENERATED_(6F)
  6
Continuous
 62
     7
100
AcDbLine
 10
158.739992935
 20
177.6105432299
 30
0.0
 11
158.5376782269
 21
177.5858933182
 31
0.0
  0
LINE
  5
374
330
24B
100
AcDbEntity
  8
$DDT_AUDIT_GENERATED_(6F)
  6
Continuous
 62
     7
100
AcDbLine
 10
158.5376782269
 20
177.5858933182
 30
0.0
 11
158.3353632506
 21
177.5771336439
 31
0.0
  0
LINE
  5
375
330
24B
100
AcDbEntity
  8
$DDT_AUDIT_GENERATED_(6F)
  6
Continuous
 62
     7
100
AcDbLine
 10
158.3353632506
 20
177.5771336439
 30
0.0
 11
158.1330482743
 21
177.5858933182
 31
0.0
  0
LINE
  5
376
330
24B
100
AcDbEntity
  8
$DDT_AUDIT_GENERATED_(6F)
  6
Continuous
 62
     7
100
AcDbLine
 10
158.1330482743
 20
177.5858933182
 30
0.0
 11
157.9307335662
 21
177.6105432299
 31
0.0
  0
LINE
  5
377
330
24B
100
AcDbEntity
  8
$DDT_AUDIT_GENERATED_(6F)
  6
Continuous
 62
     7
100
AcDbLine
 10
157.9307335662
 20
177.6105432299
 30
0.0
 11
157.7284193945
 21
177.6486397126
 31
0.0
  0
LINE
  5
378
330
24B
100
AcDbEntity
  8
$DDT_AUDIT_GENERATED_(6F)
  6
Continuous
 62
     7
100
AcDbLine
 10
157.7284193945
 20
177.6486397126
 30
0.0
 11
157.5261060272
 21
177.6977390995
 31
0.0
  0
LINE
  5
379
330
24B
100
AcDbEntity
  8
$DDT_AUDIT_GENERATED_(6F)
  6
Continuous
 62
     7
100
AcDbLine
 10
157.5261060272
 20
177.6977390995
 30
0.0
 11
157.3237937327
 21
177.7553977242
 31
0.0
  0
LINE
  5
37A
330
24B
100
AcDbEntity
  8
$DDT_AUDIT_GENERATED_(6F)
  6
Continuous
 62
     7
100
AcDbLine
 10
157.3237937327
 20
177.7553977242
 30
0.0
 11
156.9866096872
 21
177.8638788412
 31
0.0
  0
LINE
  5
37B
330
24B
100
AcDbEntity
  8
$DDT_AUDIT_GENERATED_(6F)
  6
Continuous
 62
     7
100
AcDbLine
 10
156.9866096872
 20
177.8638788412
 30
0.0
 11
156.6494306079
 21
177.9780343847
 31
0.0
  0
LINE
  5
37C
330
24B
100
AcDbEntity
  8
$DDT_AUDIT_GENERATED_(6F)
  6
Continuous
 62
     7
100
AcDbLine
 10
156.6494306079
 20
177.9780343847
 30
0.0
 11
156.3122577362
 21
178.0865510834
 31
0.0
  0
LINE
  5
37D
330
24B
100
AcDbEntity
  8
$DDT_AUDIT_GENERATED_(6F)
  6
Continuous
 62
     7
100
AcDbLine
 10
156.3122577362
 20
178.0865510834
 30
0.0
 11
156.1099575093
 21
178.1442481363
 31
0.0
  0
LINE
  5
37E
330
24B
100
AcDbEntity
  8
$DDT_AUDIT_GENERATED_(6F)
  6
Continuous
 62
     7
100
AcDbLine
 10
156.1099575093
 20
178.1442481363
 30
0.0
 11
155.9076602324
 21
178.1933987609
 31
0.0
  0
LINE
  5
37F
330
24B
100
AcDbEntity
  8
$DDT_AUDIT_GENERATED_(6F)
  6
Continuous
 62
     7
100
AcDbLine
 10
155.9076602324
 20
178.1933987609
 30
0.0
 11
155.7053661735
 21
178.2315592906
 31
0.0
  0
LINE
  5
380
330
24B
100
AcDbEntity
  8
$DDT_AUDIT_GENERATED_(6F)
  6
Continuous
 62
     7
100
AcDbLine
 10
155.7053661735
 20
178.2315592906
 30
0.0
 11
155.5030756008
 21
178.2562860589
 31
0.0
  0
LINE
  5
381
330
24B
100
AcDbEntity
  8
$DDT_AUDIT_GENERATED_(6F)
  6
Continuous
 62
     7
100
AcDbLine
 10
155.5030756008
 20
178.2562860589
 30
0.0
 11
155.3007887825
 21
178.265135399
 31
0.0
  0
LINE
  5
382
330
24B
100
AcDbEntity
  8
$DDT_AUDIT_GENERATED_(6F)
  6
Continuous
 62
     7
100
AcDbLine
 10
155.3007887825
 20
178.265135399
 30
0.0
 11
155.0985057186
 21
178.2564773461
 31
0.0
  0
LINE
  5
383
330
24B
100
AcDbEntity
  8
$DDT_AUDIT_GENERATED_(6F)
  6
Continuous
 62
     7
100
AcDbLine
 10
155.0985057186
 20
178.2564773461
 30
0.0
 11
154.8962253364
 21
178.2319367414
 31
0.0
  0
LINE
  5
384
330
24B
100
AcDbEntity
  8
$DDT_AUDIT_GENERATED_(6F)
  6
Continuous
 62
     7
100
AcDbLine
 10
154.8962253364
 20
178.2319367414
 30
0.0
 11
154.6939462951
 21
178.1939521276
 31
0.0
  0
LINE
  5
385
330
24B
100
AcDbEntity
  8
$DDT_AUDIT_GENERATED_(6F)
  6
Continuous
 62
     7
100
AcDbLine
 10
154.6939462951
 20
178.1939521276
 30
0.0
 11
154.4916672538
 21
178.1449620477
 31
0.0
  0
LINE
  5
386
330
24B
100
AcDbEntity
  8
$DDT_AUDIT_GENERATED_(6F)
  6
Continuous
 62
     7
100
AcDbLine
 10
154.4916672538
 20
178.1449620477
 30
0.0
 11
154.2893868716
 21
178.0874050444
 31
0.0
  0
LINE
  5
387
330
24B
100
AcDbEntity
  8
$DDT_AUDIT_GENERATED_(6F)
  6
Continuous
 62
     7
100
AcDbLine
 10
154.2893868716
 20
178.0874050444
 30
0.0
 11
153.9522462798
 21
177.9790623007
 31
0.0
  0
LINE
  5
388
330
24B
100
AcDbEntity
  8
$DDT_AUDIT_GENERATED_(6F)
  6
Continuous
 62
     7
100
AcDbLine
 10
153.9522462798
 20
177.9790623007
 30
0.0
 11
153.6150920312
 21
177.8649858276
 31
0.0
  0
LINE
  5
389
330
24B
100
AcDbEntity
  8
$DDT_AUDIT_GENERATED_(6F)
  6
Continuous
 62
     7
100
AcDbLine
 10
153.6150920312
 20
177.8649858276
 30
0.0
 11
153.277917918
 21
177.7564651754
 31
0.0
  0
LINE
  5
38A
330
24B
100
AcDbEntity
  8
$DDT_AUDIT_GENERATED_(6F)
  6
Continuous
 62
     7
100
AcDbLine
 10
153.277917918
 20
177.7564651754
 30
0.0
 11
153.0756013327
 21
177.6987160309
 31
0.0
  0
LINE
  5
38B
330
24B
100
AcDbEntity
  8
$DDT_AUDIT_GENERATED_(6F)
  6
Continuous
 62
     7
100
AcDbLine
 10
153.0756013327
 20
177.6987160309
 30
0.0
 11
152.8732740205
 21
177.6494697626
 31
0.0
  0
LINE
  5
38C
330
24B
100
AcDbEntity
  8
$DDT_AUDIT_GENERATED_(6F)
  6
Continuous
 62
     7
100
AcDbLine
 10
152.8732740205
 20
177.6494697626
 30
0.0
 11
152.6709346407
 21
177.6111649135
 31
0.0
  0
LINE
  5
38D
330
24B
100
AcDbEntity
  8
$DDT_AUDIT_GENERATED_(6F)
  6
Continuous
 62
     7
100
AcDbLine
 10
152.6709346407
 20
177.6111649135
 30
0.0
 11
152.4685818523
 21
177.5862400263
 31
0.0
  0
LINE
  5
38E
330
24B
100
AcDbEntity
  8
$DDT_AUDIT_GENERATED_(6F)
  6
Continuous
 62
     7
100
AcDbLine
 10
152.4685818523
 20
177.5862400263
 30
0.0
 11
152.2662143144
 21
177.5771336439
 31
0.0
  0
LINE
  5
38F
330
24B
100
AcDbEntity
  8
$DDT_AUDIT_GENERATED_(6F)
  6
Continuous
 62
     7
100
AcDbLine
 10
152.2662143144
 20
177.5771336439
 30
0.0
 11
152.1904098855
 21
177.5782492681
 31
0.0
  0
LINE
  5
390
330
24B
100
AcDbEntity
  8
$DDT_AUDIT_GENERATED_(6F)
  6
Continuous
 62
     7
100
AcDbLine
 10
152.1904098855
 20
177.5782492681
 30
0.0
 11
152.1146034669
 21
177.5817993043
 31
0.0
  0
LINE
  5
391
330
24B
100
AcDbEntity
  8
$DDT_AUDIT_GENERATED_(6F)
  6
Continuous
 62
     7
100
AcDbLine
 10
152.1146034669
 20
177.5817993043
 30
0.0
 11
152.0135256098
 21
177.5900999149
 31
0.0
  0
LINE
  5
392
330
24B
100
AcDbEntity
  8
$DDT_AUDIT_GENERATED_(6F)
  6
Continuous
 62
     7
100
AcDbLine
 10
152.0135256098
 20
177.5900999149
 30
0.0
 11
151.9124453261
 21
177.602201247
 31
0.0
  0
LINE
  5
393
330
24B
100
AcDbEntity
  8
$DDT_AUDIT_GENERATED_(6F)
  6
Continuous
 62
     7
100
AcDbLine
 10
151.9124453261
 20
177.602201247
 30
0.0
 11
151.8113632506
 21
177.6178020878
 31
0.0
  0
LINE
  5
394
330
24B
100
AcDbEntity
  8
$DDT_AUDIT_GENERATED_(6F)
  6
Continuous
 62
     7
100
AcDbLine
 10
151.8113632506
 20
177.6178020878
 30
0.0
 11
151.8423435065
 21
177.5649912937
 31
0.0
  0
LINE
  5
395
330
24B
100
AcDbEntity
  8
$DDT_AUDIT_GENERATED_(6F)
  6
Continuous
 62
     7
100
AcDbLine
 10
151.8423435065
 20
177.5649912937
 30
0.0
 11
151.8751409765
 21
177.5132053184
 31
0.0
  0
LINE
  5
396
330
24B
100
AcDbEntity
  8
$DDT_AUDIT_GENERATED_(6F)
  6
Continuous
 62
     7
100
AcDbLine
 10
151.8751409765
 20
177.5132053184
 30
0.0
 11
151.9216062583
 21
177.4459115517
 31
0.0
  0
LINE
  5
397
330
24B
100
AcDbEntity
  8
$DDT_AUDIT_GENERATED_(6F)
  6
Continuous
 62
     7
100
AcDbLine
 10
151.9216062583
 20
177.4459115517
 30
0.0
 11
151.9710669238
 21
177.3808141871
 31
0.0
  0
LINE
  5
398
330
24B
100
AcDbEntity
  8
$DDT_AUDIT_GENERATED_(6F)
  6
Continuous
 62
     7
100
AcDbLine
 10
151.9710669238
 20
177.3808141871
 30
0.0
 11
152.0233632506
 21
177.3181092204
 31
0.0
  0
LINE
  5
399
330
24B
100
AcDbEntity
  8
$DDT_AUDIT_GENERATED_(6F)
  6
Continuous
 62
     7
100
AcDbLine
 10
152.0233632506
 20
177.3181092204
 30
0.0
 11
152.1109825985
 21
177.3103414908
 31
0.0
  0
LINE
  5
39A
330
24B
100
AcDbEntity
  8
$DDT_AUDIT_GENERATED_(6F)
  6
Continuous
 62
     7
100
AcDbLine
 10
152.1109825985
 20
177.3103414908
 30
0.0
 11
152.1985997576
 21
177.3056035098
 31
0.0
  0
LINE
  5
39B
330
24B
100
AcDbEntity
  8
$DDT_AUDIT_GENERATED_(6F)
  6
Continuous
 62
     7
100
AcDbLine
 10
152.1985997576
 20
177.3056035098
 30
0.0
 11
152.2862143144
 21
177.3040915007
 31
0.0
  0
LINE
  5
39C
330
24B
100
AcDbEntity
  8
$DDT_AUDIT_GENERATED_(6F)
  6
Continuous
 62
     7
100
AcDbLine
 10
152.2862143144
 20
177.3040915007
 30
0.0
 11
152.4885818523
 21
177.3131989574
 31
0.0
  0
LINE
  5
39D
330
24B
100
AcDbEntity
  8
$DDT_AUDIT_GENERATED_(6F)
  6
Continuous
 62
     7
100
AcDbLine
 10
152.4885818523
 20
177.3131989574
 30
0.0
 11
152.6909346407
 21
177.338126785
 31
0.0
  0
LINE
  5
39E
330
24B
100
AcDbEntity
  8
$DDT_AUDIT_GENERATED_(6F)
  6
Continuous
 62
     7
100
AcDbLine
 10
152.6909346407
 20
177.338126785
 30
0.0
 11
152.8932740205
 21
177.3764361529
 31
0.0
  0
LINE
  5
39F
330
24B
100
AcDbEntity
  8
$DDT_AUDIT_GENERATED_(6F)
  6
Continuous
 62
     7
100
AcDbLine
 10
152.8932740205
 20
177.3764361529
 30
0.0
 11
153.0956013327
 21
177.4256882308
 31
0.0
  0
LINE
  5
3A0
330
24B
100
AcDbEntity
  8
$DDT_AUDIT_GENERATED_(6F)
  6
Continuous
 62
     7
100
AcDbLine
 10
153.0956013327
 20
177.4256882308
 30
0.0
 11
153.297917918
 21
177.4834441881
 31
0.0
  0
LINE
  5
3A1
330
24B
100
AcDbEntity
  8
$DDT_AUDIT_GENERATED_(6F)
  6
Continuous
 62
     7
100
AcDbLine
 10
153.297917918
 20
177.4834441881
 30
0.0
 11
153.6350920312
 21
177.5919776426
 31
0.0
  0
LINE
  5
3A2
330
24B
100
AcDbEntity
  8
$DDT_AUDIT_GENERATED_(6F)
  6
Continuous
 62
     7
100
AcDbLine
 10
153.6350920312
 20
177.5919776426
 30
0.0
 11
153.9722462798
 21
177.7060675734
 31
0.0
  0
LINE
  5
3A3
330
24B
100
AcDbEntity
  8
$DDT_AUDIT_GENERATED_(6F)
  6
Continuous
 62
     7
100
AcDbLine
 10
153.9722462798
 20
177.7060675734
 30
0.0
 11
154.3093868716
 21
177.8144230984
 31
0.0
  0
LINE
  5
3A4
330
24B
100
AcDbEntity
  8
$DDT_AUDIT_GENERATED_(6F)
  6
Continuous
 62
     7
100
AcDbLine
 10
154.3093868716
 20
177.8144230984
 30
0.0
 11
154.5116672538
 21
177.8719868918
 31
0.0
  0
LINE
  5
3A5
330
24B
100
AcDbEntity
  8
$DDT_AUDIT_GENERATED_(6F)
  6
Continuous
 62
     7
100
AcDbLine
 10
154.5116672538
 20
177.8719868918
 30
0.0
 11
154.7139462951
 21
177.9209827512
 31
0.0
  0
LINE
  5
3A6
330
24B
100
AcDbEntity
  8
$DDT_AUDIT_GENERATED_(6F)
  6
Continuous
 62
     7
100
AcDbLine
 10
154.7139462951
 20
177.9209827512
 30
0.0
 11
154.9162253364
 21
177.958971846
 31
0.0
  0
LINE
  5
3A7
330
24B
100
AcDbEntity
  8
$DDT_AUDIT_GENERATED_(6F)
  6
Continuous
 62
     7
100
AcDbLine
 10
154.9162253364
 20
177.958971846
 30
0.0
 11
155.1185057186
 21
177.9835153458
 31
0.0
  0
LINE
  5
3A8
330
24B
100
AcDbEntity
  8
$DDT_AUDIT_GENERATED_(6F)
  6
Continuous
 62
     7
100
AcDbLine
 10
155.1185057186
 20
177.9835153458
 30
0.0
 11
155.3207887825
 21
177.9921744201
 31
0.0
  0
LINE
  5
3A9
330
24B
100
AcDbEntity
  8
$DDT_AUDIT_GENERATED_(6F)
  6
Continuous
 62
     7
100
AcDbLine
 10
155.3207887825
 20
177.9921744201
 30
0.0
 11
155.5217424407
 21
177.9834370282
 31
0.0
  0
LINE
  5
3AA
330
24B
100
AcDbEntity
  8
$DDT_AUDIT_GENERATED_(6F)
  6
Continuous
 62
     7
100
AcDbLine
 10
155.5217424407
 20
177.9834370282
 30
0.0
 11
155.7226998058
 21
177.9590130518
 31
0.0
  0
LINE
  5
3AB
330
24B
100
AcDbEntity
  8
$DDT_AUDIT_GENERATED_(6F)
  6
Continuous
 62
     7
100
AcDbLine
 10
155.7226998058
 20
177.9590130518
 30
0.0
 11
155.9236606147
 21
177.9212984437
 31
0.0
  0
LINE
  5
3AC
330
24B
100
AcDbEntity
  8
$DDT_AUDIT_GENERATED_(6F)
  6
Continuous
 62
     7
100
AcDbLine
 10
155.9236606147
 20
177.9212984437
 30
0.0
 11
156.1246246047
 21
177.8726891568
 31
0.0
  0
LINE
  5
3AD
330
24B
100
AcDbEntity
  8
$DDT_AUDIT_GENERATED_(6F)
  6
Continuous
 62
     7
100
AcDbLine
 10
156.1246246047
 20
177.8726891568
 30
0.0
 11
156.3255915128
 21
177.8155811438
 31
0.0
  0
LINE
  5
3AE
330
24B
100
AcDbEntity
  8
$DDT_AUDIT_GENERATED_(6F)
  6
Continuous
 62
     7
100
AcDbLine
 10
156.3255915128
 20
177.8155811438
 30
0.0
 11
156.6605421302
 21
177.7080225904
 31
0.0
  0
LINE
  5
3AF
330
24B
100
AcDbEntity
  8
$DDT_AUDIT_GENERATED_(6F)
  6
Continuous
 62
     7
100
AcDbLine
 10
156.6605421302
 20
177.7080225904
 30
0.0
 11
156.9954989061
 21
177.5946042634
 31
0.0
  0
LINE
  5
3B0
330
24B
100
AcDbEntity
  8
$DDT_AUDIT_GENERATED_(6F)
  6
Continuous
 62
     7
100
AcDbLine
 10
156.9954989061
 20
177.5946042634
 30
0.0
 11
157.3304606232
 21
177.4864185368
 31
0.0
  0
LINE
  5
3B1
330
24B
100
AcDbEntity
  8
$DDT_AUDIT_GENERATED_(6F)
  6
Continuous
 62
     7
100
AcDbLine
 10
157.3304606232
 20
177.4864185368
 30
0.0
 11
157.5314395189
 21
177.4286331767
 31
0.0
  0
LINE
  5
3B2
330
24B
100
AcDbEntity
  8
$DDT_AUDIT_GENERATED_(6F)
  6
Continuous
 62
     7
100
AcDbLine
 10
157.5314395189
 20
177.4286331767
 30
0.0
 11
157.7324194924
 21
177.3791207603
 31
0.0
  0
LINE
  5
3B3
330
24B
100
AcDbEntity
  8
$DDT_AUDIT_GENERATED_(6F)
  6
Continuous
 62
     7
100
AcDbLine
 10
157.7324194924
 20
177.3791207603
 30
0.0
 11
157.9334002808
 21
177.3402772404
 31
0.0
  0
LINE
  5
3B4
330
24B
100
AcDbEntity
  8
$DDT_AUDIT_GENERATED_(6F)
  6
Continuous
 62
     7
100
AcDbLine
 10
157.9334002808
 20
177.3402772404
 30
0.0
 11
158.1343816212
 21
177.3144985698
 31
0.0
  0
LINE
  5
3B5
330
24B
100
AcDbEntity
  8
$DDT_AUDIT_GENERATED_(6F)
  6
Continuous
 62
     7
100
AcDbLine
 10
158.1343816212
 20
177.3144985698
 30
0.0
 11
158.3353632506
 21
177.3041807014
 31
0.0
  0
LINE
  5
3B6
330
24B
100
AcDbEntity
  8
$DDT_AUDIT_GENERATED_(6F)
  6
Continuous
 62
     7
100
AcDbLine
 10
158.3353632506
 20
177.3041807014
 30
0.0
 11
158.53634488
 21
177.3144985698
 31
0.0
  0
LINE
  5
3B7
330
24B
100
AcDbEntity
  8
$DDT_AUDIT_GENERATED_(6F)
  6
Continuous
 62
     7
100
AcDbLine
 10
158.53634488
 20
177.3144985698
 30
0.0
 11
158.7373262204
 21
177.3402772404
 31
0.0
  0
LINE
  5
3B8
330
24B
100
AcDbEntity
  8
$DDT_AUDIT_GENERATED_(6F)
  6
Continuous
 62
     7
100
AcDbLine
 10
158.7373262204
 20
177.3402772404
 30
0.0
 11
158.9383070088
 21
177.3791207603
 31
0.0
  0
LINE
  5
3B9
330
24B
100
AcDbEntity
  8
$DDT_AUDIT_GENERATED_(6F)
  6
Continuous
 62
     7
100
AcDbLine
 10
158.9383070088
 20
177.3791207603
 30
0.0
 11
159.1392869823
 21
177.4286331767
 31
0.0
  0
LINE
  5
3BA
330
24B
100
AcDbEntity
  8
$DDT_AUDIT_GENERATED_(6F)
  6
Continuous
 62
     7
100
AcDbLine
 10
159.1392869823
 20
177.4286331767
 30
0.0
 11
159.340265878
 21
177.4864185368
 31
0.0
  0
LINE
  5
3BB
330
24B
100
AcDbEntity
  8
$DDT_AUDIT_GENERATED_(6F)
  6
Continuous
 62
     7
100
AcDbLine
 10
159.340265878
 20
177.4864185368
 30
0.0
 11
159.6752275951
 21
177.5946042634
 31
0.0
  0
LINE
  5
3BC
330
24B
100
AcDbEntity
  8
$DDT_AUDIT_GENERATED_(6F)
  6
Continuous
 62
     7
100
AcDbLine
 10
159.6752275951
 20
177.5946042634
 30
0.0
 11
160.010184371
 21
177.7080225904
 31
0.0
  0
LINE
  5
3BD
330
24B
100
AcDbEntity
  8
$DDT_AUDIT_GENERATED_(6F)
  6
Continuous
 62
     7
100
AcDbLine
 10
160.010184371
 20
177.7080225904
 30
0.0
 11
160.3451349884
 21
177.8155811438
 31
0.0
  0
LINE
  5
3BE
330
24B
100
AcDbEntity
  8
$DDT_AUDIT_GENERATED_(6F)
  6
Continuous
 62
     7
100
AcDbLine
 10
160.3451349884
 20
177.8155811438
 30
0.0
 11
160.5461018965
 21
177.8726891568
 31
0.0
  0
LINE
  5
3BF
330
24B
100
AcDbEntity
  8
$DDT_AUDIT_GENERATED_(6F)
  6
Continuous
 62
     7
100
AcDbLine
 10
160.5461018965
 20
177.8726891568
 30
0.0
 11
160.7470658864
 21
177.9212984437
 31
0.0
  0
LINE
  5
3C0
330
24B
100
AcDbEntity
  8
$DDT_AUDIT_GENERATED_(6F)
  6
Continuous
 62
     7
100
AcDbLine
 10
160.7470658864
 20
177.9212984437
 30
0.0
 11
160.9480266954
 21
177.9590130518
 31
0.0
  0
LINE
  5
3C1
330
24B
100
AcDbEntity
  8
$DDT_AUDIT_GENERATED_(6F)
  6
Continuous
 62
     7
100
AcDbLine
 10
160.9480266954
 20
177.9590130518
 30
0.0
 11
161.1489840604
 21
177.9834370282
 31
0.0
  0
LINE
  5
3C2
330
24B
100
AcDbEntity
  8
$DDT_AUDIT_GENERATED_(6F)
  6
Continuous
 62
     7
100
AcDbLine
 10
161.1489840604
 20
177.9834370282
 30
0.0
 11
161.3499377187
 21
177.9921744201
 31
0.0
  0
LINE
  5
3C3
330
24B
100
AcDbEntity
  8
$DDT_AUDIT_GENERATED_(6F)
  6
Continuous
 62
     7
100
AcDbLine
 10
161.3499377187
 20
177.9921744201
 30
0.0
 11
161.5522207826
 21
177.9835153458
 31
0.0
  0
LINE
  5
3C4
330
24B
100
AcDbEntity
  8
$DDT_AUDIT_GENERATED_(6F)
  6
Continuous
 62
     7
100
AcDbLine
 10
161.5522207826
 20
177.9835153458
 30
0.0
 11
161.7545011647
 21
177.958971846
 31
0.0
  0
LINE
  5
3C5
330
24B
100
AcDbEntity
  8
$DDT_AUDIT_GENERATED_(6F)
  6
Continuous
 62
     7
100
AcDbLine
 10
161.7545011647
 20
177.958971846
 30
0.0
 11
161.956780206
 21
177.9209827512
 31
0.0
  0
LINE
  5
3C6
330
24B
100
AcDbEntity
  8
$DDT_AUDIT_GENERATED_(6F)
  6
Continuous
 62
     7
100
AcDbLine
 10
161.956780206
 20
177.9209827512
 30
0.0
 11
162.1590592474
 21
177.8719868918
 31
0.0
  0
LINE
  5
3C7
330
24B
100
AcDbEntity
  8
$DDT_AUDIT_GENERATED_(6F)
  6
Continuous
 62
     7
100
AcDbLine
 10
162.1590592474
 20
177.8719868918
 30
0.0
 11
162.3613396295
 21
177.8144230984
 31
0.0
  0
LINE
  5
3C8
330
24B
100
AcDbEntity
  8
$DDT_AUDIT_GENERATED_(6F)
  6
Continuous
 62
     7
100
AcDbLine
 10
162.3613396295
 20
177.8144230984
 30
0.0
 11
162.6984802213
 21
177.7060675734
 31
0.0
  0
LINE
  5
3C9
330
24B
100
AcDbEntity
  8
$DDT_AUDIT_GENERATED_(6F)
  6
Continuous
 62
     7
100
AcDbLine
 10
162.6984802213
 20
177.7060675734
 30
0.0
 11
163.03563447
 21
177.5919776426
 31
0.0
  0
LINE
  5
3CA
330
24B
100
AcDbEntity
  8
$DDT_AUDIT_GENERATED_(6F)
  6
Continuous
 62
     7
100
AcDbLine
 10
163.03563447
 20
177.5919776426
 30
0.0
 11
163.3728085832
 21
177.4834441881
 31
0.0
  0
LINE
  5
3CB
330
24B
100
AcDbEntity
  8
$DDT_AUDIT_GENERATED_(6F)
  6
Continuous
 62
     7
100
AcDbLine
 10
163.3728085832
 20
177.4834441881
 30
0.0
 11
163.5751251685
 21
177.4256882308
 31
0.0
  0
LINE
  5
3CC
330
24B
100
AcDbEntity
  8
$DDT_AUDIT_GENERATED_(6F)
  6
Continuous
 62
     7
100
AcDbLine
 10
163.5751251685
 20
177.4256882308
 30
0.0
 11
163.7774524806
 21
177.3764361529
 31
0.0
  0
LINE
  5
3CD
330
24B
100
AcDbEntity
  8
$DDT_AUDIT_GENERATED_(6F)
  6
Continuous
 62
     7
100
AcDbLine
 10
163.7774524806
 20
177.3764361529
 30
0.0
 11
163.9797918605
 21
177.338126785
 31
0.0
  0
LINE
  5
3CE
330
24B
100
AcDbEntity
  8
$DDT_AUDIT_GENERATED_(6F)
  6
Continuous
 62
     7
100
AcDbLine
 10
163.9797918605
 20
177.338126785
 30
0.0
 11
164.1821446489
 21
177.3131989574
 31
0.0
  0
LINE
  5
3CF
330
24B
100
AcDbEntity
  8
$DDT_AUDIT_GENERATED_(6F)
  6
Continuous
 62
     7
100
AcDbLine
 10
164.1821446489
 20
177.3131989574
 30
0.0
 11
164.3845121868
 21
177.3040915007
 31
0.0
  0
LINE
  5
3D0
330
24B
100
AcDbEntity
  8
$DDT_AUDIT_GENERATED_(6F)
  6
Continuous
 62
     7
100
AcDbLine
 10
164.3845121868
 20
177.3040915007
 30
0.0
 11
164.4721267436
 21
177.3056035098
 31
0.0
  0
LINE
  5
3D1
330
24B
100
AcDbEntity
  8
$DDT_AUDIT_GENERATED_(6F)
  6
Continuous
 62
     7
100
AcDbLine
 10
164.4721267436
 20
177.3056035098
 30
0.0
 11
164.5597439027
 21
177.3103414908
 31
0.0
  0
LINE
  5
3D2
330
24B
100
AcDbEntity
  8
$DDT_AUDIT_GENERATED_(6F)
  6
Continuous
 62
     7
100
AcDbLine
 10
164.5597439027
 20
177.3103414908
 30
0.0
 11
164.6473632506
 21
177.3181092204
 31
0.0
  0
LINE
  5
3D3
330
24B
100
AcDbEntity
  8
$DDT_AUDIT_GENERATED_(6F)
  6
Continuous
 62
     7
100
AcDbLine
 10
164.6473632506
 20
177.3181092204
 30
0.0
 11
164.6868447197
 21
177.3649063339
 31
0.0
  0
LINE
  5
3D4
330
24B
100
AcDbEntity
  8
$DDT_AUDIT_GENERATED_(6F)
  6
Continuous
 62
     7
100
AcDbLine
 10
164.6868447197
 20
177.3649063339
 30
0.0
 11
164.724754762
 21
177.4130757222
 31
0.0
  0
LINE
  5
3D5
330
24B
100
AcDbEntity
  8
$DDT_AUDIT_GENERATED_(6F)
  6
Continuous
 62
     7
100
AcDbLine
 10
164.724754762
 20
177.4130757222
 30
0.0
 11
164.7727365904
 21
177.4792966976
 31
0.0
  0
LINE
  5
3D6
330
24B
100
AcDbEntity
  8
$DDT_AUDIT_GENERATED_(6F)
  6
Continuous
 62
     7
100
AcDbLine
 10
164.7727365904
 20
177.4792966976
 30
0.0
 11
164.8176499625
 21
177.5476107761
 31
0.0
  0
LINE
  5
3D7
330
24B
100
AcDbEntity
  8
$DDT_AUDIT_GENERATED_(6F)
  6
Continuous
 62
     7
100
AcDbLine
 10
164.8176499625
 20
177.5476107761
 30
0.0
 11
164.8593632506
 21
177.6178020878
 31
0.0
  0
LINE
  5
3D8
330
24B
100
AcDbEntity
  8
$DDT_AUDIT_GENERATED_(6F)
  6
Continuous
 62
     7
100
AcDbLine
 10
164.8593632506
 20
177.6178020878
 30
0.0
 11
164.7835515508
 21
177.6057851444
 31
0.0
  0
LINE
  5
3D9
330
24B
100
AcDbEntity
  8
$DDT_AUDIT_GENERATED_(6F)
  6
Continuous
 62
     7
100
AcDbLine
 10
164.7835515508
 20
177.6057851444
 30
0.0
 11
164.7077407696
 21
177.5956943166
 31
0.0
  0
LINE
  5
3DA
330
24B
100
AcDbEntity
  8
$DDT_AUDIT_GENERATED_(6F)
  6
Continuous
 62
     7
100
AcDbLine
 10
164.7077407696
 20
177.5956943166
 30
0.0
 11
164.6066616199
 21
177.5854556936
 31
0.0
  0
LINE
  5
3DB
330
24B
100
AcDbEntity
  8
$DDT_AUDIT_GENERATED_(6F)
  6
Continuous
 62
     7
100
AcDbLine
 10
164.6066616199
 20
177.5854556936
 30
0.0
 11
164.505585214
 21
177.5791683985
 31
0.0
  0
LINE
  5
3DC
330
24B
100
AcDbEntity
  8
$DDT_AUDIT_GENERATED_(6F)
  6
Continuous
 62
     7
100
AcDbLine
 10
164.505585214
 20
177.5791683985
 30
0.0
 11
164.4045121868
 21
177.5771336439
 31
0.0
  0
LINE
  5
3DD
330
24B
100
AcDbEntity
  8
$DDT_AUDIT_GENERATED_(6F)
  6
Continuous
 62
     7
100
AcDbLine
 10
164.4045121868
 20
177.5771336439
 30
0.0
 11
164.2021446489
 21
177.5862400263
 31
0.0
  0
LINE
  5
3DE
330
24B
100
AcDbEntity
  8
$DDT_AUDIT_GENERATED_(6F)
  6
Continuous
 62
     7
100
AcDbLine
 10
164.2021446489
 20
177.5862400263
 30
0.0
 11
163.9997918605
 21
177.6111649135
 31
0.0
  0
LINE
  5
3DF
330
24B
100
AcDbEntity
  8
$DDT_AUDIT_GENERATED_(6F)
  6
Continuous
 62
     7
100
AcDbLine
 10
163.9997918605
 20
177.6111649135
 30
0.0
 11
163.7974524806
 21
177.6494697626
 31
0.0
  0
LINE
  5
3E0
330
24B
100
AcDbEntity
  8
$DDT_AUDIT_GENERATED_(6F)
  6
Continuous
 62
     7
100
AcDbLine
 10
163.7974524806
 20
177.6494697626
 30
0.0
 11
163.5951251685
 21
177.6987160309
 31
0.0
  0
LINE
  5
3E1
330
24B
100
AcDbEntity
  8
$DDT_AUDIT_GENERATED_(6F)
  6
Continuous
 62
     7
100
AcDbLine
 10
163.5951251685
 20
177.6987160309
 30
0.0
 11
163.3928085832
 21
177.7564651754
 31
0.0
  0
LINE
  5
3E2
330
24B
100
AcDbEntity
  8
$DDT_AUDIT_GENERATED_(6F)
  6
Continuous
 62
     7
100
AcDbLine
 10
163.3928085832
 20
177.7564651754
 30
0.0
 11
163.05563447
 21
177.8649858276
 31
0.0
  0
LINE
  5
3E3
330
24B
100
AcDbEntity
  8
$DDT_AUDIT_GENERATED_(6F)
  6
Continuous
 62
     7
100
AcDbLine
 10
163.05563447
 20
177.8649858276
 30
0.0
 11
162.7184802213
 21
177.9790623007
 31
0.0
  0
LINE
  5
3E4
330
24B
100
AcDbEntity
  8
$DDT_AUDIT_GENERATED_(6F)
  6
Continuous
 62
     7
100
AcDbLine
 10
162.7184802213
 20
177.9790623007
 30
0.0
 11
162.3813396295
 21
178.0874050444
 31
0.0
  0
LINE
  5
3E5
330
24B
100
AcDbEntity
  8
$DDT_AUDIT_GENERATED_(6F)
  6
Continuous
 62
     7
100
AcDbLine
 10
163.8553632506
 20
176.6892816991
 30
0.0
 11
163.8180680134
 21
176.6511094701
 31
0.0
  0
LINE
  5
3E6
330
24B
100
AcDbEntity
  8
$DDT_AUDIT_GENERATED_(6F)
  6
Continuous
 62
     7
100
AcDbLine
 10
163.8180680134
 20
176.6511094701
 30
0.0
 11
163.7796232234
 21
176.6140275043
 31
0.0
  0
LINE
  5
3E7
330
24B
100
AcDbEntity
  8
$DDT_AUDIT_GENERATED_(6F)
  6
Continuous
 62
     7
100
AcDbLine
 10
163.7796232234
 20
176.6140275043
 30
0.0
 11
163.6994822066
 21
176.5433362219
 31
0.0
  0
LINE
  5
3E8
330
24B
100
AcDbEntity
  8
$DDT_AUDIT_GENERATED_(6F)
  6
Continuous
 62
     7
100
AcDbLine
 10
163.6994822066
 20
176.5433362219
 30
0.0
 11
163.6153632506
 21
176.4775810184
 31
0.0
  0
LINE
  5
3E9
330
24B
100
AcDbEntity
  8
$DDT_AUDIT_GENERATED_(6F)
  6
Continuous
 62
     7
100
AcDbLine
 10
163.6153632506
 20
176.4775810184
 30
0.0
 11
162.3499377187
 21
176.8572153146
 31
0.0
  0
LINE
  5
3EA
330
24B
100
AcDbEntity
  8
$DDT_AUDIT_GENERATED_(6F)
  6
Continuous
 62
     7
100
AcDbLine
 10
162.3499377187
 20
176.8572153146
 30
0.0
 11
162.183271004
 21
176.9048619597
 31
0.0
  0
LINE
  5
3EB
330
24B
100
AcDbEntity
  8
$DDT_AUDIT_GENERATED_(6F)
  6
Continuous
 62
     7
100
AcDbLine
 10
162.183271004
 20
176.9048619597
 30
0.0
 11
162.0166053085
 21
176.9468902196
 31
0.0
  0
LINE
  5
3EC
330
24B
100
AcDbEntity
  8
$DDT_AUDIT_GENERATED_(6F)
  6
Continuous
 62
     7
100
AcDbLine
 10
162.0166053085
 20
176.9468902196
 30
0.0
 11
161.9054950407
 21
176.971114073
 31
0.0
  0
LINE
  5
3ED
330
24B
100
AcDbEntity
  8
$DDT_AUDIT_GENERATED_(6F)
  6
Continuous
 62
     7
100
AcDbLine
 10
161.9054950407
 20
176.971114073
 30
0.0
 11
161.7943846703
 21
176.9918303743
 31
0.0
  0
LINE
  5
3EE
330
24B
100
AcDbEntity
  8
$DDT_AUDIT_GENERATED_(6F)
  6
Continuous
 62
     7
100
AcDbLine
 10
161.7943846703
 20
176.9918303743
 30
0.0
 11
161.6832739752
 21
177.0086349266
 31
0.0
  0
LINE
  5
3EF
330
24B
100
AcDbEntity
  8
$DDT_AUDIT_GENERATED_(6F)
  6
Continuous
 62
     7
100
AcDbLine
 10
161.6832739752
 20
177.0086349266
 30
0.0
 11
161.572162733
 21
177.0211235333
 31
0.0
  0
LINE
  5
3F0
330
24B
100
AcDbEntity
  8
$DDT_AUDIT_GENERATED_(6F)
  6
Continuous
 62
     7
100
AcDbLine
 10
161.572162733
 20
177.0211235333
 30
0.0
 11
161.4610507216
 21
177.0288919974
 31
0.0
  0
LINE
  5
3F1
330
24B
100
AcDbEntity
  8
$DDT_AUDIT_GENERATED_(6F)
  6
Continuous
 62
     7
100
AcDbLine
 10
161.4610507216
 20
177.0288919974
 30
0.0
 11
161.3499377187
 21
177.0315361223
 31
0.0
  0
LINE
  5
3F2
330
24B
100
AcDbEntity
  8
$DDT_AUDIT_GENERATED_(6F)
  6
Continuous
 62
     7
100
AcDbLine
 10
161.3499377187
 20
177.0315361223
 30
0.0
 11
161.1489840604
 21
177.0227987303
 31
0.0
  0
LINE
  5
3F3
330
24B
100
AcDbEntity
  8
$DDT_AUDIT_GENERATED_(6F)
  6
Continuous
 62
     7
100
AcDbLine
 10
161.1489840604
 20
177.0227987303
 30
0.0
 11
160.9480266954
 21
176.9983747539
 31
0.0
  0
LINE
  5
3F4
330
24B
100
AcDbEntity
  8
$DDT_AUDIT_GENERATED_(6F)
  6
Continuous
 62
     7
100
AcDbLine
 10
160.9480266954
 20
176.9983747539
 30
0.0
 11
160.7470658864
 21
176.9606601458
 31
0.0
  0
LINE
  5
3F5
330
24B
100
AcDbEntity
  8
$DDT_AUDIT_GENERATED_(6F)
  6
Continuous
 62
     7
100
AcDbLine
 10
160.7470658864
 20
176.9606601458
 30
0.0
 11
160.5461018965
 21
176.9120508589
 31
0.0
  0
LINE
  5
3F6
330
24B
100
AcDbEntity
  8
$DDT_AUDIT_GENERATED_(6F)
  6
Continuous
 62
     7
100
AcDbLine
 10
160.5461018965
 20
176.9120508589
 30
0.0
 11
160.3451349884
 21
176.8549428459
 31
0.0
  0
LINE
  5
3F7
330
24B
100
AcDbEntity
  8
$DDT_AUDIT_GENERATED_(6F)
  6
Continuous
 62
     7
100
AcDbLine
 10
160.3451349884
 20
176.8549428459
 30
0.0
 11
160.010184371
 21
176.7473842926
 31
0.0
  0
LINE
  5
3F8
330
24B
100
AcDbEntity
  8
$DDT_AUDIT_GENERATED_(6F)
  6
Continuous
 62
     7
100
AcDbLine
 10
160.010184371
 20
176.7473842926
 30
0.0
 11
159.6752275951
 21
176.6339659655
 31
0.0
  0
LINE
  5
3F9
330
24B
100
AcDbEntity
  8
$DDT_AUDIT_GENERATED_(6F)
  6
Continuous
 62
     7
100
AcDbLine
 10
159.6752275951
 20
176.6339659655
 30
0.0
 11
159.340265878
 21
176.5257802389
 31
0.0
  0
LINE
  5
3FA
330
24B
100
AcDbEntity
  8
$DDT_AUDIT_GENERATED_(6F)
  6
Continuous
 62
     7
100
AcDbLine
 10
159.340265878
 20
176.5257802389
 30
0.0
 11
159.1392869823
 21
176.4679948789
 31
0.0
  0
LINE
  5
3FB
330
24B
100
AcDbEntity
  8
$DDT_AUDIT_GENERATED_(6F)
  6
Continuous
 62
     7
100
AcDbLine
 10
159.1392869823
 20
176.4679948789
 30
0.0
 11
158.9383070088
 21
176.4184824625
 31
0.0
  0
LINE
  5
3FC
330
24B
100
AcDbEntity
  8
$DDT_AUDIT_GENERATED_(6F)
  6
Continuous
 62
     7
100
AcDbLine
 10
158.9383070088
 20
176.4184824625
 30
0.0
 11
158.7373262204
 21
176.3796389425
 31
0.0
  0
LINE
  5
3FD
330
24B
100
AcDbEntity
  8
$DDT_AUDIT_GENERATED_(6F)
  6
Continuous
 62
     7
100
AcDbLine
 10
158.7373262204
 20
176.3796389425
 30
0.0
 11
158.53634488
 21
176.353860272
 31
0.0
  0
LINE
  5
3FE
330
24B
100
AcDbEntity
  8
$DDT_AUDIT_GENERATED_(6F)
  6
Continuous
 62
     7
100
AcDbLine
 10
158.53634488
 20
176.353860272
 30
0.0
 11
158.3353632506
 21
176.3435424035
 31
0.0
  0
LINE
  5
3FF
330
24B
100
AcDbEntity
  8
$DDT_AUDIT_GENERATED_(6F)
  6
Continuous
 62
     7
100
AcDbLine
 10
158.3353632506
 20
176.3435424035
 30
0.0
 11
158.1343816212
 21
176.353860272
 31
0.0
  0
LINE
  5
400
330
24B
100
AcDbEntity
  8
$DDT_AUDIT_GENERATED_(6F)
  6
Continuous
 62
     7
100
AcDbLine
 10
158.1343816212
 20
176.353860272
 30
0.0
 11
157.9334002808
 21
176.3796389425
 31
0.0
  0
LINE
  5
401
330
24B
100
AcDbEntity
  8
$DDT_AUDIT_GENERATED_(6F)
  6
Continuous
 62
     7
100
AcDbLine
 10
157.9334002808
 20
176.3796389425
 30
0.0
 11
157.7324194924
 21
176.4184824625
 31
0.0
  0
LINE
  5
402
330
24B
100
AcDbEntity
  8
$DDT_AUDIT_GENERATED_(6F)
  6
Continuous
 62
     7
100
AcDbLine
 10
157.7324194924
 20
176.4184824625
 30
0.0
 11
157.5314395189
 21
176.4679948789
 31
0.0
  0
LINE
  5
403
330
24B
100
AcDbEntity
  8
$DDT_AUDIT_GENERATED_(6F)
  6
Continuous
 62
     7
100
AcDbLine
 10
157.5314395189
 20
176.4679948789
 30
0.0
 11
157.3304606232
 21
176.5257802389
 31
0.0
  0
LINE
  5
404
330
24B
100
AcDbEntity
  8
$DDT_AUDIT_GENERATED_(6F)
  6
Continuous
 62
     7
100
AcDbLine
 10
157.3304606232
 20
176.5257802389
 30
0.0
 11
156.9954989061
 21
176.6339659655
 31
0.0
  0
LINE
  5
405
330
24B
100
AcDbEntity
  8
$DDT_AUDIT_GENERATED_(6F)
  6
Continuous
 62
     7
100
AcDbLine
 10
156.9954989061
 20
176.6339659655
 30
0.0
 11
156.6605421302
 21
176.7473842926
 31
0.0
  0
LINE
  5
406
330
24B
100
AcDbEntity
  8
$DDT_AUDIT_GENERATED_(6F)
  6
Continuous
 62
     7
100
AcDbLine
 10
156.6605421302
 20
176.7473842926
 30
0.0
 11
156.3255915128
 21
176.8549428459
 31
0.0
  0
LINE
  5
407
330
24B
100
AcDbEntity
  8
$DDT_AUDIT_GENERATED_(6F)
  6
Continuous
 62
     7
100
AcDbLine
 10
156.3255915128
 20
176.8549428459
 30
0.0
 11
156.1246246047
 21
176.9120508589
 31
0.0
  0
LINE
  5
408
330
24B
100
AcDbEntity
  8
$DDT_AUDIT_GENERATED_(6F)
  6
Continuous
 62
     7
100
AcDbLine
 10
156.1246246047
 20
176.9120508589
 30
0.0
 11
155.9236606147
 21
176.9606601458
 31
0.0
  0
LINE
  5
409
330
24B
100
AcDbEntity
  8
$DDT_AUDIT_GENERATED_(6F)
  6
Continuous
 62
     7
100
AcDbLine
 10
155.9236606147
 20
176.9606601458
 30
0.0
 11
155.7226998058
 21
176.9983747539
 31
0.0
  0
LINE
  5
40A
330
24B
100
AcDbEntity
  8
$DDT_AUDIT_GENERATED_(6F)
  6
Continuous
 62
     7
100
AcDbLine
 10
155.7226998058
 20
176.9983747539
 30
0.0
 11
155.5217424407
 21
177.0227987303
 31
0.0
  0
LINE
  5
40B
330
24B
100
AcDbEntity
  8
$DDT_AUDIT_GENERATED_(6F)
  6
Continuous
 62
     7
100
AcDbLine
 10
155.5217424407
 20
177.0227987303
 30
0.0
 11
155.3207887825
 21
177.0315361222
 31
0.0
  0
LINE
  5
40C
330
24B
100
AcDbEntity
  8
$DDT_AUDIT_GENERATED_(6F)
  6
Continuous
 62
     7
100
AcDbLine
 10
155.3207887825
 20
177.0315361222
 30
0.0
 11
155.2096757796
 21
177.0288919974
 31
0.0
  0
LINE
  5
40D
330
24B
100
AcDbEntity
  8
$DDT_AUDIT_GENERATED_(6F)
  6
Continuous
 62
     7
100
AcDbLine
 10
155.2096757796
 20
177.0288919974
 30
0.0
 11
155.0985637682
 21
177.0211235333
 31
0.0
  0
LINE
  5
40E
330
24B
100
AcDbEntity
  8
$DDT_AUDIT_GENERATED_(6F)
  6
Continuous
 62
     7
100
AcDbLine
 10
155.0985637682
 20
177.0211235333
 30
0.0
 11
154.987452526
 21
177.0086349266
 31
0.0
  0
LINE
  5
40F
330
24B
100
AcDbEntity
  8
$DDT_AUDIT_GENERATED_(6F)
  6
Continuous
 62
     7
100
AcDbLine
 10
154.987452526
 20
177.0086349266
 30
0.0
 11
154.8763418308
 21
176.9918303743
 31
0.0
  0
LINE
  5
410
330
24B
100
AcDbEntity
  8
$DDT_AUDIT_GENERATED_(6F)
  6
Continuous
 62
     7
100
AcDbLine
 10
154.8763418308
 20
176.9918303743
 30
0.0
 11
154.7652314605
 21
176.971114073
 31
0.0
  0
LINE
  5
411
330
24B
100
AcDbEntity
  8
$DDT_AUDIT_GENERATED_(6F)
  6
Continuous
 62
     7
100
AcDbLine
 10
154.7652314605
 20
176.971114073
 30
0.0
 11
154.6541211927
 21
176.9468902196
 31
0.0
  0
LINE
  5
412
330
24B
100
AcDbEntity
  8
$DDT_AUDIT_GENERATED_(6F)
  6
Continuous
 62
     7
100
AcDbLine
 10
154.6541211927
 20
176.9468902196
 30
0.0
 11
154.4874554972
 21
176.9048619597
 31
0.0
  0
LINE
  5
413
330
24B
100
AcDbEntity
  8
$DDT_AUDIT_GENERATED_(6F)
  6
Continuous
 62
     7
100
AcDbLine
 10
154.4874554972
 20
176.9048619597
 30
0.0
 11
154.3207887825
 21
176.8572153146
 31
0.0
  0
LINE
  5
414
330
24B
100
AcDbEntity
  8
$DDT_AUDIT_GENERATED_(6F)
  6
Continuous
 62
     7
100
AcDbLine
 10
154.3207887825
 20
176.8572153146
 30
0.0
 11
153.0553632506
 21
176.4775810184
 31
0.0
  0
LINE
  5
415
330
24B
100
AcDbEntity
  8
$DDT_AUDIT_GENERATED_(6F)
  6
Continuous
 62
     7
100
AcDbLine
 10
153.0553632506
 20
176.4775810184
 30
0.0
 11
153.0128346423
 21
176.5098202996
 31
0.0
  0
LINE
  5
416
330
24B
100
AcDbEntity
  8
$DDT_AUDIT_GENERATED_(6F)
  6
Continuous
 62
     7
100
AcDbLine
 10
153.0128346423
 20
176.5098202996
 30
0.0
 11
152.9712442946
 21
176.5433362219
 31
0.0
  0
LINE
  5
417
330
24B
100
AcDbEntity
  8
$DDT_AUDIT_GENERATED_(6F)
  6
Continuous
 62
     7
100
AcDbLine
 10
152.9712442946
 20
176.5433362219
 30
0.0
 11
152.8911032778
 21
176.6140275043
 31
0.0
  0
LINE
  5
418
330
24B
100
AcDbEntity
  8
$DDT_AUDIT_GENERATED_(6F)
  6
Continuous
 62
     7
100
AcDbLine
 10
152.8911032778
 20
176.6140275043
 30
0.0
 11
152.8153632506
 21
176.6892816991
 31
0.0
  0
LINE
  5
419
330
24B
100
AcDbEntity
  8
$DDT_AUDIT_GENERATED_(6F)
  6
Continuous
 62
     7
100
AcDbLine
 10
152.8153632506
 20
176.6892816991
 30
0.0
 11
154.3207887825
 21
177.1361652374
 31
0.0
  0
LINE
  5
41A
330
24B
100
AcDbEntity
  8
$DDT_AUDIT_GENERATED_(6F)
  6
Continuous
 62
     7
100
AcDbLine
 10
154.3207887825
 20
177.1361652374
 30
0.0
 11
154.4841220299
 21
177.1823154958
 31
0.0
  0
LINE
  5
41B
330
24B
100
AcDbEntity
  8
$DDT_AUDIT_GENERATED_(6F)
  6
Continuous
 62
     7
100
AcDbLine
 10
154.4841220299
 20
177.1823154958
 30
0.0
 11
154.6474543705
 21
177.2229394941
 31
0.0
  0
LINE
  5
41C
330
24B
100
AcDbEntity
  8
$DDT_AUDIT_GENERATED_(6F)
  6
Continuous
 62
     7
100
AcDbLine
 10
154.6474543705
 20
177.2229394941
 30
0.0
 11
154.7563424423
 21
177.2463180452
 31
0.0
  0
LINE
  5
41D
330
24B
100
AcDbEntity
  8
$DDT_AUDIT_GENERATED_(6F)
  6
Continuous
 62
     7
100
AcDbLine
 10
154.7563424423
 20
177.2463180452
 30
0.0
 11
154.865230634
 21
177.2662895257
 31
0.0
  0
LINE
  5
41E
330
24B
100
AcDbEntity
  8
$DDT_AUDIT_GENERATED_(6F)
  6
Continuous
 62
     7
100
AcDbLine
 10
154.865230634
 20
177.2662895257
 30
0.0
 11
154.9741191547
 21
177.2824735535
 31
0.0
  0
LINE
  5
41F
330
24B
100
AcDbEntity
  8
$DDT_AUDIT_GENERATED_(6F)
  6
Continuous
 62
     7
100
AcDbLine
 10
154.9741191547
 20
177.2824735535
 30
0.0
 11
155.0830082136
 21
177.2944897467
 31
0.0
  0
LINE
  5
420
330
24B
100
AcDbEntity
  8
$DDT_AUDIT_GENERATED_(6F)
  6
Continuous
 62
     7
100
AcDbLine
 10
155.0830082136
 20
177.2944897467
 30
0.0
 11
155.1918980198
 21
177.3019577233
 31
0.0
  0
LINE
  5
421
330
24B
100
AcDbEntity
  8
$DDT_AUDIT_GENERATED_(6F)
  6
Continuous
 62
     7
100
AcDbLine
 10
155.1918980198
 20
177.3019577233
 30
0.0
 11
155.3007887825
 21
177.3044971012
 31
0.0
  0
LINE
  5
422
330
24B
100
AcDbEntity
  8
$DDT_AUDIT_GENERATED_(6F)
  6
Continuous
 62
     7
100
AcDbLine
 10
155.3007887825
 20
177.3044971012
 30
0.0
 11
155.5030756008
 21
177.295647761
 31
0.0
  0
LINE
  5
423
330
24B
100
AcDbEntity
  8
$DDT_AUDIT_GENERATED_(6F)
  6
Continuous
 62
     7
100
AcDbLine
 10
155.5030756008
 20
177.295647761
 30
0.0
 11
155.7053661735
 21
177.2709209928
 31
0.0
  0
LINE
  5
424
330
24B
100
AcDbEntity
  8
$DDT_AUDIT_GENERATED_(6F)
  6
Continuous
 62
     7
100
AcDbLine
 10
155.7053661735
 20
177.2709209928
 30
0.0
 11
155.9076602324
 21
177.2327604631
 31
0.0
  0
LINE
  5
425
330
24B
100
AcDbEntity
  8
$DDT_AUDIT_GENERATED_(6F)
  6
Continuous
 62
     7
100
AcDbLine
 10
155.9076602324
 20
177.2327604631
 30
0.0
 11
156.1099575093
 21
177.1836098385
 31
0.0
  0
LINE
  5
426
330
24B
100
AcDbEntity
  8
$DDT_AUDIT_GENERATED_(6F)
  6
Continuous
 62
     7
100
AcDbLine
 10
156.1099575093
 20
177.1836098385
 30
0.0
 11
156.3122577362
 21
177.1259127855
 31
0.0
  0
LINE
  5
427
330
24B
100
AcDbEntity
  8
$DDT_AUDIT_GENERATED_(6F)
  6
Continuous
 62
     7
100
AcDbLine
 10
156.3122577362
 20
177.1259127855
 30
0.0
 11
156.6494306079
 21
177.0173960868
 31
0.0
  0
LINE
  5
428
330
24B
100
AcDbEntity
  8
$DDT_AUDIT_GENERATED_(6F)
  6
Continuous
 62
     7
100
AcDbLine
 10
156.6494306079
 20
177.0173960868
 30
0.0
 11
156.9866096872
 21
176.9032405433
 31
0.0
  0
LINE
  5
429
330
24B
100
AcDbEntity
  8
$DDT_AUDIT_GENERATED_(6F)
  6
Continuous
 62
     7
100
AcDbLine
 10
156.9866096872
 20
176.9032405433
 30
0.0
 11
157.3237937327
 21
176.7947594263
 31
0.0
  0
LINE
  5
42A
330
24B
100
AcDbEntity
  8
$DDT_AUDIT_GENERATED_(6F)
  6
Continuous
 62
     7
100
AcDbLine
 10
157.3237937327
 20
176.7947594263
 30
0.0
 11
157.5261060272
 21
176.7371008016
 31
0.0
  0
LINE
  5
42B
330
24B
100
AcDbEntity
  8
$DDT_AUDIT_GENERATED_(6F)
  6
Continuous
 62
     7
100
AcDbLine
 10
157.5261060272
 20
176.7371008016
 30
0.0
 11
157.7284193945
 21
176.6880014147
 31
0.0
  0
LINE
  5
42C
330
24B
100
AcDbEntity
  8
$DDT_AUDIT_GENERATED_(6F)
  6
Continuous
 62
     7
100
AcDbLine
 10
157.7284193945
 20
176.6880014147
 30
0.0
 11
157.9307335662
 21
176.6499049321
 31
0.0
  0
LINE
  5
42D
330
24B
100
AcDbEntity
  8
$DDT_AUDIT_GENERATED_(6F)
  6
Continuous
 62
     7
100
AcDbLine
 10
157.9307335662
 20
176.6499049321
 30
0.0
 11
158.1330482743
 21
176.6252550203
 31
0.0
  0
LINE
  5
42E
330
24B
100
AcDbEntity
  8
$DDT_AUDIT_GENERATED_(6F)
  6
Continuous
 62
     7
100
AcDbLine
 10
158.1330482743
 20
176.6252550203
 30
0.0
 11
158.3353632506
 21
176.6164953461
 31
0.0
  0
LINE
  5
42F
330
24B
100
AcDbEntity
  8
$DDT_AUDIT_GENERATED_(6F)
  6
Continuous
 62
     7
100
AcDbLine
 10
158.3353632506
 20
176.6164953461
 30
0.0
 11
158.5376782269
 21
176.6252550203
 31
0.0
  0
LINE
  5
430
330
24B
100
AcDbEntity
  8
$DDT_AUDIT_GENERATED_(6F)
  6
Continuous
 62
     7
100
AcDbLine
 10
158.5376782269
 20
176.6252550203
 30
0.0
 11
158.739992935
 21
176.6499049321
 31
0.0
  0
LINE
  5
431
330
24B
100
AcDbEntity
  8
$DDT_AUDIT_GENERATED_(6F)
  6
Continuous
 62
     7
100
AcDbLine
 10
158.739992935
 20
176.6499049321
 30
0.0
 11
158.9423071067
 21
176.6880014147
 31
0.0
  0
LINE
  5
432
330
24B
100
AcDbEntity
  8
$DDT_AUDIT_GENERATED_(6F)
  6
Continuous
 62
     7
100
AcDbLine
 10
158.9423071067
 20
176.6880014147
 30
0.0
 11
159.1446204739
 21
176.7371008016
 31
0.0
  0
LINE
  5
433
330
24B
100
AcDbEntity
  8
$DDT_AUDIT_GENERATED_(6F)
  6
Continuous
 62
     7
100
AcDbLine
 10
159.1446204739
 20
176.7371008016
 30
0.0
 11
159.3469327685
 21
176.7947594263
 31
0.0
  0
LINE
  5
434
330
24B
100
AcDbEntity
  8
$DDT_AUDIT_GENERATED_(6F)
  6
Continuous
 62
     7
100
AcDbLine
 10
159.3469327685
 20
176.7947594263
 30
0.0
 11
159.684116814
 21
176.9032405433
 31
0.0
  0
LINE
  5
435
330
24B
100
AcDbEntity
  8
$DDT_AUDIT_GENERATED_(6F)
  6
Continuous
 62
     7
100
AcDbLine
 10
159.684116814
 20
176.9032405433
 30
0.0
 11
160.0212958933
 21
177.0173960868
 31
0.0
  0
LINE
  5
436
330
24B
100
AcDbEntity
  8
$DDT_AUDIT_GENERATED_(6F)
  6
Continuous
 62
     7
100
AcDbLine
 10
160.0212958933
 20
177.0173960868
 30
0.0
 11
160.358468765
 21
177.1259127855
 31
0.0
  0
LINE
  5
437
330
24B
100
AcDbEntity
  8
$DDT_AUDIT_GENERATED_(6F)
  6
Continuous
 62
     7
100
AcDbLine
 10
160.358468765
 20
177.1259127855
 30
0.0
 11
160.5607689918
 21
177.1836098385
 31
0.0
  0
LINE
  5
438
330
24B
100
AcDbEntity
  8
$DDT_AUDIT_GENERATED_(6F)
  6
Continuous
 62
     7
100
AcDbLine
 10
160.5607689918
 20
177.1836098385
 30
0.0
 11
160.7630662688
 21
177.2327604631
 31
0.0
  0
LINE
  5
439
330
24B
100
AcDbEntity
  8
$DDT_AUDIT_GENERATED_(6F)
  6
Continuous
 62
     7
100
AcDbLine
 10
160.7630662688
 20
177.2327604631
 30
0.0
 11
160.9653603277
 21
177.2709209928
 31
0.0
  0
LINE
  5
43A
330
24B
100
AcDbEntity
  8
$DDT_AUDIT_GENERATED_(6F)
  6
Continuous
 62
     7
100
AcDbLine
 10
160.9653603277
 20
177.2709209928
 30
0.0
 11
161.1676509004
 21
177.295647761
 31
0.0
  0
LINE
  5
43B
330
24B
100
AcDbEntity
  8
$DDT_AUDIT_GENERATED_(6F)
  6
Continuous
 62
     7
100
AcDbLine
 10
161.1676509004
 20
177.295647761
 30
0.0
 11
161.3699377187
 21
177.3044971012
 31
0.0
  0
LINE
  5
43C
330
24B
100
AcDbEntity
  8
$DDT_AUDIT_GENERATED_(6F)
  6
Continuous
 62
     7
100
AcDbLine
 10
161.3699377187
 20
177.3044971012
 30
0.0
 11
161.4788284814
 21
177.3019577233
 31
0.0
  0
LINE
  5
43D
330
24B
100
AcDbEntity
  8
$DDT_AUDIT_GENERATED_(6F)
  6
Continuous
 62
     7
100
AcDbLine
 10
161.4788284814
 20
177.3019577233
 30
0.0
 11
161.5877182876
 21
177.2944897467
 31
0.0
  0
LINE
  5
43E
330
24B
100
AcDbEntity
  8
$DDT_AUDIT_GENERATED_(6F)
  6
Continuous
 62
     7
100
AcDbLine
 10
161.5877182876
 20
177.2944897467
 30
0.0
 11
161.6966073464
 21
177.2824735535
 31
0.0
  0
LINE
  5
43F
330
24B
100
AcDbEntity
  8
$DDT_AUDIT_GENERATED_(6F)
  6
Continuous
 62
     7
100
AcDbLine
 10
161.6966073464
 20
177.2824735535
 30
0.0
 11
161.8054958671
 21
177.2662895257
 31
0.0
  0
LINE
  5
440
330
24B
100
AcDbEntity
  8
$DDT_AUDIT_GENERATED_(6F)
  6
Continuous
 62
     7
100
AcDbLine
 10
161.8054958671
 20
177.2662895257
 30
0.0
 11
161.9143840588
 21
177.2463180452
 31
0.0
  0
LINE
  5
441
330
24B
100
AcDbEntity
  8
$DDT_AUDIT_GENERATED_(6F)
  6
Continuous
 62
     7
100
AcDbLine
 10
161.9143840588
 20
177.2463180452
 30
0.0
 11
162.0232721307
 21
177.2229394941
 31
0.0
  0
LINE
  5
442
330
24B
100
AcDbEntity
  8
$DDT_AUDIT_GENERATED_(6F)
  6
Continuous
 62
     7
100
AcDbLine
 10
162.0232721307
 20
177.2229394941
 30
0.0
 11
162.1866044713
 21
177.1823154958
 31
0.0
  0
LINE
  5
443
330
24B
100
AcDbEntity
  8
$DDT_AUDIT_GENERATED_(6F)
  6
Continuous
 62
     7
100
AcDbLine
 10
162.1866044713
 20
177.1823154958
 30
0.0
 11
162.3499377187
 21
177.1361652374
 31
0.0
  0
LINE
  5
444
330
24B
100
AcDbEntity
  8
$DDT_AUDIT_GENERATED_(6F)
  6
Continuous
 62
     7
100
AcDbLine
 10
162.3499377187
 20
177.1361652374
 30
0.0
 11
163.8553632506
 21
176.6892816991
 31
0.0
  0
LINE
  5
445
330
24B
100
AcDbEntity
  8
$DDT_AUDIT_GENERATED_(6F)
  6
Continuous
 62
     7
100
AcDbLine
 10
161.3499377187
 20
176.0708978244
 30
0.0
 11
161.1489840604
 21
176.0621604325
 31
0.0
  0
LINE
  5
446
330
24B
100
AcDbEntity
  8
$DDT_AUDIT_GENERATED_(6F)
  6
Continuous
 62
     7
100
AcDbLine
 10
161.1489840604
 20
176.0621604325
 30
0.0
 11
160.9480266954
 21
176.0377364561
 31
0.0
  0
LINE
  5
447
330
24B
100
AcDbEntity
  8
$DDT_AUDIT_GENERATED_(6F)
  6
Continuous
 62
     7
100
AcDbLine
 10
160.9480266954
 20
176.0377364561
 30
0.0
 11
160.7470658864
 21
176.000021848
 31
0.0
  0
LINE
  5
448
330
24B
100
AcDbEntity
  8
$DDT_AUDIT_GENERATED_(6F)
  6
Continuous
 62
     7
100
AcDbLine
 10
160.7470658864
 20
176.000021848
 30
0.0
 11
160.5461018965
 21
175.951412561
 31
0.0
  0
LINE
  5
449
330
24B
100
AcDbEntity
  8
$DDT_AUDIT_GENERATED_(6F)
  6
Continuous
 62
     7
100
AcDbLine
 10
160.5461018965
 20
175.951412561
 30
0.0
 11
160.3451349884
 21
175.894304548
 31
0.0
  0
LINE
  5
44A
330
24B
100
AcDbEntity
  8
$DDT_AUDIT_GENERATED_(6F)
  6
Continuous
 62
     7
100
AcDbLine
 10
160.3451349884
 20
175.894304548
 30
0.0
 11
160.010184371
 21
175.7867459947
 31
0.0
  0
LINE
  5
44B
330
24B
100
AcDbEntity
  8
$DDT_AUDIT_GENERATED_(6F)
  6
Continuous
 62
     7
100
AcDbLine
 10
160.010184371
 20
175.7867459947
 30
0.0
 11
159.6752275951
 21
175.6733276676
 31
0.0
  0
LINE
  5
44C
330
24B
100
AcDbEntity
  8
$DDT_AUDIT_GENERATED_(6F)
  6
Continuous
 62
     7
100
AcDbLine
 10
159.6752275951
 20
175.6733276676
 30
0.0
 11
159.340265878
 21
175.5651419411
 31
0.0
  0
LINE
  5
44D
330
24B
100
AcDbEntity
  8
$DDT_AUDIT_GENERATED_(6F)
  6
Continuous
 62
     7
100
AcDbLine
 10
159.340265878
 20
175.5651419411
 30
0.0
 11
159.1392869823
 21
175.507356581
 31
0.0
  0
LINE
  5
44E
330
24B
100
AcDbEntity
  8
$DDT_AUDIT_GENERATED_(6F)
  6
Continuous
 62
     7
100
AcDbLine
 10
159.1392869823
 20
175.507356581
 30
0.0
 11
158.9383070088
 21
175.4578441646
 31
0.0
  0
LINE
  5
44F
330
24B
100
AcDbEntity
  8
$DDT_AUDIT_GENERATED_(6F)
  6
Continuous
 62
     7
100
AcDbLine
 10
158.9383070088
 20
175.4578441646
 30
0.0
 11
158.7373262204
 21
175.4190006447
 31
0.0
  0
LINE
  5
450
330
24B
100
AcDbEntity
  8
$DDT_AUDIT_GENERATED_(6F)
  6
Continuous
 62
     7
100
AcDbLine
 10
158.7373262204
 20
175.4190006447
 30
0.0
 11
158.53634488
 21
175.3932219741
 31
0.0
  0
LINE
  5
451
330
24B
100
AcDbEntity
  8
$DDT_AUDIT_GENERATED_(6F)
  6
Continuous
 62
     7
100
AcDbLine
 10
158.53634488
 20
175.3932219741
 30
0.0
 11
158.3353632506
 21
175.3829041056
 31
0.0
  0
LINE
  5
452
330
24B
100
AcDbEntity
  8
$DDT_AUDIT_GENERATED_(6F)
  6
Continuous
 62
     7
100
AcDbLine
 10
158.3353632506
 20
175.3829041056
 30
0.0
 11
158.1343816212
 21
175.3932219741
 31
0.0
  0
LINE
  5
453
330
24B
100
AcDbEntity
  8
$DDT_AUDIT_GENERATED_(6F)
  6
Continuous
 62
     7
100
AcDbLine
 10
158.1343816212
 20
175.3932219741
 30
0.0
 11
157.9334002808
 21
175.4190006447
 31
0.0
  0
LINE
  5
454
330
24B
100
AcDbEntity
  8
$DDT_AUDIT_GENERATED_(6F)
  6
Continuous
 62
     7
100
AcDbLine
 10
157.9334002808
 20
175.4190006447
 30
0.0
 11
157.7324194924
 21
175.4578441646
 31
0.0
  0
LINE
  5
455
330
24B
100
AcDbEntity
  8
$DDT_AUDIT_GENERATED_(6F)
  6
Continuous
 62
     7
100
AcDbLine
 10
157.7324194924
 20
175.4578441646
 30
0.0
 11
157.5314395189
 21
175.507356581
 31
0.0
  0
LINE
  5
456
330
24B
100
AcDbEntity
  8
$DDT_AUDIT_GENERATED_(6F)
  6
Continuous
 62
     7
100
AcDbLine
 10
157.5314395189
 20
175.507356581
 30
0.0
 11
157.3304606232
 21
175.5651419411
 31
0.0
  0
LINE
  5
457
330
24B
100
AcDbEntity
  8
$DDT_AUDIT_GENERATED_(6F)
  6
Continuous
 62
     7
100
AcDbLine
 10
157.3304606232
 20
175.5651419411
 30
0.0
 11
156.9954989061
 21
175.6733276676
 31
0.0
  0
LINE
  5
458
330
24B
100
AcDbEntity
  8
$DDT_AUDIT_GENERATED_(6F)
  6
Continuous
 62
     7
100
AcDbLine
 10
156.9954989061
 20
175.6733276676
 30
0.0
 11
156.6605421302
 21
175.7867459947
 31
0.0
  0
LINE
  5
459
330
24B
100
AcDbEntity
  8
$DDT_AUDIT_GENERATED_(6F)
  6
Continuous
 62
     7
100
AcDbLine
 10
156.6605421302
 20
175.7867459947
 30
0.0
 11
156.3255915128
 21
175.894304548
 31
0.0
  0
LINE
  5
45A
330
24B
100
AcDbEntity
  8
$DDT_AUDIT_GENERATED_(6F)
  6
Continuous
 62
     7
100
AcDbLine
 10
156.3255915128
 20
175.894304548
 30
0.0
 11
156.1246246047
 21
175.951412561
 31
0.0
  0
LINE
  5
45B
330
24B
100
AcDbEntity
  8
$DDT_AUDIT_GENERATED_(6F)
  6
Continuous
 62
     7
100
AcDbLine
 10
156.1246246047
 20
175.951412561
 30
0.0
 11
155.9236606147
 21
176.000021848
 31
0.0
  0
LINE
  5
45C
330
24B
100
AcDbEntity
  8
$DDT_AUDIT_GENERATED_(6F)
  6
Continuous
 62
     7
100
AcDbLine
 10
155.9236606147
 20
176.000021848
 30
0.0
 11
155.7226998058
 21
176.0377364561
 31
0.0
  0
LINE
  5
45D
330
24B
100
AcDbEntity
  8
$DDT_AUDIT_GENERATED_(6F)
  6
Continuous
 62
     7
100
AcDbLine
 10
155.7226998058
 20
176.0377364561
 30
0.0
 11
155.5217424407
 21
176.0621604325
 31
0.0
  0
LINE
  5
45E
330
24B
100
AcDbEntity
  8
$DDT_AUDIT_GENERATED_(6F)
  6
Continuous
 62
     7
100
AcDbLine
 10
155.5217424407
 20
176.0621604325
 30
0.0
 11
155.3207887825
 21
176.0708978244
 31
0.0
  0
LINE
  5
45F
330
24B
100
AcDbEntity
  8
$DDT_AUDIT_GENERATED_(6F)
  6
Continuous
 62
     7
100
AcDbLine
 10
155.3207887825
 20
176.0708978244
 30
0.0
 11
155.2012951273
 21
176.0678413868
 31
0.0
  0
LINE
  5
460
330
24B
100
AcDbEntity
  8
$DDT_AUDIT_GENERATED_(6F)
  6
Continuous
 62
     7
100
AcDbLine
 10
155.2012951273
 20
176.0678413868
 30
0.0
 11
155.0818025993
 21
176.0588937104
 31
0.0
  0
LINE
  5
461
330
24B
100
AcDbEntity
  8
$DDT_AUDIT_GENERATED_(6F)
  6
Continuous
 62
     7
100
AcDbLine
 10
155.0818025993
 20
176.0588937104
 30
0.0
 11
154.9623109223
 21
176.0445575234
 31
0.0
  0
LINE
  5
462
330
24B
100
AcDbEntity
  8
$DDT_AUDIT_GENERATED_(6F)
  6
Continuous
 62
     7
100
AcDbLine
 10
154.9623109223
 20
176.0445575234
 30
0.0
 11
154.8428198197
 21
176.025335554
 31
0.0
  0
LINE
  5
463
330
24B
100
AcDbEntity
  8
$DDT_AUDIT_GENERATED_(6F)
  6
Continuous
 62
     7
100
AcDbLine
 10
154.8428198197
 20
176.025335554
 30
0.0
 11
154.7233290153
 21
176.0017305304
 31
0.0
  0
LINE
  5
464
330
24B
100
AcDbEntity
  8
$DDT_AUDIT_GENERATED_(6F)
  6
Continuous
 62
     7
100
AcDbLine
 10
154.7233290153
 20
176.0017305304
 30
0.0
 11
154.6038382326
 21
175.9742451806
 31
0.0
  0
LINE
  5
465
330
24B
100
AcDbEntity
  8
$DDT_AUDIT_GENERATED_(6F)
  6
Continuous
 62
     7
100
AcDbLine
 10
154.6038382326
 20
175.9742451806
 30
0.0
 11
154.4246014945
 21
175.9268412625
 31
0.0
  0
LINE
  5
466
330
24B
100
AcDbEntity
  8
$DDT_AUDIT_GENERATED_(6F)
  6
Continuous
 62
     7
100
AcDbLine
 10
154.4246014945
 20
175.9268412625
 30
0.0
 11
154.2453632506
 21
175.8735344567
 31
0.0
  0
LINE
  5
467
330
24B
100
AcDbEntity
  8
$DDT_AUDIT_GENERATED_(6F)
  6
Continuous
 62
     7
100
AcDbLine
 10
154.2453632506
 20
175.8735344567
 30
0.0
 11
153.9053632425
 21
176.0420090913
 31
0.0
  0
LINE
  5
468
330
24B
100
AcDbEntity
  8
$DDT_AUDIT_GENERATED_(6F)
  6
Continuous
 62
     7
100
AcDbLine
 10
153.9053632425
 20
176.0420090913
 30
0.0
 11
154.1379395528
 21
176.1188905454
 31
0.0
  0
LINE
  5
469
330
24B
100
AcDbEntity
  8
$DDT_AUDIT_GENERATED_(6F)
  6
Continuous
 62
     7
100
AcDbLine
 10
154.1379395528
 20
176.1188905454
 30
0.0
 11
154.3705109912
 21
176.1900843157
 31
0.0
  0
LINE
  5
46A
330
24B
100
AcDbEntity
  8
$DDT_AUDIT_GENERATED_(6F)
  6
Continuous
 62
     7
100
AcDbLine
 10
154.3705109912
 20
176.1900843157
 30
0.0
 11
154.5255569165
 21
176.2325567887
 31
0.0
  0
LINE
  5
46B
330
24B
100
AcDbEntity
  8
$DDT_AUDIT_GENERATED_(6F)
  6
Continuous
 62
     7
100
AcDbLine
 10
154.5255569165
 20
176.2325567887
 30
0.0
 11
154.680602186
 21
176.2697560779
 31
0.0
  0
LINE
  5
46C
330
24B
100
AcDbEntity
  8
$DDT_AUDIT_GENERATED_(6F)
  6
Continuous
 62
     7
100
AcDbLine
 10
154.680602186
 20
176.2697560779
 30
0.0
 11
154.8356474035
 21
176.3005840537
 31
0.0
  0
LINE
  5
46D
330
24B
100
AcDbEntity
  8
$DDT_AUDIT_GENERATED_(6F)
  6
Continuous
 62
     7
100
AcDbLine
 10
154.8356474035
 20
176.3005840537
 30
0.0
 11
154.9906931729
 21
176.3239425864
 31
0.0
  0
LINE
  5
46E
330
24B
100
AcDbEntity
  8
$DDT_AUDIT_GENERATED_(6F)
  6
Continuous
 62
     7
100
AcDbLine
 10
154.9906931729
 20
176.3239425864
 30
0.0
 11
155.145740098
 21
176.3387335461
 31
0.0
  0
LINE
  5
46F
330
24B
100
AcDbEntity
  8
$DDT_AUDIT_GENERATED_(6F)
  6
Continuous
 62
     7
100
AcDbLine
 10
155.145740098
 20
176.3387335461
 30
0.0
 11
155.3007887825
 21
176.3438588033
 31
0.0
  0
LINE
  5
470
330
24B
100
AcDbEntity
  8
$DDT_AUDIT_GENERATED_(6F)
  6
Continuous
 62
     7
100
AcDbLine
 10
155.3007887825
 20
176.3438588033
 30
0.0
 11
155.5030756008
 21
176.3350094631
 31
0.0
  0
LINE
  5
471
330
24B
100
AcDbEntity
  8
$DDT_AUDIT_GENERATED_(6F)
  6
Continuous
 62
     7
100
AcDbLine
 10
155.5030756008
 20
176.3350094631
 30
0.0
 11
155.7053661735
 21
176.3102826949
 31
0.0
  0
LINE
  5
472
330
24B
100
AcDbEntity
  8
$DDT_AUDIT_GENERATED_(6F)
  6
Continuous
 62
     7
100
AcDbLine
 10
155.7053661735
 20
176.3102826949
 30
0.0
 11
155.9076602324
 21
176.2721221652
 31
0.0
  0
LINE
  5
473
330
24B
100
AcDbEntity
  8
$DDT_AUDIT_GENERATED_(6F)
  6
Continuous
 62
     7
100
AcDbLine
 10
155.9076602324
 20
176.2721221652
 30
0.0
 11
156.1099575093
 21
176.2229715406
 31
0.0
  0
LINE
  5
474
330
24B
100
AcDbEntity
  8
$DDT_AUDIT_GENERATED_(6F)
  6
Continuous
 62
     7
100
AcDbLine
 10
156.1099575093
 20
176.2229715406
 30
0.0
 11
156.3122577362
 21
176.1652744877
 31
0.0
  0
LINE
  5
475
330
24B
100
AcDbEntity
  8
$DDT_AUDIT_GENERATED_(6F)
  6
Continuous
 62
     7
100
AcDbLine
 10
156.3122577362
 20
176.1652744877
 30
0.0
 11
156.6494306079
 21
176.0567577889
 31
0.0
  0
LINE
  5
476
330
24B
100
AcDbEntity
  8
$DDT_AUDIT_GENERATED_(6F)
  6
Continuous
 62
     7
100
AcDbLine
 10
156.6494306079
 20
176.0567577889
 30
0.0
 11
156.9866096872
 21
175.9426022455
 31
0.0
  0
LINE
  5
477
330
24B
100
AcDbEntity
  8
$DDT_AUDIT_GENERATED_(6F)
  6
Continuous
 62
     7
100
AcDbLine
 10
156.9866096872
 20
175.9426022455
 30
0.0
 11
157.3237937327
 21
175.8341211285
 31
0.0
  0
LINE
  5
478
330
24B
100
AcDbEntity
  8
$DDT_AUDIT_GENERATED_(6F)
  6
Continuous
 62
     7
100
AcDbLine
 10
157.3237937327
 20
175.8341211285
 30
0.0
 11
157.5261060272
 21
175.7764625038
 31
0.0
  0
LINE
  5
479
330
24B
100
AcDbEntity
  8
$DDT_AUDIT_GENERATED_(6F)
  6
Continuous
 62
     7
100
AcDbLine
 10
157.5261060272
 20
175.7764625038
 30
0.0
 11
157.7284193945
 21
175.7273631168
 31
0.0
  0
LINE
  5
47A
330
24B
100
AcDbEntity
  8
$DDT_AUDIT_GENERATED_(6F)
  6
Continuous
 62
     7
100
AcDbLine
 10
157.7284193945
 20
175.7273631168
 30
0.0
 11
157.9307335662
 21
175.6892666342
 31
0.0
  0
LINE
  5
47B
330
24B
100
AcDbEntity
  8
$DDT_AUDIT_GENERATED_(6F)
  6
Continuous
 62
     7
100
AcDbLine
 10
157.9307335662
 20
175.6892666342
 30
0.0
 11
158.1330482743
 21
175.6646167225
 31
0.0
  0
LINE
  5
47C
330
24B
100
AcDbEntity
  8
$DDT_AUDIT_GENERATED_(6F)
  6
Continuous
 62
     7
100
AcDbLine
 10
158.1330482743
 20
175.6646167225
 30
0.0
 11
158.3353632506
 21
175.6558570482
 31
0.0
  0
LINE
  5
47D
330
24B
100
AcDbEntity
  8
$DDT_AUDIT_GENERATED_(6F)
  6
Continuous
 62
     7
100
AcDbLine
 10
158.3353632506
 20
175.6558570482
 30
0.0
 11
158.5376782269
 21
175.6646167225
 31
0.0
  0
LINE
  5
47E
330
24B
100
AcDbEntity
  8
$DDT_AUDIT_GENERATED_(6F)
  6
Continuous
 62
     7
100
AcDbLine
 10
158.5376782269
 20
175.6646167225
 30
0.0
 11
158.739992935
 21
175.6892666342
 31
0.0
  0
LINE
  5
47F
330
24B
100
AcDbEntity
  8
$DDT_AUDIT_GENERATED_(6F)
  6
Continuous
 62
     7
100
AcDbLine
 10
158.739992935
 20
175.6892666342
 30
0.0
 11
158.9423071067
 21
175.7273631168
 31
0.0
  0
LINE
  5
480
330
24B
100
AcDbEntity
  8
$DDT_AUDIT_GENERATED_(6F)
  6
Continuous
 62
     7
100
AcDbLine
 10
158.9423071067
 20
175.7273631168
 30
0.0
 11
159.1446204739
 21
175.7764625038
 31
0.0
  0
LINE
  5
481
330
24B
100
AcDbEntity
  8
$DDT_AUDIT_GENERATED_(6F)
  6
Continuous
 62
     7
100
AcDbLine
 10
159.1446204739
 20
175.7764625038
 30
0.0
 11
159.3469327685
 21
175.8341211285
 31
0.0
  0
LINE
  5
482
330
24B
100
AcDbEntity
  8
$DDT_AUDIT_GENERATED_(6F)
  6
Continuous
 62
     7
100
AcDbLine
 10
159.3469327685
 20
175.8341211285
 30
0.0
 11
159.684116814
 21
175.9426022455
 31
0.0
  0
LINE
  5
483
330
24B
100
AcDbEntity
  8
$DDT_AUDIT_GENERATED_(6F)
  6
Continuous
 62
     7
100
AcDbLine
 10
159.684116814
 20
175.9426022455
 30
0.0
 11
160.0212958933
 21
176.0567577889
 31
0.0
  0
LINE
  5
484
330
24B
100
AcDbEntity
  8
$DDT_AUDIT_GENERATED_(6F)
  6
Continuous
 62
     7
100
AcDbLine
 10
160.0212958933
 20
176.0567577889
 30
0.0
 11
160.358468765
 21
176.1652744877
 31
0.0
  0
LINE
  5
485
330
24B
100
AcDbEntity
  8
$DDT_AUDIT_GENERATED_(6F)
  6
Continuous
 62
     7
100
AcDbLine
 10
160.358468765
 20
176.1652744877
 30
0.0
 11
160.5607689918
 21
176.2229715406
 31
0.0
  0
LINE
  5
486
330
24B
100
AcDbEntity
  8
$DDT_AUDIT_GENERATED_(6F)
  6
Continuous
 62
     7
100
AcDbLine
 10
160.5607689918
 20
176.2229715406
 30
0.0
 11
160.7630662688
 21
176.2721221652
 31
0.0
  0
LINE
  5
487
330
24B
100
AcDbEntity
  8
$DDT_AUDIT_GENERATED_(6F)
  6
Continuous
 62
     7
100
AcDbLine
 10
160.7630662688
 20
176.2721221652
 30
0.0
 11
160.9653603277
 21
176.3102826949
 31
0.0
  0
LINE
  5
488
330
24B
100
AcDbEntity
  8
$DDT_AUDIT_GENERATED_(6F)
  6
Continuous
 62
     7
100
AcDbLine
 10
160.9653603277
 20
176.3102826949
 30
0.0
 11
161.1676509004
 21
176.3350094631
 31
0.0
  0
LINE
  5
489
330
24B
100
AcDbEntity
  8
$DDT_AUDIT_GENERATED_(6F)
  6
Continuous
 62
     7
100
AcDbLine
 10
161.1676509004
 20
176.3350094631
 30
0.0
 11
161.3699377187
 21
176.3438588033
 31
0.0
  0
LINE
  5
48A
330
24B
100
AcDbEntity
  8
$DDT_AUDIT_GENERATED_(6F)
  6
Continuous
 62
     7
100
AcDbLine
 10
161.3699377187
 20
176.3438588033
 30
0.0
 11
161.5249864032
 21
176.3387335461
 31
0.0
  0
LINE
  5
48B
330
24B
100
AcDbEntity
  8
$DDT_AUDIT_GENERATED_(6F)
  6
Continuous
 62
     7
100
AcDbLine
 10
161.5249864032
 20
176.3387335461
 30
0.0
 11
161.6800333282
 21
176.3239425864
 31
0.0
  0
LINE
  5
48C
330
24B
100
AcDbEntity
  8
$DDT_AUDIT_GENERATED_(6F)
  6
Continuous
 62
     7
100
AcDbLine
 10
161.6800333282
 20
176.3239425864
 30
0.0
 11
161.8350790973
 21
176.3005840538
 31
0.0
  0
LINE
  5
48D
330
24B
100
AcDbEntity
  8
$DDT_AUDIT_GENERATED_(6F)
  6
Continuous
 62
     7
100
AcDbLine
 10
161.8350790973
 20
176.3005840538
 30
0.0
 11
161.9901243145
 21
176.2697560782
 31
0.0
  0
LINE
  5
48E
330
24B
100
AcDbEntity
  8
$DDT_AUDIT_GENERATED_(6F)
  6
Continuous
 62
     7
100
AcDbLine
 10
161.9901243145
 20
176.2697560782
 30
0.0
 11
162.1451695833
 21
176.2325567891
 31
0.0
  0
LINE
  5
48F
330
24B
100
AcDbEntity
  8
$DDT_AUDIT_GENERATED_(6F)
  6
Continuous
 62
     7
100
AcDbLine
 10
162.1451695833
 20
176.2325567891
 30
0.0
 11
162.3002155076
 21
176.1900843165
 31
0.0
  0
LINE
  5
490
330
24B
100
AcDbEntity
  8
$DDT_AUDIT_GENERATED_(6F)
  6
Continuous
 62
     7
100
AcDbLine
 10
162.3002155076
 20
176.1900843165
 30
0.0
 11
162.5327869436
 21
176.118890547
 31
0.0
  0
LINE
  5
491
330
24B
100
AcDbEntity
  8
$DDT_AUDIT_GENERATED_(6F)
  6
Continuous
 62
     7
100
AcDbLine
 10
162.5327869436
 20
176.118890547
 30
0.0
 11
162.7653632506
 21
176.042009094
 31
0.0
  0
LINE
  5
492
330
24B
100
AcDbEntity
  8
$DDT_AUDIT_GENERATED_(6F)
  6
Continuous
 62
     7
100
AcDbLine
 10
162.7653632506
 20
176.042009094
 30
0.0
 11
162.4253632506
 21
175.8735344567
 31
0.0
  0
LINE
  5
493
330
24B
100
AcDbEntity
  8
$DDT_AUDIT_GENERATED_(6F)
  6
Continuous
 62
     7
100
AcDbLine
 10
162.4253632506
 20
175.8735344567
 30
0.0
 11
162.2461250067
 21
175.9268412625
 31
0.0
  0
LINE
  5
494
330
24B
100
AcDbEntity
  8
$DDT_AUDIT_GENERATED_(6F)
  6
Continuous
 62
     7
100
AcDbLine
 10
162.2461250067
 20
175.9268412625
 30
0.0
 11
162.0668882686
 21
175.9742451806
 31
0.0
  0
LINE
  5
495
330
24B
100
AcDbEntity
  8
$DDT_AUDIT_GENERATED_(6F)
  6
Continuous
 62
     7
100
AcDbLine
 10
162.0668882686
 20
175.9742451806
 30
0.0
 11
161.9473974859
 21
176.0017305304
 31
0.0
  0
LINE
  5
496
330
24B
100
AcDbEntity
  8
$DDT_AUDIT_GENERATED_(6F)
  6
Continuous
 62
     7
100
AcDbLine
 10
161.9473974859
 20
176.0017305304
 30
0.0
 11
161.8279066814
 21
176.025335554
 31
0.0
  0
LINE
  5
497
330
24B
100
AcDbEntity
  8
$DDT_AUDIT_GENERATED_(6F)
  6
Continuous
 62
     7
100
AcDbLine
 10
161.8279066814
 20
176.025335554
 30
0.0
 11
161.7084155789
 21
176.0445575234
 31
0.0
  0
LINE
  5
498
330
24B
100
AcDbEntity
  8
$DDT_AUDIT_GENERATED_(6F)
  6
Continuous
 62
     7
100
AcDbLine
 10
161.7084155789
 20
176.0445575234
 30
0.0
 11
161.5889239018
 21
176.0588937104
 31
0.0
  0
LINE
  5
499
330
24B
100
AcDbEntity
  8
$DDT_AUDIT_GENERATED_(6F)
  6
Continuous
 62
     7
100
AcDbLine
 10
161.5889239018
 20
176.0588937104
 30
0.0
 11
161.4694313739
 21
176.0678413868
 31
0.0
  0
LINE
  5
49A
330
24B
100
AcDbEntity
  8
$DDT_AUDIT_GENERATED_(6F)
  6
Continuous
 62
     7
100
AcDbLine
 10
161.4694313739
 20
176.0678413868
 30
0.0
 11
161.3499377187
 21
176.0708978244
 31
0.0
  0
LINE
  5
49B
330
24B
100
AcDbEntity
  8
$DDT_AUDIT_GENERATED_(6F)
  6
Continuous
 62
     7
100
AcDbLine
 10
63.25
 20
240.85
 30
0.0
 11
63.25
 21
225.35
 31
0.0
  0
LINE
  5
49C
330
24B
100
AcDbEntity
  8
$DDT_AUDIT_GENERATED_(6F)
  6
Continuous
 62
     7
100
AcDbLine
 10
103.25
 20
230.8464814971
 30
0.0
 11
103.25
 21
240.85
 31
0.0
  0
LINE
  5
49D
330
24B
100
AcDbEntity
  8
$DDT_AUDIT_GENERATED_(6F)
  6
Continuous
 62
     7
100
AcDbLine
 10
213.25
 20
240.85
 30
0.0
 11
213.25
 21
230.8206984421
 31
0.0
  0
LINE
  5
49E
330
24B
100
AcDbEntity
  8
$DDT_AUDIT_GENERATED_(6F)
  6
Continuous
 62
     7
100
AcDbLine
 10
253.25
 20
225.35
 30
0.0
 11
253.25
 21
240.85
 31
0.0
  0
ARC
  5
49F
330
24B
100
AcDbEntity
  8
$DDT_AUDIT_GENERATED_(6F)
  6
Continuous
 62
     7
100
AcDbCircle
 10
252.75
 20
240.85
 30
0.0
 40
0.5000000000000004
100
AcDbArc
 50
0.0
 51
90.0
  0
ARC
  5
4A0
330
24B
100
AcDbEntity
  8
$DDT_AUDIT_GENERATED_(6F)
  6
Continuous
 62
     7
100
AcDbCircle
 10
213.75
 20
240.85
 30
0.0
 40
0.5000000000000004
100
AcDbArc
 50
90.0
 51
180.0
  0
ARC
  5
4A1
330
24B
100
AcDbEntity
  8
$DDT_AUDIT_GENERATED_(6F)
  6
Continuous
 62
     7
100
AcDbCircle
 10
102.75
 20
240.85
 30
0.0
 40
0.5000000000000004
100
AcDbArc
 50
0.0
 51
90.0
  0
ARC
  5
4A2
330
24B
100
AcDbEntity
  8
$DDT_AUDIT_GENERATED_(6F)
  6
Continuous
 62
     7
100
AcDbCircle
 10
63.75
 20
240.85
 30
0.0
 40
0.5000000000000004
100
AcDbArc
 50
90.0
 51
180.0
  0
LINE
  5
4A3
330
24B
100
AcDbEntity
  8
$DDT_AUDIT_GENERATED_(6F)
  6
Continuous
 62
     7
100
AcDbLine
 10
209.2655368616
 20
226.8608807538
 30
0.0
 11
107.225411521
 21
226.8608807538
 31
0.0
  0
ARC
  5
4A4
330
24B
100
AcDbEntity
  8
$DDT_AUDIT_GENERATED_(6F)
  6
Continuous
 62
     7
100
AcDbCircle
 10
257.25
 20
225.35
 30
0.0
 40
4.000000000000004
100
AcDbArc
 50
180.0
 51
229.4754266905
  0
ARC
  5
4A5
330
24B
100
AcDbEntity
  8
$DDT_AUDIT_GENERATED_(6F)
  6
Continuous
 62
     7
100
AcDbCircle
 10
209.2724447191
 20
230.8295429201
 30
0.0
 40
3.9642855189145
100
AcDbArc
 50
269.8938805941
 51
359.887792695
  0
ARC
  5
4A6
330
24B
100
AcDbEntity
  8
$DDT_AUDIT_GENERATED_(6F)
  6
Continuous
 62
     7
100
AcDbCircle
 10
59.25
 20
225.35
 30
0.0
 40
4.000000000000004
100
AcDbArc
 50
310.528801105
 51
0.0
  0
ARC
  5
4A7
330
24B
100
AcDbEntity
  8
$DDT_AUDIT_GENERATED_(6F)
  6
Continuous
 62
     7
100
AcDbCircle
 10
107.2268403292
 20
230.8364303359
 30
0.0
 40
3.966468182668545
100
AcDbArc
 50
179.8456684759
 51
270.0589811529
  0
ARC
  5
4A8
330
24B
100
AcDbEntity
  8
$DDT_AUDIT_GENERATED_(6F)
  6
Continuous
 62
     7
100
AcDbCircle
 10
62.0499999984
 20
222.0865661301
 30
0.0
 40
0.2999999984374605
100
AcDbArc
 50
132.3429249226
 51
180.0000994191
  0
ARC
  5
4A9
330
24B
100
AcDbEntity
  8
$DDT_AUDIT_GENERATED_(6F)
  6
Continuous
 62
     7
100
AcDbCircle
 10
254.4500000016
 20
222.0865661301
 30
0.0
 40
0.299999998309687
100
AcDbArc
 50
0.0
 51
47.4493665703
  0
LINE
  5
4AA
330
24B
100
AcDbEntity
  8
$DDT_AUDIT_GENERATED_(165)
  6
Continuous
 62
     7
100
AcDbLine
 10
60.4486910046
 20
181.3513124269
 30
0.0
 11
7.1479056073
 21
181.4908538755
 31
0.0
  0
LINE
  5
4AB
330
24B
100
AcDbEntity
  8
$DDT_AUDIT_GENERATED_(165)
  6
Continuous
 62
     7
100
AcDbLine
 10
60.95
 20
220.8486892866
 30
0.0
 11
60.95
 21
181.8513107134
 31
0.0
  0
ARC
  5
4AC
330
24B
100
AcDbEntity
  8
$DDT_AUDIT_GENERATED_(165)
  6
Continuous
 62
     7
100
AcDbCircle
 10
60.45
 20
181.8513107134
 30
0.0
 40
0.5000000000000014
100
AcDbArc
 50
269.85
 51
0.0
  0
ARC
  5
4AD
330
24B
100
AcDbEntity
  8
$DDT_AUDIT_GENERATED_(165)
  6
Continuous
 62
     7
100
AcDbCircle
 10
60.45
 20
220.8486892866
 30
0.0
 40
0.5000000000000004
100
AcDbArc
 50
0.0
 51
90.15
  0
LINE
  5
4AE
330
24B
100
AcDbEntity
  8
$DDT_AUDIT_GENERATED_(165)
  6
Continuous
 62
     7
100
AcDbLine
 10
6.35
 20
182.290851134
 30
0.0
 11
6.35
 21
220.409148866
 31
0.0
  0
LINE
  5
4AF
330
24B
100
AcDbEntity
  8
$DDT_AUDIT_GENERATED_(165)
  6
Continuous
 62
     7
100
AcDbLine
 10
7.1479056073
 20
221.2091461245
 30
0.0
 11
60.4486910046
 21
221.3486875731
 31
0.0
  0
ARC
  5
4B0
330
24B
100
AcDbEntity
  8
$DDT_AUDIT_GENERATED_(165)
  6
Continuous
 62
     7
100
AcDbCircle
 10
7.15
 20
220.409148866
 30
0.0
 40
0.7999999999999953
100
AcDbArc
 50
90.15
 51
180.0
  0
ARC
  5
4B1
330
24B
100
AcDbEntity
  8
$DDT_AUDIT_GENERATED_(165)
  6
Continuous
 62
     7
100
AcDbCircle
 10
7.15
 20
182.290851134
 30
0.0
 40
0.7999999999999988
100
AcDbArc
 50
180.0
 51
269.85
  0
LINE
  5
4B2
330
24B
100
AcDbEntity
  8
$DDT_AUDIT_GENERATED_(20B)
  6
Continuous
 62
     7
100
AcDbLine
 10
22.9534869397
 20
180.25
 30
0.0
 11
22.6534983628
 21
180.25
 31
0.0
  0
LINE
  5
4B3
330
24B
100
AcDbEntity
  8
$DDT_AUDIT_GENERATED_(20B)
  6
Continuous
 62
     7
100
AcDbLine
 10
36.723823204
 20
180.25
 30
0.0
 11
22.9534869397
 21
180.25
 31
0.0
  0
LINE
  5
4B4
330
24B
100
AcDbEntity
  8
$DDT_AUDIT_GENERATED_(20B)
  6
Continuous
 62
     7
100
AcDbLine
 10
37.023811781
 20
180.25
 30
0.0
 11
36.723823204
 21
180.25
 31
0.0
  0
LINE
  5
4B5
330
24B
100
AcDbEntity
  8
$DDT_AUDIT_GENERATED_(20B)
  6
Continuous
 62
     7
100
AcDbLine
 10
22.4535059782
 20
180.4482546929
 30
0.0
 11
22.4447568392
 21
181.4508067212
 31
0.0
  0
ARC
  5
4B6
330
24B
100
AcDbEntity
  8
$DDT_AUDIT_GENERATED_(20B)
  6
Continuous
 62
     7
100
AcDbCircle
 10
22.6534983628
 20
180.45
 30
0.0
 40
0.1999999999999988
100
AcDbArc
 50
180.5
 51
270.0
  0
ARC
  5
4B7
330
24B
100
AcDbEntity
  8
$DDT_AUDIT_GENERATED_(20B)
  6
Continuous
 62
     7
100
AcDbCircle
 10
37.023811781
 20
180.45
 30
0.0
 40
0.2000000000000034
100
AcDbArc
 50
270.0
 51
359.5
  0
LINE
  5
4B8
330
24B
100
AcDbEntity
  8
$DDT_AUDIT_GENERATED_(20B)
  6
Continuous
 62
     7
100
AcDbLine
 10
37.2322154564
 20
181.4120931566
 30
0.0
 11
37.2238041656
 21
180.4482546929
 31
0.0
  0
LINE
  5
4B9
330
24B
100
AcDbEntity
  8
$DDT_AUDIT_GENERATED_(165)
  6
Continuous
 62
     7
100
AcDbLine
 10
256.0513089954
 20
221.3486875731
 30
0.0
 11
309.3520943927
 21
221.2091461245
 31
0.0
  0
LINE
  5
4BA
330
24B
100
AcDbEntity
  8
$DDT_AUDIT_GENERATED_(165)
  6
Continuous
 62
     7
100
AcDbLine
 10
255.55
 20
181.8513107134
 30
0.0
 11
255.55
 21
220.8486892866
 31
0.0
  0
ARC
  5
4BB
330
24B
100
AcDbEntity
  8
$DDT_AUDIT_GENERATED_(165)
  6
Continuous
 62
     7
100
AcDbCircle
 10
256.05
 20
181.8513107134
 30
0.0
 40
0.4999999999999979
100
AcDbArc
 50
180.0
 51
270.15
  0
ARC
  5
4BC
330
24B
100
AcDbEntity
  8
$DDT_AUDIT_GENERATED_(165)
  6
Continuous
 62
     7
100
AcDbCircle
 10
256.05
 20
220.8486892866
 30
0.0
 40
0.5000000000000004
100
AcDbArc
 50
89.85
 51
180.0
  0
LINE
  5
4BD
330
24B
100
AcDbEntity
  8
$DDT_AUDIT_GENERATED_(165)
  6
Continuous
 62
     7
100
AcDbLine
 10
309.3520943927
 20
181.4908538755
 30
0.0
 11
256.0513089954
 21
181.3513124269
 31
0.0
  0
LINE
  5
4BE
330
24B
100
AcDbEntity
  8
$DDT_AUDIT_GENERATED_(165)
  6
Continuous
 62
     7
100
AcDbLine
 10
310.15
 20
220.409148866
 30
0.0
 11
310.15
 21
182.290851134
 31
0.0
  0
ARC
  5
4BF
330
24B
100
AcDbEntity
  8
$DDT_AUDIT_GENERATED_(165)
  6
Continuous
 62
     7
100
AcDbCircle
 10
309.35
 20
220.409148866
 30
0.0
 40
0.7999999999999952
100
AcDbArc
 50
0.0
 51
89.85
  0
ARC
  5
4C0
330
24B
100
AcDbEntity
  8
$DDT_AUDIT_GENERATED_(165)
  6
Continuous
 62
     7
100
AcDbCircle
 10
309.35
 20
182.290851134
 30
0.0
 40
0.7999999999999952
100
AcDbArc
 50
270.15
 51
0.0
  0
LINE
  5
4C1
330
24B
100
AcDbEntity
  8
$DDT_AUDIT_GENERATED_(20B)
  6
Continuous
 62
     7
100
AcDbLine
 10
293.8465016372
 20
180.25
 30
0.0
 11
293.5465130603
 21
180.25
 31
0.0
  0
LINE
  5
4C2
330
24B
100
AcDbEntity
  8
$DDT_AUDIT_GENERATED_(20B)
  6
Continuous
 62
     7
100
AcDbLine
 10
293.5465130603
 20
180.25
 30
0.0
 11
279.776176796
 21
180.25
 31
0.0
  0
LINE
  5
4C3
330
24B
100
AcDbEntity
  8
$DDT_AUDIT_GENERATED_(20B)
  6
Continuous
 62
     7
100
AcDbLine
 10
279.776176796
 20
180.25
 30
0.0
 11
279.476188219
 21
180.25
 31
0.0
  0
LINE
  5
4C4
330
24B
100
AcDbEntity
  8
$DDT_AUDIT_GENERATED_(20B)
  6
Continuous
 62
     7
100
AcDbLine
 10
279.2761958344
 20
180.4482546929
 30
0.0
 11
279.2677845436
 21
181.4120931566
 31
0.0
  0
ARC
  5
4C5
330
24B
100
AcDbEntity
  8
$DDT_AUDIT_GENERATED_(20B)
  6
Continuous
 62
     7
100
AcDbCircle
 10
293.8465016372
 20
180.45
 30
0.0
 40
0.1999999999999988
100
AcDbArc
 50
270.0
 51
359.5
  0
ARC
  5
4C6
330
24B
100
AcDbEntity
  8
$DDT_AUDIT_GENERATED_(20B)
  6
Continuous
 62
     7
100
AcDbCircle
 10
279.476188219
 20
180.45
 30
0.0
 40
0.2000000000000034
100
AcDbArc
 50
180.5
 51
270.0
  0
LINE
  5
4C7
330
24B
100
AcDbEntity
  8
$DDT_AUDIT_GENERATED_(20B)
  6
Continuous
 62
     7
100
AcDbLine
 10
294.0552431608
 20
181.4508067212
 30
0.0
 11
294.0464940218
 21
180.4482546929
 31
0.0
  0
LINE
  5
4C8
330
24B
100
AcDbEntity
  8
$DDT_AUDIT_GENERATED_(1A0)
  6
Continuous
 62
     7
100
AcDbLine
 10
198.25
 20
260.8504569145
 30
0.0
 11
198.25
 21
268.3504569145
 31
0.0
  0
LINE
  5
4C9
330
24B
100
AcDbEntity
  8
$DDT_AUDIT_GENERATED_(1A0)
  6
Continuous
 62
     7
100
AcDbLine
 10
198.75
 20
293.3504569145
 30
0.0
 11
267.75
 21
293.3504569145
 31
0.0
  0
LINE
  5
4CA
330
24B
100
AcDbEntity
  8
$DDT_AUDIT_GENERATED_(1A0)
  6
Continuous
 62
     7
100
AcDbLine
 10
268.25
 20
292.8504569145
 30
0.0
 11
268.25
 21
269.3504569145
 31
0.0
  0
LINE
  5
4CB
330
24B
100
AcDbEntity
  8
$DDT_AUDIT_GENERATED_(1A0)
  6
Continuous
 62
     7
100
AcDbLine
 10
267.75
 20
260.3504569145
 30
0.0
 11
198.75
 21
260.3504569145
 31
0.0
  0
ARC
  5
4CC
330
24B
100
AcDbEntity
  8
$DDT_AUDIT_GENERATED_(1A0)
  6
Continuous
 62
     7
100
AcDbCircle
 10
267.75
 20
260.8504569145
 30
0.0
 40
0.5000000000000004
100
AcDbArc
 50
270.0
 51
0.0
  0
ARC
  5
4CD
330
24B
100
AcDbEntity
  8
$DDT_AUDIT_GENERATED_(1A0)
  6
Continuous
 62
     7
100
AcDbCircle
 10
267.75
 20
292.8504569145
 30
0.0
 40
0.5000000000000004
100
AcDbArc
 50
0.0
 51
90.0
  0
ARC
  5
4CE
330
24B
100
AcDbEntity
  8
$DDT_AUDIT_GENERATED_(1A0)
  6
Continuous
 62
     7
100
AcDbCircle
 10
198.75
 20
260.8504569145
 30
0.0
 40
0.5000000000000004
100
AcDbArc
 50
180.0
 51
270.0
  0
ARC
  5
4CF
330
24B
100
AcDbEntity
  8
$DDT_AUDIT_GENERATED_(1A0)
  6
Continuous
 62
     7
100
AcDbCircle
 10
198.75
 20
292.8504569145
 30
0.0
 40
0.5000000000000004
100
AcDbArc
 50
90.0
 51
180.0
  0
LINE
  5
4D0
330
24B
100
AcDbEntity
  8
$DDT_AUDIT_GENERATED_(1A0)
  6
Continuous
 62
     7
100
AcDbLine
 10
198.25
 20
269.3504569145
 30
0.0
 11
198.25
 21
292.8504569145
 31
0.0
  0
ARC
  5
4D1
330
24B
100
AcDbEntity
  8
$DDT_AUDIT_GENERATED_(1A0)
  6
Continuous
 62
     7
100
AcDbCircle
 10
198.75
 20
268.8504569145
 30
0.0
 40
0.4999999999999983
100
AcDbArc
 50
90.0
 51
135.0
  0
ARC
  5
4D2
330
24B
100
AcDbEntity
  8
$DDT_AUDIT_GENERATED_(1A0)
  6
Continuous
 62
     7
100
AcDbCircle
 10
198.75
 20
268.8504569145
 30
0.0
 40
0.4999999999999866
100
AcDbArc
 50
225.0
 51
270.0
  0
LINE
  5
4D3
330
24B
100
AcDbEntity
  8
$DDT_AUDIT_GENERATED_(1A0)
  6
Continuous
 62
     7
100
AcDbLine
 10
268.25
 20
268.3504569145
 30
0.0
 11
268.25
 21
260.8504569145
 31
0.0
  0
ARC
  5
4D4
330
24B
100
AcDbEntity
  8
$DDT_AUDIT_GENERATED_(1A0)
  6
Continuous
 62
     7
100
AcDbCircle
 10
267.75
 20
268.8504569145
 30
0.0
 40
0.4999999999999983
100
AcDbArc
 50
270.0
 51
315.0
  0
LINE
  5
4D5
330
24B
100
AcDbEntity
  8
$DDT_AUDIT_GENERATED_(1A0)
  6
Continuous
 62
     7
100
AcDbLine
 10
267.75
 20
268.3504569145
 30
0.0
 11
198.75
 21
268.3504569145
 31
0.0
  0
LINE
  5
4D6
330
24B
100
AcDbEntity
  8
$DDT_AUDIT_GENERATED_(1A0)
  6
Continuous
 62
     7
100
AcDbLine
 10
198.75
 20
269.3504569145
 30
0.0
 11
267.75
 21
269.3504569145
 31
0.0
  0
ARC
  5
4D7
330
24B
100
AcDbEntity
  8
$DDT_AUDIT_GENERATED_(1A0)
  6
Continuous
 62
     7
100
AcDbCircle
 10
267.75
 20
268.8504569145
 30
0.0
 40
0.5000000000000004
100
AcDbArc
 50
45.0
 51
90.0
  0
LINE
  5
4D8
330
24B
100
AcDbEntity
  8
$DDT_AUDIT_GENERATED_(1A0)
  6
Continuous
 62
     7
100
AcDbLine
 10
268.25
 20
268.3504569145
 30
0.0
 11
268.1035533906
 21
268.4969035239
 31
0.0
  0
LINE
  5
4D9
330
24B
100
AcDbEntity
  8
$DDT_AUDIT_GENERATED_(1A0)
  6
Continuous
 62
     7
100
AcDbLine
 10
268.1035533906
 20
268.4969035239
 30
0.0
 11
267.75
 21
268.8504569145
 31
0.0
  0
LINE
  5
4DA
330
24B
100
AcDbEntity
  8
$DDT_AUDIT_GENERATED_(1A0)
  6
Continuous
 62
     7
100
AcDbLine
 10
267.75
 20
268.8504569145
 30
0.0
 11
268.1035533906
 21
269.2040103051
 31
0.0
  0
LINE
  5
4DB
330
24B
100
AcDbEntity
  8
$DDT_AUDIT_GENERATED_(1A0)
  6
Continuous
 62
     7
100
AcDbLine
 10
268.1035533906
 20
269.2040103051
 30
0.0
 11
268.25
 21
269.3504569145
 31
0.0
  0
LINE
  5
4DC
330
24B
100
AcDbEntity
  8
$DDT_AUDIT_GENERATED_(1A0)
  6
Continuous
 62
     7
100
AcDbLine
 10
198.75
 20
268.8504569145
 30
0.0
 11
198.3964466094
 21
269.2040103051
 31
0.0
  0
LINE
  5
4DD
330
24B
100
AcDbEntity
  8
$DDT_AUDIT_GENERATED_(1A0)
  6
Continuous
 62
     7
100
AcDbLine
 10
198.3964466094
 20
269.2040103051
 30
0.0
 11
198.25
 21
269.3504569145
 31
0.0
  0
LINE
  5
4DE
330
24B
100
AcDbEntity
  8
$DDT_AUDIT_GENERATED_(1A0)
  6
Continuous
 62
     7
100
AcDbLine
 10
198.25
 20
268.3504569145
 30
0.0
 11
198.3964466094
 21
268.4969035239
 31
0.0
  0
LINE
  5
4DF
330
24B
100
AcDbEntity
  8
$DDT_AUDIT_GENERATED_(1A0)
  6
Continuous
 62
     7
100
AcDbLine
 10
198.3964466094
 20
268.4969035239
 30
0.0
 11
198.75
 21
268.8504569145
 31
0.0
  0
LINE
  5
4E0
330
24B
100
AcDbEntity
  8
$DDT_AUDIT_GENERATED_(23F)
  6
Continuous
 62
     7
100
AcDbLine
 10
252.5
 20
241.55
 30
0.0
 11
252.5
 21
260.3504569145
 31
0.0
  0
LINE
  5
4E1
330
24B
100
AcDbEntity
  8
$DDT_AUDIT_GENERATED_(23F)
  6
Continuous
 62
     7
100
AcDbLine
 10
214.0
 20
260.3504569145
 30
0.0
 11
214.0
 21
241.55
 31
0.0
  0
ARC
  5
4E2
330
24B
100
AcDbEntity
  8
$DDT_AUDIT_GENERATED_(23F)
  6
Continuous
 62
     7
100
AcDbCircle
 10
214.2
 20
241.55
 30
0.0
 40
0.1999999999999988
100
AcDbArc
 50
180.0
 51
270.0
  0
ARC
  5
4E3
330
24B
100
AcDbEntity
  8
$DDT_AUDIT_GENERATED_(23F)
  6
Continuous
 62
     7
100
AcDbCircle
 10
252.3
 20
241.55
 30
0.0
 40
0.2000000000000057
100
AcDbArc
 50
270.0
 51
0.0
  0
LINE
  5
4E4
330
24B
100
AcDbEntity
  8
$DDT_AUDIT_GENERATED_(1A0)
  6
Continuous
 62
     7
100
AcDbLine
 10
48.25
 20
260.8504569145
 30
0.0
 11
48.25
 21
268.3504569145
 31
0.0
  0
LINE
  5
4E5
330
24B
100
AcDbEntity
  8
$DDT_AUDIT_GENERATED_(1A0)
  6
Continuous
 62
     7
100
AcDbLine
 10
48.75
 20
293.3504569145
 30
0.0
 11
117.75
 21
293.3504569145
 31
0.0
  0
LINE
  5
4E6
330
24B
100
AcDbEntity
  8
$DDT_AUDIT_GENERATED_(1A0)
  6
Continuous
 62
     7
100
AcDbLine
 10
118.25
 20
292.8504569145
 30
0.0
 11
118.25
 21
269.3504569145
 31
0.0
  0
LINE
  5
4E7
330
24B
100
AcDbEntity
  8
$DDT_AUDIT_GENERATED_(1A0)
  6
Continuous
 62
     7
100
AcDbLine
 10
117.75
 20
260.3504569145
 30
0.0
 11
48.75
 21
260.3504569145
 31
0.0
  0
ARC
  5
4E8
330
24B
100
AcDbEntity
  8
$DDT_AUDIT_GENERATED_(1A0)
  6
Continuous
 62
     7
100
AcDbCircle
 10
117.75
 20
260.8504569145
 30
0.0
 40
0.5000000000000004
100
AcDbArc
 50
270.0
 51
0.0
  0
ARC
  5
4E9
330
24B
100
AcDbEntity
  8
$DDT_AUDIT_GENERATED_(1A0)
  6
Continuous
 62
     7
100
AcDbCircle
 10
117.75
 20
292.8504569145
 30
0.0
 40
0.5000000000000004
100
AcDbArc
 50
0.0
 51
90.0
  0
ARC
  5
4EA
330
24B
100
AcDbEntity
  8
$DDT_AUDIT_GENERATED_(1A0)
  6
Continuous
 62
     7
100
AcDbCircle
 10
48.75
 20
260.8504569145
 30
0.0
 40
0.5000000000000004
100
AcDbArc
 50
180.0
 51
270.0
  0
ARC
  5
4EB
330
24B
100
AcDbEntity
  8
$DDT_AUDIT_GENERATED_(1A0)
  6
Continuous
 62
     7
100
AcDbCircle
 10
48.75
 20
292.8504569145
 30
0.0
 40
0.5000000000000004
100
AcDbArc
 50
90.0
 51
180.0
  0
LINE
  5
4EC
330
24B
100
AcDbEntity
  8
$DDT_AUDIT_GENERATED_(1A0)
  6
Continuous
 62
     7
100
AcDbLine
 10
48.25
 20
269.3504569145
 30
0.0
 11
48.25
 21
292.8504569145
 31
0.0
  0
ARC
  5
4ED
330
24B
100
AcDbEntity
  8
$DDT_AUDIT_GENERATED_(1A0)
  6
Continuous
 62
     7
100
AcDbCircle
 10
48.75
 20
268.8504569145
 30
0.0
 40
0.4999999999999983
100
AcDbArc
 50
90.0
 51
135.0
  0
ARC
  5
4EE
330
24B
100
AcDbEntity
  8
$DDT_AUDIT_GENERATED_(1A0)
  6
Continuous
 62
     7
100
AcDbCircle
 10
48.75
 20
268.8504569145
 30
0.0
 40
0.5000000000000004
100
AcDbArc
 50
225.0
 51
270.0
  0
LINE
  5
4EF
330
24B
100
AcDbEntity
  8
$DDT_AUDIT_GENERATED_(1A0)
  6
Continuous
 62
     7
100
AcDbLine
 10
118.25
 20
268.3504569145
 30
0.0
 11
118.25
 21
260.8504569145
 31
0.0
  0
ARC
  5
4F0
330
24B
100
AcDbEntity
  8
$DDT_AUDIT_GENERATED_(1A0)
  6
Continuous
 62
     7
100
AcDbCircle
 10
117.75
 20
268.8504569145
 30
0.0
 40
0.4999999999999983
100
AcDbArc
 50
270.0
 51
315.0
  0
LINE
  5
4F1
330
24B
100
AcDbEntity
  8
$DDT_AUDIT_GENERATED_(1A0)
  6
Continuous
 62
     7
100
AcDbLine
 10
117.75
 20
268.3504569145
 30
0.0
 11
48.75
 21
268.3504569145
 31
0.0
  0
LINE
  5
4F2
330
24B
100
AcDbEntity
  8
$DDT_AUDIT_GENERATED_(1A0)
  6
Continuous
 62
     7
100
AcDbLine
 10
48.75
 20
269.3504569145
 30
0.0
 11
117.75
 21
269.3504569145
 31
0.0
  0
ARC
  5
4F3
330
24B
100
AcDbEntity
  8
$DDT_AUDIT_GENERATED_(1A0)
  6
Continuous
 62
     7
100
AcDbCircle
 10
117.75
 20
268.8504569145
 30
0.0
 40
0.5000000000000004
100
AcDbArc
 50
45.0
 51
90.0
  0
LINE
  5
4F4
330
24B
100
AcDbEntity
  8
$DDT_AUDIT_GENERATED_(1A0)
  6
Continuous
 62
     7
100
AcDbLine
 10
118.25
 20
268.3504569145
 30
0.0
 11
118.1035533906
 21
268.4969035239
 31
0.0
  0
LINE
  5
4F5
330
24B
100
AcDbEntity
  8
$DDT_AUDIT_GENERATED_(1A0)
  6
Continuous
 62
     7
100
AcDbLine
 10
118.1035533906
 20
268.4969035239
 30
0.0
 11
117.75
 21
268.8504569145
 31
0.0
  0
LINE
  5
4F6
330
24B
100
AcDbEntity
  8
$DDT_AUDIT_GENERATED_(1A0)
  6
Continuous
 62
     7
100
AcDbLine
 10
117.75
 20
268.8504569145
 30
0.0
 11
118.1035533906
 21
269.2040103051
 31
0.0
  0
LINE
  5
4F7
330
24B
100
AcDbEntity
  8
$DDT_AUDIT_GENERATED_(1A0)
  6
Continuous
 62
     7
100
AcDbLine
 10
118.1035533906
 20
269.2040103051
 30
0.0
 11
118.25
 21
269.3504569145
 31
0.0
  0
LINE
  5
4F8
330
24B
100
AcDbEntity
  8
$DDT_AUDIT_GENERATED_(1A0)
  6
Continuous
 62
     7
100
AcDbLine
 10
48.75
 20
268.8504569145
 30
0.0
 11
48.3964466094
 21
269.2040103051
 31
0.0
  0
LINE
  5
4F9
330
24B
100
AcDbEntity
  8
$DDT_AUDIT_GENERATED_(1A0)
  6
Continuous
 62
     7
100
AcDbLine
 10
48.3964466094
 20
269.2040103051
 30
0.0
 11
48.25
 21
269.3504569145
 31
0.0
  0
LINE
  5
4FA
330
24B
100
AcDbEntity
  8
$DDT_AUDIT_GENERATED_(1A0)
  6
Continuous
 62
     7
100
AcDbLine
 10
48.25
 20
268.3504569145
 30
0.0
 11
48.3964466094
 21
268.4969035239
 31
0.0
  0
LINE
  5
4FB
330
24B
100
AcDbEntity
  8
$DDT_AUDIT_GENERATED_(1A0)
  6
Continuous
 62
     7
100
AcDbLine
 10
48.3964466094
 20
268.4969035239
 30
0.0
 11
48.75
 21
268.8504569145
 31
0.0
  0
LINE
  5
4FC
330
24B
100
AcDbEntity
  8
$DDT_AUDIT_GENERATED_(23F)
  6
Continuous
 62
     7
100
AcDbLine
 10
102.5
 20
241.55
 30
0.0
 11
102.5
 21
260.3504569145
 31
0.0
  0
LINE
  5
4FD
330
24B
100
AcDbEntity
  8
$DDT_AUDIT_GENERATED_(23F)
  6
Continuous
 62
     7
100
AcDbLine
 10
64.0
 20
260.3504569145
 30
0.0
 11
64.0
 21
241.55
 31
0.0
  0
ARC
  5
4FE
330
24B
100
AcDbEntity
  8
$DDT_AUDIT_GENERATED_(23F)
  6
Continuous
 62
     7
100
AcDbCircle
 10
64.2
 20
241.55
 30
0.0
 40
0.2000000000000057
100
AcDbArc
 50
180.0
 51
270.0
  0
ARC
  5
4FF
330
24B
100
AcDbEntity
  8
$DDT_AUDIT_GENERATED_(23F)
  6
Continuous
 62
     7
100
AcDbCircle
 10
102.3
 20
241.55
 30
0.0
 40
0.2000000000000057
100
AcDbArc
 50
270.0
 51
0.0
  0
LINE
  5
500
330
24B
100
AcDbEntity
  8
$DDT_AUDIT_GENERATED_(1B6)
  6
Continuous
 62
     7
100
AcDbLine
 10
61.75
 20
218.85
 30
0.0
 11
60.95
 21
218.85
 31
0.0
  0
LINE
  5
501
330
24B
100
AcDbEntity
  8
$DDT_AUDIT_GENERATED_(1B6)
  6
Continuous
 62
     7
100
AcDbLine
 10
60.95
 20
183.85
 30
0.0
 11
61.75
 21
183.85
 31
0.0
  0
LINE
  5
502
330
24B
100
AcDbEntity
  8
$DDT_AUDIT_GENERATED_(1B9)
  6
Continuous
 62
     7
100
AcDbLine
 10
255.55
 20
183.6695282441
 30
0.0
 11
254.75
 21
183.6695282441
 31
0.0
  0
LINE
  5
503
330
24B
100
AcDbEntity
  8
$DDT_AUDIT_GENERATED_(1B9)
  6
Continuous
 62
     7
100
AcDbLine
 10
254.75
 20
219.0304717559
 30
0.0
 11
255.55
 21
219.0304717559
 31
0.0
  0
LINE
  5
504
330
24B
100
AcDbEntity
  8
$DDT_AUDIT_GENERATED_(1B9)
  6
Continuous
 62
     7
100
AcDbLine
 10
254.75
 20
183.35
 30
0.0
 11
255.55
 21
183.35
 31
0.0
  0
LINE
  5
505
330
24B
100
AcDbEntity
  8
$DDT_AUDIT_GENERATED_(1B9)
  6
Continuous
 62
     7
100
AcDbLine
 10
255.55
 20
219.35
 30
0.0
 11
254.75
 21
219.35
 31
0.0
  0
LINE
  5
507
330
24B
100
AcDbEntity
  8
DV3_Default
  6
CENTER2
 62
     7
100
AcDbLine
 10
103.249999553
 20
293.3504569145
 30
0.0
 11
63.250000447
 21
293.3504569145
 31
0.0
  0
LINE
  5
508
330
24B
100
AcDbEntity
  8
DV3_Default
  6
CENTER2
 62
     7
100
AcDbLine
 10
83.25
 20
313.3504564675
 30
0.0
 11
83.25
 21
273.3504573616
 31
0.0
  0
LINE
  5
509
330
24B
100
AcDbEntity
  8
DV3_Default
  6
CENTER2
 62
     7
100
AcDbLine
 10
253.249999553
 20
293.3504569145
 30
0.0
 11
213.250000447
 21
293.3504569145
 31
0.0
  0
LINE
  5
50A
330
24B
100
AcDbEntity
  8
DV3_Default
  6
CENTER2
 62
     7
100
AcDbLine
 10
233.25
 20
313.3504564675
 30
0.0
 11
233.25
 21
273.3504573616
 31
0.0
  0
ENDBLK
  5
50C
330
24B
100
AcDbEntity
  8
0
100
AcDbBlockEnd
  0
ENDSEC
  0
SECTION
  2
ENTITIES
  0
POINT
  5
5E
330
1F
100
AcDbEntity
  8
Default
  6
Continuous
 62
     7
100
AcDbPoint
 10
83.25
 20
403.25
 30
0.0
  0
POINT
  5
5F
330
1F
100
AcDbEntity
  8
Default
  6
Continuous
 62
     7
100
AcDbPoint
 10
233.25
 20
403.25
 30
0.0
  0
INSERT
  5
61
330
1F
100
AcDbEntity
  8
Default
100
AcDbBlockReference
  2
SEANNOT_GROUP
 10
0.0
 20
0.0
 30
0.0
  0
INSERT
  5
68
330
1F
100
AcDbEntity
  8
Default
100
AcDbBlockReference
  2
SEANNOT_GROUP1
 10
0.0
 20
0.0
 30
0.0
  0
INSERT
  5
6E
330
1F
100
AcDbEntity
  8
Default
100
AcDbBlockReference
  2
SE
 10
0.0
 20
0.0
 30
0.0
  0
INSERT
  5
1C2
330
1F
100
AcDbEntity
  8
Default
100
AcDbBlockReference
  2
SE1
 10
0.0
 20
0.0
 30
0.0
  0
INSERT
  5
24C
330
1F
100
AcDbEntity
  8
Default
100
AcDbBlockReference
  2
SE2
 10
0.0
 20
0.0
 30
0.0
  0
TEXT
  5
50E
330
1F
100
AcDbEntity
  8
Default
  6
Continuous
 62
     7
100
AcDbText
 10
5.9362635081
 20
53.4225120485
 30
0.0
 40
10.0
  1
Grohe AG^J
  7
SEACAD_seiso_ttf
 11
5.9362635081
 21
63.4225120485
 31
0.0
100
AcDbText
 73
     3
  0
TEXT
  5
50F
330
1F
100
AcDbEntity
  8
Default
  6
Continuous
 62
     7
100
AcDbText
 10
5.9362635081
 20
37.0588756849
 30
0.0
 40
10.0
  1
 
  7
SEACAD_seiso_ttf
 11
5.9362635081
 21
47.0588756849
 31
0.0
100
AcDbText
 73
     3
  0
TEXT
  5
510
330
1F
100
AcDbEntity
  8
Default
  6
Continuous
 62
     7
100
AcDbText
 10
5.9362635081
 20
20.6952393213
 30
0.0
 40
10.0
  1
ecn:
  7
SEACAD_seiso_ttf
 11
5.9362635081
 21
30.6952393213
 31
0.0
100
AcDbText
 73
     3
  0
TEXT
  5
511
330
1F
100
AcDbEntity
  8
Default
  6
Continuous
 62
     7
100
AcDbText
 10
5.9362635081
 20
4.3316029576
 30
0.0
 40
10.0
  1
unit: mm
  7
SEACAD_seiso_ttf
 11
5.9362635081
 21
14.3316029576
 31
0.0
100
AcDbText
 73
     3
  0
LINE
  5
512
330
1F
100
AcDbEntity
  8
Default
  6
Continuous
 62
     7
100
AcDbLine
 10
0.0
 20
0.0
 30
0.0
 11
100.0
 21
0.0
 31
0.0
  0
LINE
  5
513
330
1F
100
AcDbEntity
  8
Default
  6
Continuous
 62
     7
100
AcDbLine
 10
0.0
 20
0.0
 30
0.0
 11
0.0
 21
100.0
 31
0.0
  0
TEXT
  5
514
330
1F
100
AcDbEntity
  8
Default
  6
Continuous
 62
     7
100
AcDbText
 10
24.3923665681
 20
-18.2375342018
 30
0.0
 40
10.0
  1
100 mm
  7
SEACAD_seiso_ttf
 11
24.3923665681
 21
-8.2375342018
 31
0.0
100
AcDbText
 73
     3
  0
TEXT
  5
515
330
1F
100
AcDbEntity
  8
Default
  6
Continuous
 62
     7
100
AcDbText
 10
-7.6150308803
 20
24.6231930421
 30
0.0
 40
10.0
  1
100 mm
 50
90.0
  7
SEACAD_seiso_ttf
 11
-17.6150308803
 21
24.6231930421
 31
0.0
100
AcDbText
 73
     3
  0
TEXT
  5
516
330
1F
100
AcDbEntity
  8
Default
  6
Continuous
 62
     7
100
AcDbText
 10
28.4878128572
 20
20.0907663715
 30
0.0
 40
10.0
  1
227841
  7
SEACAD_seiso_ttf
 11
28.4878128572
 21
30.0907663715
 31
0.0
100
AcDbText
 73
     3
  0
TEXT
  5
517
330
1F
100
AcDbEntity
  8
Default
  6
Continuous
 62
     7
100
AcDbText
 10
5.9012241913
 20
36.7242780188
 30
0.0
 40
10.0
  1
34497000
  7
SEACAD_seiso_ttf
 11
5.9012241913
 21
46.7242780188
 31
0.0
100
AcDbText
 73
     3
  0
ENDSEC
  0
SECTION
  2
OBJECTS
  0
DICTIONARY
  5
C
330
0
100
AcDbDictionary
281
     1
  3
ACAD_GROUP
350
D
  3
ACAD_LAYOUT
350
1A
  3
ACAD_MLEADERSTYLE
350
51B
  3
ACAD_MLINESTYLE
350
17
  3
ACAD_PLOTSETTINGS
350
19
  3
ACAD_PLOTSTYLENAME
350
E
  3
ACAD_SCALELIST
350
3B
  3
ACAD_TABLESTYLE
350
51A
  3
ACAD_VISUALSTYLE
350
2A
  3
AcDbVariableDictionary
350
518
  0
DICTIONARY
  5
D
102
{ACAD_REACTORS
330
C
102
}
330
C
100
AcDbDictionary
281
     1
  0
DICTIONARY
  5
1A
102
{ACAD_REACTORS
330
C
102
}
330
C
100
AcDbDictionary
281
     1
  3
Layout1
350
1E
  3
Model
350
22
  0
DICTIONARY
  5
51B
102
{ACAD_REACTORS
330
C
102
}
330
C
100
AcDbDictionary
281
     1
  0
DICTIONARY
  5
17
102
{ACAD_REACTORS
330
C
102
}
330
C
100
AcDbDictionary
281
     1
  3
Standard
350
18
  0
DICTIONARY
  5
19
102
{ACAD_REACTORS
330
C
102
}
330
C
100
AcDbDictionary
281
     1
  0
ACDBDICTIONARYWDFLT
  5
E
102
{ACAD_REACTORS
330
C
102
}
330
C
100
AcDbDictionary
281
     1
  3
Normal
350
F
100
AcDbDictionaryWithDefault
340
F
  0
DICTIONARY
  5
3B
102
{ACAD_REACTORS
330
C
102
}
330
C
100
AcDbDictionary
281
     1
  3
A0
350
3C
  3
A1
350
3D
  3
A2
350
3E
  3
A3
350
3F
  3
A4
350
40
  3
A5
350
41
  3
A6
350
42
  3
A7
350
43
  3
A8
350
44
  3
A9
350
45
  3
B0
350
46
  3
B1
350
47
  3
B2
350
48
  3
B3
350
49
  3
B4
350
4A
  3
B5
350
4B
  3
B6
350
4C
  3
B7
350
4D
  3
B8
350
4E
  3
B9
350
4F
  3
C0
350
50
  3
C1
350
51
  3
C2
350
52
  3
C3
350
53
  3
C4
350
54
  3
C5
350
55
  3
C6
350
56
  3
C7
350
57
  3
C8
350
58
  3
C9
350
59
  3
D0
350
5A
  3
D1
350
5B
  3
D2
350
5C
  0
DICTIONARY
  5
51A
102
{ACAD_REACTORS
330
C
102
}
330
C
100
AcDbDictionary
281
     1
  0
DICTIONARY
  5
2A
102
{ACAD_REACTORS
330
C
102
}
330
C
100
AcDbDictionary
281
     1
  3
2dWireframe
350
2F
  3
3D Hidden
350
31
  3
3dWireframe
350
30
  3
Basic
350
32
  3
Brighten
350
36
  3
ColorChange
350
3A
  3
Conceptual
350
34
  3
Dim
350
35
  3
Facepattern
350
39
  3
Flat
350
2B
  3
FlatWithEdges
350
2C
  3
Gouraud
350
2D
  3
GouraudWithEdges
350
2E
  3
Linepattern
350
38
  3
Realistic
350
33
  3
Thicken
350
37
  0
DICTIONARY
  5
518
102
{ACAD_REACTORS
330
C
102
}
330
C
100
AcDbDictionary
281
     1
  3
CANNOSCALE
350
519
  3
PSOLHEIGHT
350
51D
  3
PSOLWIDTH
350
51C
  0
LAYOUT
  5
1E
102
{ACAD_REACTORS
330
1A
102
}
330
1A
100
AcDbPlotSettings
  1

  2
none_device
  4

  6

 40
0.0
 41
0.0
 42
0.0
 43
0.0
 44
0.0
 45
0.0
 46
0.0
 47
0.0
 48
0.0
 49
0.0
140
0.0
141
0.0
142
1.0
143
1.0
 70
   688
 72
     0
 73
     0
 74
     5
  7

 75
    16
147
1.0
148
0.0
149
0.0
100
AcDbLayout
  1
Layout1
 70
     1
 71
     1
 10
0.0
 20
0.0
 11
3000.0
 21
4500.0
 12
0.0
 22
0.0
 32
0.0
 14
0.0
 24
0.0
 34
0.0
 15
3000.0
 25
4500.0
 35
0.0
146
0.0
 13
0.0
 23
0.0
 33
0.0
 16
1.0
 26
0.0
 36
0.0
 17
0.0
 27
1.0
 37
0.0
 76
     0
330
1B
  0
LAYOUT
  5
22
102
{ACAD_REACTORS
330
1A
102
}
330
1A
100
AcDbPlotSettings
  1

  2
none_device
  4

  6

 40
0.0
 41
0.0
 42
0.0
 43
0.0
 44
0.0
 45
0.0
 46
0.0
 47
0.0
 48
0.0
 49
0.0
140
0.0
141
0.0
142
1.0
143
1.0
 70
  1712
 72
     0
 73
     0
 74
     0
  7

 75
     0
147
1.0
148
0.0
149
0.0
100
AcDbLayout
  1
Model
 70
     1
 71
     0
 10
0.0
 20
0.0
 11
3000.0
 21
4500.0
 12
0.0
 22
0.0
 32
0.0
 14
0.0
 24
0.0
 34
0.0
 15
3000.0
 25
4500.0
 35
0.0
146
0.0
 13
0.0
 23
0.0
 33
0.0
 16
1.0
 26
0.0
 36
0.0
 17
0.0
 27
1.0
 37
0.0
 76
     0
330
1F
331
29
  0
MLINESTYLE
  5
18
102
{ACAD_REACTORS
330
17
102
}
330
17
100
AcDbMlineStyle
  2
Standard
 70
     0
  3

 62
   256
 51
90.0
 52
90.0
 71
     2
 49
0.5
 62
   256
  6
BYLAYER
 49
-0.5
 62
   256
  6
BYLAYER
  0
ACDBPLACEHOLDER
  5
F
102
{ACAD_REACTORS
330
E
102
}
330
E
  0
SCALE
  5
3C
102
{ACAD_REACTORS
330
3B
102
}
330
3B
100
AcDbScale
 70
     0
300
1:1
140
1.0
141
1.0
290
     1
  0
SCALE
  5
3D
102
{ACAD_REACTORS
330
3B
102
}
330
3B
100
AcDbScale
 70
     0
300
1:2
140
1.0
141
2.0
290
     0
  0
SCALE
  5
3E
102
{ACAD_REACTORS
330
3B
102
}
330
3B
100
AcDbScale
 70
     0
300
1:4
140
1.0
141
4.0
290
     0
  0
SCALE
  5
3F
102
{ACAD_REACTORS
330
3B
102
}
330
3B
100
AcDbScale
 70
     0
300
1:5
140
1.0
141
5.0
290
     0
  0
SCALE
  5
40
102
{ACAD_REACTORS
330
3B
102
}
330
3B
100
AcDbScale
 70
     0
300
1:8
140
1.0
141
8.0
290
     0
  0
SCALE
  5
41
102
{ACAD_REACTORS
330
3B
102
}
330
3B
100
AcDbScale
 70
     0
300
1:10
140
1.0
141
10.0
290
     0
  0
SCALE
  5
42
102
{ACAD_REACTORS
330
3B
102
}
330
3B
100
AcDbScale
 70
     0
300
1:16
140
1.0
141
16.0
290
     0
  0
SCALE
  5
43
102
{ACAD_REACTORS
330
3B
102
}
330
3B
100
AcDbScale
 70
     0
300
1:20
140
1.0
141
20.0
290
     0
  0
SCALE
  5
44
102
{ACAD_REACTORS
330
3B
102
}
330
3B
100
AcDbScale
 70
     0
300
1:30
140
1.0
141
30.0
290
     0
  0
SCALE
  5
45
102
{ACAD_REACTORS
330
3B
102
}
330
3B
100
AcDbScale
 70
     0
300
1:40
140
1.0
141
40.0
290
     0
  0
SCALE
  5
46
102
{ACAD_REACTORS
330
3B
102
}
330
3B
100
AcDbScale
 70
     0
300
1:50
140
1.0
141
50.0
290
     0
  0
SCALE
  5
47
102
{ACAD_REACTORS
330
3B
102
}
330
3B
100
AcDbScale
 70
     0
300
1:100
140
1.0
141
100.0
290
     0
  0
SCALE
  5
48
102
{ACAD_REACTORS
330
3B
102
}
330
3B
100
AcDbScale
 70
     0
300
2:1
140
2.0
141
1.0
290
     0
  0
SCALE
  5
49
102
{ACAD_REACTORS
330
3B
102
}
330
3B
100
AcDbScale
 70
     0
300
4:1
140
4.0
141
1.0
290
     0
  0
SCALE
  5
4A
102
{ACAD_REACTORS
330
3B
102
}
330
3B
100
AcDbScale
 70
     0
300
8:1
140
8.0
141
1.0
290
     0
  0
SCALE
  5
4B
102
{ACAD_REACTORS
330
3B
102
}
330
3B
100
AcDbScale
 70
     0
300
10:1
140
10.0
141
1.0
290
     0
  0
SCALE
  5
4C
102
{ACAD_REACTORS
330
3B
102
}
330
3B
100
AcDbScale
 70
     0
300
100:1
140
100.0
141
1.0
290
     0
  0
SCALE
  5
4D
102
{ACAD_REACTORS
330
3B
102
}
330
3B
100
AcDbScale
 70
     0
300
1/128" = 1'-0"
140
0.0078125
141
12.0
290
     0
  0
SCALE
  5
4E
102
{ACAD_REACTORS
330
3B
102
}
330
3B
100
AcDbScale
 70
     0
300
1/64" = 1'-0"
140
0.015625
141
12.0
290
     0
  0
SCALE
  5
4F
102
{ACAD_REACTORS
330
3B
102
}
330
3B
100
AcDbScale
 70
     0
300
1/32" = 1'-0"
140
0.03125
141
12.0
290
     0
  0
SCALE
  5
50
102
{ACAD_REACTORS
330
3B
102
}
330
3B
100
AcDbScale
 70
     0
300
1/16" = 1'-0"
140
0.0625
141
12.0
290
     0
  0
SCALE
  5
51
102
{ACAD_REACTORS
330
3B
102
}
330
3B
100
AcDbScale
 70
     0
300
3/32" = 1'-0"
140
0.09375
141
12.0
290
     0
  0
SCALE
  5
52
102
{ACAD_REACTORS
330
3B
102
}
330
3B
100
AcDbScale
 70
     0
300
1/8" = 1'-0"
140
0.125
141
12.0
290
     0
  0
SCALE
  5
53
102
{ACAD_REACTORS
330
3B
102
}
330
3B
100
AcDbScale
 70
     0
300
3/16" = 1'-0"
140
0.1875
141
12.0
290
     0
  0
SCALE
  5
54
102
{ACAD_REACTORS
330
3B
102
}
330
3B
100
AcDbScale
 70
     0
300
1/4" = 1'-0"
140
0.25
141
12.0
290
     0
  0
SCALE
  5
55
102
{ACAD_REACTORS
330
3B
102
}
330
3B
100
AcDbScale
 70
     0
300
3/8" = 1'-0"
140
0.375
141
12.0
290
     0
  0
SCALE
  5
56
102
{ACAD_REACTORS
330
3B
102
}
330
3B
100
AcDbScale
 70
     0
300
1/2" = 1'-0"
140
0.5
141
12.0
290
     0
  0
SCALE
  5
57
102
{ACAD_REACTORS
330
3B
102
}
330
3B
100
AcDbScale
 70
     0
300
3/4" = 1'-0"
140
0.75
141
12.0
290
     0
  0
SCALE
  5
58
102
{ACAD_REACTORS
330
3B
102
}
330
3B
100
AcDbScale
 70
     0
300
1" = 1'-0"
140
1.0
141
12.0
290
     0
  0
SCALE
  5
59
102
{ACAD_REACTORS
330
3B
102
}
330
3B
100
AcDbScale
 70
     0
300
1-1/2" = 1'-0"
140
1.5
141
12.0
290
     0
  0
SCALE
  5
5A
102
{ACAD_REACTORS
330
3B
102
}
330
3B
100
AcDbScale
 70
     0
300
3" = 1'-0"
140
3.0
141
12.0
290
     0
  0
SCALE
  5
5B
102
{ACAD_REACTORS
330
3B
102
}
330
3B
100
AcDbScale
 70
     0
300
6" = 1'-0"
140
6.0
141
12.0
290
     0
  0
SCALE
  5
5C
102
{ACAD_REACTORS
330
3B
102
}
330
3B
100
AcDbScale
 70
     0
300
1'-0" = 1'-0"
140
12.0
141
12.0
290
     0
  0
VISUALSTYLE
  5
2F
102
{ACAD_REACTORS
330
2A
102
}
330
2A
100
AcDbVisualStyle
  2
2dWireframe
 70
     4
 71
     0
 72
     2
 73
     0
 90
        0
 40
-0.6
 41
-30.0
 62
     5
 63
     7
 74
     1
 91
        4
 64
     7
 65
   257
 75
     1
175
     1
 42
1.0
 92
        0
 66
   257
 43
1.0
 76
     1
 77
     6
 78
     2
 67
     7
 79
     5
170
     0
171
     0
290
     0
174
     0
 93
        1
 44
0.0
173
     0
291
     0
 45
0.0
1001
ACAD
1000
AcDbSavedByObjectVersion
1070
     0
  0
VISUALSTYLE
  5
31
102
{ACAD_REACTORS
330
2A
102
}
330
2A
100
AcDbVisualStyle
  2
3D Hidden
 70
     6
 71
     1
 72
     2
 73
     2
 90
        0
 40
-0.6
 41
-30.0
 62
     5
 63
     7
 74
     2
 91
        2
 64
     7
 65
   257
 75
     2
175
     1
 42
40.0
 92
        0
 66
   257
 43
1.0
 76
     1
 77
     6
 78
     2
 67
     7
 79
     3
170
     0
171
     0
290
     0
174
     0
 93
        1
 44
0.0
173
     0
291
     0
 45
0.0
1001
ACAD
1000
AcDbSavedByObjectVersion
1070
     0
  0
VISUALSTYLE
  5
30
102
{ACAD_REACTORS
330
2A
102
}
330
2A
100
AcDbVisualStyle
  2
3dWireframe
 70
     5
 71
     0
 72
     2
 73
     0
 90
        0
 40
-0.6
 41
-30.0
 62
     5
 63
     7
 74
     1
 91
        4
 64
     7
 65
   257
 75
     1
175
     1
 42
1.0
 92
        0
 66
   257
 43
1.0
 76
     1
 77
     6
 78
     2
 67
     7
 79
     5
170
     0
171
     0
290
     0
174
     0
 93
        1
 44
0.0
173
     0
291
     0
 45
0.0
1001
ACAD
1000
AcDbSavedByObjectVersion
1070
     0
  0
VISUALSTYLE
  5
32
102
{ACAD_REACTORS
330
2A
102
}
330
2A
100
AcDbVisualStyle
  2
Basic
 70
     7
 71
     1
 72
     0
 73
     1
 90
        0
 40
-0.6
 41
-30.0
 62
     5
 63
     7
 74
     0
 91
        4
 64
     7
 65
   257
 75
     1
175
     1
 42
1.0
 92
        8
 66
     7
 43
1.0
 76
     1
 77
     6
 78
     2
 67
     7
 79
     5
170
     0
171
     0
290
     0
174
     0
 93
        1
 44
0.0
173
     0
291
     1
 45
0.0
1001
ACAD
1000
AcDbSavedByObjectVersion
1070
     0
  0
VISUALSTYLE
  5
36
102
{ACAD_REACTORS
330
2A
102
}
330
2A
100
AcDbVisualStyle
  2
Brighten
 70
    12
 71
     2
 72
     2
 73
     0
 90
        0
 40
-0.6
 41
-30.0
 62
     5
 63
     7
 74
     1
 91
        4
 64
     7
 65
   257
 75
     1
175
     1
 42
1.0
 92
        8
 66
     7
 43
1.0
 76
     1
 77
     6
 78
     2
 67
     7
 79
     5
170
     0
171
     0
290
     0
174
     0
 93
        1
 44
50.0
173
     0
291
     1
 45
0.0
1001
ACAD
1000
AcDbSavedByObjectVersion
1070
     0
  0
VISUALSTYLE
  5
3A
102
{ACAD_REACTORS
330
2A
102
}
330
2A
100
AcDbVisualStyle
  2
ColorChange
 70
    16
 71
     2
 72
     2
 73
     3
 90
        0
 40
-0.6
 41
-30.0
 62
     5
 63
     8
 74
     1
 91
        4
 64
     7
 65
   257
 75
     1
175
     1
 42
1.0
 92
        8
 66
     8
 43
1.0
 76
     1
 77
     6
 78
     2
 67
     7
 79
     5
170
     0
171
     0
290
     0
174
     0
 93
        1
 44
0.0
173
     0
291
     1
 45
0.0
1001
ACAD
1000
AcDbSavedByObjectVersion
1070
     0
  0
VISUALSTYLE
  5
34
102
{ACAD_REACTORS
330
2A
102
}
330
2A
100
AcDbVisualStyle
  2
Conceptual
 70
     9
 71
     3
 72
     2
 73
     0
 90
        0
 40
-0.6
 41
-30.0
 62
     5
 63
     7
 74
     2
 91
        2
 64
     7
 65
   257
 75
     1
175
     1
 42
40.0
 92
        8
 66
     7
 43
1.0
 76
     1
 77
     6
 78
     2
 67
     7
 79
     3
170
     0
171
     0
290
     0
174
     0
 93
        1
 44
0.0
173
     0
291
     0
 45
0.0
1001
ACAD
1000
AcDbSavedByObjectVersion
1070
     0
  0
VISUALSTYLE
  5
35
102
{ACAD_REACTORS
330
2A
102
}
330
2A
100
AcDbVisualStyle
  2
Dim
 70
    11
 71
     2
 72
     2
 73
     0
 90
        0
 40
-0.6
 41
-30.0
 62
     5
 63
     7
 74
     1
 91
        4
 64
     7
 65
   257
 75
     1
175
     1
 42
1.0
 92
        8
 66
     7
 43
1.0
 76
     1
 77
     6
 78
     2
 67
     7
 79
     5
170
     0
171
     0
290
     0
174
     0
 93
        1
 44
-50.0
173
     0
291
     1
 45
0.0
1001
ACAD
1000
AcDbSavedByObjectVersion
1070
     0
  0
VISUALSTYLE
  5
39
102
{ACAD_REACTORS
330
2A
102
}
330
2A
100
AcDbVisualStyle
  2
Facepattern
 70
    15
 71
     2
 72
     2
 73
     0
 90
        0
 40
-0.6
 41
-30.0
 62
     5
 63
     7
 74
     1
 91
        4
 64
     7
 65
   257
 75
     1
175
     1
 42
1.0
 92
        8
 66
     7
 43
1.0
 76
     1
 77
     6
 78
     2
 67
     7
 79
     5
170
     0
171
     0
290
     0
174
     0
 93
        1
 44
0.0
173
     0
291
     1
 45
0.0
1001
ACAD
1000
AcDbSavedByObjectVersion
1070
     0
  0
VISUALSTYLE
  5
2B
102
{ACAD_REACTORS
330
2A
102
}
330
2A
100
AcDbVisualStyle
  2
Flat
 70
     0
 71
     2
 72
     1
 73
     1
 90
        2
 40
-0.6
 41
30.0
 62
     5
 63
     7
 74
     0
 91
        4
 64
     7
 65
   257
 75
     1
175
     1
 42
1.0
 92
        8
 66
     7
 43
1.0
 76
     1
 77
     6
 78
     2
 67
     7
 79
     5
170
     0
171
     0
290
     0
174
     0
 93
       13
 44
0.0
173
     0
291
     1
 45
0.0
1001
ACAD
1000
AcDbSavedByObjectVersion
1070
     0
  0
VISUALSTYLE
  5
2C
102
{ACAD_REACTORS
330
2A
102
}
330
2A
100
AcDbVisualStyle
  2
FlatWithEdges
 70
     1
 71
     2
 72
     1
 73
     1
 90
        2
 40
-0.6
 41
30.0
 62
     5
 63
     7
 74
     1
 91
        4
 64
     7
 65
   257
 75
     1
175
     1
 42
1.0
 92
        0
 66
   257
 43
1.0
 76
     1
 77
     6
 78
     2
 67
     7
 79
     5
170
     0
171
     0
290
     0
174
     0
 93
       13
 44
0.0
173
     0
291
     1
 45
0.0
1001
ACAD
1000
AcDbSavedByObjectVersion
1070
     0
  0
VISUALSTYLE
  5
2D
102
{ACAD_REACTORS
330
2A
102
}
330
2A
100
AcDbVisualStyle
  2
Gouraud
 70
     2
 71
     2
 72
     2
 73
     1
 90
        2
 40
-0.6
 41
30.0
 62
     5
 63
     7
 74
     0
 91
        4
 64
     7
 65
   257
 75
     1
175
     1
 42
1.0
 92
        0
 66
     7
 43
1.0
 76
     1
 77
     6
 78
     2
 67
     7
 79
     5
170
     0
171
     0
290
     0
174
     0
 93
       13
 44
0.0
173
     0
291
     1
 45
0.0
1001
ACAD
1000
AcDbSavedByObjectVersion
1070
     0
  0
VISUALSTYLE
  5
2E
102
{ACAD_REACTORS
330
2A
102
}
330
2A
100
AcDbVisualStyle
  2
GouraudWithEdges
 70
     3
 71
     2
 72
     2
 73
     1
 90
        2
 40
-0.6
 41
30.0
 62
     5
 63
     7
 74
     1
 91
        4
 64
     7
 65
   257
 75
     1
175
     1
 42
1.0
 92
        0
 66
   257
 43
1.0
 76
     1
 77
     6
 78
     2
 67
     7
 79
     5
170
     0
171
     0
290
     0
174
     0
 93
       13
 44
0.0
173
     0
291
     1
 45
0.0
1001
ACAD
1000
AcDbSavedByObjectVersion
1070
     0
  0
VISUALSTYLE
  5
38
102
{ACAD_REACTORS
330
2A
102
}
330
2A
100
AcDbVisualStyle
  2
Linepattern
 70
    14
 71
     2
 72
     2
 73
     0
 90
        0
 40
-0.6
 41
-30.0
 62
     5
 63
     7
 74
     1
 91
        4
 64
     7
 65
   257
 75
     7
175
     7
 42
1.0
 92
        8
 66
     7
 43
1.0
 76
     1
 77
     6
 78
     2
 67
     7
 79
     5
170
     0
171
     0
290
     0
174
     0
 93
        1
 44
0.0
173
     0
291
     1
 45
0.0
1001
ACAD
1000
AcDbSavedByObjectVersion
1070
     0
  0
VISUALSTYLE
  5
33
102
{ACAD_REACTORS
330
2A
102
}
330
2A
100
AcDbVisualStyle
  2
Realistic
 70
     8
 71
     2
 72
     2
 73
     0
 90
        0
 40
-0.6
 41
-30.0
 62
     5
 63
     7
 74
     1
 91
        0
 64
     7
 65
   257
 75
     1
175
     1
 42
1.0
 92
        8
 66
     8
 43
1.0
 76
     1
 77
     6
 78
     2
 67
     7
 79
     5
170
     0
171
     0
290
     0
174
     0
 93
       13
 44
0.0
173
     0
291
     0
 45
0.0
1001
ACAD
1000
AcDbSavedByObjectVersion
1070
     0
  0
VISUALSTYLE
  5
37
102
{ACAD_REACTORS
330
2A
102
}
330
2A
100
AcDbVisualStyle
  2
Thicken
 70
    13
 71
     2
 72
     2
 73
     0
 90
        0
 40
-0.6
 41
-30.0
 62
     5
 63
     7
 74
     1
 91
        4
 64
     7
 65
   257
 75
     1
175
     1
 42
1.0
 92
       12
 66
     7
 43
1.0
 76
     1
 77
     6
 78
     2
 67
     7
 79
     5
170
     0
171
     0
290
     0
174
     0
 93
        1
 44
0.0
173
     0
291
     1
 45
0.0
1001
ACAD
1000
AcDbSavedByObjectVersion
1070
     0
  0
DICTIONARYVAR
  5
519
102
{ACAD_REACTORS
330
518
102
}
330
518
100
DictionaryVariables
280
     0
  1
1:1
  0
DICTIONARYVAR
  5
51D
102
{ACAD_REACTORS
330
518
102
}
330
518
100
DictionaryVariables
280
     0
  1
80.000000
  0
DICTIONARYVAR
  5
51C
102
{ACAD_REACTORS
330
518
102
}
330
518
100
DictionaryVariables
280
     0
  1
5.000000
  0
ENDSEC
  0
EOF
