  0
SECTION
  2
HEADER
  9
$ACADVER
  1
AC1015
  9
$ACADMAINTVER
 70
     6
  9
$DWGCODEPAGE
  3
ANSI_1252
  9
$INSBASE
 10
0.0
 20
0.0
 30
0.0
  9
$EXTMIN
 10
0.0
 20
0.0
 30
0.0
  9
$EXTMAX
 10
3000.0
 20
4500.0
 30
0.0
  9
$LIMMIN
 10
0.0
 20
0.0
  9
$LIMMAX
 10
3000.0
 20
4500.0
  9
$ORTHOMODE
 70
     0
  9
$REGENMODE
 70
     1
  9
$FILLMODE
 70
     1
  9
$QTEXTMODE
 70
     0
  9
$MIRRTEXT
 70
     1
  9
$LTSCALE
 40
1.0
  9
$ATTMODE
 70
     1
  9
$TEXTSIZE
 40
2.5
  9
$TRACEWID
 40
1.0
  9
$TEXTSTYLE
  7
Standard
  9
$CLAYER
  8
0
  9
$CELTYPE
  6
ByLayer
  9
$CECOLOR
 62
   256
  9
$CELTSCALE
 40
1.0
  9
$DISPSILH
 70
     0
  9
$DIMSCALE
 40
1.0
  9
$DIMASZ
 40
2.5
  9
$DIMEXO
 40
0.625
  9
$DIMDLI
 40
3.75
  9
$DIMRND
 40
0.0
  9
$DIMDLE
 40
0.0
  9
$DIMEXE
 40
1.25
  9
$DIMTP
 40
0.0
  9
$DIMTM
 40
0.0
  9
$DIMTXT
 40
2.5
  9
$DIMCEN
 40
2.5
  9
$DIMTSZ
 40
0.0
  9
$DIMTOL
 70
     0
  9
$DIMLIM
 70
     0
  9
$DIMTIH
 70
     0
  9
$DIMTOH
 70
     0
  9
$DIMSE1
 70
     0
  9
$DIMSE2
 70
     0
  9
$DIMTAD
 70
     1
  9
$DIMZIN
 70
     8
  9
$DIMBLK
  1

  9
$DIMASO
 70
     1
  9
$DIMSHO
 70
     1
  9
$DIMPOST
  1

  9
$DIMAPOST
  1

  9
$DIMALT
 70
     0
  9
$DIMALTD
 70
     3
  9
$DIMALTF
 40
0.0393700787
  9
$DIMLFAC
 40
1.0
  9
$DIMTOFL
 70
     1
  9
$DIMTVP
 40
0.0
  9
$DIMTIX
 70
     0
  9
$DIMSOXD
 70
     0
  9
$DIMSAH
 70
     0
  9
$DIMBLK1
  1

  9
$DIMBLK2
  1

  9
$DIMSTYLE
  2
ISO-25
  9
$DIMCLRD
 70
     0
  9
$DIMCLRE
 70
     0
  9
$DIMCLRT
 70
     0
  9
$DIMTFAC
 40
1.0
  9
$DIMGAP
 40
0.625
  9
$DIMJUST
 70
     0
  9
$DIMSD1
 70
     0
  9
$DIMSD2
 70
     0
  9
$DIMTOLJ
 70
     0
  9
$DIMTZIN
 70
     8
  9
$DIMALTZ
 70
     0
  9
$DIMALTTZ
 70
     0
  9
$DIMUPT
 70
     0
  9
$DIMDEC
 70
     2
  9
$DIMTDEC
 70
     2
  9
$DIMALTU
 70
     2
  9
$DIMALTTD
 70
     3
  9
$DIMTXSTY
  7
Standard
  9
$DIMAUNIT
 70
     0
  9
$DIMADEC
 70
     0
  9
$DIMALTRND
 40
0.0
  9
$DIMAZIN
 70
     0
  9
$DIMDSEP
 70
    44
  9
$DIMATFIT
 70
     3
  9
$DIMFRAC
 70
     0
  9
$DIMLDRBLK
  1

  9
$DIMLUNIT
 70
     2
  9
$DIMLWD
 70
    -2
  9
$DIMLWE
 70
    -2
  9
$DIMTMOVE
 70
     0
  9
$LUNITS
 70
     2
  9
$LUPREC
 70
     4
  9
$SKETCHINC
 40
1.0
  9
$FILLETRAD
 40
10.0
  9
$AUNITS
 70
     0
  9
$AUPREC
 70
     0
  9
$MENU
  1
.
  9
$ELEVATION
 40
0.0
  9
$PELEVATION
 40
0.0
  9
$THICKNESS
 40
0.0
  9
$LIMCHECK
 70
     0
  9
$CHAMFERA
 40
10.0
  9
$CHAMFERB
 40
10.0
  9
$CHAMFERC
 40
20.0
  9
$CHAMFERD
 40
0.0
  9
$SKPOLY
 70
     0
  9
$TDCREATE
 40
2456770.343037986
  9
$TDUCREATE
 40
2456770.259704653
  9
$TDUPDATE
 40
2456770.343037998
  9
$TDUUPDATE
 40
2456770.259704664
  9
$TDINDWG
 40
0.0000000116
  9
$TDUSRTIMER
 40
0.0000000116
  9
$USRTIMER
 70
     1
  9
$ANGBASE
 50
0.0
  9
$ANGDIR
 70
     0
  9
$PDMODE
 70
     0
  9
$PDSIZE
 40
0.0
  9
$PLINEWID
 40
0.0
  9
$SPLFRAME
 70
     0
  9
$SPLINETYPE
 70
     6
  9
$SPLINESEGS
 70
     8
  9
$HANDSEED
  5
281
  9
$SURFTAB1
 70
     6
  9
$SURFTAB2
 70
     6
  9
$SURFTYPE
 70
     6
  9
$SURFU
 70
     6
  9
$SURFV
 70
     6
  9
$UCSBASE
  2

  9
$UCSNAME
  2

  9
$UCSORG
 10
0.0
 20
0.0
 30
0.0
  9
$UCSXDIR
 10
1.0
 20
0.0
 30
0.0
  9
$UCSYDIR
 10
0.0
 20
1.0
 30
0.0
  9
$UCSORTHOREF
  2

  9
$UCSORTHOVIEW
 70
     0
  9
$UCSORGTOP
 10
0.0
 20
0.0
 30
0.0
  9
$UCSORGBOTTOM
 10
0.0
 20
0.0
 30
0.0
  9
$UCSORGLEFT
 10
0.0
 20
0.0
 30
0.0
  9
$UCSORGRIGHT
 10
0.0
 20
0.0
 30
0.0
  9
$UCSORGFRONT
 10
0.0
 20
0.0
 30
0.0
  9
$UCSORGBACK
 10
0.0
 20
0.0
 30
0.0
  9
$PUCSBASE
  2

  9
$PUCSNAME
  2

  9
$PUCSORG
 10
0.0
 20
0.0
 30
0.0
  9
$PUCSXDIR
 10
1.0
 20
0.0
 30
0.0
  9
$PUCSYDIR
 10
0.0
 20
1.0
 30
0.0
  9
$PUCSORTHOREF
  2

  9
$PUCSORTHOVIEW
 70
     0
  9
$PUCSORGTOP
 10
0.0
 20
0.0
 30
0.0
  9
$PUCSORGBOTTOM
 10
0.0
 20
0.0
 30
0.0
  9
$PUCSORGLEFT
 10
0.0
 20
0.0
 30
0.0
  9
$PUCSORGRIGHT
 10
0.0
 20
0.0
 30
0.0
  9
$PUCSORGFRONT
 10
0.0
 20
0.0
 30
0.0
  9
$PUCSORGBACK
 10
0.0
 20
0.0
 30
0.0
  9
$USERI1
 70
     0
  9
$USERI2
 70
     0
  9
$USERI3
 70
     0
  9
$USERI4
 70
     0
  9
$USERI5
 70
     0
  9
$USERR1
 40
0.0
  9
$USERR2
 40
0.0
  9
$USERR3
 40
0.0
  9
$USERR4
 40
0.0
  9
$USERR5
 40
0.0
  9
$WORLDVIEW
 70
     1
  9
$SHADEDGE
 70
     3
  9
$SHADEDIF
 70
    70
  9
$TILEMODE
 70
     1
  9
$MAXACTVP
 70
    64
  9
$PINSBASE
 10
0.0
 20
0.0
 30
0.0
  9
$PLIMCHECK
 70
     0
  9
$PEXTMIN
 10
0.0
 20
0.0
 30
0.0
  9
$PEXTMAX
 10
3000.0
 20
4500.0
 30
0.0
  9
$PLIMMIN
 10
0.0
 20
0.0
  9
$PLIMMAX
 10
3000.0
 20
4500.0
  9
$UNITMODE
 70
     0
  9
$VISRETAIN
 70
     1
  9
$PLINEGEN
 70
     0
  9
$PSLTSCALE
 70
     1
  9
$TREEDEPTH
 70
  3020
  9
$CMLSTYLE
  2
Standard
  9
$CMLJUST
 70
     0
  9
$CMLSCALE
 40
20.0
  9
$PROXYGRAPHICS
 70
     1
  9
$MEASUREMENT
 70
     1
  9
$CELWEIGHT
370
    -1
  9
$ENDCAPS
280
     0
  9
$JOINSTYLE
280
     0
  9
$LWDISPLAY
290
     0
  9
$INSUNITS
 70
     4
  9
$HYPERLINKBASE
  1

  9
$STYLESHEET
  1

  9
$XEDIT
290
     1
  9
$CEPSNTYPE
380
     0
  9
$PSTYLEMODE
290
     1
  9
$FINGERPRINTGUID
  2
{F32B0E21-4220-41F2-AFDE-944D74743D0F}
  9
$VERSIONGUID
  2
{FAEB1C32-E019-11D5-929B-00C0DF256EC4}
  9
$EXTNAMES
290
     1
  9
$PSVPSCALE
 40
0.0
  9
$OLESTARTUP
290
     0
  0
ENDSEC
  0
SECTION
  2
CLASSES
  0
CLASS
  1
ACDBDICTIONARYWDFLT
  2
AcDbDictionaryWithDefault
  3
ObjectDBX Classes
 90
        0
280
     0
281
     0
  0
CLASS
  1
VISUALSTYLE
  2
AcDbVisualStyle
  3
ObjectDBX Classes
 90
     4095
280
     0
281
     0
  0
CLASS
  1
SCALE
  2
AcDbScale
  3
ObjectDBX Classes
 90
     1153
280
     0
281
     0
  0
CLASS
  1
DICTIONARYVAR
  2
AcDbDictionaryVar
  3
ObjectDBX Classes
 90
        0
280
     0
281
     0
  0
CLASS
  1
ACDBPLACEHOLDER
  2
AcDbPlaceHolder
  3
ObjectDBX Classes
 90
        0
280
     0
281
     0
  0
CLASS
  1
LAYOUT
  2
AcDbLayout
  3
ObjectDBX Classes
 90
        0
280
     0
281
     0
  0
ENDSEC
  0
SECTION
  2
TABLES
  0
TABLE
  2
VPORT
  5
8
330
0
100
AcDbSymbolTable
 70
     1
  0
VPORT
  5
29
330
8
100
AcDbSymbolTableRecord
100
AcDbViewportTableRecord
  2
*Active
 70
     0
 10
0.0
 20
0.0
 11
1.0
 21
1.0
 12
344.1869158879
 22
148.5
 13
0.0
 23
0.0
 14
10.0
 24
10.0
 15
10.0
 25
10.0
 16
0.0
 26
0.0
 36
1.0
 17
0.0
 27
0.0
 37
0.0
 40
297.0
 41
1.9729729729
 42
50.0
 43
0.0
 44
0.0
 50
0.0
 51
0.0
 71
     0
 72
   100
 73
     1
 74
     3
 75
     0
 76
     0
 77
     0
 78
     0
281
     0
 65
     1
110
0.0
120
0.0
130
0.0
111
1.0
121
0.0
131
0.0
112
0.0
122
1.0
132
0.0
 79
     0
146
0.0
  0
ENDTAB
  0
TABLE
  2
LTYPE
  5
5
330
0
100
AcDbSymbolTable
 70
     2
  0
LTYPE
  5
14
330
5
100
AcDbSymbolTableRecord
100
AcDbLinetypeTableRecord
  2
ByBlock
 70
     0
  3

 72
    65
 73
     0
 40
0.0
  0
LTYPE
  5
15
330
5
100
AcDbSymbolTableRecord
100
AcDbLinetypeTableRecord
  2
ByLayer
 70
     0
  3

 72
    65
 73
     0
 40
0.0
  0
LTYPE
  5
16
330
5
100
AcDbSymbolTableRecord
100
AcDbLinetypeTableRecord
  2
Continuous
 70
     0
  3
Solid line
 72
    65
 73
     0
 40
0.0
  0
LTYPE
  5
60
330
5
100
AcDbSymbolTableRecord
100
AcDbLinetypeTableRecord
  2
CENTER2
 70
     0
  3
Center (.5x) ___ _ ___ _ ___ _ ___ _ ___ _ ___
 72
    65
 73
     4
 40
28.575
 49
19.05
 74
     4
 75
     0
340
0
 46
0.0
 50
0.0
 44
0.0
 45
0.0
 49
-3.175
 74
     4
 75
     0
340
0
 46
0.0
 50
0.0
 44
0.0
 45
0.0
 49
3.175
 74
     4
 75
     0
340
0
 46
0.0
 50
0.0
 44
0.0
 45
0.0
 49
-3.175
 74
     4
 75
     0
340
0
 46
0.0
 50
0.0
 44
0.0
 45
0.0
  0
ENDTAB
  0
TABLE
  2
LAYER
  5
2
330
0
100
AcDbSymbolTable
 70
    15
  0
LAYER
  5
10
330
2
100
AcDbSymbolTableRecord
100
AcDbLayerTableRecord
  2
0
 70
     0
 62
     7
  6
Continuous
370
    -3
390
F
  0
LAYER
  5
5D
330
2
100
AcDbSymbolTableRecord
100
AcDbLayerTableRecord
  2
Default
 70
     0
 62
     7
  6
Continuous
370
    -3
390
F
  0
LAYER
  5
7F
330
2
100
AcDbSymbolTableRecord
100
AcDbLayerTableRecord
  2
$DDT_AUDIT_GENERATED_(7F)
 70
     0
 62
     7
  6
Continuous
370
    -3
390
F
  0
LAYER
  5
8F
330
2
100
AcDbSymbolTableRecord
100
AcDbLayerTableRecord
  2
$DDT_AUDIT_GENERATED_(8F)
 70
     0
 62
     7
  6
Continuous
370
    -3
390
F
  0
LAYER
  5
9E
330
2
100
AcDbSymbolTableRecord
100
AcDbLayerTableRecord
  2
$DDT_AUDIT_GENERATED_(9E)
 70
     0
 62
     7
  6
Continuous
370
    -3
390
F
  0
LAYER
  5
C5
330
2
100
AcDbSymbolTableRecord
100
AcDbLayerTableRecord
  2
$DDT_AUDIT_GENERATED_(C5)
 70
     0
 62
     7
  6
Continuous
370
    -3
390
F
  0
LAYER
  5
CC
330
2
100
AcDbSymbolTableRecord
100
AcDbLayerTableRecord
  2
$DDT_AUDIT_GENERATED_(CC)
 70
     0
 62
     7
  6
Continuous
370
    -3
390
F
  0
LAYER
  5
D1
330
2
100
AcDbSymbolTableRecord
100
AcDbLayerTableRecord
  2
$DDT_AUDIT_GENERATED_(D1)
 70
     0
 62
     7
  6
Continuous
370
    -3
390
F
  0
LAYER
  5
D3
330
2
100
AcDbSymbolTableRecord
100
AcDbLayerTableRecord
  2
$DDT_AUDIT_GENERATED_(D3)
 70
     0
 62
     7
  6
Continuous
370
    -3
390
F
  0
LAYER
  5
E8
330
2
100
AcDbSymbolTableRecord
100
AcDbLayerTableRecord
  2
$DDT_AUDIT_GENERATED_(E8)
 70
     0
 62
     7
  6
Continuous
370
    -3
390
F
  0
LAYER
  5
F0
330
2
100
AcDbSymbolTableRecord
100
AcDbLayerTableRecord
  2
$DDT_AUDIT_GENERATED_(F0)
 70
     0
 62
     7
  6
Continuous
370
    -3
390
F
  0
LAYER
  5
140
330
2
100
AcDbSymbolTableRecord
100
AcDbLayerTableRecord
  2
$DDT_AUDIT_GENERATED_(140)
 70
     0
 62
     7
  6
Continuous
370
    -3
390
F
  0
LAYER
  5
151
330
2
100
AcDbSymbolTableRecord
100
AcDbLayerTableRecord
  2
$DDT_AUDIT_GENERATED_(151)
 70
     0
 62
     7
  6
Continuous
370
    -3
390
F
  0
LAYER
  5
17C
330
2
100
AcDbSymbolTableRecord
100
AcDbLayerTableRecord
  2
$DDT_AUDIT_GENERATED_(17C)
 70
     0
 62
     7
  6
Continuous
370
    -3
390
F
  0
LAYER
  5
1B4
330
2
100
AcDbSymbolTableRecord
100
AcDbLayerTableRecord
  2
04273038_SITZ-RS
 70
     0
 62
     7
  6
Continuous
370
    -3
390
F
  0
ENDTAB
  0
TABLE
  2
STYLE
  5
3
330
0
100
AcDbSymbolTable
 70
     2
  0
STYLE
  5
11
330
3
100
AcDbSymbolTableRecord
100
AcDbTextStyleTableRecord
  2
Standard
 70
     0
 40
0.0
 41
1.0
 50
0.0
 71
     0
 42
2.5
  3
txt
  4

  0
STYLE
  5
270
330
3
100
AcDbSymbolTableRecord
100
AcDbTextStyleTableRecord
  2
SEACAD_seiso_ttf
 70
     0
 40
0.0
 41
1.0
 50
0.0
 71
     0
 42
0.2
  3
seiso.ttf
  4

  0
ENDTAB
  0
TABLE
  2
VIEW
  5
6
330
0
100
AcDbSymbolTable
 70
     0
  0
ENDTAB
  0
TABLE
  2
UCS
  5
7
330
0
100
AcDbSymbolTable
 70
     0
  0
ENDTAB
  0
TABLE
  2
APPID
  5
9
330
0
100
AcDbSymbolTable
 70
     1
  0
APPID
  5
12
330
9
100
AcDbSymbolTableRecord
100
AcDbRegAppTableRecord
  2
ACAD
 70
     0
  0
ENDTAB
  0
TABLE
  2
DIMSTYLE
  5
A
330
0
100
AcDbSymbolTable
 70
     1
100
AcDbDimStyleTable
  0
DIMSTYLE
105
27
330
A
100
AcDbSymbolTableRecord
100
AcDbDimStyleTableRecord
  2
ISO-25
 70
     0
 41
2.5
 42
0.625
 43
3.75
 44
1.25
 73
     0
 74
     0
 77
     1
 78
     8
140
2.5
141
2.5
143
0.0393700787
147
0.625
171
     3
172
     1
271
     2
272
     2
274
     3
278
    44
283
     0
284
     8
340
11
  0
ENDTAB
  0
TABLE
  2
BLOCK_RECORD
  5
1
330
0
100
AcDbSymbolTable
 70
     9
  0
BLOCK_RECORD
  5
1F
330
1
100
AcDbSymbolTableRecord
100
AcDbBlockTableRecord
  2
*Model_Space
340
22
  0
BLOCK_RECORD
  5
1B
330
1
100
AcDbSymbolTableRecord
100
AcDbBlockTableRecord
  2
*Paper_Space
340
1E
  0
BLOCK_RECORD
  5
5E
330
1
100
AcDbSymbolTableRecord
100
AcDbBlockTableRecord
  2
SEANNOT_GROUP
340
0
102
{BLKREFS
331
5F
102
}
  0
BLOCK_RECORD
  5
65
330
1
100
AcDbSymbolTableRecord
100
AcDbBlockTableRecord
  2
SEANNOT_GROUP1
340
0
102
{BLKREFS
331
66
102
}
  0
BLOCK_RECORD
  5
6B
330
1
100
AcDbSymbolTableRecord
100
AcDbBlockTableRecord
  2
SEANNOT_GROUP2
340
0
102
{BLKREFS
331
6C
102
}
  0
BLOCK_RECORD
  5
71
330
1
100
AcDbSymbolTableRecord
100
AcDbBlockTableRecord
  2
SEANNOT_GROUP3
340
0
102
{BLKREFS
331
72
102
}
  0
BLOCK_RECORD
  5
77
330
1
100
AcDbSymbolTableRecord
100
AcDbBlockTableRecord
  2
SEANNOT_GROUP4
340
0
102
{BLKREFS
331
78
102
}
  0
BLOCK_RECORD
  5
7D
330
1
100
AcDbSymbolTableRecord
100
AcDbBlockTableRecord
  2
SE
340
0
102
{BLKREFS
331
7E
102
}
  0
BLOCK_RECORD
  5
148
330
1
100
AcDbSymbolTableRecord
100
AcDbBlockTableRecord
  2
SE1
340
0
102
{BLKREFS
331
149
102
}
  0
BLOCK_RECORD
  5
1BA
330
1
100
AcDbSymbolTableRecord
100
AcDbBlockTableRecord
  2
SE2
340
0
102
{BLKREFS
331
1BB
102
}
  0
ENDTAB
  0
ENDSEC
  0
SECTION
  2
BLOCKS
  0
BLOCK
  5
20
330
1F
100
AcDbEntity
  8
0
100
AcDbBlockBegin
  2
*Model_Space
 70
     0
 10
0.0
 20
0.0
 30
0.0
  3
*Model_Space
  1

  0
ENDBLK
  5
21
330
1F
100
AcDbEntity
  8
0
100
AcDbBlockEnd
  0
BLOCK
  5
1C
330
1B
100
AcDbEntity
 67
     1
  8
0
100
AcDbBlockBegin
  2
*Paper_Space
 70
     0
 10
0.0
 20
0.0
 30
0.0
  3
*Paper_Space
  1

  0
ENDBLK
  5
1D
330
1B
100
AcDbEntity
 67
     1
  8
0
100
AcDbBlockEnd
  0
BLOCK
  5
63
330
5E
100
AcDbEntity
  8
0
100
AcDbBlockBegin
  2
SEANNOT_GROUP
 70
     0
 10
0.0
 20
0.0
 30
0.0
  3
SEANNOT_GROUP
  1

  0
LINE
  5
61
330
5E
100
AcDbEntity
  8
Default
  6
CENTER2
 62
     7
100
AcDbLine
 10
229.9999650109
 20
199.5791776976
 30
0.0
 11
189.999965905
 21
199.5791776976
 31
0.0
  0
LINE
  5
62
330
5E
100
AcDbEntity
  8
Default
  6
CENTER2
 62
     7
100
AcDbLine
 10
209.999965458
 20
219.5791772506
 30
0.0
 11
209.999965458
 21
179.5791781446
 31
0.0
  0
ENDBLK
  5
64
330
5E
100
AcDbEntity
  8
0
100
AcDbBlockEnd
  0
BLOCK
  5
69
330
65
100
AcDbEntity
  8
0
100
AcDbBlockBegin
  2
SEANNOT_GROUP1
 70
     0
 10
0.0
 20
0.0
 30
0.0
  3
SEANNOT_GROUP1
  1

  0
LINE
  5
67
330
65
100
AcDbEntity
  8
Default
  6
CENTER2
 62
     7
100
AcDbLine
 10
109.9999650109
 20
199.5791776976
 30
0.0
 11
69.999965905
 21
199.5791776976
 31
0.0
  0
LINE
  5
68
330
65
100
AcDbEntity
  8
Default
  6
CENTER2
 62
     7
100
AcDbLine
 10
89.999965458
 20
219.5791772506
 30
0.0
 11
89.999965458
 21
179.5791781446
 31
0.0
  0
ENDBLK
  5
6A
330
65
100
AcDbEntity
  8
0
100
AcDbBlockEnd
  0
BLOCK
  5
6F
330
6B
100
AcDbEntity
  8
0
100
AcDbBlockBegin
  2
SEANNOT_GROUP2
 70
     0
 10
0.0
 20
0.0
 30
0.0
  3
SEANNOT_GROUP2
  1

  0
LINE
  5
6D
330
6B
100
AcDbEntity
  8
Default
  6
CENTER2
 62
     7
100
AcDbLine
 10
233.4999650109
 20
249.1794630212
 30
0.0
 11
193.499965905
 21
249.1794630212
 31
0.0
  0
LINE
  5
6E
330
6B
100
AcDbEntity
  8
Default
  6
CENTER2
 62
     7
100
AcDbLine
 10
213.499965458
 20
269.1794625742
 30
0.0
 11
213.499965458
 21
229.1794634682
 31
0.0
  0
ENDBLK
  5
70
330
6B
100
AcDbEntity
  8
0
100
AcDbBlockEnd
  0
BLOCK
  5
75
330
71
100
AcDbEntity
  8
0
100
AcDbBlockBegin
  2
SEANNOT_GROUP3
 70
     0
 10
0.0
 20
0.0
 30
0.0
  3
SEANNOT_GROUP3
  1

  0
LINE
  5
73
330
71
100
AcDbEntity
  8
Default
  6
CENTER2
 62
     7
100
AcDbLine
 10
440.7287528987
 20
249.1794630212
 30
0.0
 11
400.7287537928
 21
249.1794630212
 31
0.0
  0
LINE
  5
74
330
71
100
AcDbEntity
  8
Default
  6
CENTER2
 62
     7
100
AcDbLine
 10
420.7287533458
 20
269.1794625742
 30
0.0
 11
420.7287533458
 21
229.1794634682
 31
0.0
  0
ENDBLK
  5
76
330
71
100
AcDbEntity
  8
0
100
AcDbBlockEnd
  0
BLOCK
  5
7B
330
77
100
AcDbEntity
  8
0
100
AcDbBlockBegin
  2
SEANNOT_GROUP4
 70
     0
 10
0.0
 20
0.0
 30
0.0
  3
SEANNOT_GROUP4
  1

  0
LINE
  5
79
330
77
100
AcDbEntity
  8
Default
  6
CENTER2
 62
     7
100
AcDbLine
 10
370.5287528987
 20
280.5794630212
 30
0.0
 11
330.5287537928
 21
280.5794630212
 31
0.0
  0
LINE
  5
7A
330
77
100
AcDbEntity
  8
Default
  6
CENTER2
 62
     7
100
AcDbLine
 10
350.5287533458
 20
300.5794625742
 30
0.0
 11
350.5287533458
 21
260.5794634682
 31
0.0
  0
ENDBLK
  5
7C
330
77
100
AcDbEntity
  8
0
100
AcDbBlockEnd
  0
BLOCK
  5
146
330
7D
100
AcDbEntity
  8
0
100
AcDbBlockBegin
  2
SE
 70
     0
 10
0.0
 20
0.0
 30
0.0
  3
SE
  1

  0
LINE
  5
80
330
7D
100
AcDbEntity
  8
$DDT_AUDIT_GENERATED_(7F)
  6
Continuous
 62
     7
100
AcDbLine
 10
228.499965458
 20
262.0722289592
 30
0.0
 11
228.499965458
 21
262.0722833027
 31
0.0
  0
LINE
  5
81
330
7D
100
AcDbEntity
  8
$DDT_AUDIT_GENERATED_(7F)
  6
Continuous
 62
     7
100
AcDbLine
 10
228.999965458
 20
305.5794630215
 30
0.0
 11
228.999965458
 21
264.1578252835
 31
0.0
  0
LINE
  5
82
330
7D
100
AcDbEntity
  8
$DDT_AUDIT_GENERATED_(7F)
  6
Continuous
 62
     7
100
AcDbLine
 10
228.999965458
 20
264.1578252835
 30
0.0
 11
228.999965458
 21
262.5722762809
 31
0.0
  0
LINE
  5
83
330
7D
100
AcDbEntity
  8
$DDT_AUDIT_GENERATED_(7F)
  6
Continuous
 62
     7
100
AcDbLine
 10
70.999965458
 20
264.1578252835
 30
0.0
 11
70.999965458
 21
305.5794630215
 31
0.0
  0
LINE
  5
84
330
7D
100
AcDbEntity
  8
$DDT_AUDIT_GENERATED_(7F)
  6
Continuous
 62
     7
100
AcDbLine
 10
70.999965458
 20
262.5723284589
 30
0.0
 11
70.999965458
 21
264.1578252835
 31
0.0
  0
ARC
  5
85
330
7D
100
AcDbEntity
  8
$DDT_AUDIT_GENERATED_(7F)
  6
Continuous
 62
     7
100
AcDbCircle
 10
213.4999654535
 20
240.4182023692
 30
0.0
 40
24.21754580553134
100
AcDbArc
 50
73.7782805431
 51
106.2217197355
  0
SPLINE
  5
86
330
7D
100
AcDbEntity
  8
$DDT_AUDIT_GENERATED_(7F)
  6
Continuous
 62
     7
100
AcDbSpline
210
0.0
220
0.0
230
1.0
 70
     8
 71
     3
 72
    12
 73
     8
 74
     0
 42
0.0000000006673792
 43
0.0000000001
 40
0.0
 40
0.0
 40
0.0
 40
0.0
 40
0.0625
 40
0.0625
 40
0.125
 40
0.125
 40
0.1799658562992034
 40
0.1799658562992034
 40
0.1799658562992034
 40
0.1799658562992034
 10
220.2652606334057
 20
263.6715957983864
 30
0.0
 10
220.8353627828019
 20
263.5178126444267
 30
0.0
 10
221.3168813692885
 20
263.3616279106938
 30
0.0
 10
222.0534355340597
 20
263.0736159379671
 30
0.0
 10
222.3055792334785
 20
262.9439491050831
 30
0.0
 10
222.5585611675776
 20
262.7283560818224
 30
0.0
 10
222.5790696521543
 20
262.6419443434363
 30
0.0
 10
222.5051292025129
 20
262.5683541282231
 30
0.0
  0
SPLINE
  5
87
330
7D
100
AcDbEntity
  8
$DDT_AUDIT_GENERATED_(7F)
  6
Continuous
 62
     7
100
AcDbSpline
210
0.0
220
0.0
230
1.0
 70
     8
 71
     3
 72
    10
 73
     6
 74
     0
 42
0.0000000006669217
 43
0.0000000001
 40
0.8193545248075118
 40
0.8193545248075118
 40
0.8193545248075118
 40
0.8193545248075118
 40
0.875
 40
0.875
 40
1.0
 40
1.0
 40
1.0
 40
1.0
 10
204.4962740283038
 20
262.5679737364427
 30
0.0
 10
204.4207634968957
 20
262.6425140310794
 30
0.0
 10
204.4419144681504
 20
262.7300712034468
 30
0.0
 10
204.8352418107096
 20
263.061149748247
 30
0.0
 10
205.5975294063056
 20
263.3648558309469
 30
0.0
 10
206.7346701605522
 20
263.6715957654857
 30
0.0
  0
ARC
  5
88
330
7D
100
AcDbEntity
  8
$DDT_AUDIT_GENERATED_(7F)
  6
Continuous
 62
     7
100
AcDbCircle
 10
228.4999654585
 20
262.5723381642
 30
0.0
 40
0.4999999994326987
100
AcDbArc
 50
270.1304276972
 51
359.9831924915
  0
ARC
  5
89
330
7D
100
AcDbEntity
  8
$DDT_AUDIT_GENERATED_(7F)
  6
Continuous
 62
     7
100
AcDbCircle
 10
228.499965458
 20
305.5794630215
 30
0.0
 40
0.5000000000000004
100
AcDbArc
 50
0.0
 51
90.0
  0
ARC
  5
8A
330
7D
100
AcDbEntity
  8
$DDT_AUDIT_GENERATED_(7F)
  6
Continuous
 62
     7
100
AcDbCircle
 10
71.499965458
 20
305.5794630215
 30
0.0
 40
0.5000000000000004
100
AcDbArc
 50
90.0
 51
180.0
  0
ARC
  5
8B
330
7D
100
AcDbEntity
  8
$DDT_AUDIT_GENERATED_(7F)
  6
Continuous
 62
     7
100
AcDbCircle
 10
71.4999654581
 20
262.5724218611
 30
0.0
 40
0.4999997749172842
100
AcDbArc
 50
180.0311842437
 51
270.0224434597
  0
LINE
  5
8C
330
7D
100
AcDbEntity
  8
$DDT_AUDIT_GENERATED_(7F)
  6
Continuous
 62
     7
100
AcDbLine
 10
228.499965458
 20
306.0794630215
 30
0.0
 11
71.499965458
 21
306.0794630215
 31
0.0
  0
LINE
  5
8D
330
7D
100
AcDbEntity
  8
$DDT_AUDIT_GENERATED_(7F)
  6
Continuous
 62
     7
100
AcDbLine
 10
71.499965458
 20
262.0722330603
 30
0.0
 11
204.499965458
 21
262.0722330603
 31
0.0
  0
LINE
  5
8E
330
7D
100
AcDbEntity
  8
$DDT_AUDIT_GENERATED_(7F)
  6
Continuous
 62
     7
100
AcDbLine
 10
222.499965458
 20
262.0722330603
 30
0.0
 11
228.499965458
 21
262.0722330603
 31
0.0
  0
LINE
  5
90
330
7D
100
AcDbEntity
  8
$DDT_AUDIT_GENERATED_(8F)
  6
Continuous
 62
     7
100
AcDbLine
 10
222.499965458
 20
258.0794630212
 30
0.0
 11
204.499965458
 21
258.0794630212
 31
0.0
  0
LINE
  5
91
330
7D
100
AcDbEntity
  8
$DDT_AUDIT_GENERATED_(8F)
  6
Continuous
 62
     7
100
AcDbLine
 10
203.019965458
 20
256.5994630212
 30
0.0
 11
223.979965458
 21
256.5994630212
 31
0.0
  0
LINE
  5
92
330
7D
100
AcDbEntity
  8
$DDT_AUDIT_GENERATED_(8F)
  6
Continuous
 62
     7
100
AcDbLine
 10
204.219965458
 20
249.1794630212
 30
0.0
 11
222.779965458
 21
249.1794630212
 31
0.0
  0
LINE
  5
93
330
7D
100
AcDbEntity
  8
$DDT_AUDIT_GENERATED_(8F)
  6
Continuous
 62
     7
100
AcDbLine
 10
203.019965458
 20
250.3794630212
 30
0.0
 11
223.979965458
 21
250.3794630212
 31
0.0
  0
LINE
  5
94
330
7D
100
AcDbEntity
  8
$DDT_AUDIT_GENERATED_(8F)
  6
Continuous
 62
     7
100
AcDbLine
 10
203.019965458
 20
256.5994630212
 30
0.0
 11
203.019965458
 21
250.3794630212
 31
0.0
  0
LINE
  5
95
330
7D
100
AcDbEntity
  8
$DDT_AUDIT_GENERATED_(8F)
  6
Continuous
 62
     7
100
AcDbLine
 10
223.979965458
 20
250.3794630212
 30
0.0
 11
223.979965458
 21
256.5994630212
 31
0.0
  0
LINE
  5
96
330
7D
100
AcDbEntity
  8
$DDT_AUDIT_GENERATED_(8F)
  6
Continuous
 62
     7
100
AcDbLine
 10
204.499965458
 20
262.7694195197
 30
0.0
 11
204.499965458
 21
258.0794630212
 31
0.0
  0
LINE
  5
97
330
7D
100
AcDbEntity
  8
$DDT_AUDIT_GENERATED_(8F)
  6
Continuous
 62
     7
100
AcDbLine
 10
222.499965458
 20
258.0794630212
 30
0.0
 11
222.499965458
 21
262.7623897709
 31
0.0
  0
LINE
  5
98
330
7D
100
AcDbEntity
  8
$DDT_AUDIT_GENERATED_(8F)
  6
Continuous
 62
     7
100
AcDbLine
 10
223.979965458
 20
256.5994630212
 30
0.0
 11
222.499965458
 21
258.0794630212
 31
0.0
  0
LINE
  5
99
330
7D
100
AcDbEntity
  8
$DDT_AUDIT_GENERATED_(8F)
  6
Continuous
 62
     7
100
AcDbLine
 10
204.499965458
 20
258.0794630212
 30
0.0
 11
203.019965458
 21
256.5994630212
 31
0.0
  0
LINE
  5
9A
330
7D
100
AcDbEntity
  8
$DDT_AUDIT_GENERATED_(8F)
  6
Continuous
 62
     7
100
AcDbLine
 10
203.019965458
 20
250.3794630212
 30
0.0
 11
204.219965458
 21
249.1794630212
 31
0.0
  0
LINE
  5
9B
330
7D
100
AcDbEntity
  8
$DDT_AUDIT_GENERATED_(8F)
  6
Continuous
 62
     7
100
AcDbLine
 10
222.779965458
 20
249.1794630212
 30
0.0
 11
223.979965458
 21
250.3794630212
 31
0.0
  0
LINE
  5
9C
330
7D
100
AcDbEntity
  8
$DDT_AUDIT_GENERATED_(8F)
  6
Continuous
 62
     7
100
AcDbLine
 10
222.814965458
 20
257.7644630212
 30
0.0
 11
222.814965458
 21
249.2144630212
 31
0.0
  0
LINE
  5
9D
330
7D
100
AcDbEntity
  8
$DDT_AUDIT_GENERATED_(8F)
  6
Continuous
 62
     7
100
AcDbLine
 10
204.184965458
 20
257.7644630212
 30
0.0
 11
204.184965458
 21
249.2144630212
 31
0.0
  0
SPLINE
  5
9F
330
7D
100
AcDbEntity
  8
$DDT_AUDIT_GENERATED_(9E)
  6
Continuous
 62
     7
100
AcDbSpline
210
0.0
220
0.0
230
1.0
 70
     8
 71
     3
 72
     9
 73
     5
 74
     0
 42
0.0000011011775549
 43
0.0000000001
 40
0.2159447396304179
 40
0.2159447396304179
 40
0.2159447396304179
 40
0.2159447396304179
 40
0.7111146945082065
 40
1.0
 40
1.0
 40
1.0
 40
1.0
 10
9.731849793058439
 20
296.4807164586139
 30
0.0
 10
9.728905038419612
 20
296.4808086792859
 30
0.0
 10
9.72583929968493
 20
296.4808107990812
 30
0.0
 10
9.725007465002628
 20
296.4808130654822
 30
0.0
 10
9.72505682569247
 20
296.4805411317036
 30
0.0
  0
SPLINE
  5
A0
330
7D
100
AcDbEntity
  8
$DDT_AUDIT_GENERATED_(9E)
  6
Continuous
 62
     7
100
AcDbSpline
210
0.0
220
0.0
230
1.0
 70
     8
 71
     3
 72
     9
 73
     5
 74
     0
 42
0.0000011929593192
 43
0.0000000001
 40
0.121763100376126
 40
0.121763100376126
 40
0.121763100376126
 40
0.121763100376126
 40
0.4855150493923575
 40
1.0
 40
1.0
 40
1.0
 40
1.0
 10
9.732274450887813
 20
272.6833366142282
 30
0.0
 10
9.730396045992324
 20
272.683458577064
 30
0.0
 10
9.726168401931801
 20
272.6833809110788
 30
0.0
 10
9.725512852703622
 20
272.6833936586174
 30
0.0
 10
9.724993068206484
 20
272.683103180975
 30
0.0
  0
SPLINE
  5
A1
330
7D
100
AcDbEntity
  8
$DDT_AUDIT_GENERATED_(9E)
  6
Continuous
 62
     7
100
AcDbSpline
210
0.0
220
0.0
230
1.0
 70
     8
 71
     3
 72
     8
 73
     4
 74
     0
 42
0.0000082813513969
 43
0.0000000001
 40
0.0
 40
0.0
 40
0.0
 40
0.0
 40
1.0
 40
1.0
 40
1.0
 40
1.0
 10
9.724993068206484
 20
272.683103180975
 30
0.0
 10
9.725373472022902
 20
272.6834446111141
 30
0.0
 10
9.725672394218094
 20
272.6834402252636
 30
0.0
 10
9.725887596602977
 20
272.6831061125573
 30
0.0
  0
ARC
  5
A2
330
7D
100
AcDbEntity
  8
$DDT_AUDIT_GENERATED_(9E)
  6
Continuous
 62
     7
100
AcDbCircle
 10
39.2104171531
 20
-28163.8698169408
 30
0.0
 40
28459.28839274986
100
AcDbArc
 50
90.0610470794
 51
90.0610520769
  0
ARC
  5
A3
330
7D
100
AcDbEntity
  8
$DDT_AUDIT_GENERATED_(9E)
  6
Continuous
 62
     7
100
AcDbCircle
 10
34.4294513152
 20
285.0741007995
 30
0.0
 40
27.93768837271136
100
AcDbArc
 50
195.8916642673
 51
203.89506331
  0
ARC
  5
A4
330
7D
100
AcDbEntity
  8
$DDT_AUDIT_GENERATED_(9E)
  6
Continuous
 62
     7
100
AcDbCircle
 10
24.8120251329
 20
2198.2768692328
 30
0.0
 40
1924.585179675347
100
AcDbArc
 50
269.5258794952
 51
270.5370586251
  0
SPLINE
  5
A5
330
7D
100
AcDbEntity
  8
$DDT_AUDIT_GENERATED_(9E)
  6
Continuous
 62
     7
100
AcDbSpline
210
0.0
220
0.0
230
1.0
 70
     8
 71
     3
 72
    14
 73
    10
 74
     0
 42
0.0000000061984959
 43
0.0000000001
 40
0.0
 40
0.0
 40
0.0
 40
0.0
 40
0.1301678137601338
 40
0.2499852345023594
 40
0.3454734950519138
 40
0.500156225945735
 40
0.750116550049017
 40
0.8490898065826252
 40
1.0
 40
1.0
 40
1.0
 40
1.0
 10
42.85174714230608
 20
273.776237314007
 30
0.0
 10
42.9216964602896
 20
273.7784641743166
 30
0.0
 10
43.05600333950122
 20
273.7825303459446
 30
0.0
 10
43.24177046824837
 20
273.7824493016028
 30
0.0
 10
43.44060879123132
 20
273.7762887484582
 30
0.0
 10
43.70925341017988
 20
273.7656412119916
 30
0.0
 10
43.98001369363699
 20
273.7562384807657
 30
0.0
 10
44.24866343759107
 20
273.7621343600983
 30
0.0
 10
44.38287665262541
 20
273.7668443559307
 30
0.0
 10
44.46409987452489
 20
273.7729347506777
 30
0.0
  0
SPLINE
  5
A6
330
7D
100
AcDbEntity
  8
$DDT_AUDIT_GENERATED_(9E)
  6
Continuous
 62
     7
100
AcDbSpline
210
0.0
220
0.0
230
1.0
 70
     8
 71
     3
 72
    27
 73
    23
 74
     0
 42
0.0000000002995595
 43
0.0000000001
 40
0.0
 40
0.0
 40
0.0
 40
0.0
 40
0.0156538427502327
 40
0.0313056767288581
 40
0.062604398106661
 40
0.0939013703415039
 40
0.1251929263296808
 40
0.1875639950187409
 40
0.2500816781977534
 40
0.3127029645011682
 40
0.3753331524590425
 40
0.5000592951446732
 40
0.6247859529383222
 40
0.6874160149468631
 40
0.7500376373586356
 40
0.8000945447978959
 40
0.8748110858339673
 40
0.9061013767976649
 40
0.9373970538682806
 40
0.968695164627571
 40
0.9843467527799886
 40
1.0
 40
1.0
 40
1.0
 40
1.0
 10
44.46409987452489
 20
273.7729347506777
 30
0.0
 10
44.64025011111323
 20
273.7735902898821
 30
0.0
 10
44.99286568899363
 20
273.7813927138887
 30
0.0
 10
45.69798402264954
 20
273.7934506146591
 30
0.0
 10
46.57845352071396
 20
273.8349420396048
 30
0.0
 10
47.6250835495252
 20
273.9735843102172
 30
0.0
 10
48.96905737138488
 20
274.3502224613587
 30
0.0
 10
50.4496050008727
 20
275.2504664853093
 30
0.0
 10
51.79941292223261
 20
276.7568592093393
 30
0.0
 10
52.85064866605283
 20
278.5003459069737
 30
0.0
 10
53.89221822407917
 20
281.0448356886234
 30
0.0
 10
54.47099206919773
 20
284.5803803758063
 30
0.0
 10
53.89065660944856
 20
288.1166308255649
 30
0.0
 10
52.84982433499426
 20
290.6607178331204
 30
0.0
 10
51.86769562625679
 20
292.2896813001946
 30
0.0
 10
50.55306749725683
 20
293.8134055018823
 30
0.0
 10
49.10184803258931
 20
294.7738410335423
 30
0.0
 10
47.62489836760749
 20
295.1870510826449
 30
0.0
 10
46.57834141081635
 20
295.3256953416597
 30
0.0
 10
45.69789013491486
 20
295.3671635827785
 30
0.0
 10
44.99279114930954
 20
295.3792468038417
 30
0.0
 10
44.64020371864844
 20
295.3876649720632
 30
0.0
 10
44.46407981943848
 20
295.388578060099
 30
0.0
  0
SPLINE
  5
A7
330
7D
100
AcDbEntity
  8
$DDT_AUDIT_GENERATED_(9E)
  6
Continuous
 62
     7
100
AcDbSpline
210
0.0
220
0.0
230
1.0
 70
     8
 71
     3
 72
    14
 73
    10
 74
     0
 42
0.0000000061975185
 43
0.0000000001
 40
0.0
 40
0.0
 40
0.0
 40
0.0
 40
0.1543393841533697
 40
0.2498386949674562
 40
0.499767721179865
 40
0.6581032552288099
 40
0.7500138041807909
 40
0.8711264650213348
 40
1.0
 40
1.0
 40
1.0
 40
1.0
 10
44.46407981943848
 20
295.388578060099
 30
0.0
 10
44.38101747491291
 20
295.3952440350309
 30
0.0
 10
44.24684934295456
 20
295.4006988668801
 30
0.0
 10
43.97825313091565
 20
295.4082581136905
 30
0.0
 10
43.70734913064479
 20
295.3979568271235
 30
0.0
 10
43.43872212002703
 20
295.3859352813712
 30
0.0
 10
43.23915888705992
 20
295.378625328689
 30
0.0
 10
43.05527589818607
 20
295.3782441465355
 30
0.0
 10
42.92097199196315
 20
295.3828374833682
 30
0.0
 10
42.85173498491249
 20
295.3852650890648
 30
0.0
  0
ARC
  5
A8
330
7D
100
AcDbEntity
  8
$DDT_AUDIT_GENERATED_(9E)
  6
Continuous
 62
     7
100
AcDbCircle
 10
25.263756646
 20
-902.1249412536
 30
0.0
 40
1197.639357768768
100
AcDbArc
 50
89.1585504037
 51
90.7835771225
  0
SPLINE
  5
A9
330
7D
100
AcDbEntity
  8
$DDT_AUDIT_GENERATED_(9E)
  6
Continuous
 62
     7
100
AcDbSpline
210
0.0
220
0.0
230
1.0
 70
     8
 71
     5
 72
    14
 73
     8
 74
     0
 42
0.0000000001596394
 43
0.0000000001
 40
0.0
 40
0.0
 40
0.0
 40
0.0
 40
0.0
 40
0.0
 40
0.1934442953479642
 40
0.4133816909284858
 40
1.0
 40
1.0
 40
1.0
 40
1.0
 40
1.0
 40
1.0
 10
69.99984393345127
 20
263.079820541459
 30
0.0
 10
66.22154196968889
 20
263.0813510625948
 30
0.0
 10
59.20930355049158
 20
263.0960134025608
 30
0.0
 10
44.27654515149247
 20
263.3135624531174
 30
0.0
 10
31.82811814626564
 20
263.8922964819273
 30
0.0
 10
19.48935140244734
 20
265.9219910624147
 30
0.0
 10
13.95424498848363
 20
268.9530976328467
 30
0.0
 10
9.724993068206484
 20
272.683103180975
 30
0.0
  0
LINE
  5
AA
330
7D
100
AcDbEntity
  8
$DDT_AUDIT_GENERATED_(9E)
  6
Continuous
 62
     7
100
AcDbLine
 10
70.299965458
 20
284.5818465382
 30
0.0
 11
70.299965458
 21
263.3798205168
 31
0.0
  0
LINE
  5
AB
330
7D
100
AcDbEntity
  8
$DDT_AUDIT_GENERATED_(9E)
  6
Continuous
 62
     7
100
AcDbLine
 10
70.299965458
 20
305.7838725595
 30
0.0
 11
70.299965458
 21
284.5818465382
 31
0.0
  0
SPLINE
  5
AC
330
7D
100
AcDbEntity
  8
$DDT_AUDIT_GENERATED_(9E)
  6
Continuous
 62
     7
100
AcDbSpline
210
0.0
220
0.0
230
1.0
 70
     8
 71
     5
 72
    14
 73
     8
 74
     0
 42
0.0000000001596395
 43
0.0000000001
 40
0.0
 40
0.0
 40
0.0
 40
0.0
 40
0.0
 40
0.0
 40
0.1934448870532459
 40
0.4133829553758527
 40
1.0
 40
1.0
 40
1.0
 40
1.0
 40
1.0
 40
1.0
 10
69.99984393345127
 20
306.0838725348747
 30
0.0
 10
66.22154196968887
 20
306.0823420137389
 30
0.0
 10
59.20930355049158
 20
306.0676796737729
 30
0.0
 10
44.27659082750981
 20
305.850131288651
 30
0.0
 10
31.828194300279
 20
305.2714001348427
 30
0.0
 10
19.48946462715587
 20
303.2417206390435
 30
0.0
 10
13.95432895415422
 20
300.2106414240077
 30
0.0
 10
9.72505682569247
 20
296.4805411317036
 30
0.0
  0
ARC
  5
AD
330
7D
100
AcDbEntity
  8
$DDT_AUDIT_GENERATED_(9E)
  6
Continuous
 62
     7
100
AcDbCircle
 10
69.999965458
 20
305.7838725595
 30
0.0
 40
0.2999999999999947
100
AcDbArc
 50
0.0
 51
90.0232094728
  0
ARC
  5
AE
330
7D
100
AcDbEntity
  8
$DDT_AUDIT_GENERATED_(9E)
  6
Continuous
 62
     7
100
AcDbCircle
 10
69.999965458
 20
263.3798205168
 30
0.0
 40
0.2999999999999947
100
AcDbArc
 50
269.9767905272
 51
0.0
  0
ARC
  5
AF
330
7D
100
AcDbEntity
  8
$DDT_AUDIT_GENERATED_(9E)
  6
Continuous
 62
     7
100
AcDbCircle
 10
35.6678371067
 20
283.656879458
 30
0.0
 40
29.24481654105584
100
AcDbArc
 50
156.3200023268
 51
163.9659650723
  0
ARC
  5
B0
330
7D
100
AcDbEntity
  8
$DDT_AUDIT_GENERATED_(9E)
  6
Continuous
 62
     7
100
AcDbCircle
 10
7.7390224119
 20
291.6811910273
 30
0.0
 40
0.1861238055468148
100
AcDbArc
 50
163.3432660376
 51
178.414346075
  0
ARC
  5
B1
330
7D
100
AcDbEntity
  8
$DDT_AUDIT_GENERATED_(9E)
  6
Continuous
 62
     7
100
AcDbCircle
 10
7.6391981718
 20
277.4615956438
 30
0.0
 40
0.0880175712680874
100
AcDbArc
 50
172.8346625423
 51
205.1258816703
  0
SPLINE
  5
B2
330
7D
100
AcDbEntity
  8
$DDT_AUDIT_GENERATED_(9E)
  6
Continuous
 62
     7
100
AcDbSpline
210
0.0
220
0.0
230
1.0
 70
     8
 71
     3
 72
    12
 73
     8
 74
     0
 42
0.0000000020226554
 43
0.0000000001
 40
0.0
 40
0.0
 40
0.0
 40
0.0
 40
0.2499999999999993
 40
0.2499999999999993
 40
0.4999999999999987
 40
0.4999999999999987
 40
1.0
 40
1.0
 40
1.0
 40
1.0
 10
33.19064836071908
 20
291.6327369908444
 30
0.0
 10
32.77865032550914
 20
291.6327366382345
 30
0.0
 10
32.35994475906104
 20
291.5835630448632
 30
0.0
 10
31.61146274180368
 20
291.2510390834424
 30
0.0
 10
31.27483518490082
 20
291.002356561327
 30
0.0
 10
30.37487906803248
 20
290.1676360449998
 30
0.0
 10
29.90688058755617
 20
289.4845841315175
 30
0.0
 10
29.56182957694708
 20
288.7435806620528
 30
0.0
  0
LINE
  5
B3
330
7D
100
AcDbEntity
  8
$DDT_AUDIT_GENERATED_(9E)
  6
Continuous
 62
     7
100
AcDbLine
 10
45.6387806046
 20
291.6327369909
 30
0.0
 11
42.8437647276
 21
291.6327370416
 31
0.0
  0
LINE
  5
B4
330
7D
100
AcDbEntity
  8
$DDT_AUDIT_GENERATED_(9E)
  6
Continuous
 62
     7
100
AcDbLine
 10
42.8437647643
 20
291.6327370416
 30
0.0
 11
33.1906483607
 21
291.6327369908
 31
0.0
  0
SPLINE
  5
B5
330
7D
100
AcDbEntity
  8
$DDT_AUDIT_GENERATED_(9E)
  6
Continuous
 62
     7
100
AcDbSpline
210
0.0
220
0.0
230
1.0
 70
     8
 71
     3
 72
    12
 73
     8
 74
     0
 42
0.0000000020288328
 43
0.0000000001
 40
0.0
 40
0.0
 40
0.0
 40
0.0
 40
0.5
 40
0.5
 40
0.75
 40
0.75
 40
1.0
 40
1.0
 40
1.0
 40
1.0
 10
49.24378684173409
 20
288.7435810191237
 30
0.0
 10
48.90252999342427
 20
289.4872502443191
 30
0.0
 10
48.43997633548736
 20
290.1692984515324
 30
0.0
 10
47.55044700049616
 20
291.0015826113541
 30
0.0
 10
47.21879793714324
 20
291.2498148667107
 30
0.0
 10
46.46401205184822
 20
291.5860524609603
 30
0.0
 10
46.05398848559107
 20
291.6327369385554
 30
0.0
 10
45.63878060458408
 20
291.6327369908834
 30
0.0
  0
ARC
  5
B6
330
7D
100
AcDbEntity
  8
$DDT_AUDIT_GENERATED_(9E)
  6
Continuous
 62
     7
100
AcDbCircle
 10
40.1411952564
 20
284.7070137592
 30
0.0
 40
9.957461966477858
100
AcDbArc
 50
359.2797706948
 51
23.9150133889
  0
ARC
  5
B7
330
7D
100
AcDbEntity
  8
$DDT_AUDIT_GENERATED_(9E)
  6
Continuous
 62
     7
100
AcDbCircle
 10
40.0574475496
 20
284.4737344102
 30
0.0
 40
10.04100503123159
100
AcDbArc
 50
336.1908957132
 51
0.6169277655
  0
SPLINE
  5
B8
330
7D
100
AcDbEntity
  8
$DDT_AUDIT_GENERATED_(9E)
  6
Continuous
 62
     7
100
AcDbSpline
210
0.0
220
0.0
230
1.0
 70
     8
 71
     3
 72
    12
 73
     8
 74
     0
 42
0.0000000020291316
 43
0.0000000001
 40
0.0
 40
0.0
 40
0.0
 40
0.0
 40
0.2499999999999999
 40
0.2499999999999999
 40
0.4999999999999998
 40
0.4999999999999998
 40
1.0
 40
1.0
 40
1.0
 40
1.0
 10
45.63881309571349
 20
277.5309558982129
 30
0.0
 10
46.05195554487979
 20
277.530955949772
 30
0.0
 10
46.47529747726496
 20
277.5814762461512
 30
0.0
 10
47.22110520887755
 20
277.9167016274156
 30
0.0
 10
47.55392421202412
 20
278.1658046530687
 30
0.0
 10
48.44272308202903
 20
278.9995192704177
 30
0.0
 10
48.90437433309295
 20
279.6802979927787
 30
0.0
 10
49.24391819988128
 20
280.4202742798405
 30
0.0
  0
LINE
  5
B9
330
7D
100
AcDbEntity
  8
$DDT_AUDIT_GENERATED_(9E)
  6
Continuous
 62
     7
100
AcDbLine
 10
33.1912692422
 20
277.5309556725
 30
0.0
 11
42.8438101247
 21
277.5309558475
 31
0.0
  0
LINE
  5
BA
330
7D
100
AcDbEntity
  8
$DDT_AUDIT_GENERATED_(9E)
  6
Continuous
 62
     7
100
AcDbLine
 10
42.8438100939
 20
277.5309558475
 30
0.0
 11
45.6388130957
 21
277.5309558982
 31
0.0
  0
ARC
  5
BB
330
7D
100
AcDbEntity
  8
$DDT_AUDIT_GENERATED_(9E)
  6
Continuous
 62
     7
100
AcDbCircle
 10
38.4998184597
 20
284.7010131136
 30
0.0
 40
9.788967622306073
100
AcDbArc
 50
155.6083443443
 51
180.6975097367
  0
SPLINE
  5
BC
330
7D
100
AcDbEntity
  8
$DDT_AUDIT_GENERATED_(9E)
  6
Continuous
 62
     7
100
AcDbSpline
210
0.0
220
0.0
230
1.0
 70
     8
 71
     3
 72
    18
 73
    14
 74
     0
 42
0.0000000020286936
 43
0.0000000001
 40
0.0
 40
0.0
 40
0.0
 40
0.0
 40
0.1249999999999992
 40
0.1249999999999992
 40
0.2499999999999983
 40
0.2499999999999983
 40
0.3749999999999975
 40
0.3749999999999975
 40
0.4999999999999967
 40
0.4999999999999967
 40
0.7499999999999983
 40
0.7499999999999983
 40
1.0
 40
1.0
 40
1.0
 40
1.0
 10
33.22390663345068
 20
277.5309556724752
 30
0.0
 10
33.01557484941298
 20
277.5309556686945
 30
0.0
 10
32.80768189041819
 20
277.5347719278162
 30
0.0
 10
32.39886367765605
 20
277.6029689855291
 30
0.0
 10
32.19571390426118
 20
277.6665523878991
 30
0.0
 10
31.81918176582008
 20
277.8355210952666
 30
0.0
 10
31.64206063463872
 20
277.9402692221085
 30
0.0
 10
31.30387241646417
 20
278.1778412600837
 30
0.0
 10
31.1467520121517
 20
278.3078294665706
 30
0.0
 10
30.70035605321771
 20
278.7219725497734
 30
0.0
 10
30.4338237152886
 20
279.0316991340183
 30
0.0
 10
29.96076397894107
 20
279.6955603845088
 30
0.0
 10
29.75839683777165
 20
280.04858767217
 30
0.0
 10
29.58447612433568
 20
280.4202739227669
 30
0.0
  0
ARC
  5
BD
330
7D
100
AcDbEntity
  8
$DDT_AUDIT_GENERATED_(9E)
  6
Continuous
 62
     7
100
AcDbCircle
 10
38.6148813605
 20
284.4867560094
 30
0.0
 40
9.903761673710381
100
AcDbArc
 50
179.4498676242
 51
204.2425158496
  0
SPLINE
  5
BE
330
7D
100
AcDbEntity
  8
$DDT_AUDIT_GENERATED_(9E)
  6
Continuous
 62
     7
100
AcDbSpline
210
0.0
220
0.0
230
1.0
 70
     8
 71
     3
 72
    12
 73
     8
 74
     0
 42
0.0000000020198732
 43
0.0000000001
 40
0.0
 40
0.0
 40
0.0
 40
0.0
 40
0.5000000000000017
 40
0.5000000000000017
 40
0.7500000000000008
 40
0.7500000000000008
 40
1.0
 40
1.0
 40
1.0
 40
1.0
 10
29.58457675082901
 20
288.7435806620528
 30
0.0
 10
29.9327457891575
 20
289.4876020485577
 30
0.0
 10
30.39541666448092
 20
290.1593597445367
 30
0.0
 10
31.29400129833282
 20
290.9938897419621
 30
0.0
 10
31.62941323571073
 20
291.2432264092893
 30
0.0
 10
32.38202122596439
 20
291.581093590081
 30
0.0
 10
32.80625490934322
 20
291.6327366366962
 30
0.0
 10
33.22332883495805
 20
291.6327367650567
 30
0.0
  0
ARC
  5
BF
330
7D
100
AcDbEntity
  8
$DDT_AUDIT_GENERATED_(9E)
  6
Continuous
 62
     7
100
AcDbCircle
 10
120.8923979133
 20
284.5706714051
 30
0.0
 40
113.5625761675178
100
AcDbArc
 50
183.5823036279
 51
183.5835421323
  0
ARC
  5
C0
330
7D
100
AcDbEntity
  8
$DDT_AUDIT_GENERATED_(9E)
  6
Continuous
 62
     7
100
AcDbCircle
 10
120.8923979133
 20
284.5706714051
 30
0.0
 40
113.5625761675178
100
AcDbArc
 50
183.3803232088
 51
183.5774948739
  0
ARC
  5
C1
330
7D
100
AcDbEntity
  8
$DDT_AUDIT_GENERATED_(9E)
  6
Continuous
 62
     7
100
AcDbCircle
 10
120.8923979133
 20
284.5706714051
 30
0.0
 40
113.5625761675178
100
AcDbArc
 50
176.4785106166
 51
176.6114651061
  0
ARC
  5
C2
330
7D
100
AcDbEntity
  8
$DDT_AUDIT_GENERATED_(9E)
  6
Continuous
 62
     7
100
AcDbCircle
 10
261.1869631909
 20
284.5597953845
 30
0.0
 40
253.7340935328807
100
AcDbArc
 50
178.3905406523
 51
181.6005758949
  0
ARC
  5
C3
330
7D
100
AcDbEntity
  8
$DDT_AUDIT_GENERATED_(9E)
  6
Continuous
 62
     7
100
AcDbCircle
 10
11.5163470522
 20
274.9450997389
 30
0.0
 40
2.881356280398105
100
AcDbArc
 50
204.3130877207
 51
231.7352711697
  0
ARC
  5
C4
330
7D
100
AcDbEntity
  8
$DDT_AUDIT_GENERATED_(9E)
  6
Continuous
 62
     7
100
AcDbCircle
 10
11.5880861553
 20
294.1599780775
 30
0.0
 40
2.971895513282566
100
AcDbArc
 50
128.6545975421
 51
155.2964274442
  0
LINE
  5
C6
330
7D
100
AcDbEntity
  8
$DDT_AUDIT_GENERATED_(C5)
  6
Continuous
 62
     7
100
AcDbLine
 10
49.1662623125
 20
288.7205677428
 30
0.0
 11
49.2526821359
 21
288.7205677428
 31
0.0
  0
LINE
  5
C7
330
7D
100
AcDbEntity
  8
$DDT_AUDIT_GENERATED_(C5)
  6
Continuous
 62
     7
100
AcDbLine
 10
35.499965458
 20
277.5313425827
 30
0.0
 11
35.499965458
 21
277.629174106
 31
0.0
  0
LINE
  5
C8
330
7D
100
AcDbEntity
  8
$DDT_AUDIT_GENERATED_(C5)
  6
Continuous
 62
     7
100
AcDbLine
 10
39.499965458
 20
277.6285548653
 30
0.0
 11
39.499965458
 21
277.5306239318
 31
0.0
  0
LINE
  5
C9
330
7D
100
AcDbEntity
  8
$DDT_AUDIT_GENERATED_(C5)
  6
Continuous
 62
     7
100
AcDbLine
 10
49.899965458
 20
282.5189006707
 30
0.0
 11
49.899965458
 21
283.0148267114
 31
0.0
  0
LINE
  5
CA
330
7D
100
AcDbEntity
  8
$DDT_AUDIT_GENERATED_(C5)
  6
Continuous
 62
     7
100
AcDbLine
 10
49.899965458
 20
286.2174099864
 30
0.0
 11
49.899965458
 21
286.6759809697
 31
0.0
  0
LINE
  5
CB
330
7D
100
AcDbEntity
  8
$DDT_AUDIT_GENERATED_(C5)
  6
Continuous
 62
     7
100
AcDbLine
 10
49.3760551405
 20
288.2029296526
 30
0.0
 11
49.4526765541
 21
288.2029296526
 31
0.0
  0
LINE
  5
CD
330
7D
100
AcDbEntity
  8
$DDT_AUDIT_GENERATED_(CC)
  6
Continuous
 62
     7
100
AcDbLine
 10
39.749965458
 20
277.5261184333
 30
0.0
 11
39.749965458
 21
277.6226135655
 31
0.0
  0
LINE
  5
CE
330
7D
100
AcDbEntity
  8
$DDT_AUDIT_GENERATED_(CC)
  6
Continuous
 62
     7
100
AcDbLine
 10
49.639556535
 20
287.703912916
 30
0.0
 11
49.5522551308
 21
287.703912916
 31
0.0
  0
LINE
  5
CF
330
7D
100
AcDbEntity
  8
$DDT_AUDIT_GENERATED_(CC)
  6
Continuous
 62
     7
100
AcDbLine
 10
49.749965458
 20
287.276794966
 30
0.0
 11
49.749965458
 21
286.9963298293
 31
0.0
  0
LINE
  5
D0
330
7D
100
AcDbEntity
  8
$DDT_AUDIT_GENERATED_(CC)
  6
Continuous
 62
     7
100
AcDbLine
 10
49.749965458
 20
282.2241370649
 30
0.0
 11
49.749965458
 21
281.8933562394
 31
0.0
  0
LINE
  5
D2
330
7D
100
AcDbEntity
  8
$DDT_AUDIT_GENERATED_(D1)
  6
Continuous
 62
     7
100
AcDbLine
 10
39.749965458
 20
277.5794630212
 30
0.0
 11
39.499965458
 21
277.5794630212
 31
0.0
  0
LINE
  5
D4
330
7D
100
AcDbEntity
  8
$DDT_AUDIT_GENERATED_(D3)
  6
Continuous
 62
     7
100
AcDbLine
 10
45.609767954
 20
291.5303526336
 30
0.0
 11
33.16166391
 21
291.5303528594
 31
0.0
  0
LINE
  5
D5
330
7D
100
AcDbEntity
  8
$DDT_AUDIT_GENERATED_(D3)
  6
Continuous
 62
     7
100
AcDbLine
 10
33.161084469
 20
277.6285713152
 30
0.0
 11
45.6085755259
 21
277.6285715409
 31
0.0
  0
SPLINE
  5
D6
330
7D
100
AcDbEntity
  8
$DDT_AUDIT_GENERATED_(D3)
  6
Continuous
 62
     7
100
AcDbSpline
210
0.0
220
0.0
230
1.0
 70
     8
 71
     5
 72
    22
 73
    16
 74
     0
 42
0.0000000020739278
 43
0.0000000001
 40
0.0
 40
0.0
 40
0.0
 40
0.0
 40
0.0
 40
0.0
 40
0.0062170727794191
 40
0.0545574702013685
 40
0.1507334047118342
 40
0.2722807902039555
 40
0.4717008751628371
 40
0.5745902925666964
 40
0.7309841839950737
 40
0.8095115744880595
 40
0.8852471554960726
 40
0.9352882574655317
 40
1.0
 40
1.0
 40
1.0
 40
1.0
 40
1.0
 40
1.0
 10
29.61468892631555
 20
280.4599124488964
 30
0.0
 10
29.6172686695477
 20
280.4544847206774
 30
0.0
 10
29.63967679805016
 20
280.4066974850571
 30
0.0
 10
29.70275694842994
 20
280.2750953861959
 30
0.0
 10
29.82283235115014
 20
280.0396046304871
 30
0.0
 10
30.05388940803758
 20
279.6398846182857
 30
0.0
 10
30.36273514043497
 20
279.1895885744179
 30
0.0
 10
30.79080134527679
 20
278.6987272241645
 30
0.0
 10
31.23084536780577
 20
278.2885602992373
 30
0.0
 10
31.71435778438658
 20
277.9558472262406
 30
0.0
 10
32.10188062149516
 20
277.7701669578607
 30
0.0
 10
32.52454676002074
 20
277.6553668722102
 30
0.0
 10
32.80534479274154
 20
277.6324169000688
 30
0.0
 10
32.98994240692669
 20
277.6292618620332
 30
0.0
 10
33.09948209601235
 20
277.6287592980789
 30
0.0
 10
33.16108355786456
 20
277.6285874873727
 30
0.0
  0
ARC
  5
D7
330
7D
100
AcDbEntity
  8
$DDT_AUDIT_GENERATED_(D3)
  6
Continuous
 62
     7
100
AcDbCircle
 10
38.549511012
 20
284.4792003035
 30
0.0
 40
9.797230249441686
100
AcDbArc
 50
179.4136372398
 51
204.2203745761
  0
ARC
  5
D8
330
7D
100
AcDbEntity
  8
$DDT_AUDIT_GENERATED_(D3)
  6
Continuous
 62
     7
100
AcDbCircle
 10
38.4177794661
 20
284.7057256833
 30
0.0
 40
9.665810364521352
100
AcDbArc
 50
155.5970270696
 51
180.7484652607
  0
SPLINE
  5
D9
330
7D
100
AcDbEntity
  8
$DDT_AUDIT_GENERATED_(D3)
  6
Continuous
 62
     7
100
AcDbSpline
210
0.0
220
0.0
230
1.0
 70
     8
 71
     5
 72
    21
 73
    15
 74
     0
 42
0.0000000020739623
 43
0.0000000001
 40
0.0
 40
0.0
 40
0.0
 40
0.0
 40
0.0
 40
0.0
 40
0.040904719844417
 40
0.1036554317045457
 40
0.1405864197663607
 40
0.2421613562992847
 40
0.3719878463177203
 40
0.4503985698611482
 40
0.5543662362200318
 40
0.8038841353367168
 40
0.9473167444814544
 40
1.0
 40
1.0
 40
1.0
 40
1.0
 40
1.0
 40
1.0
 10
33.16166369028378
 20
291.5303394395366
 30
0.0
 10
33.12260518049195
 20
291.5300871860206
 30
0.0
 10
33.02339011198418
 20
291.5292960490668
 30
0.0
 10
32.88755325590068
 20
291.5271995750337
 30
0.0
 10
32.6473769238664
 20
291.5186248666756
 30
0.0
 10
32.24951198823858
 20
291.4411049976447
 30
0.0
 10
31.88588488992378
 20
291.2912281232023
 30
0.0
 10
31.51053200387678
 20
291.0695611391653
 30
0.0
 10
31.03222276794718
 20
290.694032496995
 30
0.0
 10
30.57716312341277
 20
290.2310175681442
 30
0.0
 10
30.20972700545367
 20
289.7665008442763
 30
0.0
 10
29.92077112977354
 20
289.3069489304365
 30
0.0
 10
29.72045849299847
 20
288.9196671500836
 30
0.0
 10
29.63746004450606
 20
288.7460298683951
 30
0.0
 10
29.61549109640438
 20
288.6991714961333
 30
0.0
  0
LINE
  5
DA
330
7D
100
AcDbEntity
  8
$DDT_AUDIT_GENERATED_(D3)
  6
Continuous
 62
     7
100
AcDbLine
 10
45.6619524319
 20
291.5303526336
 30
0.0
 11
45.6097671435
 21
291.5303526336
 31
0.0
  0
ARC
  5
DB
330
7D
100
AcDbEntity
  8
$DDT_AUDIT_GENERATED_(D3)
  6
Continuous
 62
     7
100
AcDbCircle
 10
41.6390476174
 20
283.9519871422
 30
0.0
 40
8.308303790648218
100
AcDbArc
 50
335.1457544521
 51
335.6383532497
  0
ARC
  5
DC
330
7D
100
AcDbEntity
  8
$DDT_AUDIT_GENERATED_(D3)
  6
Continuous
 62
     7
100
AcDbCircle
 10
43.7574963262
 20
282.8654168486
 30
0.0
 40
5.930137498307199
100
AcDbArc
 50
307.4592164039
 51
336.0687284866
  0
ARC
  5
DD
330
7D
100
AcDbEntity
  8
$DDT_AUDIT_GENERATED_(D3)
  6
Continuous
 62
     7
100
AcDbCircle
 10
45.7788491696
 20
280.2453422871
 30
0.0
 40
2.621001032888253
100
AcDbArc
 50
278.1963213247
 51
307.2187050072
  0
ARC
  5
DE
330
7D
100
AcDbEntity
  8
$DDT_AUDIT_GENERATED_(D3)
  6
Continuous
 62
     7
100
AcDbCircle
 10
45.7148630522
 20
281.7824852151
 30
0.0
 40
4.15448765607018
100
AcDbArc
 50
269.0475701435
 51
276.0469833248
  0
SPLINE
  5
DF
330
7D
100
AcDbEntity
  8
$DDT_AUDIT_GENERATED_(D3)
  6
Continuous
 62
     7
100
AcDbSpline
210
0.0
220
0.0
230
1.0
 70
     8
 71
     3
 72
    16
 73
    12
 74
     0
 42
0.0000000029860285
 43
0.0000000001
 40
0.0
 40
0.0
 40
0.0
 40
0.0
 40
0.2499999999999998
 40
0.2499999999999998
 40
0.4999999999999997
 40
0.4999999999999997
 40
0.7499999999999996
 40
0.7499999999999996
 40
0.8749999999999998
 40
0.8749999999999998
 40
1.0
 40
1.0
 40
1.0
 40
1.0
 10
48.43931328717484
 20
289.9342862822544
 30
0.0
 10
48.27514219306006
 20
290.1516377885489
 30
0.0
 10
48.0960944367647
 20
290.3581681889347
 30
0.0
 10
47.70263092994544
 20
290.746589266648
 30
0.0
 10
47.49315869126623
 20
290.9255956260677
 30
0.0
 10
47.033396660756
 20
291.2326274910368
 30
0.0
 10
46.77986557291528
 20
291.3610032785638
 30
0.0
 10
46.37566104212543
 20
291.4768195900435
 30
0.0
 10
46.23482642693824
 20
291.5029596919755
 30
0.0
 10
45.94931146978325
 20
291.5286227733567
 30
0.0
 10
45.80569893644689
 20
291.5303526310016
 30
0.0
 10
45.66195243187163
 20
291.5303526336102
 30
0.0
  0
ARC
  5
E0
330
7D
100
AcDbEntity
  8
$DDT_AUDIT_GENERATED_(D3)
  6
Continuous
 62
     7
100
AcDbCircle
 10
48.827738559
 20
289.7423224063
 30
0.0
 40
0.2027051613011095
100
AcDbArc
 50
166.0267976365
 51
213.0685377682
  0
ELLIPSE
  5
E1
330
7D
100
AcDbEntity
  8
$DDT_AUDIT_GENERATED_(D3)
  6
Continuous
 62
     7
100
AcDbEllipse
 10
34.3317235332
 20
284.5794629455
 30
0.0
 11
-3.689548666585551E-9
 21
-18.53079121752913
 31
0.0
210
0.0
220
0.0
230
1.0
 40
0.0524079512
 41
1.18056100337806
 42
1.186250711461016
  0
ARC
  5
E2
330
7D
100
AcDbEntity
  8
$DDT_AUDIT_GENERATED_(D3)
  6
Continuous
 62
     7
100
AcDbCircle
 10
41.7588110344
 20
284.878530707
 30
0.0
 40
8.37793380171315
100
AcDbArc
 50
34.5653612217
 51
37.1181714403
  0
ARC
  5
E3
330
7D
100
AcDbEntity
  8
$DDT_AUDIT_GENERATED_(D3)
  6
Continuous
 62
     7
100
AcDbCircle
 10
39.9866561735
 20
284.4831986984
 30
0.0
 40
10.03463576221499
100
AcDbArc
 50
336.7671986655
 51
0.5496889642
  0
ARC
  5
E4
330
7D
100
AcDbEntity
  8
$DDT_AUDIT_GENERATED_(D3)
  6
Continuous
 62
     7
100
AcDbCircle
 10
40.1548865085
 20
284.7073731021
 30
0.0
 40
9.866772685081552
100
AcDbArc
 50
359.2572436008
 51
23.8641745563
  0
ARC
  5
E5
330
7D
100
AcDbEntity
  8
$DDT_AUDIT_GENERATED_(D3)
  6
Continuous
 62
     7
100
AcDbCircle
 10
43.0089949967
 20
285.8892115885
 30
0.0
 40
6.778936661173762
100
AcDbArc
 50
24.488678353
 51
33.5234866939
  0
ARC
  5
E6
330
7D
100
AcDbEntity
  8
$DDT_AUDIT_GENERATED_(D3)
  6
Continuous
 62
     7
100
AcDbCircle
 10
48.8304010768
 20
289.743664767
 30
0.0
 40
0.2028739152968382
100
AcDbArc
 50
189.0033275949
 51
213.0327899603
  0
LINE
  5
E7
330
7D
100
AcDbEntity
  8
$DDT_AUDIT_GENERATED_(D3)
  6
Continuous
 62
     7
100
AcDbLine
 10
33.2097041332
 20
277.6293455114
 30
0.0
 11
33.3823837025
 21
277.6287798316
 31
0.0
  0
LINE
  5
E9
330
7D
100
AcDbEntity
  8
$DDT_AUDIT_GENERATED_(E8)
  6
Continuous
 62
     7
100
AcDbLine
 10
70.999965458
 20
290.974872343
 30
0.0
 11
70.299965458
 21
290.974872343
 31
0.0
  0
LINE
  5
EA
330
7D
100
AcDbEntity
  8
$DDT_AUDIT_GENERATED_(E8)
  6
Continuous
 62
     7
100
AcDbLine
 10
70.999965458
 20
302.3485112957
 30
0.0
 11
70.299965458
 21
302.3485112957
 31
0.0
  0
LINE
  5
EB
330
7D
100
AcDbEntity
  8
$DDT_AUDIT_GENERATED_(E8)
  6
Continuous
 62
     7
100
AcDbLine
 10
70.999965458
 20
266.8104147467
 30
0.0
 11
70.299965458
 21
266.8104147467
 31
0.0
  0
LINE
  5
EC
330
7D
100
AcDbEntity
  8
$DDT_AUDIT_GENERATED_(E8)
  6
Continuous
 62
     7
100
AcDbLine
 10
70.999965458
 20
273.2058240685
 30
0.0
 11
70.299965458
 21
273.2058240685
 31
0.0
  0
LINE
  5
ED
330
7D
100
AcDbEntity
  8
$DDT_AUDIT_GENERATED_(E8)
  6
Continuous
 62
     7
100
AcDbLine
 10
70.299965458
 20
284.3244171008
 30
0.0
 11
70.999965458
 21
284.3244171008
 31
0.0
  0
LINE
  5
EE
330
7D
100
AcDbEntity
  8
$DDT_AUDIT_GENERATED_(E8)
  6
Continuous
 62
     7
100
AcDbLine
 10
70.299965458
 20
268.8650476933
 30
0.0
 11
70.999965458
 21
268.8650476933
 31
0.0
  0
LINE
  5
EF
330
7D
100
AcDbEntity
  8
$DDT_AUDIT_GENERATED_(E8)
  6
Continuous
 62
     7
100
AcDbLine
 10
70.299965458
 20
300.0388324288
 30
0.0
 11
70.999965458
 21
300.0388324288
 31
0.0
  0
ARC
  5
F1
330
7D
100
AcDbEntity
  8
$DDT_AUDIT_GENERATED_(F0)
  6
Continuous
 62
     7
100
AcDbCircle
 10
7.6347547296
 20
278.0891595971
 30
0.0
 40
0.2596966194086457
100
AcDbArc
 50
194.8136820347
 51
242.7623550687
  0
ARC
  5
F2
330
7D
100
AcDbEntity
  8
$DDT_AUDIT_GENERATED_(F0)
  6
Continuous
 62
     7
100
AcDbCircle
 10
7.6327247933
 20
291.0709200063
 30
0.0
 40
0.2585430650925671
100
AcDbArc
 50
115.9915611054
 51
165.386134769
  0
ARC
  5
F3
330
7D
100
AcDbEntity
  8
$DDT_AUDIT_GENERATED_(F0)
  6
Continuous
 62
     7
100
AcDbCircle
 10
282.4950667046
 20
284.6034512623
 30
0.0
 40
275.1900709992426
100
AcDbArc
 50
181.3645535761
 51
181.3702591359
  0
ARC
  5
F4
330
7D
100
AcDbEntity
  8
$DDT_AUDIT_GENERATED_(F0)
  6
Continuous
 62
     7
100
AcDbCircle
 10
282.4950667046
 20
284.6034512623
 30
0.0
 40
275.1900709992426
100
AcDbArc
 50
178.639735419
 51
178.647616174
  0
SPLINE
  5
F5
330
7D
100
AcDbEntity
  8
$DDT_AUDIT_GENERATED_(F0)
  6
Continuous
 62
     7
100
AcDbSpline
210
0.0
220
0.0
230
1.0
 70
     8
 71
     3
 72
    11
 73
     7
 74
     0
 42
0.0000000007514615
 43
0.0000000001
 40
0.0
 40
0.0
 40
0.0
 40
0.0
 40
0.1456535438383238
 40
0.5793263566616987
 40
0.940720367347847
 40
1.0
 40
1.0
 40
1.0
 40
1.0
 10
7.382546076528135
 20
291.1361513344082
 30
0.0
 10
7.217120237071439
 20
290.5057146015396
 30
0.0
 10
6.651325583099083
 20
287.9882756041188
 30
0.0
 10
6.349999999999994
 20
283.8479756549017
 30
0.0
 10
6.865328065496085
 20
280.1030973635176
 30
0.0
 10
7.316427077736693
 20
278.2793688571922
 30
0.0
 10
7.383689812583555
 20
278.0227612420382
 30
0.0
  0
ARC
  5
F6
330
7D
100
AcDbEntity
  8
$DDT_AUDIT_GENERATED_(F0)
  6
Continuous
 62
     7
100
AcDbCircle
 10
7.6516517047
 20
291.0566867553
 30
0.0
 40
0.2760003325178214
100
AcDbArc
 50
119.9281046385
 51
169.626569923
  0
ARC
  5
F7
330
7D
100
AcDbEntity
  8
$DDT_AUDIT_GENERATED_(F0)
  6
Continuous
 62
     7
100
AcDbCircle
 10
7.6522136372
 20
278.1018301343
 30
0.0
 40
0.2754253103148184
100
AcDbArc
 50
190.462697222
 51
241.7407842681
  0
ARC
  5
F8
330
7D
100
AcDbEntity
  8
$DDT_AUDIT_GENERATED_(9E)
  6
Continuous
 62
     7
100
AcDbCircle
 10
270.1235661562
 20
38.8004350741
 30
0.0
 40
258.5156595840746
100
AcDbArc
 50
85.442676009
 51
85.4458751581
  0
SPLINE
  5
F9
330
7D
100
AcDbEntity
  8
$DDT_AUDIT_GENERATED_(9E)
  6
Continuous
 62
     7
100
AcDbSpline
210
0.0
220
0.0
230
1.0
 70
     8
 71
     3
 72
    10
 73
     6
 74
     0
 42
0.0000000031478802
 43
0.0000000001
 40
0.006144068892276
 40
0.006144068892276
 40
0.006144068892276
 40
0.006144068892276
 40
0.01125401695292
 40
0.0186974348886685
 40
0.0193345658454082
 40
0.0193345658454082
 40
0.0193345658454082
 40
0.0193345658454082
 10
290.6922064745881
 20
272.6700299533506
 30
0.0
 10
290.6906979759613
 20
272.6657807696746
 30
0.0
 10
290.6854280515686
 20
272.6553446116065
 30
0.0
 10
290.6757318793345
 20
272.6443874077216
 30
0.0
 10
290.6679768162339
 20
272.6376788503852
 30
0.0
 10
290.6673539711131
 20
272.6371499218046
 30
0.0
  0
SPLINE
  5
FA
330
7D
100
AcDbEntity
  8
$DDT_AUDIT_GENERATED_(9E)
  6
Continuous
 62
     7
100
AcDbSpline
210
0.0
220
0.0
230
1.0
 70
     8
 71
     3
 72
     9
 73
     5
 74
     0
 42
0.0000000039609519
 43
0.0000000001
 40
0.0
 40
0.0
 40
0.0
 40
0.0
 40
0.0077917640137522
 40
0.0102945547544602
 40
0.0102945547544602
 40
0.0102945547544602
 40
0.0102945547544602
 10
291.5345804407332
 20
273.7630703797963
 30
0.0
 10
291.5344912834827
 20
273.7567124099027
 30
0.0
 10
291.5339705498284
 20
273.748649429751
 30
0.0
 10
291.5301490983355
 20
273.740261517482
 30
0.0
 10
291.5290339608323
 20
273.7382107762436
 30
0.0
  0
ARC
  5
FB
330
7D
100
AcDbEntity
  8
$DDT_AUDIT_GENERATED_(9E)
  6
Continuous
 62
     7
100
AcDbCircle
 10
269.5452103037
 20
20.5092836099
 30
0.0
 40
275.7634731063264
100
AcDbArc
 50
85.4285455403
 51
92.4892673203
  0
SPLINE
  5
FC
330
7D
100
AcDbEntity
  8
$DDT_AUDIT_GENERATED_(9E)
  6
Continuous
 62
     7
100
AcDbSpline
210
0.0
220
0.0
230
1.0
 70
     8
 71
     3
 72
    14
 73
    10
 74
     0
 42
0.0000000061984647
 43
0.0000000001
 40
0.0
 40
0.0
 40
0.0
 40
0.0
 40
0.1301678137601338
 40
0.2499852345023594
 40
0.3454734950519138
 40
0.500156225945735
 40
0.750116550049017
 40
0.8490898065826252
 40
1.0
 40
1.0
 40
1.0
 40
1.0
 10
257.5681837736207
 20
296.0125393713652
 30
0.0
 10
257.4982344556371
 20
296.0103533397722
 30
0.0
 10
257.3639275764255
 20
296.0064020646865
 30
0.0
 10
257.1781604476784
 20
296.0065722393865
 30
0.0
 10
256.9793221246954
 20
296.0127553889299
 30
0.0
 10
256.7106775057468
 20
296.0234051997367
 30
0.0
 10
256.4399172222898
 20
296.032828145542
 30
0.0
 10
256.1712674783356
 20
296.0271385518557
 30
0.0
 10
256.0370542633013
 20
296.022557392048
 30
0.0
 10
255.9558310414018
 20
296.0162028300977
 30
0.0
  0
SPLINE
  5
FD
330
7D
100
AcDbEntity
  8
$DDT_AUDIT_GENERATED_(9E)
  6
Continuous
 62
     7
100
AcDbSpline
210
0.0
220
0.0
230
1.0
 70
     8
 71
     3
 72
    27
 73
    23
 74
     0
 42
0.0000000002996546
 43
0.0000000001
 40
0.0
 40
0.0
 40
0.0
 40
0.0
 40
0.0156538427502327
 40
0.0313056767288581
 40
0.062604398106661
 40
0.0939013703415039
 40
0.1251929263296808
 40
0.1875639950187409
 40
0.2500816781977534
 40
0.3127029645011682
 40
0.3753331524590425
 40
0.5000592951446732
 40
0.6247859529383222
 40
0.6874160149468631
 40
0.7500376373586356
 40
0.8000945447978959
 40
0.8748110858339673
 40
0.9061013767976649
 40
0.9373970538682806
 40
0.968695164627571
 40
0.9843467527799886
 40
1.0
 40
1.0
 40
1.0
 40
1.0
 10
255.9558310414018
 20
296.0162028300977
 30
0.0
 10
255.7796808048135
 20
296.0160389057104
 30
0.0
 10
255.4270652269331
 20
296.0085357438263
 30
0.0
 10
254.7219468932772
 20
295.9971783852941
 30
0.0
 10
253.8414773952128
 20
295.9572096269388
 30
0.0
 10
252.7948473664015
 20
295.8222930514724
 30
0.0
 10
251.4508735445419
 20
295.4541243655146
 30
0.0
 10
249.970325915054
 20
294.5712022809159
 30
0.0
 10
248.6205179936941
 20
293.0889275425558
 30
0.0
 10
247.5692822498739
 20
291.3678536724683
 30
0.0
 10
246.5277126918476
 20
288.8477258556165
 30
0.0
 10
245.948938846729
 20
285.3280911906186
 30
0.0
 10
246.5292743064782
 20
281.7803961411076
 30
0.0
 10
247.5701065809325
 20
279.2150460156702
 30
0.0
 10
248.5522352896699
 20
277.5670549613061
 30
0.0
 10
249.8668634186699
 20
276.0213276909888
 30
0.0
 10
251.3180828833374
 20
275.043807347973
 30
0.0
 10
252.7950325483193
 20
274.6217915806473
 30
0.0
 10
253.8415895051104
 20
274.4795874044462
 30
0.0
 10
254.7220407810119
 20
274.4366455251135
 30
0.0
 10
255.4271397666172
 20
274.4238750473327
 30
0.0
 10
255.7797271972782
 20
274.4151601494456
 30
0.0
 10
255.9558510964882
 20
274.4137359226846
 30
0.0
  0
SPLINE
  5
FE
330
7D
100
AcDbEntity
  8
$DDT_AUDIT_GENERATED_(9E)
  6
Continuous
 62
     7
100
AcDbSpline
210
0.0
220
0.0
230
1.0
 70
     8
 71
     3
 72
    14
 73
    10
 74
     0
 42
0.0000000061975424
 43
0.0000000001
 40
0.0
 40
0.0
 40
0.0
 40
0.0
 40
0.1543393841533697
 40
0.2498386949674562
 40
0.499767721179865
 40
0.6581032552288099
 40
0.7500138041807909
 40
0.8711264650213348
 40
1.0
 40
1.0
 40
1.0
 40
1.0
 10
255.9558510964882
 20
274.4137359226846
 30
0.0
 10
256.0389134410138
 20
274.4073517308798
 30
0.0
 10
256.1730815729721
 20
274.4017658070039
 30
0.0
 10
256.4416777850111
 20
274.3939895560982
 30
0.0
 10
256.7125817852819
 20
274.4042683013131
 30
0.0
 10
256.9812087958997
 20
274.4162889514234
 30
0.0
 10
257.1807720288668
 20
274.4235804795644
 30
0.0
 10
257.3646550177406
 20
274.4238764104755
 30
0.0
 10
257.4989589239636
 20
274.4191674197695
 30
0.0
 10
257.5681959310142
 20
274.4166831190689
 30
0.0
  0
SPLINE
  5
FF
330
7D
100
AcDbEntity
  8
$DDT_AUDIT_GENERATED_(9E)
  6
Continuous
 62
     7
100
AcDbSpline
210
0.0
220
0.0
230
1.0
 70
     8
 71
     3
 72
    26
 73
    22
 74
     0
 42
0.0000000002937683
 43
0.0000000001
 40
0.0
 40
0.0
 40
0.0
 40
0.0
 40
0.0080569210562611
 40
0.0161101456242893
 40
0.0322196710422493
 40
0.0644389606831225
 40
0.1288769539663393
 40
0.2577421416756586
 40
0.3221799271353364
 40
0.3866168641996609
 40
0.4323069054467842
 40
0.5154667447441489
 40
0.6331671270430762
 40
0.7190801576696852
 40
0.7725106697236338
 40
0.84867391756156
 40
0.8755069169531907
 40
0.9527722412480357
 40
0.97486423506604
 40
0.9969609663067589
 40
1.0
 40
1.0
 40
1.0
 40
1.0
 10
257.5681959310142
 20
274.4166831190689
 30
0.0
 10
257.6871490593309
 20
274.4102186885144
 30
0.0
 10
257.9249998030605
 20
274.3971810894921
 30
0.0
 10
258.4014588853178
 20
274.3874133707162
 30
0.0
 10
259.2353644992282
 20
274.3892598120863
 30
0.0
 10
260.9030599015103
 20
274.3784278270275
 30
0.0
 10
264.2377185472847
 20
274.3670953034614
 30
0.0
 10
268.0460643641886
 20
274.3610915477756
 30
0.0
 10
271.8420314783104
 20
274.3721420087317
 30
0.0
 10
274.4104849729247
 20
274.3647546995557
 30
0.0
 10
277.2454462443795
 20
274.3521683109045
 30
0.0
 10
280.8274360648897
 20
274.3286252397307
 30
0.0
 10
284.8803419806501
 20
274.2760144081195
 30
0.0
 10
287.7823203040215
 20
274.1864811173715
 30
0.0
 10
289.6041289025645
 20
274.094648042427
 30
0.0
 10
290.5240718403208
 20
274.0198696949624
 30
0.0
 10
291.2097896579696
 20
273.9293543570284
 30
0.0
 10
291.4452123371819
 20
273.866327758044
 30
0.0
 10
291.5223017061718
 20
273.8004936356676
 30
0.0
 10
291.5332361858187
 20
273.7765125466735
 30
0.0
 10
291.534063517221
 20
273.7646213026553
 30
0.0
 10
291.5345804407332
 20
273.7630703797963
 30
0.0
  0
LINE
  5
100
330
7D
100
AcDbEntity
  8
$DDT_AUDIT_GENERATED_(9E)
  6
Continuous
 62
     7
100
AcDbLine
 10
230.119965458
 20
285.317025344
 30
0.0
 11
230.119965458
 21
305.778565539
 31
0.0
  0
LINE
  5
101
330
7D
100
AcDbEntity
  8
$DDT_AUDIT_GENERATED_(9E)
  6
Continuous
 62
     7
100
AcDbLine
 10
230.119965458
 20
263.3879706366
 30
0.0
 11
230.119965458
 21
285.317025344
 31
0.0
  0
ARC
  5
102
330
7D
100
AcDbEntity
  8
$DDT_AUDIT_GENERATED_(9E)
  6
Continuous
 62
     7
100
AcDbCircle
 10
264.7933634811
 20
285.4986785139
 30
0.0
 40
29.20303379377274
100
AcDbArc
 50
336.3053274116
 51
343.9580655407
  0
ARC
  5
103
330
7D
100
AcDbEntity
  8
$DDT_AUDIT_GENERATED_(9E)
  6
Continuous
 62
     7
100
AcDbCircle
 10
292.6819487708
 20
277.4818795049
 30
0.0
 40
0.185081790358211
100
AcDbArc
 50
343.2979921211
 51
358.4295145826
  0
ARC
  5
104
330
7D
100
AcDbEntity
  8
$DDT_AUDIT_GENERATED_(9E)
  6
Continuous
 62
     7
100
AcDbCircle
 10
292.7807824314
 20
291.6929421556
 30
0.0
 40
0.0879614327793762
100
AcDbArc
 50
352.8661311971
 51
25.1241339034
  0
SPLINE
  5
105
330
7D
100
AcDbEntity
  8
$DDT_AUDIT_GENERATED_(9E)
  6
Continuous
 62
     7
100
AcDbSpline
210
0.0
220
0.0
230
1.0
 70
     8
 71
     3
 72
    12
 73
     8
 74
     0
 42
0.000000002019677
 43
0.0000000001
 40
0.0
 40
0.0
 40
0.0
 40
0.0
 40
0.2499999999999993
 40
0.2499999999999993
 40
0.4999999999999987
 40
0.4999999999999987
 40
1.0
 40
1.0
 40
1.0
 40
1.0
 10
267.2292825552076
 20
278.184659300719
 30
0.0
 10
267.6412805904176
 20
278.183823384949
 30
0.0
 10
268.0599861568656
 20
278.2323935158587
 30
0.0
 10
268.808468174123
 20
278.5656115862437
 30
0.0
 10
269.1450957310259
 20
278.8152423072456
 30
0.0
 10
270.0450518478942
 20
279.6531807239302
 30
0.0
 10
270.5130503283706
 20
280.3389604585796
 30
0.0
 10
270.8581013389796
 20
281.0822483052236
 30
0.0
  0
LINE
  5
106
330
7D
100
AcDbEntity
  8
$DDT_AUDIT_GENERATED_(9E)
  6
Continuous
 62
     7
100
AcDbLine
 10
254.7811503113
 20
278.1944454672
 30
0.0
 11
257.5761661883
 21
278.1933153687
 31
0.0
  0
ARC
  5
107
330
7D
100
AcDbEntity
  8
$DDT_AUDIT_GENERATED_(9E)
  6
Continuous
 62
     7
100
AcDbCircle
 10
257.6735192758
 20
-4995.8580411321
 30
0.0
 40
5274.051357220634
100
AcDbArc
 50
89.8961888748
 51
90.0010576164
  0
SPLINE
  5
108
330
7D
100
AcDbEntity
  8
$DDT_AUDIT_GENERATED_(9E)
  6
Continuous
 62
     7
100
AcDbSpline
210
0.0
220
0.0
230
1.0
 70
     8
 71
     3
 72
    12
 73
     8
 74
     0
 42
0.000000002021711
 43
0.0000000001
 40
0.0
 40
0.0
 40
0.0
 40
0.0
 40
0.5
 40
0.5
 40
0.75
 40
0.75
 40
1.0
 40
1.0
 40
1.0
 40
1.0
 10
251.1761440741926
 20
281.1092675306029
 30
0.0
 10
251.5174009225025
 20
280.3610527579283
 30
0.0
 10
251.9799545804394
 20
279.6733612914193
 30
0.0
 10
252.8694839154306
 20
278.8332740185359
 30
0.0
 10
253.2011329787835
 20
278.5825068418929
 30
0.0
 10
253.9559188640785
 20
278.242405876574
 30
0.0
 10
254.3659424303357
 20
278.1948048134244
 30
0.0
 10
254.7811503113426
 20
278.1944454671594
 30
0.0
  0
ARC
  5
109
330
7D
100
AcDbEntity
  8
$DDT_AUDIT_GENERATED_(9E)
  6
Continuous
 62
     7
100
AcDbCircle
 10
260.3602759507
 20
285.162883014
 30
0.0
 40
10.03892807090206
100
AcDbArc
 50
179.3173579131
 51
203.8153040383
  0
ARC
  5
10A
330
7D
100
AcDbEntity
  8
$DDT_AUDIT_GENERATED_(9E)
  6
Continuous
 62
     7
100
AcDbCircle
 10
260.2574493333
 20
285.3959976617
 30
0.0
 40
9.936037336166178
100
AcDbArc
 50
156.0626678989
 51
180.6545662049
  0
SPLINE
  5
10B
330
7D
100
AcDbEntity
  8
$DDT_AUDIT_GENERATED_(9E)
  6
Continuous
 62
     7
100
AcDbSpline
210
0.0
220
0.0
230
1.0
 70
     8
 71
     3
 72
    12
 73
     8
 74
     0
 42
0.0000000020373129
 43
0.0000000001
 40
0.0
 40
0.0
 40
0.0
 40
0.0
 40
0.2499999999999999
 40
0.2499999999999999
 40
0.4999999999999998
 40
0.4999999999999998
 40
1.0
 40
1.0
 40
1.0
 40
1.0
 10
254.7811178202132
 20
292.287627123824
 30
0.0
 10
254.367975371047
 20
292.2879804307634
 30
0.0
 10
253.9446334386618
 20
292.2384817085356
 30
0.0
 10
253.1988257070492
 20
291.9074928296041
 30
0.0
 10
252.8660067039026
 20
291.6612272036128
 30
0.0
 10
251.9772078338977
 20
290.8363106245058
 30
0.0
 10
251.5155565828338
 20
290.1619704973546
 30
0.0
 10
251.1760127160454
 20
289.4274176239532
 30
0.0
  0
ARC
  5
10C
330
7D
100
AcDbEntity
  8
$DDT_AUDIT_GENERATED_(9E)
  6
Continuous
 62
     7
100
AcDbCircle
 10
261.8334346688
 20
285.1083376406
 30
0.0
 40
9.875568814300369
100
AcDbArc
 50
335.7182460599
 51
0.6567563842
  0
SPLINE
  5
10D
330
7D
100
AcDbEntity
  8
$DDT_AUDIT_GENERATED_(9E)
  6
Continuous
 62
     7
100
AcDbSpline
210
0.0
220
0.0
230
1.0
 70
     8
 71
     3
 72
     8
 73
     4
 74
     0
 42
0.0000000020543213
 43
0.0000000001
 40
0.8333421248265938
 40
0.8333421248265938
 40
0.8333421248265938
 40
0.8333421248265938
 40
1.0
 40
1.0
 40
1.0
 40
1.0
 10
270.4480136936699
 20
290.0772183679167
 30
0.0
 10
270.5909312161815
 20
289.8488287871322
 30
0.0
 10
270.7195137653915
 20
289.6113774082316
 30
0.0
 10
270.835454791591
 20
289.3655416843828
 30
0.0
  0
ARC
  5
10E
330
7D
100
AcDbEntity
  8
$DDT_AUDIT_GENERATED_(9E)
  6
Continuous
 62
     7
100
AcDbCircle
 10
261.9146808136
 20
285.3225183324
 30
0.0
 40
9.794194514686776
100
AcDbArc
 50
359.4092366282
 51
24.3807188325
  0
SPLINE
  5
10F
330
7D
100
AcDbEntity
  8
$DDT_AUDIT_GENERATED_(9E)
  6
Continuous
 62
     7
100
AcDbSpline
210
0.0
220
0.0
230
1.0
 70
     8
 71
     3
 72
     8
 73
     4
 74
     0
 42
0.0000000020302054
 43
0.0000000001
 40
0.0
 40
0.0
 40
0.0
 40
0.0
 40
0.1995367593861112
 40
0.1995367593861112
 40
0.1995367593861112
 40
0.1995367593861112
 10
270.8353541650977
 20
281.047265763802
 30
0.0
 10
270.6964091218445
 20
280.748378130063
 30
0.0
 10
270.5392285534293
 20
280.4608425669387
 30
0.0
 10
270.3624216117991
 20
280.187497978264
 30
0.0
  0
SPLINE
  5
110
330
7D
100
AcDbEntity
  8
$DDT_AUDIT_GENERATED_(9E)
  6
Continuous
 62
     7
100
AcDbSpline
210
0.0
220
0.0
230
1.0
 70
     8
 71
     3
 72
    12
 73
     8
 74
     0
 42
0.0000000020420795
 43
0.0000000001
 40
0.1983345073165385
 40
0.1983345073165385
 40
0.1983345073165385
 40
0.1983345073165385
 40
0.4999999999999998
 40
0.4999999999999998
 40
0.7499999999999999
 40
0.7499999999999999
 40
1.0
 40
1.0
 40
1.0
 40
1.0
 10
251.619619116928
 20
290.2414059286064
 30
0.0
 10
251.8821059675867
 20
290.6472804431456
 30
0.0
 10
252.1889355735656
 20
291.0197042447145
 30
0.0
 10
252.8390688776065
 20
291.6236277221328
 30
0.0
 10
253.1690143199129
 20
291.8683862714612
 30
0.0
 10
253.9134752210653
 20
292.200268396813
 30
0.0
 10
254.3375665136504
 20
292.251294642898
 30
0.0
 10
254.7569927878134
 20
292.2505255942184
 30
0.0
  0
LINE
  5
111
330
7D
100
AcDbEntity
  8
$DDT_AUDIT_GENERATED_(9E)
  6
Continuous
 62
     7
100
AcDbLine
 10
254.7569927878
 20
292.2505255942
 30
0.0
 11
267.1960242825
 21
292.227660257
 31
0.0
  0
ARC
  5
112
330
7D
100
AcDbEntity
  8
$DDT_AUDIT_GENERATED_(9E)
  6
Continuous
 62
     7
100
AcDbCircle
 10
179.7478317329
 20
284.5942591084
 30
0.0
 40
113.3420620840418
100
AcDbArc
 50
3.5840581957
 51
3.5852316711
  0
ARC
  5
113
330
7D
100
AcDbEntity
  8
$DDT_AUDIT_GENERATED_(9E)
  6
Continuous
 62
     7
100
AcDbCircle
 10
179.7478317329
 20
284.5942591084
 30
0.0
 40
113.3420620840418
100
AcDbArc
 50
3.5708286404
 51
3.5721340374
  0
ARC
  5
114
330
7D
100
AcDbEntity
  8
$DDT_AUDIT_GENERATED_(9E)
  6
Continuous
 62
     7
100
AcDbCircle
 10
179.7478317329
 20
284.5942591084
 30
0.0
 40
113.3420620840418
100
AcDbArc
 50
3.3811409371
 51
3.4390221753
  0
ARC
  5
115
330
7D
100
AcDbEntity
  8
$DDT_AUDIT_GENERATED_(9E)
  6
Continuous
 62
     7
100
AcDbCircle
 10
179.7478317329
 20
284.5942591084
 30
0.0
 40
113.3420620840418
100
AcDbArc
 50
356.4266323325
 51
356.6051823752
  0
ARC
  5
116
330
7D
100
AcDbEntity
  8
$DDT_AUDIT_GENERATED_(9E)
  6
Continuous
 62
     7
100
AcDbCircle
 10
179.7478317329
 20
284.5942591084
 30
0.0
 40
113.3420620840418
100
AcDbArc
 50
356.3975948939
 51
356.3977349665
  0
ARC
  5
117
330
7D
100
AcDbEntity
  8
$DDT_AUDIT_GENERATED_(9E)
  6
Continuous
 62
     7
100
AcDbCircle
 10
39.3985197688
 20
284.6012714541
 30
0.0
 40
253.5685483511559
100
AcDbArc
 50
358.3899601399
 51
1.6011111793
  0
SPLINE
  5
118
330
7D
100
AcDbEntity
  8
$DDT_AUDIT_GENERATED_(9E)
  6
Continuous
 62
     7
100
AcDbSpline
210
0.0
220
0.0
230
1.0
 70
     8
 71
     3
 72
    32
 73
    28
 74
     0
 42
0.0000000001608952
 43
0.0000000001
 40
0.0
 40
0.0
 40
0.0
 40
0.0
 40
0.0313372360408752
 40
0.0697182665890397
 40
0.1061999639108919
 40
0.1412055787476671
 40
0.1750416146576967
 40
0.2079218207558924
 40
0.2579922078305067
 40
0.3064184846148312
 40
0.3534722492510846
 40
0.4147106479547469
 40
0.4742278960813017
 40
0.532178826951762
 40
0.5885042041655126
 40
0.6299540291375875
 40
0.6701986394434503
 40
0.7090937624692452
 40
0.7465156229195616
 40
0.7823871013239485
 40
0.8167048119144308
 40
0.8495663499230713
 40
0.8811957834221464
 40
0.9119638249576333
 40
0.9423980094825276
 40
0.9731799087787913
 40
1.0
 40
1.0
 40
1.0
 40
1.0
 10
230.4200987604993
 20
263.0759221684816
 30
0.0
 10
231.1342872236141
 20
263.0761876578849
 30
0.0
 10
232.4765428134841
 20
263.076867091041
 30
0.0
 10
234.7243840088573
 20
263.0812240565247
 30
0.0
 10
236.9878580746093
 20
263.0900902775708
 30
0.0
 10
239.1731865313602
 20
263.1041047533363
 30
0.0
 10
241.279814632385
 20
263.1236962476098
 30
0.0
 10
243.6995158909767
 20
263.1538697452154
 30
0.0
 10
246.4209931114253
 20
263.1997092169038
 30
0.0
 10
249.4358320158198
 20
263.2688716369132
 30
0.0
 10
252.6813248872754
 20
263.3665304875468
 30
0.0
 10
256.155310736617
 20
263.5055029210249
 30
0.0
 10
259.8522816888708
 20
263.7067279598413
 30
0.0
 10
263.4433422208512
 20
263.9670006373358
 30
0.0
 10
266.6549998212762
 20
264.2711210041942
 30
0.0
 10
269.4938722516598
 20
264.6084896528155
 30
0.0
 10
271.9662420005488
 20
264.9628584897565
 30
0.0
 10
274.3451598569093
 20
265.3731034874269
 30
0.0
 10
276.6200514079496
 20
265.8449340542625
 30
0.0
 10
278.7821116283776
 20
266.3848447406983
 30
0.0
 10
280.8254270735023
 20
267.0002651326776
 30
0.0
 10
282.7487193741554
 20
267.7001182206361
 30
0.0
 10
284.5545982049214
 20
268.4938627410966
 30
0.0
 10
286.2573585780783
 20
269.3955479361746
 30
0.0
 10
287.8601746605036
 20
270.4090083136787
 30
0.0
 10
289.3590450976774
 20
271.5171818584196
 30
0.0
 10
290.199215705226
 20
272.2403080721035
 30
0.0
 10
290.6603817560637
 20
272.6412743408316
 30
0.0
  0
SPLINE
  5
119
330
7D
100
AcDbEntity
  8
$DDT_AUDIT_GENERATED_(9E)
  6
Continuous
 62
     7
100
AcDbSpline
210
0.0
220
0.0
230
1.0
 70
     8
 71
     3
 72
    31
 73
    27
 74
     0
 42
0.000000000160904
 43
0.0000000001
 40
0.0
 40
0.0
 40
0.0
 40
0.0
 40
0.0264903724091743
 40
0.0570916594583217
 40
0.0873953245487507
 40
0.1180610334769657
 40
0.1496133355587429
 40
0.1824323199484123
 40
0.216748275745108
 40
0.2526608229325432
 40
0.2901614281624246
 40
0.3291604473326114
 40
0.3695160091671346
 40
0.4110714996119119
 40
0.4685647642111852
 40
0.5277202386735358
 40
0.5884781353416795
 40
0.6510121736382627
 40
0.7157157670924733
 40
0.7648791854569084
 40
0.8158292256822328
 40
0.8690381147540565
 40
0.9017725753520976
 40
0.9358410269865655
 40
0.9715987104426766
 40
1.0
 40
1.0
 40
1.0
 40
1.0
 10
290.6571536757785
 20
296.5157948157197
 30
0.0
 10
290.2017394790947
 20
296.9119033029605
 30
0.0
 10
289.3691392634004
 20
297.6288926912314
 30
0.0
 10
287.8852862329766
 20
298.7288605488071
 30
0.0
 10
286.2954553939824
 20
299.7383979687884
 30
0.0
 10
284.6036814192427
 20
300.6389841131889
 30
0.0
 10
282.8052059429297
 20
301.4339347200997
 30
0.0
 10
280.8853465911496
 20
302.1363594802308
 30
0.0
 10
278.8418608037369
 20
302.7548850499132
 30
0.0
 10
276.6765062797604
 20
303.2979271804675
 30
0.0
 10
274.3959202544939
 20
303.7725951448544
 30
0.0
 10
272.0098669408003
 20
304.1852044603128
 30
0.0
 10
269.5299242306613
 20
304.541414458575
 30
0.0
 10
266.6616575103779
 20
304.8828440849736
 30
0.0
 10
263.398049489804
 20
305.1914601882848
 30
0.0
 10
259.731639178998
 20
305.4553846558759
 30
0.0
 10
255.9568097179445
 20
305.6581733879393
 30
0.0
 10
252.0646477553358
 20
305.810713439605
 30
0.0
 10
248.4111228989952
 20
305.912254356823
 30
0.0
 10
244.9970717362823
 20
305.9806284908547
 30
0.0
 10
241.8202925977543
 20
306.0260021942614
 30
0.0
 10
238.9855254440378
 20
306.0520304923674
 30
0.0
 10
236.4955747240243
 20
306.0663121208699
 30
0.0
 10
234.3826979009311
 20
306.0737436753903
 30
0.0
 10
232.3030900246336
 20
306.0774248077737
 30
0.0
 10
231.0673884912577
 20
306.0780244914415
 30
0.0
 10
230.4200973431616
 20
306.0782632450309
 30
0.0
  0
ARC
  5
11A
330
7D
100
AcDbEntity
  8
$DDT_AUDIT_GENERATED_(9E)
  6
Continuous
 62
     7
100
AcDbCircle
 10
288.8491952761
 20
294.2202899989
 30
0.0
 40
2.929340430239979
100
AcDbArc
 50
23.6133250951
 51
51.9609301694
  0
ARC
  5
11B
330
7D
100
AcDbEntity
  8
$DDT_AUDIT_GENERATED_(9E)
  6
Continuous
 62
     7
100
AcDbCircle
 10
288.9367202107
 20
274.9004760171
 30
0.0
 40
2.838190646936654
100
AcDbArc
 50
308.211967034
 51
335.589898813
  0
ARC
  5
11C
330
7D
100
AcDbEntity
  8
$DDT_AUDIT_GENERATED_(9E)
  6
Continuous
 62
     7
100
AcDbCircle
 10
266.4197580873
 20
284.2774340906
 30
0.0
 40
27.46356831073167
100
AcDbArc
 50
15.7336442503
 51
23.9285431215
  0
ARC
  5
11D
330
7D
100
AcDbEntity
  8
$DDT_AUDIT_GENERATED_(9E)
  6
Continuous
 62
     7
100
AcDbCircle
 10
230.4199654583
 20
263.375712445
 30
0.0
 40
0.2999999859278608
100
AcDbArc
 50
180.0185455233
 51
270.6099530114
  0
ELLIPSE
  5
11E
330
7D
100
AcDbEntity
  8
$DDT_AUDIT_GENERATED_(9E)
  6
Continuous
 62
     7
100
AcDbEllipse
 10
230.419965458
 20
305.7775249117
 30
0.0
 11
0.2999999999998143
 21
-8.505696147409481E-11
 31
0.0
210
0.0
220
0.0
230
1.0
 40
0.999954285
 41
1.580486729586227
 42
3.147755448779631
  0
ARC
  5
11F
330
7D
100
AcDbEntity
  8
$DDT_AUDIT_GENERATED_(9E)
  6
Continuous
 62
     7
100
AcDbCircle
 10
266.0507761776
 20
284.9901582484
 30
0.0
 40
27.84983215480741
100
AcDbArc
 50
336.1641680127
 51
342.4063331452
  0
LINE
  5
120
330
7D
100
AcDbEntity
  8
$DDT_AUDIT_GENERATED_(C5)
  6
Continuous
 62
     7
100
AcDbLine
 10
251.3157997697
 20
280.980246152
 30
0.0
 11
251.2459454385
 21
280.980246152
 31
0.0
  0
LINE
  5
121
330
7D
100
AcDbEntity
  8
$DDT_AUDIT_GENERATED_(C5)
  6
Continuous
 62
     7
100
AcDbLine
 10
250.519965458
 20
287.3405863633
 30
0.0
 11
250.519965458
 21
286.8103861997
 31
0.0
  0
LINE
  5
122
330
7D
100
AcDbEntity
  8
$DDT_AUDIT_GENERATED_(C5)
  6
Continuous
 62
     7
100
AcDbLine
 10
250.519965458
 20
283.609691207
 30
0.0
 11
250.519965458
 21
283.1860714014
 31
0.0
  0
LINE
  5
123
330
7D
100
AcDbEntity
  8
$DDT_AUDIT_GENERATED_(C5)
  6
Continuous
 62
     7
100
AcDbLine
 10
251.1169503387
 20
281.4301482607
 30
0.0
 11
251.0528220803
 21
281.4301482607
 31
0.0
  0
LINE
  5
124
330
7D
100
AcDbEntity
  8
$DDT_AUDIT_GENERATED_(CC)
  6
Continuous
 62
     7
100
AcDbLine
 10
250.8047786811
 20
282.0755712554
 30
0.0
 11
250.879717435
 21
282.0755712554
 31
0.0
  0
LINE
  5
125
330
7D
100
AcDbEntity
  8
$DDT_AUDIT_GENERATED_(CC)
  6
Continuous
 62
     7
100
AcDbLine
 10
250.669965458
 20
282.5835365139
 30
0.0
 11
250.669965458
 21
282.8287986502
 31
0.0
  0
LINE
  5
126
330
7D
100
AcDbEntity
  8
$DDT_AUDIT_GENERATED_(CC)
  6
Continuous
 62
     7
100
AcDbLine
 10
250.669965458
 20
287.597315502
 30
0.0
 11
250.669965458
 21
287.9526323298
 31
0.0
  0
SPLINE
  5
127
330
7D
100
AcDbEntity
  8
$DDT_AUDIT_GENERATED_(D3)
  6
Continuous
 62
     7
100
AcDbSpline
210
0.0
220
0.0
230
1.0
 70
     8
 71
     5
 72
    20
 73
    14
 74
     0
 42
0.0000000020974595
 43
0.0000000001
 40
0.0
 40
0.0
 40
0.0
 40
0.0
 40
0.0
 40
0.0
 40
0.0403396661957891
 40
0.1019823680672687
 40
0.1509172987586179
 40
0.1885693625512597
 40
0.2654166559915799
 40
0.3429153804563871
 40
0.4470081937129474
 40
0.7033683636985043
 40
0.8028540246346346
 40
0.8028540246346346
 40
0.8028540246346346
 40
0.8028540246346346
 40
0.8028540246346346
 40
0.8028540246346346
 10
254.8113557963804
 20
292.236618342395
 30
0.0
 10
254.772045697797
 20
292.2368358992441
 30
0.0
 10
254.6725409898735
 20
292.2364634074709
 30
0.0
 10
254.524401454776
 20
292.2342712115259
 30
0.0
 10
254.335118103346
 20
292.2247042446829
 30
0.0
 10
254.0491393340951
 20
292.1790418486094
 30
0.0
 10
253.7627479452512
 20
292.0887063303128
 30
0.0
 10
253.4552329008604
 20
291.9517337843125
 30
0.0
 10
253.011255782808
 20
291.6790742503308
 30
0.0
 10
252.587601972885
 20
291.3133036086911
 30
0.0
 10
252.2568131655073
 20
290.959933092701
 30
0.0
 10
251.9928134048517
 20
290.621970253573
 30
0.0
 10
251.8042322606066
 20
290.3431134655001
 30
0.0
 10
251.7528108885022
 20
290.2638807564293
 30
0.0
  0
LINE
  5
128
330
7D
100
AcDbEntity
  8
$DDT_AUDIT_GENERATED_(D3)
  6
Continuous
 62
     7
100
AcDbLine
 10
267.258846447
 20
292.2265668497
 30
0.0
 11
254.81135539
 21
292.2364223816
 31
0.0
  0
SPLINE
  5
129
330
7D
100
AcDbEntity
  8
$DDT_AUDIT_GENERATED_(D3)
  6
Continuous
 62
     7
100
AcDbSpline
210
0.0
220
0.0
230
1.0
 70
     8
 71
     5
 72
    22
 73
    16
 74
     0
 42
0.0000000020812998
 43
0.0000000001
 40
0.0
 40
0.0
 40
0.0
 40
0.0
 40
0.0
 40
0.0
 40
0.0062170727794191
 40
0.0545574702013685
 40
0.1507334047118342
 40
0.2722807902039555
 40
0.4717008751628371
 40
0.5745902925666964
 40
0.7309841839950737
 40
0.8095115744880595
 40
0.8852471554960726
 40
0.9352882574655317
 40
1.0
 40
1.0
 40
1.0
 40
1.0
 40
1.0
 40
1.0
 10
270.8052419896112
 20
289.4188994174572
 30
0.0
 10
270.802662246379
 20
289.4242893899468
 30
0.0
 10
270.7802541178766
 20
289.4717535844187
 30
0.0
 10
270.7171739674968
 20
289.6024549091259
 30
0.0
 10
270.5970985647766
 20
289.8362786901829
 30
0.0
 10
270.3660415078891
 20
290.2329937227143
 30
0.0
 10
270.0571957754918
 20
290.6795681050164
 30
0.0
 10
269.6291295706499
 20
291.1660288163299
 30
0.0
 10
269.1890855481209
 20
291.5722876222301
 30
0.0
 10
268.7055731315401
 20
291.9017446447436
 30
0.0
 10
268.3180502944315
 20
292.0857037201283
 30
0.0
 10
267.895384155906
 20
292.1995654393917
 30
0.0
 10
267.6145861231852
 20
292.2224996338358
 30
0.0
 10
267.429988509
 20
292.2257574915546
 30
0.0
 10
267.3204488199144
 20
292.2263348988092
 30
0.0
 10
267.2588473580622
 20
292.2265520996581
 30
0.0
  0
ARC
  5
12A
330
7D
100
AcDbEntity
  8
$DDT_AUDIT_GENERATED_(D3)
  6
Continuous
 62
     7
100
AcDbCircle
 10
261.9634296763
 20
285.419475446
 30
0.0
 40
9.704279318270595
100
AcDbArc
 50
359.3779667181
 51
24.3387041788
  0
ARC
  5
12B
330
7D
100
AcDbEntity
  8
$DDT_AUDIT_GENERATED_(D3)
  6
Continuous
 62
     7
100
AcDbCircle
 10
261.9260998747
 20
285.1932160941
 30
0.0
 40
9.741787554999688
100
AcDbArc
 50
335.6948960017
 51
0.71112387
  0
SPLINE
  5
12C
330
7D
100
AcDbEntity
  8
$DDT_AUDIT_GENERATED_(D3)
  6
Continuous
 62
     7
100
AcDbSpline
210
0.0
220
0.0
230
1.0
 70
     8
 71
     5
 72
    14
 73
     8
 74
     0
 42
0.0000000020352959
 43
0.0000000001
 40
0.800145099270069
 40
0.800145099270069
 40
0.800145099270069
 40
0.800145099270069
 40
0.800145099270069
 40
0.800145099270069
 40
0.8038841353367168
 40
0.9473167444814544
 40
1.0
 40
1.0
 40
1.0
 40
1.0
 40
1.0
 40
1.0
 10
270.330418523711
 20
280.3249107622167
 30
0.0
 10
270.3324067837947
 20
280.3279597797639
 30
0.0
 10
270.410595386488
 20
280.4480472044763
 30
0.0
 10
270.5129679515601
 20
280.6151448470981
 30
0.0
 10
270.6096375284668
 20
280.786993536567
 30
0.0
 10
270.6994724229282
 20
280.9617538280811
 30
0.0
 10
270.7824708714206
 20
281.1364095290888
 30
0.0
 10
270.8044398195224
 20
281.1835397242987
 30
0.0
  0
SPLINE
  5
12D
330
7D
100
AcDbEntity
  8
$DDT_AUDIT_GENERATED_(D3)
  6
Continuous
 62
     7
100
AcDbSpline
210
0.0
220
0.0
230
1.0
 70
     8
 71
     3
 72
    18
 73
    14
 74
     0
 42
0.000000002068062
 43
0.0000000001
 40
0.0
 40
0.0
 40
0.0
 40
0.0
 40
0.125
 40
0.125
 40
0.25
 40
0.25
 40
0.375
 40
0.375
 40
0.5
 40
0.5
 40
0.75
 40
0.75
 40
0.7974247909865652
 40
0.7974247909865652
 40
0.7974247909865652
 40
0.7974247909865652
 10
267.1976376905548
 20
278.2381649552458
 30
0.0
 10
267.4010286982972
 20
278.2377910199886
 30
0.0
 10
267.6040263848174
 20
278.240878536439
 30
0.0
 10
268.0030872283143
 20
278.308022787537
 30
0.0
 10
268.2013710781708
 20
278.3713135041461
 30
0.0
 10
268.568220687297
 20
278.5395231097363
 30
0.0
 10
268.7407495640537
 20
278.6437172493215
 30
0.0
 10
269.0700314886878
 20
278.8793243080752
 30
0.0
 10
269.2229508863769
 20
279.0081547987219
 30
0.0
 10
269.6578009642133
 20
279.4178236632468
 30
0.0
 10
269.9172861306233
 20
279.7236974981124
 30
0.0
 10
270.1913862891573
 20
280.1133837180653
 30
0.0
 10
270.2338926993052
 20
280.1762528642869
 30
0.0
 10
270.2752417444009
 20
280.2398356582149
 30
0.0
  0
LINE
  5
12E
330
7D
100
AcDbEntity
  8
$DDT_AUDIT_GENERATED_(D3)
  6
Continuous
 62
     7
100
AcDbLine
 10
254.7579784841
 20
278.2609813525
 30
0.0
 11
267.1976376811
 21
278.2381644976
 31
0.0
  0
ARC
  5
12F
330
7D
100
AcDbEntity
  8
$DDT_AUDIT_GENERATED_(D3)
  6
Continuous
 62
     7
100
AcDbCircle
 10
258.7730946476
 20
285.8590694791
 30
0.0
 40
8.300627099428988
100
AcDbArc
 50
155.1322425386
 51
155.6250450901
  0
ARC
  5
130
330
7D
100
AcDbEntity
  8
$DDT_AUDIT_GENERATED_(D3)
  6
Continuous
 62
     7
100
AcDbCircle
 10
256.6587635417
 20
286.9441099574
 30
0.0
 40
5.926814424758471
100
AcDbArc
 50
146.7550362009
 51
156.0536318369
  0
SPLINE
  5
131
330
7D
100
AcDbEntity
  8
$DDT_AUDIT_GENERATED_(D3)
  6
Continuous
 62
     7
100
AcDbSpline
210
0.0
220
0.0
230
1.0
 70
     8
 71
     3
 72
    16
 73
    12
 74
     0
 42
0.00000000297456
 43
0.0000000001
 40
0.0
 40
0.0
 40
0.0
 40
0.0
 40
0.2499999999999998
 40
0.2499999999999998
 40
0.4999999999999997
 40
0.4999999999999997
 40
0.7499999999999996
 40
0.7499999999999996
 40
0.8749999999999998
 40
0.8749999999999998
 40
1.0
 40
1.0
 40
1.0
 40
1.0
 10
251.9806176287519
 20
279.8797691113489
 30
0.0
 10
252.1447887228667
 20
279.6600838653307
 30
0.0
 10
252.323836479162
 20
279.4511483590956
 30
0.0
 10
252.7172999859813
 20
279.0578724970028
 30
0.0
 10
252.9267722246605
 20
278.8764534355242
 30
0.0
 10
253.3865342551707
 20
278.5649594845858
 30
0.0
 10
253.6400653430114
 20
278.434523207775
 30
0.0
 10
254.0442698738013
 20
278.3165061468943
 30
0.0
 10
254.1851044889885
 20
278.2897736852288
 30
0.0
 10
254.4706194461435
 20
278.2632594695689
 30
0.0
 10
254.6142319794799
 20
278.2612443710595
 30
0.0
 10
254.7579784840551
 20
278.2609813525128
 30
0.0
  0
ARC
  5
132
330
7D
100
AcDbEntity
  8
$DDT_AUDIT_GENERATED_(D3)
  6
Continuous
 62
     7
100
AcDbCircle
 10
251.5863701298
 20
280.0666181287
 30
0.0
 40
0.2086254016273752
100
AcDbArc
 50
354.2208089311
 51
32.632646908
  0
ARC
  5
133
330
7D
100
AcDbEntity
  8
$DDT_AUDIT_GENERATED_(D3)
  6
Continuous
 62
     7
100
AcDbCircle
 10
262.7085965207
 20
287.9416839686
 30
0.0
 40
13.419538079712
100
AcDbArc
 50
215.3417684204
 51
216.9243115213
  0
ARC
  5
134
330
7D
100
AcDbEntity
  8
$DDT_AUDIT_GENERATED_(D3)
  6
Continuous
 62
     7
100
AcDbCircle
 10
260.3070121573
 20
285.3523051292
 30
0.0
 40
9.908446102334539
100
AcDbArc
 50
156.616588224
 51
180.59525564
  0
ARC
  5
135
330
7D
100
AcDbEntity
  8
$DDT_AUDIT_GENERATED_(D3)
  6
Continuous
 62
     7
100
AcDbCircle
 10
260.3688713527
 20
285.1283462311
 30
0.0
 40
9.970505056995966
100
AcDbArc
 50
179.3045369768
 51
203.7365429298
  0
ARC
  5
136
330
7D
100
AcDbEntity
  8
$DDT_AUDIT_GENERATED_(D3)
  6
Continuous
 62
     7
100
AcDbCircle
 10
257.5281760816
 20
283.9558433947
 30
0.0
 40
6.898502588878256
100
AcDbArc
 50
204.3192173045
 51
213.2584378185
  0
ARC
  5
137
330
7D
100
AcDbEntity
  8
$DDT_AUDIT_GENERATED_(D3)
  6
Continuous
 62
     7
100
AcDbCircle
 10
251.5832812202
 20
280.0599763119
 30
0.0
 40
0.2092232595313639
100
AcDbArc
 50
357.5166333714
 51
32.5648595437
  0
LINE
  5
138
330
7D
100
AcDbEntity
  8
$DDT_AUDIT_GENERATED_(D3)
  6
Continuous
 62
     7
100
AcDbLine
 10
270.2752293624
 20
280.2398302006
 30
0.0
 11
270.3351226537
 21
280.3319392052
 31
0.0
  0
LINE
  5
139
330
7D
100
AcDbEntity
  8
$DDT_AUDIT_GENERATED_(D3)
  6
Continuous
 62
     7
100
AcDbLine
 10
251.7564482679
 20
290.2696407728
 30
0.0
 11
251.7055893793
 21
290.191425642
 31
0.0
  0
ARC
  5
13A
330
7D
100
AcDbEntity
  8
$DDT_AUDIT_GENERATED_(F0)
  6
Continuous
 62
     7
100
AcDbCircle
 10
292.787258787
 20
278.0920917874
 30
0.0
 40
0.2585149068826311
100
AcDbArc
 50
293.5526228383
 51
345.3638238872
  0
ARC
  5
13B
330
7D
100
AcDbEntity
  8
$DDT_AUDIT_GENERATED_(F0)
  6
Continuous
 62
     7
100
AcDbCircle
 10
268.474977651
 20
284.5773274816
 30
0.0
 40
25.42088999447432
100
AcDbArc
 50
359.9369010513
 51
0.0048496383
  0
ARC
  5
13C
330
7D
100
AcDbEntity
  8
$DDT_AUDIT_GENERATED_(F0)
  6
Continuous
 62
     7
100
AcDbCircle
 10
292.7877233072
 20
278.1108239755
 30
0.0
 40
0.2629533555175932
100
AcDbArc
 50
293.1051463979
 51
345.5084388612
  0
ARC
  5
13D
330
7D
100
AcDbEntity
  8
$DDT_AUDIT_GENERATED_(F0)
  6
Continuous
 62
     7
100
AcDbCircle
 10
292.7866008405
 20
291.049247659
 30
0.0
 40
0.2615598381799122
100
AcDbArc
 50
14.5905331156
 51
63.8879690634
  0
ARC
  5
13E
330
7D
100
AcDbEntity
  8
$DDT_AUDIT_GENERATED_(F0)
  6
Continuous
 62
     7
100
AcDbCircle
 10
268.3726177655
 20
284.5556727823
 30
0.0
 40
25.52372339280938
100
AcDbArc
 50
359.9381507658
 51
14.9076432516
  0
ARC
  5
13F
330
7D
100
AcDbEntity
  8
$DDT_AUDIT_GENERATED_(F0)
  6
Continuous
 62
     7
100
AcDbCircle
 10
268.3498638582
 20
284.6024097034
 30
0.0
 40
25.54669089449421
100
AcDbArc
 50
345.1362352985
 51
359.8232451476
  0
LINE
  5
141
330
7D
100
AcDbEntity
  8
$DDT_AUDIT_GENERATED_(140)
  6
Continuous
 62
     7
100
AcDbLine
 10
230.119965458
 20
280.6675091292
 30
0.0
 11
228.999965458
 21
280.6675091292
 31
0.0
  0
LINE
  5
142
330
7D
100
AcDbEntity
  8
$DDT_AUDIT_GENERATED_(140)
  6
Continuous
 62
     7
100
AcDbLine
 10
230.119965458
 20
280.5529814856
 30
0.0
 11
228.999965458
 21
280.5529814856
 31
0.0
  0
LINE
  5
143
330
7D
100
AcDbEntity
  8
$DDT_AUDIT_GENERATED_(140)
  6
Continuous
 62
     7
100
AcDbLine
 10
230.119965458
 20
285.5339549761
 30
0.0
 11
228.999965458
 21
285.5339549761
 31
0.0
  0
LINE
  5
144
330
7D
100
AcDbEntity
  8
$DDT_AUDIT_GENERATED_(140)
  6
Continuous
 62
     7
100
AcDbLine
 10
228.999965458
 20
266.7794630212
 30
0.0
 11
230.119965458
 21
266.7794630212
 31
0.0
  0
LINE
  5
145
330
7D
100
AcDbEntity
  8
$DDT_AUDIT_GENERATED_(140)
  6
Continuous
 62
     7
100
AcDbLine
 10
230.119965458
 20
302.3794630212
 30
0.0
 11
228.999965458
 21
302.3794630212
 31
0.0
  0
ENDBLK
  5
147
330
7D
100
AcDbEntity
  8
0
100
AcDbBlockEnd
  0
BLOCK
  5
1B8
330
148
100
AcDbEntity
  8
0
100
AcDbBlockBegin
  2
SE1
 70
     0
 10
0.0
 20
0.0
 30
0.0
  3
SE1
  1

  0
ARC
  5
14A
330
148
100
AcDbEntity
  8
$DDT_AUDIT_GENERATED_(7F)
  6
Continuous
 62
     7
100
AcDbCircle
 10
383.9287533458
 20
296.1520831063
 30
0.0
 40
0.5000000000000491
100
AcDbArc
 50
112.650442375
 51
180.0
  0
ARC
  5
14B
330
148
100
AcDbEntity
  8
$DDT_AUDIT_GENERATED_(7F)
  6
Continuous
 62
     7
100
AcDbCircle
 10
383.9287533458
 20
263.5292339984
 30
0.0
 40
0.5000000000000029
100
AcDbArc
 50
180.0
 51
261.8642795887
  0
SPLINE
  5
14C
330
148
100
AcDbEntity
  8
$DDT_AUDIT_GENERATED_(7F)
  6
Continuous
 62
     7
100
AcDbSpline
210
0.0
220
0.0
230
1.0
 70
     8
 71
     3
 72
    16
 73
    12
 74
     0
 42
0.0000000002323396
 43
0.0000000001
 40
0.0
 40
0.0
 40
0.0
 40
0.0
 40
0.125
 40
0.125
 40
0.25
 40
0.25
 40
0.5
 40
0.5
 40
0.75
 40
0.75
 40
1.0
 40
1.0
 40
1.0
 40
1.0
 10
426.7398499136128
 20
263.6715958135132
 30
0.0
 10
425.0006365404258
 20
263.2547495575784
 30
0.0
 10
423.2078174959601
 20
262.9555802308651
 30
0.0
 10
419.6537100841622
 20
262.5232183233047
 30
0.0
 10
417.8705830987808
 20
262.3850788956019
 30
0.0
 10
412.511129827175
 20
262.1000896749969
 30
0.0
 10
408.9250153446052
 20
262.0715469872593
 30
0.0
 10
401.7507222506969
 20
262.0729353021121
 30
0.0
 10
398.1634184553582
 20
262.1024776762565
 30
0.0
 10
390.9927238931662
 20
262.3270415313491
 30
0.0
 10
387.4138302630967
 20
262.5259338144416
 30
0.0
 10
383.8579941339573
 20
263.0342661873825
 30
0.0
  0
LINE
  5
14D
330
148
100
AcDbEntity
  8
$DDT_AUDIT_GENERATED_(7F)
  6
Continuous
 62
     7
100
AcDbLine
 10
383.4287533458
 20
263.5292339984
 30
0.0
 11
383.4287533458
 21
296.1520831063
 31
0.0
  0
SPLINE
  5
14E
330
148
100
AcDbEntity
  8
$DDT_AUDIT_GENERATED_(7F)
  6
Continuous
 62
     7
100
AcDbSpline
210
0.0
220
0.0
230
1.0
 70
     8
 71
     3
 72
    10
 73
     6
 74
     0
 42
0.000000000256583
 43
0.0000000001
 40
0.0
 40
0.0
 40
0.0
 40
0.0
 40
0.5
 40
0.5
 40
1.0
 40
1.0
 40
1.0
 40
1.0
 10
383.7361993685039
 20
296.6135188719969
 30
0.0
 10
389.7221662047139
 20
299.1114217403485
 30
0.0
 10
395.7972325081611
 20
301.3737097088141
 30
0.0
 10
408.3210023410071
 20
304.7883056127908
 30
0.0
 10
414.7489470491902
 20
305.9272698902421
 30
0.0
 10
421.2431776029429
 20
306.0739789778631
 30
0.0
  0
ARC
  5
14F
330
148
100
AcDbEntity
  8
$DDT_AUDIT_GENERATED_(7F)
  6
Continuous
 62
     7
100
AcDbCircle
 10
421.7287533457
 20
284.5794630215
 30
0.0
 40
21.50000000000002
100
AcDbArc
 50
86.9849949376
 51
91.2941305313
  0
ARC
  5
150
330
148
100
AcDbEntity
  8
$DDT_AUDIT_GENERATED_(7F)
  6
Continuous
 62
     7
100
AcDbCircle
 10
421.7287533457
 20
284.5794630215
 30
0.0
 40
21.50000000000002
100
AcDbArc
 50
283.4781340726
 51
306.8279571059
  0
LINE
  5
152
330
148
100
AcDbEntity
  8
$DDT_AUDIT_GENERATED_(151)
  6
Continuous
 62
     7
100
AcDbLine
 10
350.5287533458
 20
269.0795041024
 30
0.0
 11
350.5287533458
 21
292.07942194
 31
0.0
  0
LINE
  5
153
330
148
100
AcDbEntity
  8
$DDT_AUDIT_GENERATED_(151)
  6
Continuous
 62
     7
100
AcDbLine
 10
353.028805645
 20
275.5794630212
 30
0.0
 11
353.028805645
 21
272.6871581758
 31
0.0
  0
LINE
  5
154
330
148
100
AcDbEntity
  8
$DDT_AUDIT_GENERATED_(151)
  6
Continuous
 62
     7
100
AcDbLine
 10
362.0287010555
 20
275.5794630212
 30
0.0
 11
362.0287010555
 21
272.6871581758
 31
0.0
  0
LINE
  5
155
330
148
100
AcDbEntity
  8
$DDT_AUDIT_GENERATED_(151)
  6
Continuous
 62
     7
100
AcDbLine
 10
364.5287533458
 20
269.0795040982
 30
0.0
 11
364.5287533458
 21
292.0794219442
 31
0.0
  0
SPLINE
  5
156
330
148
100
AcDbEntity
  8
$DDT_AUDIT_GENERATED_(151)
  6
Continuous
 62
     7
100
AcDbSpline
210
0.0
220
0.0
230
1.0
 70
     8
 71
     3
 72
    14
 73
    10
 74
     0
 42
0.0000000009061095
 43
0.0000000001
 40
0.0
 40
0.0
 40
0.0
 40
0.0
 40
0.25
 40
0.25
 40
0.5
 40
0.5
 40
0.75
 40
0.75
 40
1.0
 40
1.0
 40
1.0
 40
1.0
 10
353.0288056449926
 20
275.5794630211973
 30
0.0
 10
352.3711881872895
 20
276.2175341923569
 30
0.0
 10
351.9006688447815
 20
277.0318282789142
 30
0.0
 10
351.2943809965554
 20
278.7621753338383
 30
0.0
 10
351.1545468859615
 20
279.6690091144863
 30
0.0
 10
351.1561437255834
 20
281.5049275046711
 30
0.0
 10
351.296800450133
 20
282.4076695266144
 30
0.0
 10
351.9052202643243
 20
284.1360274970671
 30
0.0
 10
352.3753692923149
 20
284.9454486805689
 30
0.0
 10
353.0288056449926
 20
285.5794630211973
 30
0.0
  0
LINE
  5
157
330
148
100
AcDbEntity
  8
$DDT_AUDIT_GENERATED_(151)
  6
Continuous
 62
     7
100
AcDbLine
 10
362.0287010555
 20
275.5794630212
 30
0.0
 11
353.028805645
 21
275.5794630212
 31
0.0
  0
LINE
  5
158
330
148
100
AcDbEntity
  8
$DDT_AUDIT_GENERATED_(151)
  6
Continuous
 62
     7
100
AcDbLine
 10
362.0287010555
 20
285.5794630212
 30
0.0
 11
353.028805645
 21
285.5794630212
 31
0.0
  0
SPLINE
  5
159
330
148
100
AcDbEntity
  8
$DDT_AUDIT_GENERATED_(151)
  6
Continuous
 62
     7
100
AcDbSpline
210
0.0
220
0.0
230
1.0
 70
     8
 71
     3
 72
    14
 73
    10
 74
     0
 42
0.0000000009061095
 43
0.0000000001
 40
0.0
 40
0.0
 40
0.0
 40
0.0
 40
0.25
 40
0.25
 40
0.5
 40
0.5
 40
0.75
 40
0.75
 40
1.0
 40
1.0
 40
1.0
 40
1.0
 10
362.0287010554635
 20
285.5794630211973
 30
0.0
 10
362.6863185119672
 20
284.9413918491684
 30
0.0
 10
363.1568378535134
 20
284.1270977625521
 30
0.0
 10
363.7631257005576
 20
282.3967507079744
 30
0.0
 10
363.902959810917
 20
281.4899169276156
 30
0.0
 10
363.9013629713006
 20
279.6539985380474
 30
0.0
 10
363.7607062470379
 20
278.7512565165346
 30
0.0
 10
363.1522864339551
 20
277.0228985461696
 30
0.0
 10
362.6821374069054
 20
276.2134773626468
 30
0.0
 10
362.0287010554635
 20
275.5794630211973
 30
0.0
  0
LINE
  5
15A
330
148
100
AcDbEntity
  8
$DDT_AUDIT_GENERATED_(151)
  6
Continuous
 62
     7
100
AcDbLine
 10
353.028805645
 20
267.6871581758
 30
0.0
 11
353.028805645
 21
267.5794630212
 31
0.0
  0
LINE
  5
15B
330
148
100
AcDbEntity
  8
$DDT_AUDIT_GENERATED_(151)
  6
Continuous
 62
     7
100
AcDbLine
 10
362.0287010555
 20
267.6871581758
 30
0.0
 11
362.0287010555
 21
267.5794630212
 31
0.0
  0
LINE
  5
15C
330
148
100
AcDbEntity
  8
$DDT_AUDIT_GENERATED_(151)
  6
Continuous
 62
     7
100
AcDbLine
 10
362.0287010555
 20
272.6871581758
 30
0.0
 11
353.028805645
 21
272.6871581758
 31
0.0
  0
SPLINE
  5
15D
330
148
100
AcDbEntity
  8
$DDT_AUDIT_GENERATED_(151)
  6
Continuous
 62
     7
100
AcDbSpline
210
0.0
220
0.0
230
1.0
 70
     8
 71
     3
 72
    14
 73
    10
 74
     0
 42
0.0000000014973818
 43
0.0000000001
 40
0.0
 40
0.0
 40
0.0
 40
0.0
 40
0.25
 40
0.25
 40
0.5
 40
0.5
 40
0.75
 40
0.75
 40
1.0
 40
1.0
 40
1.0
 40
1.0
 10
353.0288056449926
 20
267.687158175784
 30
0.0
 10
352.3711881872895
 20
268.0061937613639
 30
0.0
 10
351.9006688447815
 20
268.4133408046425
 30
0.0
 10
351.2943809965553
 20
269.2785143321045
 30
0.0
 10
351.1545468859615
 20
269.7319312224286
 30
0.0
 10
351.1561437255834
 20
270.649890417521
 30
0.0
 10
351.296800450133
 20
271.1012614284926
 30
0.0
 10
351.9052202643243
 20
271.965440413719
 30
0.0
 10
352.3753692923149
 20
272.3701510054698
 30
0.0
 10
353.0288056449926
 20
272.687158175784
 30
0.0
  0
LINE
  5
15E
330
148
100
AcDbEntity
  8
$DDT_AUDIT_GENERATED_(151)
  6
Continuous
 62
     7
100
AcDbLine
 10
362.0287010555
 20
267.6871581758
 30
0.0
 11
353.028805645
 21
267.6871581758
 31
0.0
  0
SPLINE
  5
15F
330
148
100
AcDbEntity
  8
$DDT_AUDIT_GENERATED_(151)
  6
Continuous
 62
     7
100
AcDbSpline
210
0.0
220
0.0
230
1.0
 70
     8
 71
     3
 72
    14
 73
    10
 74
     0
 42
0.0000000014973818
 43
0.0000000001
 40
0.0
 40
0.0
 40
0.0
 40
0.0
 40
0.2499999999999998
 40
0.2499999999999998
 40
0.4999999999999999
 40
0.4999999999999999
 40
0.7499999999999999
 40
0.7499999999999999
 40
1.0
 40
1.0
 40
1.0
 40
1.0
 10
362.0287010554635
 20
272.687158175784
 30
0.0
 10
362.6863185119672
 20
272.3681225897696
 30
0.0
 10
363.1568378535134
 20
271.9609755464614
 30
0.0
 10
363.7631257005576
 20
271.0958020191726
 30
0.0
 10
363.902959810917
 20
270.6423851289932
 30
0.0
 10
363.9013629713006
 20
269.7244259342091
 30
0.0
 10
363.7607062470379
 20
269.2730549234527
 30
0.0
 10
363.1522864339551
 20
268.4088759382702
 30
0.0
 10
362.6821374069054
 20
268.0041653465087
 30
0.0
 10
362.0287010554635
 20
267.687158175784
 30
0.0
  0
LINE
  5
160
330
148
100
AcDbEntity
  8
$DDT_AUDIT_GENERATED_(151)
  6
Continuous
 62
     7
100
AcDbLine
 10
353.028805645
 20
293.4717678666
 30
0.0
 11
353.028805645
 21
293.5794630212
 31
0.0
  0
LINE
  5
161
330
148
100
AcDbEntity
  8
$DDT_AUDIT_GENERATED_(151)
  6
Continuous
 62
     7
100
AcDbLine
 10
362.0287010555
 20
293.4717678666
 30
0.0
 11
362.0287010555
 21
293.5794630212
 31
0.0
  0
LINE
  5
162
330
148
100
AcDbEntity
  8
$DDT_AUDIT_GENERATED_(151)
  6
Continuous
 62
     7
100
AcDbLine
 10
353.028805645
 20
288.4717678666
 30
0.0
 11
353.028805645
 21
285.5794630212
 31
0.0
  0
LINE
  5
163
330
148
100
AcDbEntity
  8
$DDT_AUDIT_GENERATED_(151)
  6
Continuous
 62
     7
100
AcDbLine
 10
362.0287010555
 20
288.4717678666
 30
0.0
 11
362.0287010555
 21
285.5794630212
 31
0.0
  0
LINE
  5
164
330
148
100
AcDbEntity
  8
$DDT_AUDIT_GENERATED_(151)
  6
Continuous
 62
     7
100
AcDbLine
 10
362.0287010555
 20
293.4717678666
 30
0.0
 11
353.028805645
 21
293.4717678666
 31
0.0
  0
SPLINE
  5
165
330
148
100
AcDbEntity
  8
$DDT_AUDIT_GENERATED_(151)
  6
Continuous
 62
     7
100
AcDbSpline
210
0.0
220
0.0
230
1.0
 70
     8
 71
     3
 72
    14
 73
    10
 74
     0
 42
0.0000000014973818
 43
0.0000000001
 40
0.0
 40
0.0
 40
0.0
 40
0.0
 40
0.2499999999999998
 40
0.2499999999999998
 40
0.4999999999999999
 40
0.4999999999999999
 40
0.7499999999999999
 40
0.7499999999999999
 40
1.0
 40
1.0
 40
1.0
 40
1.0
 10
353.0288056449926
 20
288.4717678666106
 30
0.0
 10
352.3711881872895
 20
288.7908034521904
 30
0.0
 10
351.9006688447815
 20
289.1979504954691
 30
0.0
 10
351.2943809965554
 20
290.063124022931
 30
0.0
 10
351.1545468859615
 20
290.5165409132551
 30
0.0
 10
351.1561437255834
 20
291.4345001083475
 30
0.0
 10
351.296800450133
 20
291.8858711193191
 30
0.0
 10
351.9052202643244
 20
292.7500501045455
 30
0.0
 10
352.3753692923149
 20
293.1547606962964
 30
0.0
 10
353.0288056449926
 20
293.4717678666105
 30
0.0
  0
LINE
  5
166
330
148
100
AcDbEntity
  8
$DDT_AUDIT_GENERATED_(151)
  6
Continuous
 62
     7
100
AcDbLine
 10
362.0287010555
 20
288.4717678666
 30
0.0
 11
353.028805645
 21
288.4717678666
 31
0.0
  0
SPLINE
  5
167
330
148
100
AcDbEntity
  8
$DDT_AUDIT_GENERATED_(151)
  6
Continuous
 62
     7
100
AcDbSpline
210
0.0
220
0.0
230
1.0
 70
     8
 71
     3
 72
    14
 73
    10
 74
     0
 42
0.0000000014973818
 43
0.0000000001
 40
0.0
 40
0.0
 40
0.0
 40
0.0
 40
0.2499999999999999
 40
0.2499999999999999
 40
0.4999999999999999
 40
0.4999999999999999
 40
0.7499999999999998
 40
0.7499999999999998
 40
1.0
 40
1.0
 40
1.0
 40
1.0
 10
362.0287010554635
 20
293.4717678666105
 30
0.0
 10
362.6863185119672
 20
293.1527322805961
 30
0.0
 10
363.1568378535134
 20
292.745585237288
 30
0.0
 10
363.7631257005576
 20
291.8804117099991
 30
0.0
 10
363.902959810917
 20
291.4269948198197
 30
0.0
 10
363.9013629713006
 20
290.5090356250357
 30
0.0
 10
363.7607062470379
 20
290.0576646142792
 30
0.0
 10
363.1522864339551
 20
289.1934856290967
 30
0.0
 10
362.6821374069054
 20
288.7887750373353
 30
0.0
 10
362.0287010554635
 20
288.4717678666105
 30
0.0
  0
ARC
  5
168
330
148
100
AcDbEntity
  8
$DDT_AUDIT_GENERATED_(151)
  6
Continuous
 62
     7
100
AcDbCircle
 10
355.8258533458
 20
286.0843630212
 30
0.0
 40
7.999999990652696
100
AcDbArc
 50
110.4647448306
 51
131.4630952038
  0
ARC
  5
169
330
148
100
AcDbEntity
  8
$DDT_AUDIT_GENERATED_(151)
  6
Continuous
 62
     7
100
AcDbCircle
 10
355.8258533458
 20
275.0745630212
 30
0.0
 40
7.999999990652699
100
AcDbArc
 50
228.5369047962
 51
249.5352551694
  0
ARC
  5
16A
330
148
100
AcDbEntity
  8
$DDT_AUDIT_GENERATED_(151)
  6
Continuous
 62
     7
100
AcDbCircle
 10
359.2316533458
 20
286.0843630212
 30
0.0
 40
7.999999993769195
100
AcDbArc
 50
48.536904816
 51
69.5352551096
  0
ARC
  5
16B
330
148
100
AcDbEntity
  8
$DDT_AUDIT_GENERATED_(151)
  6
Continuous
 62
     7
100
AcDbCircle
 10
359.2316533458
 20
275.0745630212
 30
0.0
 40
7.999999993769193
100
AcDbArc
 50
290.4647448904
 51
311.463095184
  0
LINE
  5
16C
330
148
100
AcDbEntity
  8
$DDT_AUDIT_GENERATED_(151)
  6
Continuous
 62
     7
100
AcDbLine
 10
353.028805645
 20
267.5794630212
 30
0.0
 11
362.0287010555
 21
267.5794630212
 31
0.0
  0
LINE
  5
16D
330
148
100
AcDbEntity
  8
$DDT_AUDIT_GENERATED_(151)
  6
Continuous
 62
     7
100
AcDbLine
 10
362.0287010555
 20
293.5794630212
 30
0.0
 11
353.028805645
 21
293.5794630212
 31
0.0
  0
LINE
  5
16E
330
148
100
AcDbEntity
  8
$DDT_AUDIT_GENERATED_(8F)
  6
Continuous
 62
     7
100
AcDbLine
 10
411.7287533458
 20
258.0794630212
 30
0.0
 11
429.7287533458
 21
258.0794630212
 31
0.0
  0
LINE
  5
16F
330
148
100
AcDbEntity
  8
$DDT_AUDIT_GENERATED_(8F)
  6
Continuous
 62
     7
100
AcDbLine
 10
431.2087533458
 20
256.5994630212
 30
0.0
 11
410.2487533458
 21
256.5994630212
 31
0.0
  0
LINE
  5
170
330
148
100
AcDbEntity
  8
$DDT_AUDIT_GENERATED_(8F)
  6
Continuous
 62
     7
100
AcDbLine
 10
430.0087533458
 20
249.1794630212
 30
0.0
 11
411.4487533458
 21
249.1794630212
 31
0.0
  0
LINE
  5
171
330
148
100
AcDbEntity
  8
$DDT_AUDIT_GENERATED_(8F)
  6
Continuous
 62
     7
100
AcDbLine
 10
431.2087533458
 20
250.3794630212
 30
0.0
 11
410.2487533458
 21
250.3794630212
 31
0.0
  0
LINE
  5
172
330
148
100
AcDbEntity
  8
$DDT_AUDIT_GENERATED_(8F)
  6
Continuous
 62
     7
100
AcDbLine
 10
410.2487533458
 20
256.5994630212
 30
0.0
 11
410.2487533458
 21
250.3794630212
 31
0.0
  0
LINE
  5
173
330
148
100
AcDbEntity
  8
$DDT_AUDIT_GENERATED_(8F)
  6
Continuous
 62
     7
100
AcDbLine
 10
431.2087533458
 20
250.3794630212
 30
0.0
 11
431.2087533458
 21
256.5994630212
 31
0.0
  0
LINE
  5
174
330
148
100
AcDbEntity
  8
$DDT_AUDIT_GENERATED_(8F)
  6
Continuous
 62
     7
100
AcDbLine
 10
411.7287533458
 20
262.1377822925
 30
0.0
 11
411.7287533458
 21
258.0794630212
 31
0.0
  0
LINE
  5
175
330
148
100
AcDbEntity
  8
$DDT_AUDIT_GENERATED_(8F)
  6
Continuous
 62
     7
100
AcDbLine
 10
429.7287533458
 20
258.0794630212
 30
0.0
 11
429.7287533458
 21
264.6232609781
 31
0.0
  0
LINE
  5
176
330
148
100
AcDbEntity
  8
$DDT_AUDIT_GENERATED_(8F)
  6
Continuous
 62
     7
100
AcDbLine
 10
431.2087533458
 20
256.5994630212
 30
0.0
 11
429.7287533458
 21
258.0794630212
 31
0.0
  0
LINE
  5
177
330
148
100
AcDbEntity
  8
$DDT_AUDIT_GENERATED_(8F)
  6
Continuous
 62
     7
100
AcDbLine
 10
411.7287533458
 20
258.0794630212
 30
0.0
 11
410.2487533458
 21
256.5994630212
 31
0.0
  0
LINE
  5
178
330
148
100
AcDbEntity
  8
$DDT_AUDIT_GENERATED_(8F)
  6
Continuous
 62
     7
100
AcDbLine
 10
410.2487533458
 20
250.3794630212
 30
0.0
 11
411.4487533458
 21
249.1794630212
 31
0.0
  0
LINE
  5
179
330
148
100
AcDbEntity
  8
$DDT_AUDIT_GENERATED_(8F)
  6
Continuous
 62
     7
100
AcDbLine
 10
430.0087533458
 20
249.1794630212
 30
0.0
 11
431.2087533458
 21
250.3794630212
 31
0.0
  0
LINE
  5
17A
330
148
100
AcDbEntity
  8
$DDT_AUDIT_GENERATED_(8F)
  6
Continuous
 62
     7
100
AcDbLine
 10
430.0437533458
 20
257.7644630212
 30
0.0
 11
430.0437533458
 21
249.2144630212
 31
0.0
  0
LINE
  5
17B
330
148
100
AcDbEntity
  8
$DDT_AUDIT_GENERATED_(8F)
  6
Continuous
 62
     7
100
AcDbLine
 10
411.4137533458
 20
257.7644630212
 30
0.0
 11
411.4137533458
 21
249.2144630212
 31
0.0
  0
LINE
  5
17D
330
148
100
AcDbEntity
  8
$DDT_AUDIT_GENERATED_(17C)
  6
Continuous
 62
     7
100
AcDbLine
 10
364.5287533458
 20
271.3294630212
 30
0.0
 11
365.0287533458
 21
271.3294630212
 31
0.0
  0
LINE
  5
17E
330
148
100
AcDbEntity
  8
$DDT_AUDIT_GENERATED_(17C)
  6
Continuous
 62
     7
100
AcDbLine
 10
365.0287533458
 20
289.8294630212
 30
0.0
 11
364.5287533458
 21
289.8294630212
 31
0.0
  0
SPLINE
  5
17F
330
148
100
AcDbEntity
  8
$DDT_AUDIT_GENERATED_(9E)
  6
Continuous
 62
     7
100
AcDbSpline
210
0.0
220
0.0
230
1.0
 70
     8
 71
     3
 72
     9
 73
     5
 74
     0
 42
0.0000001736981994
 43
0.0000000001
 40
0.9083610577082482
 40
0.9083610577082482
 40
0.9083610577082482
 40
0.9083610577082482
 40
0.9193510051142261
 40
1.0
 40
1.0
 40
1.0
 40
1.0
 10
403.8405055529407
 20
296.4801077252965
 30
0.0
 10
403.8400410033497
 20
296.4801077824023
 30
0.0
 10
403.8364880732988
 20
296.48011294381
 30
0.0
 10
403.835396440839
 20
296.4801520161583
 30
0.0
 10
403.835277744217
 20
296.4802679806713
 30
0.0
  0
SPLINE
  5
180
330
148
100
AcDbEntity
  8
$DDT_AUDIT_GENERATED_(9E)
  6
Continuous
 62
     7
100
AcDbSpline
210
0.0
220
0.0
230
1.0
 70
     8
 71
     3
 72
    23
 73
    19
 74
     0
 42
0.0000001127521714
 43
0.0000000001
 40
0.0
 40
0.0
 40
0.0
 40
0.0
 40
0.0234943674768762
 40
0.059446172548849
 40
0.0953979776207851
 40
0.131349782692758
 40
0.2032533928367405
 40
0.347060613124632
 40
0.418964223268541
 40
0.4908678334125235
 40
0.5627714435564325
 40
0.634675053700415
 40
0.6706268587723878
 40
0.7065786638443607
 40
0.7425304689162968
 40
0.7784822739883065
 40
0.922289494276198
 40
1.0
 40
1.0
 40
1.0
 40
1.0
 10
439.4474255203543
 20
296.4729372944451
 30
0.0
 10
439.4334761955457
 20
296.4654509729144
 30
0.0
 10
439.4305449425796
 20
296.4671825832568
 30
0.0
 10
439.4261800525053
 20
296.4695654297254
 30
0.0
 10
439.4217045365268
 20
296.4717834437889
 30
0.0
 10
439.4163266736231
 20
296.4741868405029
 30
0.0
 10
439.408402490901
 20
296.4771504971134
 30
0.0
 10
439.4024694831566
 20
296.4786664538792
 30
0.0
 10
439.3989807988131
 20
296.4794508738302
 30
0.0
 10
439.3970728760569
 20
296.4797903252837
 30
0.0
 10
439.3953599726031
 20
296.4799978181254
 30
0.0
 10
439.3935409446298
 20
296.4801066485024
 30
0.0
 10
439.3915182824861
 20
296.4801827957207
 30
0.0
 10
439.3897037308092
 20
296.4802343875284
 30
0.0
 10
439.3875777888766
 20
296.4802804006658
 30
0.0
 10
439.382675454127
 20
296.480361149471
 30
0.0
 10
439.374800602729
 20
296.4804235201054
 30
0.0
 10
439.3666697049387
 20
296.4804530828084
 30
0.0
 10
439.3635954740492
 20
296.4803551088188
 30
0.0
  0
ARC
  5
181
330
148
100
AcDbEntity
  8
$DDT_AUDIT_GENERATED_(9E)
  6
Continuous
 62
     7
100
AcDbCircle
 10
412.4395468633
 20
693.2942209806
 30
0.0
 40
398.0002004571301
100
AcDbArc
 50
268.6657667828
 51
271.3372662276
  0
ARC
  5
182
330
148
100
AcDbEntity
  8
$DDT_AUDIT_GENERATED_(9E)
  6
Continuous
 62
     7
100
AcDbCircle
 10
431.486107053
 20
-351.6136448932
 30
0.0
 40
625.4473553978984
100
AcDbArc
 50
89.2232554228
 51
90.8939634363
  0
ARC
  5
183
330
148
100
AcDbEntity
  8
$DDT_AUDIT_GENERATED_(9E)
  6
Continuous
 62
     7
100
AcDbCircle
 10
431.2514043804
 20
725.8547010075
 30
0.0
 40
430.5576196893326
100
AcDbArc
 50
268.7325723374
 51
271.159641466
  0
ARC
  5
184
330
148
100
AcDbEntity
  8
$DDT_AUDIT_GENERATED_(9E)
  6
Continuous
 62
     7
100
AcDbCircle
 10
421.7676228205
 20
284.6235754117
 30
0.0
 40
21.54378993459695
100
AcDbArc
 50
213.6572336766
 51
269.8966264523
  0
ARC
  5
185
330
148
100
AcDbEntity
  8
$DDT_AUDIT_GENERATED_(9E)
  6
Continuous
 62
     7
100
AcDbCircle
 10
420.6292626844
 20
285.4112912384
 30
0.0
 40
20.11368132124775
100
AcDbArc
 50
146.6109775744
 51
150.2175247812
  0
ARC
  5
186
330
148
100
AcDbEntity
  8
$DDT_AUDIT_GENERATED_(9E)
  6
Continuous
 62
     7
100
AcDbCircle
 10
420.7701207159
 20
283.8462433169
 30
0.0
 40
20.28290420705734
100
AcDbArc
 50
209.8261560952
 51
213.3911689722
  0
ARC
  5
187
330
148
100
AcDbEntity
  8
$DDT_AUDIT_GENERATED_(9E)
  6
Continuous
 62
     7
100
AcDbCircle
 10
421.7145865482
 20
284.5814637809
 30
0.0
 40
21.46859930165914
100
AcDbArc
 50
149.7341104844
 51
158.0654504376
  0
ARC
  5
188
330
148
100
AcDbEntity
  8
$DDT_AUDIT_GENERATED_(9E)
  6
Continuous
 62
     7
100
AcDbCircle
 10
421.7145865482
 20
284.5814637809
 30
0.0
 40
21.46859930165914
100
AcDbArc
 50
201.2677598401
 51
210.2747436564
  0
ARC
  5
189
330
148
100
AcDbEntity
  8
$DDT_AUDIT_GENERATED_(9E)
  6
Continuous
 62
     7
100
AcDbCircle
 10
421.7680616528
 20
284.5392320997
 30
0.0
 40
21.54467629426644
100
AcDbArc
 50
90.1045363248
 51
146.3412503844
  0
ARC
  5
18A
330
148
100
AcDbEntity
  8
$DDT_AUDIT_GENERATED_(9E)
  6
Continuous
 62
     7
100
AcDbCircle
 10
421.6974637061
 20
284.5504320502
 30
0.0
 40
21.53346321773107
100
AcDbArc
 50
18.9185756328
 51
89.9167451621
  0
ARC
  5
18B
330
148
100
AcDbEntity
  8
$DDT_AUDIT_GENERATED_(9E)
  6
Continuous
 62
     7
100
AcDbCircle
 10
421.6974578273
 20
284.613266905
 30
0.0
 40
21.53346910511524
100
AcDbArc
 50
270.0832704574
 51
341.0488981243
  0
SPLINE
  5
18C
330
148
100
AcDbEntity
  8
$DDT_AUDIT_GENERATED_(9E)
  6
Continuous
 62
     7
100
AcDbSpline
210
0.0
220
0.0
230
1.0
 70
     8
 71
     3
 72
    31
 73
    27
 74
     0
 42
0.0000000005378921
 43
0.0000000001
 40
0.0
 40
0.0
 40
0.0
 40
0.0
 40
0.0625136525588684
 40
0.1250273115243551
 40
0.250054468264626
 40
0.350080729976093
 40
0.5001071455291839
 40
0.5626255630917114
 40
0.6251328372332653
 40
0.6876152921897395
 40
0.7188822443929335
 40
0.7501021601965128
 40
0.7813268062367643
 40
0.8125455217055664
 40
0.8437677183135763
 40
0.8749952270070935
 40
0.8906127765822655
 40
0.9062363984754065
 40
0.921869854778921
 40
0.9375040467435176
 40
0.9531291302294783
 40
0.9687553284591813
 40
0.9765690091074846
 40
0.9843830226673675
 40
0.99219755961696
 40
1.0
 40
1.0
 40
1.0
 40
1.0
 10
403.1739206398139
 20
273.7581341801018
 30
0.0
 10
403.1718700151076
 20
273.7617720631162
 30
0.0
 10
403.1714222008497
 20
273.7694417243954
 30
0.0
 10
403.1774993346045
 20
273.7967077571706
 30
0.0
 10
403.2223100724633
 20
273.7966844835236
 30
0.0
 10
403.3418323377662
 20
273.7993774533726
 30
0.0
 10
403.5815370086141
 20
273.8029266040508
 30
0.0
 10
404.0191396891685
 20
273.7951979243079
 30
0.0
 10
404.4670801292068
 20
273.7724249409127
 30
0.0
 10
405.055313704636
 20
273.7580518652243
 30
0.0
 10
405.8402915642891
 20
273.7575130920141
 30
0.0
 10
406.6693937464785
 20
273.7601521743222
 30
0.0
 10
407.8041296499674
 20
273.7572882947211
 30
0.0
 10
409.2715338757379
 20
273.7557066669236
 30
0.0
 10
411.0263033767677
 20
273.7586228119005
 30
0.0
 10
412.6548169774024
 20
273.7606809490945
 30
0.0
 10
414.0255325521838
 20
273.7580643608928
 30
0.0
 10
415.0840084174426
 20
273.7561625422819
 30
0.0
 10
416.1666603013122
 20
273.7561971473083
 30
0.0
 10
417.2663214475182
 20
273.7579889795394
 30
0.0
 10
418.3762822470245
 20
273.7591358016336
 30
0.0
 10
419.3056851805561
 20
273.7590840575687
 30
0.0
 10
420.0505045148843
 20
273.7585711050246
 30
0.0
 10
420.6096630127786
 20
273.7581135378741
 30
0.0
 10
421.1688621789067
 20
273.7580274104022
 30
0.0
 10
421.5416469268602
 20
273.7576476668823
 30
0.0
 10
421.7278947320472
 20
273.7575821924186
 30
0.0
  0
ARC
  5
18D
330
148
100
AcDbEntity
  8
$DDT_AUDIT_GENERATED_(9E)
  6
Continuous
 62
     7
100
AcDbCircle
 10
422.1439061433
 20
291.6976820467
 30
0.0
 40
0.4183729000487402
100
AcDbArc
 50
174.9456443338
 51
181.5532916716
  0
ARC
  5
18E
330
148
100
AcDbEntity
  8
$DDT_AUDIT_GENERATED_(9E)
  6
Continuous
 62
     7
100
AcDbCircle
 10
421.8913568078
 20
277.4433856456
 30
0.0
 40
0.1653147739402996
100
AcDbArc
 50
169.8302939551
 51
186.6565933779
  0
SPLINE
  5
18F
330
148
100
AcDbEntity
  8
$DDT_AUDIT_GENERATED_(9E)
  6
Continuous
 62
     7
100
AcDbSpline
210
0.0
220
0.0
230
1.0
 70
     8
 71
     3
 72
    16
 73
    12
 74
     0
 42
0.0000000028626717
 43
0.0000000001
 40
0.1456381616402245
 40
0.1456381616402245
 40
0.1456381616402245
 40
0.1456381616402245
 40
0.2500000000000002
 40
0.2500000000000002
 40
0.3750000000000002
 40
0.3750000000000002
 40
0.5000000000000003
 40
0.5000000000000003
 40
0.7500000000000001
 40
0.7500000000000001
 40
1.0
 40
1.0
 40
1.0
 40
1.0
 10
440.634986607812
 20
277.3425444492115
 30
0.0
 10
440.6318604173672
 20
277.3784231544709
 30
0.0
 10
440.6327846616967
 20
277.4332241064049
 30
0.0
 10
440.6430575795101
 20
277.5914578141938
 30
0.0
 10
440.65354468231
 20
277.6987491124509
 30
0.0
 10
440.6803705886036
 20
277.9426857953272
 30
0.0
 10
440.6968399187248
 20
278.0802625753624
 30
0.0
 10
440.7501744661463
 20
278.5163444982966
 30
0.0
 10
440.7909866512804
 20
278.8398360589681
 30
0.0
 10
440.8746854044468
 20
279.5390120900566
 30
0.0
 10
440.9180617046206
 20
279.9164241409657
 30
0.0
 10
440.9585575668067
 20
280.3082171483765
 30
0.0
  0
ARC
  5
190
330
148
100
AcDbEntity
  8
$DDT_AUDIT_GENERATED_(9E)
  6
Continuous
 62
     7
100
AcDbCircle
 10
400.1458895976
 20
284.6450716568
 30
0.0
 40
41.04244356509643
100
AcDbArc
 50
353.9343716043
 51
359.9117596738
  0
ARC
  5
191
330
148
100
AcDbEntity
  8
$DDT_AUDIT_GENERATED_(9E)
  6
Continuous
 62
     7
100
AcDbCircle
 10
399.8582794297
 20
284.5031362666
 30
0.0
 40
41.33008003981305
100
AcDbArc
 50
0.1091385347
 51
6.0450658265
  0
SPLINE
  5
192
330
148
100
AcDbEntity
  8
$DDT_AUDIT_GENERATED_(9E)
  6
Continuous
 62
     7
100
AcDbSpline
210
0.0
220
0.0
230
1.0
 70
     8
 71
     3
 72
    16
 73
    12
 74
     0
 42
0.0000000027909473
 43
0.0000000001
 40
0.0
 40
0.0
 40
0.0
 40
0.0
 40
0.25
 40
0.25
 40
0.5
 40
0.5
 40
0.625
 40
0.625
 40
0.75
 40
0.75
 40
0.820984079808543
 40
0.820984079808543
 40
0.820984079808543
 40
0.820984079808543
 10
440.9585382356665
 20
288.8556346502997
 30
0.0
 10
440.9181193379861
 20
289.246818485661
 30
0.0
 10
440.8754045626573
 20
289.6180777807119
 30
0.0
 10
440.7920987835475
 20
290.3138548983853
 30
0.0
 10
440.7505378060551
 20
290.6433674342676
 30
0.0
 10
440.6971635521178
 20
291.0796243925695
 30
0.0
 10
440.6808885586334
 20
291.2154409264893
 30
0.0
 10
440.653831436586
 20
291.4609970217384
 30
0.0
 10
440.6432465270066
 20
291.5692388740687
 30
0.0
 10
440.6343859953084
 20
291.7037376802275
 30
0.0
 10
440.6328411517003
 20
291.745337978456
 30
0.0
 10
440.6331431189268
 20
291.7785707171768
 30
0.0
  0
LINE
  5
193
330
148
100
AcDbEntity
  8
$DDT_AUDIT_GENERATED_(9E)
  6
Continuous
 62
     7
100
AcDbLine
 10
440.7536624174
 20
291.6327369909
 30
0.0
 11
440.7212823565
 21
291.6327370416
 31
0.0
  0
LINE
  5
194
330
148
100
AcDbEntity
  8
$DDT_AUDIT_GENERATED_(9E)
  6
Continuous
 62
     7
100
AcDbLine
 10
440.7212772363
 20
291.6327370416
 30
0.0
 11
440.6432579174
 21
291.6327370256
 31
0.0
  0
ARC
  5
195
330
148
100
AcDbEntity
  8
$DDT_AUDIT_GENERATED_(9E)
  6
Continuous
 62
     7
100
AcDbCircle
 10
422.9340410165
 20
283.6051493411
 30
0.0
 40
19.0900234127942
100
AcDbArc
 50
340.7393993161
 51
341.7483549933
  0
ARC
  5
196
330
148
100
AcDbEntity
  8
$DDT_AUDIT_GENERATED_(9E)
  6
Continuous
 62
     7
100
AcDbCircle
 10
423.0960185986
 20
285.5870153558
 30
0.0
 40
18.92800990432533
100
AcDbArc
 50
18.3124781819
 51
19.2868853346
  0
LINE
  5
197
330
148
100
AcDbEntity
  8
$DDT_AUDIT_GENERATED_(9E)
  6
Continuous
 62
     7
100
AcDbLine
 10
440.6471672707
 20
277.5309557952
 30
0.0
 11
440.7212823084
 21
277.5309558475
 31
0.0
  0
LINE
  5
198
330
148
100
AcDbEntity
  8
$DDT_AUDIT_GENERATED_(9E)
  6
Continuous
 62
     7
100
AcDbLine
 10
440.7212866785
 20
277.5309558475
 30
0.0
 11
440.7534041907
 21
277.5309558982
 31
0.0
  0
ARC
  5
199
330
148
100
AcDbEntity
  8
$DDT_AUDIT_GENERATED_(9E)
  6
Continuous
 62
     7
100
AcDbCircle
 10
421.72702898
 20
284.5794578042
 30
0.0
 40
7.106883646638513
100
AcDbArc
 50
90.0108192483
 51
270.0129822388
  0
ARC
  5
19A
330
148
100
AcDbEntity
  8
$DDT_AUDIT_GENERATED_(9E)
  6
Continuous
 62
     7
100
AcDbCircle
 10
421.7292705738
 20
284.5794582698
 30
0.0
 40
7.106883957839363
100
AcDbArc
 50
269.9949104832
 51
90.0288910039
  0
ELLIPSE
  5
19B
330
148
100
AcDbEntity
  8
$DDT_AUDIT_GENERATED_(9E)
  6
Continuous
 62
     7
100
AcDbEllipse
 10
415.9274547508
 20
281.1290939726
 30
0.0
 11
0.1942950814461984
 21
0.228581323221645
 31
0.0
210
0.0
220
0.0
230
0.9999999999999998
 40
0.9996370094
 41
1.21606069821262
 42
1.57945515163539
  0
ELLIPSE
  5
19C
330
148
100
AcDbEntity
  8
$DDT_AUDIT_GENERATED_(9E)
  6
Continuous
 62
     7
100
AcDbEllipse
 10
415.9274547508
 20
288.0298320698
 30
0.0
 11
-0.1942950812930649
 21
0.2285813233519215
 31
0.0
210
0.0
220
0.0
230
1.0
 40
0.9996370094
 41
1.23161428677351
 42
2.002062202020469
  0
ARC
  5
19D
330
148
100
AcDbEntity
  8
$DDT_AUDIT_GENERATED_(9E)
  6
Continuous
 62
     7
100
AcDbCircle
 10
410.0510696382
 20
292.1426731808
 30
0.0
 40
7.574897563527848
100
AcDbArc
 50
145.0678229419
 51
147.9293343157
  0
ARC
  5
19E
330
148
100
AcDbEntity
  8
$DDT_AUDIT_GENERATED_(9E)
  6
Continuous
 62
     7
100
AcDbCircle
 10
411.9054825509
 20
278.2510740346
 30
0.0
 40
9.799559942625702
100
AcDbArc
 50
211.7643491641
 51
214.6200110701
  0
SPLINE
  5
19F
330
148
100
AcDbEntity
  8
$DDT_AUDIT_GENERATED_(9E)
  6
Continuous
 62
     7
100
AcDbSpline
210
0.0
220
0.0
230
1.0
 70
     8
 71
     3
 72
    18
 73
    14
 74
     0
 42
0.0000000004650678
 43
0.0000000001
 40
0.0
 40
0.0
 40
0.0
 40
0.0
 40
0.0157238890024418
 40
0.0307843261069218
 40
0.0455107314482387
 40
0.060321265556398
 40
0.0756443142810625
 40
0.0918610526585473
 40
0.1092790544289584
 40
0.1272210256992061
 40
0.1614056505587618
 40
0.1934096759928793
 40
0.2025820726302121
 40
0.2025820726302121
 40
0.2025820726302121
 40
0.2025820726302121
 10
398.9244956862191
 20
280.0829590881463
 30
0.0
 10
399.1652628000646
 20
279.8667568176286
 30
0.0
 10
399.5604169043451
 20
279.5099763781096
 30
0.0
 10
400.1056084490023
 20
278.9452548464764
 30
0.0
 10
400.5349650474841
 20
278.4506438758854
 30
0.0
 10
400.8714201247841
 20
278.0210896877822
 30
0.0
 10
401.1229106003823
 20
277.6690037977689
 30
0.0
 10
401.3042827618686
 20
277.3932996167155
 30
0.0
 10
401.4220291410995
 20
277.2011450527527
 30
0.0
 10
401.5299794018791
 20
277.0151183338203
 30
0.0
 10
401.6267337315725
 20
276.8368211518955
 30
0.0
 10
401.6753029380732
 20
276.7589260967986
 30
0.0
 10
401.6881070723462
 20
276.7520117412713
 30
0.0
 10
401.6900257986755
 20
276.7528403780765
 30
0.0
  0
SPLINE
  5
1A0
330
148
100
AcDbEntity
  8
$DDT_AUDIT_GENERATED_(9E)
  6
Continuous
 62
     7
100
AcDbSpline
210
0.0
220
0.0
230
1.0
 70
     8
 71
     3
 72
    47
 73
    43
 74
     0
 42
0.0000000002348077
 43
0.0000000001
 40
0.5661520957118955
 40
0.5661520957118955
 40
0.5661520957118955
 40
0.5661520957118955
 40
0.5784935464440482
 40
0.5951653088443696
 40
0.6107984455914133
 40
0.6251590684508559
 40
0.6382599321456683
 40
0.6528870257025823
 40
0.6657339662834241
 40
0.6776258904223756
 40
0.6887241543168647
 40
0.6990666020884883
 40
0.7089602761966817
 40
0.7193285574208559
 40
0.7305645126858904
 40
0.7429624902543434
 40
0.7565139086517888
 40
0.7714324334488992
 40
0.7879664175079506
 40
0.7983878886202166
 40
0.8094170200059069
 40
0.8208499987763281
 40
0.8324159270204216
 40
0.8437782037661661
 40
0.8544930054652516
 40
0.863459608934067
 40
0.8697981419578554
 40
0.8749821526042215
 40
0.879302778805471
 40
0.8831260591646337
 40
0.88745970212388
 40
0.8930544359594342
 40
0.8999866094736367
 40
0.9073457060043725
 40
0.9148509160772491
 40
0.9221903330249915
 40
0.9301386233424216
 40
0.9399336074550565
 40
0.951773809108857
 40
0.965756798152587
 40
0.9818730367509299
 40
1.0
 40
1.0
 40
1.0
 40
1.0
 10
401.7904417167497
 20
292.6340763555605
 30
0.0
 10
401.7891533691775
 20
292.6346313909109
 30
0.0
 10
401.7747907718385
 20
292.6106598373745
 30
0.0
 10
401.7116450255565
 20
292.4892116045079
 30
0.0
 10
401.6518267217276
 20
292.3768495047128
 30
0.0
 10
401.593869519452
 20
292.2701105729908
 30
0.0
 10
401.5336820573327
 20
292.1628486633908
 30
0.0
 10
401.4681057217161
 20
292.050435713162
 30
0.0
 10
401.3900798412909
 20
291.9225051991369
 30
0.0
 10
401.3014279411315
 20
291.7831551162868
 30
0.0
 10
401.1983802207775
 20
291.6277560939307
 30
0.0
 10
401.0802913987125
 20
291.4569444065111
 30
0.0
 10
400.9316360239958
 20
291.2503869485603
 30
0.0
 10
400.7009614119254
 20
290.9474461810897
 30
0.0
 10
400.3857152671068
 20
290.5637306607908
 30
0.0
 10
399.9802057603856
 20
290.1109530674138
 30
0.0
 10
399.4537216102923
 20
289.5781579454576
 30
0.0
 10
398.8012925549913
 20
288.9850324961379
 30
0.0
 10
398.1472000248173
 20
288.4502587060516
 30
0.0
 10
397.5357437389516
 20
287.9852916644966
 30
0.0
 10
396.9961531372947
 20
287.5932982617299
 30
0.0
 10
396.4308229781744
 20
287.195582692099
 30
0.0
 10
395.8573338187001
 20
286.7962359873935
 30
0.0
 10
395.299588528731
 20
286.398876462287
 30
0.0
 10
394.7974430539761
 20
286.0141318689882
 30
0.0
 10
394.4000152469395
 20
285.6625931496555
 30
0.0
 10
394.1199955666171
 20
285.3524490466399
 30
0.0
 10
393.9411171618959
 20
285.0828029590946
 30
0.0
 10
393.8385196483947
 20
284.8300513711294
 30
0.0
 10
393.8015466812292
 20
284.5769627133052
 30
0.0
 10
393.8411495148332
 20
284.2939396888727
 30
0.0
 10
393.986529188245
 20
283.9821593050547
 30
0.0
 10
394.2336947152721
 20
283.6648888294794
 30
0.0
 10
394.5512114313818
 20
283.3554639774876
 30
0.0
 10
394.899048257972
 20
283.0663418386917
 30
0.0
 10
395.2697570126651
 20
282.785047643503
 30
0.0
 10
395.6854707221473
 20
282.4870652805508
 30
0.0
 10
396.172170801945
 20
282.1494789552657
 30
0.0
 10
396.7512873207622
 20
281.7500851289147
 30
0.0
 10
397.4148130741278
 20
281.280921130288
 30
0.0
 10
398.1738091305916
 20
280.7153362813994
 30
0.0
 10
398.6351390838242
 20
280.3273771868195
 30
0.0
 10
398.9244956862191
 20
280.0829590881463
 30
0.0
  0
SPLINE
  5
1A1
330
148
100
AcDbEntity
  8
$DDT_AUDIT_GENERATED_(9E)
  6
Continuous
 62
     7
100
AcDbSpline
210
0.0
220
0.0
230
1.0
 70
     8
 71
     3
 72
    10
 73
     6
 74
     0
 42
0.0000000946975906
 43
0.0000000001
 40
0.0
 40
0.0
 40
0.0
 40
0.0
 40
0.0264468083995416
 40
0.2921777242495179
 40
0.3579742725894922
 40
0.3579742725894922
 40
0.3579742725894922
 40
0.3579742725894922
 10
440.6389611789304
 20
291.7305411086624
 30
0.0
 10
440.6389089061481
 20
291.7329839591757
 30
0.0
 10
440.6383906377541
 20
291.7560965109782
 30
0.0
 10
440.6403965001369
 20
291.7663259733088
 30
0.0
 10
440.6409669105525
 20
291.7679965234977
 30
0.0
 10
440.640976507379
 20
291.7679468976539
 30
0.0
  0
SPLINE
  5
1A2
330
148
100
AcDbEntity
  8
$DDT_AUDIT_GENERATED_(9E)
  6
Continuous
 62
     7
100
AcDbSpline
210
0.0
220
0.0
230
1.0
 70
     8
 71
     3
 72
     9
 73
     5
 74
     0
 42
0.0000001545515652
 43
0.0000000001
 40
0.7675021191972865
 40
0.7675021191972865
 40
0.7675021191972865
 40
0.7675021191972865
 40
0.8889580157167655
 40
1.0
 40
1.0
 40
1.0
 40
1.0
 10
440.641055225457
 20
277.3924166620606
 30
0.0
 10
440.6410636725657
 20
277.3922440967282
 30
0.0
 10
440.6407213411088
 20
277.3943505686046
 30
0.0
 10
440.6403404411381
 20
277.402405427014
 30
0.0
 10
440.6400546206727
 20
277.4070693240633
 30
0.0
  0
ARC
  5
1A3
330
148
100
AcDbEntity
  8
$DDT_AUDIT_GENERATED_(9E)
  6
Continuous
 62
     7
100
AcDbCircle
 10
415.9093302435
 20
288.0329790047
 30
0.0
 40
0.281861493439102
100
AcDbArc
 50
155.2772431428
 51
202.8087803531
  0
LINE
  5
1A4
330
148
100
AcDbEntity
  8
$DDT_AUDIT_GENERATED_(D3)
  6
Continuous
 62
     7
100
AcDbLine
 10
440.6484739297
 20
277.6285713152
 30
0.0
 11
441.7991811765
 21
277.6285713152
 31
0.0
  0
LINE
  5
1A5
330
148
100
AcDbEntity
  8
$DDT_AUDIT_GENERATED_(D3)
  6
Continuous
 62
     7
100
AcDbLine
 10
440.6485970965
 20
291.5303524078
 30
0.0
 11
441.7461872641
 21
291.5303524078
 31
0.0
  0
SPLINE
  5
1A6
330
148
100
AcDbEntity
  8
$DDT_AUDIT_GENERATED_(D3)
  6
Continuous
 62
     7
100
AcDbSpline
210
0.0
220
0.0
230
1.0
 70
    11
 71
     5
 72
    90
 73
    84
 74
     0
 42
0.0000000003721144
 43
0.0000000001
 40
0.0
 40
0.0
 40
0.0
 40
0.0
 40
0.0
 40
0.0
 40
0.0029633526909103
 40
0.0070581807407832
 40
0.0113118627504885
 40
0.0209827752370866
 40
0.0294197557052849
 40
0.0541504042528234
 40
0.0668019195143923
 40
0.0716672929971858
 40
0.0732806736514613
 40
0.0749168868358079
 40
0.0749168868358079
 40
0.0749168868358079
 40
0.0749168868358079
 40
0.0749168868358079
 40
0.0854778425654559
 40
0.0968709675542429
 40
0.1210593115285309
 40
0.1368847659100658
 40
0.1475066261641759
 40
0.1654693136780479
 40
0.1860582584007319
 40
0.1973698609181579
 40
0.2107414266568309
 40
0.22053985589106
 40
0.2365524973424779
 40
0.25751422875214
 40
0.2660255571432978
 40
0.2723623740010578
 40
0.2786459254776629
 40
0.281724611407249
 40
0.2857258604068899
 40
0.290766182232502
 40
0.302879546778102
 40
0.3184421970468019
 40
0.3558107103473599
 40
0.447662371197514
 40
0.4746125758232149
 40
0.484362793709021
 40
0.4903141239902138
 40
0.4923194139714219
 40
0.4983294728860719
 40
0.502292253292397
 40
0.508289792608445
 40
0.514508416742569
 40
0.526893328829428
 40
0.5350411943091901
 40
0.55083337262263
 40
0.5604587721184721
 40
0.568074993461293
 40
0.571903094206448
 40
0.581505740342835
 40
0.6047020715523289
 40
0.6284729938747474
 40
0.6404471989866615
 40
0.6524743663567735
 40
0.6762715350423539
 40
0.69387927896099
 40
0.708410593007636
 40
0.713277470848953
 40
0.7191538510743559
 40
0.7309282975754424
 40
0.751411332582135
 40
0.759946084426119
 40
0.7663828554991595
 40
0.7770403696464715
 40
0.7853787012377995
 40
0.7884103824277254
 40
0.7935616161960285
 40
0.797727898894285
 40
0.8139953172633
 40
0.825722844539403
 40
0.8746037865488064
 40
0.933959129250415
 40
0.9640627687715204
 40
0.9756412206062655
 40
0.9875366882925221
 40
0.9916198384781116
 40
0.9978335575790434
 40
1.0
 40
1.0
 40
1.0
 40
1.0
 40
1.0
 40
1.0
 10
442.6884601101473
 20
291.0476927492505
 30
0.0
 10
442.6896818924853
 20
291.0459248706938
 30
0.0
 10
442.6927750346772
 20
291.0410063769278
 30
0.0
 10
442.6984550747106
 20
291.0303076324566
 30
0.0
 10
442.7113113851337
 20
291.0013961328763
 30
0.0
 10
442.7410167501702
 20
290.9218602150138
 30
0.0
 10
442.8107531520057
 20
290.7207390572285
 30
0.0
 10
442.9313539031403
 20
290.3391370862577
 30
0.0
 10
443.0588840643975
 20
289.888262286356
 30
0.0
 10
443.1764045145247
 20
289.4300404929255
 30
0.0
 10
443.2896599735421
 20
288.9190744939841
 30
0.0
 10
443.3431438489532
 20
288.6545594576725
 30
0.0
 10
443.3627646635268
 20
288.5545324707802
 30
0.0
 10
443.3704397354784
 20
288.5149022890315
 30
0.0
 10
443.3742606582617
 20
288.4950436859708
 30
0.0
 10
443.3989228457733
 20
288.3668661173118
 30
0.0
 10
443.4464165930588
 20
288.1087002331625
 30
0.0
 10
443.5359972781158
 20
287.5728755355087
 30
0.0
 10
443.6273338686598
 20
286.8863245141393
 30
0.0
 10
443.7002569409096
 20
286.1065703985524
 30
0.0
 10
443.7498172213847
 20
285.1963332117856
 30
0.0
 10
443.7570700588511
 20
284.1268662950919
 30
0.0
 10
443.7229091046192
 20
283.2018965660552
 30
0.0
 10
443.6504329552081
 20
282.3098094403705
 30
0.0
 10
443.5426673645305
 20
281.4623391039164
 30
0.0
 10
443.4145680370942
 20
280.6893226875646
 30
0.0
 10
443.2686129427864
 20
279.9623699535419
 30
0.0
 10
443.1247928382117
 20
279.3665167389201
 30
0.0
 10
442.9934514916598
 20
278.8846942320542
 30
0.0
 10
442.8839717543636
 20
278.5247260554095
 30
0.0
 10
442.8142325168559
 20
278.3098890899665
 30
0.0
 10
442.7785150954806
 20
278.2067126307738
 30
0.0
 10
442.7554118671051
 20
278.1451919458034
 30
0.0
 10
442.7382015690699
 20
278.107442939408
 30
0.0
 10
442.7277514760131
 20
278.1065354999312
 30
0.0
 10
442.7068254465588
 20
278.1042567312762
 30
0.0
 10
442.6616755988629
 20
278.1072112884656
 30
0.0
 10
442.6048654418698
 20
278.1060297701769
 30
0.0
 10
442.5562314569997
 20
278.1059476010534
 30
0.0
 10
442.5067128996432
 20
278.1048509007601
 30
0.0
 10
442.468601431408
 20
278.106254080407
 30
0.0
 10
442.4546318201411
 20
278.1063866320503
 30
0.0
 10
442.4463156858287
 20
278.1036172810822
 30
0.0
 10
442.4420857665481
 20
278.1100450694973
 30
0.0
 10
442.4417236064235
 20
278.1264137133711
 30
0.0
 10
442.4560856352776
 20
278.196839694141
 30
0.0
 10
442.4915694458688
 20
278.3421335640345
 30
0.0
 10
442.5545464505472
 20
278.5942352145979
 30
0.0
 10
442.6455589043641
 20
278.9680218687523
 30
0.0
 10
442.7457864840061
 20
279.4098712718709
 30
0.0
 10
442.8324211503926
 20
279.827522952846
 30
0.0
 10
442.9186153105014
 20
280.2849792792209
 30
0.0
 10
443.0156523056188
 20
280.8499945347011
 30
0.0
 10
443.1238489805592
 20
281.5932634316915
 30
0.0
 10
443.2128064794036
 20
282.403971254573
 30
0.0
 10
443.2745615599606
 20
283.3273537499377
 30
0.0
 10
443.3003905099703
 20
284.4066814374944
 30
0.0
 10
443.2826747199264
 20
285.4322559164721
 30
0.0
 10
443.2305778512402
 20
286.34275456845
 30
0.0
 10
443.1492918995947
 20
287.1704751923272
 30
0.0
 10
443.0493026925374
 20
287.9048711169314
 30
0.0
 10
442.9566175369205
 20
288.483079119068
 30
0.0
 10
442.8494908073226
 20
289.0720607453782
 30
0.0
 10
442.7511281472114
 20
289.5486213331605
 30
0.0
 10
442.6512920128087
 20
289.9893683436531
 30
0.0
 10
442.5486066786615
 20
290.4072771977964
 30
0.0
 10
442.4679681972686
 20
290.7232423889084
 30
0.0
 10
442.4252754089506
 20
290.8891045323475
 30
0.0
 10
442.3997551189434
 20
290.9949282028297
 30
0.0
 10
442.3904052464846
 20
291.0444731431542
 30
0.0
 10
442.3962507374046
 20
291.0530118850638
 30
0.0
 10
442.4057148427788
 20
291.057052367978
 30
0.0
 10
442.4303702667687
 20
291.0522385484425
 30
0.0
 10
442.4695642129669
 20
291.0555239328137
 30
0.0
 10
442.5191194204771
 20
291.0534780421029
 30
0.0
 10
442.5663619743633
 20
291.0542763655101
 30
0.0
 10
442.6141323713043
 20
291.053469702946
 30
0.0
 10
442.6467660729429
 20
291.0559898223548
 30
0.0
 10
442.6656484563097
 20
291.0519452297521
 30
0.0
 10
442.6747558238131
 20
291.0539277904913
 30
0.0
 10
442.6802597112709
 20
291.0564675765395
 30
0.0
 10
442.6842706826822
 20
291.0533703413586
 30
0.0
 10
442.6875668917687
 20
291.0489852066458
 30
0.0
 10
442.6884601101473
 20
291.0476927492505
 30
0.0
  0
LINE
  5
1A7
330
148
100
AcDbEntity
  8
$DDT_AUDIT_GENERATED_(D3)
  6
Continuous
 62
     7
100
AcDbLine
 10
441.965683654
 20
291.5303526834
 30
0.0
 11
441.7461748914
 21
291.5303528594
 31
0.0
  0
LINE
  5
1A8
330
148
100
AcDbEntity
  8
$DDT_AUDIT_GENERATED_(D3)
  6
Continuous
 62
     7
100
AcDbLine
 10
441.7991407098
 20
277.6285713152
 30
0.0
 11
442.0435568321
 21
277.6285715106
 31
0.0
  0
SPLINE
  5
1A9
330
148
100
AcDbEntity
  8
$DDT_AUDIT_GENERATED_(D3)
  6
Continuous
 62
     7
100
AcDbSpline
210
0.0
220
0.0
230
1.0
 70
     8
 71
     3
 72
    37
 73
    33
 74
     0
 42
0.0000000018519999
 43
0.0000000001
 40
0.0
 40
0.0
 40
0.0
 40
0.0
 40
0.0266832419018249
 40
0.0452861099513872
 40
0.0562443607995038
 40
0.0590371528486988
 40
0.0594922244909784
 40
0.0598702369377635
 40
0.0601957257442835
 40
0.0605058839384086
 40
0.0608430157689054
 40
0.0612409635971526
 40
0.0622930300959607
 40
0.0679520978853195
 40
0.0742698126251572
 40
0.0800307865821436
 40
0.0817785112626827
 40
0.0823823909068643
 40
0.0828245723490217
 40
0.0829976777107824
 40
0.0831508608745192
 40
0.0832987082451271
 40
0.0834572898922773
 40
0.0838535540945486
 40
0.0844018728406488
 40
0.0883986990715659
 40
0.0972079171760947
 40
0.1103274784779488
 40
0.1274442754624522
 40
0.147045385556734
 40
0.1660938907054067
 40
0.1705716160773606
 40
0.1705716160773606
 40
0.1705716160773606
 40
0.1705716160773606
 10
442.0429138949738
 20
277.6284181341545
 30
0.0
 10
442.0871072075306
 20
277.6276669244912
 30
0.0
 10
442.1519536138692
 20
277.6282720549111
 30
0.0
 10
442.25928844969
 20
277.641079138366
 30
0.0
 10
442.3326417014989
 20
277.6594342535516
 30
0.0
 10
442.3823419359488
 20
277.6784526673738
 30
0.0
 10
442.4014168371136
 20
277.6871157198072
 30
0.0
 10
442.4084624219768
 20
277.6904658162061
 30
0.0
 10
442.4153610717436
 20
277.6938942854692
 30
0.0
 10
442.4219701422592
 20
277.6973299019682
 30
0.0
 10
442.4279853287154
 20
277.7005962924699
 30
0.0
 10
442.4359996532547
 20
277.705132883741
 30
0.0
 10
442.4561407098484
 20
277.7174407172526
 30
0.0
 10
442.4635336193331
 20
277.7240264858858
 30
0.0
 10
442.4789562350579
 20
277.7362720285994
 30
0.0
 10
442.4934335289724
 20
277.7486573396537
 30
0.0
 10
442.507874116217
 20
277.7614360088702
 30
0.0
 10
442.5153593206139
 20
277.7681649731077
 30
0.0
 10
442.5198005154807
 20
277.7721850612359
 30
0.0
 10
442.5234843929423
 20
277.7755369238598
 30
0.0
 10
442.5260872743428
 20
277.7779116858428
 30
0.0
 10
442.528711127845
 20
277.7803114759795
 30
0.0
 10
442.5323908829691
 20
277.7836843311201
 30
0.0
 10
442.5368374459829
 20
277.7877724553888
 30
0.0
 10
442.5507296362119
 20
277.8005754297889
 30
0.0
 10
442.5663969099216
 20
277.8150566838082
 30
0.0
 10
442.5878504563546
 20
277.8345351474966
 30
0.0
 10
442.6086612414362
 20
277.8527663914324
 30
0.0
 10
442.6298218274254
 20
277.8693559520106
 30
0.0
 10
442.6549952257715
 20
277.9027177939241
 30
0.0
 10
442.6993348768896
 20
278.0123157839486
 30
0.0
 10
442.728324994369
 20
278.0911542804208
 30
0.0
 10
442.733992723202
 20
278.1067786284322
 30
0.0
  0
SPLINE
  5
1AA
330
148
100
AcDbEntity
  8
$DDT_AUDIT_GENERATED_(D3)
  6
Continuous
 62
     7
100
AcDbSpline
210
0.0
220
0.0
230
1.0
 70
     8
 71
     3
 72
    18
 73
    14
 74
     0
 42
0.0000000017681405
 43
0.0000000001
 40
0.8238261244276015
 40
0.8238261244276015
 40
0.8238261244276015
 40
0.8238261244276015
 40
0.8267740524229907
 40
0.8414444297782325
 40
0.8569530333014288
 40
0.874509871683009
 40
0.9000707738234642
 40
0.9256011467302238
 40
0.9482979352111819
 40
0.9634319486641904
 40
0.9770137940192405
 40
0.9891452972125541
 40
1.0
 40
1.0
 40
1.0
 40
1.0
 10
442.7103778296811
 20
291.0018108080874
 30
0.0
 10
442.7066009686098
 20
291.0122778035731
 30
0.0
 10
442.6843993775087
 20
291.0733172017756
 30
0.0
 10
442.6472054278643
 20
291.1700159138371
 30
0.0
 10
442.6131523886643
 20
291.2416064972069
 30
0.0
 10
442.5907581806139
 20
291.2638642134504
 30
0.0
 10
442.5680945835845
 20
291.2788770956975
 30
0.0
 10
442.5333821595537
 20
291.3117205368392
 30
0.0
 10
442.4704282738711
 20
291.3724738780882
 30
0.0
 10
442.3801685588238
 20
291.4377618888007
 30
0.0
 10
442.2718220075822
 20
291.4916504528219
 30
0.0
 10
442.1332652224344
 20
291.52768973455
 30
0.0
 10
442.0258726541801
 20
291.5296087077286
 30
0.0
 10
441.9654757764328
 20
291.5303668568196
 30
0.0
  0
ARC
  5
1AB
330
148
100
AcDbEntity
  8
$DDT_AUDIT_GENERATED_(F0)
  6
Continuous
 62
     7
100
AcDbCircle
 10
421.7287405636
 20
284.579510794
 30
0.0
 40
6.749952227327939
100
AcDbArc
 50
89.9993978144
 51
165.7080390815
  0
ARC
  5
1AC
330
148
100
AcDbEntity
  8
$DDT_AUDIT_GENERATED_(F0)
  6
Continuous
 62
     7
100
AcDbCircle
 10
429.1640242267
 20
284.5797010466
 30
0.0
 40
14.07528670352725
100
AcDbArc
 50
173.2018294594
 51
186.7982802943
  0
ARC
  5
1AD
330
148
100
AcDbEntity
  8
$DDT_AUDIT_GENERATED_(F0)
  6
Continuous
 62
     7
100
AcDbCircle
 10
421.728619924
 20
284.5791086976
 30
0.0
 40
6.749645678898876
100
AcDbArc
 50
194.2860029724
 51
270.0016366958
  0
ARC
  5
1AE
330
148
100
AcDbEntity
  8
$DDT_AUDIT_GENERATED_(F0)
  6
Continuous
 62
     7
100
AcDbCircle
 10
421.7287533458
 20
284.5794630212
 30
0.0
 40
6.750000000000001
100
AcDbArc
 50
270.0005040905
 51
89.9995063174
  0
ARC
  5
1AF
330
148
100
AcDbEntity
  8
$DDT_AUDIT_GENERATED_(F0)
  6
Continuous
 62
     7
100
AcDbCircle
 10
426.0742716415
 20
284.5672233175
 30
0.0
 40
11.02623283463183
100
AcDbArc
 50
172.6006231823
 51
185.5926290548
  0
ARC
  5
1B0
330
148
100
AcDbEntity
  8
$DDT_AUDIT_GENERATED_(9E)
  6
Continuous
 62
     7
100
AcDbCircle
 10
421.7691386424
 20
284.5367340282
 30
0.0
 40
21.54378993459695
100
AcDbArc
 50
92.1033735477
 51
93.0668000472
  0
ARC
  5
1B1
330
148
100
AcDbEntity
  8
$DDT_AUDIT_GENERATED_(9E)
  6
Continuous
 62
     7
100
AcDbCircle
 10
421.6986566302
 20
284.5445875323
 30
0.0
 40
21.53346910511523
100
AcDbArc
 50
91.1675986075
 51
91.9167295426
  0
LINE
  5
1B2
330
148
100
AcDbEntity
  8
$DDT_AUDIT_GENERATED_(D3)
  6
Continuous
 62
     7
100
AcDbLine
 10
441.8191721102
 20
292.2361642607
 30
0.0
 11
441.8265967921
 21
292.2364235363
 31
0.0
  0
SPLINE
  5
1B3
330
148
100
AcDbEntity
  8
$DDT_AUDIT_GENERATED_(D3)
  6
Continuous
 62
     7
100
AcDbSpline
210
0.0
220
0.0
230
1.0
 70
     8
 71
     3
 72
    46
 73
    42
 74
     0
 42
0.0000000006700529
 43
0.0000000001
 40
0.5102238586189664
 40
0.5102238586189664
 40
0.5102238586189664
 40
0.5102238586189664
 40
0.5277654720109188
 40
0.5699683436633919
 40
0.6125882268919364
 40
0.6540903818957036
 40
0.6939774625794024
 40
0.7318069940881379
 40
0.7676492003024634
 40
0.8016094259496851
 40
0.8179259875423169
 40
0.8339117369629512
 40
0.8550946959315884
 40
0.8766632823687303
 40
0.8945059668748852
 40
0.9045579665182801
 40
0.9115962566772082
 40
0.9155932088968032
 40
0.9161415449271059
 40
0.9165378216204892
 40
0.9166964082664785
 40
0.9168442602975577
 40
0.916997448289962
 40
0.9171705591083811
 40
0.9176127544890623
 40
0.9199582208591909
 40
0.9257193764146413
 40
0.9297426447441716
 40
0.9343576787047132
 40
0.9377050062918827
 40
0.9387571059541212
 40
0.9391550663265518
 40
0.939492208784179
 40
0.9398023767551668
 40
0.9401278758218038
 40
0.9405059001843653
 40
0.9409609861714958
 40
0.9437538662555861
 40
0.9547124625316671
 40
0.9733159169841998
 40
1.0
 40
1.0
 40
1.0
 40
1.0
 10
443.7274138219566
 20
285.5428827318806
 30
0.0
 10
443.722070579728
 20
285.6761465580281
 30
0.0
 10
443.6997676721357
 20
286.1296907680502
 30
0.0
 10
443.6377795978678
 20
286.9025333592094
 30
0.0
 10
443.5195214743798
 20
287.8394883346789
 30
0.0
 10
443.3656175518338
 20
288.7319255945244
 30
0.0
 10
443.1870779598003
 20
289.5525968829343
 30
0.0
 10
442.996196548804
 20
290.284997011078
 30
0.0
 10
442.805289501745
 20
290.9180704473362
 30
0.0
 10
442.6532301021163
 20
291.3645066717178
 30
0.0
 10
442.5453217332352
 20
291.6556631623176
 30
0.0
 10
442.4669640504434
 20
291.8539020820773
 30
0.0
 10
442.4034473148432
 20
291.9945307747273
 30
0.0
 10
442.3788288392911
 20
292.0174380755239
 30
0.0
 10
442.3557750118202
 20
292.0351283305887
 30
0.0
 10
442.3347370799528
 20
292.0524690698516
 30
0.0
 10
442.3154570570732
 20
292.0688432262811
 30
0.0
 10
442.3014662965949
 20
292.0808970599368
 30
0.0
 10
442.2871351231349
 20
292.0932079508808
 30
0.0
 10
442.2825485832704
 20
292.0971384118895
 30
0.0
 10
442.2787534314523
 20
292.1003807286278
 30
0.0
 10
442.2760472259598
 20
292.1026876559699
 30
0.0
 10
442.2733638505968
 20
292.1049694485876
 30
0.0
 10
442.2695600267601
 20
292.1081951656226
 30
0.0
 10
442.2585874664563
 20
292.1174497400263
 30
0.0
 10
442.2437173904671
 20
292.1296934759891
 30
0.0
 10
442.2297931364911
 20
292.1407882751827
 30
0.0
 10
442.216663988197
 20
292.1507923791402
 30
0.0
 10
442.208497197914
 20
292.157007276269
 30
0.0
 10
442.1974336055546
 20
292.1644192428148
 30
0.0
 10
442.1834707310871
 20
292.1722794856403
 30
0.0
 10
442.1753074482933
 20
292.1765319112732
 30
0.0
 10
442.1691812940425
 20
292.1795866272433
 30
0.0
 10
442.162456497668
 20
292.1827894407956
 30
0.0
 10
442.1554423564501
 20
292.1859750781297
 30
0.0
 10
442.1482841604967
 20
292.1890772411972
 30
0.0
 10
442.128918532729
 20
292.1970693158198
 30
0.0
 10
442.0785848601751
 20
292.2143416237689
 30
0.0
 10
442.0046356887205
 20
292.2301255736236
 30
0.0
 10
441.8969192899612
 20
292.2391789189031
 30
0.0
 10
441.8320912634023
 20
292.2375205753293
 30
0.0
 10
441.7879510890567
 20
292.2352274989168
 30
0.0
  0
LINE
  5
1B5
330
148
100
AcDbEntity
  8
04273038_SITZ-RS
  6
Continuous
 62
     7
100
AcDbLine
 10
365.0287533458
 20
268.6794630212
 30
0.0
 11
365.0287533458
 21
292.4794630212
 31
0.0
  0
LINE
  5
1B6
330
148
100
AcDbEntity
  8
04273038_SITZ-RS
  6
Continuous
 62
     7
100
AcDbLine
 10
383.4287533458
 20
292.4794630212
 30
0.0
 11
365.0287533458
 21
292.4794630212
 31
0.0
  0
LINE
  5
1B7
330
148
100
AcDbEntity
  8
04273038_SITZ-RS
  6
Continuous
 62
     7
100
AcDbLine
 10
365.0287533458
 20
268.6794630212
 30
0.0
 11
383.4287533458
 21
268.6794630212
 31
0.0
  0
ENDBLK
  5
1B9
330
148
100
AcDbEntity
  8
0
100
AcDbBlockEnd
  0
BLOCK
  5
26E
330
1BA
100
AcDbEntity
  8
0
100
AcDbBlockBegin
  2
SE2
 70
     0
 10
0.0
 20
0.0
 30
0.0
  3
SE2
  1

  0
LINE
  5
1BC
330
1BA
100
AcDbEntity
  8
$DDT_AUDIT_GENERATED_(7F)
  6
Continuous
 62
     7
100
AcDbLine
 10
71.499965458
 20
166.6791776976
 30
0.0
 11
228.499965458
 21
166.6791776976
 31
0.0
  0
LINE
  5
1BD
330
1BA
100
AcDbEntity
  8
$DDT_AUDIT_GENERATED_(7F)
  6
Continuous
 62
     7
100
AcDbLine
 10
228.999965458
 20
128.8534609813
 30
0.0
 11
228.999965458
 21
107.3791776977
 31
0.0
  0
LINE
  5
1BE
330
1BA
100
AcDbEntity
  8
$DDT_AUDIT_GENERATED_(7F)
  6
Continuous
 62
     7
100
AcDbLine
 10
228.999965458
 20
166.1791776976
 30
0.0
 11
228.999965458
 21
128.8534609813
 31
0.0
  0
LINE
  5
1BF
330
1BA
100
AcDbEntity
  8
$DDT_AUDIT_GENERATED_(7F)
  6
Continuous
 62
     7
100
AcDbLine
 10
70.999965458
 20
107.3791776977
 30
0.0
 11
70.999965458
 21
128.8534609813
 31
0.0
  0
LINE
  5
1C0
330
1BA
100
AcDbEntity
  8
$DDT_AUDIT_GENERATED_(7F)
  6
Continuous
 62
     7
100
AcDbLine
 10
70.999965458
 20
128.8534609813
 30
0.0
 11
70.999965458
 21
166.1791776976
 31
0.0
  0
ARC
  5
1C1
330
1BA
100
AcDbEntity
  8
$DDT_AUDIT_GENERATED_(7F)
  6
Continuous
 62
     7
100
AcDbCircle
 10
228.499965458
 20
166.1791776976
 30
0.0
 40
0.5000000000000004
100
AcDbArc
 50
0.0
 51
90.0
  0
ARC
  5
1C2
330
1BA
100
AcDbEntity
  8
$DDT_AUDIT_GENERATED_(7F)
  6
Continuous
 62
     7
100
AcDbCircle
 10
71.499965458
 20
166.1791776976
 30
0.0
 40
0.5000000000000004
100
AcDbArc
 50
90.0
 51
180.0
  0
ARC
  5
1C3
330
1BA
100
AcDbEntity
  8
$DDT_AUDIT_GENERATED_(7F)
  6
Continuous
 62
     7
100
AcDbCircle
 10
228.499965458
 20
107.3791776977
 30
0.0
 40
0.5000000000000004
100
AcDbArc
 50
270.0
 51
0.0
  0
ARC
  5
1C4
330
1BA
100
AcDbEntity
  8
$DDT_AUDIT_GENERATED_(7F)
  6
Continuous
 62
     7
100
AcDbCircle
 10
71.499965458
 20
107.3791776977
 30
0.0
 40
0.5000000000000004
100
AcDbArc
 50
180.0
 51
270.0
  0
LINE
  5
1C5
330
1BA
100
AcDbEntity
  8
$DDT_AUDIT_GENERATED_(7F)
  6
Continuous
 62
     7
100
AcDbLine
 10
71.499965458
 20
106.8791776977
 30
0.0
 11
228.499965458
 21
106.8791776977
 31
0.0
  0
LINE
  5
1C6
330
1BA
100
AcDbEntity
  8
$DDT_AUDIT_GENERATED_(151)
  6
Continuous
 62
     7
100
AcDbLine
 10
101.4999243768
 20
199.5791776976
 30
0.0
 11
78.5000065391
 21
199.5791776976
 31
0.0
  0
LINE
  5
1C7
330
1BA
100
AcDbEntity
  8
$DDT_AUDIT_GENERATED_(151)
  6
Continuous
 62
     7
100
AcDbLine
 10
101.499924381
 20
185.5791776976
 30
0.0
 11
78.500006535
 21
185.5791776976
 31
0.0
  0
LINE
  5
1C8
330
1BA
100
AcDbEntity
  8
$DDT_AUDIT_GENERATED_(151)
  6
Continuous
 62
     7
100
AcDbLine
 10
77.999965458
 20
197.0791253984
 30
0.0
 11
77.999965458
 21
198.9525857376
 31
0.0
  0
LINE
  5
1C9
330
1BA
100
AcDbEntity
  8
$DDT_AUDIT_GENERATED_(151)
  6
Continuous
 62
     7
100
AcDbLine
 10
77.999965458
 20
188.0792299879
 30
0.0
 11
77.999965458
 21
197.0791253984
 31
0.0
  0
LINE
  5
1CA
330
1BA
100
AcDbEntity
  8
$DDT_AUDIT_GENERATED_(151)
  6
Continuous
 62
     7
100
AcDbLine
 10
77.999965458
 20
188.0792299879
 30
0.0
 11
77.999965458
 21
186.2057696523
 31
0.0
  0
LINE
  5
1CB
330
1BA
100
AcDbEntity
  8
$DDT_AUDIT_GENERATED_(151)
  6
Continuous
 62
     7
100
AcDbLine
 10
101.999965458
 20
197.0791253984
 30
0.0
 11
100.3300924769
 21
197.0791253984
 31
0.0
  0
LINE
  5
1CC
330
1BA
100
AcDbEntity
  8
$DDT_AUDIT_GENERATED_(151)
  6
Continuous
 62
     7
100
AcDbLine
 10
101.999965458
 20
188.0792299879
 30
0.0
 11
100.3300924769
 21
188.0792299879
 31
0.0
  0
LINE
  5
1CD
330
1BA
100
AcDbEntity
  8
$DDT_AUDIT_GENERATED_(151)
  6
Continuous
 62
     7
100
AcDbLine
 10
101.999965458
 20
197.0791253984
 30
0.0
 11
101.999965458
 21
198.9525857376
 31
0.0
  0
LINE
  5
1CE
330
1BA
100
AcDbEntity
  8
$DDT_AUDIT_GENERATED_(151)
  6
Continuous
 62
     7
100
AcDbLine
 10
101.999965458
 20
188.0792299879
 30
0.0
 11
101.999965458
 21
197.0791253984
 31
0.0
  0
LINE
  5
1CF
330
1BA
100
AcDbEntity
  8
$DDT_AUDIT_GENERATED_(151)
  6
Continuous
 62
     7
100
AcDbLine
 10
101.999965458
 20
188.0792299879
 30
0.0
 11
101.999965458
 21
186.2057696523
 31
0.0
  0
LINE
  5
1D0
330
1BA
100
AcDbEntity
  8
$DDT_AUDIT_GENERATED_(151)
  6
Continuous
 62
     7
100
AcDbLine
 10
91.669838439
 20
197.0791253984
 30
0.0
 11
88.3300924769
 21
197.0791253984
 31
0.0
  0
LINE
  5
1D1
330
1BA
100
AcDbEntity
  8
$DDT_AUDIT_GENERATED_(151)
  6
Continuous
 62
     7
100
AcDbLine
 10
91.669838439
 20
188.0792299879
 30
0.0
 11
88.3300924769
 21
188.0792299879
 31
0.0
  0
LINE
  5
1D2
330
1BA
100
AcDbEntity
  8
$DDT_AUDIT_GENERATED_(151)
  6
Continuous
 62
     7
100
AcDbLine
 10
100.3300924769
 20
188.0792299879
 30
0.0
 11
100.3300924769
 21
197.0791253984
 31
0.0
  0
ARC
  5
1D3
330
1BA
100
AcDbEntity
  8
$DDT_AUDIT_GENERATED_(151)
  6
Continuous
 62
     7
100
AcDbCircle
 10
95.999965458
 20
193.0643106793
 30
0.0
 40
5.904975633222589
100
AcDbArc
 50
42.8361174559
 51
137.1638825441
  0
LINE
  5
1D4
330
1BA
100
AcDbEntity
  8
$DDT_AUDIT_GENERATED_(151)
  6
Continuous
 62
     7
100
AcDbLine
 10
91.669838439
 20
188.0792299879
 30
0.0
 11
91.669838439
 21
197.0791253984
 31
0.0
  0
ARC
  5
1D5
330
1BA
100
AcDbEntity
  8
$DDT_AUDIT_GENERATED_(151)
  6
Continuous
 62
     7
100
AcDbCircle
 10
95.999965458
 20
192.0940447184
 30
0.0
 40
5.904975640952878
100
AcDbArc
 50
222.8361175368
 51
317.1638824632
  0
LINE
  5
1D6
330
1BA
100
AcDbEntity
  8
$DDT_AUDIT_GENERATED_(151)
  6
Continuous
 62
     7
100
AcDbLine
 10
79.669838439
 20
197.0791253984
 30
0.0
 11
77.999965458
 21
197.0791253984
 31
0.0
  0
LINE
  5
1D7
330
1BA
100
AcDbEntity
  8
$DDT_AUDIT_GENERATED_(151)
  6
Continuous
 62
     7
100
AcDbLine
 10
79.669838439
 20
188.0792299879
 30
0.0
 11
77.999965458
 21
188.0792299879
 31
0.0
  0
LINE
  5
1D8
330
1BA
100
AcDbEntity
  8
$DDT_AUDIT_GENERATED_(151)
  6
Continuous
 62
     7
100
AcDbLine
 10
88.3300924769
 20
188.0792299879
 30
0.0
 11
88.3300924769
 21
197.0791253984
 31
0.0
  0
ARC
  5
1D9
330
1BA
100
AcDbEntity
  8
$DDT_AUDIT_GENERATED_(151)
  6
Continuous
 62
     7
100
AcDbCircle
 10
83.999965458
 20
193.0643106793
 30
0.0
 40
5.904975633222602
100
AcDbArc
 50
42.8361174559
 51
137.1638825441
  0
LINE
  5
1DA
330
1BA
100
AcDbEntity
  8
$DDT_AUDIT_GENERATED_(151)
  6
Continuous
 62
     7
100
AcDbLine
 10
79.669838439
 20
188.0792299879
 30
0.0
 11
79.669838439
 21
197.0791253984
 31
0.0
  0
ARC
  5
1DB
330
1BA
100
AcDbEntity
  8
$DDT_AUDIT_GENERATED_(151)
  6
Continuous
 62
     7
100
AcDbCircle
 10
83.999965458
 20
192.0940447184
 30
0.0
 40
5.904975640952896
100
AcDbArc
 50
222.8361175368
 51
317.1638824632
  0
ARC
  5
1DC
330
1BA
100
AcDbEntity
  8
$DDT_AUDIT_GENERATED_(151)
  6
Continuous
 62
     7
100
AcDbCircle
 10
95.504865458
 20
194.2820776976
 30
0.0
 40
7.999999990652696
100
AcDbArc
 50
35.7155195923
 51
41.4630952038
  0
ARC
  5
1DD
330
1BA
100
AcDbEntity
  8
$DDT_AUDIT_GENERATED_(151)
  6
Continuous
 62
     7
100
AcDbCircle
 10
84.495065458
 20
194.2820776976
 30
0.0
 40
7.999999990652688
100
AcDbArc
 50
138.5369047962
 51
144.2846358145
  0
ARC
  5
1DE
330
1BA
100
AcDbEntity
  8
$DDT_AUDIT_GENERATED_(151)
  6
Continuous
 62
     7
100
AcDbCircle
 10
95.504865458
 20
190.8762776976
 30
0.0
 40
7.999999993769197
100
AcDbArc
 50
318.536904816
 51
324.2846357835
  0
ARC
  5
1DF
330
1BA
100
AcDbEntity
  8
$DDT_AUDIT_GENERATED_(151)
  6
Continuous
 62
     7
100
AcDbCircle
 10
84.495065458
 20
190.8762776976
 30
0.0
 40
7.999999993769193
100
AcDbArc
 50
215.7155196233
 51
221.463095184
  0
LINE
  5
1E0
330
1BA
100
AcDbEntity
  8
$DDT_AUDIT_GENERATED_(17C)
  6
Continuous
 62
     7
100
AcDbLine
 10
80.749965458
 20
185.5791776976
 30
0.0
 11
80.749965458
 21
185.0791776976
 31
0.0
  0
LINE
  5
1E1
330
1BA
100
AcDbEntity
  8
$DDT_AUDIT_GENERATED_(17C)
  6
Continuous
 62
     7
100
AcDbLine
 10
99.249965458
 20
185.0791776976
 30
0.0
 11
99.249965458
 21
185.5791776976
 31
0.0
  0
SPLINE
  5
1E2
330
1BA
100
AcDbEntity
  8
$DDT_AUDIT_GENERATED_(9E)
  6
Continuous
 62
     7
100
AcDbSpline
210
0.0
220
0.0
230
1.0
 70
     8
 71
     3
 72
    32
 73
    28
 74
     0
 42
0.0000000001394932
 43
0.0000000001
 40
0.0
 40
0.0
 40
0.0
 40
0.0
 40
0.0077917640137522
 40
0.0156072536969902
 40
0.0234222533189709
 40
0.0312369368106279
 40
0.0468649728254807
 40
0.0624915892780614
 40
0.0781271557443543
 40
0.0937619142951139
 40
0.1093868416777524
 40
0.1250057427240759
 40
0.1562358797774056
 40
0.1874602629411938
 40
0.2186807347803089
 40
0.2499074563384915
 40
0.3123006457960775
 40
0.3747874462560909
 40
0.4372984041175734
 40
0.4998225491503592
 40
0.5623428440919812
 40
0.5936034420238486
 40
0.6248647581733979
 40
0.7499088421362406
 40
0.8749542389673247
 40
0.9374772010030827
 40
1.0
 40
1.0
 40
1.0
 40
1.0
 10
8.885350475193482
 20
128.3800227862832
 30
0.0
 10
8.885439632444008
 20
128.5668391519066
 30
0.0
 10
8.8862291005119
 20
128.9393462937269
 30
0.0
 10
8.89879928142695
 20
129.4982685647565
 30
0.0
 10
8.92114759257409
 20
130.0574211693584
 30
0.0
 10
8.964413085719048
 20
130.8022269125624
 30
0.0
 10
9.04352052427021
 20
131.7316101035054
 30
0.0
 10
9.190754543930396
 20
132.8415489039871
 30
0.0
 10
9.403858669654873
 20
133.9411694967789
 30
0.0
 10
9.691638189359697
 20
135.0237702281865
 30
0.0
 10
10.05764909641058
 20
136.0822027330203
 30
0.0
 10
10.64721696616017
 20
137.4528892922665
 30
0.0
 10
11.56811220881543
 20
139.0814158575725
 30
0.0
 10
12.97143461533706
 20
140.8362718193769
 30
0.0
 10
14.67587830532849
 20
142.3035195590637
 30
0.0
 10
17.2598264976726
 20
143.8160134633391
 30
0.0
 10
20.85078973636556
 20
144.9393268736584
 30
0.0
 10
25.27094913426933
 20
145.6334889226086
 30
0.0
 10
29.72686305350381
 20
146.0724512025645
 30
0.0
 10
34.19387257088766
 20
146.366379088736
 30
0.0
 10
37.92065578183021
 20
146.5392008043778
 30
0.0
 10
40.90334107298657
 20
146.6409799276932
 30
0.0
 10
45.37835503080952
 20
146.7639691378453
 30
0.0
 10
52.09300465619565
 20
146.8599381019899
 30
0.0
 10
59.55399452967364
 20
146.9099913642947
 30
0.0
 10
65.52294124597611
 20
146.9305403490878
 30
0.0
 10
68.50742905656448
 20
146.9342785975373
 30
0.0
 10
69.9929471253441
 20
146.935682753605
 30
0.0
  0
ARC
  5
1E3
330
1BA
100
AcDbEntity
  8
$DDT_AUDIT_GENERATED_(9E)
  6
Continuous
 62
     7
100
AcDbCircle
 10
45.2798249489
 20
95.6461927151
 30
0.0
 40
14.50915827540177
100
AcDbArc
 50
51.8655054694
 51
93.2230271955
  0
ARC
  5
1E4
330
1BA
100
AcDbEntity
  8
$DDT_AUDIT_GENERATED_(9E)
  6
Continuous
 62
     7
100
AcDbCircle
 10
43.9491383565
 20
155.1885562559
 30
0.0
 40
45.05909764941974
100
AcDbArc
 50
268.6044372285
 51
270.654798172
  0
SPLINE
  5
1E5
330
1BA
100
AcDbEntity
  8
$DDT_AUDIT_GENERATED_(9E)
  6
Continuous
 62
     7
100
AcDbSpline
210
0.0
220
0.0
230
1.0
 70
     8
 71
     3
 72
    26
 73
    22
 74
     0
 42
0.0000000002243362
 43
0.0000000001
 40
0.0
 40
0.0
 40
0.0
 40
0.0
 40
0.0080569210562611
 40
0.0161101456242893
 40
0.0322196710422493
 40
0.0644389606831225
 40
0.1288769539663393
 40
0.2577421416756586
 40
0.3221799271353364
 40
0.3866168641996609
 40
0.4323069054467842
 40
0.5154667447441489
 40
0.6331671270430762
 40
0.7190801576696852
 40
0.7725106697236338
 40
0.84867391756156
 40
0.8755069169531907
 40
0.9527722412480357
 40
0.97486423506604
 40
0.9969609663067589
 40
1.0
 40
1.0
 40
1.0
 40
1.0
 10
42.85173498491249
 20
110.1428240848926
 30
0.0
 10
42.73278185659586
 20
110.1466957119604
 30
0.0
 10
42.49493111286625
 20
110.1542773956364
 30
0.0
 10
42.01847203060895
 20
110.164504248625
 30
0.0
 10
41.18456641669849
 20
110.1768945771627
 30
0.0
 10
39.51687101441641
 20
110.2093420583109
 30
0.0
 10
36.18221236864203
 20
110.2987820370798
 30
0.0
 10
32.37386655173814
 20
110.5080999522175
 30
0.0
 10
28.5778994376163
 20
110.8635292046596
 30
0.0
 10
26.00944594300203
 20
111.1287331641992
 30
0.0
 10
23.17448467154717
 20
111.5082285567676
 30
0.0
 10
19.59249485103706
 20
112.1780189976988
 30
0.0
 10
15.53958893527654
 20
113.6853215519598
 30
0.0
 10
12.63761061190521
 20
116.2489723547454
 30
0.0
 10
10.81580201336221
 20
118.8796705907457
 30
0.0
 10
9.89585907560589
 20
121.0284892696627
 30
0.0
 10
9.210141257957133
 20
123.6061200926045
 30
0.0
 10
8.97471857874485
 20
125.4693267534362
 30
0.0
 10
8.897629209754953
 20
127.2637645722951
 30
0.0
 10
8.886694730108058
 20
127.9624286696456
 30
0.0
 10
8.885867398705699
 20
128.3342256685578
 30
0.0
 10
8.885350475193482
 20
128.3800227862832
 30
0.0
  0
LINE
  5
1E6
330
1BA
100
AcDbEntity
  8
$DDT_AUDIT_GENERATED_(9E)
  6
Continuous
 62
     7
100
AcDbLine
 10
70.299965458
 20
128.3791776965
 30
0.0
 11
70.299965458
 21
107.1770270241
 31
0.0
  0
LINE
  5
1E7
330
1BA
100
AcDbEntity
  8
$DDT_AUDIT_GENERATED_(9E)
  6
Continuous
 62
     7
100
AcDbLine
 10
70.299965458
 20
146.0221291036
 30
0.0
 11
70.299965458
 21
128.3791776965
 31
0.0
  0
LINE
  5
1E8
330
1BA
100
AcDbEntity
  8
$DDT_AUDIT_GENERATED_(9E)
  6
Continuous
 62
     7
100
AcDbLine
 10
70.299965458
 20
146.6754351509
 30
0.0
 11
70.299965458
 21
146.0222532484
 31
0.0
  0
LINE
  5
1E9
330
1BA
100
AcDbEntity
  8
$DDT_AUDIT_GENERATED_(9E)
  6
Continuous
 62
     7
100
AcDbLine
 10
70.299965458
 20
146.6757223273
 30
0.0
 11
70.299965458
 21
149.5450929697
 31
0.0
  0
ARC
  5
1EA
330
1BA
100
AcDbEntity
  8
$DDT_AUDIT_GENERATED_(9E)
  6
Continuous
 62
     7
100
AcDbCircle
 10
-58.8880118062
 20
148.2890966049
 30
0.0
 40
128.8948239037839
100
AcDbArc
 50
359.398343619
 51
0.6996293008
  0
LINE
  5
1EB
330
1BA
100
AcDbEntity
  8
$DDT_AUDIT_GENERATED_(9E)
  6
Continuous
 62
     7
100
AcDbLine
 10
69.9998869822
 20
106.8770270343
 30
0.0
 11
67.3528838232
 21
106.8786350113
 31
0.0
  0
ARC
  5
1EC
330
1BA
100
AcDbEntity
  8
$DDT_AUDIT_GENERATED_(9E)
  6
Continuous
 62
     7
100
AcDbCircle
 10
69.999965458
 20
107.1770270241
 30
0.0
 40
0.2999999999999947
100
AcDbArc
 50
269.9850122312
 51
0.0
  0
SPLINE
  5
1ED
330
1BA
100
AcDbEntity
  8
$DDT_AUDIT_GENERATED_(9E)
  6
Continuous
 62
     7
100
AcDbSpline
210
0.0
220
0.0
230
1.0
 70
     8
 71
     5
 72
    12
 73
     6
 74
     0
 42
0.0000000012599331
 43
0.0000000001
 40
0.0
 40
0.0
 40
0.0
 40
0.0
 40
0.0
 40
0.0
 40
1.0
 40
1.0
 40
1.0
 40
1.0
 40
1.0
 40
1.0
 10
63.25123324083609
 20
106.8867847426074
 30
0.0
 10
61.55842985296329
 20
106.8919854589872
 30
0.0
 10
59.93254333940233
 20
106.899061690301
 30
0.0
 10
58.35386298041133
 20
106.9080157135864
 30
0.0
 10
56.81579840449084
 20
106.9184182012366
 30
0.0
 10
55.31449800159189
 20
106.9366055749582
 30
0.0
  0
ARC
  5
1EE
330
1BA
100
AcDbEntity
  8
$DDT_AUDIT_GENERATED_(9E)
  6
Continuous
 62
     7
100
AcDbCircle
 10
65.2581335099
 20
84.775834827
 30
0.0
 40
22.20184124930712
100
AcDbArc
 50
84.5860733967
 51
95.186240414
  0
ARC
  5
1EF
330
1BA
100
AcDbEntity
  8
$DDT_AUDIT_GENERATED_(9E)
  6
Continuous
 62
     7
100
AcDbCircle
 10
65.2583647737
 20
84.8922267885
 30
0.0
 40
22.08594930238878
100
AcDbArc
 50
84.8407282195
 51
85.0874354818
  0
ARC
  5
1F0
330
1BA
100
AcDbEntity
  8
$DDT_AUDIT_GENERATED_(9E)
  6
Continuous
 62
     7
100
AcDbCircle
 10
8.1674919687
 20
30.0544562129
 30
0.0
 40
98.32818702091407
100
AcDbArc
 50
89.5817005344
 51
90.3535746275
  0
SPLINE
  5
1F1
330
1BA
100
AcDbEntity
  8
$DDT_AUDIT_GENERATED_(9E)
  6
Continuous
 62
     7
100
AcDbSpline
210
0.0
220
0.0
230
1.0
 70
     8
 71
     3
 72
    14
 73
    10
 74
     0
 42
0.0000000006991365
 43
0.0000000001
 40
0.4995139341373717
 40
0.4995139341373717
 40
0.4995139341373717
 40
0.4995139341373717
 40
0.5000000000000001
 40
0.5000000000000001
 40
0.7500000000000001
 40
0.7500000000000001
 40
0.875
 40
0.875
 40
0.999929158191365
 40
0.999929158191365
 40
0.999929158191365
 40
0.999929158191365
 10
7.362916770991018
 20
135.5356358484358
 30
0.0
 10
7.362917879298353
 20
135.5356416932489
 30
0.0
 10
7.36291903057934
 20
135.5356447166178
 30
0.0
 10
7.363534401022664
 20
135.5357483213731
 30
0.0
 10
7.372907519421712
 20
134.760220412252
 30
0.0
 10
7.444083989910699
 20
132.7791998523755
 30
0.0
 10
7.479643600145192
 20
131.9836822123237
 30
0.0
 10
7.54156963509009
 20
130.265273824099
 30
0.0
 10
7.566768107919675
 20
129.318131437192
 30
0.0
 10
7.560718827833767
 20
128.3823628729961
 30
0.0
  0
ARC
  5
1F2
330
1BA
100
AcDbEntity
  8
$DDT_AUDIT_GENERATED_(9E)
  6
Continuous
 62
     7
100
AcDbCircle
 10
200.0987647568
 20
123.6511811852
 30
0.0
 40
192.5961373552628
100
AcDbArc
 50
178.5933180192
 51
180.7228673212
  0
ARC
  5
1F3
330
1BA
100
AcDbEntity
  8
$DDT_AUDIT_GENERATED_(9E)
  6
Continuous
 62
     7
100
AcDbCircle
 10
7.5532210385
 20
128.362500064
 30
0.0
 40
0.0197456003820305
100
AcDbArc
 50
67.7160609535
 51
90.7288122077
  0
ARC
  5
1F4
330
1BA
100
AcDbEntity
  8
$DDT_AUDIT_GENERATED_(9E)
  6
Continuous
 62
     7
100
AcDbCircle
 10
32.1645729756
 20
96.504058883
 30
0.0
 40
12.95175403153695
100
AcDbArc
 50
105.1631031632
 51
106.0219346999
  0
ARC
  5
1F5
330
1BA
100
AcDbEntity
  8
$DDT_AUDIT_GENERATED_(9E)
  6
Continuous
 62
     7
100
AcDbCircle
 10
31.6487663212
 20
98.4963639915
 30
0.0
 40
10.89529408811067
100
AcDbArc
 50
102.10519455
 51
106.9254737591
  0
ARC
  5
1F6
330
1BA
100
AcDbEntity
  8
$DDT_AUDIT_GENERATED_(9E)
  6
Continuous
 62
     7
100
AcDbCircle
 10
32.2638205933
 20
96.2826108739
 30
0.0
 40
13.18951697830278
100
AcDbArc
 50
86.0197256504
 51
102.7009384706
  0
ARC
  5
1F7
330
1BA
100
AcDbEntity
  8
$DDT_AUDIT_GENERATED_(9E)
  6
Continuous
 62
     7
100
AcDbCircle
 10
42.7605165005
 20
293.6123764141
 30
0.0
 40
184.4211135366181
100
AcDbArc
 50
267.0219898832
 51
270.025436333
  0
ARC
  5
1F8
330
1BA
100
AcDbEntity
  8
$DDT_AUDIT_GENERATED_(9E)
  6
Continuous
 62
     7
100
AcDbCircle
 10
45.6666799028
 20
99.2118834084
 30
0.0
 40
9.886972196679856
100
AcDbArc
 50
62.2900953984
 51
67.8265158189
  0
ARC
  5
1F9
330
1BA
100
AcDbEntity
  8
$DDT_AUDIT_GENERATED_(9E)
  6
Continuous
 62
     7
100
AcDbCircle
 10
45.4802083458
 20
99.0766355965
 30
0.0
 40
10.08332814638907
100
AcDbArc
 50
67.1353301386
 51
89.1264631802
  0
ARC
  5
1FA
330
1BA
100
AcDbEntity
  8
$DDT_AUDIT_GENERATED_(9E)
  6
Continuous
 62
     7
100
AcDbCircle
 10
42.6723472573
 20
-25.3632651495
 30
0.0
 40
134.5546536459053
100
AcDbArc
 50
88.7388016228
 51
89.9275928068
  0
ARC
  5
1FB
330
1BA
100
AcDbEntity
  8
$DDT_AUDIT_GENERATED_(9E)
  6
Continuous
 62
     7
100
AcDbCircle
 10
28.4935004786
 20
109.1189315467
 30
0.0
 40
0.2000000001205187
100
AcDbArc
 50
265.1537346215
 51
303.9325073552
  0
SPLINE
  5
1FC
330
1BA
100
AcDbEntity
  8
$DDT_AUDIT_GENERATED_(9E)
  6
Continuous
 62
     7
100
AcDbSpline
210
0.0
220
0.0
230
1.0
 70
     8
 71
     3
 72
    12
 73
     8
 74
     0
 42
0.0000000007034429
 43
0.0000000001
 40
0.49978272326868
 40
0.49978272326868
 40
0.49978272326868
 40
0.49978272326868
 40
0.5
 40
0.5
 40
0.75
 40
0.75
 40
0.9999924690054512
 40
0.9999924690054512
 40
0.9999924690054512
 40
0.9999924690054512
 10
7.355327897665437
 20
135.4877794299973
 30
0.0
 10
7.355328410583478
 20
135.4877806614377
 30
0.0
 10
7.355328930752275
 20
135.4877813115754
 30
0.0
 10
7.355936289148546
 20
135.4878604063098
 30
0.0
 10
7.365790278105022
 20
134.7243536519502
 30
0.0
 10
7.461454221938085
 20
132.0899930303202
 30
0.0
 10
7.565841163238884
 20
130.2594623551901
 30
0.0
 10
7.55297104128444
 20
128.3824137046647
 30
0.0
  0
SPLINE
  5
1FD
330
1BA
100
AcDbEntity
  8
$DDT_AUDIT_GENERATED_(9E)
  6
Continuous
 62
     7
100
AcDbSpline
210
0.0
220
0.0
230
1.0
 70
     8
 71
     3
 72
    12
 73
     8
 74
     0
 42
0.000000000703411
 43
0.0000000001
 40
0.0000226843881473
 40
0.0000226843881473
 40
0.0000226843881473
 40
0.0000226843881473
 40
0.25
 40
0.25
 40
0.5
 40
0.5
 40
0.5002230596356773
 40
0.5002230596356773
 40
0.5002230596356773
 40
0.5002230596356773
 10
7.552969949049137
 20
128.3817329581935
 30
0.0
 10
7.553226358593179
 20
126.5042978979908
 30
0.0
 10
7.496308369373511
 20
124.657334185165
 30
0.0
 10
7.486678090274257
 20
122.0423671439163
 30
0.0
 10
7.509311014765208
 20
121.2723312579948
 30
0.0
 10
7.509167735947897
 20
121.271916340449
 30
0.0
 10
7.509167591150668
 20
121.2719165784432
 30
0.0
 10
7.509167429315261
 20
121.2719174241585
 30
0.0
  0
ARC
  5
1FE
330
1BA
100
AcDbEntity
  8
$DDT_AUDIT_GENERATED_(9E)
  6
Continuous
 62
     7
100
AcDbCircle
 10
55.2629026949
 20
111.3699084687
 30
0.0
 40
4.426967993800587
100
AcDbArc
 50
256.646031168
 51
270.6682752971
  0
SPLINE
  5
1FF
330
1BA
100
AcDbEntity
  8
$DDT_AUDIT_GENERATED_(9E)
  6
Continuous
 62
     7
100
AcDbSpline
210
0.0
220
0.0
230
1.0
 70
     8
 71
     3
 72
    25
 73
    21
 74
     0
 42
0.0000000003813721
 43
0.0000000001
 40
0.0
 40
0.0
 40
0.0
 40
0.0
 40
0.0140201469770386
 40
0.0853375996592282
 40
0.153435004983603
 40
0.2186421191157723
 40
0.281032886102591
 40
0.3403952067838081
 40
0.3964224482134566
 40
0.4487988920122185
 40
0.4972330419251872
 40
0.5554288119942243
 40
0.6065365323117029
 40
0.6512365309062831
 40
0.6986478694756172
 40
0.753631289452417
 40
0.815957178804531
 40
0.8849818430019695
 40
0.9576154133172451
 40
1.0
 40
1.0
 40
1.0
 40
1.0
 10
7.525951973488709
 20
121.2467338459786
 30
0.0
 10
7.56052873921223
 20
121.1165954172651
 30
0.0
 10
7.742128202480936
 20
120.4377805076275
 30
0.0
 10
8.272637045633747
 20
119.1556115038176
 30
0.0
 10
9.080003065860238
 20
117.5767849083435
 30
0.0
 10
10.02840123502899
 20
116.1463788913108
 30
0.0
 10
11.06790509985964
 20
114.8853342921926
 30
0.0
 10
12.17899216335425
 20
113.7967766995657
 30
0.0
 10
13.32939371866418
 20
112.8859408496853
 30
0.0
 10
14.48327202086785
 20
112.1448114112365
 30
0.0
 10
15.71303433066915
 20
111.4974979889723
 30
0.0
 10
16.98300742341694
 20
110.9599779670046
 30
0.0
 10
18.25809569515652
 20
110.530298101691
 30
0.0
 10
19.46380248144403
 20
110.197142322244
 30
0.0
 10
20.71608883943968
 20
109.9099276693861
 30
0.0
 10
22.12944987523424
 20
109.6450243163103
 30
0.0
 10
23.74136813294067
 20
109.403583049118
 30
0.0
 10
25.49872673785963
 20
109.1946649320339
 30
0.0
 10
27.13732468769344
 20
109.0345600684444
 30
0.0
 10
28.07110875535732
 20
108.9554040553119
 30
0.0
 10
28.47676645023012
 20
108.9214805696905
 30
0.0
  0
ARC
  5
200
330
1BA
100
AcDbEntity
  8
$DDT_AUDIT_GENERATED_(9E)
  6
Continuous
 62
     7
100
AcDbCircle
 10
42.4630562972
 20
64.525504123
 30
0.0
 40
44.13277773915915
100
AcDbArc
 50
74.5260317965
 51
79.8186538025
  0
ARC
  5
201
330
1BA
100
AcDbEntity
  8
$DDT_AUDIT_GENERATED_(9E)
  6
Continuous
 62
     7
100
AcDbCircle
 10
69.999965458
 20
149.545093506
 30
0.0
 40
0.2999999999971898
100
AcDbArc
 50
0.0
 51
90.1931489858
  0
SPLINE
  5
202
330
1BA
100
AcDbEntity
  8
$DDT_AUDIT_GENERATED_(9E)
  6
Continuous
 62
     7
100
AcDbSpline
210
0.0
220
0.0
230
1.0
 70
     8
 71
     3
 72
    56
 73
    52
 74
     0
 42
0.0000000001380033
 43
0.0000000001
 40
0.0
 40
0.0
 40
0.0
 40
0.0
 40
0.0105839629137743
 40
0.0259612910640905
 40
0.0401937729437562
 40
0.0536596602033875
 40
0.066543491687354
 40
0.086929146140165
 40
0.1059059698101208
 40
0.1231017961813039
 40
0.1407627011742601
 40
0.1546908922517
 40
0.1647093553515788
 40
0.1719579551110511
 40
0.1793206823720497
 40
0.1920774015145013
 40
0.2053258828148854
 40
0.2196608152312802
 40
0.2389132958358791
 40
0.2606069875208559
 40
0.2850091629816844
 40
0.3122279869094724
 40
0.3422844075051237
 40
0.3730998645971764
 40
0.4023022550769255
 40
0.4397984696601126
 40
0.4741982925159083
 40
0.5054979101440257
 40
0.5338569000837499
 40
0.5582810959761665
 40
0.5819573083643826
 40
0.6021154747550898
 40
0.6227311305392328
 40
0.6440338757177481
 40
0.6657061905709386
 40
0.6878671905022504
 40
0.710457557566948
 40
0.7330369317087636
 40
0.7480045250876253
 40
0.762926584948538
 40
0.7787144872744257
 40
0.7970533549966349
 40
0.8180162031714825
 40
0.8415853486905153
 40
0.8676437617844993
 40
0.8923578776883768
 40
0.9187442592005649
 40
0.9466586766426393
 40
0.9759201842562927
 40
0.9987134274757802
 40
1.0
 40
1.0
 40
1.0
 40
1.0
 10
69.99731544041474
 20
149.8666649088033
 30
0.0
 10
69.71636234988077
 20
149.8670318726568
 30
0.0
 10
69.13289700663208
 20
149.8700336498169
 30
0.0
 10
68.14094373331733
 20
149.9141308511664
 30
0.0
 10
67.11262223816767
 20
150.0243046838824
 30
0.0
 10
66.14767400079855
 20
150.2066734003346
 30
0.0
 10
65.06073656306721
 20
150.5107674872357
 30
0.0
 10
63.88716648431976
 20
150.981737419966
 30
0.0
 10
62.68128484528622
 20
151.6245582482765
 30
0.0
 10
61.58012390635001
 20
152.3149574315997
 30
0.0
 10
60.60803154436016
 20
152.9792057493241
 30
0.0
 10
59.78312559579773
 20
153.5516305673543
 30
0.0
 10
59.15938228950412
 20
153.9731875190988
 30
0.0
 10
58.66078662367716
 20
154.2967894279833
 30
0.0
 10
58.09896908146168
 20
154.6440796582991
 30
0.0
 10
57.39748459132543
 20
155.0404428476673
 30
0.0
 10
56.51693614914031
 20
155.4581078186873
 30
0.0
 10
55.45287041582009
 20
155.8450609220505
 30
0.0
 10
54.14775844959768
 20
156.1421391856247
 30
0.0
 10
52.57441006858927
 20
156.2887398496264
 30
0.0
 10
50.80459549241484
 20
156.3076805397367
 30
0.0
 10
48.83389054199908
 20
156.2717761227338
 30
0.0
 10
46.70866342283264
 20
156.2216981006405
 30
0.0
 10
44.53581286028157
 20
156.1617685164171
 30
0.0
 10
42.18381619730853
 20
156.0860183471856
 30
0.0
 10
39.7458190454897
 20
155.9941245081067
 30
0.0
 10
37.2581227342589
 20
155.8790595607958
 30
0.0
 10
34.99178538284846
 20
155.7530759954252
 30
0.0
 10
32.96700854145825
 20
155.6194664249764
 30
0.0
 10
31.13067107576126
 20
155.4311587099391
 30
0.0
 10
29.51042137721171
 20
155.1097102457751
 30
0.0
 10
28.03897858823598
 20
154.5896306360627
 30
0.0
 10
26.70778879990533
 20
153.8929344659479
 30
0.0
 10
25.43750524718148
 20
153.0280782736847
 30
0.0
 10
24.20229497840362
 20
152.0551786586987
 30
0.0
 10
22.97063094143298
 20
151.0293618097282
 30
0.0
 10
21.71350264950225
 20
149.9997593459582
 30
0.0
 10
20.55767354440002
 20
149.1213435166392
 30
0.0
 10
19.51985596041753
 20
148.3956346736171
 30
0.0
 10
18.59829286596579
 20
147.7906128115667
 30
0.0
 10
17.59406371898631
 20
147.1639637504753
 30
0.0
 10
16.45784616168447
 20
146.4737884512388
 30
0.0
 10
15.16782153475371
 20
145.6750440743478
 30
0.0
 10
13.75454344662733
 20
144.7224882565015
 30
0.0
 10
12.34473371135719
 20
143.6087314738245
 30
0.0
 10
11.01096783345529
 20
142.303276294527
 30
0.0
 10
9.816941092187308
 20
140.812405282154
 30
0.0
 10
8.752552648415735
 20
139.0859656157401
 30
0.0
 10
7.963580417739008
 20
137.3450153033422
 30
0.0
 10
7.499672137894208
 20
136.0930123852083
 30
0.0
 10
7.371820869185614
 20
135.5572913945101
 30
0.0
 10
7.363906197995512
 20
135.52406883413
 30
0.0
  0
LINE
  5
203
330
1BA
100
AcDbEntity
  8
$DDT_AUDIT_GENERATED_(D3)
  6
Continuous
 62
     7
100
AcDbLine
 10
28.7909832085
 20
109.0089137856
 30
0.0
 11
28.7528481834
 21
107.3284514508
 31
0.0
  0
LINE
  5
204
330
1BA
100
AcDbEntity
  8
$DDT_AUDIT_GENERATED_(D3)
  6
Continuous
 62
     7
100
AcDbLine
 10
49.9962217561
 20
108.0994127809
 30
0.0
 11
49.9678038456
 21
106.8471459225
 31
0.0
  0
LINE
  5
205
330
1BA
100
AcDbEntity
  8
$DDT_AUDIT_GENERATED_(D3)
  6
Continuous
 62
     7
100
AcDbLine
 10
29.2533447393
 20
106.8165410912
 30
0.0
 11
49.4454903639
 21
106.3583172053
 31
0.0
  0
ARC
  5
206
330
1BA
100
AcDbEntity
  8
$DDT_AUDIT_GENERATED_(D3)
  6
Continuous
 62
     7
100
AcDbCircle
 10
49.506171072
 20
106.8178609003
 30
0.0
 40
0.4625384613496641
100
AcDbArc
 50
263.7387603254
 51
3.6629551343
  0
ARC
  5
207
330
1BA
100
AcDbEntity
  8
$DDT_AUDIT_GENERATED_(D3)
  6
Continuous
 62
     7
100
AcDbCircle
 10
29.2125960928
 20
107.2783654939
 30
0.0
 40
0.4624996312555676
100
AcDbArc
 50
173.7943484114
 51
273.652664419
  0
LINE
  5
208
330
1BA
100
AcDbEntity
  8
$DDT_AUDIT_GENERATED_(E8)
  6
Continuous
 62
     7
100
AcDbLine
 10
70.999965458
 20
111.5536393821
 30
0.0
 11
70.299965458
 21
111.5536393821
 31
0.0
  0
LINE
  5
209
330
1BA
100
AcDbEntity
  8
$DDT_AUDIT_GENERATED_(E8)
  6
Continuous
 62
     7
100
AcDbLine
 10
70.999965458
 20
125.5049954801
 30
0.0
 11
70.299965458
 21
125.5049954801
 31
0.0
  0
LINE
  5
20A
330
1BA
100
AcDbEntity
  8
$DDT_AUDIT_GENERATED_(E8)
  6
Continuous
 62
     7
100
AcDbLine
 10
70.999965458
 20
142.3305337956
 30
0.0
 11
70.299965458
 21
142.3305337956
 31
0.0
  0
LINE
  5
20B
330
1BA
100
AcDbEntity
  8
$DDT_AUDIT_GENERATED_(E8)
  6
Continuous
 62
     7
100
AcDbLine
 10
70.299965458
 20
146.3773707063
 30
0.0
 11
70.999965458
 21
146.3773707063
 31
0.0
  0
LINE
  5
20C
330
1BA
100
AcDbEntity
  8
$DDT_AUDIT_GENERATED_(E8)
  6
Continuous
 62
     7
100
AcDbLine
 10
70.299965458
 20
137.1573979558
 30
0.0
 11
70.999965458
 21
137.1573979558
 31
0.0
  0
LINE
  5
20D
330
1BA
100
AcDbEntity
  8
$DDT_AUDIT_GENERATED_(E8)
  6
Continuous
 62
     7
100
AcDbLine
 10
70.299965458
 20
119.1592049471
 30
0.0
 11
70.999965458
 21
119.1592049471
 31
0.0
  0
LINE
  5
20E
330
1BA
100
AcDbEntity
  8
$DDT_AUDIT_GENERATED_(E8)
  6
Continuous
 62
     7
100
AcDbLine
 10
70.299965458
 20
110.3791776976
 30
0.0
 11
70.999965458
 21
110.3791776976
 31
0.0
  0
LINE
  5
20F
330
1BA
100
AcDbEntity
  8
$DDT_AUDIT_GENERATED_(E8)
  6
Continuous
 62
     7
100
AcDbLine
 10
70.999965458
 20
146.3791776976
 30
0.0
 11
70.299965458
 21
146.3791776976
 31
0.0
  0
ARC
  5
210
330
1BA
100
AcDbEntity
  8
$DDT_AUDIT_GENERATED_(F0)
  6
Continuous
 62
     7
100
AcDbCircle
 10
7.1127160546
 20
134.4199108509
 30
0.0
 40
0.6046503942269966
100
AcDbArc
 50
65.7793101573
 51
78.5061866069
  0
ARC
  5
211
330
1BA
100
AcDbEntity
  8
$DDT_AUDIT_GENERATED_(F0)
  6
Continuous
 62
     7
100
AcDbCircle
 10
7.6986910441
 20
134.7638989776
 30
0.0
 40
0.5273543373857179
100
AcDbArc
 50
151.8901088245
 51
160.9844795913
  0
ARC
  5
212
330
1BA
100
AcDbEntity
  8
$DDT_AUDIT_GENERATED_(F0)
  6
Continuous
 62
     7
100
AcDbCircle
 10
7.5810747937
 20
121.8907312578
 30
0.0
 40
0.2615562623721931
100
AcDbArc
 50
195.3587665111
 51
252.4349956219
  0
ARC
  5
213
330
1BA
100
AcDbEntity
  8
$DDT_AUDIT_GENERATED_(F0)
  6
Continuous
 62
     7
100
AcDbCircle
 10
31.0453060177
 20
128.0639675835
 30
0.0
 40
24.52378486439635
100
AcDbArc
 50
179.2636299575
 51
194.8458293879
  0
ARC
  5
214
330
1BA
100
AcDbEntity
  8
$DDT_AUDIT_GENERATED_(F0)
  6
Continuous
 62
     7
100
AcDbCircle
 10
33.5070602367
 20
128.9045196977
 30
0.0
 40
26.98873475412487
100
AcDbArc
 50
166.9986524644
 51
181.1154248426
  0
ARC
  5
215
330
1BA
100
AcDbEntity
  8
$DDT_AUDIT_GENERATED_(F0)
  6
Continuous
 62
     7
100
AcDbCircle
 10
7.3172718122
 20
134.9582833099
 30
0.0
 40
0.1000039849676971
100
AcDbArc
 50
44.9986890679
 51
147.2264468945
  0
ARC
  5
216
330
1BA
100
AcDbEntity
  8
$DDT_AUDIT_GENERATED_(9E)
  6
Continuous
 62
     7
100
AcDbCircle
 10
289.9168761214
 20
104.9148756442
 30
0.0
 40
23.89758828646067
100
AcDbArc
 50
82.9247194453
 51
86.1208604954
  0
SPLINE
  5
217
330
1BA
100
AcDbEntity
  8
$DDT_AUDIT_GENERATED_(9E)
  6
Continuous
 62
     7
100
AcDbSpline
210
0.0
220
0.0
230
1.0
 70
     8
 71
     3
 72
    26
 73
    22
 74
     0
 42
0.0000000002243994
 43
0.0000000001
 40
0.0
 40
0.0
 40
0.0
 40
0.0
 40
0.024502703589417
 40
0.059617152689482
 40
0.1055518118844267
 40
0.1622482497225212
 40
0.2294957947709959
 40
0.3073961605551158
 40
0.3958213330636481
 40
0.4942234146148665
 40
0.6023570352749689
 40
0.7208416780209387
 40
0.7784020185478353
 40
0.8189248635725266
 40
0.8601126183163809
 40
0.9094622684477506
 40
0.9547308420329816
 40
0.97736511789269
 40
0.9886815728491268
 40
0.99514863784258
 40
1.0
 40
1.0
 40
1.0
 40
1.0
 10
291.5335968385237
 20
128.7577139826507
 30
0.0
 10
291.5293289267007
 20
128.395477360721
 30
0.0
 10
291.5227535450141
 20
127.5140300000076
 30
0.0
 10
291.4399387095073
 20
125.9548557714763
 30
0.0
 10
291.1896630654173
 20
123.9309185003743
 30
0.0
 10
290.5735112420317
 20
121.4858191467858
 30
0.0
 10
289.3356691162073
 20
118.7492873092013
 30
0.0
 10
287.2228328596189
 20
115.9649459431596
 30
0.0
 10
283.9694916957482
 20
113.6628413944533
 30
0.0
 10
279.7795228813326
 20
112.3027759190118
 30
0.0
 10
275.025562964629
 20
111.5546967920467
 30
0.0
 10
270.8403011657572
 20
111.1487449499457
 30
0.0
 10
267.6477961644204
 20
110.8779941096657
 30
0.0
 10
265.5906874903523
 20
110.7602128856082
 30
0.0
 10
263.6537266485807
 20
110.6740145588625
 30
0.0
 10
261.64560208094
 20
110.6108248961793
 30
0.0
 10
259.9112948678687
 20
110.57632168379
 30
0.0
 10
258.7396128470841
 20
110.5559761797734
 30
0.0
 10
258.1416160383667
 20
110.5482295076363
 30
0.0
 10
257.8070825835864
 20
110.5387034235387
 30
0.0
 10
257.6398524427979
 20
110.5338204066841
 30
0.0
 10
257.5681837736207
 20
110.5311861699855
 30
0.0
  0
ARC
  5
218
330
1BA
100
AcDbEntity
  8
$DDT_AUDIT_GENERATED_(9E)
  6
Continuous
 62
     7
100
AcDbCircle
 10
256.4505278235
 20
159.3936864819
 30
0.0
 40
48.87528098700861
100
AcDbArc
 50
269.4200642705
 51
271.3103259966
  0
SPLINE
  5
219
330
1BA
100
AcDbEntity
  8
$DDT_AUDIT_GENERATED_(9E)
  6
Continuous
 62
     7
100
AcDbSpline
210
0.0
220
0.0
230
1.0
 70
     8
 71
     3
 72
    18
 73
    14
 74
     0
 42
0.0000000004916838
 43
0.0000000001
 40
0.0
 40
0.0
 40
0.0
 40
0.0
 40
0.0156538427502327
 40
0.0313056767288581
 40
0.062604398106661
 40
0.0939013703415039
 40
0.1251929263296808
 40
0.1875639950187409
 40
0.2500816781977534
 40
0.3127029645011682
 40
0.3753331524590425
 40
0.5000592951446732
 40
0.5311975089313172
 40
0.5311975089313172
 40
0.5311975089313172
 40
0.5311975089313172
 10
255.9558310414018
 20
110.5209091242699
 30
0.0
 10
255.7796808048135
 20
110.5068196753676
 30
0.0
 10
255.4270652269331
 20
110.498113737614
 30
0.0
 10
254.7219468932772
 20
110.4778423612053
 30
0.0
 10
253.8414773952128
 20
110.4335146595394
 30
0.0
 10
252.7948473664015
 20
110.324404699848
 30
0.0
 10
251.4508735445419
 20
110.0752967062946
 30
0.0
 10
249.970325915054
 20
109.5635474457746
 30
0.0
 10
248.6205179936941
 20
108.8466045166501
 30
0.0
 10
247.5692822498739
 20
108.1743524367213
 30
0.0
 10
246.5277126918476
 20
107.4323028079541
 30
0.0
 10
246.1225033971963
 20
107.070120772366
 30
0.0
 10
246.1951542409987
 20
107.0561977998154
 30
0.0
 10
246.2234773198079
 20
107.0625529019786
 30
0.0
  0
SPLINE
  5
21A
330
1BA
100
AcDbEntity
  8
$DDT_AUDIT_GENERATED_(9E)
  6
Continuous
 62
     7
100
AcDbSpline
210
0.0
220
0.0
230
1.0
 70
     8
 71
     3
 72
     8
 73
     4
 74
     0
 42
0.0000000033049466
 43
0.0000000001
 40
0.5311975089313172
 40
0.5311975089313172
 40
0.5311975089313172
 40
0.5311975089313172
 40
0.5359546077254611
 40
0.5359546077254611
 40
0.5359546077254611
 40
0.5359546077254611
 10
246.2234773198079
 20
107.0625529019786
 30
0.0
 10
246.2278043401364
 20
107.063523794177
 30
0.0
 10
246.2324536611335
 20
107.0647079327221
 30
0.0
 10
246.2374230465594
 20
107.0661031092384
 30
0.0
  0
LINE
  5
21B
330
1BA
100
AcDbEntity
  8
$DDT_AUDIT_GENERATED_(9E)
  6
Continuous
 62
     7
100
AcDbLine
 10
230.119965458
 20
107.1898596179
 30
0.0
 11
230.119965458
 21
129.1190345502
 31
0.0
  0
LINE
  5
21C
330
1BA
100
AcDbEntity
  8
$DDT_AUDIT_GENERATED_(9E)
  6
Continuous
 62
     7
100
AcDbLine
 10
230.119965458
 20
149.5445936827
 30
0.0
 11
230.119965458
 21
147.03529914
 31
0.0
  0
LINE
  5
21D
330
1BA
100
AcDbEntity
  8
$DDT_AUDIT_GENERATED_(9E)
  6
Continuous
 62
     7
100
AcDbLine
 10
230.119965458
 20
146.4208087748
 30
0.0
 11
230.119965458
 21
147.0351339038
 31
0.0
  0
LINE
  5
21E
330
1BA
100
AcDbEntity
  8
$DDT_AUDIT_GENERATED_(9E)
  6
Continuous
 62
     7
100
AcDbLine
 10
230.119965458
 20
129.1190345502
 30
0.0
 11
230.119965458
 21
146.420770704
 31
0.0
  0
SPLINE
  5
21F
330
1BA
100
AcDbEntity
  8
$DDT_AUDIT_GENERATED_(9E)
  6
Continuous
 62
     7
100
AcDbSpline
210
0.0
220
0.0
230
1.0
 70
     8
 71
     3
 72
    15
 73
    11
 74
     0
 42
0.0000000018284564
 43
0.0000000001
 40
0.5314242288392597
 40
0.5314242288392597
 40
0.5314242288392597
 40
0.5314242288392597
 40
0.5419035458970904
 40
0.6076122683986462
 40
0.6731016089048676
 40
0.738407517737568
 40
0.8035208641151186
 40
0.8684711680642055
 40
0.9335760874473364
 40
1.0
 40
1.0
 40
1.0
 40
1.0
 10
230.4227228992734
 20
149.8628687643029
 30
0.0
 10
230.4227212041065
 20
149.8629593505474
 30
0.0
 10
230.422706152316
 20
149.8603437834905
 30
0.0
 10
230.4226412144432
 20
149.811211785456
 30
0.0
 10
230.4224633076896
 20
149.6390204801298
 30
0.0
 10
230.4221994756723
 20
149.3665403269296
 30
0.0
 10
230.4218496289978
 20
148.9981574458543
 30
0.0
 10
230.4214102734807
 20
148.5341071867456
 30
0.0
 10
230.4208746761581
 20
147.9794697382015
 30
0.0
 10
230.4204661589327
 20
147.5292670069535
 30
0.0
 10
230.4202421042482
 20
147.3003662310863
 30
0.0
  0
ARC
  5
220
330
1BA
100
AcDbEntity
  8
$DDT_AUDIT_GENERATED_(9E)
  6
Continuous
 62
     7
100
AcDbCircle
 10
235.2327016844
 20
49.0684466491
 30
0.0
 40
57.86374368791329
100
AcDbArc
 50
88.0994391578
 51
92.1363861204
  0
ARC
  5
221
330
1BA
100
AcDbEntity
  8
$DDT_AUDIT_GENERATED_(9E)
  6
Continuous
 62
     7
100
AcDbCircle
 10
235.1421328643
 20
94.6783045518
 30
0.0
 40
12.38837248345534
100
AcDbArc
 50
80.7118420599
 51
99.552418316
  0
SPLINE
  5
222
330
1BA
100
AcDbEntity
  8
$DDT_AUDIT_GENERATED_(9E)
  6
Continuous
 62
     7
100
AcDbSpline
210
0.0
220
0.0
230
1.0
 70
     8
 71
     3
 72
    31
 73
    27
 74
     0
 42
0.000000000139528
 43
0.0000000001
 40
0.0
 40
0.0
 40
0.0
 40
0.0
 40
0.0625136525588684
 40
0.1250273115243551
 40
0.250054468264626
 40
0.350080729976093
 40
0.5001071455291839
 40
0.5626255630917114
 40
0.6251328372332653
 40
0.6876152921897395
 40
0.7188822443929335
 40
0.7501021601965128
 40
0.7813268062367643
 40
0.8125455217055664
 40
0.8437677183135763
 40
0.8749952270070935
 40
0.8906127765822655
 40
0.9062363984754065
 40
0.921869854778921
 40
0.9375040467435176
 40
0.9531291302294783
 40
0.9687553284591813
 40
0.9765690091074846
 40
0.9843830226673675
 40
0.99219755961696
 40
1.0
 40
1.0
 40
1.0
 40
1.0
 10
230.4202421042482
 20
147.3003662310863
 30
0.0
 10
231.9129556522656
 20
147.3022886463211
 30
0.0
 10
234.8973695249613
 20
147.3024685204642
 30
0.0
 10
240.8661525340943
 20
147.2954435179141
 30
0.0
 10
247.730409748911
 20
147.2506608897846
 30
0.0
 10
256.6827383185652
 20
147.1311174509239
 30
0.0
 10
264.141716186645
 20
146.8914349381125
 30
0.0
 10
270.6937569345499
 20
146.4543685603207
 30
0.0
 10
275.1472250765953
 20
146.0074957591545
 30
0.0
 10
278.8375550234395
 20
145.4201221328334
 30
0.0
 10
281.7197105806134
 20
144.635641263397
 30
0.0
 10
283.8042395235634
 20
143.806952045211
 30
0.0
 10
285.7429078903214
 20
142.6730073401316
 30
0.0
 10
287.4474851432744
 20
141.2065522153817
 30
0.0
 10
288.8510610698312
 20
139.4527499005276
 30
0.0
 10
289.7721784989883
 20
137.8251565184252
 30
0.0
 10
290.3618336480449
 20
136.4553672641478
 30
0.0
 10
290.7278618110444
 20
135.3976025662994
 30
0.0
 10
291.015625133057
 20
134.3156089970072
 30
0.0
 10
291.2287228583493
 20
133.2165552006166
 30
0.0
 10
291.3759930209353
 20
132.1072305357253
 30
0.0
 10
291.455049555718
 20
131.178395575191
 30
0.0
 10
291.4981153937687
 20
130.4340478664626
 30
0.0
 10
291.5203164791824
 20
129.8752459616805
 30
0.0
 10
291.5328297411014
 20
129.3163904503808
 30
0.0
 10
291.5339404483658
 20
128.9438460456812
 30
0.0
 10
291.5335968385237
 20
128.7577139826507
 30
0.0
  0
ARC
  5
223
330
1BA
100
AcDbEntity
  8
$DDT_AUDIT_GENERATED_(9E)
  6
Continuous
 62
     7
100
AcDbCircle
 10
423.9808920476
 20
128.3332664053
 30
0.0
 40
131.1218255503542
100
AcDbArc
 50
176.8512280826
 51
179.8694321463
  0
ARC
  5
224
330
1BA
100
AcDbEntity
  8
$DDT_AUDIT_GENERATED_(9E)
  6
Continuous
 62
     7
100
AcDbCircle
 10
538.2661931401
 20
126.3057648196
 30
0.0
 40
245.4167820800127
100
AcDbArc
 50
179.4576280339
 51
181.1870233003
  0
SPLINE
  5
225
330
1BA
100
AcDbEntity
  8
$DDT_AUDIT_GENERATED_(9E)
  6
Continuous
 62
     7
100
AcDbSpline
210
0.0
220
0.0
230
1.0
 70
     8
 71
     3
 72
     8
 73
     4
 74
     0
 42
0.0000007070819151
 43
0.0000000001
 40
0.0
 40
0.0
 40
0.0
 40
0.0
 40
1.0
 40
1.0
 40
1.0
 40
1.0
 10
292.8604218364482
 20
128.630487897191
 30
0.0
 10
292.8676001004746
 20
128.6315662287194
 30
0.0
 10
292.8701697639322
 20
128.6310164984706
 30
0.0
 10
292.8680629284112
 20
128.6273185343839
 30
0.0
  0
ARC
  5
226
330
1BA
100
AcDbEntity
  8
$DDT_AUDIT_GENERATED_(9E)
  6
Continuous
 62
     7
100
AcDbCircle
 10
257.6579906279
 20
293.9948598487
 30
0.0
 40
184.5374530183048
100
AcDbArc
 50
269.9750184501
 51
272.9763799506
  0
ARC
  5
227
330
1BA
100
AcDbEntity
  8
$DDT_AUDIT_GENERATED_(9E)
  6
Continuous
 62
     7
100
AcDbCircle
 10
268.0431645565
 20
98.8663795473
 30
0.0
 40
10.86968005656511
100
AcDbArc
 50
74.1429782351
 51
94.2376631517
  0
SPLINE
  5
228
330
1BA
100
AcDbEntity
  8
$DDT_AUDIT_GENERATED_(9E)
  6
Continuous
 62
     7
100
AcDbSpline
210
0.0
220
0.0
230
1.0
 70
     8
 71
     3
 72
     8
 73
     4
 74
     0
 42
0.0000000349495244
 43
0.0000000001
 40
0.1262044389683554
 40
0.1262044389683554
 40
0.1262044389683554
 40
0.1262044389683554
 40
0.2072100711636268
 40
0.2072100711636268
 40
0.2072100711636268
 40
0.2072100711636268
 10
271.9303182562552
 20
108.9161315327269
 30
0.0
 10
271.9247129173524
 20
108.9137349957866
 30
0.0
 10
271.9172713558256
 20
108.9118931979754
 30
0.0
 10
271.90794574764
 20
108.9105943002803
 30
0.0
  0
SPLINE
  5
229
330
1BA
100
AcDbEntity
  8
$DDT_AUDIT_GENERATED_(9E)
  6
Continuous
 62
     7
100
AcDbSpline
210
0.0
220
0.0
230
1.0
 70
     8
 71
     3
 72
    10
 73
     6
 74
     0
 42
0.0000000136308847
 43
0.0000000001
 40
0.2539503059789524
 40
0.2539503059789524
 40
0.2539503059789524
 40
0.2539503059789524
 40
0.5
 40
0.5
 40
0.5908149190055002
 40
0.5908149190055002
 40
0.5908149190055002
 40
0.5908149190055002
 10
271.8899121779427
 20
108.9088858760482
 30
0.0
 10
271.8549338790119
 20
108.9068315564679
 30
0.0
 10
271.8023187069692
 20
108.9097230297883
 30
0.0
 10
271.7043023551342
 20
108.9199987416732
 30
0.0
 10
271.675383228034
 20
108.923383415617
 30
0.0
 10
271.6439007902256
 20
108.9273406555892
 30
0.0
  0
ARC
  5
22A
330
1BA
100
AcDbEntity
  8
$DDT_AUDIT_GENERATED_(9E)
  6
Continuous
 62
     7
100
AcDbCircle
 10
254.8918605889
 20
100.6060775995
 30
0.0
 40
8.819750709362406
100
AcDbArc
 50
90.6883136288
 51
116.0289117507
  0
SPLINE
  5
22B
330
1BA
100
AcDbEntity
  8
$DDT_AUDIT_GENERATED_(9E)
  6
Continuous
 62
     7
100
AcDbSpline
210
0.0
220
0.0
230
1.0
 70
     8
 71
     3
 72
    10
 73
     6
 74
     0
 42
0.0000000141688107
 43
0.0000000001
 40
0.4425008919295157
 40
0.4425008919295157
 40
0.4425008919295157
 40
0.4425008919295157
 40
0.5
 40
0.5
 40
0.7495458459625179
 40
0.7495458459625179
 40
0.7495458459625179
 40
0.7495458459625179
 10
250.414935673993
 20
108.0232702382141
 30
0.0
 10
250.3966255419642
 20
108.0172476710433
 30
0.0
 10
250.3793269664566
 20
108.0116554666811
 30
0.0
 10
250.2923029385332
 20
107.9841854517848
 30
0.0
 10
250.2405744213943
 20
107.9703448213656
 30
0.0
 10
250.2064954927098
 20
107.965337775391
 30
0.0
  0
SPLINE
  5
22C
330
1BA
100
AcDbEntity
  8
$DDT_AUDIT_GENERATED_(9E)
  6
Continuous
 62
     7
100
AcDbSpline
210
0.0
220
0.0
230
1.0
 70
     8
 71
     3
 72
     8
 73
     4
 74
     0
 42
0.000000033167369
 43
0.0000000001
 40
0.7700495917168705
 40
0.7700495917168705
 40
0.7700495917168705
 40
0.7700495917168705
 40
0.8597895669137812
 40
0.8597895669137812
 40
0.8597895669137812
 40
0.8597895669137812
 10
250.1984519912135
 20
107.9642826738099
 30
0.0
 10
250.1872364805837
 20
107.9630049378484
 30
0.0
 10
250.1782891068098
 20
107.962873277495
 30
0.0
 10
250.1715471209237
 20
107.9639038954635
 30
0.0
  0
ELLIPSE
  5
22D
330
1BA
100
AcDbEntity
  8
$DDT_AUDIT_GENERATED_(9E)
  6
Continuous
 62
     7
100
AcDbEllipse
 10
250.9945757921
 20
108.7269212396
 30
0.0
 11
-0.08742039384508626
 21
0.1798823914116073
 31
0.0
210
0.0
220
0.0
230
1.0
 40
0.8894024434
 41
2.789929343448239
 42
3.157210127654265
  0
ELLIPSE
  5
22E
330
1BA
100
AcDbEntity
  8
$DDT_AUDIT_GENERATED_(9E)
  6
Continuous
 62
     7
100
AcDbEllipse
 10
254.7811178166
 20
109.6190854064
 30
0.0
 11
-0.004897012982091331
 21
0.1999400391713771
 31
0.0
210
0.0
220
0.0
230
0.9999999999999999
 40
0.0008550189
 41
3.141217498703972
 42
3.388129241028655
  0
ELLIPSE
  5
22F
330
1BA
100
AcDbEntity
  8
$DDT_AUDIT_GENERATED_(9E)
  6
Continuous
 62
     7
100
AcDbEllipse
 10
271.039613653
 20
109.5063986363
 30
0.0
 11
0.05682686327651565
 21
0.191756897164358
 31
0.0
210
0.0
220
0.0
230
1.0
 40
0.8988307569
 41
3.103977455945371
 42
3.146889618764279
  0
ARC
  5
230
330
1BA
100
AcDbEntity
  8
$DDT_AUDIT_GENERATED_(9E)
  6
Continuous
 62
     7
100
AcDbCircle
 10
416.0640630609
 20
128.5019236937
 30
0.0
 40
123.197650772972
100
AcDbArc
 50
176.7494243286
 51
179.9402335383
  0
ARC
  5
231
330
1BA
100
AcDbEntity
  8
$DDT_AUDIT_GENERATED_(9E)
  6
Continuous
 62
     7
100
AcDbCircle
 10
518.7009974854
 20
126.2637196992
 30
0.0
 40
225.8453030950059
100
AcDbArc
 50
179.4003563142
 51
181.2664470674
  0
ARC
  5
232
330
1BA
100
AcDbEntity
  8
$DDT_AUDIT_GENERATED_(9E)
  6
Continuous
 62
     7
100
AcDbCircle
 10
233.4174977205
 20
1500.9302087988
 30
0.0
 40
1394.047428792239
100
AcDbArc
 50
270.1469406792
 51
270.4821205653
  0
ARC
  5
233
330
1BA
100
AcDbEntity
  8
$DDT_AUDIT_GENERATED_(9E)
  6
Continuous
 62
     7
100
AcDbCircle
 10
230.4738872747
 20
2215.35766752
 30
0.0
 40
2108.479889998794
100
AcDbArc
 50
269.998537122
 51
270.0748380445
  0
ARC
  5
234
330
1BA
100
AcDbEntity
  8
$DDT_AUDIT_GENERATED_(9E)
  6
Continuous
 62
     7
100
AcDbCircle
 10
245.1682021398
 20
111.5263976742
 30
0.0
 40
4.582674500549157
100
AcDbArc
 50
269.4697091667
 51
283.4852206398
  0
SPLINE
  5
235
330
1BA
100
AcDbEntity
  8
$DDT_AUDIT_GENERATED_(9E)
  6
Continuous
 62
     7
100
AcDbSpline
210
0.0
220
0.0
230
1.0
 70
     8
 71
     3
 72
    23
 73
    19
 74
     0
 42
0.0000000003808442
 43
0.0000000001
 40
0.0
 40
0.0
 40
0.0
 40
0.0
 40
0.0387773416323046
 40
0.1018235112499597
 40
0.2074697904939855
 40
0.3071930258304288
 40
0.400363439830815
 40
0.4660837394561373
 40
0.5279134357240518
 40
0.5850157179135138
 40
0.6366438302613038
 40
0.6823940055720692
 40
0.7235028879587401
 40
0.7643151861575318
 40
0.8051025587427745
 40
0.8865935454773309
 40
0.9684801345130256
 40
1.0
 40
1.0
 40
1.0
 40
1.0
 10
271.8999292584027
 20
108.9110670527178
 30
0.0
 10
272.2715049484374
 20
108.9423038030921
 30
0.0
 10
273.0990477693804
 20
109.0126494418975
 30
0.0
 10
274.9445048491953
 20
109.1892342887259
 30
0.0
 10
277.2565584359338
 20
109.4634695870904
 30
0.0
 10
279.8353996704245
 20
109.9082085265571
 30
0.0
 10
282.0293475460622
 20
110.4626556517218
 30
0.0
 10
283.8500909852884
 20
111.1093607020263
 30
0.0
 10
285.3166325996432
 20
111.7898403581751
 30
0.0
 10
286.6031913516428
 20
112.5483026909758
 30
0.0
 10
287.695898658652
 20
113.3453148669598
 30
0.0
 10
288.6072468508564
 20
114.1443110387723
 30
0.0
 10
289.387155167281
 20
114.9441001171602
 30
0.0
 10
290.079762507735
 20
115.7637641271308
 30
0.0
 10
290.9261025424226
 20
116.9148980333729
 30
0.0
 10
291.8228029027199
 20
118.445646076002
 30
0.0
 10
292.5431479093914
 20
120.0501155418011
 30
0.0
 10
292.795452601216
 20
120.9455406065745
 30
0.0
 10
292.8764770708843
 20
121.2376022897946
 30
0.0
  0
ARC
  5
236
330
1BA
100
AcDbEntity
  8
$DDT_AUDIT_GENERATED_(9E)
  6
Continuous
 62
     7
100
AcDbCircle
 10
257.4363375522
 20
66.7268305615
 30
0.0
 40
41.86304968220097
100
AcDbArc
 50
99.9491484508
 51
105.5152499704
  0
ARC
  5
237
330
1BA
100
AcDbEntity
  8
$DDT_AUDIT_GENERATED_(9E)
  6
Continuous
 62
     7
100
AcDbCircle
 10
230.4199654588
 20
149.5448804242
 30
0.0
 40
0.3000000007951381
100
AcDbArc
 50
89.4233752554
 51
180.0010540773
  0
ELLIPSE
  5
238
330
1BA
100
AcDbEntity
  8
$DDT_AUDIT_GENERATED_(9E)
  6
Continuous
 62
     7
100
AcDbEllipse
 10
230.419965458
 20
107.1785264543
 30
0.0
 11
0.2999999999992037
 21
3.645347912417662E-10
 31
0.0
210
0.0
220
0.0
230
1.0
 40
0.9999542772
 41
3.135428985774744
 42
4.727430924011824
  0
SPLINE
  5
239
330
1BA
100
AcDbEntity
  8
$DDT_AUDIT_GENERATED_(9E)
  6
Continuous
 62
     7
100
AcDbSpline
210
0.0
220
0.0
230
1.0
 70
     8
 71
     3
 72
    55
 73
    51
 74
     0
 42
0.0000000001380088
 43
0.0000000001
 40
0.0
 40
0.0
 40
0.0
 40
0.0
 40
0.0069328566907188
 40
0.0242855126230763
 40
0.0535323974897064
 40
0.0814297831277991
 40
0.1077970820310632
 40
0.1324903094188221
 40
0.1585236617672942
 40
0.1820693162095809
 40
0.2030143028040513
 40
0.2213449290632735
 40
0.2371372665167655
 40
0.2520670447006291
 40
0.267039763926753
 40
0.2933943660750289
 40
0.3196708324314957
 40
0.3452092524752185
 40
0.3702913574911036
 40
0.3945293990693389
 40
0.4180566789893349
 40
0.4417189660163973
 40
0.4661288054374852
 40
0.4950122606133847
 40
0.5269481641412357
 40
0.5620963031859122
 40
0.6004516871670422
 40
0.6328223672992005
 40
0.666899173123475
 40
0.6988480470626988
 40
0.7273728956329677
 40
0.7467364788097964
 40
0.7642717975042668
 40
0.7801488707688751
 40
0.794475840786093
 40
0.807717085954324
 40
0.8204667707620565
 40
0.8278253848411773
 40
0.8350700180438536
 40
0.8450860618419017
 40
0.8590150058029682
 40
0.876681270418726
 40
0.8938875083785661
 40
0.9128853853197324
 40
0.9333097776732231
 40
0.9462259494406031
 40
0.9597277685665077
 40
0.9739950266666912
 40
0.9894018630323521
 40
1.0
 40
1.0
 40
1.0
 40
1.0
 10
293.0524194695959
 20
135.5115478368577
 30
0.0
 10
293.005206437089
 20
135.6895265468912
 30
0.0
 10
292.862960308555
 20
136.2207620799916
 30
0.0
 10
292.4079113703889
 20
137.4670935283594
 30
0.0
 10
291.6633480034826
 20
139.0902397346663
 30
0.0
 10
290.6013133246183
 20
140.8160898357969
 30
0.0
 10
289.4065879708331
 20
142.306371279648
 30
0.0
 10
288.0731054564047
 20
143.6108936238989
 30
0.0
 10
286.6634742759971
 20
144.7233310981298
 30
0.0
 10
285.2504382363072
 20
145.6740333056497
 30
0.0
 10
283.9606546622538
 20
146.4706067292965
 30
0.0
 10
282.8245604360589
 20
147.1587248930709
 30
0.0
 10
281.8209590248494
 20
147.7833691550172
 30
0.0
 10
280.8998125121386
 20
148.3868721351248
 30
0.0
 10
279.78753580028
 20
149.1631987803927
 30
0.0
 10
278.4925805929258
 20
150.1549355072103
 30
0.0
 10
277.0408261339253
 20
151.3586679684935
 30
0.0
 10
275.608464859286
 20
152.5385247434788
 30
0.0
 10
274.1514964864831
 20
153.6105169588022
 30
0.0
 10
272.6167867227927
 20
154.4822057571503
 30
0.0
 10
270.9897275788314
 20
155.0784492317082
 30
0.0
 10
269.2892729135145
 20
155.4152214564783
 30
0.0
 10
267.4399038339254
 20
155.6048233119086
 30
0.0
 10
265.386276324328
 20
155.7395883895531
 30
0.0
 10
263.072551420252
 20
155.86763181554
 30
0.0
 10
260.5292182154618
 20
155.9840503244624
 30
0.0
 10
257.9745055190651
 20
156.0790654633682
 30
0.0
 10
255.4451714793769
 20
156.158810798681
 30
0.0
 10
253.0700674317937
 20
156.2212901047481
 30
0.0
 10
250.7876917901879
 20
156.2729973029657
 30
0.0
 10
248.8597154606635
 20
156.2947331247992
 30
0.0
 10
247.2802137157396
 20
156.2312984978152
 30
0.0
 10
246.0137001973754
 20
156.0718584779127
 30
0.0
 10
244.8906444409883
 20
155.8010735275328
 30
0.0
 10
243.9029717309226
 20
155.442270820777
 30
0.0
 10
243.0224531832111
 20
155.0248800141484
 30
0.0
 10
242.320960072532
 20
154.6288247822716
 30
0.0
 10
241.7591470523419
 20
154.2818218547512
 30
0.0
 10
241.2604560430454
 20
153.9584497859984
 30
0.0
 10
240.6367030099671
 20
153.5372078187719
 30
0.0
 10
239.8117842287855
 20
152.9652463519333
 30
0.0
 10
238.8396502701221
 20
152.3017392447675
 30
0.0
 10
237.7383622458205
 20
151.6126454398899
 30
0.0
 10
236.5322349940049
 20
150.9719217538047
 30
0.0
 10
235.3588184155027
 20
150.5037381466533
 30
0.0
 10
234.2721762435163
 20
150.2021602961049
 30
0.0
 10
233.3074216517595
 20
150.0216972411515
 30
0.0
 10
232.279262051212
 20
149.9129961148525
 30
0.0
 10
231.2873451961182
 20
149.8697144292013
 30
0.0
 10
230.7035636352761
 20
149.8668186875711
 30
0.0
 10
230.4225525449997
 20
149.8664909621029
 30
0.0
  0
SPLINE
  5
23A
330
1BA
100
AcDbEntity
  8
$DDT_AUDIT_GENERATED_(9E)
  6
Continuous
 62
     7
100
AcDbSpline
210
0.0
220
0.0
230
1.0
 70
     8
 71
     3
 72
    14
 73
    10
 74
     0
 42
0.0000000091853742
 43
0.0000000001
 40
0.1492582856759019
 40
0.1492582856759019
 40
0.1492582856759019
 40
0.1492582856759019
 40
0.18476855055736
 40
0.2923774609386047
 40
0.436112384780496
 40
0.6063572502816539
 40
0.7871276980829705
 40
0.9662957763392562
 40
1.0
 40
1.0
 40
1.0
 40
1.0
 10
250.2910658099026
 20
108.0758953363164
 30
0.0
 10
250.2910537780425
 20
108.0757499803076
 30
0.0
 10
250.2938229180982
 20
108.0778178401643
 30
0.0
 10
250.3196358953041
 20
108.1027832424391
 30
0.0
 10
250.3954519963757
 20
108.1597221721011
 30
0.0
 10
250.5327361885414
 20
108.2508657136188
 30
0.0
 10
250.7390630002586
 20
108.3721499563616
 30
0.0
 10
250.9399962243273
 20
108.4769303886523
 30
0.0
 10
251.0617636256058
 20
108.5373948445432
 30
0.0
 10
251.0843224902094
 20
108.5485781999704
 30
0.0
  0
ARC
  5
23B
330
1BA
100
AcDbEntity
  8
$DDT_AUDIT_GENERATED_(9E)
  6
Continuous
 62
     7
100
AcDbCircle
 10
257.8824532339
 20
-30.9158399349
 30
0.0
 40
140.3676805716093
100
AcDbArc
 50
90.1244595776
 51
91.2639919365
  0
SPLINE
  5
23C
330
1BA
100
AcDbEntity
  8
$DDT_AUDIT_GENERATED_(9E)
  6
Continuous
 62
     7
100
AcDbSpline
210
0.0
220
0.0
230
1.0
 70
     8
 71
     3
 72
    15
 73
    11
 74
     0
 42
0.0000000125539392
 43
0.0000000001
 40
0.0
 40
0.0
 40
0.0
 40
0.0
 40
0.1534520795332621
 40
0.3498458314952195
 40
0.5487725464799139
 40
0.7131527027339315
 40
0.8220966497983153
 40
0.8965071150573176
 40
0.9475622133047702
 40
0.9514742035178889
 40
0.9514742035178889
 40
0.9514742035178889
 40
0.9514742035178889
 10
271.1460506976185
 20
109.2637095812431
 30
0.0
 10
271.2257597160898
 20
109.2378095788527
 30
0.0
 10
271.3775713107508
 20
109.1882912895107
 30
0.0
 10
271.5670176586802
 20
109.1144068865056
 30
0.0
 10
271.6994321321782
 20
109.0539577683537
 30
0.0
 10
271.7651873264224
 20
109.0170223081166
 30
0.0
 10
271.7798048415601
 20
109.0051756300961
 30
0.0
 10
271.7666216524267
 20
109.0158387034965
 30
0.0
 10
271.7478629317717
 20
109.0422113308662
 30
0.0
 10
271.7400601389098
 20
109.0611314337007
 30
0.0
 10
271.7395086391418
 20
109.062516438789
 30
0.0
  0
ARC
  5
23D
330
1BA
100
AcDbEntity
  8
$DDT_AUDIT_GENERATED_(9E)
  6
Continuous
 62
     7
100
AcDbCircle
 10
269.5240554497
 20
104.4321621467
 30
0.0
 40
5.096539923937308
100
AcDbArc
 50
71.4426207529
 51
73.4416992194
  0
LINE
  5
23E
330
1BA
100
AcDbEntity
  8
$DDT_AUDIT_GENERATED_(9E)
  6
Continuous
 62
     7
100
AcDbLine
 10
270.941965841
 20
109.3267795292
 30
0.0
 11
270.9839020634
 21
109.3149653405
 31
0.0
  0
SPLINE
  5
23F
330
1BA
100
AcDbEntity
  8
$DDT_AUDIT_GENERATED_(D3)
  6
Continuous
 62
     7
100
AcDbSpline
210
0.0
220
0.0
230
1.0
 70
     8
 71
     5
 72
    12
 73
     6
 74
     0
 42
0.0000000026810071
 43
0.0000000001
 40
0.6550934076403991
 40
0.6550934076403991
 40
0.6550934076403991
 40
0.6550934076403991
 40
0.6550934076403991
 40
0.6550934076403991
 40
0.6559844919257326
 40
0.6559844919257326
 40
0.6559844919257326
 40
0.6559844919257326
 40
0.6559844919257326
 40
0.6559844919257326
 10
271.158159563443
 20
106.8184456931343
 30
0.0
 10
271.1575211846357
 20
106.8184079835098
 30
0.0
 10
271.1568699402796
 20
106.8183757179976
 30
0.0
 10
271.1562058130974
 20
106.8183488992507
 30
0.0
 10
271.1555287865455
 20
106.8183275297264
 30
0.0
 10
271.1548388447594
 20
106.8183116116915
 30
0.0
  0
LINE
  5
240
330
1BA
100
AcDbEntity
  8
$DDT_AUDIT_GENERATED_(D3)
  6
Continuous
 62
     7
100
AcDbLine
 10
250.9973422891
 20
106.3611597524
 30
0.0
 11
271.1479592322
 21
106.8181626572
 31
0.0
  0
LINE
  5
241
330
1BA
100
AcDbEntity
  8
$DDT_AUDIT_GENERATED_(D3)
  6
Continuous
 62
     7
100
AcDbLine
 10
271.6670784005
 20
107.341621769
 30
0.0
 11
271.6274947375
 21
109.0848573641
 31
0.0
  0
ARC
  5
242
330
1BA
100
AcDbEntity
  8
$DDT_AUDIT_GENERATED_(D3)
  6
Continuous
 62
     7
100
AcDbCircle
 10
271.1921480656
 20
107.294380654
 30
0.0
 40
0.4773910879578316
100
AcDbArc
 50
265.673653923
 51
5.8017382323
  0
ARC
  5
243
330
1BA
100
AcDbEntity
  8
$DDT_AUDIT_GENERATED_(D3)
  6
Continuous
 62
     7
100
AcDbCircle
 10
250.929842876
 20
106.8356515808
 30
0.0
 40
0.478187725718474
100
AcDbArc
 50
177.2594114571
 51
276.9049719944
  0
LINE
  5
244
330
1BA
100
AcDbEntity
  8
04273038_SITZ-RS
  6
Continuous
 62
     7
100
AcDbLine
 10
221.899965458
 20
185.0791776976
 30
0.0
 11
198.099965458
 21
185.0791776976
 31
0.0
  0
LINE
  5
245
330
1BA
100
AcDbEntity
  8
04273038_SITZ-RS
  6
Continuous
 62
     7
100
AcDbLine
 10
221.899965458
 20
166.6791776976
 30
0.0
 11
221.899965458
 21
185.0791776976
 31
0.0
  0
LINE
  5
246
330
1BA
100
AcDbEntity
  8
04273038_SITZ-RS
  6
Continuous
 62
     7
100
AcDbLine
 10
198.099965458
 20
185.0791776976
 30
0.0
 11
198.099965458
 21
166.6791776976
 31
0.0
  0
LINE
  5
247
330
1BA
100
AcDbEntity
  8
$DDT_AUDIT_GENERATED_(151)
  6
Continuous
 62
     7
100
AcDbLine
 10
198.5000065391
 20
199.5791776976
 30
0.0
 11
221.4999243768
 21
199.5791776976
 31
0.0
  0
LINE
  5
248
330
1BA
100
AcDbEntity
  8
$DDT_AUDIT_GENERATED_(151)
  6
Continuous
 62
     7
100
AcDbLine
 10
198.500006535
 20
185.5791776976
 30
0.0
 11
221.499924381
 21
185.5791776976
 31
0.0
  0
LINE
  5
249
330
1BA
100
AcDbEntity
  8
$DDT_AUDIT_GENERATED_(151)
  6
Continuous
 62
     7
100
AcDbLine
 10
197.999965458
 20
198.9525857376
 30
0.0
 11
197.999965458
 21
197.0791253984
 31
0.0
  0
LINE
  5
24A
330
1BA
100
AcDbEntity
  8
$DDT_AUDIT_GENERATED_(151)
  6
Continuous
 62
     7
100
AcDbLine
 10
197.999965458
 20
188.0792299879
 30
0.0
 11
197.999965458
 21
197.0791253984
 31
0.0
  0
LINE
  5
24B
330
1BA
100
AcDbEntity
  8
$DDT_AUDIT_GENERATED_(151)
  6
Continuous
 62
     7
100
AcDbLine
 10
197.999965458
 20
186.2057696523
 30
0.0
 11
197.999965458
 21
188.0792299879
 31
0.0
  0
LINE
  5
24C
330
1BA
100
AcDbEntity
  8
$DDT_AUDIT_GENERATED_(151)
  6
Continuous
 62
     7
100
AcDbLine
 10
221.999965458
 20
197.0791253984
 30
0.0
 11
220.3300924769
 21
197.0791253984
 31
0.0
  0
LINE
  5
24D
330
1BA
100
AcDbEntity
  8
$DDT_AUDIT_GENERATED_(151)
  6
Continuous
 62
     7
100
AcDbLine
 10
221.999965458
 20
188.0792299879
 30
0.0
 11
220.3300924769
 21
188.0792299879
 31
0.0
  0
LINE
  5
24E
330
1BA
100
AcDbEntity
  8
$DDT_AUDIT_GENERATED_(151)
  6
Continuous
 62
     7
100
AcDbLine
 10
221.999965458
 20
197.0791253984
 30
0.0
 11
221.999965458
 21
198.9525857376
 31
0.0
  0
LINE
  5
24F
330
1BA
100
AcDbEntity
  8
$DDT_AUDIT_GENERATED_(151)
  6
Continuous
 62
     7
100
AcDbLine
 10
221.999965458
 20
188.0792299879
 30
0.0
 11
221.999965458
 21
197.0791253984
 31
0.0
  0
LINE
  5
250
330
1BA
100
AcDbEntity
  8
$DDT_AUDIT_GENERATED_(151)
  6
Continuous
 62
     7
100
AcDbLine
 10
221.999965458
 20
188.0792299879
 30
0.0
 11
221.999965458
 21
186.2057696523
 31
0.0
  0
LINE
  5
251
330
1BA
100
AcDbEntity
  8
$DDT_AUDIT_GENERATED_(151)
  6
Continuous
 62
     7
100
AcDbLine
 10
211.669838439
 20
197.0791253984
 30
0.0
 11
208.3300924769
 21
197.0791253984
 31
0.0
  0
LINE
  5
252
330
1BA
100
AcDbEntity
  8
$DDT_AUDIT_GENERATED_(151)
  6
Continuous
 62
     7
100
AcDbLine
 10
211.669838439
 20
188.0792299879
 30
0.0
 11
208.3300924769
 21
188.0792299879
 31
0.0
  0
LINE
  5
253
330
1BA
100
AcDbEntity
  8
$DDT_AUDIT_GENERATED_(151)
  6
Continuous
 62
     7
100
AcDbLine
 10
220.3300924769
 20
188.0792299879
 30
0.0
 11
220.3300924769
 21
197.0791253984
 31
0.0
  0
ARC
  5
254
330
1BA
100
AcDbEntity
  8
$DDT_AUDIT_GENERATED_(151)
  6
Continuous
 62
     7
100
AcDbCircle
 10
215.999965458
 20
193.0643106793
 30
0.0
 40
5.90497563322258
100
AcDbArc
 50
42.8361174559
 51
137.1638825441
  0
LINE
  5
255
330
1BA
100
AcDbEntity
  8
$DDT_AUDIT_GENERATED_(151)
  6
Continuous
 62
     7
100
AcDbLine
 10
211.669838439
 20
188.0792299879
 30
0.0
 11
211.669838439
 21
197.0791253984
 31
0.0
  0
ARC
  5
256
330
1BA
100
AcDbEntity
  8
$DDT_AUDIT_GENERATED_(151)
  6
Continuous
 62
     7
100
AcDbCircle
 10
215.999965458
 20
192.0940447184
 30
0.0
 40
5.904975640952875
100
AcDbArc
 50
222.8361175368
 51
317.1638824632
  0
LINE
  5
257
330
1BA
100
AcDbEntity
  8
$DDT_AUDIT_GENERATED_(151)
  6
Continuous
 62
     7
100
AcDbLine
 10
199.669838439
 20
197.0791253984
 30
0.0
 11
197.999965458
 21
197.0791253984
 31
0.0
  0
LINE
  5
258
330
1BA
100
AcDbEntity
  8
$DDT_AUDIT_GENERATED_(151)
  6
Continuous
 62
     7
100
AcDbLine
 10
199.669838439
 20
188.0792299879
 30
0.0
 11
197.999965458
 21
188.0792299879
 31
0.0
  0
LINE
  5
259
330
1BA
100
AcDbEntity
  8
$DDT_AUDIT_GENERATED_(151)
  6
Continuous
 62
     7
100
AcDbLine
 10
208.3300924769
 20
188.0792299879
 30
0.0
 11
208.3300924769
 21
197.0791253984
 31
0.0
  0
ARC
  5
25A
330
1BA
100
AcDbEntity
  8
$DDT_AUDIT_GENERATED_(151)
  6
Continuous
 62
     7
100
AcDbCircle
 10
203.999965458
 20
193.0643106793
 30
0.0
 40
5.904975633222591
100
AcDbArc
 50
42.8361174559
 51
137.1638825441
  0
LINE
  5
25B
330
1BA
100
AcDbEntity
  8
$DDT_AUDIT_GENERATED_(151)
  6
Continuous
 62
     7
100
AcDbLine
 10
199.669838439
 20
188.0792299879
 30
0.0
 11
199.669838439
 21
197.0791253984
 31
0.0
  0
ARC
  5
25C
330
1BA
100
AcDbEntity
  8
$DDT_AUDIT_GENERATED_(151)
  6
Continuous
 62
     7
100
AcDbCircle
 10
203.999965458
 20
192.0940447184
 30
0.0
 40
5.9049756409529
100
AcDbArc
 50
222.8361175368
 51
317.1638824632
  0
ARC
  5
25D
330
1BA
100
AcDbEntity
  8
$DDT_AUDIT_GENERATED_(151)
  6
Continuous
 62
     7
100
AcDbCircle
 10
215.504865458
 20
194.2820776976
 30
0.0
 40
7.999999990652699
100
AcDbArc
 50
35.7155195923
 51
41.4630952038
  0
ARC
  5
25E
330
1BA
100
AcDbEntity
  8
$DDT_AUDIT_GENERATED_(151)
  6
Continuous
 62
     7
100
AcDbCircle
 10
204.495065458
 20
194.2820776976
 30
0.0
 40
7.999999990652692
100
AcDbArc
 50
138.5369047962
 51
144.2846358145
  0
ARC
  5
25F
330
1BA
100
AcDbEntity
  8
$DDT_AUDIT_GENERATED_(151)
  6
Continuous
 62
     7
100
AcDbCircle
 10
215.504865458
 20
190.8762776976
 30
0.0
 40
7.999999993769197
100
AcDbArc
 50
318.536904816
 51
324.2846357835
  0
ARC
  5
260
330
1BA
100
AcDbEntity
  8
$DDT_AUDIT_GENERATED_(151)
  6
Continuous
 62
     7
100
AcDbCircle
 10
204.495065458
 20
190.8762776976
 30
0.0
 40
7.999999993769197
100
AcDbArc
 50
215.7155196233
 51
221.463095184
  0
LINE
  5
261
330
1BA
100
AcDbEntity
  8
04273038_SITZ-RS
  6
Continuous
 62
     7
100
AcDbLine
 10
101.899965458
 20
185.0791776976
 30
0.0
 11
78.099965458
 21
185.0791776976
 31
0.0
  0
LINE
  5
262
330
1BA
100
AcDbEntity
  8
04273038_SITZ-RS
  6
Continuous
 62
     7
100
AcDbLine
 10
101.899965458
 20
166.6791776976
 30
0.0
 11
101.899965458
 21
185.0791776976
 31
0.0
  0
LINE
  5
263
330
1BA
100
AcDbEntity
  8
04273038_SITZ-RS
  6
Continuous
 62
     7
100
AcDbLine
 10
78.099965458
 20
185.0791776976
 30
0.0
 11
78.099965458
 21
166.6791776976
 31
0.0
  0
SPLINE
  5
264
330
1BA
100
AcDbEntity
  8
$DDT_AUDIT_GENERATED_(F0)
  6
Continuous
 62
     7
100
AcDbSpline
210
0.0
220
0.0
230
1.0
 70
     8
 71
     3
 72
    12
 73
     8
 74
     0
 42
0.0000000272959412
 43
0.0000000001
 40
0.5640672994381761
 40
0.5640672994381761
 40
0.5640672994381761
 40
0.5640672994381761
 40
0.6237882513531487
 40
0.7501049282075628
 40
0.8262832496999482
 40
0.8932970829122782
 40
0.8952371511404427
 40
0.8952371511404427
 40
0.8952371511404427
 40
0.8952371511404427
 10
293.1844322314317
 20
135.0157891302256
 30
0.0
 10
293.1829726554147
 20
135.0180274900328
 30
0.0
 10
293.1761701019821
 20
135.024738098624
 30
0.0
 10
293.1555532867124
 20
135.032147947659
 30
0.0
 10
293.1172459263146
 20
135.0300905102386
 30
0.0
 10
293.0873248763693
 20
135.022957381279
 30
0.0
 10
293.0704847706501
 20
135.0179419816188
 30
0.0
 10
293.0700088209211
 20
135.0177995069406
 30
0.0
  0
SPLINE
  5
265
330
1BA
100
AcDbEntity
  8
$DDT_AUDIT_GENERATED_(F0)
  6
Continuous
 62
     7
100
AcDbSpline
210
0.0
220
0.0
230
1.0
 70
     8
 71
     3
 72
     8
 73
     4
 74
     0
 42
0.0000000567291572
 43
0.0000000001
 40
0.5061399866751224
 40
0.5061399866751224
 40
0.5061399866751224
 40
0.5061399866751224
 40
0.5118129023992958
 40
0.5118129023992958
 40
0.5118129023992958
 40
0.5118129023992958
 10
293.0911722753244
 20
121.8226268707612
 30
0.0
 10
293.0912091743639
 20
121.8220932471761
 30
0.0
 10
293.0912506337637
 20
121.8219088684031
 30
0.0
 10
293.0912963238069
 20
121.8220728162619
 30
0.0
  0
SPLINE
  5
266
330
1BA
100
AcDbEntity
  8
$DDT_AUDIT_GENERATED_(F0)
  6
Continuous
 62
     7
100
AcDbSpline
210
0.0
220
0.0
230
1.0
 70
     8
 71
     3
 72
     8
 73
     4
 74
     0
 42
0.0000001092038051
 43
0.0000000001
 40
0.0
 40
0.0
 40
0.0
 40
0.0
 40
1.0
 40
1.0
 40
1.0
 40
1.0
 10
293.2197284800766
 20
134.9356205375892
 30
0.0
 10
293.2007153637185
 20
134.9873228162872
 30
0.0
 10
293.1881598885428
 20
135.0144394173673
 30
0.0
 10
293.1820620545496
 20
135.0169703408294
 30
0.0
  0
ARC
  5
267
330
1BA
100
AcDbEntity
  8
$DDT_AUDIT_GENERATED_(F0)
  6
Continuous
 62
     7
100
AcDbCircle
 10
292.8388841499
 20
121.8906214613
 30
0.0
 40
0.2615781250510998
100
AcDbArc
 50
287.2773984977
 51
344.6479233463
  0
ARC
  5
268
330
1BA
100
AcDbEntity
  8
$DDT_AUDIT_GENERATED_(F0)
  6
Continuous
 62
     7
100
AcDbCircle
 10
269.4736266673
 20
128.0525668626
 30
0.0
 40
24.42494177452102
100
AcDbArc
 50
345.1198365335
 51
0.7662181267
  0
ARC
  5
269
330
1BA
100
AcDbEntity
  8
$DDT_AUDIT_GENERATED_(F0)
  6
Continuous
 62
     7
100
AcDbCircle
 10
266.6175541749
 20
128.8725359783
 30
0.0
 40
27.28339937834744
100
AcDbArc
 50
358.9637305281
 51
12.9267648465
  0
LINE
  5
26A
330
1BA
100
AcDbEntity
  8
$DDT_AUDIT_GENERATED_(140)
  6
Continuous
 62
     7
100
AcDbLine
 10
230.119965458
 20
110.6047875503
 30
0.0
 11
228.999965458
 21
110.6047875503
 31
0.0
  0
LINE
  5
26B
330
1BA
100
AcDbEntity
  8
$DDT_AUDIT_GENERATED_(140)
  6
Continuous
 62
     7
100
AcDbLine
 10
230.119965458
 20
146.1791776976
 30
0.0
 11
228.999965458
 21
146.1791776976
 31
0.0
  0
LINE
  5
26C
330
1BA
100
AcDbEntity
  8
$DDT_AUDIT_GENERATED_(17C)
  6
Continuous
 62
     7
100
AcDbLine
 10
200.749965458
 20
185.5791776976
 30
0.0
 11
200.749965458
 21
185.0791776976
 31
0.0
  0
LINE
  5
26D
330
1BA
100
AcDbEntity
  8
$DDT_AUDIT_GENERATED_(17C)
  6
Continuous
 62
     7
100
AcDbLine
 10
219.249965458
 20
185.0791776976
 30
0.0
 11
219.249965458
 21
185.5791776976
 31
0.0
  0
ENDBLK
  5
26F
330
1BA
100
AcDbEntity
  8
0
100
AcDbBlockEnd
  0
ENDSEC
  0
SECTION
  2
ENTITIES
  0
INSERT
  5
5F
330
1F
100
AcDbEntity
  8
Default
100
AcDbBlockReference
  2
SEANNOT_GROUP
 10
0.0
 20
0.0
 30
0.0
  0
INSERT
  5
66
330
1F
100
AcDbEntity
  8
Default
100
AcDbBlockReference
  2
SEANNOT_GROUP1
 10
0.0
 20
0.0
 30
0.0
  0
INSERT
  5
6C
330
1F
100
AcDbEntity
  8
Default
100
AcDbBlockReference
  2
SEANNOT_GROUP2
 10
0.0
 20
0.0
 30
0.0
  0
INSERT
  5
72
330
1F
100
AcDbEntity
  8
Default
100
AcDbBlockReference
  2
SEANNOT_GROUP3
 10
0.0
 20
0.0
 30
0.0
  0
INSERT
  5
78
330
1F
100
AcDbEntity
  8
Default
100
AcDbBlockReference
  2
SEANNOT_GROUP4
 10
0.0
 20
0.0
 30
0.0
  0
INSERT
  5
7E
330
1F
100
AcDbEntity
  8
Default
100
AcDbBlockReference
  2
SE
 10
0.0
 20
0.0
 30
0.0
  0
INSERT
  5
149
330
1F
100
AcDbEntity
  8
Default
100
AcDbBlockReference
  2
SE1
 10
0.0
 20
0.0
 30
0.0
  0
INSERT
  5
1BB
330
1F
100
AcDbEntity
  8
Default
100
AcDbBlockReference
  2
SE2
 10
0.0
 20
0.0
 30
0.0
  0
TEXT
  5
271
330
1F
100
AcDbEntity
  8
Default
  6
Continuous
 62
     7
100
AcDbText
 10
5.9362635081
 20
53.4225120485
 30
0.0
 40
10.0
  1
Grohe AG^J
  7
SEACAD_seiso_ttf
 11
5.9362635081
 21
63.4225120485
 31
0.0
100
AcDbText
 73
     3
  0
TEXT
  5
272
330
1F
100
AcDbEntity
  8
Default
  6
Continuous
 62
     7
100
AcDbText
 10
5.9362635081
 20
37.0588756849
 30
0.0
 40
10.0
  1
 
  7
SEACAD_seiso_ttf
 11
5.9362635081
 21
47.0588756849
 31
0.0
100
AcDbText
 73
     3
  0
TEXT
  5
273
330
1F
100
AcDbEntity
  8
Default
  6
Continuous
 62
     7
100
AcDbText
 10
5.9362635081
 20
20.6952393213
 30
0.0
 40
10.0
  1
ecn:
  7
SEACAD_seiso_ttf
 11
5.9362635081
 21
30.6952393213
 31
0.0
100
AcDbText
 73
     3
  0
TEXT
  5
274
330
1F
100
AcDbEntity
  8
Default
  6
Continuous
 62
     7
100
AcDbText
 10
5.9362635081
 20
4.3316029576
 30
0.0
 40
10.0
  1
unit: mm
  7
SEACAD_seiso_ttf
 11
5.9362635081
 21
14.3316029576
 31
0.0
100
AcDbText
 73
     3
  0
LINE
  5
275
330
1F
100
AcDbEntity
  8
Default
  6
Continuous
 62
     7
100
AcDbLine
 10
0.0
 20
0.0
 30
0.0
 11
100.0
 21
0.0
 31
0.0
  0
LINE
  5
276
330
1F
100
AcDbEntity
  8
Default
  6
Continuous
 62
     7
100
AcDbLine
 10
0.0
 20
0.0
 30
0.0
 11
0.0
 21
100.0
 31
0.0
  0
TEXT
  5
277
330
1F
100
AcDbEntity
  8
Default
  6
Continuous
 62
     7
100
AcDbText
 10
24.3923665681
 20
-18.2375342018
 30
0.0
 40
10.0
  1
100 mm
  7
SEACAD_seiso_ttf
 11
24.3923665681
 21
-8.2375342018
 31
0.0
100
AcDbText
 73
     3
  0
TEXT
  5
278
330
1F
100
AcDbEntity
  8
Default
  6
Continuous
 62
     7
100
AcDbText
 10
-7.6150308803
 20
24.6231930421
 30
0.0
 40
10.0
  1
100 mm
 50
90.0
  7
SEACAD_seiso_ttf
 11
-17.6150308803
 21
24.6231930421
 31
0.0
100
AcDbText
 73
     3
  0
TEXT
  5
279
330
1F
100
AcDbEntity
  8
Default
  6
Continuous
 62
     7
100
AcDbText
 10
28.4878128572
 20
20.0907663715
 30
0.0
 40
10.0
  1
231304
  7
SEACAD_seiso_ttf
 11
28.4878128572
 21
30.0907663715
 31
0.0
100
AcDbText
 73
     3
  0
TEXT
  5
27A
330
1F
100
AcDbEntity
  8
Default
  6
Continuous
 62
     7
100
AcDbText
 10
5.9012241913
 20
36.7242780188
 30
0.0
 40
10.0
  1
34147003
  7
SEACAD_seiso_ttf
 11
5.9012241913
 21
46.7242780188
 31
0.0
100
AcDbText
 73
     3
  0
ENDSEC
  0
SECTION
  2
OBJECTS
  0
DICTIONARY
  5
C
330
0
100
AcDbDictionary
281
     1
  3
ACAD_GROUP
350
D
  3
ACAD_LAYOUT
350
1A
  3
ACAD_MLEADERSTYLE
350
27E
  3
ACAD_MLINESTYLE
350
17
  3
ACAD_PLOTSETTINGS
350
19
  3
ACAD_PLOTSTYLENAME
350
E
  3
ACAD_SCALELIST
350
3B
  3
ACAD_TABLESTYLE
350
27D
  3
ACAD_VISUALSTYLE
350
2A
  3
AcDbVariableDictionary
350
27B
  0
DICTIONARY
  5
D
102
{ACAD_REACTORS
330
C
102
}
330
C
100
AcDbDictionary
281
     1
  0
DICTIONARY
  5
1A
102
{ACAD_REACTORS
330
C
102
}
330
C
100
AcDbDictionary
281
     1
  3
Layout1
350
1E
  3
Model
350
22
  0
DICTIONARY
  5
27E
102
{ACAD_REACTORS
330
C
102
}
330
C
100
AcDbDictionary
281
     1
  0
DICTIONARY
  5
17
102
{ACAD_REACTORS
330
C
102
}
330
C
100
AcDbDictionary
281
     1
  3
Standard
350
18
  0
DICTIONARY
  5
19
102
{ACAD_REACTORS
330
C
102
}
330
C
100
AcDbDictionary
281
     1
  0
ACDBDICTIONARYWDFLT
  5
E
102
{ACAD_REACTORS
330
C
102
}
330
C
100
AcDbDictionary
281
     1
  3
Normal
350
F
100
AcDbDictionaryWithDefault
340
F
  0
DICTIONARY
  5
3B
102
{ACAD_REACTORS
330
C
102
}
330
C
100
AcDbDictionary
281
     1
  3
A0
350
3C
  3
A1
350
3D
  3
A2
350
3E
  3
A3
350
3F
  3
A4
350
40
  3
A5
350
41
  3
A6
350
42
  3
A7
350
43
  3
A8
350
44
  3
A9
350
45
  3
B0
350
46
  3
B1
350
47
  3
B2
350
48
  3
B3
350
49
  3
B4
350
4A
  3
B5
350
4B
  3
B6
350
4C
  3
B7
350
4D
  3
B8
350
4E
  3
B9
350
4F
  3
C0
350
50
  3
C1
350
51
  3
C2
350
52
  3
C3
350
53
  3
C4
350
54
  3
C5
350
55
  3
C6
350
56
  3
C7
350
57
  3
C8
350
58
  3
C9
350
59
  3
D0
350
5A
  3
D1
350
5B
  3
D2
350
5C
  0
DICTIONARY
  5
27D
102
{ACAD_REACTORS
330
C
102
}
330
C
100
AcDbDictionary
281
     1
  0
DICTIONARY
  5
2A
102
{ACAD_REACTORS
330
C
102
}
330
C
100
AcDbDictionary
281
     1
  3
2dWireframe
350
2F
  3
3D Hidden
350
31
  3
3dWireframe
350
30
  3
Basic
350
32
  3
Brighten
350
36
  3
ColorChange
350
3A
  3
Conceptual
350
34
  3
Dim
350
35
  3
Facepattern
350
39
  3
Flat
350
2B
  3
FlatWithEdges
350
2C
  3
Gouraud
350
2D
  3
GouraudWithEdges
350
2E
  3
Linepattern
350
38
  3
Realistic
350
33
  3
Thicken
350
37
  0
DICTIONARY
  5
27B
102
{ACAD_REACTORS
330
C
102
}
330
C
100
AcDbDictionary
281
     1
  3
CANNOSCALE
350
27C
  3
PSOLHEIGHT
350
280
  3
PSOLWIDTH
350
27F
  0
LAYOUT
  5
1E
102
{ACAD_REACTORS
330
1A
102
}
330
1A
100
AcDbPlotSettings
  1

  2
none_device
  4

  6

 40
0.0
 41
0.0
 42
0.0
 43
0.0
 44
0.0
 45
0.0
 46
0.0
 47
0.0
 48
0.0
 49
0.0
140
0.0
141
0.0
142
1.0
143
1.0
 70
   688
 72
     0
 73
     0
 74
     5
  7

 75
    16
147
1.0
148
0.0
149
0.0
100
AcDbLayout
  1
Layout1
 70
     1
 71
     1
 10
0.0
 20
0.0
 11
3000.0
 21
4500.0
 12
0.0
 22
0.0
 32
0.0
 14
0.0
 24
0.0
 34
0.0
 15
3000.0
 25
4500.0
 35
0.0
146
0.0
 13
0.0
 23
0.0
 33
0.0
 16
1.0
 26
0.0
 36
0.0
 17
0.0
 27
1.0
 37
0.0
 76
     0
330
1B
  0
LAYOUT
  5
22
102
{ACAD_REACTORS
330
1A
102
}
330
1A
100
AcDbPlotSettings
  1

  2
none_device
  4

  6

 40
0.0
 41
0.0
 42
0.0
 43
0.0
 44
0.0
 45
0.0
 46
0.0
 47
0.0
 48
0.0
 49
0.0
140
0.0
141
0.0
142
1.0
143
1.0
 70
  1712
 72
     0
 73
     0
 74
     0
  7

 75
     0
147
1.0
148
0.0
149
0.0
100
AcDbLayout
  1
Model
 70
     1
 71
     0
 10
0.0
 20
0.0
 11
3000.0
 21
4500.0
 12
0.0
 22
0.0
 32
0.0
 14
0.0
 24
0.0
 34
0.0
 15
3000.0
 25
4500.0
 35
0.0
146
0.0
 13
0.0
 23
0.0
 33
0.0
 16
1.0
 26
0.0
 36
0.0
 17
0.0
 27
1.0
 37
0.0
 76
     0
330
1F
331
29
  0
MLINESTYLE
  5
18
102
{ACAD_REACTORS
330
17
102
}
330
17
100
AcDbMlineStyle
  2
Standard
 70
     0
  3

 62
   256
 51
90.0
 52
90.0
 71
     2
 49
0.5
 62
   256
  6
BYLAYER
 49
-0.5
 62
   256
  6
BYLAYER
  0
ACDBPLACEHOLDER
  5
F
102
{ACAD_REACTORS
330
E
102
}
330
E
  0
SCALE
  5
3C
102
{ACAD_REACTORS
330
3B
102
}
330
3B
100
AcDbScale
 70
     0
300
1:1
140
1.0
141
1.0
290
     1
  0
SCALE
  5
3D
102
{ACAD_REACTORS
330
3B
102
}
330
3B
100
AcDbScale
 70
     0
300
1:2
140
1.0
141
2.0
290
     0
  0
SCALE
  5
3E
102
{ACAD_REACTORS
330
3B
102
}
330
3B
100
AcDbScale
 70
     0
300
1:4
140
1.0
141
4.0
290
     0
  0
SCALE
  5
3F
102
{ACAD_REACTORS
330
3B
102
}
330
3B
100
AcDbScale
 70
     0
300
1:5
140
1.0
141
5.0
290
     0
  0
SCALE
  5
40
102
{ACAD_REACTORS
330
3B
102
}
330
3B
100
AcDbScale
 70
     0
300
1:8
140
1.0
141
8.0
290
     0
  0
SCALE
  5
41
102
{ACAD_REACTORS
330
3B
102
}
330
3B
100
AcDbScale
 70
     0
300
1:10
140
1.0
141
10.0
290
     0
  0
SCALE
  5
42
102
{ACAD_REACTORS
330
3B
102
}
330
3B
100
AcDbScale
 70
     0
300
1:16
140
1.0
141
16.0
290
     0
  0
SCALE
  5
43
102
{ACAD_REACTORS
330
3B
102
}
330
3B
100
AcDbScale
 70
     0
300
1:20
140
1.0
141
20.0
290
     0
  0
SCALE
  5
44
102
{ACAD_REACTORS
330
3B
102
}
330
3B
100
AcDbScale
 70
     0
300
1:30
140
1.0
141
30.0
290
     0
  0
SCALE
  5
45
102
{ACAD_REACTORS
330
3B
102
}
330
3B
100
AcDbScale
 70
     0
300
1:40
140
1.0
141
40.0
290
     0
  0
SCALE
  5
46
102
{ACAD_REACTORS
330
3B
102
}
330
3B
100
AcDbScale
 70
     0
300
1:50
140
1.0
141
50.0
290
     0
  0
SCALE
  5
47
102
{ACAD_REACTORS
330
3B
102
}
330
3B
100
AcDbScale
 70
     0
300
1:100
140
1.0
141
100.0
290
     0
  0
SCALE
  5
48
102
{ACAD_REACTORS
330
3B
102
}
330
3B
100
AcDbScale
 70
     0
300
2:1
140
2.0
141
1.0
290
     0
  0
SCALE
  5
49
102
{ACAD_REACTORS
330
3B
102
}
330
3B
100
AcDbScale
 70
     0
300
4:1
140
4.0
141
1.0
290
     0
  0
SCALE
  5
4A
102
{ACAD_REACTORS
330
3B
102
}
330
3B
100
AcDbScale
 70
     0
300
8:1
140
8.0
141
1.0
290
     0
  0
SCALE
  5
4B
102
{ACAD_REACTORS
330
3B
102
}
330
3B
100
AcDbScale
 70
     0
300
10:1
140
10.0
141
1.0
290
     0
  0
SCALE
  5
4C
102
{ACAD_REACTORS
330
3B
102
}
330
3B
100
AcDbScale
 70
     0
300
100:1
140
100.0
141
1.0
290
     0
  0
SCALE
  5
4D
102
{ACAD_REACTORS
330
3B
102
}
330
3B
100
AcDbScale
 70
     0
300
1/128" = 1'-0"
140
0.0078125
141
12.0
290
     0
  0
SCALE
  5
4E
102
{ACAD_REACTORS
330
3B
102
}
330
3B
100
AcDbScale
 70
     0
300
1/64" = 1'-0"
140
0.015625
141
12.0
290
     0
  0
SCALE
  5
4F
102
{ACAD_REACTORS
330
3B
102
}
330
3B
100
AcDbScale
 70
     0
300
1/32" = 1'-0"
140
0.03125
141
12.0
290
     0
  0
SCALE
  5
50
102
{ACAD_REACTORS
330
3B
102
}
330
3B
100
AcDbScale
 70
     0
300
1/16" = 1'-0"
140
0.0625
141
12.0
290
     0
  0
SCALE
  5
51
102
{ACAD_REACTORS
330
3B
102
}
330
3B
100
AcDbScale
 70
     0
300
3/32" = 1'-0"
140
0.09375
141
12.0
290
     0
  0
SCALE
  5
52
102
{ACAD_REACTORS
330
3B
102
}
330
3B
100
AcDbScale
 70
     0
300
1/8" = 1'-0"
140
0.125
141
12.0
290
     0
  0
SCALE
  5
53
102
{ACAD_REACTORS
330
3B
102
}
330
3B
100
AcDbScale
 70
     0
300
3/16" = 1'-0"
140
0.1875
141
12.0
290
     0
  0
SCALE
  5
54
102
{ACAD_REACTORS
330
3B
102
}
330
3B
100
AcDbScale
 70
     0
300
1/4" = 1'-0"
140
0.25
141
12.0
290
     0
  0
SCALE
  5
55
102
{ACAD_REACTORS
330
3B
102
}
330
3B
100
AcDbScale
 70
     0
300
3/8" = 1'-0"
140
0.375
141
12.0
290
     0
  0
SCALE
  5
56
102
{ACAD_REACTORS
330
3B
102
}
330
3B
100
AcDbScale
 70
     0
300
1/2" = 1'-0"
140
0.5
141
12.0
290
     0
  0
SCALE
  5
57
102
{ACAD_REACTORS
330
3B
102
}
330
3B
100
AcDbScale
 70
     0
300
3/4" = 1'-0"
140
0.75
141
12.0
290
     0
  0
SCALE
  5
58
102
{ACAD_REACTORS
330
3B
102
}
330
3B
100
AcDbScale
 70
     0
300
1" = 1'-0"
140
1.0
141
12.0
290
     0
  0
SCALE
  5
59
102
{ACAD_REACTORS
330
3B
102
}
330
3B
100
AcDbScale
 70
     0
300
1-1/2" = 1'-0"
140
1.5
141
12.0
290
     0
  0
SCALE
  5
5A
102
{ACAD_REACTORS
330
3B
102
}
330
3B
100
AcDbScale
 70
     0
300
3" = 1'-0"
140
3.0
141
12.0
290
     0
  0
SCALE
  5
5B
102
{ACAD_REACTORS
330
3B
102
}
330
3B
100
AcDbScale
 70
     0
300
6" = 1'-0"
140
6.0
141
12.0
290
     0
  0
SCALE
  5
5C
102
{ACAD_REACTORS
330
3B
102
}
330
3B
100
AcDbScale
 70
     0
300
1'-0" = 1'-0"
140
12.0
141
12.0
290
     0
  0
VISUALSTYLE
  5
2F
102
{ACAD_REACTORS
330
2A
102
}
330
2A
100
AcDbVisualStyle
  2
2dWireframe
 70
     4
 71
     0
 72
     2
 73
     0
 90
        0
 40
-0.6
 41
-30.0
 62
     5
 63
     7
 74
     1
 91
        4
 64
     7
 65
   257
 75
     1
175
     1
 42
1.0
 92
        0
 66
   257
 43
1.0
 76
     1
 77
     6
 78
     2
 67
     7
 79
     5
170
     0
171
     0
290
     0
174
     0
 93
        1
 44
0.0
173
     0
291
     0
 45
0.0
1001
ACAD
1000
AcDbSavedByObjectVersion
1070
     0
  0
VISUALSTYLE
  5
31
102
{ACAD_REACTORS
330
2A
102
}
330
2A
100
AcDbVisualStyle
  2
3D Hidden
 70
     6
 71
     1
 72
     2
 73
     2
 90
        0
 40
-0.6
 41
-30.0
 62
     5
 63
     7
 74
     2
 91
        2
 64
     7
 65
   257
 75
     2
175
     1
 42
40.0
 92
        0
 66
   257
 43
1.0
 76
     1
 77
     6
 78
     2
 67
     7
 79
     3
170
     0
171
     0
290
     0
174
     0
 93
        1
 44
0.0
173
     0
291
     0
 45
0.0
1001
ACAD
1000
AcDbSavedByObjectVersion
1070
     0
  0
VISUALSTYLE
  5
30
102
{ACAD_REACTORS
330
2A
102
}
330
2A
100
AcDbVisualStyle
  2
3dWireframe
 70
     5
 71
     0
 72
     2
 73
     0
 90
        0
 40
-0.6
 41
-30.0
 62
     5
 63
     7
 74
     1
 91
        4
 64
     7
 65
   257
 75
     1
175
     1
 42
1.0
 92
        0
 66
   257
 43
1.0
 76
     1
 77
     6
 78
     2
 67
     7
 79
     5
170
     0
171
     0
290
     0
174
     0
 93
        1
 44
0.0
173
     0
291
     0
 45
0.0
1001
ACAD
1000
AcDbSavedByObjectVersion
1070
     0
  0
VISUALSTYLE
  5
32
102
{ACAD_REACTORS
330
2A
102
}
330
2A
100
AcDbVisualStyle
  2
Basic
 70
     7
 71
     1
 72
     0
 73
     1
 90
        0
 40
-0.6
 41
-30.0
 62
     5
 63
     7
 74
     0
 91
        4
 64
     7
 65
   257
 75
     1
175
     1
 42
1.0
 92
        8
 66
     7
 43
1.0
 76
     1
 77
     6
 78
     2
 67
     7
 79
     5
170
     0
171
     0
290
     0
174
     0
 93
        1
 44
0.0
173
     0
291
     1
 45
0.0
1001
ACAD
1000
AcDbSavedByObjectVersion
1070
     0
  0
VISUALSTYLE
  5
36
102
{ACAD_REACTORS
330
2A
102
}
330
2A
100
AcDbVisualStyle
  2
Brighten
 70
    12
 71
     2
 72
     2
 73
     0
 90
        0
 40
-0.6
 41
-30.0
 62
     5
 63
     7
 74
     1
 91
        4
 64
     7
 65
   257
 75
     1
175
     1
 42
1.0
 92
        8
 66
     7
 43
1.0
 76
     1
 77
     6
 78
     2
 67
     7
 79
     5
170
     0
171
     0
290
     0
174
     0
 93
        1
 44
50.0
173
     0
291
     1
 45
0.0
1001
ACAD
1000
AcDbSavedByObjectVersion
1070
     0
  0
VISUALSTYLE
  5
3A
102
{ACAD_REACTORS
330
2A
102
}
330
2A
100
AcDbVisualStyle
  2
ColorChange
 70
    16
 71
     2
 72
     2
 73
     3
 90
        0
 40
-0.6
 41
-30.0
 62
     5
 63
     8
 74
     1
 91
        4
 64
     7
 65
   257
 75
     1
175
     1
 42
1.0
 92
        8
 66
     8
 43
1.0
 76
     1
 77
     6
 78
     2
 67
     7
 79
     5
170
     0
171
     0
290
     0
174
     0
 93
        1
 44
0.0
173
     0
291
     1
 45
0.0
1001
ACAD
1000
AcDbSavedByObjectVersion
1070
     0
  0
VISUALSTYLE
  5
34
102
{ACAD_REACTORS
330
2A
102
}
330
2A
100
AcDbVisualStyle
  2
Conceptual
 70
     9
 71
     3
 72
     2
 73
     0
 90
        0
 40
-0.6
 41
-30.0
 62
     5
 63
     7
 74
     2
 91
        2
 64
     7
 65
   257
 75
     1
175
     1
 42
40.0
 92
        8
 66
     7
 43
1.0
 76
     1
 77
     6
 78
     2
 67
     7
 79
     3
170
     0
171
     0
290
     0
174
     0
 93
        1
 44
0.0
173
     0
291
     0
 45
0.0
1001
ACAD
1000
AcDbSavedByObjectVersion
1070
     0
  0
VISUALSTYLE
  5
35
102
{ACAD_REACTORS
330
2A
102
}
330
2A
100
AcDbVisualStyle
  2
Dim
 70
    11
 71
     2
 72
     2
 73
     0
 90
        0
 40
-0.6
 41
-30.0
 62
     5
 63
     7
 74
     1
 91
        4
 64
     7
 65
   257
 75
     1
175
     1
 42
1.0
 92
        8
 66
     7
 43
1.0
 76
     1
 77
     6
 78
     2
 67
     7
 79
     5
170
     0
171
     0
290
     0
174
     0
 93
        1
 44
-50.0
173
     0
291
     1
 45
0.0
1001
ACAD
1000
AcDbSavedByObjectVersion
1070
     0
  0
VISUALSTYLE
  5
39
102
{ACAD_REACTORS
330
2A
102
}
330
2A
100
AcDbVisualStyle
  2
Facepattern
 70
    15
 71
     2
 72
     2
 73
     0
 90
        0
 40
-0.6
 41
-30.0
 62
     5
 63
     7
 74
     1
 91
        4
 64
     7
 65
   257
 75
     1
175
     1
 42
1.0
 92
        8
 66
     7
 43
1.0
 76
     1
 77
     6
 78
     2
 67
     7
 79
     5
170
     0
171
     0
290
     0
174
     0
 93
        1
 44
0.0
173
     0
291
     1
 45
0.0
1001
ACAD
1000
AcDbSavedByObjectVersion
1070
     0
  0
VISUALSTYLE
  5
2B
102
{ACAD_REACTORS
330
2A
102
}
330
2A
100
AcDbVisualStyle
  2
Flat
 70
     0
 71
     2
 72
     1
 73
     1
 90
        2
 40
-0.6
 41
30.0
 62
     5
 63
     7
 74
     0
 91
        4
 64
     7
 65
   257
 75
     1
175
     1
 42
1.0
 92
        8
 66
     7
 43
1.0
 76
     1
 77
     6
 78
     2
 67
     7
 79
     5
170
     0
171
     0
290
     0
174
     0
 93
       13
 44
0.0
173
     0
291
     1
 45
0.0
1001
ACAD
1000
AcDbSavedByObjectVersion
1070
     0
  0
VISUALSTYLE
  5
2C
102
{ACAD_REACTORS
330
2A
102
}
330
2A
100
AcDbVisualStyle
  2
FlatWithEdges
 70
     1
 71
     2
 72
     1
 73
     1
 90
        2
 40
-0.6
 41
30.0
 62
     5
 63
     7
 74
     1
 91
        4
 64
     7
 65
   257
 75
     1
175
     1
 42
1.0
 92
        0
 66
   257
 43
1.0
 76
     1
 77
     6
 78
     2
 67
     7
 79
     5
170
     0
171
     0
290
     0
174
     0
 93
       13
 44
0.0
173
     0
291
     1
 45
0.0
1001
ACAD
1000
AcDbSavedByObjectVersion
1070
     0
  0
VISUALSTYLE
  5
2D
102
{ACAD_REACTORS
330
2A
102
}
330
2A
100
AcDbVisualStyle
  2
Gouraud
 70
     2
 71
     2
 72
     2
 73
     1
 90
        2
 40
-0.6
 41
30.0
 62
     5
 63
     7
 74
     0
 91
        4
 64
     7
 65
   257
 75
     1
175
     1
 42
1.0
 92
        0
 66
     7
 43
1.0
 76
     1
 77
     6
 78
     2
 67
     7
 79
     5
170
     0
171
     0
290
     0
174
     0
 93
       13
 44
0.0
173
     0
291
     1
 45
0.0
1001
ACAD
1000
AcDbSavedByObjectVersion
1070
     0
  0
VISUALSTYLE
  5
2E
102
{ACAD_REACTORS
330
2A
102
}
330
2A
100
AcDbVisualStyle
  2
GouraudWithEdges
 70
     3
 71
     2
 72
     2
 73
     1
 90
        2
 40
-0.6
 41
30.0
 62
     5
 63
     7
 74
     1
 91
        4
 64
     7
 65
   257
 75
     1
175
     1
 42
1.0
 92
        0
 66
   257
 43
1.0
 76
     1
 77
     6
 78
     2
 67
     7
 79
     5
170
     0
171
     0
290
     0
174
     0
 93
       13
 44
0.0
173
     0
291
     1
 45
0.0
1001
ACAD
1000
AcDbSavedByObjectVersion
1070
     0
  0
VISUALSTYLE
  5
38
102
{ACAD_REACTORS
330
2A
102
}
330
2A
100
AcDbVisualStyle
  2
Linepattern
 70
    14
 71
     2
 72
     2
 73
     0
 90
        0
 40
-0.6
 41
-30.0
 62
     5
 63
     7
 74
     1
 91
        4
 64
     7
 65
   257
 75
     7
175
     7
 42
1.0
 92
        8
 66
     7
 43
1.0
 76
     1
 77
     6
 78
     2
 67
     7
 79
     5
170
     0
171
     0
290
     0
174
     0
 93
        1
 44
0.0
173
     0
291
     1
 45
0.0
1001
ACAD
1000
AcDbSavedByObjectVersion
1070
     0
  0
VISUALSTYLE
  5
33
102
{ACAD_REACTORS
330
2A
102
}
330
2A
100
AcDbVisualStyle
  2
Realistic
 70
     8
 71
     2
 72
     2
 73
     0
 90
        0
 40
-0.6
 41
-30.0
 62
     5
 63
     7
 74
     1
 91
        0
 64
     7
 65
   257
 75
     1
175
     1
 42
1.0
 92
        8
 66
     8
 43
1.0
 76
     1
 77
     6
 78
     2
 67
     7
 79
     5
170
     0
171
     0
290
     0
174
     0
 93
       13
 44
0.0
173
     0
291
     0
 45
0.0
1001
ACAD
1000
AcDbSavedByObjectVersion
1070
     0
  0
VISUALSTYLE
  5
37
102
{ACAD_REACTORS
330
2A
102
}
330
2A
100
AcDbVisualStyle
  2
Thicken
 70
    13
 71
     2
 72
     2
 73
     0
 90
        0
 40
-0.6
 41
-30.0
 62
     5
 63
     7
 74
     1
 91
        4
 64
     7
 65
   257
 75
     1
175
     1
 42
1.0
 92
       12
 66
     7
 43
1.0
 76
     1
 77
     6
 78
     2
 67
     7
 79
     5
170
     0
171
     0
290
     0
174
     0
 93
        1
 44
0.0
173
     0
291
     1
 45
0.0
1001
ACAD
1000
AcDbSavedByObjectVersion
1070
     0
  0
DICTIONARYVAR
  5
27C
102
{ACAD_REACTORS
330
27B
102
}
330
27B
100
DictionaryVariables
280
     0
  1
1:1
  0
DICTIONARYVAR
  5
280
102
{ACAD_REACTORS
330
27B
102
}
330
27B
100
DictionaryVariables
280
     0
  1
80.000000
  0
DICTIONARYVAR
  5
27F
102
{ACAD_REACTORS
330
27B
102
}
330
27B
100
DictionaryVariables
280
     0
  1
5.000000
  0
ENDSEC
  0
EOF
