  0
SECTION
  2
HEADER
  9
$ACADVER
  1
AC1015
  9
$ACADMAINTVER
 70
     6
  9
$DWGCODEPAGE
  3
ANSI_1252
  9
$INSBASE
 10
0.0
 20
0.0
 30
0.0
  9
$EXTMIN
 10
0.0
 20
0.0
 30
0.0
  9
$EXTMAX
 10
1682.0
 20
2378.0
 30
0.0
  9
$LIMMIN
 10
0.0
 20
0.0
  9
$LIMMAX
 10
1682.0
 20
2378.0
  9
$ORTHOMODE
 70
     0
  9
$REGENMODE
 70
     1
  9
$FILLMODE
 70
     1
  9
$QTEXTMODE
 70
     0
  9
$MIRRTEXT
 70
     1
  9
$LTSCALE
 40
1.0
  9
$ATTMODE
 70
     1
  9
$TEXTSIZE
 40
2.5
  9
$TRACEWID
 40
1.0
  9
$TEXTSTYLE
  7
Standard
  9
$CLAYER
  8
0
  9
$CELTYPE
  6
ByLayer
  9
$CECOLOR
 62
   256
  9
$CELTSCALE
 40
1.0
  9
$DISPSILH
 70
     0
  9
$DIMSCALE
 40
1.0
  9
$DIMASZ
 40
2.5
  9
$DIMEXO
 40
0.625
  9
$DIMDLI
 40
3.75
  9
$DIMRND
 40
0.0
  9
$DIMDLE
 40
0.0
  9
$DIMEXE
 40
1.25
  9
$DIMTP
 40
0.0
  9
$DIMTM
 40
0.0
  9
$DIMTXT
 40
2.5
  9
$DIMCEN
 40
2.5
  9
$DIMTSZ
 40
0.0
  9
$DIMTOL
 70
     0
  9
$DIMLIM
 70
     0
  9
$DIMTIH
 70
     0
  9
$DIMTOH
 70
     0
  9
$DIMSE1
 70
     0
  9
$DIMSE2
 70
     0
  9
$DIMTAD
 70
     1
  9
$DIMZIN
 70
     8
  9
$DIMBLK
  1

  9
$DIMASO
 70
     1
  9
$DIMSHO
 70
     1
  9
$DIMPOST
  1

  9
$DIMAPOST
  1

  9
$DIMALT
 70
     0
  9
$DIMALTD
 70
     3
  9
$DIMALTF
 40
0.0393700787
  9
$DIMLFAC
 40
1.0
  9
$DIMTOFL
 70
     1
  9
$DIMTVP
 40
0.0
  9
$DIMTIX
 70
     0
  9
$DIMSOXD
 70
     0
  9
$DIMSAH
 70
     0
  9
$DIMBLK1
  1

  9
$DIMBLK2
  1

  9
$DIMSTYLE
  2
ISO-25
  9
$DIMCLRD
 70
     0
  9
$DIMCLRE
 70
     0
  9
$DIMCLRT
 70
     0
  9
$DIMTFAC
 40
1.0
  9
$DIMGAP
 40
0.625
  9
$DIMJUST
 70
     0
  9
$DIMSD1
 70
     0
  9
$DIMSD2
 70
     0
  9
$DIMTOLJ
 70
     0
  9
$DIMTZIN
 70
     8
  9
$DIMALTZ
 70
     0
  9
$DIMALTTZ
 70
     0
  9
$DIMUPT
 70
     0
  9
$DIMDEC
 70
     2
  9
$DIMTDEC
 70
     2
  9
$DIMALTU
 70
     2
  9
$DIMALTTD
 70
     3
  9
$DIMTXSTY
  7
Standard
  9
$DIMAUNIT
 70
     0
  9
$DIMADEC
 70
     0
  9
$DIMALTRND
 40
0.0
  9
$DIMAZIN
 70
     0
  9
$DIMDSEP
 70
    44
  9
$DIMATFIT
 70
     3
  9
$DIMFRAC
 70
     0
  9
$DIMLDRBLK
  1

  9
$DIMLUNIT
 70
     2
  9
$DIMLWD
 70
    -2
  9
$DIMLWE
 70
    -2
  9
$DIMTMOVE
 70
     0
  9
$LUNITS
 70
     2
  9
$LUPREC
 70
     4
  9
$SKETCHINC
 40
1.0
  9
$FILLETRAD
 40
10.0
  9
$AUNITS
 70
     0
  9
$AUPREC
 70
     0
  9
$MENU
  1
.
  9
$ELEVATION
 40
0.0
  9
$PELEVATION
 40
0.0
  9
$THICKNESS
 40
0.0
  9
$LIMCHECK
 70
     0
  9
$CHAMFERA
 40
10.0
  9
$CHAMFERB
 40
10.0
  9
$CHAMFERC
 40
20.0
  9
$CHAMFERD
 40
0.0
  9
$SKPOLY
 70
     0
  9
$TDCREATE
 40
2455155.554938518
  9
$TDUCREATE
 40
2455155.513271852
  9
$TDUPDATE
 40
2455155.55493853
  9
$TDUUPDATE
 40
2455155.513271864
  9
$TDINDWG
 40
0.0000000116
  9
$TDUSRTIMER
 40
0.0000000116
  9
$USRTIMER
 70
     1
  9
$ANGBASE
 50
0.0
  9
$ANGDIR
 70
     0
  9
$PDMODE
 70
     0
  9
$PDSIZE
 40
0.0
  9
$PLINEWID
 40
0.0
  9
$SPLFRAME
 70
     0
  9
$SPLINETYPE
 70
     6
  9
$SPLINESEGS
 70
     8
  9
$HANDSEED
  5
16A
  9
$SURFTAB1
 70
     6
  9
$SURFTAB2
 70
     6
  9
$SURFTYPE
 70
     6
  9
$SURFU
 70
     6
  9
$SURFV
 70
     6
  9
$UCSBASE
  2

  9
$UCSNAME
  2

  9
$UCSORG
 10
0.0
 20
0.0
 30
0.0
  9
$UCSXDIR
 10
1.0
 20
0.0
 30
0.0
  9
$UCSYDIR
 10
0.0
 20
1.0
 30
0.0
  9
$UCSORTHOREF
  2

  9
$UCSORTHOVIEW
 70
     0
  9
$UCSORGTOP
 10
0.0
 20
0.0
 30
0.0
  9
$UCSORGBOTTOM
 10
0.0
 20
0.0
 30
0.0
  9
$UCSORGLEFT
 10
0.0
 20
0.0
 30
0.0
  9
$UCSORGRIGHT
 10
0.0
 20
0.0
 30
0.0
  9
$UCSORGFRONT
 10
0.0
 20
0.0
 30
0.0
  9
$UCSORGBACK
 10
0.0
 20
0.0
 30
0.0
  9
$PUCSBASE
  2

  9
$PUCSNAME
  2

  9
$PUCSORG
 10
0.0
 20
0.0
 30
0.0
  9
$PUCSXDIR
 10
1.0
 20
0.0
 30
0.0
  9
$PUCSYDIR
 10
0.0
 20
1.0
 30
0.0
  9
$PUCSORTHOREF
  2

  9
$PUCSORTHOVIEW
 70
     0
  9
$PUCSORGTOP
 10
0.0
 20
0.0
 30
0.0
  9
$PUCSORGBOTTOM
 10
0.0
 20
0.0
 30
0.0
  9
$PUCSORGLEFT
 10
0.0
 20
0.0
 30
0.0
  9
$PUCSORGRIGHT
 10
0.0
 20
0.0
 30
0.0
  9
$PUCSORGFRONT
 10
0.0
 20
0.0
 30
0.0
  9
$PUCSORGBACK
 10
0.0
 20
0.0
 30
0.0
  9
$USERI1
 70
     0
  9
$USERI2
 70
     0
  9
$USERI3
 70
     0
  9
$USERI4
 70
     0
  9
$USERI5
 70
     0
  9
$USERR1
 40
0.0
  9
$USERR2
 40
0.0
  9
$USERR3
 40
0.0
  9
$USERR4
 40
0.0
  9
$USERR5
 40
0.0
  9
$WORLDVIEW
 70
     1
  9
$SHADEDGE
 70
     3
  9
$SHADEDIF
 70
    70
  9
$TILEMODE
 70
     1
  9
$MAXACTVP
 70
    64
  9
$PINSBASE
 10
0.0
 20
0.0
 30
0.0
  9
$PLIMCHECK
 70
     0
  9
$PEXTMIN
 10
0.0
 20
0.0
 30
0.0
  9
$PEXTMAX
 10
1682.0
 20
2378.0
 30
0.0
  9
$PLIMMIN
 10
0.0
 20
0.0
  9
$PLIMMAX
 10
1682.0
 20
2378.0
  9
$UNITMODE
 70
     0
  9
$VISRETAIN
 70
     1
  9
$PLINEGEN
 70
     0
  9
$PSLTSCALE
 70
     1
  9
$TREEDEPTH
 70
  3020
  9
$CMLSTYLE
  2
Standard
  9
$CMLJUST
 70
     0
  9
$CMLSCALE
 40
20.0
  9
$PROXYGRAPHICS
 70
     1
  9
$MEASUREMENT
 70
     1
  9
$CELWEIGHT
370
    -1
  9
$ENDCAPS
280
     0
  9
$JOINSTYLE
280
     0
  9
$LWDISPLAY
290
     0
  9
$INSUNITS
 70
     4
  9
$HYPERLINKBASE
  1

  9
$STYLESHEET
  1

  9
$XEDIT
290
     1
  9
$CEPSNTYPE
380
     0
  9
$PSTYLEMODE
290
     1
  9
$FINGERPRINTGUID
  2
{4FCD054F-AD76-4C90-924F-45CEF76C77C6}
  9
$VERSIONGUID
  2
{FAEB1C32-E019-11D5-929B-00C0DF256EC4}
  9
$EXTNAMES
290
     1
  9
$PSVPSCALE
 40
0.0
  9
$OLESTARTUP
290
     0
  0
ENDSEC
  0
SECTION
  2
CLASSES
  0
CLASS
  1
ACDBDICTIONARYWDFLT
  2
AcDbDictionaryWithDefault
  3
ObjectDBX Classes
 90
        0
280
     0
281
     0
  0
CLASS
  1
VISUALSTYLE
  2
AcDbVisualStyle
  3
ObjectDBX Classes
 90
     4095
280
     0
281
     0
  0
CLASS
  1
SCALE
  2
AcDbScale
  3
ObjectDBX Classes
 90
     1153
280
     0
281
     0
  0
CLASS
  1
DICTIONARYVAR
  2
AcDbDictionaryVar
  3
ObjectDBX Classes
 90
        0
280
     0
281
     0
  0
CLASS
  1
ACDBPLACEHOLDER
  2
AcDbPlaceHolder
  3
ObjectDBX Classes
 90
        0
280
     0
281
     0
  0
CLASS
  1
LAYOUT
  2
AcDbLayout
  3
ObjectDBX Classes
 90
        0
280
     0
281
     0
  0
ENDSEC
  0
SECTION
  2
TABLES
  0
TABLE
  2
VPORT
  5
8
330
0
100
AcDbSymbolTable
 70
     1
  0
VPORT
  5
29
330
8
100
AcDbSymbolTableRecord
100
AcDbViewportTableRecord
  2
*Active
 70
     0
 10
0.0
 20
0.0
 11
1.0
 21
1.0
 12
344.1869158879
 22
148.5
 13
0.0
 23
0.0
 14
10.0
 24
10.0
 15
10.0
 25
10.0
 16
0.0
 26
0.0
 36
1.0
 17
0.0
 27
0.0
 37
0.0
 40
297.0
 41
1.9729729729
 42
50.0
 43
0.0
 44
0.0
 50
0.0
 51
0.0
 71
     0
 72
   100
 73
     1
 74
     3
 75
     0
 76
     0
 77
     0
 78
     0
281
     0
 65
     1
110
0.0
120
0.0
130
0.0
111
1.0
121
0.0
131
0.0
112
0.0
122
1.0
132
0.0
 79
     0
146
0.0
  0
ENDTAB
  0
TABLE
  2
LTYPE
  5
5
330
0
100
AcDbSymbolTable
 70
     1
  0
LTYPE
  5
14
330
5
100
AcDbSymbolTableRecord
100
AcDbLinetypeTableRecord
  2
ByBlock
 70
     0
  3

 72
    65
 73
     0
 40
0.0
  0
LTYPE
  5
15
330
5
100
AcDbSymbolTableRecord
100
AcDbLinetypeTableRecord
  2
ByLayer
 70
     0
  3

 72
    65
 73
     0
 40
0.0
  0
LTYPE
  5
16
330
5
100
AcDbSymbolTableRecord
100
AcDbLinetypeTableRecord
  2
Continuous
 70
     0
  3
Solid line
 72
    65
 73
     0
 40
0.0
  0
ENDTAB
  0
TABLE
  2
LAYER
  5
2
330
0
100
AcDbSymbolTable
 70
    12
  0
LAYER
  5
10
330
2
100
AcDbSymbolTableRecord
100
AcDbLayerTableRecord
  2
0
 70
     0
 62
     7
  6
Continuous
370
    -3
390
F
  0
LAYER
  5
5D
330
2
100
AcDbSymbolTableRecord
100
AcDbLayerTableRecord
  2
Default
 70
     0
 62
     7
  6
Continuous
370
    -3
390
F
  0
LAYER
  5
60
330
2
100
AcDbSymbolTableRecord
100
AcDbLayerTableRecord
  2
$DDT_AUDIT_GENERATED_(60)
 70
     0
 62
     7
  6
Continuous
370
    -3
390
F
  0
LAYER
  5
71
330
2
100
AcDbSymbolTableRecord
100
AcDbLayerTableRecord
  2
$DDT_AUDIT_GENERATED_(71)
 70
     0
 62
     7
  6
Continuous
370
    -3
390
F
  0
LAYER
  5
79
330
2
100
AcDbSymbolTableRecord
100
AcDbLayerTableRecord
  2
$DDT_AUDIT_GENERATED_(79)
 70
     0
 62
     7
  6
Continuous
370
    -3
390
F
  0
LAYER
  5
7C
330
2
100
AcDbSymbolTableRecord
100
AcDbLayerTableRecord
  2
$DDT_AUDIT_GENERATED_(7C)
 70
     0
 62
     7
  6
Continuous
370
    -3
390
F
  0
LAYER
  5
A0
330
2
100
AcDbSymbolTableRecord
100
AcDbLayerTableRecord
  2
$DDT_AUDIT_GENERATED_(A0)
 70
     0
 62
     7
  6
Continuous
370
    -3
390
F
  0
LAYER
  5
AA
330
2
100
AcDbSymbolTableRecord
100
AcDbLayerTableRecord
  2
$DDT_AUDIT_GENERATED_(AA)
 70
     0
 62
     7
  6
Continuous
370
    -3
390
F
  0
LAYER
  5
B1
330
2
100
AcDbSymbolTableRecord
100
AcDbLayerTableRecord
  2
$DDT_AUDIT_GENERATED_(B1)
 70
     0
 62
     7
  6
Continuous
370
    -3
390
F
  0
LAYER
  5
BB
330
2
100
AcDbSymbolTableRecord
100
AcDbLayerTableRecord
  2
$DDT_AUDIT_GENERATED_(BB)
 70
     0
 62
     7
  6
Continuous
370
    -3
390
F
  0
LAYER
  5
14F
330
2
100
AcDbSymbolTableRecord
100
AcDbLayerTableRecord
  2
20_10_26XX_KEGEL
 70
     0
 62
     7
  6
Continuous
370
    -3
390
F
  0
LAYER
  5
153
330
2
100
AcDbSymbolTableRecord
100
AcDbLayerTableRecord
  2
$DDT_AUDIT_GENERATED_(153)
 70
     0
 62
     7
  6
Continuous
370
    -3
390
F
  0
ENDTAB
  0
TABLE
  2
STYLE
  5
3
330
0
100
AcDbSymbolTable
 70
     2
  0
STYLE
  5
11
330
3
100
AcDbSymbolTableRecord
100
AcDbTextStyleTableRecord
  2
Standard
 70
     0
 40
0.0
 41
1.0
 50
0.0
 71
     0
 42
2.5
  3
txt
  4

  0
STYLE
  5
159
330
3
100
AcDbSymbolTableRecord
100
AcDbTextStyleTableRecord
  2
SEACAD_seiso_ttf
 70
     0
 40
0.0
 41
1.0
 50
0.0
 71
     0
 42
0.2
  3
seiso.ttf
  4

  0
ENDTAB
  0
TABLE
  2
VIEW
  5
6
330
0
100
AcDbSymbolTable
 70
     0
  0
ENDTAB
  0
TABLE
  2
UCS
  5
7
330
0
100
AcDbSymbolTable
 70
     0
  0
ENDTAB
  0
TABLE
  2
APPID
  5
9
330
0
100
AcDbSymbolTable
 70
     1
  0
APPID
  5
12
330
9
100
AcDbSymbolTableRecord
100
AcDbRegAppTableRecord
  2
ACAD
 70
     0
  0
ENDTAB
  0
TABLE
  2
DIMSTYLE
  5
A
330
0
100
AcDbSymbolTable
 70
     1
100
AcDbDimStyleTable
  0
DIMSTYLE
105
27
330
A
100
AcDbSymbolTableRecord
100
AcDbDimStyleTableRecord
  2
ISO-25
 70
     0
 41
2.5
 42
0.625
 43
3.75
 44
1.25
 73
     0
 74
     0
 77
     1
 78
     8
140
2.5
141
2.5
143
0.0393700787
147
0.625
171
     3
172
     1
271
     2
272
     2
274
     3
278
    44
283
     0
284
     8
340
11
  0
ENDTAB
  0
TABLE
  2
BLOCK_RECORD
  5
1
330
0
100
AcDbSymbolTable
 70
     4
  0
BLOCK_RECORD
  5
1F
330
1
100
AcDbSymbolTableRecord
100
AcDbBlockTableRecord
  2
*Model_Space
340
22
  0
BLOCK_RECORD
  5
1B
330
1
100
AcDbSymbolTableRecord
100
AcDbBlockTableRecord
  2
*Paper_Space
340
1E
  0
BLOCK_RECORD
  5
5E
330
1
100
AcDbSymbolTableRecord
100
AcDbBlockTableRecord
  2
SE
340
0
102
{BLKREFS
331
5F
102
}
  0
BLOCK_RECORD
  5
C2
330
1
100
AcDbSymbolTableRecord
100
AcDbBlockTableRecord
  2
SE1
340
0
102
{BLKREFS
331
C3
102
}
  0
BLOCK_RECORD
  5
133
330
1
100
AcDbSymbolTableRecord
100
AcDbBlockTableRecord
  2
SE2
340
0
102
{BLKREFS
331
134
102
}
  0
ENDTAB
  0
ENDSEC
  0
SECTION
  2
BLOCKS
  0
BLOCK
  5
20
330
1F
100
AcDbEntity
  8
0
100
AcDbBlockBegin
  2
*Model_Space
 70
     0
 10
0.0
 20
0.0
 30
0.0
  3
*Model_Space
  1

  0
ENDBLK
  5
21
330
1F
100
AcDbEntity
  8
0
100
AcDbBlockEnd
  0
BLOCK
  5
1C
330
1B
100
AcDbEntity
 67
     1
  8
0
100
AcDbBlockBegin
  2
*Paper_Space
 70
     0
 10
0.0
 20
0.0
 30
0.0
  3
*Paper_Space
  1

  0
ENDBLK
  5
1D
330
1B
100
AcDbEntity
 67
     1
  8
0
100
AcDbBlockEnd
  0
BLOCK
  5
C0
330
5E
100
AcDbEntity
  8
0
100
AcDbBlockBegin
  2
SE
 70
     0
 10
0.0
 20
0.0
 30
0.0
  3
SE
  1

  0
LINE
  5
61
330
5E
100
AcDbEntity
  8
$DDT_AUDIT_GENERATED_(60)
  6
Continuous
 62
     7
100
AcDbLine
 10
11.1
 20
519.9461767065
 30
0.0
 11
47.6
 21
519.9461767065
 31
0.0
  0
LINE
  5
62
330
5E
100
AcDbEntity
  8
$DDT_AUDIT_GENERATED_(60)
  6
Continuous
 62
     7
100
AcDbLine
 10
11.35
 20
525.3791894084
 30
0.0
 11
47.35
 21
525.3791894084
 31
0.0
  0
LINE
  5
63
330
5E
100
AcDbEntity
  8
$DDT_AUDIT_GENERATED_(60)
  6
Continuous
 62
     7
100
AcDbLine
 10
11.35
 20
520.3791894084
 30
0.0
 11
47.35
 21
520.3791894084
 31
0.0
  0
LINE
  5
64
330
5E
100
AcDbEntity
  8
$DDT_AUDIT_GENERATED_(60)
  6
Continuous
 62
     7
100
AcDbLine
 10
47.6
 20
439.3122021103
 30
0.0
 11
11.1
 21
439.3122021103
 31
0.0
  0
LINE
  5
65
330
5E
100
AcDbEntity
  8
$DDT_AUDIT_GENERATED_(60)
  6
Continuous
 62
     7
100
AcDbLine
 10
11.35
 20
438.8791894084
 30
0.0
 11
47.35
 21
438.8791894084
 31
0.0
  0
LINE
  5
66
330
5E
100
AcDbEntity
  8
$DDT_AUDIT_GENERATED_(60)
  6
Continuous
 62
     7
100
AcDbLine
 10
11.35
 20
433.8791894084
 30
0.0
 11
47.35
 21
433.8791894084
 31
0.0
  0
LINE
  5
67
330
5E
100
AcDbEntity
  8
$DDT_AUDIT_GENERATED_(60)
  6
Continuous
 62
     7
100
AcDbLine
 10
11.1
 20
519.9461767065
 30
0.0
 11
11.1
 21
439.3122021103
 31
0.0
  0
LINE
  5
68
330
5E
100
AcDbEntity
  8
$DDT_AUDIT_GENERATED_(60)
  6
Continuous
 62
     7
100
AcDbLine
 10
47.6
 20
439.3122021103
 30
0.0
 11
47.6
 21
519.9461767065
 31
0.0
  0
LINE
  5
69
330
5E
100
AcDbEntity
  8
$DDT_AUDIT_GENERATED_(60)
  6
Continuous
 62
     7
100
AcDbLine
 10
47.35
 20
520.3791894084
 30
0.0
 11
47.35
 21
525.3791894084
 31
0.0
  0
LINE
  5
6A
330
5E
100
AcDbEntity
  8
$DDT_AUDIT_GENERATED_(60)
  6
Continuous
 62
     7
100
AcDbLine
 10
11.35
 20
525.3791894084
 30
0.0
 11
11.35
 21
520.3791894084
 31
0.0
  0
LINE
  5
6B
330
5E
100
AcDbEntity
  8
$DDT_AUDIT_GENERATED_(60)
  6
Continuous
 62
     7
100
AcDbLine
 10
47.6
 20
519.9461767065
 30
0.0
 11
47.35
 21
520.3791894084
 31
0.0
  0
LINE
  5
6C
330
5E
100
AcDbEntity
  8
$DDT_AUDIT_GENERATED_(60)
  6
Continuous
 62
     7
100
AcDbLine
 10
11.35
 20
520.3791894084
 30
0.0
 11
11.1
 21
519.9461767065
 31
0.0
  0
LINE
  5
6D
330
5E
100
AcDbEntity
  8
$DDT_AUDIT_GENERATED_(60)
  6
Continuous
 62
     7
100
AcDbLine
 10
11.1
 20
439.3122021103
 30
0.0
 11
11.35
 21
438.8791894084
 31
0.0
  0
LINE
  5
6E
330
5E
100
AcDbEntity
  8
$DDT_AUDIT_GENERATED_(60)
  6
Continuous
 62
     7
100
AcDbLine
 10
47.35
 20
438.8791894084
 30
0.0
 11
47.6
 21
439.3122021103
 31
0.0
  0
LINE
  5
6F
330
5E
100
AcDbEntity
  8
$DDT_AUDIT_GENERATED_(60)
  6
Continuous
 62
     7
100
AcDbLine
 10
47.35
 20
433.8791894084
 30
0.0
 11
47.35
 21
438.8791894084
 31
0.0
  0
LINE
  5
70
330
5E
100
AcDbEntity
  8
$DDT_AUDIT_GENERATED_(60)
  6
Continuous
 62
     7
100
AcDbLine
 10
11.35
 20
438.8791894084
 30
0.0
 11
11.35
 21
433.8791894084
 31
0.0
  0
LINE
  5
72
330
5E
100
AcDbEntity
  8
$DDT_AUDIT_GENERATED_(71)
  6
Continuous
 62
     7
100
AcDbLine
 10
18.0201929611
 20
413.8791894084
 30
0.0
 11
40.6798070389
 21
413.8791894084
 31
0.0
  0
LINE
  5
73
330
5E
100
AcDbEntity
  8
$DDT_AUDIT_GENERATED_(71)
  6
Continuous
 62
     7
100
AcDbLine
 10
17.3543253562
 20
433.3835526761
 30
0.0
 11
17.5202119996
 21
414.3748261406
 31
0.0
  0
LINE
  5
74
330
5E
100
AcDbEntity
  8
$DDT_AUDIT_GENERATED_(71)
  6
Continuous
 62
     7
100
AcDbLine
 10
41.1797880004
 20
414.3748261406
 30
0.0
 11
41.3456746438
 21
433.3835526761
 31
0.0
  0
ARC
  5
75
330
5E
100
AcDbEntity
  8
$DDT_AUDIT_GENERATED_(71)
  6
Continuous
 62
     7
100
AcDbCircle
 10
16.8543443947
 20
433.3791894084
 30
0.0
 40
0.5000000000000004
100
AcDbArc
 50
0.5
 51
90.0
  0
ARC
  5
76
330
5E
100
AcDbEntity
  8
$DDT_AUDIT_GENERATED_(71)
  6
Continuous
 62
     7
100
AcDbCircle
 10
41.8456556053
 20
433.3791894084
 30
0.0
 40
0.4999999999999998
100
AcDbArc
 50
90.0
 51
179.5
  0
ARC
  5
77
330
5E
100
AcDbEntity
  8
$DDT_AUDIT_GENERATED_(71)
  6
Continuous
 62
     7
100
AcDbCircle
 10
18.0201929611
 20
414.3791894084
 30
0.0
 40
0.5000000000000006
100
AcDbArc
 50
180.5
 51
270.0
  0
ARC
  5
78
330
5E
100
AcDbEntity
  8
$DDT_AUDIT_GENERATED_(71)
  6
Continuous
 62
     7
100
AcDbCircle
 10
40.6798070389
 20
414.3791894084
 30
0.0
 40
0.5000000000000004
100
AcDbArc
 50
270.0
 51
359.5
  0
LINE
  5
7A
330
5E
100
AcDbEntity
  8
$DDT_AUDIT_GENERATED_(79)
  6
Continuous
 62
     7
100
AcDbLine
 10
20.35
 20
413.8791894084
 30
0.0
 11
20.35
 21
267.4838933023
 31
0.0
  0
LINE
  5
7B
330
5E
100
AcDbEntity
  8
$DDT_AUDIT_GENERATED_(79)
  6
Continuous
 62
     7
100
AcDbLine
 10
38.35
 20
267.4838933023
 30
0.0
 11
38.35
 21
413.8791894084
 31
0.0
  0
LINE
  5
7D
330
5E
100
AcDbEntity
  8
$DDT_AUDIT_GENERATED_(7C)
  6
Continuous
 62
     7
100
AcDbLine
 10
43.7002577388
 20
245.8791894084
 30
0.0
 11
14.9997422612
 21
245.8791894084
 31
0.0
  0
LINE
  5
7E
330
5E
100
AcDbEntity
  8
$DDT_AUDIT_GENERATED_(7C)
  6
Continuous
 62
     7
100
AcDbLine
 10
48.15
 20
248.8791894084
 30
0.0
 11
10.55
 21
248.8791894084
 31
0.0
  0
LINE
  5
7F
330
5E
100
AcDbEntity
  8
$DDT_AUDIT_GENERATED_(7C)
  6
Continuous
 62
     7
100
AcDbLine
 10
43.85
 20
251.5368735467
 30
0.0
 11
14.85
 21
251.5368735467
 31
0.0
  0
LINE
  5
80
330
5E
100
AcDbEntity
  8
$DDT_AUDIT_GENERATED_(7C)
  6
Continuous
 62
     7
100
AcDbLine
 10
47.1461201606
 20
253.8791894084
 30
0.0
 11
11.5538798394
 21
253.8791894084
 31
0.0
  0
LINE
  5
81
330
5E
100
AcDbEntity
  8
$DDT_AUDIT_GENERATED_(7C)
  6
Continuous
 62
     7
100
AcDbLine
 10
43.85
 20
254.5368735467
 30
0.0
 11
14.85
 21
254.5368735467
 31
0.0
  0
LINE
  5
82
330
5E
100
AcDbEntity
  8
$DDT_AUDIT_GENERATED_(7C)
  6
Continuous
 62
     7
100
AcDbLine
 10
47.1461201606
 20
256.8791894084
 30
0.0
 11
11.5538798394
 21
256.8791894084
 31
0.0
  0
LINE
  5
83
330
5E
100
AcDbEntity
  8
$DDT_AUDIT_GENERATED_(7C)
  6
Continuous
 62
     7
100
AcDbLine
 10
43.85
 20
257.5368735467
 30
0.0
 11
14.85
 21
257.5368735467
 31
0.0
  0
LINE
  5
84
330
5E
100
AcDbEntity
  8
$DDT_AUDIT_GENERATED_(7C)
  6
Continuous
 62
     7
100
AcDbLine
 10
47.1461201606
 20
259.8791894084
 30
0.0
 11
11.5538798394
 21
259.8791894084
 31
0.0
  0
LINE
  5
85
330
5E
100
AcDbEntity
  8
$DDT_AUDIT_GENERATED_(7C)
  6
Continuous
 62
     7
100
AcDbLine
 10
52.35
 20
262.8791894084
 30
0.0
 11
6.35
 21
262.8791894084
 31
0.0
  0
LINE
  5
86
330
5E
100
AcDbEntity
  8
$DDT_AUDIT_GENERATED_(7C)
  6
Continuous
 62
     7
100
AcDbLine
 10
10.45
 20
248.5059843276
 30
0.0
 11
14.9997422612
 21
245.8791894084
 31
0.0
  0
LINE
  5
87
330
5E
100
AcDbEntity
  8
$DDT_AUDIT_GENERATED_(7C)
  6
Continuous
 62
     7
100
AcDbLine
 10
43.7002577388
 20
245.8791894084
 30
0.0
 11
48.25
 21
248.5059843276
 31
0.0
  0
ARC
  5
88
330
5E
100
AcDbEntity
  8
$DDT_AUDIT_GENERATED_(7C)
  6
Continuous
 62
     7
100
AcDbCircle
 10
10.55
 20
248.6791894084
 30
0.0
 40
0.199999999999978
100
AcDbArc
 50
90.0
 51
240.0
  0
ARC
  5
89
330
5E
100
AcDbEntity
  8
$DDT_AUDIT_GENERATED_(7C)
  6
Continuous
 62
     7
100
AcDbCircle
 10
48.15
 20
248.6791894084
 30
0.0
 40
0.2000000000000196
100
AcDbArc
 50
300.0
 51
90.0
  0
LINE
  5
8A
330
5E
100
AcDbEntity
  8
$DDT_AUDIT_GENERATED_(7C)
  6
Continuous
 62
     7
100
AcDbLine
 10
14.85
 20
251.5368735467
 30
0.0
 11
14.85
 21
248.8791894084
 31
0.0
  0
LINE
  5
8B
330
5E
100
AcDbEntity
  8
$DDT_AUDIT_GENERATED_(7C)
  6
Continuous
 62
     7
100
AcDbLine
 10
43.85
 20
248.8791894084
 30
0.0
 11
43.85
 21
251.5368735467
 31
0.0
  0
LINE
  5
8C
330
5E
100
AcDbEntity
  8
$DDT_AUDIT_GENERATED_(7C)
  6
Continuous
 62
     7
100
AcDbLine
 10
11.4519399197
 20
253.4987444488
 30
0.0
 11
14.85
 21
251.5368735467
 31
0.0
  0
LINE
  5
8D
330
5E
100
AcDbEntity
  8
$DDT_AUDIT_GENERATED_(7C)
  6
Continuous
 62
     7
100
AcDbLine
 10
43.85
 20
251.5368735467
 30
0.0
 11
47.2480600803
 21
253.4987444488
 31
0.0
  0
ARC
  5
8E
330
5E
100
AcDbEntity
  8
$DDT_AUDIT_GENERATED_(7C)
  6
Continuous
 62
     7
100
AcDbCircle
 10
11.5538798394
 20
253.675309569
 30
0.0
 40
0.2038798393763086
100
AcDbArc
 50
90.0
 51
240.0
  0
ARC
  5
8F
330
5E
100
AcDbEntity
  8
$DDT_AUDIT_GENERATED_(7C)
  6
Continuous
 62
     7
100
AcDbCircle
 10
47.1461201606
 20
253.675309569
 30
0.0
 40
0.2038798393763322
100
AcDbArc
 50
300.0
 51
90.0
  0
LINE
  5
90
330
5E
100
AcDbEntity
  8
$DDT_AUDIT_GENERATED_(7C)
  6
Continuous
 62
     7
100
AcDbLine
 10
14.85
 20
254.5368735467
 30
0.0
 11
14.85
 21
253.8791894084
 31
0.0
  0
LINE
  5
91
330
5E
100
AcDbEntity
  8
$DDT_AUDIT_GENERATED_(7C)
  6
Continuous
 62
     7
100
AcDbLine
 10
43.85
 20
253.8791894084
 30
0.0
 11
43.85
 21
254.5368735467
 31
0.0
  0
LINE
  5
92
330
5E
100
AcDbEntity
  8
$DDT_AUDIT_GENERATED_(7C)
  6
Continuous
 62
     7
100
AcDbLine
 10
11.4519399197
 20
256.4987444488
 30
0.0
 11
14.85
 21
254.5368735467
 31
0.0
  0
LINE
  5
93
330
5E
100
AcDbEntity
  8
$DDT_AUDIT_GENERATED_(7C)
  6
Continuous
 62
     7
100
AcDbLine
 10
43.85
 20
254.5368735467
 30
0.0
 11
47.2480600803
 21
256.4987444488
 31
0.0
  0
ARC
  5
94
330
5E
100
AcDbEntity
  8
$DDT_AUDIT_GENERATED_(7C)
  6
Continuous
 62
     7
100
AcDbCircle
 10
11.5538798394
 20
256.675309569
 30
0.0
 40
0.2038798393763086
100
AcDbArc
 50
90.0
 51
240.0
  0
ARC
  5
95
330
5E
100
AcDbEntity
  8
$DDT_AUDIT_GENERATED_(7C)
  6
Continuous
 62
     7
100
AcDbCircle
 10
47.1461201606
 20
256.675309569
 30
0.0
 40
0.2038798393762859
100
AcDbArc
 50
300.0
 51
90.0
  0
LINE
  5
96
330
5E
100
AcDbEntity
  8
$DDT_AUDIT_GENERATED_(7C)
  6
Continuous
 62
     7
100
AcDbLine
 10
14.85
 20
257.5368735467
 30
0.0
 11
14.85
 21
256.8791894084
 31
0.0
  0
LINE
  5
97
330
5E
100
AcDbEntity
  8
$DDT_AUDIT_GENERATED_(7C)
  6
Continuous
 62
     7
100
AcDbLine
 10
43.85
 20
256.8791894084
 30
0.0
 11
43.85
 21
257.5368735467
 31
0.0
  0
LINE
  5
98
330
5E
100
AcDbEntity
  8
$DDT_AUDIT_GENERATED_(7C)
  6
Continuous
 62
     7
100
AcDbLine
 10
11.4519399197
 20
259.4987444488
 30
0.0
 11
14.85
 21
257.5368735467
 31
0.0
  0
LINE
  5
99
330
5E
100
AcDbEntity
  8
$DDT_AUDIT_GENERATED_(7C)
  6
Continuous
 62
     7
100
AcDbLine
 10
43.85
 20
257.5368735467
 30
0.0
 11
47.2480600803
 21
259.4987444488
 31
0.0
  0
ARC
  5
9A
330
5E
100
AcDbEntity
  8
$DDT_AUDIT_GENERATED_(7C)
  6
Continuous
 62
     7
100
AcDbCircle
 10
11.5538798394
 20
259.675309569
 30
0.0
 40
0.2038798393763086
100
AcDbArc
 50
90.0
 51
240.0
  0
ARC
  5
9B
330
5E
100
AcDbEntity
  8
$DDT_AUDIT_GENERATED_(7C)
  6
Continuous
 62
     7
100
AcDbCircle
 10
47.1461201606
 20
259.675309569
 30
0.0
 40
0.2038798393762876
100
AcDbArc
 50
300.0
 51
90.0
  0
LINE
  5
9C
330
5E
100
AcDbEntity
  8
$DDT_AUDIT_GENERATED_(7C)
  6
Continuous
 62
     7
100
AcDbLine
 10
14.85
 20
262.4838933023
 30
0.0
 11
14.85
 21
259.8791894084
 31
0.0
  0
LINE
  5
9D
330
5E
100
AcDbEntity
  8
$DDT_AUDIT_GENERATED_(7C)
  6
Continuous
 62
     7
100
AcDbLine
 10
43.85
 20
259.8791894084
 30
0.0
 11
43.85
 21
262.4838933023
 31
0.0
  0
LINE
  5
9E
330
5E
100
AcDbEntity
  8
$DDT_AUDIT_GENERATED_(7C)
  6
Continuous
 62
     7
100
AcDbLine
 10
6.35
 20
263.4541259163
 30
0.0
 11
6.35
 21
262.8791894084
 31
0.0
  0
LINE
  5
9F
330
5E
100
AcDbEntity
  8
$DDT_AUDIT_GENERATED_(7C)
  6
Continuous
 62
     7
100
AcDbLine
 10
52.35
 20
262.8791894084
 30
0.0
 11
52.35
 21
263.4541259163
 31
0.0
  0
LINE
  5
A1
330
5E
100
AcDbEntity
  8
$DDT_AUDIT_GENERATED_(A0)
  6
Continuous
 62
     7
100
AcDbLine
 10
52.35
 20
262.4838933023
 30
0.0
 11
6.35
 21
262.4838933023
 31
0.0
  0
LINE
  5
A2
330
5E
100
AcDbEntity
  8
$DDT_AUDIT_GENERATED_(A0)
  6
Continuous
 62
     7
100
AcDbLine
 10
52.35
 20
264.6188247037
 30
0.0
 11
6.35
 21
264.6188247037
 31
0.0
  0
LINE
  5
A3
330
5E
100
AcDbEntity
  8
$DDT_AUDIT_GENERATED_(A0)
  6
Continuous
 62
     7
100
AcDbLine
 10
38.6
 20
267.4838933023
 30
0.0
 11
20.1
 21
267.4838933023
 31
0.0
  0
LINE
  5
A4
330
5E
100
AcDbEntity
  8
$DDT_AUDIT_GENERATED_(A0)
  6
Continuous
 62
     7
100
AcDbLine
 10
6.35
 20
264.6188247037
 30
0.0
 11
6.35
 21
262.4838933023
 31
0.0
  0
LINE
  5
A5
330
5E
100
AcDbEntity
  8
$DDT_AUDIT_GENERATED_(A0)
  6
Continuous
 62
     7
100
AcDbLine
 10
52.35
 20
262.4838933023
 30
0.0
 11
52.35
 21
264.6188247037
 31
0.0
  0
ARC
  5
A6
330
5E
100
AcDbEntity
  8
$DDT_AUDIT_GENERATED_(A0)
  6
Continuous
 62
     7
100
AcDbCircle
 10
7.35
 20
264.6188247037
 30
0.0
 40
1.0
100
AcDbArc
 50
98.2758928271
 51
180.0
  0
ARC
  5
A7
330
5E
100
AcDbEntity
  8
$DDT_AUDIT_GENERATED_(A0)
  6
Continuous
 62
     7
100
AcDbCircle
 10
51.35
 20
264.6188247037
 30
0.0
 40
1.000000000000001
100
AcDbArc
 50
0.0
 51
81.7241071729
  0
LINE
  5
A8
330
5E
100
AcDbEntity
  8
$DDT_AUDIT_GENERATED_(A0)
  6
Continuous
 62
     7
100
AcDbLine
 10
51.4939398457
 20
265.6084111429
 30
0.0
 11
38.6
 21
267.4838933023
 31
0.0
  0
LINE
  5
A9
330
5E
100
AcDbEntity
  8
$DDT_AUDIT_GENERATED_(A0)
  6
Continuous
 62
     7
100
AcDbLine
 10
20.1
 20
267.4838933023
 30
0.0
 11
7.2060601543
 21
265.6084111429
 31
0.0
  0
LINE
  5
AB
330
5E
100
AcDbEntity
  8
$DDT_AUDIT_GENERATED_(AA)
  6
Continuous
 62
     7
100
AcDbLine
 10
50.35
 20
461.3791894084
 30
0.0
 11
50.35
 21
510.3791894084
 31
0.0
  0
ARC
  5
AC
330
5E
100
AcDbEntity
  8
$DDT_AUDIT_GENERATED_(AA)
  6
Continuous
 62
     7
100
AcDbCircle
 10
44.35
 20
461.3791894084
 30
0.0
 40
5.999999999999998
100
AcDbArc
 50
302.7971682958
 51
0.0
  0
ARC
  5
AD
330
5E
100
AcDbEntity
  8
$DDT_AUDIT_GENERATED_(AA)
  6
Continuous
 62
     7
100
AcDbCircle
 10
14.35
 20
461.3791894084
 30
0.0
 40
6.000000000000004
100
AcDbArc
 50
180.0
 51
237.2028317042
  0
LINE
  5
AE
330
5E
100
AcDbEntity
  8
$DDT_AUDIT_GENERATED_(AA)
  6
Continuous
 62
     7
100
AcDbLine
 10
8.35
 20
510.3791894084
 30
0.0
 11
8.35
 21
461.3791894084
 31
0.0
  0
ARC
  5
AF
330
5E
100
AcDbEntity
  8
$DDT_AUDIT_GENERATED_(AA)
  6
Continuous
 62
     7
100
AcDbCircle
 10
14.35
 20
510.3791894084
 30
0.0
 40
6.000000000000002
100
AcDbArc
 50
122.7971682958
 51
180.0
  0
ARC
  5
B0
330
5E
100
AcDbEntity
  8
$DDT_AUDIT_GENERATED_(AA)
  6
Continuous
 62
     7
100
AcDbCircle
 10
44.35
 20
510.3791894084
 30
0.0
 40
6.000000000000002
100
AcDbArc
 50
0.0
 51
57.2028317042
  0
LINE
  5
B2
330
5E
100
AcDbEntity
  8
$DDT_AUDIT_GENERATED_(B1)
  6
Continuous
 62
     7
100
AcDbLine
 10
11.5282081424
 20
548.7998198851
 30
0.0
 11
47.1717918576
 21
548.7998198851
 31
0.0
  0
LINE
  5
B3
330
5E
100
AcDbEntity
  8
$DDT_AUDIT_GENERATED_(B1)
  6
Continuous
 62
     7
100
AcDbLine
 10
11.7535059785
 20
528.3791894084
 30
0.0
 11
46.9464940215
 21
528.3791894084
 31
0.0
  0
LINE
  5
B4
330
5E
100
AcDbEntity
  8
$DDT_AUDIT_GENERATED_(B1)
  6
Continuous
 62
     7
100
AcDbLine
 10
47.3464787908
 20
528.7826800226
 30
0.0
 11
47.1717918576
 21
548.7998198851
 31
0.0
  0
LINE
  5
B5
330
5E
100
AcDbEntity
  8
$DDT_AUDIT_GENERATED_(B1)
  6
Continuous
 62
     7
100
AcDbLine
 10
11.5282081424
 20
548.7998198851
 30
0.0
 11
11.3535212092
 21
528.7826800226
 31
0.0
  0
ARC
  5
B6
330
5E
100
AcDbEntity
  8
$DDT_AUDIT_GENERATED_(B1)
  6
Continuous
 62
     7
100
AcDbCircle
 10
29.35
 20
289.7791894084
 30
0.0
 40
261.3
100
AcDbArc
 50
86.4602342678
 51
93.5397657322
  0
ARC
  5
B7
330
5E
100
AcDbEntity
  8
$DDT_AUDIT_GENERATED_(B1)
  6
Continuous
 62
     7
100
AcDbCircle
 10
45.3718603961
 20
548.7841121212
 30
0.0
 40
1.800000000000634
100
AcDbArc
 50
0.5
 51
86.4602342677
  0
ARC
  5
B8
330
5E
100
AcDbEntity
  8
$DDT_AUDIT_GENERATED_(B1)
  6
Continuous
 62
     7
100
AcDbCircle
 10
13.3281396039
 20
548.7841121212
 30
0.0
 40
1.799999999999848
100
AcDbArc
 50
93.5397657323
 51
179.5
  0
ARC
  5
B9
330
5E
100
AcDbEntity
  8
$DDT_AUDIT_GENERATED_(B1)
  6
Continuous
 62
     7
100
AcDbCircle
 10
11.7535059785
 20
528.7791894084
 30
0.0
 40
0.4000000000000008
100
AcDbArc
 50
179.5000000001
 51
270.0
  0
ARC
  5
BA
330
5E
100
AcDbEntity
  8
$DDT_AUDIT_GENERATED_(B1)
  6
Continuous
 62
     7
100
AcDbCircle
 10
46.9464940215
 20
528.7791894084
 30
0.0
 40
0.3999999999999976
100
AcDbArc
 50
270.0
 51
0.4999999999
  0
LINE
  5
BC
330
5E
100
AcDbEntity
  8
$DDT_AUDIT_GENERATED_(BB)
  6
Continuous
 62
     7
100
AcDbLine
 10
41.55
 20
527.3791894084
 30
0.0
 11
41.55
 21
528.3791894084
 31
0.0
  0
LINE
  5
BD
330
5E
100
AcDbEntity
  8
$DDT_AUDIT_GENERATED_(BB)
  6
Continuous
 62
     7
100
AcDbLine
 10
17.15
 20
528.3791894084
 30
0.0
 11
17.15
 21
527.3791894084
 31
0.0
  0
ARC
  5
BE
330
5E
100
AcDbEntity
  8
$DDT_AUDIT_GENERATED_(BB)
  6
Continuous
 62
     7
100
AcDbCircle
 10
43.55
 20
527.3791894084
 30
0.0
 40
1.999999999999998
100
AcDbArc
 50
180.0
 51
270.0
  0
ARC
  5
BF
330
5E
100
AcDbEntity
  8
$DDT_AUDIT_GENERATED_(BB)
  6
Continuous
 62
     7
100
AcDbCircle
 10
15.15
 20
527.3791894084
 30
0.0
 40
2.0
100
AcDbArc
 50
270.0
 51
0.0
  0
ENDBLK
  5
C1
330
5E
100
AcDbEntity
  8
0
100
AcDbBlockEnd
  0
BLOCK
  5
131
330
C2
100
AcDbEntity
  8
0
100
AcDbBlockBegin
  2
SE1
 70
     0
 10
0.0
 20
0.0
 30
0.0
  3
SE1
  1

  0
LINE
  5
C4
330
C2
100
AcDbEntity
  8
$DDT_AUDIT_GENERATED_(60)
  6
Continuous
 62
     7
100
AcDbLine
 10
129.8791894084
 20
465.3113343078
 30
0.0
 11
155.386506206
 21
465.3113343078
 31
0.0
  0
LINE
  5
C5
330
C2
100
AcDbEntity
  8
$DDT_AUDIT_GENERATED_(60)
  6
Continuous
 62
     7
100
AcDbLine
 10
156.7191168927
 20
506.4470445089
 30
0.0
 11
156.7191168927
 21
465.3113343078
 31
0.0
  0
ARC
  5
C6
330
C2
100
AcDbEntity
  8
$DDT_AUDIT_GENERATED_(60)
  6
Continuous
 62
     7
100
AcDbCircle
 10
153.5798483475
 20
506.4303891972
 30
0.0
 40
3.139312726993381
100
AcDbArc
 50
0.3039784905
 51
71.7415426354
  0
ARC
  5
C7
330
C2
100
AcDbEntity
  8
$DDT_AUDIT_GENERATED_(60)
  6
Continuous
 62
     7
100
AcDbCircle
 10
170.798031555
 20
583.9073676304
 30
0.0
 40
76.24418317809211
100
AcDbArc
 50
254.6609898721
 51
257.70592516
  0
ARC
  5
C8
330
C2
100
AcDbEntity
  8
$DDT_AUDIT_GENERATED_(60)
  6
Continuous
 62
     7
100
AcDbCircle
 10
172.2985999685
 20
400.2308924579
 30
0.0
 40
60.93169847928622
100
AcDbArc
 50
107.9515295859
 51
110.8323326461
  0
SPLINE
  5
C9
330
C2
100
AcDbEntity
  8
$DDT_AUDIT_GENERATED_(60)
  6
Continuous
 62
     7
100
AcDbSpline
210
0.0
220
0.0
230
1.0
 70
     8
 71
     3
 72
    18
 73
    14
 74
     0
 42
0.0000000012316574
 43
0.0000000001
 40
0.0
 40
0.0
 40
0.0
 40
0.0
 40
0.0385753600415779
 40
0.0776697621526985
 40
0.1628504102016065
 40
0.2613994634179859
 40
0.3763069428119489
 40
0.5088467536419699
 40
0.6570120291041841
 40
0.7407914919490931
 40
0.8200941584607142
 40
0.9127415315339956
 40
1.0
 40
1.0
 40
1.0
 40
1.0
 10
156.7191168926606
 20
465.3113343078458
 30
0.0
 10
156.71736891274
 20
465.1924629039338
 30
0.0
 10
156.7138494333485
 20
464.9531206487053
 30
0.0
 10
156.6750234538374
 20
464.4535848285485
 30
0.0
 10
156.5763696143252
 20
463.7786784026795
 30
0.0
 10
156.3815587392319
 20
462.8962674413878
 30
0.0
 10
156.0904390688537
 20
461.9070877292948
 30
0.0
 10
155.6758387441576
 20
460.8360394395266
 30
0.0
 10
155.216976863138
 20
459.9330645105472
 30
0.0
 10
154.7739568379437
 20
459.257646114932
 30
0.0
 10
154.3821306818885
 20
458.7827352592859
 30
0.0
 10
153.9609635291025
 20
458.3918570897775
 30
0.0
 10
153.6631474496634
 20
458.2601636374911
 30
0.0
 10
153.5186998055288
 20
458.1962892860238
 30
0.0
  0
LINE
  5
CA
330
C2
100
AcDbEntity
  8
$DDT_AUDIT_GENERATED_(60)
  6
Continuous
 62
     7
100
AcDbLine
 10
155.386506206
 20
506.4470445089
 30
0.0
 11
129.8791894084
 21
506.4470445089
 31
0.0
  0
SPLINE
  5
CB
330
C2
100
AcDbEntity
  8
$DDT_AUDIT_GENERATED_(60)
  6
Continuous
 62
     7
100
AcDbSpline
210
0.0
220
0.0
230
1.0
 70
     8
 71
     3
 72
    14
 73
    10
 74
     0
 42
0.0000000024766308
 43
0.0000000001
 40
0.4999215684120097
 40
0.4999215684120097
 40
0.4999215684120097
 40
0.4999215684120097
 40
0.5000000000000001
 40
0.5000000000000001
 40
0.6250000000000001
 40
0.6250000000000001
 40
0.7500000000000002
 40
0.7500000000000002
 40
1.0
 40
1.0
 40
1.0
 40
1.0
 10
150.4791894086904
 20
509.6192551991498
 30
0.0
 10
150.4791894083713
 20
509.6192552026123
 30
0.0
 10
150.4791893966909
 20
509.6192551588607
 30
0.0
 10
150.4791526492485
 20
509.6191100544315
 30
0.0
 10
150.4502484841803
 20
509.4988307459878
 30
0.0
 10
150.3450393758768
 20
509.2081082299918
 30
0.0
 10
150.2690022389221
 20
509.0393314605769
 30
0.0
 10
149.9657381680257
 20
508.5659696507664
 30
0.0
 10
149.6714450968321
 20
508.2801157370668
 30
0.0
 10
149.2454604188949
 20
508.2328121197385
 30
0.0
  0
ARC
  5
CC
330
C2
100
AcDbEntity
  8
$DDT_AUDIT_GENERATED_(60)
  6
Continuous
 62
     7
100
AcDbCircle
 10
140.3751175334
 20
587.7048515217
 30
0.0
 40
79.96554529553106
100
AcDbArc
 50
262.7468517572
 51
276.3688032894
  0
LINE
  5
CD
330
C2
100
AcDbEntity
  8
$DDT_AUDIT_GENERATED_(60)
  6
Continuous
 62
     7
100
AcDbLine
 10
150.6291894084
 20
519.9461767065
 30
0.0
 11
187.1291894084
 21
519.9461767065
 31
0.0
  0
LINE
  5
CE
330
C2
100
AcDbEntity
  8
$DDT_AUDIT_GENERATED_(60)
  6
Continuous
 62
     7
100
AcDbLine
 10
150.8791894084
 20
525.3791894084
 30
0.0
 11
186.8791894084
 21
525.3791894084
 31
0.0
  0
LINE
  5
CF
330
C2
100
AcDbEntity
  8
$DDT_AUDIT_GENERATED_(60)
  6
Continuous
 62
     7
100
AcDbLine
 10
150.8791894084
 20
520.3791894084
 30
0.0
 11
186.8791894084
 21
520.3791894084
 31
0.0
  0
LINE
  5
D0
330
C2
100
AcDbEntity
  8
$DDT_AUDIT_GENERATED_(60)
  6
Continuous
 62
     7
100
AcDbLine
 10
150.6291894084
 20
439.3122021103
 30
0.0
 11
187.1291894084
 21
439.3122021103
 31
0.0
  0
LINE
  5
D1
330
C2
100
AcDbEntity
  8
$DDT_AUDIT_GENERATED_(60)
  6
Continuous
 62
     7
100
AcDbLine
 10
150.8791894084
 20
438.8791894084
 30
0.0
 11
186.8791894084
 21
438.8791894084
 31
0.0
  0
LINE
  5
D2
330
C2
100
AcDbEntity
  8
$DDT_AUDIT_GENERATED_(60)
  6
Continuous
 62
     7
100
AcDbLine
 10
150.8791894084
 20
433.8791894084
 30
0.0
 11
186.8791894084
 21
433.8791894084
 31
0.0
  0
LINE
  5
D3
330
C2
100
AcDbEntity
  8
$DDT_AUDIT_GENERATED_(60)
  6
Continuous
 62
     7
100
AcDbLine
 10
150.6291894084
 20
457.1792182487
 30
0.0
 11
150.6291894084
 21
439.3122021103
 31
0.0
  0
LINE
  5
D4
330
C2
100
AcDbEntity
  8
$DDT_AUDIT_GENERATED_(60)
  6
Continuous
 62
     7
100
AcDbLine
 10
150.6291894084
 20
519.9461767065
 30
0.0
 11
150.6291894084
 21
510.3791444628
 31
0.0
  0
LINE
  5
D5
330
C2
100
AcDbEntity
  8
$DDT_AUDIT_GENERATED_(60)
  6
Continuous
 62
     7
100
AcDbLine
 10
187.1291894084
 20
439.3122021103
 30
0.0
 11
187.1291894084
 21
519.9461767065
 31
0.0
  0
LINE
  5
D6
330
C2
100
AcDbEntity
  8
$DDT_AUDIT_GENERATED_(60)
  6
Continuous
 62
     7
100
AcDbLine
 10
129.8791894084
 20
463.3791894084
 30
0.0
 11
144.4293604705
 21
463.3791894084
 31
0.0
  0
LINE
  5
D7
330
C2
100
AcDbEntity
  8
$DDT_AUDIT_GENERATED_(60)
  6
Continuous
 62
     7
100
AcDbLine
 10
130.2872531091
 20
508.3791894084
 30
0.0
 11
129.8791894084
 21
508.3791894084
 31
0.0
  0
ARC
  5
D8
330
C2
100
AcDbEntity
  8
$DDT_AUDIT_GENERATED_(60)
  6
Continuous
 62
     7
100
AcDbCircle
 10
148.8372021793
 20
510.3548706931
 30
0.0
 40
1.792152231352311
100
AcDbArc
 50
335.7792831371
 51
0.7775023136
  0
ARC
  5
D9
330
C2
100
AcDbEntity
  8
$DDT_AUDIT_GENERATED_(60)
  6
Continuous
 62
     7
100
AcDbCircle
 10
144.4291894095
 20
457.1791894096
 30
0.0
 40
6.19999999879332
100
AcDbArc
 50
0.0
 51
90.0000000115
  0
LINE
  5
DA
330
C2
100
AcDbEntity
  8
$DDT_AUDIT_GENERATED_(60)
  6
Continuous
 62
     7
100
AcDbLine
 10
186.8791894084
 20
520.3791894084
 30
0.0
 11
186.8791894084
 21
525.3791894084
 31
0.0
  0
LINE
  5
DB
330
C2
100
AcDbEntity
  8
$DDT_AUDIT_GENERATED_(60)
  6
Continuous
 62
     7
100
AcDbLine
 10
150.8791894084
 20
525.3791894084
 30
0.0
 11
150.8791894084
 21
520.3791894084
 31
0.0
  0
LINE
  5
DC
330
C2
100
AcDbEntity
  8
$DDT_AUDIT_GENERATED_(60)
  6
Continuous
 62
     7
100
AcDbLine
 10
187.1291894084
 20
519.9461767065
 30
0.0
 11
186.8791894084
 21
520.3791894084
 31
0.0
  0
LINE
  5
DD
330
C2
100
AcDbEntity
  8
$DDT_AUDIT_GENERATED_(60)
  6
Continuous
 62
     7
100
AcDbLine
 10
150.8791894084
 20
520.3791894084
 30
0.0
 11
150.6291894084
 21
519.9461767065
 31
0.0
  0
LINE
  5
DE
330
C2
100
AcDbEntity
  8
$DDT_AUDIT_GENERATED_(60)
  6
Continuous
 62
     7
100
AcDbLine
 10
150.6291894084
 20
439.3122021103
 30
0.0
 11
150.8791894084
 21
438.8791894084
 31
0.0
  0
LINE
  5
DF
330
C2
100
AcDbEntity
  8
$DDT_AUDIT_GENERATED_(60)
  6
Continuous
 62
     7
100
AcDbLine
 10
186.8791894084
 20
438.8791894084
 30
0.0
 11
187.1291894084
 21
439.3122021103
 31
0.0
  0
LINE
  5
E0
330
C2
100
AcDbEntity
  8
$DDT_AUDIT_GENERATED_(60)
  6
Continuous
 62
     7
100
AcDbLine
 10
186.8791894084
 20
433.8791894084
 30
0.0
 11
186.8791894084
 21
438.8791894084
 31
0.0
  0
LINE
  5
E1
330
C2
100
AcDbEntity
  8
$DDT_AUDIT_GENERATED_(60)
  6
Continuous
 62
     7
100
AcDbLine
 10
150.8791894084
 20
438.8791894084
 30
0.0
 11
150.8791894084
 21
433.8791894084
 31
0.0
  0
LINE
  5
E2
330
C2
100
AcDbEntity
  8
$DDT_AUDIT_GENERATED_(71)
  6
Continuous
 62
     7
100
AcDbLine
 10
157.5493823695
 20
413.8791894084
 30
0.0
 11
180.2089964473
 21
413.8791894084
 31
0.0
  0
LINE
  5
E3
330
C2
100
AcDbEntity
  8
$DDT_AUDIT_GENERATED_(71)
  6
Continuous
 62
     7
100
AcDbLine
 10
156.8835147646
 20
433.3835526761
 30
0.0
 11
157.049401408
 21
414.3748261406
 31
0.0
  0
LINE
  5
E4
330
C2
100
AcDbEntity
  8
$DDT_AUDIT_GENERATED_(71)
  6
Continuous
 62
     7
100
AcDbLine
 10
180.7089774088
 20
414.3748261406
 30
0.0
 11
180.8748640522
 21
433.3835526761
 31
0.0
  0
ARC
  5
E5
330
C2
100
AcDbEntity
  8
$DDT_AUDIT_GENERATED_(71)
  6
Continuous
 62
     7
100
AcDbCircle
 10
156.3835338031
 20
433.3791894084
 30
0.0
 40
0.5000000000000004
100
AcDbArc
 50
0.5
 51
90.0
  0
ARC
  5
E6
330
C2
100
AcDbEntity
  8
$DDT_AUDIT_GENERATED_(71)
  6
Continuous
 62
     7
100
AcDbCircle
 10
181.3748450137
 20
433.3791894084
 30
0.0
 40
0.4999999999999998
100
AcDbArc
 50
90.0
 51
179.5
  0
ARC
  5
E7
330
C2
100
AcDbEntity
  8
$DDT_AUDIT_GENERATED_(71)
  6
Continuous
 62
     7
100
AcDbCircle
 10
157.5493823695
 20
414.3791894084
 30
0.0
 40
0.5000000000000006
100
AcDbArc
 50
180.5
 51
270.0
  0
ARC
  5
E8
330
C2
100
AcDbEntity
  8
$DDT_AUDIT_GENERATED_(71)
  6
Continuous
 62
     7
100
AcDbCircle
 10
180.2089964473
 20
414.3791894084
 30
0.0
 40
0.5000000000000004
100
AcDbArc
 50
270.0
 51
359.5
  0
LINE
  5
E9
330
C2
100
AcDbEntity
  8
$DDT_AUDIT_GENERATED_(79)
  6
Continuous
 62
     7
100
AcDbLine
 10
159.8791894084
 20
413.8791894084
 30
0.0
 11
159.8791894084
 21
267.4838933023
 31
0.0
  0
LINE
  5
EA
330
C2
100
AcDbEntity
  8
$DDT_AUDIT_GENERATED_(79)
  6
Continuous
 62
     7
100
AcDbLine
 10
177.8791894084
 20
267.4838933023
 30
0.0
 11
177.8791894084
 21
413.8791894084
 31
0.0
  0
LINE
  5
EB
330
C2
100
AcDbEntity
  8
$DDT_AUDIT_GENERATED_(7C)
  6
Continuous
 62
     7
100
AcDbLine
 10
154.5289316696
 20
245.8791894084
 30
0.0
 11
183.2294471472
 21
245.8791894084
 31
0.0
  0
LINE
  5
EC
330
C2
100
AcDbEntity
  8
$DDT_AUDIT_GENERATED_(7C)
  6
Continuous
 62
     7
100
AcDbLine
 10
150.0791894084
 20
248.8791894084
 30
0.0
 11
187.6791894084
 21
248.8791894084
 31
0.0
  0
LINE
  5
ED
330
C2
100
AcDbEntity
  8
$DDT_AUDIT_GENERATED_(7C)
  6
Continuous
 62
     7
100
AcDbLine
 10
154.3791894084
 20
251.5368735467
 30
0.0
 11
183.3791894084
 21
251.5368735467
 31
0.0
  0
LINE
  5
EE
330
C2
100
AcDbEntity
  8
$DDT_AUDIT_GENERATED_(7C)
  6
Continuous
 62
     7
100
AcDbLine
 10
151.0830692478
 20
253.8791894084
 30
0.0
 11
186.675309569
 21
253.8791894084
 31
0.0
  0
LINE
  5
EF
330
C2
100
AcDbEntity
  8
$DDT_AUDIT_GENERATED_(7C)
  6
Continuous
 62
     7
100
AcDbLine
 10
154.3791894084
 20
254.5368735467
 30
0.0
 11
183.3791894084
 21
254.5368735467
 31
0.0
  0
LINE
  5
F0
330
C2
100
AcDbEntity
  8
$DDT_AUDIT_GENERATED_(7C)
  6
Continuous
 62
     7
100
AcDbLine
 10
151.0830692478
 20
256.8791894084
 30
0.0
 11
186.675309569
 21
256.8791894084
 31
0.0
  0
LINE
  5
F1
330
C2
100
AcDbEntity
  8
$DDT_AUDIT_GENERATED_(7C)
  6
Continuous
 62
     7
100
AcDbLine
 10
154.3791894084
 20
257.5368735467
 30
0.0
 11
183.3791894084
 21
257.5368735467
 31
0.0
  0
LINE
  5
F2
330
C2
100
AcDbEntity
  8
$DDT_AUDIT_GENERATED_(7C)
  6
Continuous
 62
     7
100
AcDbLine
 10
151.0830692478
 20
259.8791894084
 30
0.0
 11
186.675309569
 21
259.8791894084
 31
0.0
  0
LINE
  5
F3
330
C2
100
AcDbEntity
  8
$DDT_AUDIT_GENERATED_(7C)
  6
Continuous
 62
     7
100
AcDbLine
 10
145.8791894084
 20
262.8791894084
 30
0.0
 11
191.8791894084
 21
262.8791894084
 31
0.0
  0
LINE
  5
F4
330
C2
100
AcDbEntity
  8
$DDT_AUDIT_GENERATED_(7C)
  6
Continuous
 62
     7
100
AcDbLine
 10
149.9791894084
 20
248.5059843276
 30
0.0
 11
154.5289316696
 21
245.8791894084
 31
0.0
  0
LINE
  5
F5
330
C2
100
AcDbEntity
  8
$DDT_AUDIT_GENERATED_(7C)
  6
Continuous
 62
     7
100
AcDbLine
 10
183.2294471472
 20
245.8791894084
 30
0.0
 11
187.7791894084
 21
248.5059843276
 31
0.0
  0
ARC
  5
F6
330
C2
100
AcDbEntity
  8
$DDT_AUDIT_GENERATED_(7C)
  6
Continuous
 62
     7
100
AcDbCircle
 10
150.0791894084
 20
248.6791894084
 30
0.0
 40
0.199999999999978
100
AcDbArc
 50
90.0
 51
240.0
  0
ARC
  5
F7
330
C2
100
AcDbEntity
  8
$DDT_AUDIT_GENERATED_(7C)
  6
Continuous
 62
     7
100
AcDbCircle
 10
187.6791894084
 20
248.6791894084
 30
0.0
 40
0.2000000000000196
100
AcDbArc
 50
300.0
 51
90.0
  0
LINE
  5
F8
330
C2
100
AcDbEntity
  8
$DDT_AUDIT_GENERATED_(7C)
  6
Continuous
 62
     7
100
AcDbLine
 10
154.3791894084
 20
251.5368735467
 30
0.0
 11
154.3791894084
 21
248.8791894084
 31
0.0
  0
LINE
  5
F9
330
C2
100
AcDbEntity
  8
$DDT_AUDIT_GENERATED_(7C)
  6
Continuous
 62
     7
100
AcDbLine
 10
183.3791894084
 20
248.8791894084
 30
0.0
 11
183.3791894084
 21
251.5368735467
 31
0.0
  0
LINE
  5
FA
330
C2
100
AcDbEntity
  8
$DDT_AUDIT_GENERATED_(7C)
  6
Continuous
 62
     7
100
AcDbLine
 10
150.9811293281
 20
253.4987444488
 30
0.0
 11
154.3791894084
 21
251.5368735467
 31
0.0
  0
LINE
  5
FB
330
C2
100
AcDbEntity
  8
$DDT_AUDIT_GENERATED_(7C)
  6
Continuous
 62
     7
100
AcDbLine
 10
183.3791894084
 20
251.5368735467
 30
0.0
 11
186.7772494887
 21
253.4987444488
 31
0.0
  0
ARC
  5
FC
330
C2
100
AcDbEntity
  8
$DDT_AUDIT_GENERATED_(7C)
  6
Continuous
 62
     7
100
AcDbCircle
 10
151.0830692478
 20
253.675309569
 30
0.0
 40
0.2038798393763086
100
AcDbArc
 50
90.0
 51
240.0
  0
ARC
  5
FD
330
C2
100
AcDbEntity
  8
$DDT_AUDIT_GENERATED_(7C)
  6
Continuous
 62
     7
100
AcDbCircle
 10
186.675309569
 20
253.675309569
 30
0.0
 40
0.2038798393763322
100
AcDbArc
 50
300.0
 51
90.0
  0
LINE
  5
FE
330
C2
100
AcDbEntity
  8
$DDT_AUDIT_GENERATED_(7C)
  6
Continuous
 62
     7
100
AcDbLine
 10
154.3791894084
 20
254.5368735467
 30
0.0
 11
154.3791894084
 21
253.8791894084
 31
0.0
  0
LINE
  5
FF
330
C2
100
AcDbEntity
  8
$DDT_AUDIT_GENERATED_(7C)
  6
Continuous
 62
     7
100
AcDbLine
 10
183.3791894084
 20
253.8791894084
 30
0.0
 11
183.3791894084
 21
254.5368735467
 31
0.0
  0
LINE
  5
100
330
C2
100
AcDbEntity
  8
$DDT_AUDIT_GENERATED_(7C)
  6
Continuous
 62
     7
100
AcDbLine
 10
150.9811293281
 20
256.4987444488
 30
0.0
 11
154.3791894084
 21
254.5368735467
 31
0.0
  0
LINE
  5
101
330
C2
100
AcDbEntity
  8
$DDT_AUDIT_GENERATED_(7C)
  6
Continuous
 62
     7
100
AcDbLine
 10
183.3791894084
 20
254.5368735467
 30
0.0
 11
186.7772494887
 21
256.4987444488
 31
0.0
  0
ARC
  5
102
330
C2
100
AcDbEntity
  8
$DDT_AUDIT_GENERATED_(7C)
  6
Continuous
 62
     7
100
AcDbCircle
 10
151.0830692478
 20
256.675309569
 30
0.0
 40
0.2038798393763086
100
AcDbArc
 50
90.0
 51
240.0
  0
ARC
  5
103
330
C2
100
AcDbEntity
  8
$DDT_AUDIT_GENERATED_(7C)
  6
Continuous
 62
     7
100
AcDbCircle
 10
186.675309569
 20
256.675309569
 30
0.0
 40
0.2038798393762859
100
AcDbArc
 50
300.0
 51
90.0
  0
LINE
  5
104
330
C2
100
AcDbEntity
  8
$DDT_AUDIT_GENERATED_(7C)
  6
Continuous
 62
     7
100
AcDbLine
 10
154.3791894084
 20
257.5368735467
 30
0.0
 11
154.3791894084
 21
256.8791894084
 31
0.0
  0
LINE
  5
105
330
C2
100
AcDbEntity
  8
$DDT_AUDIT_GENERATED_(7C)
  6
Continuous
 62
     7
100
AcDbLine
 10
183.3791894084
 20
256.8791894084
 30
0.0
 11
183.3791894084
 21
257.5368735467
 31
0.0
  0
LINE
  5
106
330
C2
100
AcDbEntity
  8
$DDT_AUDIT_GENERATED_(7C)
  6
Continuous
 62
     7
100
AcDbLine
 10
150.9811293281
 20
259.4987444488
 30
0.0
 11
154.3791894084
 21
257.5368735467
 31
0.0
  0
LINE
  5
107
330
C2
100
AcDbEntity
  8
$DDT_AUDIT_GENERATED_(7C)
  6
Continuous
 62
     7
100
AcDbLine
 10
183.3791894084
 20
257.5368735467
 30
0.0
 11
186.7772494887
 21
259.4987444488
 31
0.0
  0
ARC
  5
108
330
C2
100
AcDbEntity
  8
$DDT_AUDIT_GENERATED_(7C)
  6
Continuous
 62
     7
100
AcDbCircle
 10
151.0830692478
 20
259.675309569
 30
0.0
 40
0.2038798393763086
100
AcDbArc
 50
90.0
 51
240.0
  0
ARC
  5
109
330
C2
100
AcDbEntity
  8
$DDT_AUDIT_GENERATED_(7C)
  6
Continuous
 62
     7
100
AcDbCircle
 10
186.675309569
 20
259.675309569
 30
0.0
 40
0.2038798393762876
100
AcDbArc
 50
300.0
 51
90.0
  0
LINE
  5
10A
330
C2
100
AcDbEntity
  8
$DDT_AUDIT_GENERATED_(7C)
  6
Continuous
 62
     7
100
AcDbLine
 10
154.3791894084
 20
262.4838933023
 30
0.0
 11
154.3791894084
 21
259.8791894084
 31
0.0
  0
LINE
  5
10B
330
C2
100
AcDbEntity
  8
$DDT_AUDIT_GENERATED_(7C)
  6
Continuous
 62
     7
100
AcDbLine
 10
183.3791894084
 20
259.8791894084
 30
0.0
 11
183.3791894084
 21
262.4838933023
 31
0.0
  0
LINE
  5
10C
330
C2
100
AcDbEntity
  8
$DDT_AUDIT_GENERATED_(7C)
  6
Continuous
 62
     7
100
AcDbLine
 10
145.8791894084
 20
263.4541259163
 30
0.0
 11
145.8791894084
 21
262.8791894084
 31
0.0
  0
LINE
  5
10D
330
C2
100
AcDbEntity
  8
$DDT_AUDIT_GENERATED_(7C)
  6
Continuous
 62
     7
100
AcDbLine
 10
191.8791894084
 20
262.8791894084
 30
0.0
 11
191.8791894084
 21
263.4541259163
 31
0.0
  0
LINE
  5
10E
330
C2
100
AcDbEntity
  8
$DDT_AUDIT_GENERATED_(A0)
  6
Continuous
 62
     7
100
AcDbLine
 10
145.8791894084
 20
262.4838933023
 30
0.0
 11
191.8791894084
 21
262.4838933023
 31
0.0
  0
LINE
  5
10F
330
C2
100
AcDbEntity
  8
$DDT_AUDIT_GENERATED_(A0)
  6
Continuous
 62
     7
100
AcDbLine
 10
145.8791894084
 20
264.6188247037
 30
0.0
 11
191.8791894084
 21
264.6188247037
 31
0.0
  0
LINE
  5
110
330
C2
100
AcDbEntity
  8
$DDT_AUDIT_GENERATED_(A0)
  6
Continuous
 62
     7
100
AcDbLine
 10
159.6291894084
 20
267.4838933023
 30
0.0
 11
178.1291894084
 21
267.4838933023
 31
0.0
  0
LINE
  5
111
330
C2
100
AcDbEntity
  8
$DDT_AUDIT_GENERATED_(A0)
  6
Continuous
 62
     7
100
AcDbLine
 10
145.8791894084
 20
264.6188247037
 30
0.0
 11
145.8791894084
 21
262.4838933023
 31
0.0
  0
LINE
  5
112
330
C2
100
AcDbEntity
  8
$DDT_AUDIT_GENERATED_(A0)
  6
Continuous
 62
     7
100
AcDbLine
 10
191.8791894084
 20
262.4838933023
 30
0.0
 11
191.8791894084
 21
264.6188247037
 31
0.0
  0
ARC
  5
113
330
C2
100
AcDbEntity
  8
$DDT_AUDIT_GENERATED_(A0)
  6
Continuous
 62
     7
100
AcDbCircle
 10
146.8791894084
 20
264.6188247037
 30
0.0
 40
1.0
100
AcDbArc
 50
98.2758928271
 51
180.0
  0
ARC
  5
114
330
C2
100
AcDbEntity
  8
$DDT_AUDIT_GENERATED_(A0)
  6
Continuous
 62
     7
100
AcDbCircle
 10
190.8791894084
 20
264.6188247037
 30
0.0
 40
1.000000000000001
100
AcDbArc
 50
0.0
 51
81.7241071729
  0
LINE
  5
115
330
C2
100
AcDbEntity
  8
$DDT_AUDIT_GENERATED_(A0)
  6
Continuous
 62
     7
100
AcDbLine
 10
191.0231292541
 20
265.6084111429
 30
0.0
 11
178.1291894084
 21
267.4838933023
 31
0.0
  0
LINE
  5
116
330
C2
100
AcDbEntity
  8
$DDT_AUDIT_GENERATED_(A0)
  6
Continuous
 62
     7
100
AcDbLine
 10
159.6291894084
 20
267.4838933023
 30
0.0
 11
146.7352495627
 21
265.6084111429
 31
0.0
  0
LINE
  5
117
330
C2
100
AcDbEntity
  8
$DDT_AUDIT_GENERATED_(AA)
  6
Continuous
 62
     7
100
AcDbLine
 10
114.8791894084
 20
461.3791894084
 30
0.0
 11
114.8791894084
 21
455.3791894084
 31
0.0
  0
LINE
  5
118
330
C2
100
AcDbEntity
  8
$DDT_AUDIT_GENERATED_(AA)
  6
Continuous
 62
     7
100
AcDbLine
 10
114.8791894084
 20
510.3791894084
 30
0.0
 11
114.8791894084
 21
461.3791894084
 31
0.0
  0
LINE
  5
119
330
C2
100
AcDbEntity
  8
$DDT_AUDIT_GENERATED_(AA)
  6
Continuous
 62
     7
100
AcDbLine
 10
114.8791894084
 20
516.3791894084
 30
0.0
 11
114.8791894084
 21
510.3791894084
 31
0.0
  0
LINE
  5
11A
330
C2
100
AcDbEntity
  8
$DDT_AUDIT_GENERATED_(AA)
  6
Continuous
 62
     7
100
AcDbLine
 10
129.8791894084
 20
513.6606202767
 30
0.0
 11
129.8791894084
 21
510.3791894084
 31
0.0
  0
LINE
  5
11B
330
C2
100
AcDbEntity
  8
$DDT_AUDIT_GENERATED_(AA)
  6
Continuous
 62
     7
100
AcDbLine
 10
129.8791894084
 20
510.3791894084
 30
0.0
 11
129.8791894084
 21
461.3791894084
 31
0.0
  0
LINE
  5
11C
330
C2
100
AcDbEntity
  8
$DDT_AUDIT_GENERATED_(AA)
  6
Continuous
 62
     7
100
AcDbLine
 10
129.8791894084
 20
461.3791894084
 30
0.0
 11
129.8791894084
 21
458.0977585401
 31
0.0
  0
LINE
  5
11D
330
C2
100
AcDbEntity
  8
$DDT_AUDIT_GENERATED_(AA)
  6
Continuous
 62
     7
100
AcDbLine
 10
127.4228204245
 20
455.5981393022
 30
0.0
 11
114.8791894084
 21
455.3791894084
 31
0.0
  0
LINE
  5
11E
330
C2
100
AcDbEntity
  8
$DDT_AUDIT_GENERATED_(AA)
  6
Continuous
 62
     7
100
AcDbLine
 10
127.4228204245
 20
455.5981393022
 30
0.0
 11
127.4228204245
 21
461.3791894084
 31
0.0
  0
LINE
  5
11F
330
C2
100
AcDbEntity
  8
$DDT_AUDIT_GENERATED_(AA)
  6
Continuous
 62
     7
100
AcDbLine
 10
127.4228204245
 20
461.3791894084
 30
0.0
 11
127.4228204245
 21
510.3791894084
 31
0.0
  0
LINE
  5
120
330
C2
100
AcDbEntity
  8
$DDT_AUDIT_GENERATED_(AA)
  6
Continuous
 62
     7
100
AcDbLine
 10
127.4228204245
 20
516.1602395146
 30
0.0
 11
114.8791894084
 21
516.3791894084
 31
0.0
  0
LINE
  5
121
330
C2
100
AcDbEntity
  8
$DDT_AUDIT_GENERATED_(AA)
  6
Continuous
 62
     7
100
AcDbLine
 10
127.4228204245
 20
510.3791894084
 30
0.0
 11
127.4228204245
 21
516.1602395146
 31
0.0
  0
ARC
  5
122
330
C2
100
AcDbEntity
  8
$DDT_AUDIT_GENERATED_(AA)
  6
Continuous
 62
     7
100
AcDbCircle
 10
127.3791894084
 20
513.6606202767
 30
0.0
 40
2.500000000000002
100
AcDbArc
 50
0.0
 51
89.0
  0
ARC
  5
123
330
C2
100
AcDbEntity
  8
$DDT_AUDIT_GENERATED_(AA)
  6
Continuous
 62
     7
100
AcDbCircle
 10
127.3791894084
 20
458.0977585401
 30
0.0
 40
2.500000000000001
100
AcDbArc
 50
271.0
 51
0.0
  0
LINE
  5
124
330
C2
100
AcDbEntity
  8
$DDT_AUDIT_GENERATED_(B1)
  6
Continuous
 62
     7
100
AcDbLine
 10
151.0573975508
 20
548.7998198851
 30
0.0
 11
186.700981266
 21
548.7998198851
 31
0.0
  0
LINE
  5
125
330
C2
100
AcDbEntity
  8
$DDT_AUDIT_GENERATED_(B1)
  6
Continuous
 62
     7
100
AcDbLine
 10
151.2826953869
 20
528.3791894084
 30
0.0
 11
186.4756834299
 21
528.3791894084
 31
0.0
  0
LINE
  5
126
330
C2
100
AcDbEntity
  8
$DDT_AUDIT_GENERATED_(B1)
  6
Continuous
 62
     7
100
AcDbLine
 10
186.8756681991
 20
528.7826800226
 30
0.0
 11
186.700981266
 21
548.7998198851
 31
0.0
  0
LINE
  5
127
330
C2
100
AcDbEntity
  8
$DDT_AUDIT_GENERATED_(B1)
  6
Continuous
 62
     7
100
AcDbLine
 10
151.0573975508
 20
548.7998198851
 30
0.0
 11
150.8827106176
 21
528.7826800226
 31
0.0
  0
ARC
  5
128
330
C2
100
AcDbEntity
  8
$DDT_AUDIT_GENERATED_(B1)
  6
Continuous
 62
     7
100
AcDbCircle
 10
168.8791894084
 20
289.7791894084
 30
0.0
 40
261.3000000000001
100
AcDbArc
 50
86.4602342678
 51
93.5397657322
  0
ARC
  5
129
330
C2
100
AcDbEntity
  8
$DDT_AUDIT_GENERATED_(B1)
  6
Continuous
 62
     7
100
AcDbCircle
 10
184.9010498045
 20
548.7841121212
 30
0.0
 40
1.79999999999977
100
AcDbArc
 50
0.5
 51
86.4602342677
  0
ARC
  5
12A
330
C2
100
AcDbEntity
  8
$DDT_AUDIT_GENERATED_(B1)
  6
Continuous
 62
     7
100
AcDbCircle
 10
152.8573290123
 20
548.7841121212
 30
0.0
 40
1.799999999999848
100
AcDbArc
 50
93.5397657323
 51
179.5
  0
ARC
  5
12B
330
C2
100
AcDbEntity
  8
$DDT_AUDIT_GENERATED_(B1)
  6
Continuous
 62
     7
100
AcDbCircle
 10
151.2826953869
 20
528.7791894084
 30
0.0
 40
0.4000000000000008
100
AcDbArc
 50
179.5000000001
 51
270.0
  0
ARC
  5
12C
330
C2
100
AcDbEntity
  8
$DDT_AUDIT_GENERATED_(B1)
  6
Continuous
 62
     7
100
AcDbCircle
 10
186.4756834299
 20
528.7791894084
 30
0.0
 40
0.3999999999999976
100
AcDbArc
 50
270.0
 51
0.4999999999
  0
LINE
  5
12D
330
C2
100
AcDbEntity
  8
$DDT_AUDIT_GENERATED_(BB)
  6
Continuous
 62
     7
100
AcDbLine
 10
181.0791894084
 20
527.3791894084
 30
0.0
 11
181.0791894084
 21
528.3791894084
 31
0.0
  0
LINE
  5
12E
330
C2
100
AcDbEntity
  8
$DDT_AUDIT_GENERATED_(BB)
  6
Continuous
 62
     7
100
AcDbLine
 10
156.6791894084
 20
528.3791894084
 30
0.0
 11
156.6791894084
 21
527.3791894084
 31
0.0
  0
ARC
  5
12F
330
C2
100
AcDbEntity
  8
$DDT_AUDIT_GENERATED_(BB)
  6
Continuous
 62
     7
100
AcDbCircle
 10
183.0791894084
 20
527.3791894084
 30
0.0
 40
1.999999999999998
100
AcDbArc
 50
180.0
 51
270.0
  0
ARC
  5
130
330
C2
100
AcDbEntity
  8
$DDT_AUDIT_GENERATED_(BB)
  6
Continuous
 62
     7
100
AcDbCircle
 10
154.6791894084
 20
527.3791894084
 30
0.0
 40
2.0
100
AcDbArc
 50
270.0
 51
0.0
  0
ENDBLK
  5
132
330
C2
100
AcDbEntity
  8
0
100
AcDbBlockEnd
  0
BLOCK
  5
157
330
133
100
AcDbEntity
  8
0
100
AcDbBlockBegin
  2
SE2
 70
     0
 10
0.0
 20
0.0
 30
0.0
  3
SE2
  1

  0
LINE
  5
135
330
133
100
AcDbEntity
  8
$DDT_AUDIT_GENERATED_(60)
  6
Continuous
 62
     7
100
AcDbLine
 10
42.45
 20
168.35
 30
0.0
 11
42.45
 21
142.8426832024
 31
0.0
  0
ARC
  5
136
330
133
100
AcDbEntity
  8
$DDT_AUDIT_GENERATED_(60)
  6
Continuous
 62
     7
100
AcDbCircle
 10
29.4378365973
 20
130.0325720475
 30
0.0
 40
19.58067970205211
100
AcDbArc
 50
104.5680002733
 51
129.0696163924
  0
LINE
  5
137
330
133
100
AcDbEntity
  8
$DDT_AUDIT_GENERATED_(60)
  6
Continuous
 62
     7
100
AcDbLine
 10
16.25
 20
142.8426832024
 30
0.0
 11
16.25
 21
168.35
 31
0.0
  0
SPLINE
  5
138
330
133
100
AcDbEntity
  8
$DDT_AUDIT_GENERATED_(60)
  6
Continuous
 62
     7
100
AcDbSpline
210
0.0
220
0.0
230
1.0
 70
    12
 71
     2
 72
     6
 73
     3
 74
     0
 42
0.0000000065498462
 43
0.0000000001
 40
0.0
 40
0.0
 40
0.0
 40
1.0
 40
1.0
 40
1.0
 10
42.45
 20
142.8426832023879
 30
0.0
 41
1.0
 10
42.45
 20
142.0793065006969
 30
0.0
 41
0.9342588004256848
 10
42.95864197530864
 20
141.5100725157323
 30
0.0
 41
1.0
  0
SPLINE
  5
139
330
133
100
AcDbEntity
  8
$DDT_AUDIT_GENERATED_(60)
  6
Continuous
 62
     7
100
AcDbSpline
210
0.0
220
0.0
230
1.0
 70
    12
 71
     2
 72
     6
 73
     3
 74
     0
 42
0.0000000065498462
 43
0.0000000001
 40
0.0
 40
0.0
 40
0.0
 40
1.0
 40
1.0
 40
1.0
 10
15.74135802469136
 20
141.5100725157323
 30
0.0
 41
1.0
 10
16.25
 20
142.0793065006969
 30
0.0
 41
0.934258800425685
 10
16.25
 20
142.8426832023879
 30
0.0
 41
1.0
  0
ARC
  5
13A
330
133
100
AcDbEntity
  8
$DDT_AUDIT_GENERATED_(60)
  6
Continuous
 62
     7
100
AcDbCircle
 10
29.2642719761
 20
130.0362963331
 30
0.0
 40
19.57645929299874
100
AcDbArc
 50
50.9283049339
 51
75.4354840879
  0
ARC
  5
13B
330
133
100
AcDbEntity
  8
$DDT_AUDIT_GENERATED_(60)
  6
Continuous
 62
     7
100
AcDbCircle
 10
29.3500033105
 20
157.8499858546
 30
0.0
 40
10.0999859979837
100
AcDbArc
 50
241.383900246
 51
298.6153769532
  0
ARC
  5
13C
330
133
100
AcDbEntity
  8
$DDT_AUDIT_GENERATED_(60)
  6
Continuous
 62
     7
100
AcDbCircle
 10
29.3500033105
 20
157.8500007058
 30
0.0
 40
10.0999990351042
100
AcDbArc
 50
298.6153366038
 51
241.3839405954
  0
CIRCLE
  5
13D
330
133
100
AcDbEntity
  8
$DDT_AUDIT_GENERATED_(60)
  6
Continuous
 62
     7
100
AcDbCircle
 10
29.35
 20
129.35
 30
0.0
 40
18.25
  0
ARC
  5
13E
330
133
100
AcDbEntity
  8
$DDT_AUDIT_GENERATED_(A0)
  6
Continuous
 62
     7
100
AcDbCircle
 10
29.35
 20
129.35
 30
0.0
 40
22.99999999999999
100
AcDbArc
 50
0.0
 51
55.2800873965
  0
ARC
  5
13F
330
133
100
AcDbEntity
  8
$DDT_AUDIT_GENERATED_(A0)
  6
Continuous
 62
     7
100
AcDbCircle
 10
29.35
 20
129.35
 30
0.0
 40
22.99999999999999
100
AcDbArc
 50
124.7199126035
 51
0.0
  0
ARC
  5
140
330
133
100
AcDbEntity
  8
$DDT_AUDIT_GENERATED_(A0)
  6
Continuous
 62
     7
100
AcDbCircle
 10
29.35
 20
129.35
 30
0.0
 40
22.1439398457141
100
AcDbArc
 50
0.0
 51
53.7305072376
  0
ARC
  5
141
330
133
100
AcDbEntity
  8
$DDT_AUDIT_GENERATED_(A0)
  6
Continuous
 62
     7
100
AcDbCircle
 10
29.35
 20
129.35
 30
0.0
 40
22.1439398457141
100
AcDbArc
 50
126.2694927624
 51
0.0
  0
LINE
  5
142
330
133
100
AcDbEntity
  8
$DDT_AUDIT_GENERATED_(AA)
  6
Continuous
 62
     7
100
AcDbLine
 10
14.35
 20
183.35
 30
0.0
 11
8.35
 21
183.35
 31
0.0
  0
LINE
  5
143
330
133
100
AcDbEntity
  8
$DDT_AUDIT_GENERATED_(AA)
  6
Continuous
 62
     7
100
AcDbLine
 10
44.35
 20
183.35
 30
0.0
 11
14.35
 21
183.35
 31
0.0
  0
LINE
  5
144
330
133
100
AcDbEntity
  8
$DDT_AUDIT_GENERATED_(AA)
  6
Continuous
 62
     7
100
AcDbLine
 10
50.35
 20
183.35
 30
0.0
 11
44.35
 21
183.35
 31
0.0
  0
LINE
  5
145
330
133
100
AcDbEntity
  8
$DDT_AUDIT_GENERATED_(AA)
  6
Continuous
 62
     7
100
AcDbLine
 10
47.6314308683
 20
168.35
 30
0.0
 11
44.35
 21
168.35
 31
0.0
  0
LINE
  5
146
330
133
100
AcDbEntity
  8
$DDT_AUDIT_GENERATED_(AA)
  6
Continuous
 62
     7
100
AcDbLine
 10
44.35
 20
168.35
 30
0.0
 11
14.35
 21
168.35
 31
0.0
  0
LINE
  5
147
330
133
100
AcDbEntity
  8
$DDT_AUDIT_GENERATED_(AA)
  6
Continuous
 62
     7
100
AcDbLine
 10
14.35
 20
168.35
 30
0.0
 11
11.0685691317
 21
168.35
 31
0.0
  0
LINE
  5
148
330
133
100
AcDbEntity
  8
$DDT_AUDIT_GENERATED_(AA)
  6
Continuous
 62
     7
100
AcDbLine
 10
8.5689498938
 20
170.8063689839
 30
0.0
 11
8.35
 21
183.35
 31
0.0
  0
LINE
  5
149
330
133
100
AcDbEntity
  8
$DDT_AUDIT_GENERATED_(AA)
  6
Continuous
 62
     7
100
AcDbLine
 10
8.5689498938
 20
170.8063689839
 30
0.0
 11
14.35
 21
170.8063689839
 31
0.0
  0
LINE
  5
14A
330
133
100
AcDbEntity
  8
$DDT_AUDIT_GENERATED_(AA)
  6
Continuous
 62
     7
100
AcDbLine
 10
14.35
 20
170.8063689839
 30
0.0
 11
44.35
 21
170.8063689839
 31
0.0
  0
LINE
  5
14B
330
133
100
AcDbEntity
  8
$DDT_AUDIT_GENERATED_(AA)
  6
Continuous
 62
     7
100
AcDbLine
 10
50.1310501062
 20
170.8063689839
 30
0.0
 11
50.35
 21
183.35
 31
0.0
  0
LINE
  5
14C
330
133
100
AcDbEntity
  8
$DDT_AUDIT_GENERATED_(AA)
  6
Continuous
 62
     7
100
AcDbLine
 10
44.35
 20
170.8063689839
 30
0.0
 11
50.1310501062
 21
170.8063689839
 31
0.0
  0
ARC
  5
14D
330
133
100
AcDbEntity
  8
$DDT_AUDIT_GENERATED_(AA)
  6
Continuous
 62
     7
100
AcDbCircle
 10
47.6314308683
 20
170.85
 30
0.0
 40
2.500000000000005
100
AcDbArc
 50
270.0
 51
359.0
  0
ARC
  5
14E
330
133
100
AcDbEntity
  8
$DDT_AUDIT_GENERATED_(AA)
  6
Continuous
 62
     7
100
AcDbCircle
 10
11.0685691317
 20
170.85
 30
0.0
 40
2.500000000000002
100
AcDbArc
 50
181.0
 51
270.0
  0
CIRCLE
  5
150
330
133
100
AcDbEntity
  8
20_10_26XX_KEGEL
  6
Continuous
 62
     7
100
AcDbCircle
 10
29.35
 20
157.85
 30
0.0
 40
9.000000000000002
  0
LINE
  5
151
330
133
100
AcDbEntity
  8
20_10_26XX_KEGEL
  6
Continuous
 62
     7
100
AcDbLine
 10
20.5063582162
 20
158.85
 30
0.0
 11
38.1936417838
 21
158.85
 31
0.0
  0
LINE
  5
152
330
133
100
AcDbEntity
  8
20_10_26XX_KEGEL
  6
Continuous
 62
     7
100
AcDbLine
 10
20.5063582162
 20
156.85
 30
0.0
 11
38.1936417838
 21
156.85
 31
0.0
  0
LINE
  5
154
330
133
100
AcDbEntity
  8
$DDT_AUDIT_GENERATED_(153)
  6
Continuous
 62
     7
100
AcDbLine
 10
20.3094950559
 20
162.3402091954
 30
0.0
 11
21.0095863412
 21
161.85
 31
0.0
  0
LINE
  5
155
330
133
100
AcDbEntity
  8
$DDT_AUDIT_GENERATED_(153)
  6
Continuous
 62
     7
100
AcDbLine
 10
21.0095863412
 20
153.85
 30
0.0
 11
20.3093617825
 21
153.3596974855
 31
0.0
  0
CIRCLE
  5
156
330
133
100
AcDbEntity
  8
$DDT_AUDIT_GENERATED_(B1)
  6
Continuous
 62
     7
100
AcDbCircle
 10
29.35
 20
129.35
 30
0.0
 40
16.1329946878756
  0
ENDBLK
  5
158
330
133
100
AcDbEntity
  8
0
100
AcDbBlockEnd
  0
ENDSEC
  0
SECTION
  2
ENTITIES
  0
INSERT
  5
5F
330
1F
100
AcDbEntity
  8
Default
100
AcDbBlockReference
  2
SE
 10
0.0
 20
0.0
 30
0.0
  0
INSERT
  5
C3
330
1F
100
AcDbEntity
  8
Default
100
AcDbBlockReference
  2
SE1
 10
0.0
 20
0.0
 30
0.0
  0
INSERT
  5
134
330
1F
100
AcDbEntity
  8
Default
100
AcDbBlockReference
  2
SE2
 10
0.0
 20
0.0
 30
0.0
  0
TEXT
  5
15A
330
1F
100
AcDbEntity
  8
Default
  6
Continuous
 62
     7
100
AcDbText
 10
5.9362635081
 20
53.4225120485
 30
0.0
 40
10.0
  1
Grohe AG^J
  7
SEACAD_seiso_ttf
 11
5.9362635081
 21
63.4225120485
 31
0.0
100
AcDbText
 73
     3
  0
TEXT
  5
15B
330
1F
100
AcDbEntity
  8
Default
  6
Continuous
 62
     7
100
AcDbText
 10
5.9362635081
 20
37.0588756849
 30
0.0
 40
10.0
  1
 
  7
SEACAD_seiso_ttf
 11
5.9362635081
 21
47.0588756849
 31
0.0
100
AcDbText
 73
     3
  0
TEXT
  5
15C
330
1F
100
AcDbEntity
  8
Default
  6
Continuous
 62
     7
100
AcDbText
 10
5.9362635081
 20
20.6952393213
 30
0.0
 40
10.0
  1
ecn: 
  7
SEACAD_seiso_ttf
 11
5.9362635081
 21
30.6952393213
 31
0.0
100
AcDbText
 73
     3
  0
TEXT
  5
15D
330
1F
100
AcDbEntity
  8
Default
  6
Continuous
 62
     7
100
AcDbText
 10
5.9362635081
 20
4.3316029576
 30
0.0
 40
10.0
  1
unit: mm
  7
SEACAD_seiso_ttf
 11
5.9362635081
 21
14.3316029576
 31
0.0
100
AcDbText
 73
     3
  0
LINE
  5
15E
330
1F
100
AcDbEntity
  8
Default
  6
Continuous
 62
     7
100
AcDbLine
 10
0.0
 20
0.0
 30
0.0
 11
100.0
 21
0.0
 31
0.0
  0
LINE
  5
15F
330
1F
100
AcDbEntity
  8
Default
  6
Continuous
 62
     7
100
AcDbLine
 10
0.0
 20
0.0
 30
0.0
 11
0.0
 21
100.0
 31
0.0
  0
TEXT
  5
160
330
1F
100
AcDbEntity
  8
Default
  6
Continuous
 62
     7
100
AcDbText
 10
24.3923665681
 20
-18.2375342018
 30
0.0
 40
10.0
  1
100 mm
  7
SEACAD_seiso_ttf
 11
24.3923665681
 21
-8.2375342018
 31
0.0
100
AcDbText
 73
     3
  0
TEXT
  5
161
330
1F
100
AcDbEntity
  8
Default
  6
Continuous
 62
     7
100
AcDbText
 10
-7.6150308803
 20
24.6231930421
 30
0.0
 40
10.0
  1
100 mm
 50
90.0
  7
SEACAD_seiso_ttf
 11
-17.6150308803
 21
24.6231930421
 31
0.0
100
AcDbText
 73
     3
  0
TEXT
  5
162
330
1F
100
AcDbEntity
  8
Default
  6
Continuous
 62
     7
100
AcDbText
 10
28.4878128572
 20
20.0907663715
 30
0.0
 40
10.0
  1
215924
  7
SEACAD_seiso_ttf
 11
28.4878128572
 21
30.0907663715
 31
0.0
100
AcDbText
 73
     3
  0
TEXT
  5
163
330
1F
100
AcDbEntity
  8
Default
  6
Continuous
 62
     7
100
AcDbText
 10
5.9012241913
 20
36.7242780188
 30
0.0
 40
10.0
  1
37339000
  7
SEACAD_seiso_ttf
 11
5.9012241913
 21
46.7242780188
 31
0.0
100
AcDbText
 73
     3
  0
ENDSEC
  0
SECTION
  2
OBJECTS
  0
DICTIONARY
  5
C
330
0
100
AcDbDictionary
281
     1
  3
ACAD_GROUP
350
D
  3
ACAD_LAYOUT
350
1A
  3
ACAD_MLEADERSTYLE
350
167
  3
ACAD_MLINESTYLE
350
17
  3
ACAD_PLOTSETTINGS
350
19
  3
ACAD_PLOTSTYLENAME
350
E
  3
ACAD_SCALELIST
350
3B
  3
ACAD_TABLESTYLE
350
166
  3
ACAD_VISUALSTYLE
350
2A
  3
AcDbVariableDictionary
350
164
  0
DICTIONARY
  5
D
102
{ACAD_REACTORS
330
C
102
}
330
C
100
AcDbDictionary
281
     1
  0
DICTIONARY
  5
1A
102
{ACAD_REACTORS
330
C
102
}
330
C
100
AcDbDictionary
281
     1
  3
Layout1
350
1E
  3
Model
350
22
  0
DICTIONARY
  5
167
102
{ACAD_REACTORS
330
C
102
}
330
C
100
AcDbDictionary
281
     1
  0
DICTIONARY
  5
17
102
{ACAD_REACTORS
330
C
102
}
330
C
100
AcDbDictionary
281
     1
  3
Standard
350
18
  0
DICTIONARY
  5
19
102
{ACAD_REACTORS
330
C
102
}
330
C
100
AcDbDictionary
281
     1
  0
ACDBDICTIONARYWDFLT
  5
E
102
{ACAD_REACTORS
330
C
102
}
330
C
100
AcDbDictionary
281
     1
  3
Normal
350
F
100
AcDbDictionaryWithDefault
340
F
  0
DICTIONARY
  5
3B
102
{ACAD_REACTORS
330
C
102
}
330
C
100
AcDbDictionary
281
     1
  3
A0
350
3C
  3
A1
350
3D
  3
A2
350
3E
  3
A3
350
3F
  3
A4
350
40
  3
A5
350
41
  3
A6
350
42
  3
A7
350
43
  3
A8
350
44
  3
A9
350
45
  3
B0
350
46
  3
B1
350
47
  3
B2
350
48
  3
B3
350
49
  3
B4
350
4A
  3
B5
350
4B
  3
B6
350
4C
  3
B7
350
4D
  3
B8
350
4E
  3
B9
350
4F
  3
C0
350
50
  3
C1
350
51
  3
C2
350
52
  3
C3
350
53
  3
C4
350
54
  3
C5
350
55
  3
C6
350
56
  3
C7
350
57
  3
C8
350
58
  3
C9
350
59
  3
D0
350
5A
  3
D1
350
5B
  3
D2
350
5C
  0
DICTIONARY
  5
166
102
{ACAD_REACTORS
330
C
102
}
330
C
100
AcDbDictionary
281
     1
  0
DICTIONARY
  5
2A
102
{ACAD_REACTORS
330
C
102
}
330
C
100
AcDbDictionary
281
     1
  3
2dWireframe
350
2F
  3
3D Hidden
350
31
  3
3dWireframe
350
30
  3
Basic
350
32
  3
Brighten
350
36
  3
ColorChange
350
3A
  3
Conceptual
350
34
  3
Dim
350
35
  3
Facepattern
350
39
  3
Flat
350
2B
  3
FlatWithEdges
350
2C
  3
Gouraud
350
2D
  3
GouraudWithEdges
350
2E
  3
Linepattern
350
38
  3
Realistic
350
33
  3
Thicken
350
37
  0
DICTIONARY
  5
164
102
{ACAD_REACTORS
330
C
102
}
330
C
100
AcDbDictionary
281
     1
  3
CANNOSCALE
350
165
  3
PSOLHEIGHT
350
169
  3
PSOLWIDTH
350
168
  0
LAYOUT
  5
1E
102
{ACAD_REACTORS
330
1A
102
}
330
1A
100
AcDbPlotSettings
  1

  2
none_device
  4

  6

 40
0.0
 41
0.0
 42
0.0
 43
0.0
 44
0.0
 45
0.0
 46
0.0
 47
0.0
 48
0.0
 49
0.0
140
0.0
141
0.0
142
1.0
143
1.0
 70
   688
 72
     0
 73
     0
 74
     5
  7

 75
    16
147
1.0
148
0.0
149
0.0
100
AcDbLayout
  1
Layout1
 70
     1
 71
     1
 10
0.0
 20
0.0
 11
1682.0
 21
2378.0
 12
0.0
 22
0.0
 32
0.0
 14
0.0
 24
0.0
 34
0.0
 15
1682.0
 25
2378.0
 35
0.0
146
0.0
 13
0.0
 23
0.0
 33
0.0
 16
1.0
 26
0.0
 36
0.0
 17
0.0
 27
1.0
 37
0.0
 76
     0
330
1B
  0
LAYOUT
  5
22
102
{ACAD_REACTORS
330
1A
102
}
330
1A
100
AcDbPlotSettings
  1

  2
none_device
  4

  6

 40
0.0
 41
0.0
 42
0.0
 43
0.0
 44
0.0
 45
0.0
 46
0.0
 47
0.0
 48
0.0
 49
0.0
140
0.0
141
0.0
142
1.0
143
1.0
 70
  1712
 72
     0
 73
     0
 74
     0
  7

 75
     0
147
1.0
148
0.0
149
0.0
100
AcDbLayout
  1
Model
 70
     1
 71
     0
 10
0.0
 20
0.0
 11
1682.0
 21
2378.0
 12
0.0
 22
0.0
 32
0.0
 14
0.0
 24
0.0
 34
0.0
 15
1682.0
 25
2378.0
 35
0.0
146
0.0
 13
0.0
 23
0.0
 33
0.0
 16
1.0
 26
0.0
 36
0.0
 17
0.0
 27
1.0
 37
0.0
 76
     0
330
1F
331
29
  0
MLINESTYLE
  5
18
102
{ACAD_REACTORS
330
17
102
}
330
17
100
AcDbMlineStyle
  2
Standard
 70
     0
  3

 62
   256
 51
90.0
 52
90.0
 71
     2
 49
0.5
 62
   256
  6
BYLAYER
 49
-0.5
 62
   256
  6
BYLAYER
  0
ACDBPLACEHOLDER
  5
F
102
{ACAD_REACTORS
330
E
102
}
330
E
  0
SCALE
  5
3C
102
{ACAD_REACTORS
330
3B
102
}
330
3B
100
AcDbScale
 70
     0
300
1:1
140
1.0
141
1.0
290
     1
  0
SCALE
  5
3D
102
{ACAD_REACTORS
330
3B
102
}
330
3B
100
AcDbScale
 70
     0
300
1:2
140
1.0
141
2.0
290
     0
  0
SCALE
  5
3E
102
{ACAD_REACTORS
330
3B
102
}
330
3B
100
AcDbScale
 70
     0
300
1:4
140
1.0
141
4.0
290
     0
  0
SCALE
  5
3F
102
{ACAD_REACTORS
330
3B
102
}
330
3B
100
AcDbScale
 70
     0
300
1:5
140
1.0
141
5.0
290
     0
  0
SCALE
  5
40
102
{ACAD_REACTORS
330
3B
102
}
330
3B
100
AcDbScale
 70
     0
300
1:8
140
1.0
141
8.0
290
     0
  0
SCALE
  5
41
102
{ACAD_REACTORS
330
3B
102
}
330
3B
100
AcDbScale
 70
     0
300
1:10
140
1.0
141
10.0
290
     0
  0
SCALE
  5
42
102
{ACAD_REACTORS
330
3B
102
}
330
3B
100
AcDbScale
 70
     0
300
1:16
140
1.0
141
16.0
290
     0
  0
SCALE
  5
43
102
{ACAD_REACTORS
330
3B
102
}
330
3B
100
AcDbScale
 70
     0
300
1:20
140
1.0
141
20.0
290
     0
  0
SCALE
  5
44
102
{ACAD_REACTORS
330
3B
102
}
330
3B
100
AcDbScale
 70
     0
300
1:30
140
1.0
141
30.0
290
     0
  0
SCALE
  5
45
102
{ACAD_REACTORS
330
3B
102
}
330
3B
100
AcDbScale
 70
     0
300
1:40
140
1.0
141
40.0
290
     0
  0
SCALE
  5
46
102
{ACAD_REACTORS
330
3B
102
}
330
3B
100
AcDbScale
 70
     0
300
1:50
140
1.0
141
50.0
290
     0
  0
SCALE
  5
47
102
{ACAD_REACTORS
330
3B
102
}
330
3B
100
AcDbScale
 70
     0
300
1:100
140
1.0
141
100.0
290
     0
  0
SCALE
  5
48
102
{ACAD_REACTORS
330
3B
102
}
330
3B
100
AcDbScale
 70
     0
300
2:1
140
2.0
141
1.0
290
     0
  0
SCALE
  5
49
102
{ACAD_REACTORS
330
3B
102
}
330
3B
100
AcDbScale
 70
     0
300
4:1
140
4.0
141
1.0
290
     0
  0
SCALE
  5
4A
102
{ACAD_REACTORS
330
3B
102
}
330
3B
100
AcDbScale
 70
     0
300
8:1
140
8.0
141
1.0
290
     0
  0
SCALE
  5
4B
102
{ACAD_REACTORS
330
3B
102
}
330
3B
100
AcDbScale
 70
     0
300
10:1
140
10.0
141
1.0
290
     0
  0
SCALE
  5
4C
102
{ACAD_REACTORS
330
3B
102
}
330
3B
100
AcDbScale
 70
     0
300
100:1
140
100.0
141
1.0
290
     0
  0
SCALE
  5
4D
102
{ACAD_REACTORS
330
3B
102
}
330
3B
100
AcDbScale
 70
     0
300
1/128" = 1'-0"
140
0.0078125
141
12.0
290
     0
  0
SCALE
  5
4E
102
{ACAD_REACTORS
330
3B
102
}
330
3B
100
AcDbScale
 70
     0
300
1/64" = 1'-0"
140
0.015625
141
12.0
290
     0
  0
SCALE
  5
4F
102
{ACAD_REACTORS
330
3B
102
}
330
3B
100
AcDbScale
 70
     0
300
1/32" = 1'-0"
140
0.03125
141
12.0
290
     0
  0
SCALE
  5
50
102
{ACAD_REACTORS
330
3B
102
}
330
3B
100
AcDbScale
 70
     0
300
1/16" = 1'-0"
140
0.0625
141
12.0
290
     0
  0
SCALE
  5
51
102
{ACAD_REACTORS
330
3B
102
}
330
3B
100
AcDbScale
 70
     0
300
3/32" = 1'-0"
140
0.09375
141
12.0
290
     0
  0
SCALE
  5
52
102
{ACAD_REACTORS
330
3B
102
}
330
3B
100
AcDbScale
 70
     0
300
1/8" = 1'-0"
140
0.125
141
12.0
290
     0
  0
SCALE
  5
53
102
{ACAD_REACTORS
330
3B
102
}
330
3B
100
AcDbScale
 70
     0
300
3/16" = 1'-0"
140
0.1875
141
12.0
290
     0
  0
SCALE
  5
54
102
{ACAD_REACTORS
330
3B
102
}
330
3B
100
AcDbScale
 70
     0
300
1/4" = 1'-0"
140
0.25
141
12.0
290
     0
  0
SCALE
  5
55
102
{ACAD_REACTORS
330
3B
102
}
330
3B
100
AcDbScale
 70
     0
300
3/8" = 1'-0"
140
0.375
141
12.0
290
     0
  0
SCALE
  5
56
102
{ACAD_REACTORS
330
3B
102
}
330
3B
100
AcDbScale
 70
     0
300
1/2" = 1'-0"
140
0.5
141
12.0
290
     0
  0
SCALE
  5
57
102
{ACAD_REACTORS
330
3B
102
}
330
3B
100
AcDbScale
 70
     0
300
3/4" = 1'-0"
140
0.75
141
12.0
290
     0
  0
SCALE
  5
58
102
{ACAD_REACTORS
330
3B
102
}
330
3B
100
AcDbScale
 70
     0
300
1" = 1'-0"
140
1.0
141
12.0
290
     0
  0
SCALE
  5
59
102
{ACAD_REACTORS
330
3B
102
}
330
3B
100
AcDbScale
 70
     0
300
1-1/2" = 1'-0"
140
1.5
141
12.0
290
     0
  0
SCALE
  5
5A
102
{ACAD_REACTORS
330
3B
102
}
330
3B
100
AcDbScale
 70
     0
300
3" = 1'-0"
140
3.0
141
12.0
290
     0
  0
SCALE
  5
5B
102
{ACAD_REACTORS
330
3B
102
}
330
3B
100
AcDbScale
 70
     0
300
6" = 1'-0"
140
6.0
141
12.0
290
     0
  0
SCALE
  5
5C
102
{ACAD_REACTORS
330
3B
102
}
330
3B
100
AcDbScale
 70
     0
300
1'-0" = 1'-0"
140
12.0
141
12.0
290
     0
  0
VISUALSTYLE
  5
2F
102
{ACAD_REACTORS
330
2A
102
}
330
2A
100
AcDbVisualStyle
  2
2dWireframe
 70
     4
 71
     0
 72
     2
 73
     0
 90
        0
 40
-0.6
 41
-30.0
 62
     5
 63
     7
 74
     1
 91
        4
 64
     7
 65
   257
 75
     1
175
     1
 42
1.0
 92
        0
 66
   257
 43
1.0
 76
     1
 77
     6
 78
     2
 67
     7
 79
     5
170
     0
171
     0
290
     0
174
     0
 93
        1
 44
0.0
173
     0
291
     0
 45
0.0
1001
ACAD
1000
AcDbSavedByObjectVersion
1070
     0
  0
VISUALSTYLE
  5
31
102
{ACAD_REACTORS
330
2A
102
}
330
2A
100
AcDbVisualStyle
  2
3D Hidden
 70
     6
 71
     1
 72
     2
 73
     2
 90
        0
 40
-0.6
 41
-30.0
 62
     5
 63
     7
 74
     2
 91
        2
 64
     7
 65
   257
 75
     2
175
     1
 42
40.0
 92
        0
 66
   257
 43
1.0
 76
     1
 77
     6
 78
     2
 67
     7
 79
     3
170
     0
171
     0
290
     0
174
     0
 93
        1
 44
0.0
173
     0
291
     0
 45
0.0
1001
ACAD
1000
AcDbSavedByObjectVersion
1070
     0
  0
VISUALSTYLE
  5
30
102
{ACAD_REACTORS
330
2A
102
}
330
2A
100
AcDbVisualStyle
  2
3dWireframe
 70
     5
 71
     0
 72
     2
 73
     0
 90
        0
 40
-0.6
 41
-30.0
 62
     5
 63
     7
 74
     1
 91
        4
 64
     7
 65
   257
 75
     1
175
     1
 42
1.0
 92
        0
 66
   257
 43
1.0
 76
     1
 77
     6
 78
     2
 67
     7
 79
     5
170
     0
171
     0
290
     0
174
     0
 93
        1
 44
0.0
173
     0
291
     0
 45
0.0
1001
ACAD
1000
AcDbSavedByObjectVersion
1070
     0
  0
VISUALSTYLE
  5
32
102
{ACAD_REACTORS
330
2A
102
}
330
2A
100
AcDbVisualStyle
  2
Basic
 70
     7
 71
     1
 72
     0
 73
     1
 90
        0
 40
-0.6
 41
-30.0
 62
     5
 63
     7
 74
     0
 91
        4
 64
     7
 65
   257
 75
     1
175
     1
 42
1.0
 92
        8
 66
     7
 43
1.0
 76
     1
 77
     6
 78
     2
 67
     7
 79
     5
170
     0
171
     0
290
     0
174
     0
 93
        1
 44
0.0
173
     0
291
     1
 45
0.0
1001
ACAD
1000
AcDbSavedByObjectVersion
1070
     0
  0
VISUALSTYLE
  5
36
102
{ACAD_REACTORS
330
2A
102
}
330
2A
100
AcDbVisualStyle
  2
Brighten
 70
    12
 71
     2
 72
     2
 73
     0
 90
        0
 40
-0.6
 41
-30.0
 62
     5
 63
     7
 74
     1
 91
        4
 64
     7
 65
   257
 75
     1
175
     1
 42
1.0
 92
        8
 66
     7
 43
1.0
 76
     1
 77
     6
 78
     2
 67
     7
 79
     5
170
     0
171
     0
290
     0
174
     0
 93
        1
 44
50.0
173
     0
291
     1
 45
0.0
1001
ACAD
1000
AcDbSavedByObjectVersion
1070
     0
  0
VISUALSTYLE
  5
3A
102
{ACAD_REACTORS
330
2A
102
}
330
2A
100
AcDbVisualStyle
  2
ColorChange
 70
    16
 71
     2
 72
     2
 73
     3
 90
        0
 40
-0.6
 41
-30.0
 62
     5
 63
     8
 74
     1
 91
        4
 64
     7
 65
   257
 75
     1
175
     1
 42
1.0
 92
        8
 66
     8
 43
1.0
 76
     1
 77
     6
 78
     2
 67
     7
 79
     5
170
     0
171
     0
290
     0
174
     0
 93
        1
 44
0.0
173
     0
291
     1
 45
0.0
1001
ACAD
1000
AcDbSavedByObjectVersion
1070
     0
  0
VISUALSTYLE
  5
34
102
{ACAD_REACTORS
330
2A
102
}
330
2A
100
AcDbVisualStyle
  2
Conceptual
 70
     9
 71
     3
 72
     2
 73
     0
 90
        0
 40
-0.6
 41
-30.0
 62
     5
 63
     7
 74
     2
 91
        2
 64
     7
 65
   257
 75
     1
175
     1
 42
40.0
 92
        8
 66
     7
 43
1.0
 76
     1
 77
     6
 78
     2
 67
     7
 79
     3
170
     0
171
     0
290
     0
174
     0
 93
        1
 44
0.0
173
     0
291
     0
 45
0.0
1001
ACAD
1000
AcDbSavedByObjectVersion
1070
     0
  0
VISUALSTYLE
  5
35
102
{ACAD_REACTORS
330
2A
102
}
330
2A
100
AcDbVisualStyle
  2
Dim
 70
    11
 71
     2
 72
     2
 73
     0
 90
        0
 40
-0.6
 41
-30.0
 62
     5
 63
     7
 74
     1
 91
        4
 64
     7
 65
   257
 75
     1
175
     1
 42
1.0
 92
        8
 66
     7
 43
1.0
 76
     1
 77
     6
 78
     2
 67
     7
 79
     5
170
     0
171
     0
290
     0
174
     0
 93
        1
 44
-50.0
173
     0
291
     1
 45
0.0
1001
ACAD
1000
AcDbSavedByObjectVersion
1070
     0
  0
VISUALSTYLE
  5
39
102
{ACAD_REACTORS
330
2A
102
}
330
2A
100
AcDbVisualStyle
  2
Facepattern
 70
    15
 71
     2
 72
     2
 73
     0
 90
        0
 40
-0.6
 41
-30.0
 62
     5
 63
     7
 74
     1
 91
        4
 64
     7
 65
   257
 75
     1
175
     1
 42
1.0
 92
        8
 66
     7
 43
1.0
 76
     1
 77
     6
 78
     2
 67
     7
 79
     5
170
     0
171
     0
290
     0
174
     0
 93
        1
 44
0.0
173
     0
291
     1
 45
0.0
1001
ACAD
1000
AcDbSavedByObjectVersion
1070
     0
  0
VISUALSTYLE
  5
2B
102
{ACAD_REACTORS
330
2A
102
}
330
2A
100
AcDbVisualStyle
  2
Flat
 70
     0
 71
     2
 72
     1
 73
     1
 90
        2
 40
-0.6
 41
30.0
 62
     5
 63
     7
 74
     0
 91
        4
 64
     7
 65
   257
 75
     1
175
     1
 42
1.0
 92
        8
 66
     7
 43
1.0
 76
     1
 77
     6
 78
     2
 67
     7
 79
     5
170
     0
171
     0
290
     0
174
     0
 93
       13
 44
0.0
173
     0
291
     1
 45
0.0
1001
ACAD
1000
AcDbSavedByObjectVersion
1070
     0
  0
VISUALSTYLE
  5
2C
102
{ACAD_REACTORS
330
2A
102
}
330
2A
100
AcDbVisualStyle
  2
FlatWithEdges
 70
     1
 71
     2
 72
     1
 73
     1
 90
        2
 40
-0.6
 41
30.0
 62
     5
 63
     7
 74
     1
 91
        4
 64
     7
 65
   257
 75
     1
175
     1
 42
1.0
 92
        0
 66
   257
 43
1.0
 76
     1
 77
     6
 78
     2
 67
     7
 79
     5
170
     0
171
     0
290
     0
174
     0
 93
       13
 44
0.0
173
     0
291
     1
 45
0.0
1001
ACAD
1000
AcDbSavedByObjectVersion
1070
     0
  0
VISUALSTYLE
  5
2D
102
{ACAD_REACTORS
330
2A
102
}
330
2A
100
AcDbVisualStyle
  2
Gouraud
 70
     2
 71
     2
 72
     2
 73
     1
 90
        2
 40
-0.6
 41
30.0
 62
     5
 63
     7
 74
     0
 91
        4
 64
     7
 65
   257
 75
     1
175
     1
 42
1.0
 92
        0
 66
     7
 43
1.0
 76
     1
 77
     6
 78
     2
 67
     7
 79
     5
170
     0
171
     0
290
     0
174
     0
 93
       13
 44
0.0
173
     0
291
     1
 45
0.0
1001
ACAD
1000
AcDbSavedByObjectVersion
1070
     0
  0
VISUALSTYLE
  5
2E
102
{ACAD_REACTORS
330
2A
102
}
330
2A
100
AcDbVisualStyle
  2
GouraudWithEdges
 70
     3
 71
     2
 72
     2
 73
     1
 90
        2
 40
-0.6
 41
30.0
 62
     5
 63
     7
 74
     1
 91
        4
 64
     7
 65
   257
 75
     1
175
     1
 42
1.0
 92
        0
 66
   257
 43
1.0
 76
     1
 77
     6
 78
     2
 67
     7
 79
     5
170
     0
171
     0
290
     0
174
     0
 93
       13
 44
0.0
173
     0
291
     1
 45
0.0
1001
ACAD
1000
AcDbSavedByObjectVersion
1070
     0
  0
VISUALSTYLE
  5
38
102
{ACAD_REACTORS
330
2A
102
}
330
2A
100
AcDbVisualStyle
  2
Linepattern
 70
    14
 71
     2
 72
     2
 73
     0
 90
        0
 40
-0.6
 41
-30.0
 62
     5
 63
     7
 74
     1
 91
        4
 64
     7
 65
   257
 75
     7
175
     7
 42
1.0
 92
        8
 66
     7
 43
1.0
 76
     1
 77
     6
 78
     2
 67
     7
 79
     5
170
     0
171
     0
290
     0
174
     0
 93
        1
 44
0.0
173
     0
291
     1
 45
0.0
1001
ACAD
1000
AcDbSavedByObjectVersion
1070
     0
  0
VISUALSTYLE
  5
33
102
{ACAD_REACTORS
330
2A
102
}
330
2A
100
AcDbVisualStyle
  2
Realistic
 70
     8
 71
     2
 72
     2
 73
     0
 90
        0
 40
-0.6
 41
-30.0
 62
     5
 63
     7
 74
     1
 91
        0
 64
     7
 65
   257
 75
     1
175
     1
 42
1.0
 92
        8
 66
     8
 43
1.0
 76
     1
 77
     6
 78
     2
 67
     7
 79
     5
170
     0
171
     0
290
     0
174
     0
 93
       13
 44
0.0
173
     0
291
     0
 45
0.0
1001
ACAD
1000
AcDbSavedByObjectVersion
1070
     0
  0
VISUALSTYLE
  5
37
102
{ACAD_REACTORS
330
2A
102
}
330
2A
100
AcDbVisualStyle
  2
Thicken
 70
    13
 71
     2
 72
     2
 73
     0
 90
        0
 40
-0.6
 41
-30.0
 62
     5
 63
     7
 74
     1
 91
        4
 64
     7
 65
   257
 75
     1
175
     1
 42
1.0
 92
       12
 66
     7
 43
1.0
 76
     1
 77
     6
 78
     2
 67
     7
 79
     5
170
     0
171
     0
290
     0
174
     0
 93
        1
 44
0.0
173
     0
291
     1
 45
0.0
1001
ACAD
1000
AcDbSavedByObjectVersion
1070
     0
  0
DICTIONARYVAR
  5
165
102
{ACAD_REACTORS
330
164
102
}
330
164
100
DictionaryVariables
280
     0
  1
1:1
  0
DICTIONARYVAR
  5
169
102
{ACAD_REACTORS
330
164
102
}
330
164
100
DictionaryVariables
280
     0
  1
80.000000
  0
DICTIONARYVAR
  5
168
102
{ACAD_REACTORS
330
164
102
}
330
164
100
DictionaryVariables
280
     0
  1
5.000000
  0
ENDSEC
  0
EOF
