999
Converted by 3D Exploration 
999
XDimension Software, LLC
999
http://www.xdsoft.com/explorer/
0
SECTION
2
HEADER
9
$ACADVER
1
AC1008
9
$UCSORG
10
0.0
20
0.0
30
0.0
9
$UCSXDIR
10
1.0
20
0.0
30
0.0
9
$TILEMODE
70
1
9
$UCSYDIR
10
0.0
20
1.0
30
0.0
9
$EXTMIN
10
0.000000
20
-21.874001
30
-21.874001
9
$EXTMAX
10
77.000000
20
21.874001
30
65.199997
0
ENDSEC
0
SECTION
2
TABLES
0
TABLE
2
LTYPE
70
1
0
LTYPE
2
CONTINUOUS
70
64
3
Solid line
72
65
73
0
40
0.0
0
ENDTAB
0
TABLE
2
LAYER
70
60
0
LAYER
2
OBJECT__0
70
0
62
253
6
CONTINUOUS
0
LAYER
2
OBJECT__1
70
0
62
253
6
CONTINUOUS
0
LAYER
2
OBJECT__3
70
0
62
253
6
CONTINUOUS
0
LAYER
2
OBJECT__4
70
0
62
253
6
CONTINUOUS
0
LAYER
2
OBJECT__5
70
0
62
253
6
CONTINUOUS
0
LAYER
2
OBJECT__7
70
0
62
253
6
CONTINUOUS
0
LAYER
2
OBJECT__8
70
0
62
253
6
CONTINUOUS
0
LAYER
2
OBJECT__9
70
0
62
253
6
CONTINUOUS
0
LAYER
2
OBJECT__10
70
0
62
253
6
CONTINUOUS
0
LAYER
2
OBJECT__12
70
0
62
253
6
CONTINUOUS
0
LAYER
2
OBJECT__13
70
0
62
253
6
CONTINUOUS
0
LAYER
2
OBJECT__14
70
0
62
253
6
CONTINUOUS
0
LAYER
2
OBJECT__15
70
0
62
253
6
CONTINUOUS
0
LAYER
2
OBJECT__17
70
0
62
253
6
CONTINUOUS
0
LAYER
2
OBJECT__19
70
0
62
253
6
CONTINUOUS
0
LAYER
2
OBJECT__20
70
0
62
253
6
CONTINUOUS
0
LAYER
2
OBJECT__22
70
0
62
253
6
CONTINUOUS
0
LAYER
2
OBJECT__23
70
0
62
253
6
CONTINUOUS
0
LAYER
2
OBJECT__24
70
0
62
253
6
CONTINUOUS
0
LAYER
2
OBJECT__25
70
0
62
253
6
CONTINUOUS
0
LAYER
2
OBJECT__26
70
0
62
253
6
CONTINUOUS
0
LAYER
2
OBJECT__27
70
0
62
253
6
CONTINUOUS
0
LAYER
2
OBJECT__28
70
0
62
253
6
CONTINUOUS
0
LAYER
2
OBJECT__29
70
0
62
253
6
CONTINUOUS
0
LAYER
2
OBJECT__30
70
0
62
253
6
CONTINUOUS
0
LAYER
2
OBJECT__31
70
0
62
253
6
CONTINUOUS
0
LAYER
2
OBJECT__32
70
0
62
253
6
CONTINUOUS
0
LAYER
2
OBJECT__33
70
0
62
253
6
CONTINUOUS
0
LAYER
2
OBJECT__34
70
0
62
253
6
CONTINUOUS
0
LAYER
2
OBJECT__36
70
0
62
253
6
CONTINUOUS
0
LAYER
2
OBJECT__37
70
0
62
253
6
CONTINUOUS
0
LAYER
2
OBJECT__38
70
0
62
253
6
CONTINUOUS
0
LAYER
2
OBJECT__39
70
0
62
253
6
CONTINUOUS
0
LAYER
2
OBJECT__40
70
0
62
253
6
CONTINUOUS
0
LAYER
2
OBJECT__41
70
0
62
253
6
CONTINUOUS
0
LAYER
2
OBJECT__43
70
0
62
253
6
CONTINUOUS
0
LAYER
2
OBJECT__44
70
0
62
253
6
CONTINUOUS
0
LAYER
2
OBJECT__45
70
0
62
253
6
CONTINUOUS
0
LAYER
2
OBJECT__46
70
0
62
253
6
CONTINUOUS
0
LAYER
2
OBJECT__47
70
0
62
253
6
CONTINUOUS
0
LAYER
2
OBJECT__48
70
0
62
253
6
CONTINUOUS
0
LAYER
2
OBJECT__49
70
0
62
253
6
CONTINUOUS
0
LAYER
2
OBJECT__50
70
0
62
253
6
CONTINUOUS
0
LAYER
2
OBJECT__51
70
0
62
253
6
CONTINUOUS
0
LAYER
2
OBJECT__52
70
0
62
253
6
CONTINUOUS
0
LAYER
2
OBJECT__53
70
0
62
253
6
CONTINUOUS
0
LAYER
2
OBJECT__54
70
0
62
253
6
CONTINUOUS
0
LAYER
2
OBJECT__56
70
0
62
253
6
CONTINUOUS
0
LAYER
2
OBJECT__57
70
0
62
253
6
CONTINUOUS
0
LAYER
2
OBJECT__58
70
0
62
253
6
CONTINUOUS
0
LAYER
2
OBJECT__59
70
0
62
253
6
CONTINUOUS
0
ENDTAB
0
TABLE
2
STYLE
70
1
0
STYLE
2
STANDARD
70
0
40
0.0
41
1.0
50
0.0
71
0
42
0.2
3
txt
4
1
0
ENDTAB
0
TABLE
2
UCS
70
0
0
ENDTAB
0
ENDSEC
0
SECTION
2
ENTITIES
0
POLYLINE
8
OBJECT__0
66
1
70
64
71
10
72
8
62
253
0
VERTEX
8
OBJECT__0
10
39.438000
20
-10.580000
30
42.500000
70
192
0
VERTEX
8
OBJECT__0
10
36.000000
20
0.000000
30
42.500000
70
192
0
VERTEX
8
OBJECT__0
10
39.438000
20
10.580000
30
42.500000
70
192
0
VERTEX
8
OBJECT__0
10
48.438000
20
17.118999
30
42.500000
70
192
0
VERTEX
8
OBJECT__0
10
59.562000
20
-17.118999
30
42.500000
70
192
0
VERTEX
8
OBJECT__0
10
48.438000
20
-17.118999
30
42.500000
70
192
0
VERTEX
8
OBJECT__0
10
68.561996
20
10.580000
30
42.500000
70
192
0
VERTEX
8
OBJECT__0
10
72.000000
20
0.000000
30
42.500000
70
192
0
VERTEX
8
OBJECT__0
10
59.562000
20
17.118999
30
42.500000
70
192
0
VERTEX
8
OBJECT__0
10
68.561996
20
-10.580000
30
42.500000
70
192
0
VERTEX
8
OBJECT__0
10
0
20
0
30
0
70
128
71
1
72
2
73
3
0
VERTEX
8
OBJECT__0
10
0
20
0
30
0
70
128
71
4
72
5
73
6
0
VERTEX
8
OBJECT__0
10
0
20
0
30
0
70
128
71
5
72
7
73
8
0
VERTEX
8
OBJECT__0
10
0
20
0
30
0
70
128
71
5
72
4
73
9
0
VERTEX
8
OBJECT__0
10
0
20
0
30
0
70
128
71
6
72
1
73
4
0
VERTEX
8
OBJECT__0
10
0
20
0
30
0
70
128
71
9
72
7
73
5
0
VERTEX
8
OBJECT__0
10
0
20
0
30
0
70
128
71
8
72
10
73
5
0
VERTEX
8
OBJECT__0
10
0
20
0
30
0
70
128
71
3
72
4
73
1
0
SEQEND
8
OBJECT__0
0
POLYLINE
8
OBJECT__1
66
1
70
64
71
32
72
32
62
253
0
VERTEX
8
OBJECT__1
10
36.000000
20
0.000000
30
42.500000
70
192
0
VERTEX
8
OBJECT__1
10
36.193001
20
0.000000
30
64.593002
70
192
0
VERTEX
8
OBJECT__1
10
37.956001
20
7.726000
30
64.593002
70
192
0
VERTEX
8
OBJECT__1
10
39.438000
20
10.580000
30
42.500000
70
192
0
VERTEX
8
OBJECT__1
10
48.438000
20
17.118999
30
42.500000
70
192
0
VERTEX
8
OBJECT__1
10
42.896999
20
13.922000
30
64.593002
70
192
0
VERTEX
8
OBJECT__1
10
39.929001
20
10.200000
30
64.593002
70
192
0
VERTEX
8
OBJECT__1
10
59.562000
20
17.118999
30
42.500000
70
192
0
VERTEX
8
OBJECT__1
10
50.037998
20
17.361000
30
64.593002
70
192
0
VERTEX
8
OBJECT__1
10
48.620998
20
16.679001
30
64.593002
70
192
0
VERTEX
8
OBJECT__1
10
57.962002
20
17.361000
30
64.593002
70
192
0
VERTEX
8
OBJECT__1
10
59.379002
20
16.679001
30
64.593002
70
192
0
VERTEX
8
OBJECT__1
10
65.102997
20
13.922000
30
64.593002
70
192
0
VERTEX
8
OBJECT__1
10
68.561996
20
10.580000
30
42.500000
70
192
0
VERTEX
8
OBJECT__1
10
72.000000
20
0.000000
30
42.500000
70
192
0
VERTEX
8
OBJECT__1
10
70.043999
20
7.726000
30
64.593002
70
192
0
VERTEX
8
OBJECT__1
10
68.070999
20
10.200000
30
64.593002
70
192
0
VERTEX
8
OBJECT__1
10
71.806999
20
0.000000
30
64.593002
70
192
0
VERTEX
8
OBJECT__1
10
70.043999
20
-7.726000
30
64.593002
70
192
0
VERTEX
8
OBJECT__1
10
68.561996
20
-10.580000
30
42.500000
70
192
0
VERTEX
8
OBJECT__1
10
59.562000
20
-17.118999
30
42.500000
70
192
0
VERTEX
8
OBJECT__1
10
65.102997
20
-13.922000
30
64.593002
70
192
0
VERTEX
8
OBJECT__1
10
68.070999
20
-10.200000
30
64.593002
70
192
0
VERTEX
8
OBJECT__1
10
57.962002
20
-17.361000
30
64.593002
70
192
0
VERTEX
8
OBJECT__1
10
50.037998
20
-17.361000
30
64.593002
70
192
0
VERTEX
8
OBJECT__1
10
48.438000
20
-17.118999
30
42.500000
70
192
0
VERTEX
8
OBJECT__1
10
59.379002
20
-16.679001
30
64.593002
70
192
0
VERTEX
8
OBJECT__1
10
48.620998
20
-16.679001
30
64.593002
70
192
0
VERTEX
8
OBJECT__1
10
42.896999
20
-13.922000
30
64.593002
70
192
0
VERTEX
8
OBJECT__1
10
39.438000
20
-10.580000
30
42.500000
70
192
0
VERTEX
8
OBJECT__1
10
37.956001
20
-7.726000
30
64.593002
70
192
0
VERTEX
8
OBJECT__1
10
39.929001
20
-10.200000
30
64.593002
70
192
0
VERTEX
8
OBJECT__1
10
0
20
0
30
0
70
128
71
1
72
2
73
3
0
VERTEX
8
OBJECT__1
10
0
20
0
30
0
70
128
71
3
72
4
73
1
0
VERTEX
8
OBJECT__1
10
0
20
0
30
0
70
128
71
5
72
4
73
6
0
VERTEX
8
OBJECT__1
10
0
20
0
30
0
70
128
71
4
72
7
73
6
0
VERTEX
8
OBJECT__1
10
0
20
0
30
0
70
128
71
8
72
5
73
9
0
VERTEX
8
OBJECT__1
10
0
20
0
30
0
70
128
71
5
72
10
73
9
0
VERTEX
8
OBJECT__1
10
0
20
0
30
0
70
128
71
9
72
11
73
8
0
VERTEX
8
OBJECT__1
10
0
20
0
30
0
70
128
71
8
72
12
73
13
0
VERTEX
8
OBJECT__1
10
0
20
0
30
0
70
128
71
13
72
14
73
8
0
VERTEX
8
OBJECT__1
10
0
20
0
30
0
70
128
71
15
72
14
73
16
0
VERTEX
8
OBJECT__1
10
0
20
0
30
0
70
128
71
14
72
17
73
16
0
VERTEX
8
OBJECT__1
10
0
20
0
30
0
70
128
71
15
72
18
73
19
0
VERTEX
8
OBJECT__1
10
0
20
0
30
0
70
128
71
19
72
20
73
15
0
VERTEX
8
OBJECT__1
10
0
20
0
30
0
70
128
71
21
72
20
73
22
0
VERTEX
8
OBJECT__1
10
0
20
0
30
0
70
128
71
20
72
23
73
22
0
VERTEX
8
OBJECT__1
10
0
20
0
30
0
70
128
71
21
72
24
73
25
0
VERTEX
8
OBJECT__1
10
0
20
0
30
0
70
128
71
25
72
26
73
21
0
VERTEX
8
OBJECT__1
10
0
20
0
30
0
70
128
71
21
72
27
73
24
0
VERTEX
8
OBJECT__1
10
0
20
0
30
0
70
128
71
26
72
28
73
29
0
VERTEX
8
OBJECT__1
10
0
20
0
30
0
70
128
71
29
72
30
73
26
0
VERTEX
8
OBJECT__1
10
0
20
0
30
0
70
128
71
1
72
30
73
31
0
VERTEX
8
OBJECT__1
10
0
20
0
30
0
70
128
71
30
72
32
73
31
0
VERTEX
8
OBJECT__1
10
0
20
0
30
0
70
128
71
31
72
2
73
1
0
VERTEX
8
OBJECT__1
10
0
20
0
30
0
70
128
71
29
72
32
73
30
0
VERTEX
8
OBJECT__1
10
0
20
0
30
0
70
128
71
25
72
28
73
26
0
VERTEX
8
OBJECT__1
10
0
20
0
30
0
70
128
71
22
72
27
73
21
0
VERTEX
8
OBJECT__1
10
0
20
0
30
0
70
128
71
19
72
23
73
20
0
VERTEX
8
OBJECT__1
10
0
20
0
30
0
70
128
71
16
72
18
73
15
0
VERTEX
8
OBJECT__1
10
0
20
0
30
0
70
128
71
13
72
17
73
14
0
VERTEX
8
OBJECT__1
10
0
20
0
30
0
70
128
71
11
72
12
73
8
0
VERTEX
8
OBJECT__1
10
0
20
0
30
0
70
128
71
6
72
10
73
5
0
VERTEX
8
OBJECT__1
10
0
20
0
30
0
70
128
71
3
72
7
73
4
0
SEQEND
8
OBJECT__1
0
POLYLINE
8
OBJECT__3
66
1
70
64
71
23
72
22
62
253
0
VERTEX
8
OBJECT__3
10
54.000000
20
0.000000
30
65.199997
70
192
0
VERTEX
8
OBJECT__3
10
42.896999
20
13.922000
30
64.593002
70
192
0
VERTEX
8
OBJECT__3
10
39.929001
20
10.200000
30
64.593002
70
192
0
VERTEX
8
OBJECT__3
10
50.037998
20
17.361000
30
64.593002
70
192
0
VERTEX
8
OBJECT__3
10
48.620998
20
16.679001
30
64.593002
70
192
0
VERTEX
8
OBJECT__3
10
65.102997
20
13.922000
30
64.593002
70
192
0
VERTEX
8
OBJECT__3
10
59.379002
20
16.679001
30
64.593002
70
192
0
VERTEX
8
OBJECT__3
10
70.043999
20
7.726000
30
64.593002
70
192
0
VERTEX
8
OBJECT__3
10
68.070999
20
10.200000
30
64.593002
70
192
0
VERTEX
8
OBJECT__3
10
65.102997
20
-13.922000
30
64.593002
70
192
0
VERTEX
8
OBJECT__3
10
68.070999
20
-10.200000
30
64.593002
70
192
0
VERTEX
8
OBJECT__3
10
57.962002
20
-17.361000
30
64.593002
70
192
0
VERTEX
8
OBJECT__3
10
59.379002
20
-16.679001
30
64.593002
70
192
0
VERTEX
8
OBJECT__3
10
42.896999
20
-13.922000
30
64.593002
70
192
0
VERTEX
8
OBJECT__3
10
48.620998
20
-16.679001
30
64.593002
70
192
0
VERTEX
8
OBJECT__3
10
37.956001
20
-7.726000
30
64.593002
70
192
0
VERTEX
8
OBJECT__3
10
39.929001
20
-10.200000
30
64.593002
70
192
0
VERTEX
8
OBJECT__3
10
36.193001
20
0.000000
30
64.593002
70
192
0
VERTEX
8
OBJECT__3
10
50.037998
20
-17.361000
30
64.593002
70
192
0
VERTEX
8
OBJECT__3
10
70.043999
20
-7.726000
30
64.593002
70
192
0
VERTEX
8
OBJECT__3
10
71.806999
20
0.000000
30
64.593002
70
192
0
VERTEX
8
OBJECT__3
10
57.962002
20
17.361000
30
64.593002
70
192
0
VERTEX
8
OBJECT__3
10
37.956001
20
7.726000
30
64.593002
70
192
0
VERTEX
8
OBJECT__3
10
0
20
0
30
0
70
128
71
1
72
2
73
3
0
VERTEX
8
OBJECT__3
10
0
20
0
30
0
70
128
71
1
72
4
73
5
0
VERTEX
8
OBJECT__3
10
0
20
0
30
0
70
128
71
1
72
6
73
7
0
VERTEX
8
OBJECT__3
10
0
20
0
30
0
70
128
71
1
72
8
73
9
0
VERTEX
8
OBJECT__3
10
0
20
0
30
0
70
128
71
1
72
10
73
11
0
VERTEX
8
OBJECT__3
10
0
20
0
30
0
70
128
71
1
72
12
73
13
0
VERTEX
8
OBJECT__3
10
0
20
0
30
0
70
128
71
1
72
14
73
15
0
VERTEX
8
OBJECT__3
10
0
20
0
30
0
70
128
71
1
72
16
73
17
0
VERTEX
8
OBJECT__3
10
0
20
0
30
0
70
128
71
18
72
16
73
1
0
VERTEX
8
OBJECT__3
10
0
20
0
30
0
70
128
71
17
72
14
73
1
0
VERTEX
8
OBJECT__3
10
0
20
0
30
0
70
128
71
15
72
19
73
1
0
VERTEX
8
OBJECT__3
10
0
20
0
30
0
70
128
71
19
72
12
73
1
0
VERTEX
8
OBJECT__3
10
0
20
0
30
0
70
128
71
13
72
10
73
1
0
VERTEX
8
OBJECT__3
10
0
20
0
30
0
70
128
71
11
72
20
73
1
0
VERTEX
8
OBJECT__3
10
0
20
0
30
0
70
128
71
20
72
21
73
1
0
VERTEX
8
OBJECT__3
10
0
20
0
30
0
70
128
71
21
72
8
73
1
0
VERTEX
8
OBJECT__3
10
0
20
0
30
0
70
128
71
9
72
6
73
1
0
VERTEX
8
OBJECT__3
10
0
20
0
30
0
70
128
71
7
72
22
73
1
0
VERTEX
8
OBJECT__3
10
0
20
0
30
0
70
128
71
22
72
4
73
1
0
VERTEX
8
OBJECT__3
10
0
20
0
30
0
70
128
71
5
72
2
73
1
0
VERTEX
8
OBJECT__3
10
0
20
0
30
0
70
128
71
3
72
23
73
1
0
VERTEX
8
OBJECT__3
10
0
20
0
30
0
70
128
71
23
72
18
73
1
0
SEQEND
8
OBJECT__3
0
POLYLINE
8
OBJECT__4
66
1
70
64
71
24
72
24
62
253
0
VERTEX
8
OBJECT__4
10
40.237999
20
-9.636000
30
39.099998
70
192
0
VERTEX
8
OBJECT__4
10
46.900002
20
-15.226000
30
39.099998
70
192
0
VERTEX
8
OBJECT__4
10
47.069000
20
-14.863000
30
39.500000
70
192
0
VERTEX
8
OBJECT__4
10
40.566002
20
-9.407000
30
39.500000
70
192
0
VERTEX
8
OBJECT__4
10
37.661999
20
-1.429000
30
39.500000
70
192
0
VERTEX
8
OBJECT__4
10
37.264000
20
-1.464000
30
39.099998
70
192
0
VERTEX
8
OBJECT__4
10
39.137001
20
6.931000
30
39.500000
70
192
0
VERTEX
8
OBJECT__4
10
38.773998
20
7.100000
30
39.099998
70
192
0
VERTEX
8
OBJECT__4
10
44.592999
20
13.434000
30
39.500000
70
192
0
VERTEX
8
OBJECT__4
10
44.363998
20
13.762000
30
39.099998
70
192
0
VERTEX
8
OBJECT__4
10
52.570999
20
16.337999
30
39.500000
70
192
0
VERTEX
8
OBJECT__4
10
52.535999
20
16.736000
30
39.099998
70
192
0
VERTEX
8
OBJECT__4
10
60.931000
20
14.863000
30
39.500000
70
192
0
VERTEX
8
OBJECT__4
10
61.099998
20
15.226000
30
39.099998
70
192
0
VERTEX
8
OBJECT__4
10
67.433998
20
9.407000
30
39.500000
70
192
0
VERTEX
8
OBJECT__4
10
67.762001
20
9.636000
30
39.099998
70
192
0
VERTEX
8
OBJECT__4
10
70.337997
20
1.429000
30
39.500000
70
192
0
VERTEX
8
OBJECT__4
10
70.736000
20
1.464000
30
39.099998
70
192
0
VERTEX
8
OBJECT__4
10
68.862999
20
-6.931000
30
39.500000
70
192
0
VERTEX
8
OBJECT__4
10
69.225998
20
-7.100000
30
39.099998
70
192
0
VERTEX
8
OBJECT__4
10
63.407001
20
-13.434000
30
39.500000
70
192
0
VERTEX
8
OBJECT__4
10
55.464001
20
-16.736000
30
39.099998
70
192
0
VERTEX
8
OBJECT__4
10
63.636002
20
-13.762000
30
39.099998
70
192
0
VERTEX
8
OBJECT__4
10
55.429001
20
-16.337999
30
39.500000
70
192
0
VERTEX
8
OBJECT__4
10
0
20
0
30
0
70
128
71
1
72
2
73
3
0
VERTEX
8
OBJECT__4
10
0
20
0
30
0
70
128
71
1
72
4
73
5
0
VERTEX
8
OBJECT__4
10
0
20
0
30
0
70
128
71
6
72
5
73
7
0
VERTEX
8
OBJECT__4
10
0
20
0
30
0
70
128
71
8
72
7
73
9
0
VERTEX
8
OBJECT__4
10
0
20
0
30
0
70
128
71
10
72
9
73
11
0
VERTEX
8
OBJECT__4
10
0
20
0
30
0
70
128
71
12
72
11
73
13
0
VERTEX
8
OBJECT__4
10
0
20
0
30
0
70
128
71
14
72
13
73
15
0
VERTEX
8
OBJECT__4
10
0
20
0
30
0
70
128
71
16
72
15
73
17
0
VERTEX
8
OBJECT__4
10
0
20
0
30
0
70
128
71
18
72
17
73
19
0
VERTEX
8
OBJECT__4
10
0
20
0
30
0
70
128
71
20
72
19
73
21
0
VERTEX
8
OBJECT__4
10
0
20
0
30
0
70
128
71
22
72
23
73
21
0
VERTEX
8
OBJECT__4
10
0
20
0
30
0
70
128
71
22
72
24
73
3
0
VERTEX
8
OBJECT__4
10
0
20
0
30
0
70
128
71
3
72
2
73
22
0
VERTEX
8
OBJECT__4
10
0
20
0
30
0
70
128
71
21
72
24
73
22
0
VERTEX
8
OBJECT__4
10
0
20
0
30
0
70
128
71
21
72
23
73
20
0
VERTEX
8
OBJECT__4
10
0
20
0
30
0
70
128
71
19
72
20
73
18
0
VERTEX
8
OBJECT__4
10
0
20
0
30
0
70
128
71
17
72
18
73
16
0
VERTEX
8
OBJECT__4
10
0
20
0
30
0
70
128
71
15
72
16
73
14
0
VERTEX
8
OBJECT__4
10
0
20
0
30
0
70
128
71
13
72
14
73
12
0
VERTEX
8
OBJECT__4
10
0
20
0
30
0
70
128
71
11
72
12
73
10
0
VERTEX
8
OBJECT__4
10
0
20
0
30
0
70
128
71
9
72
10
73
8
0
VERTEX
8
OBJECT__4
10
0
20
0
30
0
70
128
71
7
72
8
73
6
0
VERTEX
8
OBJECT__4
10
0
20
0
30
0
70
128
71
5
72
6
73
1
0
VERTEX
8
OBJECT__4
10
0
20
0
30
0
70
128
71
3
72
4
73
1
0
SEQEND
8
OBJECT__4
0
POLYLINE
8
OBJECT__5
66
1
70
64
71
23
72
23
62
253
0
VERTEX
8
OBJECT__5
10
52.570999
20
16.337999
30
39.500000
70
192
0
VERTEX
8
OBJECT__5
10
44.592999
20
13.434000
30
39.500000
70
192
0
VERTEX
8
OBJECT__5
10
48.203999
20
12.963000
30
39.500000
70
192
0
VERTEX
8
OBJECT__5
10
39.137001
20
6.931000
30
39.500000
70
192
0
VERTEX
8
OBJECT__5
10
42.115002
20
7.772000
30
39.500000
70
192
0
VERTEX
8
OBJECT__5
10
37.661999
20
-1.429000
30
39.500000
70
192
0
VERTEX
8
OBJECT__5
10
39.799999
20
0.113000
30
39.500000
70
192
0
VERTEX
8
OBJECT__5
10
60.931000
20
14.863000
30
39.500000
70
192
0
VERTEX
8
OBJECT__5
10
56.132000
20
14.039000
30
39.500000
70
192
0
VERTEX
8
OBJECT__5
10
63.383999
20
10.658000
30
39.500000
70
192
0
VERTEX
8
OBJECT__5
10
40.566002
20
-9.407000
30
39.500000
70
192
0
VERTEX
8
OBJECT__5
10
41.993999
20
-7.582000
30
39.500000
70
192
0
VERTEX
8
OBJECT__5
10
68.862999
20
-6.931000
30
39.500000
70
192
0
VERTEX
8
OBJECT__5
10
67.593002
20
-4.109000
30
39.500000
70
192
0
VERTEX
8
OBJECT__5
10
63.214001
20
-10.805000
30
39.500000
70
192
0
VERTEX
8
OBJECT__5
10
70.337997
20
1.429000
30
39.500000
70
192
0
VERTEX
8
OBJECT__5
10
67.655998
20
3.892000
30
39.500000
70
192
0
VERTEX
8
OBJECT__5
10
67.433998
20
9.407000
30
39.500000
70
192
0
VERTEX
8
OBJECT__5
10
47.069000
20
-14.863000
30
39.500000
70
192
0
VERTEX
8
OBJECT__5
10
47.999001
20
-12.870000
30
39.500000
70
192
0
VERTEX
8
OBJECT__5
10
63.407001
20
-13.434000
30
39.500000
70
192
0
VERTEX
8
OBJECT__5
10
55.909000
20
-14.071000
30
39.500000
70
192
0
VERTEX
8
OBJECT__5
10
55.429001
20
-16.337999
30
39.500000
70
192
0
VERTEX
8
OBJECT__5
10
0
20
0
30
0
70
128
71
1
72
2
73
3
0
VERTEX
8
OBJECT__5
10
0
20
0
30
0
70
128
71
2
72
4
73
5
0
VERTEX
8
OBJECT__5
10
0
20
0
30
0
70
128
71
5
72
3
73
2
0
VERTEX
8
OBJECT__5
10
0
20
0
30
0
70
128
71
4
72
6
73
7
0
VERTEX
8
OBJECT__5
10
0
20
0
30
0
70
128
71
8
72
9
73
10
0
VERTEX
8
OBJECT__5
10
0
20
0
30
0
70
128
71
7
72
5
73
4
0
VERTEX
8
OBJECT__5
10
0
20
0
30
0
70
128
71
6
72
11
73
12
0
VERTEX
8
OBJECT__5
10
0
20
0
30
0
70
128
71
13
72
14
73
15
0
VERTEX
8
OBJECT__5
10
0
20
0
30
0
70
128
71
16
72
17
73
14
0
VERTEX
8
OBJECT__5
10
0
20
0
30
0
70
128
71
18
72
10
73
17
0
VERTEX
8
OBJECT__5
10
0
20
0
30
0
70
128
71
8
72
1
73
9
0
VERTEX
8
OBJECT__5
10
0
20
0
30
0
70
128
71
12
72
7
73
6
0
VERTEX
8
OBJECT__5
10
0
20
0
30
0
70
128
71
11
72
19
73
20
0
VERTEX
8
OBJECT__5
10
0
20
0
30
0
70
128
71
21
72
15
73
22
0
VERTEX
8
OBJECT__5
10
0
20
0
30
0
70
128
71
14
72
13
73
16
0
VERTEX
8
OBJECT__5
10
0
20
0
30
0
70
128
71
10
72
18
73
8
0
VERTEX
8
OBJECT__5
10
0
20
0
30
0
70
128
71
20
72
12
73
11
0
VERTEX
8
OBJECT__5
10
0
20
0
30
0
70
128
71
23
72
22
73
20
0
VERTEX
8
OBJECT__5
10
0
20
0
30
0
70
128
71
15
72
21
73
13
0
VERTEX
8
OBJECT__5
10
0
20
0
30
0
70
128
71
3
72
9
73
1
0
VERTEX
8
OBJECT__5
10
0
20
0
30
0
70
128
71
22
72
23
73
21
0
VERTEX
8
OBJECT__5
10
0
20
0
30
0
70
128
71
20
72
19
73
23
0
VERTEX
8
OBJECT__5
10
0
20
0
30
0
70
128
71
17
72
16
73
18
0
SEQEND
8
OBJECT__5
0
POLYLINE
8
OBJECT__7
66
1
70
64
71
40
72
51
62
253
0
VERTEX
8
OBJECT__7
10
43.188999
20
-6.827000
30
40.085999
70
192
0
VERTEX
8
OBJECT__7
10
48.596001
20
-11.588000
30
40.085999
70
192
0
VERTEX
8
OBJECT__7
10
48.844002
20
-11.057000
30
41.500000
70
192
0
VERTEX
8
OBJECT__7
10
41.215000
20
0.101000
30
40.085999
70
192
0
VERTEX
8
OBJECT__7
10
42.980999
20
-4.046000
30
41.500000
70
192
0
VERTEX
8
OBJECT__7
10
43.685001
20
-6.514000
30
41.500000
70
192
0
VERTEX
8
OBJECT__7
10
41.799999
20
0.097000
30
41.500000
70
192
0
VERTEX
8
OBJECT__7
10
43.297001
20
5.049000
30
41.500000
70
192
0
VERTEX
8
OBJECT__7
10
43.299000
20
6.998000
30
40.085999
70
192
0
VERTEX
8
OBJECT__7
10
48.780998
20
11.672000
30
40.085999
70
192
0
VERTEX
8
OBJECT__7
10
43.789001
20
6.677000
30
41.500000
70
192
0
VERTEX
8
OBJECT__7
10
55.919998
20
12.641000
30
40.085999
70
192
0
VERTEX
8
OBJECT__7
10
49.855999
20
11.251000
30
41.500000
70
192
0
VERTEX
8
OBJECT__7
10
49.020000
20
11.137000
30
41.500000
70
192
0
VERTEX
8
OBJECT__7
10
55.832001
20
12.062000
30
41.500000
70
192
0
VERTEX
8
OBJECT__7
10
58.946999
20
10.609000
30
41.500000
70
192
0
VERTEX
8
OBJECT__7
10
62.449001
20
9.596000
30
40.085999
70
192
0
VERTEX
8
OBJECT__7
10
62.062000
20
9.156000
30
41.500000
70
192
0
VERTEX
8
OBJECT__7
10
65.281998
20
4.058000
30
41.500000
70
192
0
VERTEX
8
OBJECT__7
10
66.295998
20
3.505000
30
40.085999
70
192
0
VERTEX
8
OBJECT__7
10
66.238998
20
-3.699000
30
40.085999
70
192
0
VERTEX
8
OBJECT__7
10
65.733002
20
3.344000
30
41.500000
70
192
0
VERTEX
8
OBJECT__7
10
62.296001
20
-9.729000
30
40.085999
70
192
0
VERTEX
8
OBJECT__7
10
64.747002
20
-4.953000
30
41.500000
70
192
0
VERTEX
8
OBJECT__7
10
65.678001
20
-3.530000
30
41.500000
70
192
0
VERTEX
8
OBJECT__7
10
61.916000
20
-9.283000
30
41.500000
70
192
0
VERTEX
8
OBJECT__7
10
57.984001
20
-11.041000
30
41.500000
70
192
0
VERTEX
8
OBJECT__7
10
55.719002
20
-12.670000
30
40.085999
70
192
0
VERTEX
8
OBJECT__7
10
55.639999
20
-12.089000
30
41.500000
70
192
0
VERTEX
8
OBJECT__7
10
41.993999
20
-7.582000
30
39.500000
70
192
0
VERTEX
8
OBJECT__7
10
47.999001
20
-12.870000
30
39.500000
70
192
0
VERTEX
8
OBJECT__7
10
39.799999
20
0.113000
30
39.500000
70
192
0
VERTEX
8
OBJECT__7
10
42.115002
20
7.772000
30
39.500000
70
192
0
VERTEX
8
OBJECT__7
10
48.203999
20
12.963000
30
39.500000
70
192
0
VERTEX
8
OBJECT__7
10
56.132000
20
14.039000
30
39.500000
70
192
0
VERTEX
8
OBJECT__7
10
63.383999
20
10.658000
30
39.500000
70
192
0
VERTEX
8
OBJECT__7
10
67.593002
20
-4.109000
30
39.500000
70
192
0
VERTEX
8
OBJECT__7
10
67.655998
20
3.892000
30
39.500000
70
192
0
VERTEX
8
OBJECT__7
10
63.214001
20
-10.805000
30
39.500000
70
192
0
VERTEX
8
OBJECT__7
10
55.909000
20
-14.071000
30
39.500000
70
192
0
VERTEX
8
OBJECT__7
10
0
20
0
30
0
70
128
71
1
72
2
73
3
0
VERTEX
8
OBJECT__7
10
0
20
0
30
0
70
128
71
4
72
1
73
5
0
VERTEX
8
OBJECT__7
10
0
20
0
30
0
70
128
71
1
72
6
73
5
0
VERTEX
8
OBJECT__7
10
0
20
0
30
0
70
128
71
4
72
7
73
8
0
VERTEX
8
OBJECT__7
10
0
20
0
30
0
70
128
71
8
72
9
73
4
0
VERTEX
8
OBJECT__7
10
0
20
0
30
0
70
128
71
10
72
9
73
11
0
VERTEX
8
OBJECT__7
10
0
20
0
30
0
70
128
71
12
72
10
73
13
0
VERTEX
8
OBJECT__7
10
0
20
0
30
0
70
128
71
10
72
14
73
13
0
VERTEX
8
OBJECT__7
10
0
20
0
30
0
70
128
71
12
72
15
73
16
0
VERTEX
8
OBJECT__7
10
0
20
0
30
0
70
128
71
16
72
17
73
12
0
VERTEX
8
OBJECT__7
10
0
20
0
30
0
70
128
71
17
72
18
73
19
0
VERTEX
8
OBJECT__7
10
0
20
0
30
0
70
128
71
19
72
20
73
17
0
VERTEX
8
OBJECT__7
10
0
20
0
30
0
70
128
71
21
72
20
73
22
0
VERTEX
8
OBJECT__7
10
0
20
0
30
0
70
128
71
23
72
21
73
24
0
VERTEX
8
OBJECT__7
10
0
20
0
30
0
70
128
71
21
72
25
73
24
0
VERTEX
8
OBJECT__7
10
0
20
0
30
0
70
128
71
23
72
26
73
27
0
VERTEX
8
OBJECT__7
10
0
20
0
30
0
70
128
71
27
72
28
73
23
0
VERTEX
8
OBJECT__7
10
0
20
0
30
0
70
128
71
2
72
28
73
29
0
VERTEX
8
OBJECT__7
10
0
20
0
30
0
70
128
71
30
72
31
73
2
0
VERTEX
8
OBJECT__7
10
0
20
0
30
0
70
128
71
32
72
30
73
1
0
VERTEX
8
OBJECT__7
10
0
20
0
30
0
70
128
71
33
72
32
73
4
0
VERTEX
8
OBJECT__7
10
0
20
0
30
0
70
128
71
33
72
9
73
10
0
VERTEX
8
OBJECT__7
10
0
20
0
30
0
70
128
71
34
72
10
73
12
0
VERTEX
8
OBJECT__7
10
0
20
0
30
0
70
128
71
35
72
12
73
17
0
VERTEX
8
OBJECT__7
10
0
20
0
30
0
70
128
71
36
72
17
73
20
0
VERTEX
8
OBJECT__7
10
0
20
0
30
0
70
128
71
37
72
38
73
20
0
VERTEX
8
OBJECT__7
10
0
20
0
30
0
70
128
71
39
72
37
73
21
0
VERTEX
8
OBJECT__7
10
0
20
0
30
0
70
128
71
40
72
39
73
23
0
VERTEX
8
OBJECT__7
10
0
20
0
30
0
70
128
71
40
72
28
73
2
0
VERTEX
8
OBJECT__7
10
0
20
0
30
0
70
128
71
2
72
31
73
40
0
VERTEX
8
OBJECT__7
10
0
20
0
30
0
70
128
71
23
72
28
73
40
0
VERTEX
8
OBJECT__7
10
0
20
0
30
0
70
128
71
21
72
23
73
39
0
VERTEX
8
OBJECT__7
10
0
20
0
30
0
70
128
71
20
72
21
73
37
0
VERTEX
8
OBJECT__7
10
0
20
0
30
0
70
128
71
20
72
38
73
36
0
VERTEX
8
OBJECT__7
10
0
20
0
30
0
70
128
71
17
72
36
73
35
0
VERTEX
8
OBJECT__7
10
0
20
0
30
0
70
128
71
12
72
35
73
34
0
VERTEX
8
OBJECT__7
10
0
20
0
30
0
70
128
71
10
72
34
73
33
0
VERTEX
8
OBJECT__7
10
0
20
0
30
0
70
128
71
4
72
9
73
33
0
VERTEX
8
OBJECT__7
10
0
20
0
30
0
70
128
71
1
72
4
73
32
0
VERTEX
8
OBJECT__7
10
0
20
0
30
0
70
128
71
2
72
1
73
30
0
VERTEX
8
OBJECT__7
10
0
20
0
30
0
70
128
71
29
72
3
73
2
0
VERTEX
8
OBJECT__7
10
0
20
0
30
0
70
128
71
27
72
29
73
28
0
VERTEX
8
OBJECT__7
10
0
20
0
30
0
70
128
71
24
72
26
73
23
0
VERTEX
8
OBJECT__7
10
0
20
0
30
0
70
128
71
22
72
25
73
21
0
VERTEX
8
OBJECT__7
10
0
20
0
30
0
70
128
71
19
72
22
73
20
0
VERTEX
8
OBJECT__7
10
0
20
0
30
0
70
128
71
16
72
18
73
17
0
VERTEX
8
OBJECT__7
10
0
20
0
30
0
70
128
71
13
72
15
73
12
0
VERTEX
8
OBJECT__7
10
0
20
0
30
0
70
128
71
11
72
14
73
10
0
VERTEX
8
OBJECT__7
10
0
20
0
30
0
70
128
71
8
72
11
73
9
0
VERTEX
8
OBJECT__7
10
0
20
0
30
0
70
128
71
5
72
7
73
4
0
VERTEX
8
OBJECT__7
10
0
20
0
30
0
70
128
71
3
72
6
73
1
0
SEQEND
8
OBJECT__7
0
POLYLINE
8
OBJECT__8
66
1
70
64
71
26
72
26
62
253
0
VERTEX
8
OBJECT__8
10
48.844002
20
-11.057000
30
45.500000
70
192
0
VERTEX
8
OBJECT__8
10
42.535999
20
-4.173000
30
45.500000
70
192
0
VERTEX
8
OBJECT__8
10
43.685001
20
-6.514000
30
41.500000
70
192
0
VERTEX
8
OBJECT__8
10
42.980999
20
-4.046000
30
41.500000
70
192
0
VERTEX
8
OBJECT__8
10
42.943001
20
5.156000
30
45.500000
70
192
0
VERTEX
8
OBJECT__8
10
43.297001
20
5.049000
30
41.500000
70
192
0
VERTEX
8
OBJECT__8
10
41.799999
20
0.097000
30
41.500000
70
192
0
VERTEX
8
OBJECT__8
10
49.827000
20
11.464000
30
45.500000
70
192
0
VERTEX
8
OBJECT__8
10
49.020000
20
11.137000
30
41.500000
70
192
0
VERTEX
8
OBJECT__8
10
43.789001
20
6.677000
30
41.500000
70
192
0
VERTEX
8
OBJECT__8
10
49.855999
20
11.251000
30
41.500000
70
192
0
VERTEX
8
OBJECT__8
10
59.155998
20
11.057000
30
45.500000
70
192
0
VERTEX
8
OBJECT__8
10
55.832001
20
12.062000
30
41.500000
70
192
0
VERTEX
8
OBJECT__8
10
58.946999
20
10.609000
30
41.500000
70
192
0
VERTEX
8
OBJECT__8
10
65.463997
20
4.173000
30
45.500000
70
192
0
VERTEX
8
OBJECT__8
10
65.281998
20
4.058000
30
41.500000
70
192
0
VERTEX
8
OBJECT__8
10
62.062000
20
9.156000
30
41.500000
70
192
0
VERTEX
8
OBJECT__8
10
65.056999
20
-5.156000
30
45.500000
70
192
0
VERTEX
8
OBJECT__8
10
65.678001
20
-3.530000
30
41.500000
70
192
0
VERTEX
8
OBJECT__8
10
65.733002
20
3.344000
30
41.500000
70
192
0
VERTEX
8
OBJECT__8
10
64.747002
20
-4.953000
30
41.500000
70
192
0
VERTEX
8
OBJECT__8
10
58.173000
20
-11.464000
30
45.500000
70
192
0
VERTEX
8
OBJECT__8
10
61.916000
20
-9.283000
30
41.500000
70
192
0
VERTEX
8
OBJECT__8
10
57.984001
20
-11.041000
30
41.500000
70
192
0
VERTEX
8
OBJECT__8
10
48.844002
20
-11.057000
30
41.500000
70
192
0
VERTEX
8
OBJECT__8
10
55.639999
20
-12.089000
30
41.500000
70
192
0
VERTEX
8
OBJECT__8
10
0
20
0
30
0
70
128
71
1
72
2
73
3
0
VERTEX
8
OBJECT__8
10
0
20
0
30
0
70
128
71
2
72
4
73
3
0
VERTEX
8
OBJECT__8
10
0
20
0
30
0
70
128
71
5
72
6
73
7
0
VERTEX
8
OBJECT__8
10
0
20
0
30
0
70
128
71
7
72
2
73
5
0
VERTEX
8
OBJECT__8
10
0
20
0
30
0
70
128
71
8
72
9
73
10
0
VERTEX
8
OBJECT__8
10
0
20
0
30
0
70
128
71
10
72
5
73
8
0
VERTEX
8
OBJECT__8
10
0
20
0
30
0
70
128
71
8
72
11
73
9
0
VERTEX
8
OBJECT__8
10
0
20
0
30
0
70
128
71
8
72
12
73
13
0
VERTEX
8
OBJECT__8
10
0
20
0
30
0
70
128
71
12
72
14
73
13
0
VERTEX
8
OBJECT__8
10
0
20
0
30
0
70
128
71
15
72
16
73
17
0
VERTEX
8
OBJECT__8
10
0
20
0
30
0
70
128
71
17
72
12
73
15
0
VERTEX
8
OBJECT__8
10
0
20
0
30
0
70
128
71
15
72
18
73
19
0
VERTEX
8
OBJECT__8
10
0
20
0
30
0
70
128
71
19
72
20
73
15
0
VERTEX
8
OBJECT__8
10
0
20
0
30
0
70
128
71
18
72
21
73
19
0
VERTEX
8
OBJECT__8
10
0
20
0
30
0
70
128
71
18
72
22
73
23
0
VERTEX
8
OBJECT__8
10
0
20
0
30
0
70
128
71
22
72
24
73
23
0
VERTEX
8
OBJECT__8
10
0
20
0
30
0
70
128
71
1
72
25
73
26
0
VERTEX
8
OBJECT__8
10
0
20
0
30
0
70
128
71
26
72
22
73
1
0
VERTEX
8
OBJECT__8
10
0
20
0
30
0
70
128
71
26
72
24
73
22
0
VERTEX
8
OBJECT__8
10
0
20
0
30
0
70
128
71
23
72
21
73
18
0
VERTEX
8
OBJECT__8
10
0
20
0
30
0
70
128
71
20
72
16
73
15
0
VERTEX
8
OBJECT__8
10
0
20
0
30
0
70
128
71
17
72
14
73
12
0
VERTEX
8
OBJECT__8
10
0
20
0
30
0
70
128
71
13
72
11
73
8
0
VERTEX
8
OBJECT__8
10
0
20
0
30
0
70
128
71
10
72
6
73
5
0
VERTEX
8
OBJECT__8
10
0
20
0
30
0
70
128
71
7
72
4
73
2
0
VERTEX
8
OBJECT__8
10
0
20
0
30
0
70
128
71
3
72
25
73
1
0
SEQEND
8
OBJECT__8
0
POLYLINE
8
OBJECT__9
66
1
70
64
71
10
72
8
62
253
0
VERTEX
8
OBJECT__9
10
61.106998
20
-21.874001
30
-223.395004
70
192
0
VERTEX
8
OBJECT__9
10
72.607002
20
13.519000
30
-223.395004
70
192
0
VERTEX
8
OBJECT__9
10
77.000000
20
0.000000
30
-223.395004
70
192
0
VERTEX
8
OBJECT__9
10
46.893002
20
21.874001
30
-223.395004
70
192
0
VERTEX
8
OBJECT__9
10
35.393002
20
-13.519000
30
-223.395004
70
192
0
VERTEX
8
OBJECT__9
10
31.000000
20
0.000000
30
-223.395004
70
192
0
VERTEX
8
OBJECT__9
10
46.893002
20
-21.874001
30
-223.395004
70
192
0
VERTEX
8
OBJECT__9
10
61.106998
20
21.874001
30
-223.395004
70
192
0
VERTEX
8
OBJECT__9
10
72.607002
20
-13.519000
30
-223.395004
70
192
0
VERTEX
8
OBJECT__9
10
35.393002
20
13.519000
30
-223.395004
70
192
0
VERTEX
8
OBJECT__9
10
0
20
0
30
0
70
128
71
1
72
2
73
3
0
VERTEX
8
OBJECT__9
10
0
20
0
30
0
70
128
71
4
72
5
73
6
0
VERTEX
8
OBJECT__9
10
0
20
0
30
0
70
128
71
4
72
1
73
7
0
VERTEX
8
OBJECT__9
10
0
20
0
30
0
70
128
71
1
72
8
73
2
0
VERTEX
8
OBJECT__9
10
0
20
0
30
0
70
128
71
7
72
5
73
4
0
VERTEX
8
OBJECT__9
10
0
20
0
30
0
70
128
71
1
72
4
73
8
0
VERTEX
8
OBJECT__9
10
0
20
0
30
0
70
128
71
3
72
9
73
1
0
VERTEX
8
OBJECT__9
10
0
20
0
30
0
70
128
71
6
72
10
73
4
0
SEQEND
8
OBJECT__9
0
POLYLINE
8
OBJECT__10
66
1
70
64
71
20
72
20
62
253
0
VERTEX
8
OBJECT__10
10
72.607002
20
13.519000
30
-223.395004
70
192
0
VERTEX
8
OBJECT__10
10
72.607002
20
13.519000
30
-220.395004
70
192
0
VERTEX
8
OBJECT__10
10
77.000000
20
0.000000
30
-220.395004
70
192
0
VERTEX
8
OBJECT__10
10
61.106998
20
21.874001
30
-223.395004
70
192
0
VERTEX
8
OBJECT__10
10
61.106998
20
21.874001
30
-220.395004
70
192
0
VERTEX
8
OBJECT__10
10
46.893002
20
21.874001
30
-223.395004
70
192
0
VERTEX
8
OBJECT__10
10
46.893002
20
21.874001
30
-220.395004
70
192
0
VERTEX
8
OBJECT__10
10
35.393002
20
13.519000
30
-223.395004
70
192
0
VERTEX
8
OBJECT__10
10
35.393002
20
13.519000
30
-220.395004
70
192
0
VERTEX
8
OBJECT__10
10
31.000000
20
0.000000
30
-223.395004
70
192
0
VERTEX
8
OBJECT__10
10
31.000000
20
0.000000
30
-220.395004
70
192
0
VERTEX
8
OBJECT__10
10
35.393002
20
-13.519000
30
-223.395004
70
192
0
VERTEX
8
OBJECT__10
10
35.393002
20
-13.519000
30
-220.395004
70
192
0
VERTEX
8
OBJECT__10
10
46.893002
20
-21.874001
30
-223.395004
70
192
0
VERTEX
8
OBJECT__10
10
46.893002
20
-21.874001
30
-220.395004
70
192
0
VERTEX
8
OBJECT__10
10
61.106998
20
-21.874001
30
-223.395004
70
192
0
VERTEX
8
OBJECT__10
10
61.106998
20
-21.874001
30
-220.395004
70
192
0
VERTEX
8
OBJECT__10
10
72.607002
20
-13.519000
30
-223.395004
70
192
0
VERTEX
8
OBJECT__10
10
72.607002
20
-13.519000
30
-220.395004
70
192
0
VERTEX
8
OBJECT__10
10
77.000000
20
0.000000
30
-223.395004
70
192
0
VERTEX
8
OBJECT__10
10
0
20
0
30
0
70
128
71
1
72
2
73
3
0
VERTEX
8
OBJECT__10
10
0
20
0
30
0
70
128
71
4
72
5
73
2
0
VERTEX
8
OBJECT__10
10
0
20
0
30
0
70
128
71
6
72
7
73
5
0
VERTEX
8
OBJECT__10
10
0
20
0
30
0
70
128
71
8
72
9
73
7
0
VERTEX
8
OBJECT__10
10
0
20
0
30
0
70
128
71
10
72
11
73
9
0
VERTEX
8
OBJECT__10
10
0
20
0
30
0
70
128
71
12
72
13
73
11
0
VERTEX
8
OBJECT__10
10
0
20
0
30
0
70
128
71
14
72
15
73
13
0
VERTEX
8
OBJECT__10
10
0
20
0
30
0
70
128
71
16
72
17
73
15
0
VERTEX
8
OBJECT__10
10
0
20
0
30
0
70
128
71
18
72
19
73
17
0
VERTEX
8
OBJECT__10
10
0
20
0
30
0
70
128
71
20
72
3
73
19
0
VERTEX
8
OBJECT__10
10
0
20
0
30
0
70
128
71
19
72
18
73
20
0
VERTEX
8
OBJECT__10
10
0
20
0
30
0
70
128
71
17
72
16
73
18
0
VERTEX
8
OBJECT__10
10
0
20
0
30
0
70
128
71
15
72
14
73
16
0
VERTEX
8
OBJECT__10
10
0
20
0
30
0
70
128
71
13
72
12
73
14
0
VERTEX
8
OBJECT__10
10
0
20
0
30
0
70
128
71
11
72
10
73
12
0
VERTEX
8
OBJECT__10
10
0
20
0
30
0
70
128
71
9
72
8
73
10
0
VERTEX
8
OBJECT__10
10
0
20
0
30
0
70
128
71
7
72
6
73
8
0
VERTEX
8
OBJECT__10
10
0
20
0
30
0
70
128
71
5
72
4
73
6
0
VERTEX
8
OBJECT__10
10
0
20
0
30
0
70
128
71
2
72
1
73
4
0
VERTEX
8
OBJECT__10
10
0
20
0
30
0
70
128
71
3
72
20
73
1
0
SEQEND
8
OBJECT__10
0
POLYLINE
8
OBJECT__12
66
1
70
64
71
26
72
26
62
253
0
VERTEX
8
OBJECT__12
10
31.000000
20
0.000000
30
-220.395004
70
192
0
VERTEX
8
OBJECT__12
10
44.750000
20
0.000000
30
-218.395004
70
192
0
VERTEX
8
OBJECT__12
10
46.016998
20
3.899000
30
-218.395004
70
192
0
VERTEX
8
OBJECT__12
10
35.393002
20
13.519000
30
-220.395004
70
192
0
VERTEX
8
OBJECT__12
10
46.516998
20
5.437000
30
-218.395004
70
192
0
VERTEX
8
OBJECT__12
10
51.141998
20
8.797000
30
-218.395004
70
192
0
VERTEX
8
OBJECT__12
10
61.106998
20
21.874001
30
-220.395004
70
192
0
VERTEX
8
OBJECT__12
10
46.893002
20
21.874001
30
-220.395004
70
192
0
VERTEX
8
OBJECT__12
10
51.942001
20
8.797000
30
-218.395004
70
192
0
VERTEX
8
OBJECT__12
10
56.858002
20
8.797000
30
-218.395004
70
192
0
VERTEX
8
OBJECT__12
10
59.507000
20
6.873000
30
-218.395004
70
192
0
VERTEX
8
OBJECT__12
10
72.607002
20
13.519000
30
-220.395004
70
192
0
VERTEX
8
OBJECT__12
10
61.483002
20
5.437000
30
-218.395004
70
192
0
VERTEX
8
OBJECT__12
10
63.250000
20
0.000000
30
-218.395004
70
192
0
VERTEX
8
OBJECT__12
10
72.607002
20
-13.519000
30
-220.395004
70
192
0
VERTEX
8
OBJECT__12
10
77.000000
20
0.000000
30
-220.395004
70
192
0
VERTEX
8
OBJECT__12
10
61.106998
20
-21.874001
30
-220.395004
70
192
0
VERTEX
8
OBJECT__12
10
59.507000
20
-6.873000
30
-218.395004
70
192
0
VERTEX
8
OBJECT__12
10
61.483002
20
-5.437000
30
-218.395004
70
192
0
VERTEX
8
OBJECT__12
10
56.858002
20
-8.797000
30
-218.395004
70
192
0
VERTEX
8
OBJECT__12
10
51.942001
20
-8.797000
30
-218.395004
70
192
0
VERTEX
8
OBJECT__12
10
46.893002
20
-21.874001
30
-220.395004
70
192
0
VERTEX
8
OBJECT__12
10
35.393002
20
-13.519000
30
-220.395004
70
192
0
VERTEX
8
OBJECT__12
10
51.141998
20
-8.797000
30
-218.395004
70
192
0
VERTEX
8
OBJECT__12
10
46.016998
20
-3.899000
30
-218.395004
70
192
0
VERTEX
8
OBJECT__12
10
46.516998
20
-5.437000
30
-218.395004
70
192
0
VERTEX
8
OBJECT__12
10
0
20
0
30
0
70
128
71
1
72
2
73
3
0
VERTEX
8
OBJECT__12
10
0
20
0
30
0
70
128
71
3
72
4
73
1
0
VERTEX
8
OBJECT__12
10
0
20
0
30
0
70
128
71
4
72
5
73
6
0
VERTEX
8
OBJECT__12
10
0
20
0
30
0
70
128
71
7
72
8
73
9
0
VERTEX
8
OBJECT__12
10
0
20
0
30
0
70
128
71
8
72
6
73
9
0
VERTEX
8
OBJECT__12
10
0
20
0
30
0
70
128
71
7
72
10
73
11
0
VERTEX
8
OBJECT__12
10
0
20
0
30
0
70
128
71
11
72
12
73
7
0
VERTEX
8
OBJECT__12
10
0
20
0
30
0
70
128
71
12
72
13
73
14
0
VERTEX
8
OBJECT__12
10
0
20
0
30
0
70
128
71
15
72
16
73
14
0
VERTEX
8
OBJECT__12
10
0
20
0
30
0
70
128
71
17
72
15
73
18
0
VERTEX
8
OBJECT__12
10
0
20
0
30
0
70
128
71
15
72
19
73
18
0
VERTEX
8
OBJECT__12
10
0
20
0
30
0
70
128
71
17
72
20
73
21
0
VERTEX
8
OBJECT__12
10
0
20
0
30
0
70
128
71
21
72
22
73
17
0
VERTEX
8
OBJECT__12
10
0
20
0
30
0
70
128
71
23
72
22
73
24
0
VERTEX
8
OBJECT__12
10
0
20
0
30
0
70
128
71
1
72
23
73
25
0
VERTEX
8
OBJECT__12
10
0
20
0
30
0
70
128
71
23
72
26
73
25
0
VERTEX
8
OBJECT__12
10
0
20
0
30
0
70
128
71
25
72
2
73
1
0
VERTEX
8
OBJECT__12
10
0
20
0
30
0
70
128
71
24
72
26
73
23
0
VERTEX
8
OBJECT__12
10
0
20
0
30
0
70
128
71
21
72
24
73
22
0
VERTEX
8
OBJECT__12
10
0
20
0
30
0
70
128
71
18
72
20
73
17
0
VERTEX
8
OBJECT__12
10
0
20
0
30
0
70
128
71
14
72
19
73
15
0
VERTEX
8
OBJECT__12
10
0
20
0
30
0
70
128
71
14
72
16
73
12
0
VERTEX
8
OBJECT__12
10
0
20
0
30
0
70
128
71
11
72
13
73
12
0
VERTEX
8
OBJECT__12
10
0
20
0
30
0
70
128
71
9
72
10
73
7
0
VERTEX
8
OBJECT__12
10
0
20
0
30
0
70
128
71
6
72
8
73
4
0
VERTEX
8
OBJECT__12
10
0
20
0
30
0
70
128
71
3
72
5
73
4
0
SEQEND
8
OBJECT__12
0
POLYLINE
8
OBJECT__13
66
1
70
64
71
23
72
23
62
253
0
VERTEX
8
OBJECT__13
10
63.250000
20
0.000000
30
-221.061996
70
192
0
VERTEX
8
OBJECT__13
10
59.766998
20
-7.232000
30
-221.061996
70
192
0
VERTEX
8
OBJECT__13
10
61.483002
20
-5.437000
30
-218.395004
70
192
0
VERTEX
8
OBJECT__13
10
59.507000
20
-6.873000
30
-218.395004
70
192
0
VERTEX
8
OBJECT__13
10
51.942001
20
-9.018000
30
-221.061996
70
192
0
VERTEX
8
OBJECT__13
10
51.942001
20
-8.797000
30
-218.395004
70
192
0
VERTEX
8
OBJECT__13
10
56.858002
20
-8.797000
30
-218.395004
70
192
0
VERTEX
8
OBJECT__13
10
45.666000
20
-4.013000
30
-221.061996
70
192
0
VERTEX
8
OBJECT__13
10
46.516998
20
-5.437000
30
-218.395004
70
192
0
VERTEX
8
OBJECT__13
10
51.141998
20
-8.797000
30
-218.395004
70
192
0
VERTEX
8
OBJECT__13
10
46.016998
20
-3.899000
30
-218.395004
70
192
0
VERTEX
8
OBJECT__13
10
45.666000
20
4.013000
30
-221.061996
70
192
0
VERTEX
8
OBJECT__13
10
46.016998
20
3.899000
30
-218.395004
70
192
0
VERTEX
8
OBJECT__13
10
44.750000
20
0.000000
30
-218.395004
70
192
0
VERTEX
8
OBJECT__13
10
51.942001
20
9.018000
30
-221.061996
70
192
0
VERTEX
8
OBJECT__13
10
51.141998
20
8.797000
30
-218.395004
70
192
0
VERTEX
8
OBJECT__13
10
46.516998
20
5.437000
30
-218.395004
70
192
0
VERTEX
8
OBJECT__13
10
51.942001
20
8.797000
30
-218.395004
70
192
0
VERTEX
8
OBJECT__13
10
59.766998
20
7.232000
30
-221.061996
70
192
0
VERTEX
8
OBJECT__13
10
56.858002
20
8.797000
30
-218.395004
70
192
0
VERTEX
8
OBJECT__13
10
59.507000
20
6.873000
30
-218.395004
70
192
0
VERTEX
8
OBJECT__13
10
63.250000
20
0.000000
30
-218.395004
70
192
0
VERTEX
8
OBJECT__13
10
61.483002
20
5.437000
30
-218.395004
70
192
0
VERTEX
8
OBJECT__13
10
0
20
0
30
0
70
128
71
1
72
2
73
3
0
VERTEX
8
OBJECT__13
10
0
20
0
30
0
70
128
71
2
72
4
73
3
0
VERTEX
8
OBJECT__13
10
0
20
0
30
0
70
128
71
5
72
6
73
7
0
VERTEX
8
OBJECT__13
10
0
20
0
30
0
70
128
71
7
72
2
73
5
0
VERTEX
8
OBJECT__13
10
0
20
0
30
0
70
128
71
5
72
8
73
9
0
VERTEX
8
OBJECT__13
10
0
20
0
30
0
70
128
71
9
72
10
73
5
0
VERTEX
8
OBJECT__13
10
0
20
0
30
0
70
128
71
8
72
11
73
9
0
VERTEX
8
OBJECT__13
10
0
20
0
30
0
70
128
71
12
72
13
73
14
0
VERTEX
8
OBJECT__13
10
0
20
0
30
0
70
128
71
14
72
8
73
12
0
VERTEX
8
OBJECT__13
10
0
20
0
30
0
70
128
71
15
72
16
73
17
0
VERTEX
8
OBJECT__13
10
0
20
0
30
0
70
128
71
17
72
12
73
15
0
VERTEX
8
OBJECT__13
10
0
20
0
30
0
70
128
71
15
72
18
73
16
0
VERTEX
8
OBJECT__13
10
0
20
0
30
0
70
128
71
15
72
19
73
20
0
VERTEX
8
OBJECT__13
10
0
20
0
30
0
70
128
71
19
72
21
73
20
0
VERTEX
8
OBJECT__13
10
0
20
0
30
0
70
128
71
1
72
22
73
23
0
VERTEX
8
OBJECT__13
10
0
20
0
30
0
70
128
71
23
72
19
73
1
0
VERTEX
8
OBJECT__13
10
0
20
0
30
0
70
128
71
23
72
21
73
19
0
VERTEX
8
OBJECT__13
10
0
20
0
30
0
70
128
71
20
72
18
73
15
0
VERTEX
8
OBJECT__13
10
0
20
0
30
0
70
128
71
17
72
13
73
12
0
VERTEX
8
OBJECT__13
10
0
20
0
30
0
70
128
71
14
72
11
73
8
0
VERTEX
8
OBJECT__13
10
0
20
0
30
0
70
128
71
10
72
6
73
5
0
VERTEX
8
OBJECT__13
10
0
20
0
30
0
70
128
71
7
72
4
73
2
0
VERTEX
8
OBJECT__13
10
0
20
0
30
0
70
128
71
3
72
22
73
1
0
SEQEND
8
OBJECT__13
0
POLYLINE
8
OBJECT__14
66
1
70
64
71
7
72
5
62
253
0
VERTEX
8
OBJECT__14
10
45.666000
20
-4.013000
30
-221.061996
70
192
0
VERTEX
8
OBJECT__14
10
59.766998
20
7.232000
30
-221.061996
70
192
0
VERTEX
8
OBJECT__14
10
51.942001
20
9.018000
30
-221.061996
70
192
0
VERTEX
8
OBJECT__14
10
63.250000
20
0.000000
30
-221.061996
70
192
0
VERTEX
8
OBJECT__14
10
51.942001
20
-9.018000
30
-221.061996
70
192
0
VERTEX
8
OBJECT__14
10
45.666000
20
4.013000
30
-221.061996
70
192
0
VERTEX
8
OBJECT__14
10
59.766998
20
-7.232000
30
-221.061996
70
192
0
VERTEX
8
OBJECT__14
10
0
20
0
30
0
70
128
71
1
72
2
73
3
0
VERTEX
8
OBJECT__14
10
0
20
0
30
0
70
128
71
4
72
1
73
5
0
VERTEX
8
OBJECT__14
10
0
20
0
30
0
70
128
71
1
72
4
73
2
0
VERTEX
8
OBJECT__14
10
0
20
0
30
0
70
128
71
3
72
6
73
1
0
VERTEX
8
OBJECT__14
10
0
20
0
30
0
70
128
71
5
72
7
73
4
0
SEQEND
8
OBJECT__14
0
POLYLINE
8
OBJECT__15
66
1
70
64
71
28
72
28
62
253
0
VERTEX
8
OBJECT__15
10
47.116001
20
12.420000
30
42.500000
70
192
0
VERTEX
8
OBJECT__15
10
44.097000
20
12.630000
30
42.500000
70
192
0
VERTEX
8
OBJECT__15
10
44.348999
20
13.149000
30
42.500000
70
192
0
VERTEX
8
OBJECT__15
10
41.130001
20
6.001000
30
42.500000
70
192
0
VERTEX
8
OBJECT__15
10
39.248001
20
6.323000
30
42.500000
70
192
0
VERTEX
8
OBJECT__15
10
52.921001
20
16.014000
30
42.500000
70
192
0
VERTEX
8
OBJECT__15
10
55.730999
20
14.094000
30
42.500000
70
192
0
VERTEX
8
OBJECT__15
10
60.783001
20
14.546000
30
42.500000
70
192
0
VERTEX
8
OBJECT__15
10
66.959999
20
9.467000
30
42.500000
70
192
0
VERTEX
8
OBJECT__15
10
63.683998
20
10.385000
30
42.500000
70
192
0
VERTEX
8
OBJECT__15
10
44.316002
20
-10.385000
30
42.500000
70
192
0
VERTEX
8
OBJECT__15
10
47.755001
20
-14.785000
30
42.500000
70
192
0
VERTEX
8
OBJECT__15
10
46.688000
20
-14.287000
30
42.500000
70
192
0
VERTEX
8
OBJECT__15
10
45.327999
20
13.505000
30
42.500000
70
192
0
VERTEX
8
OBJECT__15
10
66.870003
20
-6.001000
30
42.500000
70
192
0
VERTEX
8
OBJECT__15
10
67.939003
20
2.709000
30
42.500000
70
192
0
VERTEX
8
OBJECT__15
10
70.041000
20
0.532000
30
42.500000
70
192
0
VERTEX
8
OBJECT__15
10
69.919998
20
2.038000
30
42.500000
70
192
0
VERTEX
8
OBJECT__15
10
70.276001
20
1.059000
30
42.500000
70
192
0
VERTEX
8
OBJECT__15
10
47.101002
20
-14.795000
30
42.500000
70
192
0
VERTEX
8
OBJECT__15
10
52.269001
20
-14.094000
30
42.500000
70
192
0
VERTEX
8
OBJECT__15
10
40.061001
20
-2.709000
30
42.500000
70
192
0
VERTEX
8
OBJECT__15
10
38.023998
20
-1.538000
30
42.500000
70
192
0
VERTEX
8
OBJECT__15
10
68.325996
20
-7.236000
30
42.500000
70
192
0
VERTEX
8
OBJECT__15
10
63.091000
20
-13.227000
30
42.500000
70
192
0
VERTEX
8
OBJECT__15
10
55.623001
20
-15.968000
30
42.500000
70
192
0
VERTEX
8
OBJECT__15
10
60.883999
20
-12.420000
30
42.500000
70
192
0
VERTEX
8
OBJECT__15
10
40.724998
20
-9.021000
30
42.500000
70
192
0
VERTEX
8
OBJECT__15
10
0
20
0
30
0
70
128
71
1
72
2
73
3
0
VERTEX
8
OBJECT__15
10
0
20
0
30
0
70
128
71
4
72
5
73
2
0
VERTEX
8
OBJECT__15
10
0
20
0
30
0
70
128
71
2
72
1
73
4
0
VERTEX
8
OBJECT__15
10
0
20
0
30
0
70
128
71
6
72
7
73
1
0
VERTEX
8
OBJECT__15
10
0
20
0
30
0
70
128
71
8
72
9
73
10
0
VERTEX
8
OBJECT__15
10
0
20
0
30
0
70
128
71
11
72
12
73
13
0
VERTEX
8
OBJECT__15
10
0
20
0
30
0
70
128
71
1
72
14
73
6
0
VERTEX
8
OBJECT__15
10
0
20
0
30
0
70
128
71
10
72
7
73
8
0
VERTEX
8
OBJECT__15
10
0
20
0
30
0
70
128
71
15
72
16
73
17
0
VERTEX
8
OBJECT__15
10
0
20
0
30
0
70
128
71
16
72
18
73
19
0
VERTEX
8
OBJECT__15
10
0
20
0
30
0
70
128
71
12
72
20
73
13
0
VERTEX
8
OBJECT__15
10
0
20
0
30
0
70
128
71
12
72
11
73
21
0
VERTEX
8
OBJECT__15
10
0
20
0
30
0
70
128
71
4
72
22
73
23
0
VERTEX
8
OBJECT__15
10
0
20
0
30
0
70
128
71
7
72
6
73
8
0
VERTEX
8
OBJECT__15
10
0
20
0
30
0
70
128
71
9
72
18
73
16
0
VERTEX
8
OBJECT__15
10
0
20
0
30
0
70
128
71
19
72
17
73
16
0
VERTEX
8
OBJECT__15
10
0
20
0
30
0
70
128
71
15
72
24
73
25
0
VERTEX
8
OBJECT__15
10
0
20
0
30
0
70
128
71
26
72
21
73
27
0
VERTEX
8
OBJECT__15
10
0
20
0
30
0
70
128
71
21
72
26
73
12
0
VERTEX
8
OBJECT__15
10
0
20
0
30
0
70
128
71
28
72
23
73
22
0
VERTEX
8
OBJECT__15
10
0
20
0
30
0
70
128
71
3
72
14
73
1
0
VERTEX
8
OBJECT__15
10
0
20
0
30
0
70
128
71
17
72
24
73
15
0
VERTEX
8
OBJECT__15
10
0
20
0
30
0
70
128
71
27
72
25
73
26
0
VERTEX
8
OBJECT__15
10
0
20
0
30
0
70
128
71
22
72
11
73
28
0
VERTEX
8
OBJECT__15
10
0
20
0
30
0
70
128
71
16
72
10
73
9
0
VERTEX
8
OBJECT__15
10
0
20
0
30
0
70
128
71
13
72
28
73
11
0
VERTEX
8
OBJECT__15
10
0
20
0
30
0
70
128
71
25
72
27
73
15
0
VERTEX
8
OBJECT__15
10
0
20
0
30
0
70
128
71
23
72
5
73
4
0
SEQEND
8
OBJECT__15
0
POLYLINE
8
OBJECT__17
66
1
70
64
71
14
72
14
62
253
0
VERTEX
8
OBJECT__17
10
45.000000
20
0.000000
30
-221.576996
70
192
0
VERTEX
8
OBJECT__17
10
48.389000
20
-7.036000
30
-221.576996
70
192
0
VERTEX
8
OBJECT__17
10
48.389000
20
-7.036000
30
-40.000000
70
192
0
VERTEX
8
OBJECT__17
10
45.000000
20
0.000000
30
-40.000000
70
192
0
VERTEX
8
OBJECT__17
10
56.002998
20
-8.774000
30
-221.576996
70
192
0
VERTEX
8
OBJECT__17
10
56.002998
20
-8.774000
30
-40.000000
70
192
0
VERTEX
8
OBJECT__17
10
62.109001
20
-3.905000
30
-221.576996
70
192
0
VERTEX
8
OBJECT__17
10
62.109001
20
-3.905000
30
-40.000000
70
192
0
VERTEX
8
OBJECT__17
10
62.109001
20
3.905000
30
-221.576996
70
192
0
VERTEX
8
OBJECT__17
10
62.109001
20
3.905000
30
-40.000000
70
192
0
VERTEX
8
OBJECT__17
10
56.002998
20
8.774000
30
-221.576996
70
192
0
VERTEX
8
OBJECT__17
10
56.002998
20
8.774000
30
-40.000000
70
192
0
VERTEX
8
OBJECT__17
10
48.389000
20
7.036000
30
-221.576996
70
192
0
VERTEX
8
OBJECT__17
10
48.389000
20
7.036000
30
-40.000000
70
192
0
VERTEX
8
OBJECT__17
10
0
20
0
30
0
70
128
71
1
72
2
73
3
0
VERTEX
8
OBJECT__17
10
0
20
0
30
0
70
128
71
1
72
3
73
4
0
VERTEX
8
OBJECT__17
10
0
20
0
30
0
70
128
71
2
72
5
73
6
0
VERTEX
8
OBJECT__17
10
0
20
0
30
0
70
128
71
2
72
6
73
3
0
VERTEX
8
OBJECT__17
10
0
20
0
30
0
70
128
71
5
72
7
73
8
0
VERTEX
8
OBJECT__17
10
0
20
0
30
0
70
128
71
5
72
8
73
6
0
VERTEX
8
OBJECT__17
10
0
20
0
30
0
70
128
71
7
72
9
73
10
0
VERTEX
8
OBJECT__17
10
0
20
0
30
0
70
128
71
7
72
10
73
8
0
VERTEX
8
OBJECT__17
10
0
20
0
30
0
70
128
71
9
72
11
73
12
0
VERTEX
8
OBJECT__17
10
0
20
0
30
0
70
128
71
9
72
12
73
10
0
VERTEX
8
OBJECT__17
10
0
20
0
30
0
70
128
71
11
72
13
73
14
0
VERTEX
8
OBJECT__17
10
0
20
0
30
0
70
128
71
11
72
14
73
12
0
VERTEX
8
OBJECT__17
10
0
20
0
30
0
70
128
71
13
72
1
73
4
0
VERTEX
8
OBJECT__17
10
0
20
0
30
0
70
128
71
13
72
4
73
14
0
SEQEND
8
OBJECT__17
0
POLYLINE
8
OBJECT__19
66
1
70
64
71
7
72
5
62
253
0
VERTEX
8
OBJECT__19
10
23.441999
20
8.999000
30
18.107000
70
192
0
VERTEX
8
OBJECT__19
10
31.250999
20
-7.217000
30
18.107000
70
192
0
VERTEX
8
OBJECT__19
10
34.726002
20
0.000000
30
18.107000
70
192
0
VERTEX
8
OBJECT__19
10
17.179001
20
4.005000
30
18.107000
70
192
0
VERTEX
8
OBJECT__19
10
17.179001
20
-4.005000
30
18.107000
70
192
0
VERTEX
8
OBJECT__19
10
23.441999
20
-8.999000
30
18.107000
70
192
0
VERTEX
8
OBJECT__19
10
31.250999
20
7.217000
30
18.107000
70
192
0
VERTEX
8
OBJECT__19
10
0
20
0
30
0
70
128
71
1
72
2
73
3
0
VERTEX
8
OBJECT__19
10
0
20
0
30
0
70
128
71
4
72
5
73
6
0
VERTEX
8
OBJECT__19
10
0
20
0
30
0
70
128
71
3
72
7
73
1
0
VERTEX
8
OBJECT__19
10
0
20
0
30
0
70
128
71
1
72
4
73
2
0
VERTEX
8
OBJECT__19
10
0
20
0
30
0
70
128
71
6
72
2
73
4
0
SEQEND
8
OBJECT__19
0
POLYLINE
8
OBJECT__20
66
1
70
64
71
14
72
14
62
253
0
VERTEX
8
OBJECT__20
10
31.250999
20
-7.217000
30
18.107000
70
192
0
VERTEX
8
OBJECT__20
10
31.250999
20
-7.217000
30
19.181000
70
192
0
VERTEX
8
OBJECT__20
10
34.726002
20
0.000000
30
19.181000
70
192
0
VERTEX
8
OBJECT__20
10
23.441999
20
-8.999000
30
18.107000
70
192
0
VERTEX
8
OBJECT__20
10
23.441999
20
-8.999000
30
19.181000
70
192
0
VERTEX
8
OBJECT__20
10
17.179001
20
-4.005000
30
18.107000
70
192
0
VERTEX
8
OBJECT__20
10
17.179001
20
-4.005000
30
19.181000
70
192
0
VERTEX
8
OBJECT__20
10
17.179001
20
4.005000
30
18.107000
70
192
0
VERTEX
8
OBJECT__20
10
17.179001
20
4.005000
30
19.181000
70
192
0
VERTEX
8
OBJECT__20
10
23.441999
20
8.999000
30
18.107000
70
192
0
VERTEX
8
OBJECT__20
10
23.441999
20
8.999000
30
19.181000
70
192
0
VERTEX
8
OBJECT__20
10
31.250999
20
7.217000
30
18.107000
70
192
0
VERTEX
8
OBJECT__20
10
31.250999
20
7.217000
30
19.181000
70
192
0
VERTEX
8
OBJECT__20
10
34.726002
20
0.000000
30
18.107000
70
192
0
VERTEX
8
OBJECT__20
10
0
20
0
30
0
70
128
71
1
72
2
73
3
0
VERTEX
8
OBJECT__20
10
0
20
0
30
0
70
128
71
4
72
5
73
2
0
VERTEX
8
OBJECT__20
10
0
20
0
30
0
70
128
71
6
72
7
73
5
0
VERTEX
8
OBJECT__20
10
0
20
0
30
0
70
128
71
8
72
9
73
7
0
VERTEX
8
OBJECT__20
10
0
20
0
30
0
70
128
71
10
72
11
73
9
0
VERTEX
8
OBJECT__20
10
0
20
0
30
0
70
128
71
12
72
13
73
11
0
VERTEX
8
OBJECT__20
10
0
20
0
30
0
70
128
71
14
72
3
73
13
0
VERTEX
8
OBJECT__20
10
0
20
0
30
0
70
128
71
13
72
12
73
14
0
VERTEX
8
OBJECT__20
10
0
20
0
30
0
70
128
71
11
72
10
73
12
0
VERTEX
8
OBJECT__20
10
0
20
0
30
0
70
128
71
9
72
8
73
10
0
VERTEX
8
OBJECT__20
10
0
20
0
30
0
70
128
71
7
72
6
73
8
0
VERTEX
8
OBJECT__20
10
0
20
0
30
0
70
128
71
5
72
4
73
6
0
VERTEX
8
OBJECT__20
10
0
20
0
30
0
70
128
71
2
72
1
73
4
0
VERTEX
8
OBJECT__20
10
0
20
0
30
0
70
128
71
3
72
14
73
1
0
SEQEND
8
OBJECT__20
0
POLYLINE
8
OBJECT__22
66
1
70
64
71
14
72
14
62
253
0
VERTEX
8
OBJECT__22
10
31.797001
20
7.896000
30
19.181000
70
192
0
VERTEX
8
OBJECT__22
10
31.250999
20
7.217000
30
19.181000
70
192
0
VERTEX
8
OBJECT__22
10
34.726002
20
0.000000
30
19.181000
70
192
0
VERTEX
8
OBJECT__22
10
23.253000
20
9.847000
30
19.181000
70
192
0
VERTEX
8
OBJECT__22
10
23.441999
20
8.999000
30
19.181000
70
192
0
VERTEX
8
OBJECT__22
10
16.400000
20
4.382000
30
19.181000
70
192
0
VERTEX
8
OBJECT__22
10
17.179001
20
4.005000
30
19.181000
70
192
0
VERTEX
8
OBJECT__22
10
16.400000
20
-4.382000
30
19.181000
70
192
0
VERTEX
8
OBJECT__22
10
17.179001
20
-4.005000
30
19.181000
70
192
0
VERTEX
8
OBJECT__22
10
23.253000
20
-9.847000
30
19.181000
70
192
0
VERTEX
8
OBJECT__22
10
23.441999
20
-8.999000
30
19.181000
70
192
0
VERTEX
8
OBJECT__22
10
31.797001
20
-7.896000
30
19.181000
70
192
0
VERTEX
8
OBJECT__22
10
31.250999
20
-7.217000
30
19.181000
70
192
0
VERTEX
8
OBJECT__22
10
35.599998
20
0.000000
30
19.181000
70
192
0
VERTEX
8
OBJECT__22
10
0
20
0
30
0
70
128
71
1
72
2
73
3
0
VERTEX
8
OBJECT__22
10
0
20
0
30
0
70
128
71
4
72
5
73
2
0
VERTEX
8
OBJECT__22
10
0
20
0
30
0
70
128
71
6
72
7
73
5
0
VERTEX
8
OBJECT__22
10
0
20
0
30
0
70
128
71
6
72
8
73
9
0
VERTEX
8
OBJECT__22
10
0
20
0
30
0
70
128
71
8
72
10
73
11
0
VERTEX
8
OBJECT__22
10
0
20
0
30
0
70
128
71
10
72
12
73
13
0
VERTEX
8
OBJECT__22
10
0
20
0
30
0
70
128
71
2
72
1
73
4
0
VERTEX
8
OBJECT__22
10
0
20
0
30
0
70
128
71
9
72
7
73
6
0
VERTEX
8
OBJECT__22
10
0
20
0
30
0
70
128
71
13
72
11
73
10
0
VERTEX
8
OBJECT__22
10
0
20
0
30
0
70
128
71
12
72
14
73
3
0
VERTEX
8
OBJECT__22
10
0
20
0
30
0
70
128
71
5
72
4
73
6
0
VERTEX
8
OBJECT__22
10
0
20
0
30
0
70
128
71
3
72
13
73
12
0
VERTEX
8
OBJECT__22
10
0
20
0
30
0
70
128
71
11
72
9
73
8
0
VERTEX
8
OBJECT__22
10
0
20
0
30
0
70
128
71
3
72
14
73
1
0
SEQEND
8
OBJECT__22
0
POLYLINE
8
OBJECT__23
66
1
70
64
71
32
72
32
62
253
0
VERTEX
8
OBJECT__23
10
35.599998
20
0.000000
30
19.181000
70
192
0
VERTEX
8
OBJECT__23
10
35.340000
20
2.279000
30
22.468000
70
192
0
VERTEX
8
OBJECT__23
10
34.026001
20
5.415000
30
22.316999
70
192
0
VERTEX
8
OBJECT__23
10
35.599998
20
0.000000
30
22.500000
70
192
0
VERTEX
8
OBJECT__23
10
31.797001
20
7.896000
30
19.181000
70
192
0
VERTEX
8
OBJECT__23
10
23.253000
20
9.847000
30
19.181000
70
192
0
VERTEX
8
OBJECT__23
10
28.806000
20
9.544000
30
21.929001
70
192
0
VERTEX
8
OBJECT__23
10
31.791000
20
7.891000
30
22.108999
70
192
0
VERTEX
8
OBJECT__23
10
31.757000
20
7.929000
30
22.106001
70
192
0
VERTEX
8
OBJECT__23
10
25.482000
20
10.100000
30
21.860001
70
192
0
VERTEX
8
OBJECT__23
10
16.400000
20
4.382000
30
19.181000
70
192
0
VERTEX
8
OBJECT__23
10
19.170000
20
7.870000
30
22.112000
70
192
0
VERTEX
8
OBJECT__23
10
16.929001
20
5.343000
30
22.320999
70
192
0
VERTEX
8
OBJECT__23
10
22.138000
20
9.524000
30
21.931000
70
192
0
VERTEX
8
OBJECT__23
10
23.274000
20
9.720000
30
21.907000
70
192
0
VERTEX
8
OBJECT__23
10
15.650000
20
2.233000
30
22.469000
70
192
0
VERTEX
8
OBJECT__23
10
15.464000
20
-1.139000
30
22.492001
70
192
0
VERTEX
8
OBJECT__23
10
16.400000
20
-4.382000
30
19.181000
70
192
0
VERTEX
8
OBJECT__23
10
16.514999
20
4.335000
30
22.368999
70
192
0
VERTEX
8
OBJECT__23
10
23.253000
20
-9.847000
30
19.181000
70
192
0
VERTEX
8
OBJECT__23
10
18.382000
20
-7.165000
30
22.177999
70
192
0
VERTEX
8
OBJECT__23
10
16.403999
20
-4.381000
30
22.379000
70
192
0
VERTEX
8
OBJECT__23
10
16.410000
20
-4.403000
30
22.379000
70
192
0
VERTEX
8
OBJECT__23
10
21.135000
20
-9.108000
30
21.980000
70
192
0
VERTEX
8
OBJECT__23
10
31.797001
20
-7.896000
30
19.181000
70
192
0
VERTEX
8
OBJECT__23
10
27.749001
20
-9.846000
30
21.892000
70
192
0
VERTEX
8
OBJECT__23
10
30.889000
20
-8.542000
30
22.042999
70
192
0
VERTEX
8
OBJECT__23
10
24.368999
20
-10.036000
30
21.868000
70
192
0
VERTEX
8
OBJECT__23
10
23.287001
20
-9.726000
30
21.905001
70
192
0
VERTEX
8
OBJECT__23
10
33.410000
20
-6.281000
30
22.253000
70
192
0
VERTEX
8
OBJECT__23
10
35.035999
20
-3.328000
30
22.431000
70
192
0
VERTEX
8
OBJECT__23
10
31.712999
20
-7.803000
30
22.111000
70
192
0
VERTEX
8
OBJECT__23
10
0
20
0
30
0
70
128
71
1
72
2
73
3
0
VERTEX
8
OBJECT__23
10
0
20
0
30
0
70
128
71
1
72
4
73
2
0
VERTEX
8
OBJECT__23
10
0
20
0
30
0
70
128
71
3
72
5
73
1
0
VERTEX
8
OBJECT__23
10
0
20
0
30
0
70
128
71
6
72
5
73
7
0
VERTEX
8
OBJECT__23
10
0
20
0
30
0
70
128
71
5
72
8
73
9
0
VERTEX
8
OBJECT__23
10
0
20
0
30
0
70
128
71
9
72
7
73
5
0
VERTEX
8
OBJECT__23
10
0
20
0
30
0
70
128
71
7
72
10
73
6
0
VERTEX
8
OBJECT__23
10
0
20
0
30
0
70
128
71
11
72
12
73
13
0
VERTEX
8
OBJECT__23
10
0
20
0
30
0
70
128
71
6
72
14
73
12
0
VERTEX
8
OBJECT__23
10
0
20
0
30
0
70
128
71
12
72
11
73
6
0
VERTEX
8
OBJECT__23
10
0
20
0
30
0
70
128
71
6
72
15
73
14
0
VERTEX
8
OBJECT__23
10
0
20
0
30
0
70
128
71
11
72
16
73
17
0
VERTEX
8
OBJECT__23
10
0
20
0
30
0
70
128
71
17
72
18
73
11
0
VERTEX
8
OBJECT__23
10
0
20
0
30
0
70
128
71
11
72
19
73
16
0
VERTEX
8
OBJECT__23
10
0
20
0
30
0
70
128
71
20
72
18
73
21
0
VERTEX
8
OBJECT__23
10
0
20
0
30
0
70
128
71
18
72
22
73
23
0
VERTEX
8
OBJECT__23
10
0
20
0
30
0
70
128
71
23
72
21
73
18
0
VERTEX
8
OBJECT__23
10
0
20
0
30
0
70
128
71
21
72
24
73
20
0
VERTEX
8
OBJECT__23
10
0
20
0
30
0
70
128
71
25
72
26
73
27
0
VERTEX
8
OBJECT__23
10
0
20
0
30
0
70
128
71
20
72
28
73
26
0
VERTEX
8
OBJECT__23
10
0
20
0
30
0
70
128
71
26
72
25
73
20
0
VERTEX
8
OBJECT__23
10
0
20
0
30
0
70
128
71
20
72
29
73
28
0
VERTEX
8
OBJECT__23
10
0
20
0
30
0
70
128
71
25
72
30
73
31
0
VERTEX
8
OBJECT__23
10
0
20
0
30
0
70
128
71
31
72
1
73
25
0
VERTEX
8
OBJECT__23
10
0
20
0
30
0
70
128
71
25
72
32
73
30
0
VERTEX
8
OBJECT__23
10
0
20
0
30
0
70
128
71
31
72
4
73
1
0
VERTEX
8
OBJECT__23
10
0
20
0
30
0
70
128
71
27
72
32
73
25
0
VERTEX
8
OBJECT__23
10
0
20
0
30
0
70
128
71
24
72
29
73
20
0
VERTEX
8
OBJECT__23
10
0
20
0
30
0
70
128
71
17
72
22
73
18
0
VERTEX
8
OBJECT__23
10
0
20
0
30
0
70
128
71
13
72
19
73
11
0
VERTEX
8
OBJECT__23
10
0
20
0
30
0
70
128
71
10
72
15
73
6
0
VERTEX
8
OBJECT__23
10
0
20
0
30
0
70
128
71
3
72
8
73
5
0
SEQEND
8
OBJECT__23
0
POLYLINE
8
OBJECT__24
66
1
70
64
71
39
72
39
62
253
0
VERTEX
8
OBJECT__24
10
41.293999
20
-13.100000
30
21.420000
70
192
0
VERTEX
8
OBJECT__24
10
27.749001
20
-9.846000
30
21.892000
70
192
0
VERTEX
8
OBJECT__24
10
24.368999
20
-10.036000
30
21.868000
70
192
0
VERTEX
8
OBJECT__24
10
30.889000
20
-8.542000
30
22.042999
70
192
0
VERTEX
8
OBJECT__24
10
33.410000
20
-6.281000
30
22.253000
70
192
0
VERTEX
8
OBJECT__24
10
31.712999
20
-7.803000
30
22.111000
70
192
0
VERTEX
8
OBJECT__24
10
36.997002
20
-6.191000
30
22.228001
70
192
0
VERTEX
8
OBJECT__24
10
36.118000
20
-3.646000
30
22.417000
70
192
0
VERTEX
8
OBJECT__24
10
37.681000
20
-8.170000
30
22.082001
70
192
0
VERTEX
8
OBJECT__24
10
38.305000
20
-9.313000
30
21.955999
70
192
0
VERTEX
8
OBJECT__24
10
35.035999
20
-3.328000
30
22.431000
70
192
0
VERTEX
8
OBJECT__24
10
35.895000
20
-2.296000
30
22.466999
70
192
0
VERTEX
8
OBJECT__24
10
35.919998
20
2.484000
30
22.461000
70
192
0
VERTEX
8
OBJECT__24
10
35.340000
20
2.279000
30
22.468000
70
192
0
VERTEX
8
OBJECT__24
10
35.599998
20
0.000000
30
22.500000
70
192
0
VERTEX
8
OBJECT__24
10
34.026001
20
5.415000
30
22.316999
70
192
0
VERTEX
8
OBJECT__24
10
36.139000
20
3.749000
30
22.412001
70
192
0
VERTEX
8
OBJECT__24
10
36.999001
20
6.190000
30
22.228001
70
192
0
VERTEX
8
OBJECT__24
10
37.733002
20
8.274000
30
22.070999
70
192
0
VERTEX
8
OBJECT__24
10
31.791000
20
7.891000
30
22.108999
70
192
0
VERTEX
8
OBJECT__24
10
38.301998
20
9.308000
30
21.957001
70
192
0
VERTEX
8
OBJECT__24
10
31.757000
20
7.929000
30
22.106001
70
192
0
VERTEX
8
OBJECT__24
10
41.293999
20
13.100000
30
21.420000
70
192
0
VERTEX
8
OBJECT__24
10
28.806000
20
9.544000
30
21.929001
70
192
0
VERTEX
8
OBJECT__24
10
10.994000
20
13.100000
30
21.420000
70
192
0
VERTEX
8
OBJECT__24
10
25.482000
20
10.100000
30
21.860001
70
192
0
VERTEX
8
OBJECT__24
10
22.138000
20
9.524000
30
21.931000
70
192
0
VERTEX
8
OBJECT__24
10
23.274000
20
9.720000
30
21.907000
70
192
0
VERTEX
8
OBJECT__24
10
15.650000
20
2.233000
30
22.469000
70
192
0
VERTEX
8
OBJECT__24
10
16.514999
20
4.335000
30
22.368999
70
192
0
VERTEX
8
OBJECT__24
10
16.929001
20
5.343000
30
22.320999
70
192
0
VERTEX
8
OBJECT__24
10
10.994000
20
-13.100000
30
21.420000
70
192
0
VERTEX
8
OBJECT__24
10
15.464000
20
-1.139000
30
22.492001
70
192
0
VERTEX
8
OBJECT__24
10
19.170000
20
7.870000
30
22.112000
70
192
0
VERTEX
8
OBJECT__24
10
16.410000
20
-4.403000
30
22.379000
70
192
0
VERTEX
8
OBJECT__24
10
16.403999
20
-4.381000
30
22.379000
70
192
0
VERTEX
8
OBJECT__24
10
21.135000
20
-9.108000
30
21.980000
70
192
0
VERTEX
8
OBJECT__24
10
18.382000
20
-7.165000
30
22.177999
70
192
0
VERTEX
8
OBJECT__24
10
23.287001
20
-9.726000
30
21.905001
70
192
0
VERTEX
8
OBJECT__24
10
0
20
0
30
0
70
128
71
1
72
2
73
3
0
VERTEX
8
OBJECT__24
10
0
20
0
30
0
70
128
71
1
72
4
73
2
0
VERTEX
8
OBJECT__24
10
0
20
0
30
0
70
128
71
1
72
5
73
6
0
VERTEX
8
OBJECT__24
10
0
20
0
30
0
70
128
71
5
72
7
73
8
0
VERTEX
8
OBJECT__24
10
0
20
0
30
0
70
128
71
5
72
9
73
7
0
VERTEX
8
OBJECT__24
10
0
20
0
30
0
70
128
71
5
72
10
73
9
0
VERTEX
8
OBJECT__24
10
0
20
0
30
0
70
128
71
5
72
1
73
10
0
VERTEX
8
OBJECT__24
10
0
20
0
30
0
70
128
71
11
72
8
73
12
0
VERTEX
8
OBJECT__24
10
0
20
0
30
0
70
128
71
13
72
14
73
15
0
VERTEX
8
OBJECT__24
10
0
20
0
30
0
70
128
71
15
72
12
73
13
0
VERTEX
8
OBJECT__24
10
0
20
0
30
0
70
128
71
16
72
17
73
18
0
VERTEX
8
OBJECT__24
10
0
20
0
30
0
70
128
71
16
72
14
73
13
0
VERTEX
8
OBJECT__24
10
0
20
0
30
0
70
128
71
13
72
17
73
16
0
VERTEX
8
OBJECT__24
10
0
20
0
30
0
70
128
71
18
72
19
73
16
0
VERTEX
8
OBJECT__24
10
0
20
0
30
0
70
128
71
12
72
15
73
11
0
VERTEX
8
OBJECT__24
10
0
20
0
30
0
70
128
71
8
72
11
73
5
0
VERTEX
8
OBJECT__24
10
0
20
0
30
0
70
128
71
20
72
16
73
19
0
VERTEX
8
OBJECT__24
10
0
20
0
30
0
70
128
71
21
72
22
73
20
0
VERTEX
8
OBJECT__24
10
0
20
0
30
0
70
128
71
19
72
21
73
20
0
VERTEX
8
OBJECT__24
10
0
20
0
30
0
70
128
71
23
72
24
73
22
0
VERTEX
8
OBJECT__24
10
0
20
0
30
0
70
128
71
23
72
25
73
26
0
VERTEX
8
OBJECT__24
10
0
20
0
30
0
70
128
71
26
72
24
73
23
0
VERTEX
8
OBJECT__24
10
0
20
0
30
0
70
128
71
21
72
23
73
22
0
VERTEX
8
OBJECT__24
10
0
20
0
30
0
70
128
71
25
72
27
73
28
0
VERTEX
8
OBJECT__24
10
0
20
0
30
0
70
128
71
28
72
26
73
25
0
VERTEX
8
OBJECT__24
10
0
20
0
30
0
70
128
71
6
72
4
73
1
0
VERTEX
8
OBJECT__24
10
0
20
0
30
0
70
128
71
25
72
29
73
30
0
VERTEX
8
OBJECT__24
10
0
20
0
30
0
70
128
71
30
72
31
73
25
0
VERTEX
8
OBJECT__24
10
0
20
0
30
0
70
128
71
25
72
32
73
33
0
VERTEX
8
OBJECT__24
10
0
20
0
30
0
70
128
71
33
72
29
73
25
0
VERTEX
8
OBJECT__24
10
0
20
0
30
0
70
128
71
31
72
34
73
25
0
VERTEX
8
OBJECT__24
10
0
20
0
30
0
70
128
71
32
72
35
73
36
0
VERTEX
8
OBJECT__24
10
0
20
0
30
0
70
128
71
36
72
33
73
32
0
VERTEX
8
OBJECT__24
10
0
20
0
30
0
70
128
71
34
72
27
73
25
0
VERTEX
8
OBJECT__24
10
0
20
0
30
0
70
128
71
32
72
37
73
38
0
VERTEX
8
OBJECT__24
10
0
20
0
30
0
70
128
71
32
72
3
73
39
0
VERTEX
8
OBJECT__24
10
0
20
0
30
0
70
128
71
39
72
37
73
32
0
VERTEX
8
OBJECT__24
10
0
20
0
30
0
70
128
71
38
72
35
73
32
0
VERTEX
8
OBJECT__24
10
0
20
0
30
0
70
128
71
3
72
32
73
1
0
SEQEND
8
OBJECT__24
0
POLYLINE
8
OBJECT__25
66
1
70
64
71
4
72
2
62
253
0
VERTEX
8
OBJECT__25
10
41.293999
20
13.100000
30
21.420000
70
192
0
VERTEX
8
OBJECT__25
10
41.293999
20
13.100000
30
-21.420000
70
192
0
VERTEX
8
OBJECT__25
10
10.994000
20
13.100000
30
-21.420000
70
192
0
VERTEX
8
OBJECT__25
10
10.994000
20
13.100000
30
21.420000
70
192
0
VERTEX
8
OBJECT__25
10
0
20
0
30
0
70
128
71
1
72
2
73
3
0
VERTEX
8
OBJECT__25
10
0
20
0
30
0
70
128
71
3
72
4
73
1
0
SEQEND
8
OBJECT__25
0
POLYLINE
8
OBJECT__26
66
1
70
64
71
14
72
12
62
253
0
VERTEX
8
OBJECT__26
10
10.994000
20
-13.100000
30
-21.420000
70
192
0
VERTEX
8
OBJECT__26
10
36.123001
20
-3.672000
30
-22.416000
70
192
0
VERTEX
8
OBJECT__26
10
36.998001
20
-6.191000
30
-22.228001
70
192
0
VERTEX
8
OBJECT__26
10
37.698002
20
-8.203000
30
-22.077999
70
192
0
VERTEX
8
OBJECT__26
10
35.909000
20
-2.403000
30
-22.464001
70
192
0
VERTEX
8
OBJECT__26
10
10.994000
20
13.100000
30
-21.420000
70
192
0
VERTEX
8
OBJECT__26
10
35.904999
20
2.377000
30
-22.465000
70
192
0
VERTEX
8
OBJECT__26
10
38.262001
20
-9.240000
30
-21.965000
70
192
0
VERTEX
8
OBJECT__26
10
36.140999
20
3.759000
30
-22.412001
70
192
0
VERTEX
8
OBJECT__26
10
37.733002
20
8.274000
30
-22.070999
70
192
0
VERTEX
8
OBJECT__26
10
36.998001
20
6.190000
30
-22.228001
70
192
0
VERTEX
8
OBJECT__26
10
38.306000
20
9.314000
30
-21.955999
70
192
0
VERTEX
8
OBJECT__26
10
41.293999
20
13.100000
30
-21.420000
70
192
0
VERTEX
8
OBJECT__26
10
41.293999
20
-13.100000
30
-21.420000
70
192
0
VERTEX
8
OBJECT__26
10
0
20
0
30
0
70
128
71
1
72
2
73
3
0
VERTEX
8
OBJECT__26
10
0
20
0
30
0
70
128
71
3
72
4
73
1
0
VERTEX
8
OBJECT__26
10
0
20
0
30
0
70
128
71
1
72
5
73
2
0
VERTEX
8
OBJECT__26
10
0
20
0
30
0
70
128
71
1
72
6
73
7
0
VERTEX
8
OBJECT__26
10
0
20
0
30
0
70
128
71
7
72
5
73
1
0
VERTEX
8
OBJECT__26
10
0
20
0
30
0
70
128
71
4
72
8
73
1
0
VERTEX
8
OBJECT__26
10
0
20
0
30
0
70
128
71
6
72
9
73
7
0
VERTEX
8
OBJECT__26
10
0
20
0
30
0
70
128
71
6
72
10
73
11
0
VERTEX
8
OBJECT__26
10
0
20
0
30
0
70
128
71
6
72
12
73
10
0
VERTEX
8
OBJECT__26
10
0
20
0
30
0
70
128
71
6
72
13
73
12
0
VERTEX
8
OBJECT__26
10
0
20
0
30
0
70
128
71
11
72
9
73
6
0
VERTEX
8
OBJECT__26
10
0
20
0
30
0
70
128
71
8
72
14
73
1
0
SEQEND
8
OBJECT__26
0
POLYLINE
8
OBJECT__27
66
1
70
64
71
4
72
2
62
253
0
VERTEX
8
OBJECT__27
10
41.293999
20
-13.100000
30
-21.420000
70
192
0
VERTEX
8
OBJECT__27
10
41.293999
20
-13.100000
30
21.420000
70
192
0
VERTEX
8
OBJECT__27
10
10.994000
20
-13.100000
30
21.420000
70
192
0
VERTEX
8
OBJECT__27
10
10.994000
20
-13.100000
30
-21.420000
70
192
0
VERTEX
8
OBJECT__27
10
0
20
0
30
0
70
128
71
1
72
2
73
3
0
VERTEX
8
OBJECT__27
10
0
20
0
30
0
70
128
71
3
72
4
73
1
0
SEQEND
8
OBJECT__27
0
POLYLINE
8
OBJECT__28
66
1
70
64
71
43
72
45
62
253
0
VERTEX
8
OBJECT__28
10
67.980003
20
11.731000
30
-52.000000
70
192
0
VERTEX
8
OBJECT__28
10
67.980003
20
11.731000
30
39.500000
70
192
0
VERTEX
8
OBJECT__28
10
72.250000
20
0.000000
30
39.500000
70
192
0
VERTEX
8
OBJECT__28
10
57.168999
20
17.973000
30
-52.000000
70
192
0
VERTEX
8
OBJECT__28
10
57.168999
20
17.973000
30
39.500000
70
192
0
VERTEX
8
OBJECT__28
10
44.875000
20
15.805000
30
-52.000000
70
192
0
VERTEX
8
OBJECT__28
10
44.875000
20
15.805000
30
39.500000
70
192
0
VERTEX
8
OBJECT__28
10
57.168999
20
-17.973000
30
-52.000000
70
192
0
VERTEX
8
OBJECT__28
10
57.168999
20
-17.973000
30
39.500000
70
192
0
VERTEX
8
OBJECT__28
10
44.875000
20
-15.805000
30
39.500000
70
192
0
VERTEX
8
OBJECT__28
10
67.980003
20
-11.731000
30
-52.000000
70
192
0
VERTEX
8
OBJECT__28
10
67.980003
20
-11.731000
30
39.500000
70
192
0
VERTEX
8
OBJECT__28
10
72.250000
20
0.000000
30
-52.000000
70
192
0
VERTEX
8
OBJECT__28
10
36.851002
20
-6.242000
30
39.500000
70
192
0
VERTEX
8
OBJECT__28
10
35.750000
20
0.000000
30
39.500000
70
192
0
VERTEX
8
OBJECT__28
10
35.895000
20
-2.296000
30
22.466999
70
192
0
VERTEX
8
OBJECT__28
10
36.118000
20
-3.646000
30
22.417000
70
192
0
VERTEX
8
OBJECT__28
10
36.851002
20
6.242000
30
39.500000
70
192
0
VERTEX
8
OBJECT__28
10
36.139000
20
3.749000
30
22.412001
70
192
0
VERTEX
8
OBJECT__28
10
35.919998
20
2.484000
30
22.461000
70
192
0
VERTEX
8
OBJECT__28
10
36.999001
20
6.190000
30
22.228001
70
192
0
VERTEX
8
OBJECT__28
10
36.851002
20
-6.242000
30
-52.000000
70
192
0
VERTEX
8
OBJECT__28
10
44.875000
20
-15.805000
30
-52.000000
70
192
0
VERTEX
8
OBJECT__28
10
38.262001
20
-9.240000
30
-21.965000
70
192
0
VERTEX
8
OBJECT__28
10
41.293999
20
-13.100000
30
-21.420000
70
192
0
VERTEX
8
OBJECT__28
10
37.698002
20
-8.203000
30
-22.077999
70
192
0
VERTEX
8
OBJECT__28
10
41.293999
20
-13.100000
30
21.420000
70
192
0
VERTEX
8
OBJECT__28
10
38.305000
20
-9.313000
30
21.955999
70
192
0
VERTEX
8
OBJECT__28
10
37.681000
20
-8.170000
30
22.082001
70
192
0
VERTEX
8
OBJECT__28
10
36.997002
20
-6.191000
30
22.228001
70
192
0
VERTEX
8
OBJECT__28
10
36.851002
20
6.242000
30
-52.000000
70
192
0
VERTEX
8
OBJECT__28
10
35.904999
20
2.377000
30
-22.465000
70
192
0
VERTEX
8
OBJECT__28
10
36.140999
20
3.759000
30
-22.412001
70
192
0
VERTEX
8
OBJECT__28
10
35.909000
20
-2.403000
30
-22.464001
70
192
0
VERTEX
8
OBJECT__28
10
36.998001
20
-6.191000
30
-22.228001
70
192
0
VERTEX
8
OBJECT__28
10
36.123001
20
-3.672000
30
-22.416000
70
192
0
VERTEX
8
OBJECT__28
10
41.293999
20
13.100000
30
21.420000
70
192
0
VERTEX
8
OBJECT__28
10
38.301998
20
9.308000
30
21.957001
70
192
0
VERTEX
8
OBJECT__28
10
37.733002
20
8.274000
30
22.070999
70
192
0
VERTEX
8
OBJECT__28
10
41.293999
20
13.100000
30
-21.420000
70
192
0
VERTEX
8
OBJECT__28
10
37.733002
20
8.274000
30
-22.070999
70
192
0
VERTEX
8
OBJECT__28
10
38.306000
20
9.314000
30
-21.955999
70
192
0
VERTEX
8
OBJECT__28
10
36.998001
20
6.190000
30
-22.228001
70
192
0
VERTEX
8
OBJECT__28
10
0
20
0
30
0
70
128
71
1
72
2
73
3
0
VERTEX
8
OBJECT__28
10
0
20
0
30
0
70
128
71
4
72
5
73
2
0
VERTEX
8
OBJECT__28
10
0
20
0
30
0
70
128
71
6
72
7
73
5
0
VERTEX
8
OBJECT__28
10
0
20
0
30
0
70
128
71
8
72
9
73
10
0
VERTEX
8
OBJECT__28
10
0
20
0
30
0
70
128
71
11
72
12
73
9
0
VERTEX
8
OBJECT__28
10
0
20
0
30
0
70
128
71
13
72
3
73
12
0
VERTEX
8
OBJECT__28
10
0
20
0
30
0
70
128
71
14
72
15
73
16
0
VERTEX
8
OBJECT__28
10
0
20
0
30
0
70
128
71
16
72
17
73
14
0
VERTEX
8
OBJECT__28
10
0
20
0
30
0
70
128
71
18
72
19
73
20
0
VERTEX
8
OBJECT__28
10
0
20
0
30
0
70
128
71
18
72
21
73
19
0
VERTEX
8
OBJECT__28
10
0
20
0
30
0
70
128
71
20
72
15
73
18
0
VERTEX
8
OBJECT__28
10
0
20
0
30
0
70
128
71
20
72
16
73
15
0
VERTEX
8
OBJECT__28
10
0
20
0
30
0
70
128
71
22
72
23
73
24
0
VERTEX
8
OBJECT__28
10
0
20
0
30
0
70
128
71
23
72
25
73
24
0
VERTEX
8
OBJECT__28
10
0
20
0
30
0
70
128
71
24
72
26
73
22
0
VERTEX
8
OBJECT__28
10
0
20
0
30
0
70
128
71
10
72
27
73
25
0
VERTEX
8
OBJECT__28
10
0
20
0
30
0
70
128
71
10
72
14
73
28
0
VERTEX
8
OBJECT__28
10
0
20
0
30
0
70
128
71
14
72
29
73
28
0
VERTEX
8
OBJECT__28
10
0
20
0
30
0
70
128
71
14
72
30
73
29
0
VERTEX
8
OBJECT__28
10
0
20
0
30
0
70
128
71
28
72
27
73
10
0
VERTEX
8
OBJECT__28
10
0
20
0
30
0
70
128
71
25
72
23
73
10
0
VERTEX
8
OBJECT__28
10
0
20
0
30
0
70
128
71
31
72
32
73
33
0
VERTEX
8
OBJECT__28
10
0
20
0
30
0
70
128
71
31
72
22
73
34
0
VERTEX
8
OBJECT__28
10
0
20
0
30
0
70
128
71
22
72
35
73
36
0
VERTEX
8
OBJECT__28
10
0
20
0
30
0
70
128
71
36
72
34
73
22
0
VERTEX
8
OBJECT__28
10
0
20
0
30
0
70
128
71
34
72
32
73
31
0
VERTEX
8
OBJECT__28
10
0
20
0
30
0
70
128
71
7
72
37
73
38
0
VERTEX
8
OBJECT__28
10
0
20
0
30
0
70
128
71
38
72
18
73
7
0
VERTEX
8
OBJECT__28
10
0
20
0
30
0
70
128
71
38
72
39
73
18
0
VERTEX
8
OBJECT__28
10
0
20
0
30
0
70
128
71
7
72
6
73
40
0
VERTEX
8
OBJECT__28
10
0
20
0
30
0
70
128
71
31
72
41
73
42
0
VERTEX
8
OBJECT__28
10
0
20
0
30
0
70
128
71
42
72
6
73
31
0
VERTEX
8
OBJECT__28
10
0
20
0
30
0
70
128
71
31
72
43
73
41
0
VERTEX
8
OBJECT__28
10
0
20
0
30
0
70
128
71
42
72
40
73
6
0
VERTEX
8
OBJECT__28
10
0
20
0
30
0
70
128
71
40
72
37
73
7
0
VERTEX
8
OBJECT__28
10
0
20
0
30
0
70
128
71
39
72
21
73
18
0
VERTEX
8
OBJECT__28
10
0
20
0
30
0
70
128
71
33
72
43
73
31
0
VERTEX
8
OBJECT__28
10
0
20
0
30
0
70
128
71
26
72
35
73
22
0
VERTEX
8
OBJECT__28
10
0
20
0
30
0
70
128
71
17
72
30
73
14
0
VERTEX
8
OBJECT__28
10
0
20
0
30
0
70
128
71
12
72
11
73
13
0
VERTEX
8
OBJECT__28
10
0
20
0
30
0
70
128
71
9
72
8
73
11
0
VERTEX
8
OBJECT__28
10
0
20
0
30
0
70
128
71
10
72
23
73
8
0
VERTEX
8
OBJECT__28
10
0
20
0
30
0
70
128
71
5
72
4
73
6
0
VERTEX
8
OBJECT__28
10
0
20
0
30
0
70
128
71
2
72
1
73
4
0
VERTEX
8
OBJECT__28
10
0
20
0
30
0
70
128
71
3
72
13
73
1
0
SEQEND
8
OBJECT__28
0
POLYLINE
8
OBJECT__29
66
1
70
64
71
21
72
21
62
253
0
VERTEX
8
OBJECT__29
10
67.980003
20
11.731000
30
39.500000
70
192
0
VERTEX
8
OBJECT__29
10
65.067001
20
12.772000
30
39.500000
70
192
0
VERTEX
8
OBJECT__29
10
70.214996
20
4.761000
30
39.500000
70
192
0
VERTEX
8
OBJECT__29
10
57.168999
20
17.973000
30
39.500000
70
192
0
VERTEX
8
OBJECT__29
10
56.404999
20
16.728001
30
39.500000
70
192
0
VERTEX
8
OBJECT__29
10
44.875000
20
15.805000
30
39.500000
70
192
0
VERTEX
8
OBJECT__29
10
46.979000
20
15.373000
30
39.500000
70
192
0
VERTEX
8
OBJECT__29
10
36.851002
20
6.242000
30
39.500000
70
192
0
VERTEX
8
OBJECT__29
10
39.783001
20
9.137000
30
39.500000
70
192
0
VERTEX
8
OBJECT__29
10
37.099998
20
0.000000
30
39.500000
70
192
0
VERTEX
8
OBJECT__29
10
35.750000
20
0.000000
30
39.500000
70
192
0
VERTEX
8
OBJECT__29
10
36.851002
20
-6.242000
30
39.500000
70
192
0
VERTEX
8
OBJECT__29
10
39.783001
20
-9.137000
30
39.500000
70
192
0
VERTEX
8
OBJECT__29
10
44.875000
20
-15.805000
30
39.500000
70
192
0
VERTEX
8
OBJECT__29
10
46.979000
20
-15.373000
30
39.500000
70
192
0
VERTEX
8
OBJECT__29
10
57.168999
20
-17.973000
30
39.500000
70
192
0
VERTEX
8
OBJECT__29
10
56.404999
20
-16.728001
30
39.500000
70
192
0
VERTEX
8
OBJECT__29
10
67.980003
20
-11.731000
30
39.500000
70
192
0
VERTEX
8
OBJECT__29
10
65.067001
20
-12.772000
30
39.500000
70
192
0
VERTEX
8
OBJECT__29
10
72.250000
20
0.000000
30
39.500000
70
192
0
VERTEX
8
OBJECT__29
10
70.214996
20
-4.761000
30
39.500000
70
192
0
VERTEX
8
OBJECT__29
10
0
20
0
30
0
70
128
71
1
72
2
73
3
0
VERTEX
8
OBJECT__29
10
0
20
0
30
0
70
128
71
4
72
5
73
2
0
VERTEX
8
OBJECT__29
10
0
20
0
30
0
70
128
71
2
72
1
73
4
0
VERTEX
8
OBJECT__29
10
0
20
0
30
0
70
128
71
4
72
6
73
7
0
VERTEX
8
OBJECT__29
10
0
20
0
30
0
70
128
71
6
72
8
73
9
0
VERTEX
8
OBJECT__29
10
0
20
0
30
0
70
128
71
10
72
9
73
8
0
VERTEX
8
OBJECT__29
10
0
20
0
30
0
70
128
71
7
72
5
73
4
0
VERTEX
8
OBJECT__29
10
0
20
0
30
0
70
128
71
8
72
11
73
10
0
VERTEX
8
OBJECT__29
10
0
20
0
30
0
70
128
71
9
72
7
73
6
0
VERTEX
8
OBJECT__29
10
0
20
0
30
0
70
128
71
10
72
11
73
12
0
VERTEX
8
OBJECT__29
10
0
20
0
30
0
70
128
71
12
72
13
73
10
0
VERTEX
8
OBJECT__29
10
0
20
0
30
0
70
128
71
14
72
15
73
13
0
VERTEX
8
OBJECT__29
10
0
20
0
30
0
70
128
71
16
72
17
73
15
0
VERTEX
8
OBJECT__29
10
0
20
0
30
0
70
128
71
16
72
18
73
19
0
VERTEX
8
OBJECT__29
10
0
20
0
30
0
70
128
71
13
72
12
73
14
0
VERTEX
8
OBJECT__29
10
0
20
0
30
0
70
128
71
19
72
17
73
16
0
VERTEX
8
OBJECT__29
10
0
20
0
30
0
70
128
71
18
72
20
73
21
0
VERTEX
8
OBJECT__29
10
0
20
0
30
0
70
128
71
15
72
14
73
16
0
VERTEX
8
OBJECT__29
10
0
20
0
30
0
70
128
71
20
72
3
73
21
0
VERTEX
8
OBJECT__29
10
0
20
0
30
0
70
128
71
21
72
19
73
18
0
VERTEX
8
OBJECT__29
10
0
20
0
30
0
70
128
71
3
72
20
73
1
0
SEQEND
8
OBJECT__29
0
POLYLINE
8
OBJECT__30
66
1
70
64
71
17
72
17
62
253
0
VERTEX
8
OBJECT__30
10
44.875000
20
15.805000
30
-52.000000
70
192
0
VERTEX
8
OBJECT__30
10
57.168999
20
17.973000
30
-52.000000
70
192
0
VERTEX
8
OBJECT__30
10
54.000000
20
15.200000
30
-52.000000
70
192
0
VERTEX
8
OBJECT__30
10
67.980003
20
11.731000
30
-52.000000
70
192
0
VERTEX
8
OBJECT__30
10
64.748001
20
10.748000
30
-52.000000
70
192
0
VERTEX
8
OBJECT__30
10
36.851002
20
6.242000
30
-52.000000
70
192
0
VERTEX
8
OBJECT__30
10
43.251999
20
10.748000
30
-52.000000
70
192
0
VERTEX
8
OBJECT__30
10
72.250000
20
0.000000
30
-52.000000
70
192
0
VERTEX
8
OBJECT__30
10
69.199997
20
0.000000
30
-52.000000
70
192
0
VERTEX
8
OBJECT__30
10
38.799999
20
0.000000
30
-52.000000
70
192
0
VERTEX
8
OBJECT__30
10
57.168999
20
-17.973000
30
-52.000000
70
192
0
VERTEX
8
OBJECT__30
10
54.000000
20
-15.200000
30
-52.000000
70
192
0
VERTEX
8
OBJECT__30
10
64.748001
20
-10.748000
30
-52.000000
70
192
0
VERTEX
8
OBJECT__30
10
44.875000
20
-15.805000
30
-52.000000
70
192
0
VERTEX
8
OBJECT__30
10
43.251999
20
-10.748000
30
-52.000000
70
192
0
VERTEX
8
OBJECT__30
10
67.980003
20
-11.731000
30
-52.000000
70
192
0
VERTEX
8
OBJECT__30
10
36.851002
20
-6.242000
30
-52.000000
70
192
0
VERTEX
8
OBJECT__30
10
0
20
0
30
0
70
128
71
1
72
2
73
3
0
VERTEX
8
OBJECT__30
10
0
20
0
30
0
70
128
71
2
72
4
73
5
0
VERTEX
8
OBJECT__30
10
0
20
0
30
0
70
128
71
6
72
1
73
7
0
VERTEX
8
OBJECT__30
10
0
20
0
30
0
70
128
71
5
72
3
73
2
0
VERTEX
8
OBJECT__30
10
0
20
0
30
0
70
128
71
4
72
8
73
9
0
VERTEX
8
OBJECT__30
10
0
20
0
30
0
70
128
71
7
72
10
73
6
0
VERTEX
8
OBJECT__30
10
0
20
0
30
0
70
128
71
9
72
5
73
4
0
VERTEX
8
OBJECT__30
10
0
20
0
30
0
70
128
71
11
72
12
73
13
0
VERTEX
8
OBJECT__30
10
0
20
0
30
0
70
128
71
14
72
15
73
12
0
VERTEX
8
OBJECT__30
10
0
20
0
30
0
70
128
71
3
72
7
73
1
0
VERTEX
8
OBJECT__30
10
0
20
0
30
0
70
128
71
16
72
13
73
9
0
VERTEX
8
OBJECT__30
10
0
20
0
30
0
70
128
71
12
72
11
73
14
0
VERTEX
8
OBJECT__30
10
0
20
0
30
0
70
128
71
17
72
10
73
15
0
VERTEX
8
OBJECT__30
10
0
20
0
30
0
70
128
71
9
72
8
73
16
0
VERTEX
8
OBJECT__30
10
0
20
0
30
0
70
128
71
15
72
14
73
17
0
VERTEX
8
OBJECT__30
10
0
20
0
30
0
70
128
71
13
72
16
73
11
0
VERTEX
8
OBJECT__30
10
0
20
0
30
0
70
128
71
10
72
17
73
6
0
SEQEND
8
OBJECT__30
0
POLYLINE
8
OBJECT__31
66
1
70
64
71
16
72
16
62
253
0
VERTEX
8
OBJECT__31
10
64.748001
20
-10.748000
30
-52.000000
70
192
0
VERTEX
8
OBJECT__31
10
64.748001
20
-10.748000
30
-51.544998
70
192
0
VERTEX
8
OBJECT__31
10
69.199997
20
0.000000
30
-51.544998
70
192
0
VERTEX
8
OBJECT__31
10
54.000000
20
-15.200000
30
-52.000000
70
192
0
VERTEX
8
OBJECT__31
10
54.000000
20
-15.200000
30
-51.544998
70
192
0
VERTEX
8
OBJECT__31
10
43.251999
20
-10.748000
30
-52.000000
70
192
0
VERTEX
8
OBJECT__31
10
43.251999
20
-10.748000
30
-51.544998
70
192
0
VERTEX
8
OBJECT__31
10
38.799999
20
0.000000
30
-52.000000
70
192
0
VERTEX
8
OBJECT__31
10
38.799999
20
0.000000
30
-51.544998
70
192
0
VERTEX
8
OBJECT__31
10
43.251999
20
10.748000
30
-52.000000
70
192
0
VERTEX
8
OBJECT__31
10
43.251999
20
10.748000
30
-51.544998
70
192
0
VERTEX
8
OBJECT__31
10
54.000000
20
15.200000
30
-52.000000
70
192
0
VERTEX
8
OBJECT__31
10
54.000000
20
15.200000
30
-51.544998
70
192
0
VERTEX
8
OBJECT__31
10
64.748001
20
10.748000
30
-52.000000
70
192
0
VERTEX
8
OBJECT__31
10
64.748001
20
10.748000
30
-51.544998
70
192
0
VERTEX
8
OBJECT__31
10
69.199997
20
0.000000
30
-52.000000
70
192
0
VERTEX
8
OBJECT__31
10
0
20
0
30
0
70
128
71
1
72
2
73
3
0
VERTEX
8
OBJECT__31
10
0
20
0
30
0
70
128
71
4
72
5
73
2
0
VERTEX
8
OBJECT__31
10
0
20
0
30
0
70
128
71
6
72
7
73
5
0
VERTEX
8
OBJECT__31
10
0
20
0
30
0
70
128
71
8
72
9
73
7
0
VERTEX
8
OBJECT__31
10
0
20
0
30
0
70
128
71
10
72
11
73
9
0
VERTEX
8
OBJECT__31
10
0
20
0
30
0
70
128
71
12
72
13
73
11
0
VERTEX
8
OBJECT__31
10
0
20
0
30
0
70
128
71
14
72
15
73
13
0
VERTEX
8
OBJECT__31
10
0
20
0
30
0
70
128
71
16
72
3
73
15
0
VERTEX
8
OBJECT__31
10
0
20
0
30
0
70
128
71
15
72
14
73
16
0
VERTEX
8
OBJECT__31
10
0
20
0
30
0
70
128
71
13
72
12
73
14
0
VERTEX
8
OBJECT__31
10
0
20
0
30
0
70
128
71
11
72
10
73
12
0
VERTEX
8
OBJECT__31
10
0
20
0
30
0
70
128
71
9
72
8
73
10
0
VERTEX
8
OBJECT__31
10
0
20
0
30
0
70
128
71
7
72
6
73
8
0
VERTEX
8
OBJECT__31
10
0
20
0
30
0
70
128
71
5
72
4
73
6
0
VERTEX
8
OBJECT__31
10
0
20
0
30
0
70
128
71
2
72
1
73
4
0
VERTEX
8
OBJECT__31
10
0
20
0
30
0
70
128
71
3
72
16
73
1
0
SEQEND
8
OBJECT__31
0
POLYLINE
8
OBJECT__32
66
1
70
64
71
8
72
6
62
253
0
VERTEX
8
OBJECT__32
10
38.799999
20
0.000000
30
-51.544998
70
192
0
VERTEX
8
OBJECT__32
10
54.000000
20
15.200000
30
-51.544998
70
192
0
VERTEX
8
OBJECT__32
10
64.748001
20
10.748000
30
-51.544998
70
192
0
VERTEX
8
OBJECT__32
10
69.199997
20
0.000000
30
-51.544998
70
192
0
VERTEX
8
OBJECT__32
10
54.000000
20
-15.200000
30
-51.544998
70
192
0
VERTEX
8
OBJECT__32
10
43.251999
20
-10.748000
30
-51.544998
70
192
0
VERTEX
8
OBJECT__32
10
43.251999
20
10.748000
30
-51.544998
70
192
0
VERTEX
8
OBJECT__32
10
64.748001
20
-10.748000
30
-51.544998
70
192
0
VERTEX
8
OBJECT__32
10
0
20
0
30
0
70
128
71
1
72
2
73
3
0
VERTEX
8
OBJECT__32
10
0
20
0
30
0
70
128
71
4
72
5
73
6
0
VERTEX
8
OBJECT__32
10
0
20
0
30
0
70
128
71
1
72
7
73
2
0
VERTEX
8
OBJECT__32
10
0
20
0
30
0
70
128
71
4
72
8
73
5
0
VERTEX
8
OBJECT__32
10
0
20
0
30
0
70
128
71
6
72
1
73
4
0
VERTEX
8
OBJECT__32
10
0
20
0
30
0
70
128
71
3
72
4
73
1
0
SEQEND
8
OBJECT__32
0
POLYLINE
8
OBJECT__33
66
1
70
64
71
8
72
6
62
253
0
VERTEX
8
OBJECT__33
10
63.853001
20
0.000000
30
-51.755001
70
192
0
VERTEX
8
OBJECT__33
10
45.122002
20
4.275000
30
-51.755001
70
192
0
VERTEX
8
OBJECT__33
10
51.806999
20
9.606000
30
-51.755001
70
192
0
VERTEX
8
OBJECT__33
10
45.122002
20
-4.275000
30
-51.755001
70
192
0
VERTEX
8
OBJECT__33
10
60.143002
20
-7.704000
30
-51.755001
70
192
0
VERTEX
8
OBJECT__33
10
44.146999
20
0.000000
30
-51.755001
70
192
0
VERTEX
8
OBJECT__33
10
51.806999
20
-9.606000
30
-51.755001
70
192
0
VERTEX
8
OBJECT__33
10
60.143002
20
7.704000
30
-51.755001
70
192
0
VERTEX
8
OBJECT__33
10
0
20
0
30
0
70
128
71
1
72
2
73
3
0
VERTEX
8
OBJECT__33
10
0
20
0
30
0
70
128
71
4
72
1
73
5
0
VERTEX
8
OBJECT__33
10
0
20
0
30
0
70
128
71
1
72
6
73
2
0
VERTEX
8
OBJECT__33
10
0
20
0
30
0
70
128
71
5
72
7
73
4
0
VERTEX
8
OBJECT__33
10
0
20
0
30
0
70
128
71
4
72
6
73
1
0
VERTEX
8
OBJECT__33
10
0
20
0
30
0
70
128
71
3
72
8
73
1
0
SEQEND
8
OBJECT__33
0
POLYLINE
8
OBJECT__34
66
1
70
64
71
16
72
16
62
253
0
VERTEX
8
OBJECT__34
10
63.853001
20
0.000000
30
-51.755001
70
192
0
VERTEX
8
OBJECT__34
10
60.143002
20
7.704000
30
-51.755001
70
192
0
VERTEX
8
OBJECT__34
10
59.923000
20
7.427000
30
-72.000000
70
192
0
VERTEX
8
OBJECT__34
10
51.806999
20
9.606000
30
-51.755001
70
192
0
VERTEX
8
OBJECT__34
10
51.886002
20
9.262000
30
-72.000000
70
192
0
VERTEX
8
OBJECT__34
10
45.122002
20
4.275000
30
-51.755001
70
192
0
VERTEX
8
OBJECT__34
10
45.441002
20
4.122000
30
-72.000000
70
192
0
VERTEX
8
OBJECT__34
10
44.146999
20
0.000000
30
-51.755001
70
192
0
VERTEX
8
OBJECT__34
10
44.500000
20
0.000000
30
-72.000000
70
192
0
VERTEX
8
OBJECT__34
10
45.122002
20
-4.275000
30
-51.755001
70
192
0
VERTEX
8
OBJECT__34
10
45.441002
20
-4.122000
30
-72.000000
70
192
0
VERTEX
8
OBJECT__34
10
51.806999
20
-9.606000
30
-51.755001
70
192
0
VERTEX
8
OBJECT__34
10
51.886002
20
-9.262000
30
-72.000000
70
192
0
VERTEX
8
OBJECT__34
10
60.143002
20
-7.704000
30
-51.755001
70
192
0
VERTEX
8
OBJECT__34
10
59.923000
20
-7.427000
30
-72.000000
70
192
0
VERTEX
8
OBJECT__34
10
63.500000
20
0.000000
30
-72.000000
70
192
0
VERTEX
8
OBJECT__34
10
0
20
0
30
0
70
128
71
1
72
2
73
3
0
VERTEX
8
OBJECT__34
10
0
20
0
30
0
70
128
71
4
72
5
73
3
0
VERTEX
8
OBJECT__34
10
0
20
0
30
0
70
128
71
6
72
7
73
5
0
VERTEX
8
OBJECT__34
10
0
20
0
30
0
70
128
71
6
72
8
73
9
0
VERTEX
8
OBJECT__34
10
0
20
0
30
0
70
128
71
8
72
10
73
11
0
VERTEX
8
OBJECT__34
10
0
20
0
30
0
70
128
71
11
72
9
73
8
0
VERTEX
8
OBJECT__34
10
0
20
0
30
0
70
128
71
10
72
12
73
13
0
VERTEX
8
OBJECT__34
10
0
20
0
30
0
70
128
71
12
72
14
73
15
0
VERTEX
8
OBJECT__34
10
0
20
0
30
0
70
128
71
14
72
1
73
16
0
VERTEX
8
OBJECT__34
10
0
20
0
30
0
70
128
71
16
72
15
73
14
0
VERTEX
8
OBJECT__34
10
0
20
0
30
0
70
128
71
15
72
13
73
12
0
VERTEX
8
OBJECT__34
10
0
20
0
30
0
70
128
71
13
72
11
73
10
0
VERTEX
8
OBJECT__34
10
0
20
0
30
0
70
128
71
9
72
7
73
6
0
VERTEX
8
OBJECT__34
10
0
20
0
30
0
70
128
71
5
72
4
73
6
0
VERTEX
8
OBJECT__34
10
0
20
0
30
0
70
128
71
3
72
2
73
4
0
VERTEX
8
OBJECT__34
10
0
20
0
30
0
70
128
71
3
72
16
73
1
0
SEQEND
8
OBJECT__34
0
POLYLINE
8
OBJECT__36
66
1
70
64
71
16
72
16
62
253
0
VERTEX
8
OBJECT__36
10
42.174999
20
0.000000
30
-72.000000
70
192
0
VERTEX
8
OBJECT__36
10
45.638000
20
8.362000
30
-72.000000
70
192
0
VERTEX
8
OBJECT__36
10
45.441002
20
4.122000
30
-72.000000
70
192
0
VERTEX
8
OBJECT__36
10
54.000000
20
11.825000
30
-72.000000
70
192
0
VERTEX
8
OBJECT__36
10
51.886002
20
9.262000
30
-72.000000
70
192
0
VERTEX
8
OBJECT__36
10
62.362000
20
8.362000
30
-72.000000
70
192
0
VERTEX
8
OBJECT__36
10
59.923000
20
7.427000
30
-72.000000
70
192
0
VERTEX
8
OBJECT__36
10
62.362000
20
-8.362000
30
-72.000000
70
192
0
VERTEX
8
OBJECT__36
10
59.923000
20
-7.427000
30
-72.000000
70
192
0
VERTEX
8
OBJECT__36
10
63.500000
20
0.000000
30
-72.000000
70
192
0
VERTEX
8
OBJECT__36
10
54.000000
20
-11.825000
30
-72.000000
70
192
0
VERTEX
8
OBJECT__36
10
51.886002
20
-9.262000
30
-72.000000
70
192
0
VERTEX
8
OBJECT__36
10
45.638000
20
-8.362000
30
-72.000000
70
192
0
VERTEX
8
OBJECT__36
10
45.441002
20
-4.122000
30
-72.000000
70
192
0
VERTEX
8
OBJECT__36
10
44.500000
20
0.000000
30
-72.000000
70
192
0
VERTEX
8
OBJECT__36
10
65.824997
20
0.000000
30
-72.000000
70
192
0
VERTEX
8
OBJECT__36
10
0
20
0
30
0
70
128
71
1
72
2
73
3
0
VERTEX
8
OBJECT__36
10
0
20
0
30
0
70
128
71
2
72
4
73
5
0
VERTEX
8
OBJECT__36
10
0
20
0
30
0
70
128
71
5
72
3
73
2
0
VERTEX
8
OBJECT__36
10
0
20
0
30
0
70
128
71
4
72
6
73
7
0
VERTEX
8
OBJECT__36
10
0
20
0
30
0
70
128
71
8
72
9
73
10
0
VERTEX
8
OBJECT__36
10
0
20
0
30
0
70
128
71
11
72
12
73
9
0
VERTEX
8
OBJECT__36
10
0
20
0
30
0
70
128
71
13
72
14
73
12
0
VERTEX
8
OBJECT__36
10
0
20
0
30
0
70
128
71
1
72
15
73
14
0
VERTEX
8
OBJECT__36
10
0
20
0
30
0
70
128
71
7
72
5
73
4
0
VERTEX
8
OBJECT__36
10
0
20
0
30
0
70
128
71
6
72
16
73
10
0
VERTEX
8
OBJECT__36
10
0
20
0
30
0
70
128
71
9
72
8
73
11
0
VERTEX
8
OBJECT__36
10
0
20
0
30
0
70
128
71
14
72
13
73
1
0
VERTEX
8
OBJECT__36
10
0
20
0
30
0
70
128
71
10
72
7
73
6
0
VERTEX
8
OBJECT__36
10
0
20
0
30
0
70
128
71
12
72
11
73
13
0
VERTEX
8
OBJECT__36
10
0
20
0
30
0
70
128
71
10
72
16
73
8
0
VERTEX
8
OBJECT__36
10
0
20
0
30
0
70
128
71
3
72
15
73
1
0
SEQEND
8
OBJECT__36
0
POLYLINE
8
OBJECT__37
66
1
70
64
71
16
72
16
62
253
0
VERTEX
8
OBJECT__37
10
62.485001
20
8.485000
30
-52.000000
70
192
0
VERTEX
8
OBJECT__37
10
66.000000
20
0.000000
30
-52.000000
70
192
0
VERTEX
8
OBJECT__37
10
65.824997
20
0.000000
30
-72.000000
70
192
0
VERTEX
8
OBJECT__37
10
54.000000
20
12.000000
30
-52.000000
70
192
0
VERTEX
8
OBJECT__37
10
62.362000
20
8.362000
30
-72.000000
70
192
0
VERTEX
8
OBJECT__37
10
54.000000
20
11.825000
30
-72.000000
70
192
0
VERTEX
8
OBJECT__37
10
45.638000
20
8.362000
30
-72.000000
70
192
0
VERTEX
8
OBJECT__37
10
45.514999
20
8.485000
30
-52.000000
70
192
0
VERTEX
8
OBJECT__37
10
42.174999
20
0.000000
30
-72.000000
70
192
0
VERTEX
8
OBJECT__37
10
45.514999
20
-8.485000
30
-52.000000
70
192
0
VERTEX
8
OBJECT__37
10
42.000000
20
0.000000
30
-52.000000
70
192
0
VERTEX
8
OBJECT__37
10
54.000000
20
-12.000000
30
-52.000000
70
192
0
VERTEX
8
OBJECT__37
10
45.638000
20
-8.362000
30
-72.000000
70
192
0
VERTEX
8
OBJECT__37
10
62.485001
20
-8.485000
30
-52.000000
70
192
0
VERTEX
8
OBJECT__37
10
54.000000
20
-11.825000
30
-72.000000
70
192
0
VERTEX
8
OBJECT__37
10
62.362000
20
-8.362000
30
-72.000000
70
192
0
VERTEX
8
OBJECT__37
10
0
20
0
30
0
70
128
71
1
72
2
73
3
0
VERTEX
8
OBJECT__37
10
0
20
0
30
0
70
128
71
4
72
1
73
5
0
VERTEX
8
OBJECT__37
10
0
20
0
30
0
70
128
71
4
72
6
73
7
0
VERTEX
8
OBJECT__37
10
0
20
0
30
0
70
128
71
8
72
7
73
9
0
VERTEX
8
OBJECT__37
10
0
20
0
30
0
70
128
71
10
72
11
73
9
0
VERTEX
8
OBJECT__37
10
0
20
0
30
0
70
128
71
12
72
10
73
13
0
VERTEX
8
OBJECT__37
10
0
20
0
30
0
70
128
71
14
72
12
73
15
0
VERTEX
8
OBJECT__37
10
0
20
0
30
0
70
128
71
2
72
14
73
16
0
VERTEX
8
OBJECT__37
10
0
20
0
30
0
70
128
71
16
72
3
73
2
0
VERTEX
8
OBJECT__37
10
0
20
0
30
0
70
128
71
15
72
16
73
14
0
VERTEX
8
OBJECT__37
10
0
20
0
30
0
70
128
71
13
72
15
73
12
0
VERTEX
8
OBJECT__37
10
0
20
0
30
0
70
128
71
9
72
13
73
10
0
VERTEX
8
OBJECT__37
10
0
20
0
30
0
70
128
71
9
72
11
73
8
0
VERTEX
8
OBJECT__37
10
0
20
0
30
0
70
128
71
7
72
8
73
4
0
VERTEX
8
OBJECT__37
10
0
20
0
30
0
70
128
71
5
72
6
73
4
0
VERTEX
8
OBJECT__37
10
0
20
0
30
0
70
128
71
3
72
5
73
1
0
SEQEND
8
OBJECT__37
0
POLYLINE
8
OBJECT__38
66
1
70
64
71
16
72
16
62
253
0
VERTEX
8
OBJECT__38
10
43.393002
20
10.607000
30
-52.000000
70
192
0
VERTEX
8
OBJECT__38
10
54.000000
20
15.000000
30
-52.000000
70
192
0
VERTEX
8
OBJECT__38
10
54.000000
20
12.000000
30
-52.000000
70
192
0
VERTEX
8
OBJECT__38
10
45.514999
20
8.485000
30
-52.000000
70
192
0
VERTEX
8
OBJECT__38
10
64.607002
20
10.607000
30
-52.000000
70
192
0
VERTEX
8
OBJECT__38
10
62.485001
20
8.485000
30
-52.000000
70
192
0
VERTEX
8
OBJECT__38
10
64.607002
20
-10.607000
30
-52.000000
70
192
0
VERTEX
8
OBJECT__38
10
62.485001
20
-8.485000
30
-52.000000
70
192
0
VERTEX
8
OBJECT__38
10
66.000000
20
0.000000
30
-52.000000
70
192
0
VERTEX
8
OBJECT__38
10
54.000000
20
-15.000000
30
-52.000000
70
192
0
VERTEX
8
OBJECT__38
10
54.000000
20
-12.000000
30
-52.000000
70
192
0
VERTEX
8
OBJECT__38
10
69.000000
20
0.000000
30
-52.000000
70
192
0
VERTEX
8
OBJECT__38
10
43.393002
20
-10.607000
30
-52.000000
70
192
0
VERTEX
8
OBJECT__38
10
45.514999
20
-8.485000
30
-52.000000
70
192
0
VERTEX
8
OBJECT__38
10
39.000000
20
0.000000
30
-52.000000
70
192
0
VERTEX
8
OBJECT__38
10
42.000000
20
0.000000
30
-52.000000
70
192
0
VERTEX
8
OBJECT__38
10
0
20
0
30
0
70
128
71
1
72
2
73
3
0
VERTEX
8
OBJECT__38
10
0
20
0
30
0
70
128
71
3
72
4
73
1
0
VERTEX
8
OBJECT__38
10
0
20
0
30
0
70
128
71
5
72
6
73
3
0
VERTEX
8
OBJECT__38
10
0
20
0
30
0
70
128
71
7
72
8
73
9
0
VERTEX
8
OBJECT__38
10
0
20
0
30
0
70
128
71
10
72
11
73
8
0
VERTEX
8
OBJECT__38
10
0
20
0
30
0
70
128
71
3
72
2
73
5
0
VERTEX
8
OBJECT__38
10
0
20
0
30
0
70
128
71
12
72
9
73
6
0
VERTEX
8
OBJECT__38
10
0
20
0
30
0
70
128
71
8
72
7
73
10
0
VERTEX
8
OBJECT__38
10
0
20
0
30
0
70
128
71
13
72
14
73
11
0
VERTEX
8
OBJECT__38
10
0
20
0
30
0
70
128
71
6
72
5
73
12
0
VERTEX
8
OBJECT__38
10
0
20
0
30
0
70
128
71
11
72
10
73
13
0
VERTEX
8
OBJECT__38
10
0
20
0
30
0
70
128
71
9
72
12
73
7
0
VERTEX
8
OBJECT__38
10
0
20
0
30
0
70
128
71
15
72
16
73
14
0
VERTEX
8
OBJECT__38
10
0
20
0
30
0
70
128
71
14
72
13
73
15
0
VERTEX
8
OBJECT__38
10
0
20
0
30
0
70
128
71
4
72
16
73
1
0
VERTEX
8
OBJECT__38
10
0
20
0
30
0
70
128
71
16
72
15
73
1
0
SEQEND
8
OBJECT__38
0
POLYLINE
8
OBJECT__39
66
1
70
64
71
16
72
16
62
253
0
VERTEX
8
OBJECT__39
10
43.393002
20
10.607000
30
-51.000000
70
192
0
VERTEX
8
OBJECT__39
10
43.393002
20
10.607000
30
-52.000000
70
192
0
VERTEX
8
OBJECT__39
10
39.000000
20
0.000000
30
-52.000000
70
192
0
VERTEX
8
OBJECT__39
10
54.000000
20
15.000000
30
-51.000000
70
192
0
VERTEX
8
OBJECT__39
10
54.000000
20
15.000000
30
-52.000000
70
192
0
VERTEX
8
OBJECT__39
10
64.607002
20
10.607000
30
-51.000000
70
192
0
VERTEX
8
OBJECT__39
10
64.607002
20
10.607000
30
-52.000000
70
192
0
VERTEX
8
OBJECT__39
10
69.000000
20
0.000000
30
-51.000000
70
192
0
VERTEX
8
OBJECT__39
10
69.000000
20
0.000000
30
-52.000000
70
192
0
VERTEX
8
OBJECT__39
10
64.607002
20
-10.607000
30
-51.000000
70
192
0
VERTEX
8
OBJECT__39
10
64.607002
20
-10.607000
30
-52.000000
70
192
0
VERTEX
8
OBJECT__39
10
54.000000
20
-15.000000
30
-51.000000
70
192
0
VERTEX
8
OBJECT__39
10
54.000000
20
-15.000000
30
-52.000000
70
192
0
VERTEX
8
OBJECT__39
10
43.393002
20
-10.607000
30
-51.000000
70
192
0
VERTEX
8
OBJECT__39
10
43.393002
20
-10.607000
30
-52.000000
70
192
0
VERTEX
8
OBJECT__39
10
39.000000
20
0.000000
30
-51.000000
70
192
0
VERTEX
8
OBJECT__39
10
0
20
0
30
0
70
128
71
1
72
2
73
3
0
VERTEX
8
OBJECT__39
10
0
20
0
30
0
70
128
71
4
72
5
73
2
0
VERTEX
8
OBJECT__39
10
0
20
0
30
0
70
128
71
6
72
7
73
5
0
VERTEX
8
OBJECT__39
10
0
20
0
30
0
70
128
71
8
72
9
73
7
0
VERTEX
8
OBJECT__39
10
0
20
0
30
0
70
128
71
10
72
11
73
9
0
VERTEX
8
OBJECT__39
10
0
20
0
30
0
70
128
71
12
72
13
73
11
0
VERTEX
8
OBJECT__39
10
0
20
0
30
0
70
128
71
14
72
15
73
13
0
VERTEX
8
OBJECT__39
10
0
20
0
30
0
70
128
71
16
72
3
73
15
0
VERTEX
8
OBJECT__39
10
0
20
0
30
0
70
128
71
15
72
14
73
16
0
VERTEX
8
OBJECT__39
10
0
20
0
30
0
70
128
71
13
72
12
73
14
0
VERTEX
8
OBJECT__39
10
0
20
0
30
0
70
128
71
11
72
10
73
12
0
VERTEX
8
OBJECT__39
10
0
20
0
30
0
70
128
71
9
72
8
73
10
0
VERTEX
8
OBJECT__39
10
0
20
0
30
0
70
128
71
7
72
6
73
8
0
VERTEX
8
OBJECT__39
10
0
20
0
30
0
70
128
71
5
72
4
73
6
0
VERTEX
8
OBJECT__39
10
0
20
0
30
0
70
128
71
2
72
1
73
4
0
VERTEX
8
OBJECT__39
10
0
20
0
30
0
70
128
71
3
72
16
73
1
0
SEQEND
8
OBJECT__39
0
POLYLINE
8
OBJECT__40
66
1
70
64
71
5
72
3
62
253
0
VERTEX
8
OBJECT__40
10
13.500000
20
13.350000
30
21.628000
70
192
0
VERTEX
8
OBJECT__40
10
13.500000
20
-13.350000
30
21.628000
70
192
0
VERTEX
8
OBJECT__40
10
13.500000
20
0.000000
30
-22.750000
70
192
0
VERTEX
8
OBJECT__40
10
13.500000
20
-13.350000
30
-21.628000
70
192
0
VERTEX
8
OBJECT__40
10
13.500000
20
13.350000
30
-21.628000
70
192
0
VERTEX
8
OBJECT__40
10
0
20
0
30
0
70
128
71
1
72
2
73
3
0
VERTEX
8
OBJECT__40
10
0
20
0
30
0
70
128
71
2
72
4
73
3
0
VERTEX
8
OBJECT__40
10
0
20
0
30
0
70
128
71
3
72
5
73
1
0
SEQEND
8
OBJECT__40
0
POLYLINE
8
OBJECT__41
66
1
70
64
71
4
72
2
62
253
0
VERTEX
8
OBJECT__41
10
15.000000
20
-13.350000
30
21.628000
70
192
0
VERTEX
8
OBJECT__41
10
13.500000
20
-13.350000
30
21.628000
70
192
0
VERTEX
8
OBJECT__41
10
13.500000
20
13.350000
30
21.628000
70
192
0
VERTEX
8
OBJECT__41
10
15.000000
20
13.350000
30
21.628000
70
192
0
VERTEX
8
OBJECT__41
10
0
20
0
30
0
70
128
71
1
72
2
73
3
0
VERTEX
8
OBJECT__41
10
0
20
0
30
0
70
128
71
3
72
4
73
1
0
SEQEND
8
OBJECT__41
0
POLYLINE
8
OBJECT__43
66
1
70
64
71
17
72
17
62
253
0
VERTEX
8
OBJECT__43
10
15.000000
20
20.738001
30
-24.500000
70
192
0
VERTEX
8
OBJECT__43
10
15.000000
20
20.738001
30
24.500000
70
192
0
VERTEX
8
OBJECT__43
10
15.000000
20
13.350000
30
21.628000
70
192
0
VERTEX
8
OBJECT__43
10
15.000000
20
13.350000
30
-21.628000
70
192
0
VERTEX
8
OBJECT__43
10
15.000000
20
0.000000
30
-22.750000
70
192
0
VERTEX
8
OBJECT__43
10
15.000000
20
15.000000
30
-30.238001
70
192
0
VERTEX
8
OBJECT__43
10
15.000000
20
15.000000
30
30.238001
70
192
0
VERTEX
8
OBJECT__43
10
15.000000
20
-15.000000
30
30.238001
70
192
0
VERTEX
8
OBJECT__43
10
15.000000
20
-13.350000
30
21.628000
70
192
0
VERTEX
8
OBJECT__43
10
15.000000
20
-20.738001
30
24.500000
70
192
0
VERTEX
8
OBJECT__43
10
15.000000
20
-20.738001
30
-24.500000
70
192
0
VERTEX
8
OBJECT__43
10
15.000000
20
-13.350000
30
-21.628000
70
192
0
VERTEX
8
OBJECT__43
10
15.000000
20
19.058001
30
-28.558001
70
192
0
VERTEX
8
OBJECT__43
10
15.000000
20
19.058001
30
28.558001
70
192
0
VERTEX
8
OBJECT__43
10
15.000000
20
-19.058001
30
28.558001
70
192
0
VERTEX
8
OBJECT__43
10
15.000000
20
-19.058001
30
-28.558001
70
192
0
VERTEX
8
OBJECT__43
10
15.000000
20
-15.000000
30
-30.238001
70
192
0
VERTEX
8
OBJECT__43
10
0
20
0
30
0
70
128
71
1
72
2
73
3
0
VERTEX
8
OBJECT__43
10
0
20
0
30
0
70
128
71
4
72
5
73
6
0
VERTEX
8
OBJECT__43
10
0
20
0
30
0
70
128
71
3
72
4
73
1
0
VERTEX
8
OBJECT__43
10
0
20
0
30
0
70
128
71
7
72
8
73
9
0
VERTEX
8
OBJECT__43
10
0
20
0
30
0
70
128
71
10
72
11
73
12
0
VERTEX
8
OBJECT__43
10
0
20
0
30
0
70
128
71
6
72
13
73
4
0
VERTEX
8
OBJECT__43
10
0
20
0
30
0
70
128
71
4
72
13
73
1
0
VERTEX
8
OBJECT__43
10
0
20
0
30
0
70
128
71
9
72
3
73
7
0
VERTEX
8
OBJECT__43
10
0
20
0
30
0
70
128
71
12
72
9
73
10
0
VERTEX
8
OBJECT__43
10
0
20
0
30
0
70
128
71
2
72
14
73
3
0
VERTEX
8
OBJECT__43
10
0
20
0
30
0
70
128
71
3
72
14
73
7
0
VERTEX
8
OBJECT__43
10
0
20
0
30
0
70
128
71
9
72
15
73
10
0
VERTEX
8
OBJECT__43
10
0
20
0
30
0
70
128
71
12
72
16
73
17
0
VERTEX
8
OBJECT__43
10
0
20
0
30
0
70
128
71
8
72
15
73
9
0
VERTEX
8
OBJECT__43
10
0
20
0
30
0
70
128
71
17
72
5
73
12
0
VERTEX
8
OBJECT__43
10
0
20
0
30
0
70
128
71
11
72
16
73
12
0
VERTEX
8
OBJECT__43
10
0
20
0
30
0
70
128
71
5
72
17
73
6
0
SEQEND
8
OBJECT__43
0
POLYLINE
8
OBJECT__44
66
1
70
64
71
6
72
4
62
253
0
VERTEX
8
OBJECT__44
10
0.000000
20
19.243000
30
28.743000
70
192
0
VERTEX
8
OBJECT__44
10
0.000000
20
15.000000
30
30.500000
70
192
0
VERTEX
8
OBJECT__44
10
15.000000
20
15.000000
30
30.238001
70
192
0
VERTEX
8
OBJECT__44
10
0.000000
20
21.000000
30
24.500000
70
192
0
VERTEX
8
OBJECT__44
10
15.000000
20
19.058001
30
28.558001
70
192
0
VERTEX
8
OBJECT__44
10
15.000000
20
20.738001
30
24.500000
70
192
0
VERTEX
8
OBJECT__44
10
0
20
0
30
0
70
128
71
1
72
2
73
3
0
VERTEX
8
OBJECT__44
10
0
20
0
30
0
70
128
71
4
72
1
73
5
0
VERTEX
8
OBJECT__44
10
0
20
0
30
0
70
128
71
5
72
6
73
4
0
VERTEX
8
OBJECT__44
10
0
20
0
30
0
70
128
71
3
72
5
73
1
0
SEQEND
8
OBJECT__44
0
POLYLINE
8
OBJECT__45
66
1
70
64
71
12
72
10
62
253
0
VERTEX
8
OBJECT__45
10
0.000000
20
-15.000000
30
-30.500000
70
192
0
VERTEX
8
OBJECT__45
10
0.000000
20
-21.000000
30
-24.500000
70
192
0
VERTEX
8
OBJECT__45
10
0.000000
20
-21.000000
30
24.500000
70
192
0
VERTEX
8
OBJECT__45
10
0.000000
20
15.000000
30
30.500000
70
192
0
VERTEX
8
OBJECT__45
10
0.000000
20
21.000000
30
24.500000
70
192
0
VERTEX
8
OBJECT__45
10
0.000000
20
21.000000
30
-24.500000
70
192
0
VERTEX
8
OBJECT__45
10
0.000000
20
-19.243000
30
-28.743000
70
192
0
VERTEX
8
OBJECT__45
10
0.000000
20
19.243000
30
28.743000
70
192
0
VERTEX
8
OBJECT__45
10
0.000000
20
-15.000000
30
30.500000
70
192
0
VERTEX
8
OBJECT__45
10
0.000000
20
15.000000
30
-30.500000
70
192
0
VERTEX
8
OBJECT__45
10
0.000000
20
-19.243000
30
28.743000
70
192
0
VERTEX
8
OBJECT__45
10
0.000000
20
19.243000
30
-28.743000
70
192
0
VERTEX
8
OBJECT__45
10
0
20
0
30
0
70
128
71
1
72
2
73
3
0
VERTEX
8
OBJECT__45
10
0
20
0
30
0
70
128
71
4
72
5
73
6
0
VERTEX
8
OBJECT__45
10
0
20
0
30
0
70
128
71
1
72
7
73
2
0
VERTEX
8
OBJECT__45
10
0
20
0
30
0
70
128
71
4
72
8
73
5
0
VERTEX
8
OBJECT__45
10
0
20
0
30
0
70
128
71
3
72
9
73
1
0
VERTEX
8
OBJECT__45
10
0
20
0
30
0
70
128
71
1
72
9
73
4
0
VERTEX
8
OBJECT__45
10
0
20
0
30
0
70
128
71
6
72
10
73
4
0
VERTEX
8
OBJECT__45
10
0
20
0
30
0
70
128
71
4
72
10
73
1
0
VERTEX
8
OBJECT__45
10
0
20
0
30
0
70
128
71
3
72
11
73
9
0
VERTEX
8
OBJECT__45
10
0
20
0
30
0
70
128
71
6
72
12
73
10
0
SEQEND
8
OBJECT__45
0
POLYLINE
8
OBJECT__46
66
1
70
64
71
4
72
2
62
253
0
VERTEX
8
OBJECT__46
10
0.000000
20
-15.000000
30
30.500000
70
192
0
VERTEX
8
OBJECT__46
10
15.000000
20
-15.000000
30
30.238001
70
192
0
VERTEX
8
OBJECT__46
10
15.000000
20
15.000000
30
30.238001
70
192
0
VERTEX
8
OBJECT__46
10
0.000000
20
15.000000
30
30.500000
70
192
0
VERTEX
8
OBJECT__46
10
0
20
0
30
0
70
128
71
1
72
2
73
3
0
VERTEX
8
OBJECT__46
10
0
20
0
30
0
70
128
71
3
72
4
73
1
0
SEQEND
8
OBJECT__46
0
POLYLINE
8
OBJECT__47
66
1
70
64
71
6
72
4
62
253
0
VERTEX
8
OBJECT__47
10
0.000000
20
-19.243000
30
28.743000
70
192
0
VERTEX
8
OBJECT__47
10
0.000000
20
-21.000000
30
24.500000
70
192
0
VERTEX
8
OBJECT__47
10
15.000000
20
-20.738001
30
24.500000
70
192
0
VERTEX
8
OBJECT__47
10
0.000000
20
-15.000000
30
30.500000
70
192
0
VERTEX
8
OBJECT__47
10
15.000000
20
-19.058001
30
28.558001
70
192
0
VERTEX
8
OBJECT__47
10
15.000000
20
-15.000000
30
30.238001
70
192
0
VERTEX
8
OBJECT__47
10
0
20
0
30
0
70
128
71
1
72
2
73
3
0
VERTEX
8
OBJECT__47
10
0
20
0
30
0
70
128
71
4
72
1
73
5
0
VERTEX
8
OBJECT__47
10
0
20
0
30
0
70
128
71
5
72
6
73
4
0
VERTEX
8
OBJECT__47
10
0
20
0
30
0
70
128
71
3
72
5
73
1
0
SEQEND
8
OBJECT__47
0
POLYLINE
8
OBJECT__48
66
1
70
64
71
4
72
2
62
253
0
VERTEX
8
OBJECT__48
10
15.000000
20
-20.738001
30
24.500000
70
192
0
VERTEX
8
OBJECT__48
10
0.000000
20
-21.000000
30
24.500000
70
192
0
VERTEX
8
OBJECT__48
10
0.000000
20
-21.000000
30
-24.500000
70
192
0
VERTEX
8
OBJECT__48
10
15.000000
20
-20.738001
30
-24.500000
70
192
0
VERTEX
8
OBJECT__48
10
0
20
0
30
0
70
128
71
1
72
2
73
3
0
VERTEX
8
OBJECT__48
10
0
20
0
30
0
70
128
71
3
72
4
73
1
0
SEQEND
8
OBJECT__48
0
POLYLINE
8
OBJECT__49
66
1
70
64
71
6
72
4
62
253
0
VERTEX
8
OBJECT__49
10
0.000000
20
-19.243000
30
-28.743000
70
192
0
VERTEX
8
OBJECT__49
10
0.000000
20
-15.000000
30
-30.500000
70
192
0
VERTEX
8
OBJECT__49
10
15.000000
20
-15.000000
30
-30.238001
70
192
0
VERTEX
8
OBJECT__49
10
0.000000
20
-21.000000
30
-24.500000
70
192
0
VERTEX
8
OBJECT__49
10
15.000000
20
-19.058001
30
-28.558001
70
192
0
VERTEX
8
OBJECT__49
10
15.000000
20
-20.738001
30
-24.500000
70
192
0
VERTEX
8
OBJECT__49
10
0
20
0
30
0
70
128
71
1
72
2
73
3
0
VERTEX
8
OBJECT__49
10
0
20
0
30
0
70
128
71
4
72
1
73
5
0
VERTEX
8
OBJECT__49
10
0
20
0
30
0
70
128
71
5
72
6
73
4
0
VERTEX
8
OBJECT__49
10
0
20
0
30
0
70
128
71
3
72
5
73
1
0
SEQEND
8
OBJECT__49
0
POLYLINE
8
OBJECT__50
66
1
70
64
71
4
72
2
62
253
0
VERTEX
8
OBJECT__50
10
15.000000
20
-15.000000
30
-30.238001
70
192
0
VERTEX
8
OBJECT__50
10
0.000000
20
-15.000000
30
-30.500000
70
192
0
VERTEX
8
OBJECT__50
10
0.000000
20
15.000000
30
-30.500000
70
192
0
VERTEX
8
OBJECT__50
10
15.000000
20
15.000000
30
-30.238001
70
192
0
VERTEX
8
OBJECT__50
10
0
20
0
30
0
70
128
71
1
72
2
73
3
0
VERTEX
8
OBJECT__50
10
0
20
0
30
0
70
128
71
3
72
4
73
1
0
SEQEND
8
OBJECT__50
0
POLYLINE
8
OBJECT__51
66
1
70
64
71
6
72
4
62
253
0
VERTEX
8
OBJECT__51
10
0.000000
20
19.243000
30
-28.743000
70
192
0
VERTEX
8
OBJECT__51
10
0.000000
20
21.000000
30
-24.500000
70
192
0
VERTEX
8
OBJECT__51
10
15.000000
20
20.738001
30
-24.500000
70
192
0
VERTEX
8
OBJECT__51
10
0.000000
20
15.000000
30
-30.500000
70
192
0
VERTEX
8
OBJECT__51
10
15.000000
20
19.058001
30
-28.558001
70
192
0
VERTEX
8
OBJECT__51
10
15.000000
20
15.000000
30
-30.238001
70
192
0
VERTEX
8
OBJECT__51
10
0
20
0
30
0
70
128
71
1
72
2
73
3
0
VERTEX
8
OBJECT__51
10
0
20
0
30
0
70
128
71
4
72
1
73
5
0
VERTEX
8
OBJECT__51
10
0
20
0
30
0
70
128
71
5
72
6
73
4
0
VERTEX
8
OBJECT__51
10
0
20
0
30
0
70
128
71
3
72
5
73
1
0
SEQEND
8
OBJECT__51
0
POLYLINE
8
OBJECT__52
66
1
70
64
71
4
72
2
62
253
0
VERTEX
8
OBJECT__52
10
0.000000
20
21.000000
30
24.500000
70
192
0
VERTEX
8
OBJECT__52
10
15.000000
20
20.738001
30
24.500000
70
192
0
VERTEX
8
OBJECT__52
10
15.000000
20
20.738001
30
-24.500000
70
192
0
VERTEX
8
OBJECT__52
10
0.000000
20
21.000000
30
-24.500000
70
192
0
VERTEX
8
OBJECT__52
10
0
20
0
30
0
70
128
71
1
72
2
73
3
0
VERTEX
8
OBJECT__52
10
0
20
0
30
0
70
128
71
3
72
4
73
1
0
SEQEND
8
OBJECT__52
0
POLYLINE
8
OBJECT__53
66
1
70
64
71
5
72
3
62
253
0
VERTEX
8
OBJECT__53
10
29.362000
20
-8.019000
30
20.400000
70
192
0
VERTEX
8
OBJECT__53
10
34.176998
20
-1.980000
30
20.400000
70
192
0
VERTEX
8
OBJECT__53
10
32.458000
20
5.549000
30
20.400000
70
192
0
VERTEX
8
OBJECT__53
10
26.500000
20
8.844000
30
20.400000
70
192
0
VERTEX
8
OBJECT__53
10
26.500000
20
-8.844000
30
20.400000
70
192
0
VERTEX
8
OBJECT__53
10
0
20
0
30
0
70
128
71
1
72
2
73
3
0
VERTEX
8
OBJECT__53
10
0
20
0
30
0
70
128
71
4
72
5
73
1
0
VERTEX
8
OBJECT__53
10
0
20
0
30
0
70
128
71
3
72
4
73
1
0
SEQEND
8
OBJECT__53
0
POLYLINE
8
OBJECT__54
66
1
70
64
71
5
72
3
62
253
0
VERTEX
8
OBJECT__54
10
26.500000
20
-8.844000
30
20.400000
70
192
0
VERTEX
8
OBJECT__54
10
26.500000
20
8.844000
30
20.400000
70
192
0
VERTEX
8
OBJECT__54
10
26.500000
20
0.000000
30
18.089001
70
192
0
VERTEX
8
OBJECT__54
10
26.500000
20
8.844000
30
19.377001
70
192
0
VERTEX
8
OBJECT__54
10
26.500000
20
-8.844000
30
19.377001
70
192
0
VERTEX
8
OBJECT__54
10
0
20
0
30
0
70
128
71
1
72
2
73
3
0
VERTEX
8
OBJECT__54
10
0
20
0
30
0
70
128
71
2
72
4
73
3
0
VERTEX
8
OBJECT__54
10
0
20
0
30
0
70
128
71
3
72
5
73
1
0
SEQEND
8
OBJECT__54
0
POLYLINE
8
OBJECT__56
66
1
70
64
71
7
72
5
62
253
0
VERTEX
8
OBJECT__56
10
26.500000
20
0.000000
30
18.089001
70
192
0
VERTEX
8
OBJECT__56
10
26.500000
20
8.844000
30
19.377001
70
192
0
VERTEX
8
OBJECT__56
10
25.500000
20
8.844000
30
19.377001
70
192
0
VERTEX
8
OBJECT__56
10
24.500000
20
0.000000
30
18.089001
70
192
0
VERTEX
8
OBJECT__56
10
24.500000
20
-8.844000
30
19.377001
70
192
0
VERTEX
8
OBJECT__56
10
26.500000
20
-8.844000
30
19.377001
70
192
0
VERTEX
8
OBJECT__56
10
24.500000
20
8.844000
30
19.377001
70
192
0
VERTEX
8
OBJECT__56
10
0
20
0
30
0
70
128
71
1
72
2
73
3
0
VERTEX
8
OBJECT__56
10
0
20
0
30
0
70
128
71
3
72
4
73
1
0
VERTEX
8
OBJECT__56
10
0
20
0
30
0
70
128
71
4
72
5
73
6
0
VERTEX
8
OBJECT__56
10
0
20
0
30
0
70
128
71
6
72
1
73
4
0
VERTEX
8
OBJECT__56
10
0
20
0
30
0
70
128
71
3
72
7
73
4
0
SEQEND
8
OBJECT__56
0
POLYLINE
8
OBJECT__57
66
1
70
64
71
23
72
23
62
253
0
VERTEX
8
OBJECT__57
10
32.458000
20
5.549000
30
20.400000
70
192
0
VERTEX
8
OBJECT__57
10
34.176998
20
-1.980000
30
20.400000
70
192
0
VERTEX
8
OBJECT__57
10
34.400002
20
0.000000
30
17.700001
70
192
0
VERTEX
8
OBJECT__57
10
34.176998
20
-1.980000
30
17.700001
70
192
0
VERTEX
8
OBJECT__57
10
29.362000
20
-8.019000
30
20.400000
70
192
0
VERTEX
8
OBJECT__57
10
29.362000
20
-8.019000
30
17.700001
70
192
0
VERTEX
8
OBJECT__57
10
16.823000
20
-1.980000
30
20.400000
70
192
0
VERTEX
8
OBJECT__57
10
16.823000
20
-1.980000
30
17.700001
70
192
0
VERTEX
8
OBJECT__57
10
21.638000
20
-8.019000
30
17.700001
70
192
0
VERTEX
8
OBJECT__57
10
18.542000
20
5.549000
30
20.400000
70
192
0
VERTEX
8
OBJECT__57
10
18.542000
20
5.549000
30
17.700001
70
192
0
VERTEX
8
OBJECT__57
10
32.458000
20
5.549000
30
17.700001
70
192
0
VERTEX
8
OBJECT__57
10
26.500000
20
8.844000
30
19.377001
70
192
0
VERTEX
8
OBJECT__57
10
25.500000
20
8.900000
30
17.700001
70
192
0
VERTEX
8
OBJECT__57
10
25.500000
20
8.844000
30
19.377001
70
192
0
VERTEX
8
OBJECT__57
10
21.638000
20
-8.019000
30
20.400000
70
192
0
VERTEX
8
OBJECT__57
10
24.500000
20
-8.844000
30
19.377001
70
192
0
VERTEX
8
OBJECT__57
10
26.500000
20
-8.844000
30
19.377001
70
192
0
VERTEX
8
OBJECT__57
10
26.500000
20
-8.844000
30
20.400000
70
192
0
VERTEX
8
OBJECT__57
10
24.500000
20
8.844000
30
19.377001
70
192
0
VERTEX
8
OBJECT__57
10
24.500000
20
8.844000
30
20.400000
70
192
0
VERTEX
8
OBJECT__57
10
24.500000
20
-8.844000
30
20.400000
70
192
0
VERTEX
8
OBJECT__57
10
26.500000
20
8.844000
30
20.400000
70
192
0
VERTEX
8
OBJECT__57
10
0
20
0
30
0
70
128
71
1
72
2
73
3
0
VERTEX
8
OBJECT__57
10
0
20
0
30
0
70
128
71
2
72
4
73
3
0
VERTEX
8
OBJECT__57
10
0
20
0
30
0
70
128
71
5
72
6
73
4
0
VERTEX
8
OBJECT__57
10
0
20
0
30
0
70
128
71
7
72
8
73
9
0
VERTEX
8
OBJECT__57
10
0
20
0
30
0
70
128
71
10
72
11
73
8
0
VERTEX
8
OBJECT__57
10
0
20
0
30
0
70
128
71
1
72
12
73
13
0
VERTEX
8
OBJECT__57
10
0
20
0
30
0
70
128
71
14
72
15
73
13
0
VERTEX
8
OBJECT__57
10
0
20
0
30
0
70
128
71
13
72
12
73
14
0
VERTEX
8
OBJECT__57
10
0
20
0
30
0
70
128
71
16
72
9
73
17
0
VERTEX
8
OBJECT__57
10
0
20
0
30
0
70
128
71
9
72
6
73
18
0
VERTEX
8
OBJECT__57
10
0
20
0
30
0
70
128
71
18
72
17
73
9
0
VERTEX
8
OBJECT__57
10
0
20
0
30
0
70
128
71
5
72
19
73
18
0
VERTEX
8
OBJECT__57
10
0
20
0
30
0
70
128
71
18
72
6
73
5
0
VERTEX
8
OBJECT__57
10
0
20
0
30
0
70
128
71
14
72
11
73
20
0
VERTEX
8
OBJECT__57
10
0
20
0
30
0
70
128
71
10
72
21
73
20
0
VERTEX
8
OBJECT__57
10
0
20
0
30
0
70
128
71
20
72
11
73
10
0
VERTEX
8
OBJECT__57
10
0
20
0
30
0
70
128
71
20
72
15
73
14
0
VERTEX
8
OBJECT__57
10
0
20
0
30
0
70
128
71
17
72
22
73
16
0
VERTEX
8
OBJECT__57
10
0
20
0
30
0
70
128
71
13
72
23
73
1
0
VERTEX
8
OBJECT__57
10
0
20
0
30
0
70
128
71
8
72
7
73
10
0
VERTEX
8
OBJECT__57
10
0
20
0
30
0
70
128
71
9
72
16
73
7
0
VERTEX
8
OBJECT__57
10
0
20
0
30
0
70
128
71
4
72
2
73
5
0
VERTEX
8
OBJECT__57
10
0
20
0
30
0
70
128
71
3
72
12
73
1
0
SEQEND
8
OBJECT__57
0
POLYLINE
8
OBJECT__58
66
1
70
64
71
5
72
3
62
253
0
VERTEX
8
OBJECT__58
10
24.500000
20
-8.844000
30
20.400000
70
192
0
VERTEX
8
OBJECT__58
10
24.500000
20
-8.844000
30
19.377001
70
192
0
VERTEX
8
OBJECT__58
10
24.500000
20
0.000000
30
18.089001
70
192
0
VERTEX
8
OBJECT__58
10
24.500000
20
8.844000
30
20.400000
70
192
0
VERTEX
8
OBJECT__58
10
24.500000
20
8.844000
30
19.377001
70
192
0
VERTEX
8
OBJECT__58
10
0
20
0
30
0
70
128
71
1
72
2
73
3
0
VERTEX
8
OBJECT__58
10
0
20
0
30
0
70
128
71
3
72
4
73
1
0
VERTEX
8
OBJECT__58
10
0
20
0
30
0
70
128
71
3
72
5
73
4
0
SEQEND
8
OBJECT__58
0
POLYLINE
8
OBJECT__59
66
1
70
64
71
5
72
3
62
253
0
VERTEX
8
OBJECT__59
10
21.638000
20
-8.019000
30
20.400000
70
192
0
VERTEX
8
OBJECT__59
10
24.500000
20
8.844000
30
20.400000
70
192
0
VERTEX
8
OBJECT__59
10
18.542000
20
5.549000
30
20.400000
70
192
0
VERTEX
8
OBJECT__59
10
16.823000
20
-1.980000
30
20.400000
70
192
0
VERTEX
8
OBJECT__59
10
24.500000
20
-8.844000
30
20.400000
70
192
0
VERTEX
8
OBJECT__59
10
0
20
0
30
0
70
128
71
1
72
2
73
3
0
VERTEX
8
OBJECT__59
10
0
20
0
30
0
70
128
71
3
72
4
73
1
0
VERTEX
8
OBJECT__59
10
0
20
0
30
0
70
128
71
1
72
5
73
2
0
SEQEND
8
OBJECT__59
0
ENDSEC
0
EOF
