  0
SECTION
  2
HEADER
  9
$ACADVER
  1
AC1021
  9
$ACADMAINTVER
 70
    25
  9
$DWGCODEPAGE
  3
UNDEFINED
  9
$INSBASE
 10
0.0
 20
0.0
 30
0.0
  9
$EXTMIN
 10
1.000000000000000E+20
 20
1.000000000000000E+20
 30
1.000000000000000E+20
  9
$EXTMAX
 10
-1.000000000000000E+20
 20
-1.000000000000000E+20
 30
-1.000000000000000E+20
  9
$LIMMIN
 10
0.0
 20
0.0
  9
$LIMMAX
 10
12.0
 20
9.0
  9
$ORTHOMODE
 70
     0
  9
$REGENMODE
 70
     1
  9
$FILLMODE
 70
     1
  9
$QTEXTMODE
 70
     0
  9
$MIRRTEXT
 70
     1
  9
$LTSCALE
 40
1.0
  9
$ATTMODE
 70
     1
  9
$TEXTSIZE
 40
0.2
  9
$TRACEWID
 40
0.05
  9
$TEXTSTYLE
  7
Standard
  9
$CLAYER
  8
0
  9
$CELTYPE
  6
ByLayer
  9
$CECOLOR
 62
   256
  9
$CELTSCALE
 40
1.0
  9
$DISPSILH
 70
     0
  9
$DIMSCALE
 40
1.0
  9
$DIMASZ
 40
0.18
  9
$DIMEXO
 40
0.0625
  9
$DIMDLI
 40
0.38
  9
$DIMRND
 40
0.0
  9
$DIMDLE
 40
0.0
  9
$DIMEXE
 40
0.18
  9
$DIMTP
 40
0.0
  9
$DIMTM
 40
0.0
  9
$DIMTXT
 40
0.18
  9
$DIMCEN
 40
0.09
  9
$DIMTSZ
 40
0.0
  9
$DIMTOL
 70
     0
  9
$DIMLIM
 70
     0
  9
$DIMTIH
 70
     1
  9
$DIMTOH
 70
     1
  9
$DIMSE1
 70
     0
  9
$DIMSE2
 70
     0
  9
$DIMTAD
 70
     0
  9
$DIMZIN
 70
     0
  9
$DIMBLK
  1

  9
$DIMASO
 70
     1
  9
$DIMSHO
 70
     1
  9
$DIMPOST
  1

  9
$DIMAPOST
  1

  9
$DIMALT
 70
     0
  9
$DIMALTD
 70
     2
  9
$DIMALTF
 40
25.4
  9
$DIMLFAC
 40
1.0
  9
$DIMTOFL
 70
     0
  9
$DIMTVP
 40
0.0
  9
$DIMTIX
 70
     0
  9
$DIMSOXD
 70
     0
  9
$DIMSAH
 70
     0
  9
$DIMBLK1
  1

  9
$DIMBLK2
  1

  9
$DIMSTYLE
  2
Standard
  9
$DIMCLRD
 70
     0
  9
$DIMCLRE
 70
     0
  9
$DIMCLRT
 70
     0
  9
$DIMTFAC
 40
1.0
  9
$DIMGAP
 40
0.09
  9
$DIMJUST
 70
     0
  9
$DIMSD1
 70
     0
  9
$DIMSD2
 70
     0
  9
$DIMTOLJ
 70
     1
  9
$DIMTZIN
 70
     0
  9
$DIMALTZ
 70
     0
  9
$DIMALTTZ
 70
     0
  9
$DIMUPT
 70
     0
  9
$DIMDEC
 70
     4
  9
$DIMTDEC
 70
     4
  9
$DIMALTU
 70
     2
  9
$DIMALTTD
 70
     2
  9
$DIMTXSTY
  7
Standard
  9
$DIMAUNIT
 70
     0
  9
$DIMADEC
 70
     0
  9
$DIMALTRND
 40
0.0
  9
$DIMAZIN
 70
     0
  9
$DIMDSEP
 70
    46
  9
$DIMATFIT
 70
     3
  9
$DIMFRAC
 70
     0
  9
$DIMLDRBLK
  1

  9
$DIMLUNIT
 70
     2
  9
$DIMLWD
 70
    -2
  9
$DIMLWE
 70
    -2
  9
$DIMTMOVE
 70
     0
  9
$DIMFXL
 40
1.0
  9
$DIMFXLON
 70
     0
  9
$DIMJOGANG
 40
0.7853981633974483
  9
$DIMTFILL
 70
     0
  9
$DIMTFILLCLR
 70
     0
  9
$DIMARCSYM
 70
     0
  9
$DIMLTYPE
  6

  9
$DIMLTEX1
  6

  9
$DIMLTEX2
  6

  9
$LUNITS
 70
     2
  9
$LUPREC
 70
     4
  9
$SKETCHINC
 40
0.1
  9
$FILLETRAD
 40
0.5
  9
$AUNITS
 70
     0
  9
$AUPREC
 70
     0
  9
$MENU
  1
.
  9
$ELEVATION
 40
0.0
  9
$PELEVATION
 40
0.0
  9
$THICKNESS
 40
0.0
  9
$LIMCHECK
 70
     0
  9
$CHAMFERA
 40
0.5
  9
$CHAMFERB
 40
0.5
  9
$CHAMFERC
 40
1.0
  9
$CHAMFERD
 40
0.0
  9
$SKPOLY
 70
     0
  9
$TDCREATE
 40
2459380.367974525
  9
$TDUCREATE
 40
2459380.32630787
  9
$TDUPDATE
 40
2459380.367974525
  9
$TDUUPDATE
 40
2459380.32630787
  9
$TDINDWG
 40
0.0000000116
  9
$TDUSRTIMER
 40
0.0000000116
  9
$USRTIMER
 70
     1
  9
$ANGBASE
 50
0.0
  9
$ANGDIR
 70
     0
  9
$PDMODE
 70
     0
  9
$PDSIZE
 40
0.0
  9
$PLINEWID
 40
0.0
  9
$SPLFRAME
 70
     0
  9
$SPLINETYPE
 70
     6
  9
$SPLINESEGS
 70
     8
  9
$HANDSEED
  5
143
  9
$SURFTAB1
 70
     6
  9
$SURFTAB2
 70
     6
  9
$SURFTYPE
 70
     6
  9
$SURFU
 70
     6
  9
$SURFV
 70
     6
  9
$UCSBASE
  2

  9
$UCSNAME
  2

  9
$UCSORG
 10
0.0
 20
0.0
 30
0.0
  9
$UCSXDIR
 10
1.0
 20
0.0
 30
0.0
  9
$UCSYDIR
 10
0.0
 20
1.0
 30
0.0
  9
$UCSORTHOREF
  2

  9
$UCSORTHOVIEW
 70
     0
  9
$UCSORGTOP
 10
0.0
 20
0.0
 30
0.0
  9
$UCSORGBOTTOM
 10
0.0
 20
0.0
 30
0.0
  9
$UCSORGLEFT
 10
0.0
 20
0.0
 30
0.0
  9
$UCSORGRIGHT
 10
0.0
 20
0.0
 30
0.0
  9
$UCSORGFRONT
 10
0.0
 20
0.0
 30
0.0
  9
$UCSORGBACK
 10
0.0
 20
0.0
 30
0.0
  9
$PUCSBASE
  2

  9
$PUCSNAME
  2

  9
$PUCSORG
 10
0.0
 20
0.0
 30
0.0
  9
$PUCSXDIR
 10
1.0
 20
0.0
 30
0.0
  9
$PUCSYDIR
 10
0.0
 20
1.0
 30
0.0
  9
$PUCSORTHOREF
  2

  9
$PUCSORTHOVIEW
 70
     0
  9
$PUCSORGTOP
 10
0.0
 20
0.0
 30
0.0
  9
$PUCSORGBOTTOM
 10
0.0
 20
0.0
 30
0.0
  9
$PUCSORGLEFT
 10
0.0
 20
0.0
 30
0.0
  9
$PUCSORGRIGHT
 10
0.0
 20
0.0
 30
0.0
  9
$PUCSORGFRONT
 10
0.0
 20
0.0
 30
0.0
  9
$PUCSORGBACK
 10
0.0
 20
0.0
 30
0.0
  9
$USERI1
 70
     0
  9
$USERI2
 70
     0
  9
$USERI3
 70
     0
  9
$USERI4
 70
     0
  9
$USERI5
 70
     0
  9
$USERR1
 40
0.0
  9
$USERR2
 40
0.0
  9
$USERR3
 40
0.0
  9
$USERR4
 40
0.0
  9
$USERR5
 40
0.0
  9
$WORLDVIEW
 70
     1
  9
$SHADEDGE
 70
     3
  9
$SHADEDIF
 70
    70
  9
$TILEMODE
 70
     1
  9
$MAXACTVP
 70
    64
  9
$PINSBASE
 10
0.0
 20
0.0
 30
0.0
  9
$PLIMCHECK
 70
     0
  9
$PEXTMIN
 10
1.000000000000000E+20
 20
1.000000000000000E+20
 30
1.000000000000000E+20
  9
$PEXTMAX
 10
-1.000000000000000E+20
 20
-1.000000000000000E+20
 30
-1.000000000000000E+20
  9
$PLIMMIN
 10
0.0
 20
0.0
  9
$PLIMMAX
 10
12.0
 20
9.0
  9
$UNITMODE
 70
     0
  9
$VISRETAIN
 70
     1
  9
$PLINEGEN
 70
     0
  9
$PSLTSCALE
 70
     1
  9
$TREEDEPTH
 70
  3020
  9
$CMLSTYLE
  2
Standard
  9
$CMLJUST
 70
     0
  9
$CMLSCALE
 40
1.0
  9
$PROXYGRAPHICS
 70
     1
  9
$MEASUREMENT
 70
     0
  9
$CELWEIGHT
370
    -1
  9
$ENDCAPS
280
     0
  9
$JOINSTYLE
280
     0
  9
$LWDISPLAY
290
     1
  9
$INSUNITS
 70
     1
  9
$HYPERLINKBASE
  1

  9
$STYLESHEET
  1

  9
$XEDIT
290
     1
  9
$CEPSNTYPE
380
     0
  9
$PSTYLEMODE
290
     1
  9
$FINGERPRINTGUID
  2
{95D7A409-BE28-9210-A8E9-A21EA0C3EF01}
  9
$VERSIONGUID
  2
{FAEB1C32-E019-11D5-929B-00C0DF256EC4}
  9
$EXTNAMES
290
     1
  9
$PSVPSCALE
 40
0.0
  9
$OLESTARTUP
290
     0
  9
$SORTENTS
280
   127
  9
$INDEXCTL
280
     0
  9
$HIDETEXT
280
     1
  9
$XCLIPFRAME
290
     0
  9
$HALOGAP
280
     0
  9
$OBSCOLOR
 70
   257
  9
$OBSLTYPE
280
     0
  9
$INTERSECTIONDISPLAY
280
     0
  9
$INTERSECTIONCOLOR
 70
   257
  9
$DIMASSOC
280
     2
  9
$PROJECTNAME
  1

  9
$CAMERADISPLAY
290
     0
  9
$LENSLENGTH
 40
50.0
  9
$CAMERAHEIGHT
 40
0.0
  9
$STEPSPERSEC
 40
2.0
  9
$STEPSIZE
 40
6.0
  9
$3DDWFPREC
 40
2.0
  9
$PSOLWIDTH
 40
0.25
  9
$PSOLHEIGHT
 40
4.0
  9
$LOFTANG1
 40
1.570796326794897
  9
$LOFTANG2
 40
1.570796326794897
  9
$LOFTMAG1
 40
0.0
  9
$LOFTMAG2
 40
0.0
  9
$LOFTPARAM
 70
     7
  9
$LOFTNORMALS
280
     1
  9
$LATITUDE
 40
37.795
  9
$LONGITUDE
 40
-122.394
  9
$NORTHDIRECTION
 40
0.0
  9
$TIMEZONE
 70
 -8000
  9
$LIGHTGLYPHDISPLAY
280
     1
  9
$TILEMODELIGHTSYNCH
280
     1
  9
$CMATERIAL
347
3C
  9
$SOLIDHIST
280
     1
  9
$SHOWHIST
280
     1
  9
$DWFFRAME
280
     2
  9
$DGNFRAME
280
     2
  9
$REALWORLDSCALE
290
     1
  9
$INTERFERECOLOR
 62
   256
  9
$CSHADOW
280
     0
  9
$SHADOWPLANELOCATION
 40
0.0
  0
ENDSEC
  0
SECTION
  2
CLASSES
  0
CLASS
  1
ACDBDICTIONARYWDFLT
  2
AcDbDictionaryWithDefault
  3
ObjectDBX Classes
 90
        0
 91
        4
280
     0
281
     0
  0
CLASS
  1
VISUALSTYLE
  2
AcDbVisualStyle
  3
ObjectDBX Classes
 90
     4095
 91
        4
280
     0
281
     0
  0
CLASS
  1
MATERIAL
  2
AcDbMaterial
  3
ObjectDBX Classes
 90
     1153
 91
        4
280
     0
281
     0
  0
CLASS
  1
SUN
  2
AcDbSun
  3
SCENEOE
 90
     1024
 91
        4
280
     0
281
     0
  0
ENDSEC
  0
SECTION
  2
TABLES
  0
TABLE
  2
VPORT
  5
8
330
0
100
AcDbSymbolTable
 70
     1
  0
VPORT
  5
29
330
8
100
AcDbSymbolTableRecord
100
AcDbViewportTableRecord
  2
*Active
 70
     0
 10
0.0
 20
0.0
 11
1.0
 21
1.0
 12
0.0
 22
0.0
 13
0.0
 23
0.0
 14
0.5
 24
0.5
 15
0.5
 25
0.5
 16
0.0
 26
0.0
 36
1.0
 17
105.0007777515277
 27
-148.5000416295416
 37
0.0
 40
297.0000832590831
 41
0.7070757462376333
 42
50.0
 43
0.0
 44
0.0
 50
0.0
 51
0.0
 71
     0
 72
   100
 73
     1
 74
     3
 75
     0
 76
     0
 77
     0
 78
     0
281
     0
 65
     1
110
0.0
120
0.0
130
0.0
111
1.0
121
0.0
131
0.0
112
0.0
122
1.0
132
0.0
 79
     0
146
0.0
 60
     3
 61
     5
292
     1
282
     1
141
0.0
142
0.0
 63
   250
361
3F
  0
ENDTAB
  0
TABLE
  2
LTYPE
  5
5
330
0
100
AcDbSymbolTable
 70
    11
  0
LTYPE
  5
14
330
5
100
AcDbSymbolTableRecord
100
AcDbLinetypeTableRecord
  2
ByBlock
 70
     0
  3

 72
    65
 73
     0
 40
0.0
  0
LTYPE
  5
15
330
5
100
AcDbSymbolTableRecord
100
AcDbLinetypeTableRecord
  2
ByLayer
 70
     0
  3

 72
    65
 73
     0
 40
0.0
  0
LTYPE
  5
16
330
5
100
AcDbSymbolTableRecord
100
AcDbLinetypeTableRecord
  2
Continuous
 70
     0
  3
Solid line
 72
    65
 73
     0
 40
0.0
  0
LTYPE
  5
C2
330
5
100
AcDbSymbolTableRecord
100
AcDbLinetypeTableRecord
  2
AI-Linetype-1
 70
     0
  3
Adobe Illustrator Linetype No. 1
 72
    65
 73
     2
 40
8.794680799828715
 49
4.397340399914357
 74
     0
 49
-4.397340399914357
 74
     0
  0
LTYPE
  5
C7
330
5
100
AcDbSymbolTableRecord
100
AcDbLinetypeTableRecord
  2
AI-Linetype-2
 70
     0
  3
Adobe Illustrator Linetype No. 2
 72
    65
 73
     4
 40
39.57626075020132
 49
26.38423955045825
 74
     0
 49
-4.397340399914357
 74
     0
 49
4.397340399914357
 74
     0
 49
-4.397340399914357
 74
     0
  0
LTYPE
  5
DC
330
5
100
AcDbSymbolTableRecord
100
AcDbLinetypeTableRecord
  2
AI-Linetype-3
 70
     0
  3
Adobe Illustrator Linetype No. 3
 72
    65
 73
     2
 40
8.776306732950644
 49
4.388153366475322
 74
     0
 49
-4.388153366475322
 74
     0
  0
LTYPE
  5
E1
330
5
100
AcDbSymbolTableRecord
100
AcDbLinetypeTableRecord
  2
AI-Linetype-4
 70
     0
  3
Adobe Illustrator Linetype No. 4
 72
    65
 73
     4
 40
39.49357543063937
 49
26.3291153312134
 74
     0
 49
-4.388153366475322
 74
     0
 49
4.388153366475322
 74
     0
 49
-4.388153366475322
 74
     0
  0
LTYPE
  5
F8
330
5
100
AcDbSymbolTableRecord
100
AcDbLinetypeTableRecord
  2
AI-Linetype-5
 70
     0
  3
Adobe Illustrator Linetype No. 5
 72
    65
 73
     2
 40
9.583727436848656
 49
4.791863718424328
 74
     0
 49
-4.791863718424328
 74
     0
  0
LTYPE
  5
FD
330
5
100
AcDbSymbolTableRecord
100
AcDbLinetypeTableRecord
  2
AI-Linetype-6
 70
     0
  3
Adobe Illustrator Linetype No. 6
 72
    65
 73
     4
 40
43.12698541993573
 49
28.75139426466274
 74
     0
 49
-4.791863718424328
 74
     0
 49
4.791863718424328
 74
     0
 49
-4.791863718424328
 74
     0
  0
LTYPE
  5
112
330
5
100
AcDbSymbolTableRecord
100
AcDbLinetypeTableRecord
  2
AI-Linetype-7
 70
     0
  3
Adobe Illustrator Linetype No. 7
 72
    65
 73
     2
 40
9.583717343795477
 49
4.791858671897739
 74
     0
 49
-4.791858671897739
 74
     0
  0
LTYPE
  5
117
330
5
100
AcDbSymbolTableRecord
100
AcDbLinetypeTableRecord
  2
AI-Linetype-8
 70
     0
  3
Adobe Illustrator Linetype No. 8
 72
    65
 73
     4
 40
43.12694067406663
 49
28.75136465837341
 74
     0
 49
-4.791858671897739
 74
     0
 49
4.791858671897739
 74
     0
 49
-4.791858671897739
 74
     0
  0
LTYPE
  5
11E
330
5
100
AcDbSymbolTableRecord
100
AcDbLinetypeTableRecord
  2
AI-Linetype-9
 70
     0
  3
Adobe Illustrator Linetype No. 9
 72
    65
 73
     2
 40
7.270862246391072
 49
3.635375106750391
 74
     0
 49
-3.635487139640682
 74
     0
  0
LTYPE
  5
120
330
5
100
AcDbSymbolTableRecord
100
AcDbLinetypeTableRecord
  2
AI-Linetype-10
 70
     0
  3
Adobe Illustrator Linetype No. 10
 72
    65
 73
     2
 40
7.270862246391072
 49
3.635375106750391
 74
     0
 49
-3.635487139640682
 74
     0
  0
ENDTAB
  0
TABLE
  2
LAYER
  5
2
330
0
100
AcDbSymbolTable
 70
     1
  0
LAYER
  5
10
330
2
100
AcDbSymbolTableRecord
100
AcDbLayerTableRecord
  2
0
 70
     0
 62
     7
  6
Continuous
370
    -3
390
F
347
3E
  0
ENDTAB
  0
TABLE
  2
STYLE
  5
3
330
0
100
AcDbSymbolTable
 70
     1
  0
STYLE
  5
11
330
3
100
AcDbSymbolTableRecord
100
AcDbTextStyleTableRecord
  2
Standard
 70
     0
 40
0.0
 41
1.0
 50
0.0
 71
     0
 42
0.2
  3
txt
  4

  0
ENDTAB
  0
TABLE
  2
VIEW
  5
6
330
0
100
AcDbSymbolTable
 70
     0
  0
ENDTAB
  0
TABLE
  2
UCS
  5
7
330
0
100
AcDbSymbolTable
 70
     0
  0
ENDTAB
  0
TABLE
  2
APPID
  5
9
330
0
100
AcDbSymbolTable
 70
     1
  0
APPID
  5
12
330
9
100
AcDbSymbolTableRecord
100
AcDbRegAppTableRecord
  2
ACAD
 70
     0
  0
ENDTAB
  0
TABLE
  2
DIMSTYLE
  5
A
330
0
100
AcDbSymbolTable
 70
     1
100
AcDbDimStyleTable
  0
DIMSTYLE
105
27
330
A
100
AcDbSymbolTableRecord
100
AcDbDimStyleTableRecord
  2
Standard
 70
     0
178
     0
340
11
  0
ENDTAB
  0
TABLE
  2
BLOCK_RECORD
  5
1
330
0
100
AcDbSymbolTable
 70
     9
  0
BLOCK_RECORD
  5
1F
330
1
100
AcDbSymbolTableRecord
100
AcDbBlockTableRecord
  2
*Model_Space
340
22
 70
     0
280
     1
281
     0
  0
BLOCK_RECORD
  5
1B
330
1
100
AcDbSymbolTableRecord
100
AcDbBlockTableRecord
  2
*Paper_Space
340
1E
 70
     0
280
     1
281
     0
  0
BLOCK_RECORD
  5
23
330
1
100
AcDbSymbolTableRecord
100
AcDbBlockTableRecord
  2
*Paper_Space0
340
26
 70
     0
280
     1
281
     0
  0
BLOCK_RECORD
  5
B3
330
1
100
AcDbSymbolTableRecord
100
AcDbBlockTableRecord
  2
block 2
340
0
102
{BLKREFS
331
B4
102
}
 70
     0
280
     1
281
     0
  0
BLOCK_RECORD
  5
B7
330
1
100
AcDbSymbolTableRecord
100
AcDbBlockTableRecord
  2
block 3
340
0
102
{BLKREFS
331
B8
102
}
 70
     0
280
     1
281
     0
  0
BLOCK_RECORD
  5
CD
330
1
100
AcDbSymbolTableRecord
100
AcDbBlockTableRecord
  2
block 4
340
0
102
{BLKREFS
331
CE
102
}
 70
     0
280
     1
281
     0
  0
BLOCK_RECORD
  5
D1
330
1
100
AcDbSymbolTableRecord
100
AcDbBlockTableRecord
  2
block 5
340
0
102
{BLKREFS
331
D2
102
}
 70
     0
280
     1
281
     0
  0
BLOCK_RECORD
  5
E9
330
1
100
AcDbSymbolTableRecord
100
AcDbBlockTableRecord
  2
block 6
340
0
102
{BLKREFS
331
EA
102
}
 70
     0
280
     1
281
     0
  0
BLOCK_RECORD
  5
ED
330
1
100
AcDbSymbolTableRecord
100
AcDbBlockTableRecord
  2
block 7
340
0
102
{BLKREFS
331
EE
102
}
 70
     0
280
     1
281
     0
  0
BLOCK_RECORD
  5
103
330
1
100
AcDbSymbolTableRecord
100
AcDbBlockTableRecord
  2
block 8
340
0
102
{BLKREFS
331
104
102
}
 70
     0
280
     1
281
     0
  0
BLOCK_RECORD
  5
107
330
1
100
AcDbSymbolTableRecord
100
AcDbBlockTableRecord
  2
block 9
340
0
102
{BLKREFS
331
108
102
}
 70
     0
280
     1
281
     0
  0
ENDTAB
  0
ENDSEC
  0
SECTION
  2
BLOCKS
  0
BLOCK
  5
20
330
1F
100
AcDbEntity
  8
0
100
AcDbBlockBegin
  2
*Model_Space
 70
     0
 10
0.0
 20
0.0
 30
0.0
  3
*Model_Space
  1

  0
ENDBLK
  5
21
330
1F
100
AcDbEntity
  8
0
100
AcDbBlockEnd
  0
BLOCK
  5
1C
330
1B
100
AcDbEntity
 67
     1
  8
0
100
AcDbBlockBegin
  2
*Paper_Space
 70
     0
 10
0.0
 20
0.0
 30
0.0
  3
*Paper_Space
  1

  0
ENDBLK
  5
1D
330
1B
100
AcDbEntity
 67
     1
  8
0
100
AcDbBlockEnd
  0
BLOCK
  5
24
330
23
100
AcDbEntity
  8
0
100
AcDbBlockBegin
  2
*Paper_Space0
 70
     0
 10
0.0
 20
0.0
 30
0.0
  3
*Paper_Space0
  1

  0
ENDBLK
  5
25
330
23
100
AcDbEntity
  8
0
100
AcDbBlockEnd
  0
BLOCK
  5
B5
330
B3
100
AcDbEntity
  8
0
100
AcDbBlockBegin
  2
block 2
 70
     0
 10
0.0
 20
0.0
 30
0.0
  3
block 2
  1

  0
INSERT
  5
B8
330
B3
100
AcDbEntity
  8
0
100
AcDbBlockReference
  2
block 3
 10
0.0
 20
0.0
 30
0.0
  0
ENDBLK
  5
B6
330
B3
100
AcDbEntity
  8
0
100
AcDbBlockEnd
  0
BLOCK
  5
B9
330
B7
100
AcDbEntity
  8
0
100
AcDbBlockBegin
  2
block 3
 70
     0
 10
0.0
 20
0.0
 30
0.0
  3
block 3
  1

  0
POLYLINE
  5
BB
330
B7
100
AcDbEntity
  8
0
 62
     4
370
    25
100
AcDb2dPolyline
 66
     1
 10
0.0
 20
0.0
 30
0.0
  0
VERTEX
  5
BC
330
BB
100
AcDbEntity
  8
0
 62
     4
370
    25
100
AcDbVertex
100
AcDb2dVertex
 10
53.92689245783176
 20
-229.3631962520668
 30
0.0
  0
VERTEX
  5
BD
330
BB
100
AcDbEntity
  8
0
 62
     4
370
    25
100
AcDbVertex
100
AcDb2dVertex
 10
65.1769755730341
 20
-229.3631962520668
 30
0.0
  0
SEQEND
  5
BE
330
BB
100
AcDbEntity
  8
0
 62
     4
370
    25
  0
POLYLINE
  5
BF
330
B7
100
AcDbEntity
  8
0
  6
AI-Linetype-1
 62
     4
370
    25
100
AcDb2dPolyline
 66
     1
 10
0.0
 20
0.0
 30
0.0
  0
VERTEX
  5
C0
330
BF
100
AcDbEntity
  8
0
  6
AI-Linetype-1
 62
     4
370
    25
100
AcDbVertex
100
AcDb2dVertex
 10
69.57431698225378
 20
-229.3631962520668
 30
0.0
  0
VERTEX
  5
C1
330
BF
100
AcDbEntity
  8
0
  6
AI-Linetype-1
 62
     4
370
    25
100
AcDbVertex
100
AcDb2dVertex
 10
76.17032371312159
 20
-229.3631962520668
 30
0.0
  0
SEQEND
  5
C3
330
BF
100
AcDbEntity
  8
0
  6
AI-Linetype-1
 62
     4
370
    25
  0
POLYLINE
  5
C4
330
B7
100
AcDbEntity
  8
0
  6
AI-Linetype-2
 62
     4
370
    25
100
AcDb2dPolyline
 66
     1
 10
0.0
 20
0.0
 30
0.0
  0
VERTEX
  5
C5
330
C4
100
AcDbEntity
  8
0
  6
AI-Linetype-2
 62
     4
370
    25
100
AcDbVertex
100
AcDb2dVertex
 10
78.36899441773143
 20
-229.3631962520668
 30
0.0
  0
VERTEX
  5
C6
330
C4
100
AcDbEntity
  8
0
  6
AI-Linetype-2
 62
     4
370
    25
100
AcDbVertex
100
AcDb2dVertex
 10
155.3228405034328
 20
-229.3631962520668
 30
0.0
  0
SEQEND
  5
C8
330
C4
100
AcDbEntity
  8
0
  6
AI-Linetype-2
 62
     4
370
    25
  0
POLYLINE
  5
C9
330
B7
100
AcDbEntity
  8
0
 62
     4
370
    25
100
AcDb2dPolyline
 66
     1
 10
0.0
 20
0.0
 30
0.0
  0
VERTEX
  5
CA
330
C9
100
AcDbEntity
  8
0
 62
     4
370
    25
100
AcDbVertex
100
AcDb2dVertex
 10
157.5215112080426
 20
-229.3631962520668
 30
0.0
  0
VERTEX
  5
CB
330
C9
100
AcDbEntity
  8
0
 62
     4
370
    25
100
AcDbVertex
100
AcDb2dVertex
 10
168.7715997062066
 20
-229.3631962520668
 30
0.0
  0
SEQEND
  5
CC
330
C9
100
AcDbEntity
  8
0
 62
     4
370
    25
  0
ENDBLK
  5
BA
330
B7
100
AcDbEntity
  8
0
100
AcDbBlockEnd
  0
BLOCK
  5
CF
330
CD
100
AcDbEntity
  8
0
100
AcDbBlockBegin
  2
block 4
 70
     0
 10
0.0
 20
0.0
 30
0.0
  3
block 4
  1

  0
INSERT
  5
D2
330
CD
100
AcDbEntity
  8
0
100
AcDbBlockReference
  2
block 5
 10
0.0
 20
0.0
 30
0.0
  0
ENDBLK
  5
D0
330
CD
100
AcDbEntity
  8
0
100
AcDbBlockEnd
  0
BLOCK
  5
D3
330
D1
100
AcDbEntity
  8
0
100
AcDbBlockBegin
  2
block 5
 70
     0
 10
0.0
 20
0.0
 30
0.0
  3
block 5
  1

  0
POLYLINE
  5
D5
330
D1
100
AcDbEntity
  8
0
 62
     4
370
    25
100
AcDb2dPolyline
 66
     1
 10
0.0
 20
0.0
 30
0.0
  0
VERTEX
  5
D6
330
D5
100
AcDbEntity
  8
0
 62
     4
370
    25
100
AcDbVertex
100
AcDb2dVertex
 10
111.3492433905383
 20
-172.7573275664027
 30
0.0
  0
VERTEX
  5
D7
330
D5
100
AcDbEntity
  8
0
 62
     4
370
    25
100
AcDbVertex
100
AcDb2dVertex
 10
111.3492433905383
 20
-184.0074160645667
 30
0.0
  0
SEQEND
  5
D8
330
D5
100
AcDbEntity
  8
0
 62
     4
370
    25
  0
POLYLINE
  5
D9
330
D1
100
AcDbEntity
  8
0
  6
AI-Linetype-3
 62
     4
370
    25
100
AcDb2dPolyline
 66
     1
 10
0.0
 20
0.0
 30
0.0
  0
VERTEX
  5
DA
330
D9
100
AcDbEntity
  8
0
  6
AI-Linetype-3
 62
     4
370
    25
100
AcDbVertex
100
AcDb2dVertex
 10
111.3492433905383
 20
-188.3955633752101
 30
0.0
  0
VERTEX
  5
DB
330
D9
100
AcDbEntity
  8
0
  6
AI-Linetype-3
 62
     4
370
    25
100
AcDbVertex
100
AcDb2dVertex
 10
111.3492433905383
 20
-194.9777843411753
 30
0.0
  0
SEQEND
  5
DD
330
D9
100
AcDbEntity
  8
0
  6
AI-Linetype-3
 62
     4
370
    25
  0
POLYLINE
  5
DE
330
D1
100
AcDbEntity
  8
0
  6
AI-Linetype-4
 62
     4
370
    25
100
AcDb2dPolyline
 66
     1
 10
0.0
 20
0.0
 30
0.0
  0
VERTEX
  5
DF
330
DE
100
AcDbEntity
  8
0
  6
AI-Linetype-4
 62
     4
370
    25
100
AcDbVertex
100
AcDb2dVertex
 10
111.3492433905383
 20
-197.1718795283438
 30
0.0
  0
VERTEX
  5
E0
330
DE
100
AcDbEntity
  8
0
  6
AI-Linetype-4
 62
     4
370
    25
100
AcDbVertex
100
AcDb2dVertex
 10
111.3492433905383
 20
-273.9649526970795
 30
0.0
  0
SEQEND
  5
E2
330
DE
100
AcDbEntity
  8
0
  6
AI-Linetype-4
 62
     4
370
    25
  0
POLYLINE
  5
E3
330
D1
100
AcDbEntity
  8
0
 62
     4
370
    25
100
AcDb2dPolyline
 66
     1
 10
0.0
 20
0.0
 30
0.0
  0
VERTEX
  5
E4
330
E3
100
AcDbEntity
  8
0
 62
     4
370
    25
100
AcDbVertex
100
AcDb2dVertex
 10
111.3492433905383
 20
-276.1590263524012
 30
0.0
  0
VERTEX
  5
E5
330
E3
100
AcDbEntity
  8
0
 62
     4
370
    25
100
AcDbVertex
100
AcDb2dVertex
 10
111.3492433905383
 20
-287.4091148505653
 30
0.0
  0
SEQEND
  5
E6
330
E3
100
AcDbEntity
  8
0
 62
     4
370
    25
  0
ENDBLK
  5
D4
330
D1
100
AcDbEntity
  8
0
100
AcDbBlockEnd
  0
BLOCK
  5
EB
330
E9
100
AcDbEntity
  8
0
100
AcDbBlockBegin
  2
block 6
 70
     0
 10
0.0
 20
0.0
 30
0.0
  3
block 6
  1

  0
INSERT
  5
EE
330
E9
100
AcDbEntity
  8
0
100
AcDbBlockReference
  2
block 7
 10
0.0
 20
0.0
 30
0.0
  0
ENDBLK
  5
EC
330
E9
100
AcDbEntity
  8
0
100
AcDbBlockEnd
  0
BLOCK
  5
EF
330
ED
100
AcDbEntity
  8
0
100
AcDbBlockBegin
  2
block 7
 70
     0
 10
0.0
 20
0.0
 30
0.0
  3
block 7
  1

  0
POLYLINE
  5
F1
330
ED
100
AcDbEntity
  8
0
 62
     4
370
    25
100
AcDb2dPolyline
 66
     1
 10
0.0
 20
0.0
 30
0.0
  0
VERTEX
  5
F2
330
F1
100
AcDbEntity
  8
0
 62
     4
370
    25
100
AcDbVertex
100
AcDb2dVertex
 10
71.29205235712274
 20
-79.59438796702632
 30
0.0
  0
VERTEX
  5
F3
330
F1
100
AcDbEntity
  8
0
 62
     4
370
    25
100
AcDbVertex
100
AcDb2dVertex
 10
82.54213547232509
 20
-79.59438796702632
 30
0.0
  0
SEQEND
  5
F4
330
F1
100
AcDbEntity
  8
0
 62
     4
370
    25
  0
POLYLINE
  5
F5
330
ED
100
AcDbEntity
  8
0
  6
AI-Linetype-5
 62
     4
370
    25
100
AcDb2dPolyline
 66
     1
 10
0.0
 20
0.0
 30
0.0
  0
VERTEX
  5
F6
330
F5
100
AcDbEntity
  8
0
  6
AI-Linetype-5
 62
     4
370
    25
100
AcDbVertex
100
AcDb2dVertex
 10
87.33399952718452
 20
-79.59438796702632
 30
0.0
  0
VERTEX
  5
F7
330
F5
100
AcDbEntity
  8
0
  6
AI-Linetype-5
 62
     4
370
    25
100
AcDbVertex
100
AcDb2dVertex
 10
94.52179291799283
 20
-79.59438796702632
 30
0.0
  0
SEQEND
  5
F9
330
F5
100
AcDbEntity
  8
0
  6
AI-Linetype-5
 62
     4
370
    25
  0
POLYLINE
  5
FA
330
ED
100
AcDbEntity
  8
0
  6
AI-Linetype-6
 62
     4
370
    25
100
AcDb2dPolyline
 66
     1
 10
0.0
 20
0.0
 30
0.0
  0
VERTEX
  5
FB
330
FA
100
AcDbEntity
  8
0
  6
AI-Linetype-6
 62
     4
370
    25
100
AcDbVertex
100
AcDb2dVertex
 10
96.91772763690338
 20
-79.59438796702632
 30
0.0
  0
VERTEX
  5
FC
330
FA
100
AcDbEntity
  8
0
  6
AI-Linetype-6
 62
     4
370
    25
100
AcDbVertex
100
AcDb2dVertex
 10
137.6487793472339
 20
-79.59438796702632
 30
0.0
  0
SEQEND
  5
FE
330
FA
100
AcDbEntity
  8
0
  6
AI-Linetype-6
 62
     4
370
    25
  0
POLYLINE
  5
FF
330
ED
100
AcDbEntity
  8
0
 62
     4
370
    25
100
AcDb2dPolyline
 66
     1
 10
0.0
 20
0.0
 30
0.0
  0
VERTEX
  5
100
330
FF
100
AcDbEntity
  8
0
 62
     4
370
    25
100
AcDbVertex
100
AcDb2dVertex
 10
140.0447140661444
 20
-79.59438796702632
 30
0.0
  0
VERTEX
  5
101
330
FF
100
AcDbEntity
  8
0
 62
     4
370
    25
100
AcDbVertex
100
AcDb2dVertex
 10
151.2947917983851
 20
-79.59438796702632
 30
0.0
  0
SEQEND
  5
102
330
FF
100
AcDbEntity
  8
0
 62
     4
370
    25
  0
ENDBLK
  5
F0
330
ED
100
AcDbEntity
  8
0
100
AcDbBlockEnd
  0
BLOCK
  5
105
330
103
100
AcDbEntity
  8
0
100
AcDbBlockBegin
  2
block 8
 70
     0
 10
0.0
 20
0.0
 30
0.0
  3
block 8
  1

  0
INSERT
  5
108
330
103
100
AcDbEntity
  8
0
100
AcDbBlockReference
  2
block 9
 10
0.0
 20
0.0
 30
0.0
  0
ENDBLK
  5
106
330
103
100
AcDbEntity
  8
0
100
AcDbBlockEnd
  0
BLOCK
  5
109
330
107
100
AcDbEntity
  8
0
100
AcDbBlockBegin
  2
block 9
 70
     0
 10
0.0
 20
0.0
 30
0.0
  3
block 9
  1

  0
POLYLINE
  5
10B
330
107
100
AcDbEntity
  8
0
 62
     4
370
    25
100
AcDb2dPolyline
 66
     1
 10
0.0
 20
0.0
 30
0.0
  0
VERTEX
  5
10C
330
10B
100
AcDbEntity
  8
0
 62
     4
370
    25
100
AcDbVertex
100
AcDb2dVertex
 10
111.2934220777539
 20
-119.5957038580405
 30
0.0
  0
VERTEX
  5
10D
330
10B
100
AcDbEntity
  8
0
 62
     4
370
    25
100
AcDbVertex
100
AcDb2dVertex
 10
111.2934220777539
 20
-108.3456153598765
 30
0.0
  0
SEQEND
  5
10E
330
10B
100
AcDbEntity
  8
0
 62
     4
370
    25
  0
POLYLINE
  5
10F
330
107
100
AcDbEntity
  8
0
  6
AI-Linetype-7
 62
     4
370
    25
100
AcDb2dPolyline
 66
     1
 10
0.0
 20
0.0
 30
0.0
  0
VERTEX
  5
110
330
10F
100
AcDbEntity
  8
0
  6
AI-Linetype-7
 62
     4
370
    25
100
AcDbVertex
100
AcDb2dVertex
 10
111.2934220777539
 20
-103.5537566879787
 30
0.0
  0
VERTEX
  5
111
330
10F
100
AcDbEntity
  8
0
  6
AI-Linetype-7
 62
     4
370
    25
100
AcDbVertex
100
AcDb2dVertex
 10
111.2934220777539
 20
-96.36597406309384
 30
0.0
  0
SEQEND
  5
113
330
10F
100
AcDbEntity
  8
0
  6
AI-Linetype-7
 62
     4
370
    25
  0
POLYLINE
  5
114
330
107
100
AcDbEntity
  8
0
  6
AI-Linetype-8
 62
     4
370
    25
100
AcDb2dPolyline
 66
     1
 10
0.0
 20
0.0
 30
0.0
  0
VERTEX
  5
115
330
114
100
AcDbEntity
  8
0
  6
AI-Linetype-8
 62
     4
370
    25
100
AcDbVertex
100
AcDb2dVertex
 10
111.2934220777539
 20
-93.97003934418328
 30
0.0
  0
VERTEX
  5
116
330
114
100
AcDbEntity
  8
0
  6
AI-Linetype-8
 62
     4
370
    25
100
AcDbVertex
100
AcDb2dVertex
 10
111.2934220777539
 20
-53.23903069754636
 30
0.0
  0
SEQEND
  5
118
330
114
100
AcDbEntity
  8
0
  6
AI-Linetype-8
 62
     4
370
    25
  0
POLYLINE
  5
119
330
107
100
AcDbEntity
  8
0
 62
     4
370
    25
100
AcDb2dPolyline
 66
     1
 10
0.0
 20
0.0
 30
0.0
  0
VERTEX
  5
11A
330
119
100
AcDbEntity
  8
0
 62
     4
370
    25
100
AcDbVertex
100
AcDb2dVertex
 10
111.2934220777539
 20
-50.8431013615975
 30
0.0
  0
VERTEX
  5
11B
330
119
100
AcDbEntity
  8
0
 62
     4
370
    25
100
AcDbVertex
100
AcDb2dVertex
 10
111.2934220777539
 20
-39.5930155549143
 30
0.0
  0
SEQEND
  5
11C
330
119
100
AcDbEntity
  8
0
 62
     4
370
    25
  0
ENDBLK
  5
10A
330
107
100
AcDbEntity
  8
0
100
AcDbBlockEnd
  0
ENDSEC
  0
SECTION
  2
ENTITIES
  0
SPLINE
  5
40
330
1F
100
AcDbEntity
  8
0
 62
   250
370
    25
100
AcDbSpline
210
0.0
220
0.0
230
1.0
 70
     8
 71
     3
 72
    38
 73
    34
 74
     0
 42
0.0000000001
 43
0.0000000001
 12
1.0
 22
0.0
 32
0.0
 13
1.0
 23
0.0
 33
0.0
 40
0.0
 40
0.0
 40
0.0
 40
0.0
 40
1.0
 40
1.0
 40
1.0
 40
2.0
 40
2.0
 40
2.0
 40
3.0
 40
3.0
 40
3.0
 40
4.0
 40
4.0
 40
4.0
 40
5.0
 40
5.0
 40
5.0
 40
6.0
 40
6.0
 40
6.0
 40
7.0
 40
7.0
 40
7.0
 40
8.0
 40
8.0
 40
8.0
 40
9.0
 40
9.0
 40
9.0
 40
10.0
 40
10.0
 40
10.0
 40
11.0
 40
11.0
 40
11.0
 40
11.0
 10
124.0451268205174
 20
-148.9272919547797
 30
0.0
 10
124.096597440164
 20
-148.971777526907
 30
0.0
 10
124.1477152796894
 20
-149.0210609085628
 30
0.0
 10
124.1791832664781
 20
-149.0823035360117
 30
0.0
 10
124.2037014848842
 20
-149.1300346851741
 30
0.0
 10
124.2162957351984
 20
-149.1850331046388
 30
0.0
 10
124.2095929129044
 20
-149.2378442874096
 30
0.0
 10
124.204407045126
 20
-149.2788373364286
 30
0.0
 10
124.1876147113718
 20
-149.3184545430077
 30
0.0
 10
124.1658128998902
 20
-149.3541558903517
 30
0.0
 10
124.1289120992461
 20
-149.4145518455304
 30
0.0
 10
124.0776178696569
 20
-149.4636588371288
 30
0.0
 10
124.0224783367547
 20
-149.5074388490335
 30
0.0
 10
123.9486414574355
 20
-149.5661061816639
 30
0.0
 10
123.8678548097387
 20
-149.6152131732559
 30
0.0
 10
123.7844575891437
 20
-149.6590637411861
 30
0.0
 10
123.677424100449
 20
-149.7154027250776
 30
0.0
 10
123.5660514162627
 20
-149.7630633182178
 30
0.0
 10
123.4533028896046
 20
-149.8068080521095
 30
0.0
 10
123.151887554268
 20
-149.9237546592462
 30
0.0
 10
122.8405590975286
 20
-150.012725803504
 30
0.0
 10
122.5267259019288
 20
-150.0906196522431
 30
0.0
 10
122.1115389775839
 20
-150.1936314449557
 30
0.0
 10
121.6919070237098
 20
-150.277205053504
 30
0.0
 10
121.2706170032679
 20
-150.350653872828
 30
0.0
 10
120.6298624695884
 20
-150.4623440562997
 30
0.0
 10
119.9851920765576
 20
-150.5506449183441
 30
0.0
 10
119.3390047290105
 20
-150.6251167999938
 30
0.0
 10
118.5174151053293
 20
-150.7198029820636
 30
0.0
 10
117.6934618548385
 20
-150.7921229050318
 30
0.0
 10
116.8684502639781
 20
-150.849096893127
 30
0.0
 10
115.1765520819048
 20
-150.9659376662356
 30
0.0
 10
113.4803499823601
 20
-151.0181844008275
 30
0.0
 10
111.7845359409489
 20
-151.0218533139932
 30
0.0
  0
SPLINE
  5
41
330
1F
100
AcDbEntity
  8
0
 62
   250
370
    25
100
AcDbSpline
210
0.0
220
0.0
230
1.0
 70
     8
 71
     3
 72
     8
 73
     4
 74
     0
 42
0.0000000001
 43
0.0000000001
 12
1.0
 22
0.0
 32
0.0
 13
1.0
 23
0.0
 33
0.0
 40
0.0
 40
0.0
 40
0.0
 40
0.0
 40
1.0
 40
1.0
 40
1.0
 40
1.0
 10
111.7120043480756
 20
-147.3581965724501
 30
0.0
 10
111.6878389097908
 20
-147.3581965724501
 30
0.0
 10
111.6636734715059
 20
-147.3581965724501
 30
0.0
 10
111.6394727552087
 20
-147.3582318504631
 30
0.0
  0
SPLINE
  5
42
330
1F
100
AcDbEntity
  8
0
 62
   250
370
    25
100
AcDbSpline
210
0.0
220
0.0
230
1.0
 70
    24
 71
     3
 72
    23
 73
    19
 74
     0
 42
0.0000000001
 43
0.0000000001
 12
1.0
 22
0.0
 32
0.0
 13
1.0
 23
0.0
 33
0.0
 40
0.0
 40
0.0
 40
0.0
 40
0.0
 40
1.0
 40
1.0
 40
1.0
 40
2.0
 40
2.0
 40
2.0
 40
3.0
 40
3.0
 40
3.0
 40
4.0
 40
4.0
 40
4.0
 40
5.0
 40
5.0
 40
5.0
 40
6.0
 40
6.0
 40
6.0
 40
6.0
 10
-205.7961370483273
 20
-12.42638857733997
 30
0.0
 10
-205.7992415133918
 20
-12.42638857733997
 30
0.0
 10
-205.7939850895913
 20
-12.42638857733997
 30
0.0
 10
-205.7890108898866
 20
-12.42638857733997
 30
0.0
 10
-205.7764871955913
 20
-12.42638857733997
 30
0.0
 10
-205.7656568458791
 20
-12.42638857733997
 30
0.0
 10
-205.7547912181539
 20
-12.42638857733997
 30
0.0
 10
-205.7093178605627
 20
-12.42638857733997
 30
0.0
 10
-205.66331533279
 20
-12.42638857733997
 30
0.0
 10
-205.6173128050173
 20
-12.42638857733997
 30
0.0
 10
-205.435595764719
 20
-12.42638857733997
 30
0.0
 10
-205.2540903924879
 20
-12.42638857733997
 30
0.0
 10
-205.072549742247
 20
-12.42638857733997
 30
0.0
 10
-204.3551713662919
 20
-12.42638857733997
 30
0.0
 10
-203.6377577123238
 20
-12.42638857733997
 30
0.0
 10
-202.9203087803433
 20
-12.42638857733997
 30
0.0
 10
-200.2194241743375
 20
-12.42638857733997
 30
0.0
 10
-197.5185395683349
 20
-12.42638857733997
 30
0.0
 10
-194.8176549623291
 20
-12.42638857733997
 30
0.0
  0
SPLINE
  5
43
330
1F
100
AcDbEntity
  8
0
 62
   250
370
    25
100
AcDbSpline
210
0.0
220
0.0
230
1.0
 70
    24
 71
     3
 72
     8
 73
     4
 74
     0
 42
0.0000000001
 43
0.0000000001
 12
1.0
 22
0.0
 32
0.0
 13
1.0
 23
0.0
 33
0.0
 40
0.0
 40
0.0
 40
0.0
 40
0.0
 40
1.0
 40
1.0
 40
1.0
 40
1.0
 10
418.2416989364953
 20
-12.42638857733997
 30
0.0
 10
421.9019690814264
 20
-12.42638857733997
 30
0.0
 10
425.5622745043719
 20
-12.42638857733997
 30
0.0
 10
429.2225446493109
 20
-12.42638857733997
 30
0.0
  0
SPLINE
  5
44
330
1F
100
AcDbEntity
  8
0
 62
   250
370
    25
100
AcDbSpline
210
0.0
220
0.0
230
1.0
 70
     8
 71
     3
 72
     8
 73
     4
 74
     0
 42
0.0000000001
 43
0.0000000001
 12
1.0
 22
0.0
 32
0.0
 13
1.0
 23
0.0
 33
0.0
 40
0.0
 40
0.0
 40
0.0
 40
0.0
 40
1.0
 40
1.0
 40
1.0
 40
1.0
 10
-213.3587903352029
 20
-15.11323253453127
 30
0.0
 10
-213.3621064683372
 20
-15.11439670893279
 30
0.0
 10
-213.3653167674399
 20
-15.11570199537871
 30
0.0
 10
-213.3683506764787
 20
-15.11750117399668
 30
0.0
  0
POLYLINE
  5
45
330
1F
100
AcDbEntity
  8
0
 62
   250
370
    25
100
AcDb2dPolyline
 66
     1
 10
0.0
 20
0.0
 30
0.0
  0
VERTEX
  5
46
330
45
100
AcDbEntity
  8
0
 62
   250
370
    25
100
AcDbVertex
100
AcDb2dVertex
 10
-194.8176549623291
 20
-12.42638857733997
 30
0.0
  0
VERTEX
  5
47
330
45
100
AcDbEntity
  8
0
 62
   250
370
    25
100
AcDbVertex
100
AcDb2dVertex
 10
111.7120043480756
 20
-12.42638857733997
 30
0.0
  0
SEQEND
  5
48
330
45
100
AcDbEntity
  8
0
 62
   250
370
    25
  0
SPLINE
  5
49
330
1F
100
AcDbEntity
  8
0
 62
   250
370
    25
100
AcDbSpline
210
0.0
220
0.0
230
1.0
 70
     8
 71
     3
 72
     8
 73
     4
 74
     0
 42
0.0000000001
 43
0.0000000001
 12
1.0
 22
0.0
 32
0.0
 13
1.0
 23
0.0
 33
0.0
 40
0.0
 40
0.0
 40
0.0
 40
0.0
 40
1.0
 40
1.0
 40
1.0
 40
1.0
 10
436.7981096886051
 20
-15.126426511056
 30
0.0
 10
436.8051652910255
 20
-15.126426511056
 30
0.0
 10
436.7960635639056
 20
-15.1196531327359
 30
0.0
 10
436.7923593726299
 20
-15.11750117399668
 30
0.0
  0
SPLINE
  5
4A
330
1F
100
AcDbEntity
  8
0
 62
   250
370
    25
100
AcDbSpline
210
0.0
220
0.0
230
1.0
 70
     8
 71
     3
 72
     8
 73
     4
 74
     0
 42
0.0000000001
 43
0.0000000001
 12
1.0
 22
0.0
 32
0.0
 13
1.0
 23
0.0
 33
0.0
 40
0.0
 40
0.0
 40
0.0
 40
0.0
 40
1.0
 40
1.0
 40
1.0
 40
1.0
 10
436.7923593726299
 20
-15.11750117399668
 30
0.0
 10
436.7893254635985
 20
-15.11570199537871
 30
0.0
 10
436.7861504424996
 20
-15.11439670893279
 30
0.0
 10
436.7828343093652
 20
-15.11323253453127
 30
0.0
  0
POLYLINE
  5
4B
330
1F
100
AcDbEntity
  8
0
 62
   250
370
    25
100
AcDb2dPolyline
 66
     1
 10
0.0
 20
0.0
 30
0.0
  0
VERTEX
  5
4C
330
4B
100
AcDbEntity
  8
0
 62
   250
370
    25
100
AcDbVertex
100
AcDb2dVertex
 10
111.7120043480756
 20
-12.42638857733997
 30
0.0
  0
VERTEX
  5
4D
330
4B
100
AcDbEntity
  8
0
 62
   250
370
    25
100
AcDbVertex
100
AcDb2dVertex
 10
418.2416989364953
 20
-12.42638857733997
 30
0.0
  0
SEQEND
  5
4E
330
4B
100
AcDbEntity
  8
0
 62
   250
370
    25
  0
SPLINE
  5
4F
330
1F
100
AcDbEntity
  8
0
 62
   250
370
    25
100
AcDbSpline
210
0.0
220
0.0
230
1.0
 70
     8
 71
     3
 72
     8
 73
     4
 74
     0
 42
0.0000000001
 43
0.0000000001
 12
1.0
 22
0.0
 32
0.0
 13
1.0
 23
0.0
 33
0.0
 40
0.0
 40
0.0
 40
0.0
 40
0.0
 40
1.0
 40
1.0
 40
1.0
 40
1.0
 10
-213.3741009924513
 20
-15.126426511056
 30
0.0
 10
-213.3811565948698
 20
-15.126426511056
 30
0.0
 10
-213.3720195897374
 20
-15.1196531327359
 30
0.0
 10
-213.3683506764787
 20
-15.11750117399668
 30
0.0
  0
SPLINE
  5
50
330
1F
100
AcDbEntity
  8
0
 62
   250
370
    25
100
AcDbSpline
210
0.0
220
0.0
230
1.0
 70
     8
 71
     3
 72
    38
 73
    34
 74
     0
 42
0.0000000001
 43
0.0000000001
 12
1.0
 22
0.0
 32
0.0
 13
1.0
 23
0.0
 33
0.0
 40
0.0
 40
0.0
 40
0.0
 40
0.0
 40
1.0
 40
1.0
 40
1.0
 40
2.0
 40
2.0
 40
2.0
 40
3.0
 40
3.0
 40
3.0
 40
4.0
 40
4.0
 40
4.0
 40
5.0
 40
5.0
 40
5.0
 40
6.0
 40
6.0
 40
6.0
 40
7.0
 40
7.0
 40
7.0
 40
8.0
 40
8.0
 40
8.0
 40
9.0
 40
9.0
 40
9.0
 40
10.0
 40
10.0
 40
10.0
 40
11.0
 40
11.0
 40
11.0
 40
11.0
 10
99.37891715364654
 20
-148.9272919547797
 30
0.0
 10
99.32730542195523
 20
-148.9719186389578
 30
0.0
 10
99.27597591435368
 20
-149.0213784106647
 30
0.0
 10
99.24454320558341
 20
-149.0828327061807
 30
0.0
 10
99.22006026518362
 20
-149.1307755234033
 30
0.0
 10
99.20764240492677
 20
-149.1860208889508
 30
0.0
 10
99.21459217331007
 20
-149.238973183766
 30
0.0
 10
99.21998970915821
 20
-149.2801426228424
 30
0.0
 10
99.23706426701504
 20
-149.319900941473
 30
0.0
 10
99.25918358059877
 20
-149.3556728448295
 30
0.0
 10
99.29661355142733
 20
-149.416315746091
 30
0.0
 10
99.3484369511987
 20
-149.4655638497339
 30
0.0
 10
99.40410565428851
 20
-149.509484973683
 30
0.0
 10
99.4786833718562
 20
-149.5683286963708
 30
0.0
 10
99.5602108578075
 20
-149.6175768000046
 30
0.0
 10
99.64434891665128
 20
-149.6615684799823
 30
0.0
 10
99.75233491167778
 20
-149.7180485759182
 30
0.0
 10
99.8646248241766
 20
-149.7658502810964
 30
0.0
 10
99.97829057914643
 20
-149.8097361270396
 30
0.0
 10
100.2821048193051
 20
-149.9270002362813
 30
0.0
 10
100.5957969028605
 20
-150.0162183266123
 30
0.0
 10
100.9119584472567
 20
-150.0942532873958
 30
0.0
 10
101.3300734466083
 20
-150.1974767481789
 30
0.0
 10
101.7525981974736
 20
-150.2811561907585
 30
0.0
 10
102.176816292919
 20
-150.3547108441152
 30
0.0
 10
102.8216983540196
 20
-150.4665068616182
 30
0.0
 10
103.4704962744589
 20
-150.5548077236626
 30
0.0
 10
104.1207758714079
 20
-150.6292090492927
 30
0.0
 10
104.9470221926827
 20
-150.7237541193149
 30
0.0
 10
105.7756674187859
 20
-150.7958623742223
 30
0.0
 10
106.6053357072459
 20
-150.8525188602163
 30
0.0
 10
108.3048539399321
 20
-150.9685835170762
 30
0.0
 10
110.0086408120708
 20
-151.0197719113308
 30
0.0
 10
111.7120043480756
 20
-151.0219238700186
 30
0.0
  0
SPLINE
  5
51
330
1F
100
AcDbEntity
  8
0
 62
   250
370
    25
100
AcDbSpline
210
0.0
220
0.0
230
1.0
 70
     8
 71
     3
 72
     8
 73
     4
 74
     0
 42
0.0000000001
 43
0.0000000001
 12
1.0
 22
0.0
 32
0.0
 13
1.0
 23
0.0
 33
0.0
 40
0.0
 40
0.0
 40
0.0
 40
0.0
 40
1.0
 40
1.0
 40
1.0
 40
1.0
 10
111.7120043480756
 20
-147.3581965724501
 30
0.0
 10
113.343436017417
 20
-147.3582671284722
 30
0.0
 10
122.4536651388832
 20
-147.608458783934
 30
0.0
 10
124.0451268205174
 20
-148.9272919547797
 30
0.0
  0
SPLINE
  5
52
330
1F
100
AcDbEntity
  8
0
 62
   250
370
    25
100
AcDbSpline
210
0.0
220
0.0
230
1.0
 70
     8
 71
     3
 72
     8
 73
     4
 74
     0
 42
0.0000000001
 43
0.0000000001
 12
1.0
 22
0.0
 32
0.0
 13
1.0
 23
0.0
 33
0.0
 40
0.0
 40
0.0
 40
0.0
 40
0.0
 40
1.0
 40
1.0
 40
1.0
 40
1.0
 10
111.6394727552087
 20
-147.3582318504631
 30
0.0
 10
110.0164019747343
 20
-147.3600663070492
 30
0.0
 10
100.9615593322595
 20
-147.6157613322524
 30
0.0
 10
99.37891715364654
 20
-148.9272919547797
 30
0.0
  0
SPLINE
  5
53
330
1F
100
AcDbEntity
  8
0
 62
   250
370
    25
100
AcDbSpline
210
0.0
220
0.0
230
1.0
 70
     8
 71
     3
 72
     8
 73
     4
 74
     0
 42
0.0000000001
 43
0.0000000001
 12
1.0
 22
0.0
 32
0.0
 13
1.0
 23
0.0
 33
0.0
 40
0.0
 40
0.0
 40
0.0
 40
0.0
 40
1.0
 40
1.0
 40
1.0
 40
1.0
 10
111.7845359409489
 20
-151.0218533139932
 30
0.0
 10
111.7603705026641
 20
-151.0218885920063
 30
0.0
 10
111.7362050643729
 20
-151.0219238700186
 30
0.0
 10
111.7120043480756
 20
-151.0219238700186
 30
0.0
  0
POLYLINE
  5
54
330
1F
100
AcDbEntity
  8
0
 62
   250
370
    25
100
AcDb2dPolyline
 66
     1
 10
0.0
 20
0.0
 30
0.0
  0
VERTEX
  5
55
330
54
100
AcDbEntity
  8
0
 62
   250
370
    25
100
AcDbVertex
100
AcDb2dVertex
 10
-213.3587903352029
 20
-15.11319725651825
 30
0.0
  0
VERTEX
  5
56
330
54
100
AcDbEntity
  8
0
 62
   250
370
    25
100
AcDbVertex
100
AcDb2dVertex
 10
-213.358084774961
 20
-15.11295031043543
 30
0.0
  0
SEQEND
  5
57
330
54
100
AcDbEntity
  8
0
 62
   250
370
    25
  0
SPLINE
  5
58
330
1F
100
AcDbEntity
  8
0
 62
   250
370
    25
100
AcDbSpline
210
0.0
220
0.0
230
1.0
 70
     8
 71
     3
 72
     8
 73
     4
 74
     0
 42
0.0000000001
 43
0.0000000001
 12
1.0
 22
0.0
 32
0.0
 13
1.0
 23
0.0
 33
0.0
 40
0.0
 40
0.0
 40
0.0
 40
0.0
 40
1.0
 40
1.0
 40
1.0
 40
1.0
 10
-213.3417510553594
 20
-15.10712943844064
 30
0.0
 10
-210.8273460212894
 20
-14.21364322610901
 30
0.0
 10
-208.3130115432448
 20
-13.32001590172593
 30
0.0
 10
-205.7986770652008
 20
-12.42638857733997
 30
0.0
  0
SPLINE
  5
59
330
1F
100
AcDbEntity
  8
0
 62
   250
370
    25
100
AcDbSpline
210
0.0
220
0.0
230
1.0
 70
     8
 71
     3
 72
    47
 73
    43
 74
     0
 42
0.0000000001
 43
0.0000000001
 12
1.0
 22
0.0
 32
0.0
 13
1.0
 23
0.0
 33
0.0
 40
0.0
 40
0.0
 40
0.0
 40
0.0
 40
1.0
 40
1.0
 40
1.0
 40
2.0
 40
2.0
 40
2.0
 40
3.0
 40
3.0
 40
3.0
 40
4.0
 40
4.0
 40
4.0
 40
5.0
 40
5.0
 40
5.0
 40
6.0
 40
6.0
 40
6.0
 40
7.0
 40
7.0
 40
7.0
 40
8.0
 40
8.0
 40
8.0
 40
9.0
 40
9.0
 40
9.0
 40
10.0
 40
10.0
 40
10.0
 40
11.0
 40
11.0
 40
11.0
 40
12.0
 40
12.0
 40
12.0
 40
13.0
 40
13.0
 40
13.0
 40
14.0
 40
14.0
 40
14.0
 40
14.0
 10
436.8017786018664
 20
-15.126426511056
 30
0.0
 10
436.7957107837818
 20
-47.96193016078428
 30
0.0
 10
436.8008260955347
 20
-80.79743381051256
 30
0.0
 10
436.800861373549
 20
-113.6329727382539
 30
0.0
 10
436.8009319295738
 20
-146.4735651635021
 30
0.0
 10
436.8009319295738
 20
-179.314183295364
 30
0.0
 10
436.8009319295738
 20
-212.1548014272188
 30
0.0
 10
436.8009672075875
 20
-244.9777452754629
 30
0.0
 10
436.8009672075875
 20
-277.8006891237128
 30
0.0
 10
436.8009672075875
 20
-310.6236329719562
 30
0.0
 10
436.8009672075875
 20
-343.4582185639005
 30
0.0
 10
436.8009672075875
 20
-376.2928041558473
 30
0.0
 10
436.8010024855979
 20
-409.127425025795
 30
0.0
 10
436.8010024855979
 20
-425.5895208959962
 30
0.0
 10
436.814972578386
 20
-442.0516167661975
 30
0.0
 10
436.8009319295738
 20
-458.5137117774159
 30
0.0
 10
436.7973688503508
 20
-462.6657221329465
 30
0.0
 10
436.5242464807073
 20
-466.6370737885343
 30
0.0
 10
435.1603632551013
 20
-470.6421159456729
 30
0.0
 10
433.7949277969583
 20
-474.651603132331
 30
0.0
 10
431.7803063602446
 20
-478.0018853849869
 30
0.0
 10
428.9508686781653
 20
-481.140076228921
 30
0.0
 10
426.1304268891676
 20
-484.2683186734444
 30
0.0
 10
423.0291368458763
 20
-486.6043580783627
 30
0.0
 10
419.1672175838086
 20
-488.3277948032458
 30
0.0
 10
415.2813092735186
 20
-490.0619207657969
 30
0.0
 10
411.3962829135323
 20
-490.6922682859157
 30
0.0
 10
407.2064898070486
 20
-490.8429406755732
 30
0.0
 10
403.1028103280927
 20
-490.9905086001598
 30
0.0
 10
398.9990250150985
 20
-490.9568533766271
 30
0.0
 10
394.895098590054
 20
-491.0007745016857
 30
0.0
 10
390.7911368870101
 20
-491.044695626745
 30
0.0
 10
386.6872104619656
 20
-491.0876642454718
 30
0.0
 10
382.5832487589113
 20
-491.1296803578804
 30
0.0
 10
374.3752900747981
 20
-491.2137478606985
 30
0.0
 10
366.1673313906779
 20
-491.2939700602049
 30
0.0
 10
357.959337428544
 20
-491.3703469563905
 30
0.0
 10
341.5433142262797
 20
-491.5231713047898
 30
0.0
 10
325.1271851899701
 20
-491.660684995935
 30
0.0
 10
308.7108797635966
 20
-491.7829233078435
 30
0.0
 10
243.0450583319241
 20
-492.2719118334959
 30
0.0
 10
177.3796602363855
 20
-492.5163531793057
 30
0.0
 10
111.7120043480756
 20
-492.5163884573168
 30
0.0
  0
SPLINE
  5
5A
330
1F
100
AcDbEntity
  8
0
 62
   250
370
    25
100
AcDbSpline
210
0.0
220
0.0
230
1.0
 70
     8
 71
     3
 72
    47
 73
    43
 74
     0
 42
0.0000000001
 43
0.0000000001
 12
1.0
 22
0.0
 32
0.0
 13
1.0
 23
0.0
 33
0.0
 40
0.0
 40
0.0
 40
0.0
 40
0.0
 40
1.0
 40
1.0
 40
1.0
 40
2.0
 40
2.0
 40
2.0
 40
3.0
 40
3.0
 40
3.0
 40
4.0
 40
4.0
 40
4.0
 40
5.0
 40
5.0
 40
5.0
 40
6.0
 40
6.0
 40
6.0
 40
7.0
 40
7.0
 40
7.0
 40
8.0
 40
8.0
 40
8.0
 40
9.0
 40
9.0
 40
9.0
 40
10.0
 40
10.0
 40
10.0
 40
11.0
 40
11.0
 40
11.0
 40
12.0
 40
12.0
 40
12.0
 40
13.0
 40
13.0
 40
13.0
 40
14.0
 40
14.0
 40
14.0
 40
14.0
 10
111.7120043480756
 20
-492.5163884573168
 30
0.0
 10
46.04434845976898
 20
-492.5163531793057
 30
0.0
 10
-19.62101435775406
 20
-492.2719118334959
 30
0.0
 10
-85.28687106744529
 20
-491.7829233078435
 30
0.0
 10
-101.7031412158032
 20
-491.660684995935
 30
0.0
 10
-118.1192702521097
 20
-491.5231713047898
 30
0.0
 10
-134.5352934543813
 20
-491.3703469563905
 30
0.0
 10
-142.7433226945237
 20
-491.2939700602049
 30
0.0
 10
-150.951281378643
 20
-491.2137478606985
 30
0.0
 10
-159.1592047847474
 20
-491.1296803578804
 30
0.0
 10
-163.2632017658134
 20
-491.0876642454718
 30
0.0
 10
-167.3671281908543
 20
-491.044695626745
 30
0.0
 10
-171.4710898939079
 20
-491.0007745016857
 30
0.0
 10
-175.5750163189485
 20
-490.9568533766271
 30
0.0
 10
-179.6788016319383
 20
-490.9905086001598
 30
0.0
 10
-183.7824811108964
 20
-490.8429406755732
 30
0.0
 10
-187.972732831533
 20
-490.6922682859157
 30
0.0
 10
-191.8581472496574
 20
-490.061779653748
 30
0.0
 10
-195.7444083400716
 20
-488.3272656330658
 30
0.0
 10
-199.6066451042459
 20
-486.6034408500447
 30
0.0
 10
-202.7081115375936
 20
-484.2669428309749
 30
0.0
 10
-205.5285886045996
 20
-481.1381359382567
 30
0.0
 10
-208.3580968427023
 20
-477.9993100901004
 30
0.0
 10
-210.3725418893609
 20
-474.6485339452782
 30
0.0
 10
-211.7375892893693
 20
-470.6383764763867
 30
0.0
 10
-213.1010844568493
 20
-466.6327698710539
 30
0.0
 10
-213.3733954322088
 20
-462.6608184892647
 30
0.0
 10
-213.3768879554069
 20
-458.5084906316316
 30
0.0
 10
-213.3907169361484
 20
-442.044596441971
 30
0.0
 10
-213.3769585114291
 20
-425.5807719492183
 30
0.0
 10
-213.3769585114291
 20
-409.1168769004453
 30
0.0
 10
-213.3769585114291
 20
-376.2790104534618
 30
0.0
 10
-213.3769585114291
 20
-343.4411440064739
 30
0.0
 10
-213.3769585114291
 20
-310.6032422814787
 30
0.0
 10
-213.3769585114291
 20
-277.7792048148913
 30
0.0
 10
-213.3769232334199
 20
-244.9552026263033
 30
0.0
 10
-213.3769232334199
 20
-212.1311651597158
 30
0.0
 10
-213.3769232334199
 20
-179.308926871695
 30
0.0
 10
-213.3768879554069
 20
-146.4866885836677
 30
0.0
 10
-213.3768526773939
 20
-113.6644407250436
 30
0.0
 10
-213.3768173993818
 20
-80.81842422770747
 30
0.0
 10
-213.3717020876289
 20
-47.97240773037876
 30
0.0
 10
-213.377734627697
 20
-15.126426511056
 30
0.0
  0
SPLINE
  5
5B
330
1F
100
AcDbEntity
  8
0
 62
   250
370
    25
100
AcDbSpline
210
0.0
220
0.0
230
1.0
 70
     8
 71
     3
 72
     8
 73
     4
 74
     0
 42
0.0000000001
 43
0.0000000001
 12
1.0
 22
0.0
 32
0.0
 13
1.0
 23
0.0
 33
0.0
 40
0.0
 40
0.0
 40
0.0
 40
0.0
 40
1.0
 40
1.0
 40
1.0
 40
1.0
 10
429.22272103936
 20
-12.42638857733997
 30
0.0
 10
431.7370555174078
 20
-13.32001590172593
 30
0.0
 10
434.2513899954556
 20
-14.21364322610901
 30
0.0
 10
436.7657597515177
 20
-15.10712943844064
 30
0.0
  0
POLYLINE
  5
5C
330
1F
100
AcDbEntity
  8
0
 62
   250
370
    25
100
AcDb2dPolyline
 66
     1
 10
0.0
 20
0.0
 30
0.0
  0
VERTEX
  5
5D
330
5C
100
AcDbEntity
  8
0
 62
   250
370
    25
100
AcDbVertex
100
AcDb2dVertex
 10
436.7821287491253
 20
-15.11295031043543
 30
0.0
  0
VERTEX
  5
5E
330
5C
100
AcDbEntity
  8
0
 62
   250
370
    25
100
AcDbVertex
100
AcDb2dVertex
 10
436.7828343093652
 20
-15.11319725651825
 30
0.0
  0
SEQEND
  5
5F
330
5C
100
AcDbEntity
  8
0
 62
   250
370
    25
  0
POLYLINE
  5
60
330
1F
100
AcDbEntity
  8
0
 62
   250
370
    25
100
AcDb2dPolyline
 66
     1
 10
0.0
 20
0.0
 30
0.0
  0
VERTEX
  5
61
330
60
100
AcDbEntity
  8
0
 62
   250
370
    25
100
AcDbVertex
100
AcDb2dVertex
 10
156.7123190745387
 20
-124.4271272110523
 30
0.0
  0
VERTEX
  5
62
330
60
100
AcDbEntity
  8
0
 62
   250
370
    25
100
AcDbVertex
100
AcDb2dVertex
 10
111.7120043480756
 20
-124.4271272110523
 30
0.0
  0
SEQEND
  5
63
330
60
100
AcDbEntity
  8
0
 62
   250
370
    25
  0
POLYLINE
  5
64
330
1F
100
AcDbEntity
  8
0
 62
   250
370
    25
100
AcDb2dPolyline
 66
     1
 10
0.0
 20
0.0
 30
0.0
  0
VERTEX
  5
65
330
64
100
AcDbEntity
  8
0
 62
   250
370
    25
100
AcDbVertex
100
AcDb2dVertex
 10
54.27290950294667
 20
-124.4271272110523
 30
0.0
  0
VERTEX
  5
66
330
64
100
AcDbEntity
  8
0
 62
   250
370
    25
100
AcDbVertex
100
AcDb2dVertex
 10
66.71172489963102
 20
-124.4271272110523
 30
0.0
  0
SEQEND
  5
67
330
64
100
AcDbEntity
  8
0
 62
   250
370
    25
  0
SPLINE
  5
68
330
1F
100
AcDbEntity
  8
0
 62
   250
370
    25
100
AcDbSpline
210
0.0
220
0.0
230
1.0
 70
     8
 71
     3
 72
    65
 73
    61
 74
     0
 42
0.0000000001
 43
0.0000000001
 12
1.0
 22
0.0
 32
0.0
 13
1.0
 23
0.0
 33
0.0
 40
0.0
 40
0.0
 40
0.0
 40
0.0
 40
1.0
 40
1.0
 40
1.0
 40
2.0
 40
2.0
 40
2.0
 40
3.0
 40
3.0
 40
3.0
 40
4.0
 40
4.0
 40
4.0
 40
5.0
 40
5.0
 40
5.0
 40
6.0
 40
6.0
 40
6.0
 40
7.0
 40
7.0
 40
7.0
 40
8.0
 40
8.0
 40
8.0
 40
9.0
 40
9.0
 40
9.0
 40
10.0
 40
10.0
 40
10.0
 40
11.0
 40
11.0
 40
11.0
 40
12.0
 40
12.0
 40
12.0
 40
13.0
 40
13.0
 40
13.0
 40
14.0
 40
14.0
 40
14.0
 40
15.0
 40
15.0
 40
15.0
 40
16.0
 40
16.0
 40
16.0
 40
17.0
 40
17.0
 40
17.0
 40
18.0
 40
18.0
 40
18.0
 40
19.0
 40
19.0
 40
19.0
 40
20.0
 40
20.0
 40
20.0
 40
20.0
 10
111.7120043480756
 20
-461.729373135913
 30
0.0
 10
68.82106779881948
 20
-461.729373135913
 30
0.0
 10
25.93013124956078
 20
-461.6249502201171
 30
0.0
 10
-16.96031140752618
 20
-461.4161043885106
 30
0.0
 10
-39.20510888020731
 20
-461.3077656133686
 30
0.0
 10
-61.44980051884711
 20
-461.1713455405907
 30
0.0
 10
-83.69424521141019
 20
-461.0068794482062
 30
0.0
 10
-97.378021654925
 20
-460.9056668315056
 30
0.0
 10
-111.0616922644046
 20
-460.7938708111798
 30
0.0
 10
-124.7452570398461
 20
-460.6714561092074
 30
0.0
 10
-126.7595609744535
 20
-460.6534290450243
 30
0.0
 10
-128.7738296310511
 20
-460.635190312774
 30
0.0
 10
-130.7880982876455
 20
-460.6164929663608
 30
0.0
 10
-131.6990823939809
 20
-460.6080615214742
 30
0.0
 10
-132.6100665003128
 20
-460.5995242425446
 30
0.0
 10
-133.5210506066479
 20
-460.5914455777786
 30
0.0
 10
-134.4457578596861
 20
-460.5832258009483
 30
0.0
 10
-135.3704651127246
 20
-460.5754999163087
 30
0.0
 10
-136.2951370877501
 20
-460.5648459566517
 30
0.0
 10
-137.1174322716738
 20
-460.5553561714013
 30
0.0
 10
-137.939692177588
 20
-460.5435380373485
 30
0.0
 10
-138.7614934693463
 20
-460.5148922915291
 30
0.0
 10
-139.7831094216093
 20
-460.4792614993115
 30
0.0
 10
-140.8040550916434
 20
-460.4176308121786
 30
0.0
 10
-141.8214729604663
 20
-460.3182879301207
 30
0.0
 10
-142.8324702310878
 20
-460.219615330293
 30
0.0
 10
-143.8400102565267
 20
-460.0836891496883
 30
0.0
 10
-144.8394363391808
 20
-459.9023601675229
 30
0.0
 10
-146.8149697384976
 20
-459.5439355646344
 30
0.0
 10
-148.758682370904
 20
-459.0079920048843
 30
0.0
 10
-150.6386123574415
 20
-458.3030667671985
 30
0.0
 10
-152.4199050221617
 20
-457.6351128861898
 30
0.0
 10
-154.143976751266
 20
-456.8154644550514
 30
0.0
 10
-155.7957285555735
 20
-455.8711426511416
 30
0.0
 10
-157.5153905331612
 20
-454.8880150349124
 30
0.0
 10
-159.1566647678806
 20
-453.7698431917948
 30
0.0
 10
-160.7093911922333
 20
-452.5401575552547
 30
0.0
 10
-162.8852684222368
 20
-450.817003098003
 30
0.0
 10
-164.8872250526125
 20
-448.8749485812207
 30
0.0
 10
-166.6810414116279
 20
-446.7563276183723
 30
0.0
 10
-168.3429532834178
 20
-444.7935296310034
 30
0.0
 10
-169.8261820239424
 20
-442.6791773075042
 30
0.0
 10
-171.0796450716981
 20
-440.4338730064169
 30
0.0
 10
-172.3863779177154
 20
-438.0932475190561
 30
0.0
 10
-173.443412994122
 20
-435.6103105345015
 30
0.0
 10
-174.1837220779347
 20
-433.0341337663309
 30
0.0
 10
-174.5250368449601
 20
-431.8463936851165
 30
0.0
 10
-174.7990058868902
 20
-430.638827361608
 30
0.0
 10
-175.0080633865662
 20
-429.4204306886545
 30
0.0
 10
-175.2211073016088
 20
-428.1787858063265
 30
0.0
 10
-175.3667349355372
 20
-426.9259225164284
 30
0.0
 10
-175.4546477416776
 20
-425.6698136494989
 30
0.0
 10
-175.5739579785854
 20
-423.9649332020427
 30
0.0
 10
-175.5869402870336
 20
-422.2541613267204
 30
0.0
 10
-175.5896919719798
 20
-420.5443772357094
 30
0.0
 10
-175.5903975322223
 20
-420.0842108575634
 30
0.0
 10
-175.5903975322223
 20
-419.6240797574324
 30
0.0
 10
-175.5903975322223
 20
-419.1639839353111
 30
0.0
 10
-175.5895155819198
 20
-355.9186943452228
 30
0.0
 10
-175.5902564201743
 20
-292.6732283650815
 30
0.0
 10
-175.589903640047
 20
-229.427832940967
 30
0.0
  0
SPLINE
  5
69
330
1F
100
AcDbEntity
  8
0
 62
   250
370
    25
100
AcDbSpline
210
0.0
220
0.0
230
1.0
 70
     8
 71
     3
 72
    68
 73
    64
 74
     0
 42
0.0000000001
 43
0.0000000001
 12
1.0
 22
0.0
 32
0.0
 13
1.0
 23
0.0
 33
0.0
 40
0.0
 40
0.0
 40
0.0
 40
0.0
 40
1.0
 40
1.0
 40
1.0
 40
2.0
 40
2.0
 40
2.0
 40
3.0
 40
3.0
 40
3.0
 40
4.0
 40
4.0
 40
4.0
 40
5.0
 40
5.0
 40
5.0
 40
6.0
 40
6.0
 40
6.0
 40
7.0
 40
7.0
 40
7.0
 40
8.0
 40
8.0
 40
8.0
 40
9.0
 40
9.0
 40
9.0
 40
10.0
 40
10.0
 40
10.0
 40
11.0
 40
11.0
 40
11.0
 40
12.0
 40
12.0
 40
12.0
 40
13.0
 40
13.0
 40
13.0
 40
14.0
 40
14.0
 40
14.0
 40
15.0
 40
15.0
 40
15.0
 40
16.0
 40
16.0
 40
16.0
 40
17.0
 40
17.0
 40
17.0
 40
18.0
 40
18.0
 40
18.0
 40
19.0
 40
19.0
 40
19.0
 40
20.0
 40
20.0
 40
20.0
 40
21.0
 40
21.0
 40
21.0
 40
21.0
 10
111.7120043480756
 20
-424.4583667447581
 30
0.0
 10
76.0692528858756
 20
-424.4583667447581
 30
0.0
 10
40.42646614566288
 20
-424.1711684555411
 30
0.0
 10
4.788336103046623
 20
-423.5967365991075
 30
0.0
 10
-13.30526240838411
 20
-423.3051285584982
 30
0.0
 10
-31.39766146740414
 20
-422.9394366943579
 30
0.0
 10
-49.48826134780909
 20
-422.4998021187357
 30
0.0
 10
-58.95395171914367
 20
-422.2697894856817
 30
0.0
 10
-68.41914819830652
 20
-422.0194919961938
 30
0.0
 10
-77.8837449512685
 20
-421.7490154842879
 30
0.0
 10
-83.4105041601281
 20
-421.5910758281302
 30
0.0
 10
-88.93705170091758
 20
-421.4262569597841
 30
0.0
 10
-94.46335229562456
 20
-421.2542766551703
 30
0.0
 10
-96.29907893300768
 20
-421.1971262770172
 30
0.0
 10
-98.13477029237777
 20
-421.1391997826204
 30
0.0
 10
-99.97049692976088
 20
-421.081484956291
 30
0.0
 10
-100.2876462584983
 20
-421.0715012791176
 30
0.0
 10
-100.6048308652451
 20
-421.061517601948
 30
0.0
 10
-100.9219801939793
 20
-421.0508636425624
 30
0.0
 10
-101.6320912994397
 20
-421.0269804289792
 30
0.0
 10
-102.3420965708712
 20
-420.9996046922825
 30
0.0
 10
-103.0518196181973
 20
-420.9655966894866
 30
0.0
 10
-104.757511503002
 20
-420.8838928155387
 30
0.0
 10
-106.4614747652081
 20
-420.7639475774445
 30
0.0
 10
-108.1610282759031
 20
-420.5984584268836
 30
0.0
 10
-109.6380480863053
 20
-420.4546299752024
 30
0.0
 10
-111.1117517635669
 20
-420.2764054626024
 30
0.0
 10
-112.5788937305787
 20
-420.0515434191886
 30
0.0
 10
-115.0649705209331
 20
-419.6705056201784
 30
0.0
 10
-117.5322441308476
 20
-419.1554113785867
 30
0.0
 10
-119.9421556930922
 20
-418.4367277343381
 30
0.0
 10
-122.0195719913384
 20
-417.8171753015749
 30
0.0
 10
-124.0543371729627
 20
-417.0463154787598
 30
0.0
 10
-125.9988611996461
 20
-416.0880941384363
 30
0.0
 10
-127.9216892488925
 20
-415.1405620355083
 30
0.0
 10
-129.7562517118773
 20
-414.0098312204007
 30
0.0
 10
-131.4530182596166
 20
-412.7004878345692
 30
0.0
 10
-133.4284811029076
 20
-411.1760544144237
 30
0.0
 10
-135.2171468721578
 20
-409.409437447362
 30
0.0
 10
-136.7808447582735
 20
-407.4645606896893
 30
0.0
 10
-138.4552803243593
 20
-405.3819585762726
 30
0.0
 10
-139.8717277879924
 20
-403.09492038793
 30
0.0
 10
-141.0322332738737
 20
-400.6874783473553
 30
0.0
 10
-142.2637181200901
 20
-398.1328211660192
 30
0.0
 10
-143.2070521635141
 20
-395.4425553096165
 30
0.0
 10
-143.8852013900195
 20
-392.6891770911672
 30
0.0
 10
-144.568642318341
 20
-389.9144909539537
 30
0.0
 10
-144.9827709023253
 20
-387.0757399483901
 30
0.0
 10
-145.1972612158621
 20
-384.226158593402
 30
0.0
 10
-145.2845037397733
 20
-383.0671700913152
 30
0.0
 10
-145.3387260443632
 20
-381.9063824106592
 30
0.0
 10
-145.3717462636845
 20
-380.7446422237067
 30
0.0
 10
-145.4089998444589
 20
-379.4356163399674
 30
0.0
 10
-145.4193363020025
 20
-378.1253910038572
 30
0.0
 10
-145.4215940947766
 20
-376.8157653939337
 30
0.0
 10
-145.4223349330318
 20
-376.3770127685838
 30
0.0
 10
-145.4221938209804
 20
-375.9383306992651
 30
0.0
 10
-145.4220879869455
 20
-375.4996133519359
 30
0.0
 10
-145.4219115968849
 20
-374.7660423869552
 30
0.0
 10
-145.4219115968849
 20
-374.0324008659645
 30
0.0
 10
-145.4219115968849
 20
-373.2987593449622
 30
0.0
 10
-145.4218763188725
 20
-325.3417956363004
 30
0.0
 10
-145.4219115968849
 20
-277.3848319276366
 30
0.0
 10
-145.4219115968849
 20
-229.427832940967
 30
0.0
  0
SPLINE
  5
6A
330
1F
100
AcDbEntity
  8
0
 62
   250
370
    25
100
AcDbSpline
210
0.0
220
0.0
230
1.0
 70
     8
 71
     3
 72
    62
 73
    58
 74
     0
 42
0.0000000001
 43
0.0000000001
 12
1.0
 22
0.0
 32
0.0
 13
1.0
 23
0.0
 33
0.0
 40
0.0
 40
0.0
 40
0.0
 40
0.0
 40
1.0
 40
1.0
 40
1.0
 40
2.0
 40
2.0
 40
2.0
 40
3.0
 40
3.0
 40
3.0
 40
4.0
 40
4.0
 40
4.0
 40
5.0
 40
5.0
 40
5.0
 40
6.0
 40
6.0
 40
6.0
 40
7.0
 40
7.0
 40
7.0
 40
8.0
 40
8.0
 40
8.0
 40
9.0
 40
9.0
 40
9.0
 40
10.0
 40
10.0
 40
10.0
 40
11.0
 40
11.0
 40
11.0
 40
12.0
 40
12.0
 40
12.0
 40
13.0
 40
13.0
 40
13.0
 40
14.0
 40
14.0
 40
14.0
 40
15.0
 40
15.0
 40
15.0
 40
16.0
 40
16.0
 40
16.0
 40
17.0
 40
17.0
 40
17.0
 40
18.0
 40
18.0
 40
18.0
 40
19.0
 40
19.0
 40
19.0
 40
19.0
 10
111.7120043480756
 20
-486.4730533173447
 30
0.0
 10
61.24021105770881
 20
-486.4728769272809
 30
0.0
 10
10.76841776733462
 20
-486.3284840237759
 30
0.0
 10
-39.70256412876154
 20
-486.0394512706838
 30
0.0
 10
-64.93801979879547
 20
-485.8949525331429
 30
0.0
 10
-90.17329907876557
 20
-485.7142585551902
 30
0.0
 10
-115.4082255786244
 20
-485.4979337850256
 30
0.0
 10
-129.602898193301
 20
-485.3762246432938
 30
0.0
 10
-143.7974649739394
 20
-485.2432265376962
 30
0.0
 10
-157.9919259205427
 20
-485.0981280739506
 30
0.0
 10
-164.6004500922915
 20
-485.030605958797
 30
0.0
 10
-171.2089742640407
 20
-484.9604379927385
 30
0.0
 10
-177.8174631577772
 20
-484.8886119601147
 30
0.0
 10
-179.0028749201982
 20
-484.8757354856982
 30
0.0
 10
-180.1882514046062
 20
-484.862788455264
 30
0.0
 10
-181.3736278890149
 20
-484.8488536404838
 30
0.0
 10
-181.7682477323115
 20
-484.8441969428898
 30
0.0
 10
-182.1628675756078
 20
-484.8394344112504
 30
0.0
 10
-182.5573815848656
 20
-484.8314968585295
 30
0.0
 10
-182.951683926054
 20
-484.8235593058091
 30
0.0
 10
-183.3458804332068
 20
-484.8124467319969
 30
0.0
 10
-183.7399711063215
 20
-484.7972066307778
 30
0.0
 10
-184.7766154917373
 20
-484.7570249750015
 30
0.0
 10
-185.8126601509461
 20
-484.6881622953882
 30
0.0
 10
-186.8421783779212
 20
-484.5607733937169
 30
0.0
 10
-187.7614880951083
 20
-484.4470723607334
 30
0.0
 10
-188.6756119445171
 20
-484.2866985177481
 30
0.0
 10
-189.5759068131848
 20
-484.0685040129375
 30
0.0
 10
-191.2842798269039
 20
-483.6544812629865
 30
0.0
 10
-192.9427697315213
 20
-483.0321771296303
 30
0.0
 10
-194.4996589613048
 20
-482.217325606262
 30
0.0
 10
-196.1698258879245
 20
-481.3431364665444
 30
0.0
 10
-197.7230462044493
 20
-480.2473308548435
 30
0.0
 10
-199.1306741650587
 20
-478.9916452923306
 30
0.0
 10
-200.543664383506
 20
-477.731126642153
 30
0.0
 10
-201.8098980716366
 20
-476.3094580327355
 30
0.0
 10
-202.9017878239958
 20
-474.7627288704344
 30
0.0
 10
-204.4144384266119
 20
-472.6200482498116
 30
0.0
 10
-205.5925476405284
 20
-470.2373713129024
 30
0.0
 10
-206.3244605574672
 20
-467.7195443116602
 30
0.0
 10
-206.6789693010109
 20
-466.4999481555202
 30
0.0
 10
-206.9288081826689
 20
-465.2486723445159
 30
0.0
 10
-207.0839608798635
 20
-463.9880831383205
 30
0.0
 10
-207.2658190322126
 20
-462.5106399917773
 30
0.0
 10
-207.3176777099929
 20
-461.0204262048529
 30
0.0
 10
-207.3297780681415
 20
-459.5315177043769
 30
0.0
 10
-207.3329883672441
 20
-459.137885645418
 30
0.0
 10
-207.3334117033872
 20
-458.7443594204989
 30
0.0
 10
-207.3336586494701
 20
-458.3507979175647
 30
0.0
 10
-207.3340467076043
 20
-457.7581273143637
 30
0.0
 10
-207.3340467076043
 20
-457.1654223261983
 30
0.0
 10
-207.3340114295916
 20
-456.5727164599551
 30
0.0
 10
-207.3327766991708
 20
-335.4951953189239
 30
0.0
 10
-207.3334469814003
 20
-214.4177094558973
 30
0.0
 10
-207.3344347657379
 20
-93.34021350883408
 30
0.0
 10
-207.3346111557986
 20
-74.41331307370014
 30
0.0
 10
-207.3347522678462
 20
-55.48641263857324
 30
0.0
 10
-207.3334469814003
 20
-36.55947692542659
 30
0.0
  0
POLYLINE
  5
6B
330
1F
100
AcDbEntity
  8
0
 62
   250
370
    25
100
AcDb2dPolyline
 66
     1
 10
0.0
 20
0.0
 30
0.0
  0
VERTEX
  5
6C
330
6B
100
AcDbEntity
  8
0
 62
   250
370
    25
100
AcDbVertex
100
AcDb2dVertex
 10
-15.65562468620998
 20
-124.4271272110523
 30
0.0
  0
VERTEX
  5
6D
330
6B
100
AcDbEntity
  8
0
 62
   250
370
    25
100
AcDbVertex
100
AcDb2dVertex
 10
54.27290950294667
 20
-124.4271272110523
 30
0.0
  0
SEQEND
  5
6E
330
6B
100
AcDbEntity
  8
0
 62
   250
370
    25
  0
POLYLINE
  5
6F
330
1F
100
AcDbEntity
  8
0
 62
   250
370
    25
100
AcDb2dPolyline
 66
     1
 10
0.0
 20
0.0
 30
0.0
  0
VERTEX
  5
70
330
6F
100
AcDbEntity
  8
0
 62
   250
370
    25
100
AcDbVertex
100
AcDb2dVertex
 10
-61.85937823927659
 20
-124.4271272110523
 30
0.0
  0
VERTEX
  5
71
330
6F
100
AcDbEntity
  8
0
 62
   250
370
    25
100
AcDbVertex
100
AcDb2dVertex
 10
-15.65562468620998
 20
-124.4271272110523
 30
0.0
  0
SEQEND
  5
72
330
6F
100
AcDbEntity
  8
0
 62
   250
370
    25
  0
POLYLINE
  5
73
330
1F
100
AcDbEntity
  8
0
 62
   250
370
    25
100
AcDb2dPolyline
 66
     1
 10
0.0
 20
0.0
 30
0.0
  0
VERTEX
  5
74
330
73
100
AcDbEntity
  8
0
 62
   250
370
    25
100
AcDbVertex
100
AcDb2dVertex
 10
-85.5893094651387
 20
-124.4271272110523
 30
0.0
  0
VERTEX
  5
75
330
73
100
AcDbEntity
  8
0
 62
   250
370
    25
100
AcDbVertex
100
AcDb2dVertex
 10
-61.85937823927659
 20
-124.4271272110523
 30
0.0
  0
SEQEND
  5
76
330
73
100
AcDbEntity
  8
0
 62
   250
370
    25
  0
SPLINE
  5
77
330
1F
100
AcDbEntity
  8
0
 62
   250
370
    25
100
AcDbSpline
210
0.0
220
0.0
230
1.0
 70
     8
 71
     3
 72
    65
 73
    61
 74
     0
 42
0.0000000001
 43
0.0000000001
 12
1.0
 22
0.0
 32
0.0
 13
1.0
 23
0.0
 33
0.0
 40
0.0
 40
0.0
 40
0.0
 40
0.0
 40
1.0
 40
1.0
 40
1.0
 40
2.0
 40
2.0
 40
2.0
 40
3.0
 40
3.0
 40
3.0
 40
4.0
 40
4.0
 40
4.0
 40
5.0
 40
5.0
 40
5.0
 40
6.0
 40
6.0
 40
6.0
 40
7.0
 40
7.0
 40
7.0
 40
8.0
 40
8.0
 40
8.0
 40
9.0
 40
9.0
 40
9.0
 40
10.0
 40
10.0
 40
10.0
 40
11.0
 40
11.0
 40
11.0
 40
12.0
 40
12.0
 40
12.0
 40
13.0
 40
13.0
 40
13.0
 40
14.0
 40
14.0
 40
14.0
 40
15.0
 40
15.0
 40
15.0
 40
16.0
 40
16.0
 40
16.0
 40
17.0
 40
17.0
 40
17.0
 40
18.0
 40
18.0
 40
18.0
 40
19.0
 40
19.0
 40
19.0
 40
20.0
 40
20.0
 40
20.0
 40
20.0
 10
111.7120043480756
 20
-481.1729906142064
 30
0.0
 10
161.2269873944045
 20
-481.1728495021569
 30
0.0
 10
210.7419704407276
 20
-481.0342069146265
 30
0.0
 10
260.2561420927833
 20
-480.7557575651531
 30
0.0
 10
285.1069615969424
 20
-480.6159860812373
 30
0.0
 10
309.9576047110384
 20
-480.4410424192559
 30
0.0
 10
334.8079303230389
 20
-480.2312440813247
 30
0.0
 10
348.9237213026662
 20
-480.1121102344794
 30
0.0
 10
363.0394064482601
 20
-479.9817227017763
 30
0.0
 10
377.1549857598253
 20
-479.8406106533977
 30
0.0
 10
381.8006413385984
 20
-479.7941847894806
 30
0.0
 10
386.4462969173676
 20
-479.7465947511632
 30
0.0
 10
391.0919524961438
 20
-479.6972055342247
 30
0.0
 10
394.7859484206325
 20
-479.6579058287521
 30
0.0
 10
398.4799443451319
 20
-479.617477226891
 30
0.0
 10
402.174010825653
 20
-479.5781069653937
 30
0.0
 10
402.9495626435558
 20
-479.5698166325527
 30
0.0
 10
403.7251497394626
 20
-479.5615968557333
 30
0.0
 10
404.5005251673093
 20
-479.5525656846381
 30
0.0
 10
405.2156810284972
 20
-479.544275351794
 30
0.0
 10
405.9306957776382
 20
-479.5352794587093
 30
0.0
 10
406.6459927508788
 20
-479.5124193068723
 30
0.0
 10
408.2084206285651
 20
-479.4625009197602
 30
0.0
 10
409.7722949047424
 20
-479.3464009819579
 30
0.0
 10
411.300467832676
 20
-479.020255760139
 30
0.0
 10
411.9785465031578
 20
-478.8755453545168
 30
0.0
 10
412.6495695712193
 20
-478.6895243967439
 30
0.0
 10
413.3045411437788
 20
-478.4606759322795
 30
0.0
 10
413.9718247425612
 20
-478.2275235503457
 30
0.0
 10
414.6224571196299
 20
-477.949991429193
 30
0.0
 10
415.2522049135369
 20
-477.6312545899113
 30
0.0
 10
416.604340561129
 20
-476.9468964332814
 30
0.0
 10
417.8601319576816
 20
-476.072742571575
 30
0.0
 10
418.994708104668
 20
-475.0654847702357
 30
0.0
 10
420.1446654649327
 20
-474.0445391001971
 30
0.0
 10
421.1700914425014
 20
-472.8868558552825
 30
0.0
 10
422.0511950725853
 20
-471.6270074873414
 30
0.0
 10
422.6557896438782
 20
-470.7624845229386
 30
0.0
 10
423.1924034858577
 20
-469.8498423500354
 30
0.0
 10
423.6451967711014
 20
-468.8971596334047
 30
0.0
 10
424.077846311437
 20
-467.986739975268
 30
0.0
 10
424.4339425655199
 20
-467.0397370185884
 30
0.0
 10
424.706288818895
 20
-466.0691683498209
 30
0.0
 10
424.8414388832343
 20
-465.5874470946627
 30
0.0
 10
424.9559865885041
 20
-465.0999402455194
 30
0.0
 10
425.0498613786852
 20
-464.6084469810156
 30
0.0
 10
425.1411961520012
 20
-464.1302182490555
 30
0.0
 10
425.2129869066138
 20
-463.6482147697918
 30
0.0
 10
425.2687261657329
 20
-463.1646943360194
 30
0.0
 10
425.4092737659133
 20
-461.9451687359009
 30
0.0
 10
425.4477267991028
 20
-460.7159064044434
 30
0.0
 10
425.4553821277248
 20
-459.4878082473888
 30
0.0
 10
425.457287140378
 20
-459.183323725
 30
0.0
 10
425.457287140378
 20
-458.8789097586297
 30
0.0
 10
425.457287140378
 20
-458.5744957922625
 30
0.0
 10
425.4579927006218
 20
-348.9045437676004
 30
0.0
 10
425.4574988084491
 20
-239.2342381053809
 30
0.0
 10
425.4574635304386
 20
-129.5640291082566
 30
0.0
 10
425.4574635304386
 20
-98.56301736548745
 30
0.0
 10
425.4574988084491
 20
-67.56204090073128
 30
0.0
 10
425.4541473973043
 20
-36.56106443596835
 30
0.0
  0
SPLINE
  5
78
330
1F
100
AcDbEntity
  8
0
 62
   250
370
    25
100
AcDbSpline
210
0.0
220
0.0
230
1.0
 70
     8
 71
     3
 72
     8
 73
     4
 74
     0
 42
0.0000000001
 43
0.0000000001
 12
1.0
 22
0.0
 32
0.0
 13
1.0
 23
0.0
 33
0.0
 40
0.0
 40
0.0
 40
0.0
 40
0.0
 40
1.0
 40
1.0
 40
1.0
 40
1.0
 10
-207.3334469814003
 20
-36.55947692542659
 30
0.0
 10
-205.5656657953069
 20
-36.55972387150941
 30
0.0
 10
-203.7978846092231
 20
-36.55993553958595
 30
0.0
 10
-202.0301387011489
 20
-36.56106443596835
 30
0.0
  0
SPLINE
  5
79
330
1F
100
AcDbEntity
  8
0
 62
   250
370
    25
100
AcDbSpline
210
0.0
220
0.0
230
1.0
 70
     8
 71
     3
 72
     8
 73
     4
 74
     0
 42
0.0000000001
 43
0.0000000001
 12
1.0
 22
0.0
 32
0.0
 13
1.0
 23
0.0
 33
0.0
 40
0.0
 40
0.0
 40
0.0
 40
0.0
 40
1.0
 40
1.0
 40
1.0
 40
1.0
 10
-205.8640119436016
 20
-30.26499761735093
 30
0.0
 10
-206.8671422175269
 20
-32.29672888993289
 30
0.0
 10
-207.3333058693491
 20
-34.29360548656543
 30
0.0
 10
-207.3334469814003
 20
-36.55947692542659
 30
0.0
  0
SPLINE
  5
7A
330
1F
100
AcDbEntity
  8
0
 62
   250
370
    25
100
AcDbSpline
210
0.0
220
0.0
230
1.0
 70
     8
 71
     3
 72
    17
 73
    13
 74
     0
 42
0.0000000001
 43
0.0000000001
 12
1.0
 22
0.0
 32
0.0
 13
1.0
 23
0.0
 33
0.0
 40
0.0
 40
0.0
 40
0.0
 40
0.0
 40
1.0
 40
1.0
 40
1.0
 40
2.0
 40
2.0
 40
2.0
 40
3.0
 40
3.0
 40
3.0
 40
4.0
 40
4.0
 40
4.0
 40
4.0
 10
111.7120043480756
 20
-25.72489385076705
 30
0.0
 10
98.38555888907291
 20
-25.72471746070322
 30
0.0
 10
85.05911343007084
 20
-25.72919776823907
 30
0.0
 10
71.73266797106844
 20
-25.73766449114513
 30
0.0
 10
58.88924905367214
 20
-25.74577843392385
 30
0.0
 10
46.04583013627552
 20
-25.75759656797694
 30
0.0
 10
33.2024112188789
 20
-25.77354222944463
 30
0.0
 10
6.106075688839637
 20
-25.80723273099254
 30
0.0
 10
-20.99022456319045
 20
-25.8594089108813
 30
0.0
 10
-48.08648953721073
 20
-25.92760130826316
 30
0.0
 10
-96.6258944370557
 20
-26.04980434215868
 30
0.0
 10
-145.165264058895
 20
-26.2235132737196
 30
0.0
 10
-193.7040339545233
 20
-26.50309151957118
 30
0.0
  0
SPLINE
  5
7B
330
1F
100
AcDbEntity
  8
0
 62
   250
370
    25
100
AcDbSpline
210
0.0
220
0.0
230
1.0
 70
     8
 71
     3
 72
    17
 73
    13
 74
     0
 42
0.0000000001
 43
0.0000000001
 12
1.0
 22
0.0
 32
0.0
 13
1.0
 23
0.0
 33
0.0
 40
0.0
 40
0.0
 40
0.0
 40
0.0
 40
1.0
 40
1.0
 40
1.0
 40
2.0
 40
2.0
 40
2.0
 40
3.0
 40
3.0
 40
3.0
 40
4.0
 40
4.0
 40
4.0
 40
4.0
 10
417.1280779286888
 20
-26.50309151957118
 30
0.0
 10
406.0672569624587
 20
-26.43962637581087
 30
0.0
 10
395.0064359962279
 20
-26.38110015374898
 30
0.0
 10
383.9455797519905
 20
-26.32768924343329
 30
0.0
 10
372.157961180577
 20
-26.27075053191315
 30
0.0
 10
360.3703426091733
 20
-26.21970324841001
 30
0.0
 10
348.5826887597424
 20
-26.17317155045573
 30
0.0
 10
322.8920408996428
 20
-26.0717825436977
 30
0.0
 10
297.2012872055054
 20
-25.99201895835166
 30
0.0
 10
271.5104982333613
 20
-25.92735436218034
 30
0.0
 10
218.244439438971
 20
-25.79329791621903
 30
0.0
 10
164.9782395325298
 20
-25.72408245648645
 30
0.0
 10
111.7120043480756
 20
-25.72489385076705
 30
0.0
  0
SPLINE
  5
7C
330
1F
100
AcDbEntity
  8
0
 62
   250
370
    25
100
AcDbSpline
210
0.0
220
0.0
230
1.0
 70
     8
 71
     3
 72
    20
 73
    16
 74
     0
 42
0.0000000001
 43
0.0000000001
 12
1.0
 22
0.0
 32
0.0
 13
1.0
 23
0.0
 33
0.0
 40
0.0
 40
0.0
 40
0.0
 40
0.0
 40
1.0
 40
1.0
 40
1.0
 40
2.0
 40
2.0
 40
2.0
 40
3.0
 40
3.0
 40
3.0
 40
4.0
 40
4.0
 40
4.0
 40
5.0
 40
5.0
 40
5.0
 40
5.0
 10
-193.7455561747598
 20
-21.92259442913572
 30
0.0
 10
-194.3441534839895
 20
-21.92562833818094
 30
0.0
 10
-194.9420099549667
 20
-21.97311254245732
 30
0.0
 10
-195.5335163837646
 20
-22.06370647751875
 30
0.0
 10
-196.1255872607571
 20
-22.15437096860591
 30
0.0
 10
-196.7113433735891
 20
-22.28825102450339
 30
0.0
 10
-197.2837291198294
 20
-22.46474691901387
 30
0.0
 10
-198.5230104067191
 20
-22.84687834602758
 30
0.0
 10
-199.6995673881069
 20
-23.42875387753073
 30
0.0
 10
-200.766233361815
 20
-24.16620544236235
 30
0.0
 10
-201.86768345545
 20
-24.9277518894656
 30
0.0
 10
-202.8519399929037
 20
-25.85524610545367
 30
0.0
 10
-203.7027398106033
 20
-26.88963269809854
 30
0.0
 10
-204.5534337942649
 20
-27.92384290067957
 30
0.0
 10
-205.2706710581756
 20
-29.06491020189796
 30
0.0
 10
-205.8640119436016
 20
-30.26499761735093
 30
0.0
  0
SPLINE
  5
7D
330
1F
100
AcDbEntity
  8
0
 62
   250
370
    25
100
AcDbSpline
210
0.0
220
0.0
230
1.0
 70
     8
 71
     3
 72
    20
 73
    16
 74
     0
 42
0.0000000001
 43
0.0000000001
 12
1.0
 22
0.0
 32
0.0
 13
1.0
 23
0.0
 33
0.0
 40
0.0
 40
0.0
 40
0.0
 40
0.0
 40
1.0
 40
1.0
 40
1.0
 40
2.0
 40
2.0
 40
2.0
 40
3.0
 40
3.0
 40
3.0
 40
4.0
 40
4.0
 40
4.0
 40
5.0
 40
5.0
 40
5.0
 40
5.0
 10
-201.1057842282316
 20
-32.62805997952947
 30
0.0
 10
-200.9260427566055
 20
-32.14432787768153
 30
0.0
 10
-200.7219594566345
 20
-31.66751026620416
 30
0.0
 10
-200.4895479129514
 20
-31.20600331197837
 30
0.0
 10
-200.2932610536535
 20
-30.81618127832586
 30
0.0
 10
-200.0767951714381
 20
-30.43726015040805
 30
0.0
 10
-199.8383510876869
 20
-30.07163883305341
 30
0.0
 10
-199.3450586445632
 20
-29.31524297572157
 30
0.0
 10
-198.7576797431802
 20
-28.6158211079229
 30
0.0
 10
-198.0637259672547
 20
-28.03796726980908
 30
0.0
 10
-197.4281220233337
 20
-27.50876181036642
 30
0.0
 10
-196.7031588747786
 20
-27.08150980588567
 30
0.0
 10
-195.9200575622887
 20
-26.81695999318019
 30
0.0
 10
-195.2098406227938
 20
-26.57699895491293
 30
0.0
 10
-194.4518572549202
 20
-26.47091797254284
 30
0.0
 10
-193.7040339545233
 20
-26.50309151957118
 30
0.0
  0
SPLINE
  5
7E
330
1F
100
AcDbEntity
  8
0
 62
   250
370
    25
100
AcDbSpline
210
0.0
220
0.0
230
1.0
 70
     8
 71
     3
 72
    62
 73
    58
 74
     0
 42
0.0000000001
 43
0.0000000001
 12
1.0
 22
0.0
 32
0.0
 13
1.0
 23
0.0
 33
0.0
 40
0.0
 40
0.0
 40
0.0
 40
0.0
 40
1.0
 40
1.0
 40
1.0
 40
2.0
 40
2.0
 40
2.0
 40
3.0
 40
3.0
 40
3.0
 40
4.0
 40
4.0
 40
4.0
 40
5.0
 40
5.0
 40
5.0
 40
6.0
 40
6.0
 40
6.0
 40
7.0
 40
7.0
 40
7.0
 40
8.0
 40
8.0
 40
8.0
 40
9.0
 40
9.0
 40
9.0
 40
10.0
 40
10.0
 40
10.0
 40
11.0
 40
11.0
 40
11.0
 40
12.0
 40
12.0
 40
12.0
 40
13.0
 40
13.0
 40
13.0
 40
14.0
 40
14.0
 40
14.0
 40
15.0
 40
15.0
 40
15.0
 40
16.0
 40
16.0
 40
16.0
 40
17.0
 40
17.0
 40
17.0
 40
18.0
 40
18.0
 40
18.0
 40
19.0
 40
19.0
 40
19.0
 40
19.0
 10
430.7574909555626
 20
-36.55947692542659
 30
0.0
 10
430.758796242015
 20
-55.48641263857324
 30
0.0
 10
430.7586198519518
 20
-74.41331307370014
 30
0.0
 10
430.7584787399022
 20
-93.34021350883408
 30
0.0
 10
430.7574909555626
 20
-214.4177094558973
 30
0.0
 10
430.7572087314674
 20
-335.4951953189239
 30
0.0
 10
430.7591490221317
 20
-456.5727517379694
 30
0.0
 10
430.7591490221317
 20
-457.1654576042056
 30
0.0
 10
430.759184300146
 20
-457.758162592378
 30
0.0
 10
430.7588667980365
 20
-458.35072736154
 30
0.0
 10
430.7586551299654
 20
-458.7442535864598
 30
0.0
 10
430.7583023498455
 20
-459.1376739773476
 30
0.0
 10
430.7551273287536
 20
-459.5312707582922
 30
0.0
 10
430.7430269706056
 20
-461.020073424729
 30
0.0
 10
430.6902863425255
 20
-462.5112044399677
 30
0.0
 10
430.5080048540285
 20
-463.9885770304867
 30
0.0
 10
430.3524993767106
 20
-465.2490956806644
 30
0.0
 10
430.102660495052
 20
-466.4996306534107
 30
0.0
 10
429.7482223075343
 20
-467.7189445854549
 30
0.0
 10
429.0165563366867
 20
-470.2362776945275
 30
0.0
 10
427.8391174049945
 20
-472.6207538100412
 30
0.0
 10
426.3261845782794
 20
-474.7635049866952
 30
0.0
 10
425.2340478798431
 20
-476.3102694270074
 30
0.0
 10
423.9670733534535
 20
-477.7310560861314
 30
0.0
 10
422.5541536910329
 20
-478.9912219561821
 30
0.0
 10
421.1466668424701
 20
-480.2465900165893
 30
0.0
 10
419.5942931982393
 20
-481.342572018347
 30
0.0
 10
417.9241262716164
 20
-482.2171844942086
 30
0.0
 10
416.3672723198484
 20
-483.0324946317366
 30
0.0
 10
414.7080062989634
 20
-483.6554690473293
 30
0.0
 10
412.9996685632532
 20
-484.0688215150502
 30
0.0
 10
412.0994089725932
 20
-484.2866632397337
 30
0.0
 10
411.1855320692726
 20
-484.4462962444649
 30
0.0
 10
410.2662576301007
 20
-484.5602442235331
 30
0.0
 10
409.236774681137
 20
-484.6878447932826
 30
0.0
 10
408.2005536318689
 20
-484.75815387139
 30
0.0
 10
407.1639445244664
 20
-484.7975241328873
 30
0.0
 10
406.7698891293596
 20
-484.8125172880249
 30
0.0
 10
406.3757279002176
 20
-484.8229948576181
 30
0.0
 10
405.9814961150611
 20
-484.8308618543143
 30
0.0
 10
405.5869821057991
 20
-484.8387288510169
 30
0.0
 10
405.1923269844869
 20
-484.8439852748123
 30
0.0
 10
404.7976718631856
 20
-484.8489241965085
 30
0.0
 10
403.7110385346256
 20
-484.8626120652002
 30
0.0
 10
402.6244404840799
 20
-484.8741479751577
 30
0.0
 10
401.5378424335413
 20
-484.8857191631187
 30
0.0
 10
394.8306103839529
 20
-484.9571571376184
 30
0.0
 10
388.1233077783367
 20
-485.0290184482565
 30
0.0
 10
381.4159698947067
 20
-485.0979164058731
 30
0.0
 10
367.2214736700901
 20
-485.2437909858872
 30
0.0
 10
353.0269068894564
 20
-485.3764715893785
 30
0.0
 10
338.8322695527877
 20
-485.4980043410504
 30
0.0
 10
313.5973077749258
 20
-485.7140468871159
 30
0.0
 10
288.3620637729623
 20
-485.8947761430798
 30
0.0
 10
263.126608102922
 20
-486.0393454366485
 30
0.0
 10
212.6556262068293
 20
-486.3284487457655
 30
0.0
 10
162.1837976384492
 20
-486.4728769272809
 30
0.0
 10
111.7120043480756
 20
-486.4730533173447
 30
0.0
  0
POLYLINE
  5
7F
330
1F
100
AcDbEntity
  8
0
 62
   250
370
    25
100
AcDb2dPolyline
 66
     1
 10
0.0
 20
0.0
 30
0.0
  0
VERTEX
  5
80
330
7F
100
AcDbEntity
  8
0
 62
   250
370
    25
100
AcDbVertex
100
AcDb2dVertex
 10
111.7120043480756
 20
-486.5164099942058
 30
0.0
  0
VERTEX
  5
81
330
7F
100
AcDbEntity
  8
0
 62
   250
370
    25
100
AcDbVertex
100
AcDb2dVertex
 10
111.7120043480756
 20
-486.4730533173447
 30
0.0
  0
SEQEND
  5
82
330
7F
100
AcDbEntity
  8
0
 62
   250
370
    25
  0
SPLINE
  5
83
330
1F
100
AcDbEntity
  8
0
 62
   250
370
    25
100
AcDbSpline
210
0.0
220
0.0
230
1.0
 70
     8
 71
     3
 72
    17
 73
    13
 74
     0
 42
0.0000000001
 43
0.0000000001
 12
1.0
 22
0.0
 32
0.0
 13
1.0
 23
0.0
 33
0.0
 40
0.0
 40
0.0
 40
0.0
 40
0.0
 40
1.0
 40
1.0
 40
1.0
 40
2.0
 40
2.0
 40
2.0
 40
3.0
 40
3.0
 40
3.0
 40
4.0
 40
4.0
 40
4.0
 40
4.0
 10
417.1695648709136
 20
-21.92259442913572
 30
0.0
 10
405.7495431855264
 20
-21.85546037211696
 30
0.0
 10
394.3295215001526
 20
-21.79107800004789
 30
0.0
 10
382.9094645367543
 20
-21.73322206020906
 30
0.0
 10
371.4766016549713
 20
-21.67533084236361
 30
0.0
 10
360.0437387731883
 20
-21.62396605674903
 30
0.0
 10
348.6108053353786
 20
-21.57768130488078
 30
0.0
 10
324.3463416702511
 20
-21.47943204119966
 30
0.0
 10
300.0818074490988
 20
-21.40386653928786
 30
0.0
 10
275.817202671927
 20
-21.34156556993197
 30
0.0
 10
221.1155757313462
 20
-21.20112380377872
 30
0.0
 10
166.4138076787203
 20
-21.12799248470775
 30
0.0
 10
111.7120043480756
 20
-21.1285922109115
 30
0.0
  0
SPLINE
  5
84
330
1F
100
AcDbEntity
  8
0
 62
   250
370
    25
100
AcDbSpline
210
0.0
220
0.0
230
1.0
 70
     8
 71
     3
 72
     8
 73
     4
 74
     0
 42
0.0000000001
 43
0.0000000001
 12
1.0
 22
0.0
 32
0.0
 13
1.0
 23
0.0
 33
0.0
 40
0.0
 40
0.0
 40
0.0
 40
0.0
 40
1.0
 40
1.0
 40
1.0
 40
1.0
 10
417.1280779286888
 20
-26.50309151957118
 30
0.0
 10
417.1476572254058
 20
-24.97629443410539
 30
0.0
 10
417.1614862061405
 20
-23.44946207063044
 30
0.0
 10
417.1695648709136
 20
-21.92259442913572
 30
0.0
  0
SPLINE
  5
85
330
1F
100
AcDbEntity
  8
0
 62
   250
370
    25
100
AcDbSpline
210
0.0
220
0.0
230
1.0
 70
     8
 71
     3
 72
     8
 73
     4
 74
     0
 42
0.0000000001
 43
0.0000000001
 12
1.0
 22
0.0
 32
0.0
 13
1.0
 23
0.0
 33
0.0
 40
0.0
 40
0.0
 40
0.0
 40
0.0
 40
1.0
 40
1.0
 40
1.0
 40
1.0
 10
424.5297929243867
 20
-32.62805997952947
 30
0.0
 10
425.1595054402865
 20
-33.89701007459377
 30
0.0
 10
425.4527009988057
 20
-35.14447586029048
 30
0.0
 10
425.4541473973043
 20
-36.56106443596835
 30
0.0
  0
SPLINE
  5
86
330
1F
100
AcDbEntity
  8
0
 62
   250
370
    25
100
AcDbSpline
210
0.0
220
0.0
230
1.0
 70
     8
 71
     3
 72
     8
 73
     4
 74
     0
 42
0.0000000001
 43
0.0000000001
 12
1.0
 22
0.0
 32
0.0
 13
1.0
 23
0.0
 33
0.0
 40
0.0
 40
0.0
 40
0.0
 40
0.0
 40
1.0
 40
1.0
 40
1.0
 40
1.0
 10
430.7574909555626
 20
-36.55947692542659
 30
0.0
 10
430.7573145655059
 20
-34.29360548656543
 30
0.0
 10
430.29115091368
 20
-32.29672888993289
 30
0.0
 10
429.2880559177684
 20
-30.26499761735093
 30
0.0
  0
SPLINE
  5
87
330
1F
100
AcDbEntity
  8
0
 62
   250
370
    25
100
AcDbSpline
210
0.0
220
0.0
230
1.0
 70
     8
 71
     3
 72
    20
 73
    16
 74
     0
 42
0.0000000001
 43
0.0000000001
 12
1.0
 22
0.0
 32
0.0
 13
1.0
 23
0.0
 33
0.0
 40
0.0
 40
0.0
 40
0.0
 40
0.0
 40
1.0
 40
1.0
 40
1.0
 40
2.0
 40
2.0
 40
2.0
 40
3.0
 40
3.0
 40
3.0
 40
4.0
 40
4.0
 40
4.0
 40
5.0
 40
5.0
 40
5.0
 40
5.0
 10
417.1695648709136
 20
-21.92259442913572
 30
0.0
 10
417.7681621801466
 20
-21.92562833818094
 30
0.0
 10
418.3660186511247
 20
-21.97311254245732
 30
0.0
 10
418.9575250799229
 20
-22.06370647751875
 30
0.0
 10
419.5496312349226
 20
-22.15437096860591
 30
0.0
 10
420.1353873477528
 20
-22.28825102450339
 30
0.0
 10
420.7077378159788
 20
-22.46474691901387
 30
0.0
 10
421.9470191028742
 20
-22.84687834602758
 30
0.0
 10
423.1236113622692
 20
-23.42875387753073
 30
0.0
 10
424.1902420579675
 20
-24.16620544236235
 30
0.0
 10
425.2916921516051
 20
-24.9277518894656
 30
0.0
 10
426.2759486890546
 20
-25.85524610545367
 30
0.0
 10
427.1267837847682
 20
-26.88963269809854
 30
0.0
 10
427.9774424904155
 20
-27.92384290067957
 30
0.0
 10
428.6947150323379
 20
-29.06491020189796
 30
0.0
 10
429.2880559177684
 20
-30.26499761735093
 30
0.0
  0
SPLINE
  5
88
330
1F
100
AcDbEntity
  8
0
 62
   250
370
    25
100
AcDbSpline
210
0.0
220
0.0
230
1.0
 70
     8
 71
     3
 72
    20
 73
    16
 74
     0
 42
0.0000000001
 43
0.0000000001
 12
1.0
 22
0.0
 32
0.0
 13
1.0
 23
0.0
 33
0.0
 40
0.0
 40
0.0
 40
0.0
 40
0.0
 40
1.0
 40
1.0
 40
1.0
 40
2.0
 40
2.0
 40
2.0
 40
3.0
 40
3.0
 40
3.0
 40
4.0
 40
4.0
 40
4.0
 40
5.0
 40
5.0
 40
5.0
 40
5.0
 10
424.5297929243867
 20
-32.62805997952947
 30
0.0
 10
424.3500867307729
 20
-32.14432787768153
 30
0.0
 10
424.1459681527851
 20
-31.66751026620416
 30
0.0
 10
423.9135566091055
 20
-31.20600331197837
 30
0.0
 10
423.7172697498131
 20
-30.81618127832586
 30
0.0
 10
423.5008391456068
 20
-30.43726015040805
 30
0.0
 10
423.2623950618563
 20
-30.07163883305341
 30
0.0
 10
422.7690673407125
 20
-29.31524297572157
 30
0.0
 10
422.1816884393314
 20
-28.6158211079229
 30
0.0
 10
421.4877346634121
 20
-28.03796726980908
 30
0.0
 10
420.8521659974987
 20
-27.50876181036642
 30
0.0
 10
420.1271675709295
 20
-27.08150980588567
 30
0.0
 10
419.3441015364575
 20
-26.81695999318019
 30
0.0
 10
418.6338845969594
 20
-26.57699895491293
 30
0.0
 10
417.8758659510696
 20
-26.47091797254284
 30
0.0
 10
417.1280779286888
 20
-26.50309151957118
 30
0.0
  0
SPLINE
  5
89
330
1F
100
AcDbEntity
  8
0
 62
   250
370
    25
100
AcDbSpline
210
0.0
220
0.0
230
1.0
 70
     8
 71
     3
 72
     8
 73
     4
 74
     0
 42
0.0000000001
 43
0.0000000001
 12
1.0
 22
0.0
 32
0.0
 13
1.0
 23
0.0
 33
0.0
 40
0.0
 40
0.0
 40
0.0
 40
0.0
 40
1.0
 40
1.0
 40
1.0
 40
1.0
 10
425.4541473973043
 20
-36.56106443596835
 30
0.0
 10
427.2219285833919
 20
-36.55993553958595
 30
0.0
 10
428.9897097694757
 20
-36.55972387150941
 30
0.0
 10
430.7574909555626
 20
-36.55947692542659
 30
0.0
  0
SPLINE
  5
8A
330
1F
100
AcDbEntity
  8
0
 62
   250
370
    25
100
AcDbSpline
210
0.0
220
0.0
230
1.0
 70
     8
 71
     3
 72
    17
 73
    13
 74
     0
 42
0.0000000001
 43
0.0000000001
 12
1.0
 22
0.0
 32
0.0
 13
1.0
 23
0.0
 33
0.0
 40
0.0
 40
0.0
 40
0.0
 40
0.0
 40
1.0
 40
1.0
 40
1.0
 40
2.0
 40
2.0
 40
2.0
 40
3.0
 40
3.0
 40
3.0
 40
4.0
 40
4.0
 40
4.0
 40
4.0
 10
-193.7455561747598
 20
-21.92259442913572
 30
0.0
 10
-182.3255344893764
 20
-21.85546037211696
 30
0.0
 10
-170.9055128039969
 20
-21.79107800004789
 30
0.0
 10
-159.4854205625917
 20
-21.73322206020906
 30
0.0
 10
-148.0525929588204
 20
-21.67533084236361
 30
0.0
 10
-136.6196947990208
 20
-21.62396605674903
 30
0.0
 10
-125.1867966392274
 20
-21.57768130488078
 30
0.0
 10
-100.9223329741005
 20
-21.47943204119966
 30
0.0
 10
-76.65776347493524
 20
-21.40386653928786
 30
0.0
 10
-52.39315869776335
 20
-21.34156556993197
 30
0.0
 10
2.308432964807989
 20
-21.20112380377872
 30
0.0
 10
57.01023629545008
 20
-21.12799248470775
 30
0.0
 10
111.7120043480756
 20
-21.1285922109115
 30
0.0
  0
SPLINE
  5
8B
330
1F
100
AcDbEntity
  8
0
 62
   250
370
    25
100
AcDbSpline
210
0.0
220
0.0
230
1.0
 70
     8
 71
     3
 72
     8
 73
     4
 74
     0
 42
0.0000000001
 43
0.0000000001
 12
1.0
 22
0.0
 32
0.0
 13
1.0
 23
0.0
 33
0.0
 40
0.0
 40
0.0
 40
0.0
 40
0.0
 40
1.0
 40
1.0
 40
1.0
 40
1.0
 10
-193.7040339545233
 20
-26.50309151957118
 30
0.0
 10
-193.7236485292462
 20
-24.97629443410539
 30
0.0
 10
-193.737477509988
 20
-23.44946207063044
 30
0.0
 10
-193.7455561747598
 20
-21.92259442913572
 30
0.0
  0
SPLINE
  5
8C
330
1F
100
AcDbEntity
  8
0
 62
   250
370
    25
100
AcDbSpline
210
0.0
220
0.0
230
1.0
 70
     8
 71
     3
 72
     8
 73
     4
 74
     0
 42
0.0000000001
 43
0.0000000001
 12
1.0
 22
0.0
 32
0.0
 13
1.0
 23
0.0
 33
0.0
 40
0.0
 40
0.0
 40
0.0
 40
0.0
 40
1.0
 40
1.0
 40
1.0
 40
1.0
 10
-202.0301387011489
 20
-36.56106443596835
 30
0.0
 10
-202.0286570246391
 20
-35.14447586029048
 30
0.0
 10
-201.7354967441292
 20
-33.89701007459377
 30
0.0
 10
-201.1057842282316
 20
-32.62805997952947
 30
0.0
  0
POLYLINE
  5
8D
330
1F
100
AcDbEntity
  8
0
 62
   250
370
    25
100
AcDb2dPolyline
 66
     1
 10
0.0
 20
0.0
 30
0.0
  0
VERTEX
  5
8E
330
8D
100
AcDbEntity
  8
0
 62
   250
370
    25
100
AcDbVertex
100
AcDb2dVertex
 10
-175.589903640047
 20
-184.4275546293188
 30
0.0
  0
VERTEX
  5
8F
330
8D
100
AcDbEntity
  8
0
 62
   250
370
    25
100
AcDbVertex
100
AcDb2dVertex
 10
-175.589903640047
 20
-229.427832940967
 30
0.0
  0
SEQEND
  5
90
330
8D
100
AcDbEntity
  8
0
 62
   250
370
    25
  0
SPLINE
  5
91
330
1F
100
AcDbEntity
  8
0
 62
   250
370
    25
100
AcDbSpline
210
0.0
220
0.0
230
1.0
 70
     8
 71
     3
 72
    53
 73
    49
 74
     0
 42
0.0000000001
 43
0.0000000001
 12
1.0
 22
0.0
 32
0.0
 13
1.0
 23
0.0
 33
0.0
 40
0.0
 40
0.0
 40
0.0
 40
0.0
 40
1.0
 40
1.0
 40
1.0
 40
2.0
 40
2.0
 40
2.0
 40
3.0
 40
3.0
 40
3.0
 40
4.0
 40
4.0
 40
4.0
 40
5.0
 40
5.0
 40
5.0
 40
6.0
 40
6.0
 40
6.0
 40
7.0
 40
7.0
 40
7.0
 40
8.0
 40
8.0
 40
8.0
 40
9.0
 40
9.0
 40
9.0
 40
10.0
 40
10.0
 40
10.0
 40
11.0
 40
11.0
 40
11.0
 40
12.0
 40
12.0
 40
12.0
 40
13.0
 40
13.0
 40
13.0
 40
14.0
 40
14.0
 40
14.0
 40
15.0
 40
15.0
 40
15.0
 40
16.0
 40
16.0
 40
16.0
 40
16.0
 10
-85.5893094651387
 20
-124.4271272110523
 30
0.0
 10
-105.6901563087619
 20
-124.4271624890657
 30
0.0
 10
-125.7910384303939
 20
-124.4270919330399
 30
0.0
 10
-145.891885274017
 20
-124.4272683231038
 30
0.0
 10
-147.3587097389203
 20
-124.4272683231038
 30
0.0
 10
-148.825534203824
 20
-124.4272683231038
 30
0.0
 10
-150.2923233907181
 20
-124.4267744309317
 30
0.0
 10
-151.4954094371969
 20
-124.4263863728042
 30
0.0
 10
-152.6984954836785
 20
-124.425645534549
 30
0.0
 10
-153.90161680817
 20
-124.4283972194923
 30
0.0
 10
-154.5264962364137
 20
-124.4298083399766
 30
0.0
 10
-155.1514109426668
 20
-124.4321719667856
 30
0.0
 10
-155.7758670347671
 20
-124.4565490731377
 30
0.0
 10
-156.7842890105027
 20
-124.4958840566259
 30
0.0
 10
-157.7914762558175
 20
-124.5926163657971
 30
0.0
 10
-158.7845170182855
 20
-124.7717933892251
 30
0.0
 10
-159.6623750712647
 20
-124.9302269415411
 30
0.0
 10
-160.5291205504224
 20
-125.1530781439519
 30
0.0
 10
-161.3742758861911
 20
-125.4382303157126
 30
0.0
 10
-163.1351778599202
 20
-126.0323473174087
 30
0.0
 10
-164.8022050434633
 20
-126.8968702818082
 30
0.0
 10
-166.3305543614607
 20
-127.9553517567158
 30
0.0
 10
-167.3734782330309
 20
-128.6776337763534
 30
0.0
 10
-168.3518433424641
 20
-129.4902627849628
 30
0.0
 10
-169.2590879795154
 20
-130.3766933948798
 30
0.0
 10
-170.3357376306459
 20
-131.4286131595338
 30
0.0
 10
-171.3122682834545
 20
-132.5844619478187
 30
0.0
 10
-172.1597166900039
 20
-133.8290349365219
 30
0.0
 10
-173.0086114950507
 20
-135.0757246059514
 30
0.0
 10
-173.7280359957066
 20
-136.4114559779068
 30
0.0
 10
-174.2771382539683
 20
-137.8155914153209
 30
0.0
 10
-174.74968722598
 20
-139.0238986075907
 30
0.0
 10
-175.0961173047544
 20
-140.2829092014083
 30
0.0
 10
-175.3033756258153
 20
-141.5637832322029
 30
0.0
 10
-175.396932913887
 20
-142.1421309478837
 30
0.0
 10
-175.462126680243
 20
-142.7249236929719
 30
0.0
 10
-175.5055891911426
 20
-143.3091275585065
 30
0.0
 10
-175.5606581680258
 20
-144.0494013456137
 30
0.0
 10
-175.5808019129306
 20
-144.7919329254345
 30
0.0
 10
-175.5880339054094
 20
-145.534393949226
 30
0.0
 10
-175.5937489433661
 20
-146.1209967195281
 30
0.0
 10
-175.59138531656
 20
-146.707528933808
 30
0.0
 10
-175.5903269761969
 20
-147.2940611480809
 30
0.0
 10
-175.5894803039068
 20
-147.7723604239845
 30
0.0
 10
-175.5895155819198
 20
-148.2506596998887
 30
0.0
 10
-175.5895155819198
 20
-148.7289589757923
 30
0.0
 10
-175.5900094740883
 20
-160.6284791009616
 30
0.0
 10
-175.589833084028
 20
-172.5280345041496
 30
0.0
 10
-175.589903640047
 20
-184.4275546293188
 30
0.0
  0
SPLINE
  5
92
330
1F
100
AcDbEntity
  8
0
 62
   250
370
    25
100
AcDbSpline
210
0.0
220
0.0
230
1.0
 70
     8
 71
     3
 72
    65
 73
    61
 74
     0
 42
0.0000000001
 43
0.0000000001
 12
1.0
 22
0.0
 32
0.0
 13
1.0
 23
0.0
 33
0.0
 40
0.0
 40
0.0
 40
0.0
 40
0.0
 40
1.0
 40
1.0
 40
1.0
 40
2.0
 40
2.0
 40
2.0
 40
3.0
 40
3.0
 40
3.0
 40
4.0
 40
4.0
 40
4.0
 40
5.0
 40
5.0
 40
5.0
 40
6.0
 40
6.0
 40
6.0
 40
7.0
 40
7.0
 40
7.0
 40
8.0
 40
8.0
 40
8.0
 40
9.0
 40
9.0
 40
9.0
 40
10.0
 40
10.0
 40
10.0
 40
11.0
 40
11.0
 40
11.0
 40
12.0
 40
12.0
 40
12.0
 40
13.0
 40
13.0
 40
13.0
 40
14.0
 40
14.0
 40
14.0
 40
15.0
 40
15.0
 40
15.0
 40
16.0
 40
16.0
 40
16.0
 40
17.0
 40
17.0
 40
17.0
 40
18.0
 40
18.0
 40
18.0
 40
19.0
 40
19.0
 40
19.0
 40
20.0
 40
20.0
 40
20.0
 40
20.0
 10
-202.0301387011489
 20
-36.56106443596835
 30
0.0
 10
-202.0334548342835
 20
-67.56204090073128
 30
0.0
 10
-202.0334195562705
 20
-98.56301736548745
 30
0.0
 10
-202.0334195562705
 20
-129.5640291082566
 30
0.0
 10
-202.0334195562705
 20
-239.2342381053809
 30
0.0
 10
-202.0335959463343
 20
-348.9044379335691
 30
0.0
 10
-202.0327139960315
 20
-458.5744957922625
 30
0.0
 10
-202.0327139960315
 20
-458.8789097586297
 30
0.0
 10
-202.0327139960315
 20
-459.183323725
 30
0.0
 10
-202.0307737053688
 20
-459.4877729693745
 30
0.0
 10
-202.0229067086669
 20
-460.7157652924009
 30
0.0
 10
-201.9833600571082
 20
-461.9445337316851
 30
0.0
 10
-201.8438707972864
 20
-463.1644473899378
 30
0.0
 10
-201.7885548743204
 20
-463.6481442137741
 30
0.0
 10
-201.7175402359731
 20
-464.130465195137
 30
0.0
 10
-201.6263465747076
 20
-464.6087292051108
 30
0.0
 10
-201.5325776185562
 20
-465.1002577476289
 30
0.0
 10
-201.4175007431017
 20
-465.5875176506874
 30
0.0
 10
-201.2820684546687
 20
-466.0690977938032
 30
0.0
 10
-201.009157753102
 20
-467.0393842384684
 30
0.0
 10
-200.6535553911825
 20
-467.9866341412296
 30
0.0
 10
-200.2211880749463
 20
-468.8971596334047
 30
0.0
 10
-199.7687475698264
 20
-469.8499481840738
 30
0.0
 10
-199.2322748398926
 20
-470.7625550789634
 30
0.0
 10
-198.6275038785474
 20
-471.6270427653518
 30
0.0
 10
-197.7461885803866
 20
-472.8868911332962
 30
0.0
 10
-196.7198453745015
 20
-474.0446096562218
 30
0.0
 10
-195.5702407943577
 20
-475.0654142142109
 30
0.0
 10
-194.4360174274842
 20
-476.0725661815118
 30
0.0
 10
-193.1817429854544
 20
-476.9464378191191
 30
0.0
 10
-191.8286195535339
 20
-477.6314309799752
 30
0.0
 10
-191.1984131454611
 20
-477.9504147653384
 30
0.0
 10
-190.5467929840567
 20
-478.2284407786599
 30
0.0
 10
-189.8795799413016
 20
-478.4613462145097
 30
0.0
 10
-189.2246789247659
 20
-478.6899477328893
 30
0.0
 10
-188.55478475309
 20
-478.8750514623505
 30
0.0
 10
-187.8771646967666
 20
-479.0194443658561
 30
0.0
 10
-186.3498737191323
 20
-479.3448487494208
 30
0.0
 10
-184.7831772019869
 20
-479.4634181480712
 30
0.0
 10
-183.2211021044257
 20
-479.5132307011513
 30
0.0
 10
-182.5059815212447
 20
-479.5360202969674
 30
0.0
 10
-181.7918134443859
 20
-479.5444164638396
 30
0.0
 10
-181.0769398072941
 20
-479.5524598506061
 30
0.0
 10
-180.3018466035513
 20
-479.5611382415743
 30
0.0
 10
-179.5259067275181
 20
-479.5693580183975
 30
0.0
 10
-178.7500726855236
 20
-479.5776836292521
 30
0.0
 10
-175.0547361965684
 20
-479.6171950027958
 30
0.0
 10
-171.3618338904511
 20
-479.6580116627911
 30
0.0
 10
-167.6682965801141
 20
-479.6974524803132
 30
0.0
 10
-163.0232407275429
 20
-479.7470533653191
 30
0.0
 10
-158.377232368646
 20
-479.7944670135719
 30
0.0
 10
-153.7313298437879
 20
-479.8407870434545
 30
0.0
 10
-139.6149744159635
 20
-479.9814757556915
 30
0.0
 10
-125.4994656604289
 20
-480.1119691224299
 30
0.0
 10
-111.3838157928435
 20
-480.2312088033072
 30
0.0
 10
-86.53370184892619
 20
-480.4410776972663
 30
0.0
 10
-61.68302345681082
 20
-480.6160566372621
 30
0.0
 10
-36.83216867463514
 20
-480.7557928431667
 30
0.0
 10
12.68207353343599
 20
-481.0342421926337
 30
0.0
 10
62.19702130174609
 20
-481.1728495021569
 30
0.0
 10
111.7120043480756
 20
-481.1729906142064
 30
0.0
  0
SPLINE
  5
93
330
1F
100
AcDbEntity
  8
0
 62
   250
370
    25
100
AcDbSpline
210
0.0
220
0.0
230
1.0
 70
     8
 71
     3
 72
    65
 73
    61
 74
     0
 42
0.0000000001
 43
0.0000000001
 12
1.0
 22
0.0
 32
0.0
 13
1.0
 23
0.0
 33
0.0
 40
0.0
 40
0.0
 40
0.0
 40
0.0
 40
1.0
 40
1.0
 40
1.0
 40
2.0
 40
2.0
 40
2.0
 40
3.0
 40
3.0
 40
3.0
 40
4.0
 40
4.0
 40
4.0
 40
5.0
 40
5.0
 40
5.0
 40
6.0
 40
6.0
 40
6.0
 40
7.0
 40
7.0
 40
7.0
 40
8.0
 40
8.0
 40
8.0
 40
9.0
 40
9.0
 40
9.0
 40
10.0
 40
10.0
 40
10.0
 40
11.0
 40
11.0
 40
11.0
 40
12.0
 40
12.0
 40
12.0
 40
13.0
 40
13.0
 40
13.0
 40
14.0
 40
14.0
 40
14.0
 40
15.0
 40
15.0
 40
15.0
 40
16.0
 40
16.0
 40
16.0
 40
17.0
 40
17.0
 40
17.0
 40
18.0
 40
18.0
 40
18.0
 40
19.0
 40
19.0
 40
19.0
 40
20.0
 40
20.0
 40
20.0
 40
20.0
 10
111.7120043480756
 20
-461.729373135913
 30
0.0
 10
154.6029761753506
 20
-461.729373135913
 30
0.0
 10
197.493912724606
 20
-461.6249502201171
 30
0.0
 10
240.3843553816959
 20
-461.4161043885106
 30
0.0
 10
262.6291528543713
 20
-461.3077656133686
 30
0.0
 10
284.8738092150073
 20
-461.1713455405907
 30
0.0
 10
307.1182891855802
 20
-461.0068794482062
 30
0.0
 10
320.8020303510824
 20
-460.9056668315056
 30
0.0
 10
334.4857009605591
 20
-460.7938708111798
 30
0.0
 10
348.1693010140097
 20
-460.6714561092074
 30
0.0
 10
350.1835696706073
 20
-460.6534290450243
 30
0.0
 10
352.1978383272055
 20
-460.635190312774
 30
0.0
 10
354.2121422618085
 20
-460.6164929663608
 30
0.0
 10
355.1231263681433
 20
-460.6080615214742
 30
0.0
 10
356.0341104744781
 20
-460.5995242425446
 30
0.0
 10
356.9450945808161
 20
-460.5914455777786
 30
0.0
 10
357.8697665558393
 20
-460.5832258009483
 30
0.0
 10
358.7944738088801
 20
-460.5754999163087
 30
0.0
 10
359.7191810619176
 20
-460.5648459566517
 30
0.0
 10
360.5414409678263
 20
-460.5553561714013
 30
0.0
 10
361.3637008737389
 20
-460.5435380373485
 30
0.0
 10
362.1855374435106
 20
-460.5148922915291
 30
0.0
 10
363.2071533957754
 20
-460.4792614993115
 30
0.0
 10
364.2280637877997
 20
-460.4176308121786
 30
0.0
 10
365.2455169346331
 20
-460.3182879301207
 30
0.0
 10
366.2565142052553
 20
-460.219615330293
 30
0.0
 10
367.2640542306968
 20
-460.0836891496883
 30
0.0
 10
368.2634450353366
 20
-459.9023601675229
 30
0.0
 10
370.2390137126625
 20
-459.5439355646344
 30
0.0
 10
372.1826910670568
 20
-459.0079920048843
 30
0.0
 10
374.0626563316045
 20
-458.3030667671985
 30
0.0
 10
375.8439489963308
 20
-457.6351128861898
 30
0.0
 10
377.567985447416
 20
-456.8154644550514
 30
0.0
 10
379.2197725297358
 20
-455.8711426511416
 30
0.0
 10
380.9394345073332
 20
-454.8880150349124
 30
0.0
 10
382.5807087420455
 20
-453.7698431917948
 30
0.0
 10
384.1334351663963
 20
-452.5401575552547
 30
0.0
 10
386.3092771183958
 20
-450.817003098003
 30
0.0
 10
388.3112337487672
 20
-448.8749485812207
 30
0.0
 10
390.105050107783
 20
-446.7563276183723
 30
0.0
 10
391.7669619795761
 20
-444.7935296310034
 30
0.0
 10
393.2501907200979
 20
-442.6791773075042
 30
0.0
 10
394.5036890458694
 20
-440.4338730064169
 30
0.0
 10
395.8103866138692
 20
-438.0932475190561
 30
0.0
 10
396.8674569682885
 20
-435.6103105345015
 30
0.0
 10
397.6077307740898
 20
-433.0341337663309
 30
0.0
 10
397.9490455411133
 20
-431.8463936851165
 30
0.0
 10
398.223014583043
 20
-430.638827361608
 30
0.0
 10
398.43207208272
 20
-429.4204306886545
 30
0.0
 10
398.6451159977607
 20
-428.1787858063265
 30
0.0
 10
398.7907436316901
 20
-426.9259225164284
 30
0.0
 10
398.8786564378288
 20
-425.6698136494989
 30
0.0
 10
398.9980019527484
 20
-423.9649332020427
 30
0.0
 10
399.010984261204
 20
-422.2541613267204
 30
0.0
 10
399.0137006681336
 20
-420.5443772357094
 30
0.0
 10
399.0144415063878
 20
-420.0842108575634
 30
0.0
 10
399.0144415063878
 20
-419.6240797574324
 30
0.0
 10
399.0144415063878
 20
-419.1639839353111
 30
0.0
 10
399.0135242780698
 20
-355.9186943452228
 30
0.0
 10
399.014265116324
 20
-292.6732283650815
 30
0.0
 10
399.013912336204
 20
-229.427832940967
 30
0.0
  0
SPLINE
  5
94
330
1F
100
AcDbEntity
  8
0
 62
   250
370
    25
100
AcDbSpline
210
0.0
220
0.0
230
1.0
 70
     8
 71
     3
 72
    68
 73
    64
 74
     0
 42
0.0000000001
 43
0.0000000001
 12
1.0
 22
0.0
 32
0.0
 13
1.0
 23
0.0
 33
0.0
 40
0.0
 40
0.0
 40
0.0
 40
0.0
 40
1.0
 40
1.0
 40
1.0
 40
2.0
 40
2.0
 40
2.0
 40
3.0
 40
3.0
 40
3.0
 40
4.0
 40
4.0
 40
4.0
 40
5.0
 40
5.0
 40
5.0
 40
6.0
 40
6.0
 40
6.0
 40
7.0
 40
7.0
 40
7.0
 40
8.0
 40
8.0
 40
8.0
 40
9.0
 40
9.0
 40
9.0
 40
10.0
 40
10.0
 40
10.0
 40
11.0
 40
11.0
 40
11.0
 40
12.0
 40
12.0
 40
12.0
 40
13.0
 40
13.0
 40
13.0
 40
14.0
 40
14.0
 40
14.0
 40
15.0
 40
15.0
 40
15.0
 40
16.0
 40
16.0
 40
16.0
 40
17.0
 40
17.0
 40
17.0
 40
18.0
 40
18.0
 40
18.0
 40
19.0
 40
19.0
 40
19.0
 40
20.0
 40
20.0
 40
20.0
 40
21.0
 40
21.0
 40
21.0
 40
21.0
 10
368.8459202930429
 20
-229.427832940967
 30
0.0
 10
368.8459555710539
 20
-277.3848319276366
 30
0.0
 10
368.8458850150292
 20
-325.3417956363004
 30
0.0
 10
368.8460614050859
 20
-373.2987593449622
 30
0.0
 10
368.8460614050859
 20
-374.0324008659645
 30
0.0
 10
368.8460614050859
 20
-374.7660423869552
 30
0.0
 10
368.8460966830996
 20
-375.4996839079536
 30
0.0
 10
368.8460966830996
 20
-375.9384365332971
 30
0.0
 10
368.8461319611101
 20
-376.3771538806327
 30
0.0
 10
368.8453558448454
 20
-376.8159417839834
 30
0.0
 10
368.8430274960468
 20
-378.1255673939133
 30
0.0
 10
368.8335377107965
 20
-379.4353693938936
 30
0.0
 10
368.7963899640586
 20
-380.7443599996147
 30
0.0
 10
368.7634050227446
 20
-381.9061001865711
 30
0.0
 10
368.7086535479722
 20
-383.06724064734
 30
0.0
 10
368.6210935219566
 20
-384.2263702614654
 30
0.0
 10
368.4058623701636
 20
-387.0763043965773
 30
0.0
 10
367.9926157364811
 20
-389.9141028958335
 30
0.0
 10
367.3094570322613
 20
-392.6887537550327
 30
0.0
 10
366.6315547518394
 20
-395.4420614174573
 30
0.0
 10
365.6878679282902
 20
-398.133244502153
 30
0.0
 10
364.4561714140028
 20
-400.6878664054755
 30
0.0
 10
363.2954189820348
 20
-403.0953084460572
 30
0.0
 10
361.8789009623839
 20
-405.3815352401381
 30
0.0
 10
360.2046770643647
 20
-407.4642079095764
 30
0.0
 10
358.6411555683151
 20
-409.4091552232738
 30
0.0
 10
356.8529131352068
 20
-411.1766188625999
 30
0.0
 10
354.8772739018561
 20
-412.7009817267214
 30
0.0
 10
353.1803662420638
 20
-414.0102545565351
 30
0.0
 10
351.345204052881
 20
-415.1402092553985
 30
0.0
 10
349.4224112816444
 20
-416.0876708023018
 30
0.0
 10
347.4779225329698
 20
-417.0458568646148
 30
0.0
 10
345.4438276335788
 20
-417.8174928036774
 30
0.0
 10
343.3664466133451
 20
-418.4370099584262
 30
0.0
 10
340.9566056071256
 20
-419.1556936026749
 30
0.0
 10
338.4885558809473
 20
-419.6697295039278
 30
0.0
 10
336.0026554806497
 20
-420.0511200830541
 30
0.0
 10
334.5355840696632
 20
-420.2761585165279
 30
0.0
 10
333.062303728542
 20
-420.45505331134
 30
0.0
 10
331.5852839181461
 20
-420.5988112069965
 30
0.0
 10
329.8857656854606
 20
-420.7642298015326
 30
0.0
 10
328.1812732530666
 20
-420.8831519773017
 30
0.0
 10
326.4757224803166
 20
-420.9653144653914
 30
0.0
 10
325.7660347109996
 20
-420.9994988582505
 30
0.0
 10
325.0562058296319
 20
-421.027333209085
 30
0.0
 10
324.3460947241683
 20
-421.0511811446648
 30
0.0
 10
324.0289453954342
 20
-421.0618351040466
 30
0.0
 10
323.7117607886876
 20
-421.071712947188
 30
0.0
 10
323.3945761819404
 20
-421.081590790323
 30
0.0
 10
321.5587084325094
 20
-421.1388117244932
 30
0.0
 10
319.7230523511488
 20
-421.1969498869572
 30
0.0
 10
317.8873609917752
 20
-421.254241377156
 30
0.0
 10
312.3611309530974
 20
-421.4266802959185
 30
0.0
 10
306.834548134292
 20
-421.5912522181864
 30
0.0
 10
301.3077889254292
 20
-421.7490860403165
 30
0.0
 10
291.8431216164512
 20
-422.019315606137
 30
0.0
 10
282.3779604152946
 20
-422.2696836516503
 30
0.0
 10
272.9122700439664
 20
-422.4997668407214
 30
0.0
 10
254.8217054415678
 20
-422.9395072503756
 30
0.0
 10
236.729306382551
 20
-423.3051638365086
 30
0.0
 10
218.6357078711138
 20
-423.5967718771212
 30
0.0
 10
182.9976483845265
 20
-424.1711684555411
 30
0.0
 10
147.3549674783455
 20
-424.4583667447581
 30
0.0
 10
111.7122865721708
 20
-424.4583667447581
 30
0.0
  0
POLYLINE
  5
95
330
1F
100
AcDbEntity
  8
0
 62
   250
370
    25
100
AcDb2dPolyline
 66
     1
 10
0.0
 20
0.0
 30
0.0
  0
VERTEX
  5
96
330
95
100
AcDbEntity
  8
0
 62
   250
370
    25
100
AcDbVertex
100
AcDb2dVertex
 10
399.013912336204
 20
-184.4275546293188
 30
0.0
  0
VERTEX
  5
97
330
95
100
AcDbEntity
  8
0
 62
   250
370
    25
100
AcDbVertex
100
AcDb2dVertex
 10
399.013912336204
 20
-229.427832940967
 30
0.0
  0
SEQEND
  5
98
330
95
100
AcDbEntity
  8
0
 62
   250
370
    25
  0
SPLINE
  5
99
330
1F
100
AcDbEntity
  8
0
 62
   250
370
    25
100
AcDbSpline
210
0.0
220
0.0
230
1.0
 70
     8
 71
     3
 72
    53
 73
    49
 74
     0
 42
0.0000000001
 43
0.0000000001
 12
1.0
 22
0.0
 32
0.0
 13
1.0
 23
0.0
 33
0.0
 40
0.0
 40
0.0
 40
0.0
 40
0.0
 40
1.0
 40
1.0
 40
1.0
 40
2.0
 40
2.0
 40
2.0
 40
3.0
 40
3.0
 40
3.0
 40
4.0
 40
4.0
 40
4.0
 40
5.0
 40
5.0
 40
5.0
 40
6.0
 40
6.0
 40
6.0
 40
7.0
 40
7.0
 40
7.0
 40
8.0
 40
8.0
 40
8.0
 40
9.0
 40
9.0
 40
9.0
 40
10.0
 40
10.0
 40
10.0
 40
11.0
 40
11.0
 40
11.0
 40
12.0
 40
12.0
 40
12.0
 40
13.0
 40
13.0
 40
13.0
 40
14.0
 40
14.0
 40
14.0
 40
15.0
 40
15.0
 40
15.0
 40
16.0
 40
16.0
 40
16.0
 40
16.0
 10
309.013318161296
 20
-124.4271272110523
 30
0.0
 10
329.1142002829223
 20
-124.4271624890657
 30
0.0
 10
349.2150471265483
 20
-124.4270919330399
 30
0.0
 10
369.3159292481874
 20
-124.4272683231038
 30
0.0
 10
370.7827184350697
 20
-124.4272683231038
 30
0.0
 10
372.249542899981
 20
-124.4272683231038
 30
0.0
 10
373.7163320868704
 20
-124.4267744309317
 30
0.0
 10
374.9194181333501
 20
-124.4263863728042
 30
0.0
 10
376.1225041798362
 20
-124.425645534549
 30
0.0
 10
377.3256255043264
 20
-124.4283972194923
 30
0.0
 10
377.9505402105827
 20
-124.4298083399766
 30
0.0
 10
378.5754549168327
 20
-124.4321719667856
 30
0.0
 10
379.1998757309196
 20
-124.4565490731377
 30
0.0
 10
380.2083329846728
 20
-124.4958840566259
 30
0.0
 10
381.2155202299802
 20
-124.5926163657971
 30
0.0
 10
382.2085257144399
 20
-124.7717933892251
 30
0.0
 10
383.0863837674111
 20
-124.9302269415411
 30
0.0
 10
383.9531645245909
 20
-125.1530781439519
 30
0.0
 10
384.7982845823404
 20
-125.4382303157126
 30
0.0
 10
386.5592218340857
 20
-126.0323473174087
 30
0.0
 10
388.2262490176311
 20
-126.8968702818082
 30
0.0
 10
389.7545630576149
 20
-127.9553517567158
 30
0.0
 10
390.7975222071972
 20
-128.6776337763534
 30
0.0
 10
391.7758520386218
 20
-129.4902627849628
 30
0.0
 10
392.6830966756705
 20
-130.3766933948798
 30
0.0
 10
393.7597463267991
 20
-131.4286131595338
 30
0.0
 10
394.7362769796057
 20
-132.5844619478187
 30
0.0
 10
395.5837253861577
 20
-133.8290349365219
 30
0.0
 10
396.4326554692143
 20
-135.0757246059514
 30
0.0
 10
397.1520446918642
 20
-136.4114559779068
 30
0.0
 10
397.7011822281339
 20
-137.8155914153209
 30
0.0
 10
398.1736959221293
 20
-139.0238986075907
 30
0.0
 10
398.5201612789226
 20
-140.2829092014083
 30
0.0
 10
398.7273843219672
 20
-141.5637832322029
 30
0.0
 10
398.8209416100459
 20
-142.1421309478837
 30
0.0
 10
398.8861353763978
 20
-142.7249236929719
 30
0.0
 10
398.929597887298
 20
-143.3091275585065
 30
0.0
 10
398.9846668641799
 20
-144.0494013456137
 30
0.0
 10
399.0048106090873
 20
-144.7919329254345
 30
0.0
 10
399.0120426015607
 20
-145.534393949226
 30
0.0
 10
399.0177576395221
 20
-146.1209967195281
 30
0.0
 10
399.0153940127125
 20
-146.707528933808
 30
0.0
 10
399.0143709503631
 20
-147.2940611480809
 30
0.0
 10
399.0135242780698
 20
-147.7723604239845
 30
0.0
 10
399.0135242780698
 20
-148.2506596998887
 30
0.0
 10
399.0135595560841
 20
-148.7289589757923
 30
0.0
 10
399.0140534482497
 20
-160.6284791009616
 30
0.0
 10
399.0138417801863
 20
-172.5280345041496
 30
0.0
 10
399.013912336204
 20
-184.4275546293188
 30
0.0
  0
POLYLINE
  5
9A
330
1F
100
AcDbEntity
  8
0
 62
   250
370
    25
100
AcDb2dPolyline
 66
     1
 10
0.0
 20
0.0
 30
0.0
  0
VERTEX
  5
9B
330
9A
100
AcDbEntity
  8
0
 62
   250
370
    25
100
AcDbVertex
100
AcDb2dVertex
 10
309.013318161296
 20
-124.4271272110523
 30
0.0
  0
VERTEX
  5
9C
330
9A
100
AcDbEntity
  8
0
 62
   250
370
    25
100
AcDbVertex
100
AcDb2dVertex
 10
285.2834222134402
 20
-124.4271272110523
 30
0.0
  0
SEQEND
  5
9D
330
9A
100
AcDbEntity
  8
0
 62
   250
370
    25
  0
POLYLINE
  5
9E
330
1F
100
AcDbEntity
  8
0
 62
   250
370
    25
100
AcDb2dPolyline
 66
     1
 10
0.0
 20
0.0
 30
0.0
  0
VERTEX
  5
9F
330
9E
100
AcDbEntity
  8
0
 62
   250
370
    25
100
AcDbVertex
100
AcDb2dVertex
 10
285.2834222134402
 20
-124.4271272110523
 30
0.0
  0
VERTEX
  5
A0
330
9E
100
AcDbEntity
  8
0
 62
   250
370
    25
100
AcDbVertex
100
AcDb2dVertex
 10
239.0796333823644
 20
-124.4271272110523
 30
0.0
  0
SEQEND
  5
A1
330
9E
100
AcDbEntity
  8
0
 62
   250
370
    25
  0
POLYLINE
  5
A2
330
1F
100
AcDbEntity
  8
0
 62
   250
370
    25
100
AcDb2dPolyline
 66
     1
 10
0.0
 20
0.0
 30
0.0
  0
VERTEX
  5
A3
330
A2
100
AcDbEntity
  8
0
 62
   250
370
    25
100
AcDbVertex
100
AcDb2dVertex
 10
239.0796333823644
 20
-124.4271272110523
 30
0.0
  0
VERTEX
  5
A4
330
A2
100
AcDbEntity
  8
0
 62
   250
370
    25
100
AcDbVertex
100
AcDb2dVertex
 10
169.1511344712169
 20
-124.4271272110523
 30
0.0
  0
SEQEND
  5
A5
330
A2
100
AcDbEntity
  8
0
 62
   250
370
    25
  0
POLYLINE
  5
A6
330
1F
100
AcDbEntity
  8
0
 62
   250
370
    25
100
AcDb2dPolyline
 66
     1
 10
0.0
 20
0.0
 30
0.0
  0
VERTEX
  5
A7
330
A6
100
AcDbEntity
  8
0
 62
   250
370
    25
100
AcDbVertex
100
AcDb2dVertex
 10
169.1511344712169
 20
-124.4271272110523
 30
0.0
  0
VERTEX
  5
A8
330
A6
100
AcDbEntity
  8
0
 62
   250
370
    25
100
AcDbVertex
100
AcDb2dVertex
 10
156.7123190745387
 20
-124.4271272110523
 30
0.0
  0
SEQEND
  5
A9
330
A6
100
AcDbEntity
  8
0
 62
   250
370
    25
  0
SPLINE
  5
AA
330
1F
100
AcDbEntity
  8
0
 62
   250
370
    25
100
AcDbSpline
210
0.0
220
0.0
230
1.0
 70
    24
 71
     3
 72
     8
 73
     4
 74
     0
 42
0.0000000001
 43
0.0000000001
 12
1.0
 22
0.0
 32
0.0
 13
1.0
 23
0.0
 33
0.0
 40
0.0
 40
0.0
 40
0.0
 40
0.0
 40
1.0
 40
1.0
 40
1.0
 40
1.0
 10
156.7123190745387
 20
-148.9272919547797
 30
0.0
 10
160.8585791140942
 20
-148.9272919547797
 30
0.0
 10
165.0048391536491
 20
-148.9272919547797
 30
0.0
 10
169.1511344712169
 20
-148.9272919547797
 30
0.0
  0
SPLINE
  5
AB
330
1F
100
AcDbEntity
  8
0
 62
   250
370
    25
100
AcDbSpline
210
0.0
220
0.0
230
1.0
 70
    24
 71
     3
 72
     8
 73
     4
 74
     0
 42
0.0000000001
 43
0.0000000001
 12
1.0
 22
0.0
 32
0.0
 13
1.0
 23
0.0
 33
0.0
 40
0.0
 40
0.0
 40
0.0
 40
0.0
 40
1.0
 40
1.0
 40
1.0
 40
1.0
 10
-85.5893094651387
 20
-148.9272919547797
 30
0.0
 10
-62.27978630941215
 20
-148.9272919547797
 30
0.0
 10
74.53733047114258
 20
-148.9272919547797
 30
0.0
 10
97.84685362686913
 20
-148.9272919547797
 30
0.0
  0
POLYLINE
  5
AC
330
1F
100
AcDbEntity
  8
0
 62
   250
370
    25
100
AcDb2dPolyline
 66
     1
 10
0.0
 20
0.0
 30
0.0
  0
VERTEX
  5
AD
330
AC
100
AcDbEntity
  8
0
 62
   250
370
    25
100
AcDbVertex
100
AcDb2dVertex
 10
66.71172489963102
 20
-124.4271272110523
 30
0.0
  0
VERTEX
  5
AE
330
AC
100
AcDbEntity
  8
0
 62
   250
370
    25
100
AcDbVertex
100
AcDb2dVertex
 10
111.7120043480756
 20
-124.4271272110523
 30
0.0
  0
SEQEND
  5
AF
330
AC
100
AcDbEntity
  8
0
 62
   250
370
    25
  0
SPLINE
  5
B0
330
1F
100
AcDbEntity
  8
0
 62
   250
370
    25
100
AcDbSpline
210
0.0
220
0.0
230
1.0
 70
    24
 71
     3
 72
     8
 73
     4
 74
     0
 42
0.0000000001
 43
0.0000000001
 12
1.0
 22
0.0
 32
0.0
 13
1.0
 23
0.0
 33
0.0
 40
0.0
 40
0.0
 40
0.0
 40
0.0
 40
1.0
 40
1.0
 40
1.0
 40
1.0
 10
285.2834222134402
 20
-148.9272919547797
 30
0.0
 10
274.3943346100956
 20
-148.9272919547797
 30
0.0
 10
134.9341791458554
 20
-148.9272919547797
 30
0.0
 10
124.0451268205174
 20
-148.9272919547797
 30
0.0
  0
SPLINE
  5
B1
330
1F
100
AcDbEntity
  8
0
 62
   250
370
    25
100
AcDbSpline
210
0.0
220
0.0
230
1.0
 70
     8
 71
     3
 72
    11
 73
     7
 74
     0
 42
0.0000000001
 43
0.0000000001
 12
1.0
 22
0.0
 32
0.0
 13
1.0
 23
0.0
 33
0.0
 40
0.0
 40
0.0
 40
0.0
 40
0.0
 40
1.0
 40
1.0
 40
1.0
 40
2.0
 40
2.0
 40
2.0
 40
2.0
 10
94.21186548289327
 20
-79.42684776260164
 30
0.0
 10
94.21186548289327
 20
-69.7617949286373
 30
0.0
 10
102.0469405826604
 20
-61.92671963093688
 30
0.0
 10
111.7119931724633
 20
-61.92671963093688
 30
0.0
 10
121.3770457622657
 20
-61.92671963093688
 30
0.0
 10
129.2121208620327
 20
-69.7617949286373
 30
0.0
 10
129.2121208620327
 20
-79.42684776260164
 30
0.0
  0
SPLINE
  5
B2
330
1F
100
AcDbEntity
  8
0
 62
   250
370
    25
100
AcDbSpline
210
0.0
220
0.0
230
1.0
 70
     8
 71
     3
 72
    11
 73
     7
 74
     0
 42
0.0000000001
 43
0.0000000001
 12
1.0
 22
0.0
 32
0.0
 13
1.0
 23
0.0
 33
0.0
 40
0.0
 40
0.0
 40
0.0
 40
0.0
 40
1.0
 40
1.0
 40
1.0
 40
2.0
 40
2.0
 40
2.0
 40
2.0
 10
129.2121208620327
 20
-79.42684776260164
 30
0.0
 10
129.2121208620327
 20
-89.09190059656277
 30
0.0
 10
121.3770457622657
 20
-96.92697589425356
 30
0.0
 10
111.7119931724633
 20
-96.92697589425356
 30
0.0
 10
102.0469405826604
 20
-96.92697589425356
 30
0.0
 10
94.21186548289327
 20
-89.09190059656277
 30
0.0
 10
94.21186548289327
 20
-79.42684776260164
 30
0.0
  0
INSERT
  5
B4
330
1F
100
AcDbEntity
  8
0
100
AcDbBlockReference
  2
block 2
 10
0.0
 20
0.0
 30
0.0
  0
INSERT
  5
CE
330
1F
100
AcDbEntity
  8
0
100
AcDbBlockReference
  2
block 4
 10
0.0
 20
0.0
 30
0.0
  0
SPLINE
  5
E7
330
1F
100
AcDbEntity
  8
0
 62
   250
370
    25
100
AcDbSpline
210
0.0
220
0.0
230
1.0
 70
    11
 71
     3
 72
    17
 73
    13
 74
     0
 42
0.0000000001
 43
0.0000000001
 12
1.0
 22
0.0
 32
0.0
 13
1.0
 23
0.0
 33
0.0
 40
0.0
 40
0.0
 40
0.0
 40
0.0
 40
1.0
 40
1.0
 40
1.0
 40
2.0
 40
2.0
 40
2.0
 40
3.0
 40
3.0
 40
3.0
 40
4.0
 40
4.0
 40
4.0
 40
4.0
 10
137.1195830968209
 20
-229.3631879237187
 30
0.0
 10
137.1195830968209
 20
-215.1219344239484
 30
0.0
 10
125.5762870562599
 20
-203.5971558886942
 30
0.0
 10
111.350536584189
 20
-203.5971558886942
 30
0.0
 10
97.11617331895096
 20
-203.5971558886942
 30
0.0
 10
85.56555640419938
 20
-215.1219344239484
 30
0.0
 10
85.56555640419938
 20
-229.3631879237187
 30
0.0
 10
85.56555640419938
 20
-243.6078865407553
 30
0.0
 10
97.11617331895096
 20
-255.1395553105393
 30
0.0
 10
111.350536584189
 20
-255.1395553105393
 30
0.0
 10
125.5762870562599
 20
-255.1395553105393
 30
0.0
 10
137.1195830968209
 20
-243.6078865407553
 30
0.0
 10
137.1195830968209
 20
-229.3631879237187
 30
0.0
  0
SPLINE
  5
E8
330
1F
100
AcDbEntity
  8
0
 62
   250
370
    25
100
AcDbSpline
210
0.0
220
0.0
230
1.0
 70
    11
 71
     3
 72
    17
 73
    13
 74
     0
 42
0.0000000001
 43
0.0000000001
 12
1.0
 22
0.0
 32
0.0
 13
1.0
 23
0.0
 33
0.0
 40
0.0
 40
0.0
 40
0.0
 40
0.0
 40
1.0
 40
1.0
 40
1.0
 40
2.0
 40
2.0
 40
2.0
 40
3.0
 40
3.0
 40
3.0
 40
4.0
 40
4.0
 40
4.0
 40
4.0
 10
148.3011418244152
 20
-229.3631879237187
 30
0.0
 10
148.3011418244152
 20
-208.9448391653845
 30
0.0
 10
131.7585499907238
 20
-192.4186116387085
 30
0.0
 10
111.3565655394051
 20
-192.4186116387085
 30
0.0
 10
90.95458108808573
 20
-192.4186116387085
 30
0.0
 10
74.39820878532888
 20
-208.9448391653845
 30
0.0
 10
74.39820878532888
 20
-229.3631879237187
 30
0.0
 10
74.39820878532888
 20
-249.7823979613696
 30
0.0
 10
90.95458108808573
 20
-266.3120706053088
 30
0.0
 10
111.3565655394051
 20
-266.3120706053088
 30
0.0
 10
131.7585499907238
 20
-266.3120706053088
 30
0.0
 10
148.3011418244152
 20
-249.7823979613696
 30
0.0
 10
148.3011418244152
 20
-229.3631879237187
 30
0.0
  0
INSERT
  5
EA
330
1F
100
AcDbEntity
  8
0
100
AcDbBlockReference
  2
block 6
 10
0.0
 20
0.0
 30
0.0
  0
INSERT
  5
104
330
1F
100
AcDbEntity
  8
0
100
AcDbBlockReference
  2
block 8
 10
0.0
 20
0.0
 30
0.0
  0
SPLINE
  5
11D
330
1F
100
AcDbEntity
  8
0
  6
AI-Linetype-9
 62
     6
370
    25
100
AcDbSpline
210
0.0
220
0.0
230
1.0
 70
    11
 71
     3
 72
    17
 73
    13
 74
     0
 42
0.0000000001
 43
0.0000000001
 12
1.0
 22
0.0
 32
0.0
 13
1.0
 23
0.0
 33
0.0
 40
0.0
 40
0.0
 40
0.0
 40
0.0
 40
1.0
 40
1.0
 40
1.0
 40
2.0
 40
2.0
 40
2.0
 40
3.0
 40
3.0
 40
3.0
 40
4.0
 40
4.0
 40
4.0
 40
4.0
 10
212.7668745020678
 20
-93.79134331663111
 30
0.0
 10
220.993642241012
 20
-93.79134331663111
 30
0.0
 10
227.6656340669726
 20
-87.12205440418312
 30
0.0
 10
227.6656340669726
 20
-78.89528666523894
 30
0.0
 10
227.6656340669726
 20
-70.66581601278604
 30
0.0
 10
220.993642241012
 20
-63.99652710034061
 30
0.0
 10
212.7668745020678
 20
-63.99652710034061
 30
0.0
 10
204.5401067631371
 20
-63.99652710034061
 30
0.0
 10
197.8681149371759
 20
-70.66581601278604
 30
0.0
 10
197.8681149371759
 20
-78.89528666523894
 30
0.0
 10
197.8681149371759
 20
-87.12205440418312
 30
0.0
 10
204.5401067631371
 20
-93.79134331663111
 30
0.0
 10
212.7668745020678
 20
-93.79134331663111
 30
0.0
  0
SPLINE
  5
11F
330
1F
100
AcDbEntity
  8
0
  6
AI-Linetype-10
 62
     6
370
    25
100
AcDbSpline
210
0.0
220
0.0
230
1.0
 70
    11
 71
     3
 72
    17
 73
    13
 74
     0
 42
0.0000000001
 43
0.0000000001
 12
1.0
 22
0.0
 32
0.0
 13
1.0
 23
0.0
 33
0.0
 40
0.0
 40
0.0
 40
0.0
 40
0.0
 40
1.0
 40
1.0
 40
1.0
 40
2.0
 40
2.0
 40
2.0
 40
3.0
 40
3.0
 40
3.0
 40
4.0
 40
4.0
 40
4.0
 40
4.0
 10
12.08865046229706
 20
-93.79134331663111
 30
0.0
 10
20.31541820123769
 20
-93.79134331663111
 30
0.0
 10
26.9874100271986
 20
-87.12205440418312
 30
0.0
 10
26.9874100271986
 20
-78.89528666523894
 30
0.0
 10
26.9874100271986
 20
-70.66581601278604
 30
0.0
 10
20.31541820123769
 20
-63.99652710034061
 30
0.0
 10
12.08865046229706
 20
-63.99652710034061
 30
0.0
 10
3.861882723362516
 20
-63.99652710034061
 30
0.0
 10
-2.810109102598069
 20
-70.66581601278604
 30
0.0
 10
-2.810109102598069
 20
-78.89528666523894
 30
0.0
 10
-2.810109102598069
 20
-87.12205440418312
 30
0.0
 10
3.861882723362516
 20
-93.79134331663111
 30
0.0
 10
12.08865046229706
 20
-93.79134331663111
 30
0.0
  0
ENDSEC
  0
SECTION
  2
OBJECTS
  0
DICTIONARY
  5
C
330
0
100
AcDbDictionary
281
     1
  3
ACAD_GROUP
350
D
  3
ACAD_LAYOUT
350
1A
  3
ACAD_MATERIAL
350
3B
  3
ACAD_MLEADERSTYLE
350
142
  3
ACAD_MLINESTYLE
350
17
  3
ACAD_PLOTSETTINGS
350
19
  3
ACAD_PLOTSTYLENAME
350
E
  3
ACAD_TABLESTYLE
350
141
  3
ACAD_VISUALSTYLE
350
2A
  0
SUN
  5
3F
330
29
100
AcDbSun
 90
        1
290
     0
 63
     7
421
 16777215
 40
1.0
291
     1
 91
  2455826
 92
 54000000
292
     0
 70
     2
 71
   256
280
     1
  0
DICTIONARY
  5
D
102
{ACAD_REACTORS
330
C
102
}
330
C
100
AcDbDictionary
281
     1
  0
DICTIONARY
  5
1A
102
{ACAD_REACTORS
330
C
102
}
330
C
100
AcDbDictionary
281
     1
  3
Layout1
350
1E
  3
Layout2
350
26
  3
Model
350
22
  0
DICTIONARY
  5
3B
102
{ACAD_REACTORS
330
C
102
}
330
C
100
AcDbDictionary
281
     1
  3
ByBlock
350
3D
  3
ByLayer
350
3C
  3
Global
350
3E
  0
DICTIONARY
  5
142
102
{ACAD_REACTORS
330
C
102
}
330
C
100
AcDbDictionary
281
     1
  0
DICTIONARY
  5
17
102
{ACAD_REACTORS
330
C
102
}
330
C
100
AcDbDictionary
281
     1
  3
Standard
350
18
  0
DICTIONARY
  5
19
102
{ACAD_REACTORS
330
C
102
}
330
C
100
AcDbDictionary
281
     1
  0
ACDBDICTIONARYWDFLT
  5
E
102
{ACAD_REACTORS
330
C
102
}
330
C
100
AcDbDictionary
281
     1
  3
Normal
350
F
100
AcDbDictionaryWithDefault
340
F
  0
DICTIONARY
  5
141
102
{ACAD_REACTORS
330
C
102
}
330
C
100
AcDbDictionary
281
     1
  0
DICTIONARY
  5
2A
102
{ACAD_REACTORS
330
C
102
}
330
C
100
AcDbDictionary
281
     1
  3
2dWireframe
350
2F
  3
3D Hidden
350
31
  3
3dWireframe
350
30
  3
Basic
350
32
  3
Brighten
350
36
  3
ColorChange
350
3A
  3
Conceptual
350
34
  3
Dim
350
35
  3
Facepattern
350
39
  3
Flat
350
2B
  3
FlatWithEdges
350
2C
  3
Gouraud
350
2D
  3
GouraudWithEdges
350
2E
  3
Linepattern
350
38
  3
Realistic
350
33
  3
Thicken
350
37
  0
LAYOUT
  5
1E
102
{ACAD_REACTORS
330
1A
102
}
330
1A
100
AcDbPlotSettings
  1

  2
none_device
  4

  6

 40
0.0
 41
0.0
 42
0.0
 43
0.0
 44
0.0
 45
0.0
 46
0.0
 47
0.0
 48
0.0
 49
0.0
140
0.0
141
0.0
142
1.0
143
1.0
 70
   688
 72
     0
 73
     0
 74
     5
  7

 75
    16
 76
     0
 77
     2
 78
   300
147
1.0
148
0.0
149
0.0
100
AcDbLayout
  1
Layout1
 70
     1
 71
     1
 10
0.0
 20
0.0
 11
12.0
 21
9.0
 12
0.0
 22
0.0
 32
0.0
 14
1.000000000000000E+20
 24
1.000000000000000E+20
 34
1.000000000000000E+20
 15
-1.000000000000000E+20
 25
-1.000000000000000E+20
 35
-1.000000000000000E+20
146
0.0
 13
0.0
 23
0.0
 33
0.0
 16
1.0
 26
0.0
 36
0.0
 17
0.0
 27
1.0
 37
0.0
 76
     0
330
1B
  0
LAYOUT
  5
26
102
{ACAD_REACTORS
330
1A
102
}
330
1A
100
AcDbPlotSettings
  1

  2
none_device
  4

  6

 40
0.0
 41
0.0
 42
0.0
 43
0.0
 44
0.0
 45
0.0
 46
0.0
 47
0.0
 48
0.0
 49
0.0
140
0.0
141
0.0
142
1.0
143
1.0
 70
   688
 72
     0
 73
     0
 74
     5
  7

 75
    16
 76
     0
 77
     2
 78
   300
147
1.0
148
0.0
149
0.0
100
AcDbLayout
  1
Layout2
 70
     1
 71
     2
 10
0.0
 20
0.0
 11
0.0
 21
0.0
 12
0.0
 22
0.0
 32
0.0
 14
0.0
 24
0.0
 34
0.0
 15
0.0
 25
0.0
 35
0.0
146
0.0
 13
0.0
 23
0.0
 33
0.0
 16
1.0
 26
0.0
 36
0.0
 17
0.0
 27
1.0
 37
0.0
 76
     0
330
23
  0
LAYOUT
  5
22
102
{ACAD_REACTORS
330
1A
102
}
330
1A
100
AcDbPlotSettings
  1

  2
none_device
  4

  6

 40
0.0
 41
0.0
 42
0.0
 43
0.0
 44
0.0
 45
0.0
 46
0.0
 47
0.0
 48
0.0
 49
0.0
140
0.0
141
0.0
142
1.0
143
1.0
 70
  1712
 72
     0
 73
     0
 74
     0
  7

 75
     0
 76
     0
 77
     2
 78
   300
147
1.0
148
0.0
149
0.0
100
AcDbLayout
  1
Model
 70
     1
 71
     0
 10
0.0
 20
0.0
 11
12.0
 21
9.0
 12
0.0
 22
0.0
 32
0.0
 14
1.000000000000000E+20
 24
1.000000000000000E+20
 34
1.000000000000000E+20
 15
-1.000000000000000E+20
 25
-1.000000000000000E+20
 35
-1.000000000000000E+20
146
0.0
 13
0.0
 23
0.0
 33
0.0
 16
1.0
 26
0.0
 36
0.0
 17
0.0
 27
1.0
 37
0.0
 76
     0
330
1F
331
29
  0
MATERIAL
  5
3D
102
{ACAD_REACTORS
330
3B
102
}
330
3B
100
AcDbMaterial
  1
ByBlock
 72
     1
 94
      127
  0
MATERIAL
  5
3C
102
{ACAD_REACTORS
330
3B
102
}
330
3B
100
AcDbMaterial
  1
ByLayer
 72
     1
 94
      127
  0
MATERIAL
  5
3E
102
{ACAD_REACTORS
330
3B
102
}
330
3B
100
AcDbMaterial
  1
Global
 72
     1
 94
      127
  0
MLINESTYLE
  5
18
102
{ACAD_REACTORS
330
17
102
}
330
17
100
AcDbMlineStyle
  2
Standard
 70
     0
  3

 62
   256
 51
90.0
 52
90.0
 71
     2
 49
0.5
 62
   256
  6
BYLAYER
 49
-0.5
 62
   256
  6
BYLAYER
  0
ACDBPLACEHOLDER
  5
F
102
{ACAD_REACTORS
330
E
102
}
330
E
  0
VISUALSTYLE
  5
2F
102
{ACAD_REACTORS
330
2A
102
}
102
{ACAD_XDICTIONARY
360
129
102
}
330
2A
100
AcDbVisualStyle
  2
2dWireframe
 70
     4
 71
     0
 72
     2
 73
     0
 90
        0
 40
-0.6
 41
-30.0
 62
     5
 63
     7
421
 16777215
 74
     1
 91
        4
 64
     7
 65
   257
 75
     1
175
     1
 42
1.0
 92
        0
 66
   257
 43
1.0
 76
     1
 77
     6
 78
     2
 67
     7
 79
     5
170
     0
171
     0
290
     0
174
     0
 93
        1
 44
0.0
173
     0
291
     0
 45
0.0
  0
VISUALSTYLE
  5
31
102
{ACAD_REACTORS
330
2A
102
}
102
{ACAD_XDICTIONARY
360
12D
102
}
330
2A
100
AcDbVisualStyle
  2
3D Hidden
 70
     6
 71
     1
 72
     2
 73
     2
 90
        0
 40
-0.6
 41
-30.0
 62
     5
 63
     7
421
 16777215
 74
     2
 91
        2
 64
     7
 65
   257
 75
     2
175
     1
 42
40.0
 92
        0
 66
   257
 43
1.0
 76
     1
 77
     6
 78
     2
 67
     7
 79
     3
170
     0
171
     0
290
     0
174
     0
 93
        1
 44
0.0
173
     0
291
     0
 45
0.0
  0
VISUALSTYLE
  5
30
102
{ACAD_REACTORS
330
2A
102
}
102
{ACAD_XDICTIONARY
360
12B
102
}
330
2A
100
AcDbVisualStyle
  2
3dWireframe
 70
     5
 71
     0
 72
     2
 73
     0
 90
        0
 40
-0.6
 41
-30.0
 62
     5
 63
     7
421
 16777215
 74
     1
 91
        4
 64
     7
 65
   257
 75
     1
175
     1
 42
1.0
 92
        0
 66
   257
 43
1.0
 76
     1
 77
     6
 78
     2
 67
     7
 79
     5
170
     0
171
     0
290
     0
174
     0
 93
        1
 44
0.0
173
     0
291
     0
 45
0.0
  0
VISUALSTYLE
  5
32
102
{ACAD_REACTORS
330
2A
102
}
102
{ACAD_XDICTIONARY
360
12F
102
}
330
2A
100
AcDbVisualStyle
  2
Basic
 70
     7
 71
     1
 72
     0
 73
     1
 90
        0
 40
-0.6
 41
-30.0
 62
     5
 63
     7
421
 16777215
 74
     0
 91
        4
 64
     7
 65
   257
 75
     1
175
     1
 42
1.0
 92
        8
 66
     7
 43
1.0
 76
     1
 77
     6
 78
     2
 67
     7
 79
     5
170
     0
171
     0
290
     0
174
     0
 93
        1
 44
0.0
173
     0
291
     1
 45
0.0
  0
VISUALSTYLE
  5
36
102
{ACAD_REACTORS
330
2A
102
}
102
{ACAD_XDICTIONARY
360
137
102
}
330
2A
100
AcDbVisualStyle
  2
Brighten
 70
    12
 71
     2
 72
     2
 73
     0
 90
        0
 40
-0.6
 41
-30.0
 62
     5
 63
     7
421
 16777215
 74
     1
 91
        4
 64
     7
 65
   257
 75
     1
175
     1
 42
1.0
 92
        8
 66
     7
 43
1.0
 76
     1
 77
     6
 78
     2
 67
     7
 79
     5
170
     0
171
     0
290
     0
174
     0
 93
        1
 44
50.0
173
     0
291
     1
 45
0.0
  0
VISUALSTYLE
  5
3A
102
{ACAD_REACTORS
330
2A
102
}
102
{ACAD_XDICTIONARY
360
13F
102
}
330
2A
100
AcDbVisualStyle
  2
ColorChange
 70
    16
 71
     2
 72
     2
 73
     3
 90
        0
 40
-0.6
 41
-30.0
 62
     5
 63
     8
421
  8421504
 74
     1
 91
        4
 64
     7
 65
   257
 75
     1
175
     1
 42
1.0
 92
        8
 66
     8
424
  8421504
 43
1.0
 76
     1
 77
     6
 78
     2
 67
     7
 79
     5
170
     0
171
     0
290
     0
174
     0
 93
        1
 44
0.0
173
     0
291
     1
 45
0.0
  0
VISUALSTYLE
  5
34
102
{ACAD_REACTORS
330
2A
102
}
102
{ACAD_XDICTIONARY
360
133
102
}
330
2A
100
AcDbVisualStyle
  2
Conceptual
 70
     9
 71
     3
 72
     2
 73
     0
 90
        0
 40
-0.6
 41
-30.0
 62
     5
 63
     7
421
 16777215
 74
     2
 91
        2
 64
     7
 65
   257
 75
     1
175
     1
 42
40.0
 92
        8
 66
     7
 43
1.0
 76
     1
 77
     6
 78
     2
 67
     7
 79
     3
170
     0
171
     0
290
     0
174
     0
 93
        1
 44
0.0
173
     0
291
     0
 45
0.0
  0
VISUALSTYLE
  5
35
102
{ACAD_REACTORS
330
2A
102
}
102
{ACAD_XDICTIONARY
360
135
102
}
330
2A
100
AcDbVisualStyle
  2
Dim
 70
    11
 71
     2
 72
     2
 73
     0
 90
        0
 40
-0.6
 41
-30.0
 62
     5
 63
     7
421
 16777215
 74
     1
 91
        4
 64
     7
 65
   257
 75
     1
175
     1
 42
1.0
 92
        8
 66
     7
 43
1.0
 76
     1
 77
     6
 78
     2
 67
     7
 79
     5
170
     0
171
     0
290
     0
174
     0
 93
        1
 44
-50.0
173
     0
291
     1
 45
0.0
  0
VISUALSTYLE
  5
39
102
{ACAD_REACTORS
330
2A
102
}
102
{ACAD_XDICTIONARY
360
13D
102
}
330
2A
100
AcDbVisualStyle
  2
Facepattern
 70
    15
 71
     2
 72
     2
 73
     0
 90
        0
 40
-0.6
 41
-30.0
 62
     5
 63
     7
421
 16777215
 74
     1
 91
        4
 64
     7
 65
   257
 75
     1
175
     1
 42
1.0
 92
        8
 66
     7
 43
1.0
 76
     1
 77
     6
 78
     2
 67
     7
 79
     5
170
     0
171
     0
290
     0
174
     0
 93
        1
 44
0.0
173
     0
291
     1
 45
0.0
  0
VISUALSTYLE
  5
2B
102
{ACAD_REACTORS
330
2A
102
}
102
{ACAD_XDICTIONARY
360
121
102
}
330
2A
100
AcDbVisualStyle
  2
Flat
 70
     0
 71
     2
 72
     1
 73
     1
 90
        2
 40
-0.6
 41
30.0
 62
     5
 63
     7
421
 16777215
 74
     0
 91
        4
 64
     7
 65
   257
 75
     1
175
     1
 42
1.0
 92
        8
 66
     7
 43
1.0
 76
     1
 77
     6
 78
     2
 67
     7
 79
     5
170
     0
171
     0
290
     0
174
     0
 93
       13
 44
0.0
173
     0
291
     1
 45
0.0
  0
VISUALSTYLE
  5
2C
102
{ACAD_REACTORS
330
2A
102
}
102
{ACAD_XDICTIONARY
360
123
102
}
330
2A
100
AcDbVisualStyle
  2
FlatWithEdges
 70
     1
 71
     2
 72
     1
 73
     1
 90
        2
 40
-0.6
 41
30.0
 62
     5
 63
     7
421
 16777215
 74
     1
 91
        4
 64
     7
 65
   257
 75
     1
175
     1
 42
1.0
 92
        0
 66
   257
 43
1.0
 76
     1
 77
     6
 78
     2
 67
     7
 79
     5
170
     0
171
     0
290
     0
174
     0
 93
       13
 44
0.0
173
     0
291
     1
 45
0.0
  0
VISUALSTYLE
  5
2D
102
{ACAD_REACTORS
330
2A
102
}
102
{ACAD_XDICTIONARY
360
125
102
}
330
2A
100
AcDbVisualStyle
  2
Gouraud
 70
     2
 71
     2
 72
     2
 73
     1
 90
        2
 40
-0.6
 41
30.0
 62
     5
 63
     7
421
 16777215
 74
     0
 91
        4
 64
     7
 65
   257
 75
     1
175
     1
 42
1.0
 92
        0
 66
     7
 43
1.0
 76
     1
 77
     6
 78
     2
 67
     7
 79
     5
170
     0
171
     0
290
     0
174
     0
 93
       13
 44
0.0
173
     0
291
     1
 45
0.0
  0
VISUALSTYLE
  5
2E
102
{ACAD_REACTORS
330
2A
102
}
102
{ACAD_XDICTIONARY
360
127
102
}
330
2A
100
AcDbVisualStyle
  2
GouraudWithEdges
 70
     3
 71
     2
 72
     2
 73
     1
 90
        2
 40
-0.6
 41
30.0
 62
     5
 63
     7
421
 16777215
 74
     1
 91
        4
 64
     7
 65
   257
 75
     1
175
     1
 42
1.0
 92
        0
 66
   257
 43
1.0
 76
     1
 77
     6
 78
     2
 67
     7
 79
     5
170
     0
171
     0
290
     0
174
     0
 93
       13
 44
0.0
173
     0
291
     1
 45
0.0
  0
VISUALSTYLE
  5
38
102
{ACAD_REACTORS
330
2A
102
}
102
{ACAD_XDICTIONARY
360
13B
102
}
330
2A
100
AcDbVisualStyle
  2
Linepattern
 70
    14
 71
     2
 72
     2
 73
     0
 90
        0
 40
-0.6
 41
-30.0
 62
     5
 63
     7
421
 16777215
 74
     1
 91
        4
 64
     7
 65
   257
 75
     7
175
     7
 42
1.0
 92
        8
 66
     7
 43
1.0
 76
     1
 77
     6
 78
     2
 67
     7
 79
     5
170
     0
171
     0
290
     0
174
     0
 93
        1
 44
0.0
173
     0
291
     1
 45
0.0
  0
VISUALSTYLE
  5
33
102
{ACAD_REACTORS
330
2A
102
}
102
{ACAD_XDICTIONARY
360
131
102
}
330
2A
100
AcDbVisualStyle
  2
Realistic
 70
     8
 71
     2
 72
     2
 73
     0
 90
        0
 40
-0.6
 41
-30.0
 62
     5
 63
     7
421
 16777215
 74
     1
 91
        0
 64
     7
 65
   257
 75
     1
175
     1
 42
1.0
 92
        8
 66
     8
424
  7895160
 43
1.0
 76
     1
 77
     6
 78
     2
 67
     7
 79
     5
170
     0
171
     0
290
     0
174
     0
 93
       13
 44
0.0
173
     0
291
     0
 45
0.0
  0
VISUALSTYLE
  5
37
102
{ACAD_REACTORS
330
2A
102
}
102
{ACAD_XDICTIONARY
360
139
102
}
330
2A
100
AcDbVisualStyle
  2
Thicken
 70
    13
 71
     2
 72
     2
 73
     0
 90
        0
 40
-0.6
 41
-30.0
 62
     5
 63
     7
421
 16777215
 74
     1
 91
        4
 64
     7
 65
   257
 75
     1
175
     1
 42
1.0
 92
       12
 66
     7
 43
1.0
 76
     1
 77
     6
 78
     2
 67
     7
 79
     5
170
     0
171
     0
290
     0
174
     0
 93
        1
 44
0.0
173
     0
291
     1
 45
0.0
  0
DICTIONARY
  5
129
330
2F
100
AcDbDictionary
280
     1
281
     1
  3
ACAD_XREC_ROUNDTRIP
360
12A
  0
DICTIONARY
  5
12D
330
31
100
AcDbDictionary
280
     1
281
     1
  3
ACAD_XREC_ROUNDTRIP
360
12E
  0
DICTIONARY
  5
12B
330
30
100
AcDbDictionary
280
     1
281
     1
  3
ACAD_XREC_ROUNDTRIP
360
12C
  0
DICTIONARY
  5
12F
330
32
100
AcDbDictionary
280
     1
281
     1
  3
ACAD_XREC_ROUNDTRIP
360
130
  0
DICTIONARY
  5
137
330
36
100
AcDbDictionary
280
     1
281
     1
  3
ACAD_XREC_ROUNDTRIP
360
138
  0
DICTIONARY
  5
13F
330
3A
100
AcDbDictionary
280
     1
281
     1
  3
ACAD_XREC_ROUNDTRIP
360
140
  0
DICTIONARY
  5
133
330
34
100
AcDbDictionary
280
     1
281
     1
  3
ACAD_XREC_ROUNDTRIP
360
134
  0
DICTIONARY
  5
135
330
35
100
AcDbDictionary
280
     1
281
     1
  3
ACAD_XREC_ROUNDTRIP
360
136
  0
DICTIONARY
  5
13D
330
39
100
AcDbDictionary
280
     1
281
     1
  3
ACAD_XREC_ROUNDTRIP
360
13E
  0
DICTIONARY
  5
121
330
2B
100
AcDbDictionary
280
     1
281
     1
  3
ACAD_XREC_ROUNDTRIP
360
122
  0
DICTIONARY
  5
123
330
2C
100
AcDbDictionary
280
     1
281
     1
  3
ACAD_XREC_ROUNDTRIP
360
124
  0
DICTIONARY
  5
125
330
2D
100
AcDbDictionary
280
     1
281
     1
  3
ACAD_XREC_ROUNDTRIP
360
126
  0
DICTIONARY
  5
127
330
2E
100
AcDbDictionary
280
     1
281
     1
  3
ACAD_XREC_ROUNDTRIP
360
128
  0
DICTIONARY
  5
13B
330
38
100
AcDbDictionary
280
     1
281
     1
  3
ACAD_XREC_ROUNDTRIP
360
13C
  0
DICTIONARY
  5
131
330
33
100
AcDbDictionary
280
     1
281
     1
  3
ACAD_XREC_ROUNDTRIP
360
132
  0
DICTIONARY
  5
139
330
37
100
AcDbDictionary
280
     1
281
     1
  3
ACAD_XREC_ROUNDTRIP
360
13A
  0
XRECORD
  5
12A
102
{ACAD_REACTORS
330
129
102
}
330
129
100
AcDbXrecord
280
     1
102
RTVSPropertyOp0
 70
     1
102
RTVSPropertyOp1
 70
     1
102
RTVSPropertyOp2
 70
     1
102
RTVSPropertyOp3
 70
     1
102
RTVSPropertyOp4
 70
     1
102
RTVSPropertyOp5
 70
     1
102
RTVSPropertyOp6
 70
     1
102
RTVSPropertyOp7
 70
     1
102
RTVSPropertyOp8
 70
     1
102
RTVSPropertyOp9
 70
     1
102
RTVSPropertyOp10
 70
     1
102
RTVSPropertyOp11
 70
     1
102
RTVSPropertyOp12
 70
     1
102
RTVSPropertyOp13
 70
     1
102
RTVSPropertyOp14
 70
     1
102
RTVSPropertyOp15
 70
     1
102
RTVSPropertyOp16
 70
     1
102
RTVSPropertyOp17
 70
     1
102
RTVSPropertyOp18
 70
     1
102
RTVSPropertyOp19
 70
     1
102
RTVSPropertyOp20
 70
     1
102
RTVSPropertyOp21
 70
     1
102
RTVSPropertyOp22
 70
     1
102
RTVSPropertyOp23
 70
     1
102
RTVSPropertyOp24
 70
     1
102
RTVSPropertyOp25
 70
     1
102
RTVSPropertyOp26
 70
     1
102
RTVSPropertyOp27
 70
     1
102
RTVSPropertyOp28
 70
     1
102
RTVSPropertyOp29
 70
     1
102
RTVSPropertyOp30
 70
     1
102
RTVSPropertyOp31
 70
     1
102
RTVSPropertyOp32
 70
     1
  0
XRECORD
  5
12E
102
{ACAD_REACTORS
330
12D
102
}
330
12D
100
AcDbXrecord
280
     1
102
RTVSPropertyOp0
 70
     1
102
RTVSPropertyOp1
 70
     1
102
RTVSPropertyOp2
 70
     1
102
RTVSPropertyOp3
 70
     1
102
RTVSPropertyOp4
 70
     1
102
RTVSPropertyOp5
 70
     1
102
RTVSPropertyOp6
 70
     1
102
RTVSPropertyOp7
 70
     1
102
RTVSPropertyOp8
 70
     1
102
RTVSPropertyOp9
 70
     1
102
RTVSPropertyOp10
 70
     1
102
RTVSPropertyOp11
 70
     1
102
RTVSPropertyOp12
 70
     1
102
RTVSPropertyOp13
 70
     1
102
RTVSPropertyOp14
 70
     1
102
RTVSPropertyOp15
 70
     1
102
RTVSPropertyOp16
 70
     1
102
RTVSPropertyOp17
 70
     1
102
RTVSPropertyOp18
 70
     1
102
RTVSPropertyOp19
 70
     1
102
RTVSPropertyOp20
 70
     1
102
RTVSPropertyOp21
 70
     1
102
RTVSPropertyOp22
 70
     1
102
RTVSPropertyOp23
 70
     1
102
RTVSPropertyOp24
 70
     1
102
RTVSPropertyOp25
 70
     1
102
RTVSPropertyOp26
 70
     1
102
RTVSPropertyOp27
 70
     1
102
RTVSPropertyOp28
 70
     1
102
RTVSPropertyOp29
 70
     1
102
RTVSPropertyOp30
 70
     1
102
RTVSPropertyOp31
 70
     1
102
RTVSPropertyOp32
 70
     1
  0
XRECORD
  5
12C
102
{ACAD_REACTORS
330
12B
102
}
330
12B
100
AcDbXrecord
280
     1
102
RTVSPropertyOp0
 70
     1
102
RTVSPropertyOp1
 70
     1
102
RTVSPropertyOp2
 70
     1
102
RTVSPropertyOp3
 70
     1
102
RTVSPropertyOp4
 70
     1
102
RTVSPropertyOp5
 70
     1
102
RTVSPropertyOp6
 70
     1
102
RTVSPropertyOp7
 70
     1
102
RTVSPropertyOp8
 70
     1
102
RTVSPropertyOp9
 70
     1
102
RTVSPropertyOp10
 70
     1
102
RTVSPropertyOp11
 70
     1
102
RTVSPropertyOp12
 70
     1
102
RTVSPropertyOp13
 70
     1
102
RTVSPropertyOp14
 70
     1
102
RTVSPropertyOp15
 70
     1
102
RTVSPropertyOp16
 70
     1
102
RTVSPropertyOp17
 70
     1
102
RTVSPropertyOp18
 70
     1
102
RTVSPropertyOp19
 70
     1
102
RTVSPropertyOp20
 70
     1
102
RTVSPropertyOp21
 70
     1
102
RTVSPropertyOp22
 70
     1
102
RTVSPropertyOp23
 70
     1
102
RTVSPropertyOp24
 70
     1
102
RTVSPropertyOp25
 70
     1
102
RTVSPropertyOp26
 70
     1
102
RTVSPropertyOp27
 70
     1
102
RTVSPropertyOp28
 70
     1
102
RTVSPropertyOp29
 70
     1
102
RTVSPropertyOp30
 70
     1
102
RTVSPropertyOp31
 70
     1
102
RTVSPropertyOp32
 70
     1
  0
XRECORD
  5
130
102
{ACAD_REACTORS
330
12F
102
}
330
12F
100
AcDbXrecord
280
     1
102
RTVSPropertyOp0
 70
     1
102
RTVSPropertyOp1
 70
     1
102
RTVSPropertyOp2
 70
     1
102
RTVSPropertyOp3
 70
     1
102
RTVSPropertyOp4
 70
     1
102
RTVSPropertyOp5
 70
     1
102
RTVSPropertyOp6
 70
     1
102
RTVSPropertyOp7
 70
     1
102
RTVSPropertyOp8
 70
     1
102
RTVSPropertyOp9
 70
     1
102
RTVSPropertyOp10
 70
     1
102
RTVSPropertyOp11
 70
     1
102
RTVSPropertyOp12
 70
     1
102
RTVSPropertyOp13
 70
     1
102
RTVSPropertyOp14
 70
     1
102
RTVSPropertyOp15
 70
     1
102
RTVSPropertyOp16
 70
     1
102
RTVSPropertyOp17
 70
     1
102
RTVSPropertyOp18
 70
     1
102
RTVSPropertyOp19
 70
     1
102
RTVSPropertyOp20
 70
     1
102
RTVSPropertyOp21
 70
     1
102
RTVSPropertyOp22
 70
     1
102
RTVSPropertyOp23
 70
     1
102
RTVSPropertyOp24
 70
     1
102
RTVSPropertyOp25
 70
     1
102
RTVSPropertyOp26
 70
     1
102
RTVSPropertyOp27
 70
     1
102
RTVSPropertyOp28
 70
     1
102
RTVSPropertyOp29
 70
     1
102
RTVSPropertyOp30
 70
     1
102
RTVSPropertyOp31
 70
     1
102
RTVSPropertyOp32
 70
     1
  0
XRECORD
  5
138
102
{ACAD_REACTORS
330
137
102
}
330
137
100
AcDbXrecord
280
     1
102
RTVSPropertyOp0
 70
     1
102
RTVSPropertyOp1
 70
     1
102
RTVSPropertyOp2
 70
     1
102
RTVSPropertyOp3
 70
     1
102
RTVSPropertyOp4
 70
     1
102
RTVSPropertyOp5
 70
     1
102
RTVSPropertyOp6
 70
     1
102
RTVSPropertyOp7
 70
     1
102
RTVSPropertyOp8
 70
     1
102
RTVSPropertyOp9
 70
     1
102
RTVSPropertyOp10
 70
     1
102
RTVSPropertyOp11
 70
     1
102
RTVSPropertyOp12
 70
     1
102
RTVSPropertyOp13
 70
     1
102
RTVSPropertyOp14
 70
     1
102
RTVSPropertyOp15
 70
     1
102
RTVSPropertyOp16
 70
     1
102
RTVSPropertyOp17
 70
     1
102
RTVSPropertyOp18
 70
     1
102
RTVSPropertyOp19
 70
     1
102
RTVSPropertyOp20
 70
     1
102
RTVSPropertyOp21
 70
     1
102
RTVSPropertyOp22
 70
     1
102
RTVSPropertyOp23
 70
     1
102
RTVSPropertyOp24
 70
     1
102
RTVSPropertyOp25
 70
     1
102
RTVSPropertyOp26
 70
     1
102
RTVSPropertyOp27
 70
     1
102
RTVSPropertyOp28
 70
     1
102
RTVSPropertyOp29
 70
     1
102
RTVSPropertyOp30
 70
     1
102
RTVSPropertyOp31
 70
     1
102
RTVSPropertyOp32
 70
     1
  0
XRECORD
  5
140
102
{ACAD_REACTORS
330
13F
102
}
330
13F
100
AcDbXrecord
280
     1
102
RTVSPropertyOp0
 70
     1
102
RTVSPropertyOp1
 70
     1
102
RTVSPropertyOp2
 70
     1
102
RTVSPropertyOp3
 70
     1
102
RTVSPropertyOp4
 70
     1
102
RTVSPropertyOp5
 70
     1
102
RTVSPropertyOp6
 70
     1
102
RTVSPropertyOp7
 70
     1
102
RTVSPropertyOp8
 70
     1
102
RTVSPropertyOp9
 70
     1
102
RTVSPropertyOp10
 70
     1
102
RTVSPropertyOp11
 70
     1
102
RTVSPropertyOp12
 70
     1
102
RTVSPropertyOp13
 70
     1
102
RTVSPropertyOp14
 70
     1
102
RTVSPropertyOp15
 70
     1
102
RTVSPropertyOp16
 70
     1
102
RTVSPropertyOp17
 70
     1
102
RTVSPropertyOp18
 70
     1
102
RTVSPropertyOp19
 70
     1
102
RTVSPropertyOp20
 70
     1
102
RTVSPropertyOp21
 70
     1
102
RTVSPropertyOp22
 70
     1
102
RTVSPropertyOp23
 70
     1
102
RTVSPropertyOp24
 70
     1
102
RTVSPropertyOp25
 70
     1
102
RTVSPropertyOp26
 70
     1
102
RTVSPropertyOp27
 70
     1
102
RTVSPropertyOp28
 70
     1
102
RTVSPropertyOp29
 70
     1
102
RTVSPropertyOp30
 70
     1
102
RTVSPropertyOp31
 70
     1
102
RTVSPropertyOp32
 70
     1
  0
XRECORD
  5
134
102
{ACAD_REACTORS
330
133
102
}
330
133
100
AcDbXrecord
280
     1
102
RTVSPropertyOp0
 70
     1
102
RTVSPropertyOp1
 70
     1
102
RTVSPropertyOp2
 70
     1
102
RTVSPropertyOp3
 70
     1
102
RTVSPropertyOp4
 70
     1
102
RTVSPropertyOp5
 70
     1
102
RTVSPropertyOp6
 70
     1
102
RTVSPropertyOp7
 70
     1
102
RTVSPropertyOp8
 70
     1
102
RTVSPropertyOp9
 70
     1
102
RTVSPropertyOp10
 70
     1
102
RTVSPropertyOp11
 70
     1
102
RTVSPropertyOp12
 70
     1
102
RTVSPropertyOp13
 70
     1
102
RTVSPropertyOp14
 70
     1
102
RTVSPropertyOp15
 70
     1
102
RTVSPropertyOp16
 70
     1
102
RTVSPropertyOp17
 70
     1
102
RTVSPropertyOp18
 70
     1
102
RTVSPropertyOp19
 70
     1
102
RTVSPropertyOp20
 70
     1
102
RTVSPropertyOp21
 70
     1
102
RTVSPropertyOp22
 70
     1
102
RTVSPropertyOp23
 70
     1
102
RTVSPropertyOp24
 70
     1
102
RTVSPropertyOp25
 70
     1
102
RTVSPropertyOp26
 70
     1
102
RTVSPropertyOp27
 70
     1
102
RTVSPropertyOp28
 70
     1
102
RTVSPropertyOp29
 70
     1
102
RTVSPropertyOp30
 70
     1
102
RTVSPropertyOp31
 70
     1
102
RTVSPropertyOp32
 70
     1
  0
XRECORD
  5
136
102
{ACAD_REACTORS
330
135
102
}
330
135
100
AcDbXrecord
280
     1
102
RTVSPropertyOp0
 70
     1
102
RTVSPropertyOp1
 70
     1
102
RTVSPropertyOp2
 70
     1
102
RTVSPropertyOp3
 70
     1
102
RTVSPropertyOp4
 70
     1
102
RTVSPropertyOp5
 70
     1
102
RTVSPropertyOp6
 70
     1
102
RTVSPropertyOp7
 70
     1
102
RTVSPropertyOp8
 70
     1
102
RTVSPropertyOp9
 70
     1
102
RTVSPropertyOp10
 70
     1
102
RTVSPropertyOp11
 70
     1
102
RTVSPropertyOp12
 70
     1
102
RTVSPropertyOp13
 70
     1
102
RTVSPropertyOp14
 70
     1
102
RTVSPropertyOp15
 70
     1
102
RTVSPropertyOp16
 70
     1
102
RTVSPropertyOp17
 70
     1
102
RTVSPropertyOp18
 70
     1
102
RTVSPropertyOp19
 70
     1
102
RTVSPropertyOp20
 70
     1
102
RTVSPropertyOp21
 70
     1
102
RTVSPropertyOp22
 70
     1
102
RTVSPropertyOp23
 70
     1
102
RTVSPropertyOp24
 70
     1
102
RTVSPropertyOp25
 70
     1
102
RTVSPropertyOp26
 70
     1
102
RTVSPropertyOp27
 70
     1
102
RTVSPropertyOp28
 70
     1
102
RTVSPropertyOp29
 70
     1
102
RTVSPropertyOp30
 70
     1
102
RTVSPropertyOp31
 70
     1
102
RTVSPropertyOp32
 70
     1
  0
XRECORD
  5
13E
102
{ACAD_REACTORS
330
13D
102
}
330
13D
100
AcDbXrecord
280
     1
102
RTVSPropertyOp0
 70
     1
102
RTVSPropertyOp1
 70
     1
102
RTVSPropertyOp2
 70
     1
102
RTVSPropertyOp3
 70
     1
102
RTVSPropertyOp4
 70
     1
102
RTVSPropertyOp5
 70
     1
102
RTVSPropertyOp6
 70
     1
102
RTVSPropertyOp7
 70
     1
102
RTVSPropertyOp8
 70
     1
102
RTVSPropertyOp9
 70
     1
102
RTVSPropertyOp10
 70
     1
102
RTVSPropertyOp11
 70
     1
102
RTVSPropertyOp12
 70
     1
102
RTVSPropertyOp13
 70
     1
102
RTVSPropertyOp14
 70
     1
102
RTVSPropertyOp15
 70
     1
102
RTVSPropertyOp16
 70
     1
102
RTVSPropertyOp17
 70
     1
102
RTVSPropertyOp18
 70
     1
102
RTVSPropertyOp19
 70
     1
102
RTVSPropertyOp20
 70
     1
102
RTVSPropertyOp21
 70
     1
102
RTVSPropertyOp22
 70
     1
102
RTVSPropertyOp23
 70
     1
102
RTVSPropertyOp24
 70
     1
102
RTVSPropertyOp25
 70
     1
102
RTVSPropertyOp26
 70
     1
102
RTVSPropertyOp27
 70
     1
102
RTVSPropertyOp28
 70
     1
102
RTVSPropertyOp29
 70
     1
102
RTVSPropertyOp30
 70
     1
102
RTVSPropertyOp31
 70
     1
102
RTVSPropertyOp32
 70
     1
  0
XRECORD
  5
122
102
{ACAD_REACTORS
330
121
102
}
330
121
100
AcDbXrecord
280
     1
102
RTVSPropertyOp0
 70
     1
102
RTVSPropertyOp1
 70
     1
102
RTVSPropertyOp2
 70
     1
102
RTVSPropertyOp3
 70
     1
102
RTVSPropertyOp4
 70
     1
102
RTVSPropertyOp5
 70
     1
102
RTVSPropertyOp6
 70
     1
102
RTVSPropertyOp7
 70
     1
102
RTVSPropertyOp8
 70
     1
102
RTVSPropertyOp9
 70
     1
102
RTVSPropertyOp10
 70
     1
102
RTVSPropertyOp11
 70
     1
102
RTVSPropertyOp12
 70
     1
102
RTVSPropertyOp13
 70
     1
102
RTVSPropertyOp14
 70
     1
102
RTVSPropertyOp15
 70
     1
102
RTVSPropertyOp16
 70
     1
102
RTVSPropertyOp17
 70
     1
102
RTVSPropertyOp18
 70
     1
102
RTVSPropertyOp19
 70
     1
102
RTVSPropertyOp20
 70
     1
102
RTVSPropertyOp21
 70
     1
102
RTVSPropertyOp22
 70
     1
102
RTVSPropertyOp23
 70
     1
102
RTVSPropertyOp24
 70
     1
102
RTVSPropertyOp25
 70
     1
102
RTVSPropertyOp26
 70
     1
102
RTVSPropertyOp27
 70
     1
102
RTVSPropertyOp28
 70
     1
102
RTVSPropertyOp29
 70
     1
102
RTVSPropertyOp30
 70
     1
102
RTVSPropertyOp31
 70
     1
102
RTVSPropertyOp32
 70
     1
  0
XRECORD
  5
124
102
{ACAD_REACTORS
330
123
102
}
330
123
100
AcDbXrecord
280
     1
102
RTVSPropertyOp0
 70
     1
102
RTVSPropertyOp1
 70
     1
102
RTVSPropertyOp2
 70
     1
102
RTVSPropertyOp3
 70
     1
102
RTVSPropertyOp4
 70
     1
102
RTVSPropertyOp5
 70
     1
102
RTVSPropertyOp6
 70
     1
102
RTVSPropertyOp7
 70
     1
102
RTVSPropertyOp8
 70
     1
102
RTVSPropertyOp9
 70
     1
102
RTVSPropertyOp10
 70
     1
102
RTVSPropertyOp11
 70
     1
102
RTVSPropertyOp12
 70
     1
102
RTVSPropertyOp13
 70
     1
102
RTVSPropertyOp14
 70
     1
102
RTVSPropertyOp15
 70
     1
102
RTVSPropertyOp16
 70
     1
102
RTVSPropertyOp17
 70
     1
102
RTVSPropertyOp18
 70
     1
102
RTVSPropertyOp19
 70
     1
102
RTVSPropertyOp20
 70
     1
102
RTVSPropertyOp21
 70
     1
102
RTVSPropertyOp22
 70
     1
102
RTVSPropertyOp23
 70
     1
102
RTVSPropertyOp24
 70
     1
102
RTVSPropertyOp25
 70
     1
102
RTVSPropertyOp26
 70
     1
102
RTVSPropertyOp27
 70
     1
102
RTVSPropertyOp28
 70
     1
102
RTVSPropertyOp29
 70
     1
102
RTVSPropertyOp30
 70
     1
102
RTVSPropertyOp31
 70
     1
102
RTVSPropertyOp32
 70
     1
  0
XRECORD
  5
126
102
{ACAD_REACTORS
330
125
102
}
330
125
100
AcDbXrecord
280
     1
102
RTVSPropertyOp0
 70
     1
102
RTVSPropertyOp1
 70
     1
102
RTVSPropertyOp2
 70
     1
102
RTVSPropertyOp3
 70
     1
102
RTVSPropertyOp4
 70
     1
102
RTVSPropertyOp5
 70
     1
102
RTVSPropertyOp6
 70
     1
102
RTVSPropertyOp7
 70
     1
102
RTVSPropertyOp8
 70
     1
102
RTVSPropertyOp9
 70
     1
102
RTVSPropertyOp10
 70
     1
102
RTVSPropertyOp11
 70
     1
102
RTVSPropertyOp12
 70
     1
102
RTVSPropertyOp13
 70
     1
102
RTVSPropertyOp14
 70
     1
102
RTVSPropertyOp15
 70
     1
102
RTVSPropertyOp16
 70
     1
102
RTVSPropertyOp17
 70
     1
102
RTVSPropertyOp18
 70
     1
102
RTVSPropertyOp19
 70
     1
102
RTVSPropertyOp20
 70
     1
102
RTVSPropertyOp21
 70
     1
102
RTVSPropertyOp22
 70
     1
102
RTVSPropertyOp23
 70
     1
102
RTVSPropertyOp24
 70
     1
102
RTVSPropertyOp25
 70
     1
102
RTVSPropertyOp26
 70
     1
102
RTVSPropertyOp27
 70
     1
102
RTVSPropertyOp28
 70
     1
102
RTVSPropertyOp29
 70
     1
102
RTVSPropertyOp30
 70
     1
102
RTVSPropertyOp31
 70
     1
102
RTVSPropertyOp32
 70
     1
  0
XRECORD
  5
128
102
{ACAD_REACTORS
330
127
102
}
330
127
100
AcDbXrecord
280
     1
102
RTVSPropertyOp0
 70
     1
102
RTVSPropertyOp1
 70
     1
102
RTVSPropertyOp2
 70
     1
102
RTVSPropertyOp3
 70
     1
102
RTVSPropertyOp4
 70
     1
102
RTVSPropertyOp5
 70
     1
102
RTVSPropertyOp6
 70
     1
102
RTVSPropertyOp7
 70
     1
102
RTVSPropertyOp8
 70
     1
102
RTVSPropertyOp9
 70
     1
102
RTVSPropertyOp10
 70
     1
102
RTVSPropertyOp11
 70
     1
102
RTVSPropertyOp12
 70
     1
102
RTVSPropertyOp13
 70
     1
102
RTVSPropertyOp14
 70
     1
102
RTVSPropertyOp15
 70
     1
102
RTVSPropertyOp16
 70
     1
102
RTVSPropertyOp17
 70
     1
102
RTVSPropertyOp18
 70
     1
102
RTVSPropertyOp19
 70
     1
102
RTVSPropertyOp20
 70
     1
102
RTVSPropertyOp21
 70
     1
102
RTVSPropertyOp22
 70
     1
102
RTVSPropertyOp23
 70
     1
102
RTVSPropertyOp24
 70
     1
102
RTVSPropertyOp25
 70
     1
102
RTVSPropertyOp26
 70
     1
102
RTVSPropertyOp27
 70
     1
102
RTVSPropertyOp28
 70
     1
102
RTVSPropertyOp29
 70
     1
102
RTVSPropertyOp30
 70
     1
102
RTVSPropertyOp31
 70
     1
102
RTVSPropertyOp32
 70
     1
  0
XRECORD
  5
13C
102
{ACAD_REACTORS
330
13B
102
}
330
13B
100
AcDbXrecord
280
     1
102
RTVSPropertyOp0
 70
     1
102
RTVSPropertyOp1
 70
     1
102
RTVSPropertyOp2
 70
     1
102
RTVSPropertyOp3
 70
     1
102
RTVSPropertyOp4
 70
     1
102
RTVSPropertyOp5
 70
     1
102
RTVSPropertyOp6
 70
     1
102
RTVSPropertyOp7
 70
     1
102
RTVSPropertyOp8
 70
     1
102
RTVSPropertyOp9
 70
     1
102
RTVSPropertyOp10
 70
     1
102
RTVSPropertyOp11
 70
     1
102
RTVSPropertyOp12
 70
     1
102
RTVSPropertyOp13
 70
     1
102
RTVSPropertyOp14
 70
     1
102
RTVSPropertyOp15
 70
     1
102
RTVSPropertyOp16
 70
     1
102
RTVSPropertyOp17
 70
     1
102
RTVSPropertyOp18
 70
     1
102
RTVSPropertyOp19
 70
     1
102
RTVSPropertyOp20
 70
     1
102
RTVSPropertyOp21
 70
     1
102
RTVSPropertyOp22
 70
     1
102
RTVSPropertyOp23
 70
     1
102
RTVSPropertyOp24
 70
     1
102
RTVSPropertyOp25
 70
     1
102
RTVSPropertyOp26
 70
     1
102
RTVSPropertyOp27
 70
     1
102
RTVSPropertyOp28
 70
     1
102
RTVSPropertyOp29
 70
     1
102
RTVSPropertyOp30
 70
     1
102
RTVSPropertyOp31
 70
     1
102
RTVSPropertyOp32
 70
     1
  0
XRECORD
  5
132
102
{ACAD_REACTORS
330
131
102
}
330
131
100
AcDbXrecord
280
     1
102
RTVSPropertyOp0
 70
     1
102
RTVSPropertyOp1
 70
     1
102
RTVSPropertyOp2
 70
     1
102
RTVSPropertyOp3
 70
     1
102
RTVSPropertyOp4
 70
     1
102
RTVSPropertyOp5
 70
     1
102
RTVSPropertyOp6
 70
     1
102
RTVSPropertyOp7
 70
     1
102
RTVSPropertyOp8
 70
     1
102
RTVSPropertyOp9
 70
     1
102
RTVSPropertyOp10
 70
     1
102
RTVSPropertyOp11
 70
     1
102
RTVSPropertyOp12
 70
     1
102
RTVSPropertyOp13
 70
     1
102
RTVSPropertyOp14
 70
     1
102
RTVSPropertyOp15
 70
     1
102
RTVSPropertyOp16
 70
     1
102
RTVSPropertyOp17
 70
     1
102
RTVSPropertyOp18
 70
     1
102
RTVSPropertyOp19
 70
     1
102
RTVSPropertyOp20
 70
     1
102
RTVSPropertyOp21
 70
     1
102
RTVSPropertyOp22
 70
     1
102
RTVSPropertyOp23
 70
     1
102
RTVSPropertyOp24
 70
     1
102
RTVSPropertyOp25
 70
     1
102
RTVSPropertyOp26
 70
     1
102
RTVSPropertyOp27
 70
     1
102
RTVSPropertyOp28
 70
     1
102
RTVSPropertyOp29
 70
     1
102
RTVSPropertyOp30
 70
     1
102
RTVSPropertyOp31
 70
     1
102
RTVSPropertyOp32
 70
     1
  0
XRECORD
  5
13A
102
{ACAD_REACTORS
330
139
102
}
330
139
100
AcDbXrecord
280
     1
102
RTVSPropertyOp0
 70
     1
102
RTVSPropertyOp1
 70
     1
102
RTVSPropertyOp2
 70
     1
102
RTVSPropertyOp3
 70
     1
102
RTVSPropertyOp4
 70
     1
102
RTVSPropertyOp5
 70
     1
102
RTVSPropertyOp6
 70
     1
102
RTVSPropertyOp7
 70
     1
102
RTVSPropertyOp8
 70
     1
102
RTVSPropertyOp9
 70
     1
102
RTVSPropertyOp10
 70
     1
102
RTVSPropertyOp11
 70
     1
102
RTVSPropertyOp12
 70
     1
102
RTVSPropertyOp13
 70
     1
102
RTVSPropertyOp14
 70
     1
102
RTVSPropertyOp15
 70
     1
102
RTVSPropertyOp16
 70
     1
102
RTVSPropertyOp17
 70
     1
102
RTVSPropertyOp18
 70
     1
102
RTVSPropertyOp19
 70
     1
102
RTVSPropertyOp20
 70
     1
102
RTVSPropertyOp21
 70
     1
102
RTVSPropertyOp22
 70
     1
102
RTVSPropertyOp23
 70
     1
102
RTVSPropertyOp24
 70
     1
102
RTVSPropertyOp25
 70
     1
102
RTVSPropertyOp26
 70
     1
102
RTVSPropertyOp27
 70
     1
102
RTVSPropertyOp28
 70
     1
102
RTVSPropertyOp29
 70
     1
102
RTVSPropertyOp30
 70
     1
102
RTVSPropertyOp31
 70
     1
102
RTVSPropertyOp32
 70
     1
  0
ENDSEC
  0
EOF
