  0
SECTION
  2
HEADER
  9
$ACADVER
  1
AC1024
  9
$ACADMAINTVER
 70
     6
  9
$DWGCODEPAGE
  3
UNDEFINED
  9
$INSBASE
 10
0.0
 20
0.0
 30
0.0
  9
$EXTMIN
 10
1.000000000000000E+20
 20
1.000000000000000E+20
 30
1.000000000000000E+20
  9
$EXTMAX
 10
-1.000000000000000E+20
 20
-1.000000000000000E+20
 30
-1.000000000000000E+20
  9
$LIMMIN
 10
0.0
 20
0.0
  9
$LIMMAX
 10
12.0
 20
9.0
  9
$ORTHOMODE
 70
     0
  9
$REGENMODE
 70
     1
  9
$FILLMODE
 70
     1
  9
$QTEXTMODE
 70
     0
  9
$MIRRTEXT
 70
     1
  9
$LTSCALE
 40
1.0
  9
$ATTMODE
 70
     1
  9
$TEXTSIZE
 40
0.2
  9
$TRACEWID
 40
0.05
  9
$TEXTSTYLE
  7
Standard
  9
$CLAYER
  8
0
  9
$CELTYPE
  6
ByLayer
  9
$CECOLOR
 62
   256
  9
$CELTSCALE
 40
1.0
  9
$DISPSILH
 70
     0
  9
$DIMSCALE
 40
1.0
  9
$DIMASZ
 40
0.18
  9
$DIMEXO
 40
0.0625
  9
$DIMDLI
 40
0.38
  9
$DIMRND
 40
0.0
  9
$DIMDLE
 40
0.0
  9
$DIMEXE
 40
0.18
  9
$DIMTP
 40
0.0
  9
$DIMTM
 40
0.0
  9
$DIMTXT
 40
0.18
  9
$DIMCEN
 40
0.09
  9
$DIMTSZ
 40
0.0
  9
$DIMTOL
 70
     0
  9
$DIMLIM
 70
     0
  9
$DIMTIH
 70
     1
  9
$DIMTOH
 70
     1
  9
$DIMSE1
 70
     0
  9
$DIMSE2
 70
     0
  9
$DIMTAD
 70
     0
  9
$DIMZIN
 70
     0
  9
$DIMBLK
  1

  9
$DIMASO
 70
     1
  9
$DIMSHO
 70
     1
  9
$DIMPOST
  1

  9
$DIMAPOST
  1

  9
$DIMALT
 70
     0
  9
$DIMALTD
 70
     2
  9
$DIMALTF
 40
25.4
  9
$DIMLFAC
 40
1.0
  9
$DIMTOFL
 70
     0
  9
$DIMTVP
 40
0.0
  9
$DIMTIX
 70
     0
  9
$DIMSOXD
 70
     0
  9
$DIMSAH
 70
     0
  9
$DIMBLK1
  1

  9
$DIMBLK2
  1

  9
$DIMSTYLE
  2
Standard
  9
$DIMCLRD
 70
     0
  9
$DIMCLRE
 70
     0
  9
$DIMCLRT
 70
     0
  9
$DIMTFAC
 40
1.0
  9
$DIMGAP
 40
0.09
  9
$DIMJUST
 70
     0
  9
$DIMSD1
 70
     0
  9
$DIMSD2
 70
     0
  9
$DIMTOLJ
 70
     1
  9
$DIMTZIN
 70
     0
  9
$DIMALTZ
 70
     0
  9
$DIMALTTZ
 70
     0
  9
$DIMUPT
 70
     0
  9
$DIMDEC
 70
     4
  9
$DIMTDEC
 70
     4
  9
$DIMALTU
 70
     2
  9
$DIMALTTD
 70
     2
  9
$DIMTXSTY
  7
Standard
  9
$DIMAUNIT
 70
     0
  9
$DIMADEC
 70
     0
  9
$DIMALTRND
 40
0.0
  9
$DIMAZIN
 70
     0
  9
$DIMDSEP
 70
    46
  9
$DIMATFIT
 70
     3
  9
$DIMFRAC
 70
     0
  9
$DIMLDRBLK
  1

  9
$DIMLUNIT
 70
     2
  9
$DIMLWD
 70
    -2
  9
$DIMLWE
 70
    -2
  9
$DIMTMOVE
 70
     0
  9
$DIMFXL
 40
1.0
  9
$DIMFXLON
 70
     0
  9
$DIMJOGANG
 40
0.7853981633974483
  9
$DIMTFILL
 70
     0
  9
$DIMTFILLCLR
 70
     0
  9
$DIMARCSYM
 70
     0
  9
$DIMLTYPE
  6

  9
$DIMLTEX1
  6

  9
$DIMLTEX2
  6

  9
$DIMTXTDIRECTION
 70
     0
  9
$LUNITS
 70
     2
  9
$LUPREC
 70
     4
  9
$SKETCHINC
 40
0.1
  9
$FILLETRAD
 40
0.5
  9
$AUNITS
 70
     0
  9
$AUPREC
 70
     0
  9
$MENU
  1
.
  9
$ELEVATION
 40
0.0
  9
$PELEVATION
 40
0.0
  9
$THICKNESS
 40
0.0
  9
$LIMCHECK
 70
     0
  9
$CHAMFERA
 40
0.5
  9
$CHAMFERB
 40
0.5
  9
$CHAMFERC
 40
1.0
  9
$CHAMFERD
 40
0.0
  9
$SKPOLY
 70
     0
  9
$TDCREATE
 40
2458501.668460636
  9
$TDUCREATE
 40
2458501.626793982
  9
$TDUPDATE
 40
2458501.668460636
  9
$TDUUPDATE
 40
2458501.626793982
  9
$TDINDWG
 40
0.0000000116
  9
$TDUSRTIMER
 40
0.0000000116
  9
$USRTIMER
 70
     1
  9
$ANGBASE
 50
0.0
  9
$ANGDIR
 70
     0
  9
$PDMODE
 70
     0
  9
$PDSIZE
 40
0.0
  9
$PLINEWID
 40
0.0
  9
$SPLFRAME
 70
     0
  9
$SPLINETYPE
 70
     6
  9
$SPLINESEGS
 70
     8
  9
$HANDSEED
  5
2BE
  9
$SURFTAB1
 70
     6
  9
$SURFTAB2
 70
     6
  9
$SURFTYPE
 70
     6
  9
$SURFU
 70
     6
  9
$SURFV
 70
     6
  9
$UCSBASE
  2

  9
$UCSNAME
  2

  9
$UCSORG
 10
0.0
 20
0.0
 30
0.0
  9
$UCSXDIR
 10
1.0
 20
0.0
 30
0.0
  9
$UCSYDIR
 10
0.0
 20
1.0
 30
0.0
  9
$UCSORTHOREF
  2

  9
$UCSORTHOVIEW
 70
     0
  9
$UCSORGTOP
 10
0.0
 20
0.0
 30
0.0
  9
$UCSORGBOTTOM
 10
0.0
 20
0.0
 30
0.0
  9
$UCSORGLEFT
 10
0.0
 20
0.0
 30
0.0
  9
$UCSORGRIGHT
 10
0.0
 20
0.0
 30
0.0
  9
$UCSORGFRONT
 10
0.0
 20
0.0
 30
0.0
  9
$UCSORGBACK
 10
0.0
 20
0.0
 30
0.0
  9
$PUCSBASE
  2

  9
$PUCSNAME
  2

  9
$PUCSORG
 10
0.0
 20
0.0
 30
0.0
  9
$PUCSXDIR
 10
1.0
 20
0.0
 30
0.0
  9
$PUCSYDIR
 10
0.0
 20
1.0
 30
0.0
  9
$PUCSORTHOREF
  2

  9
$PUCSORTHOVIEW
 70
     0
  9
$PUCSORGTOP
 10
0.0
 20
0.0
 30
0.0
  9
$PUCSORGBOTTOM
 10
0.0
 20
0.0
 30
0.0
  9
$PUCSORGLEFT
 10
0.0
 20
0.0
 30
0.0
  9
$PUCSORGRIGHT
 10
0.0
 20
0.0
 30
0.0
  9
$PUCSORGFRONT
 10
0.0
 20
0.0
 30
0.0
  9
$PUCSORGBACK
 10
0.0
 20
0.0
 30
0.0
  9
$USERI1
 70
     0
  9
$USERI2
 70
     0
  9
$USERI3
 70
     0
  9
$USERI4
 70
     0
  9
$USERI5
 70
     0
  9
$USERR1
 40
0.0
  9
$USERR2
 40
0.0
  9
$USERR3
 40
0.0
  9
$USERR4
 40
0.0
  9
$USERR5
 40
0.0
  9
$WORLDVIEW
 70
     1
  9
$SHADEDGE
 70
     3
  9
$SHADEDIF
 70
    70
  9
$TILEMODE
 70
     1
  9
$MAXACTVP
 70
    64
  9
$PINSBASE
 10
0.0
 20
0.0
 30
0.0
  9
$PLIMCHECK
 70
     0
  9
$PEXTMIN
 10
1.000000000000000E+20
 20
1.000000000000000E+20
 30
1.000000000000000E+20
  9
$PEXTMAX
 10
-1.000000000000000E+20
 20
-1.000000000000000E+20
 30
-1.000000000000000E+20
  9
$PLIMMIN
 10
0.0
 20
0.0
  9
$PLIMMAX
 10
12.0
 20
9.0
  9
$UNITMODE
 70
     0
  9
$VISRETAIN
 70
     1
  9
$PLINEGEN
 70
     0
  9
$PSLTSCALE
 70
     1
  9
$TREEDEPTH
 70
  3020
  9
$CMLSTYLE
  2
Standard
  9
$CMLJUST
 70
     0
  9
$CMLSCALE
 40
1.0
  9
$PROXYGRAPHICS
 70
     1
  9
$MEASUREMENT
 70
     0
  9
$CELWEIGHT
370
    -1
  9
$ENDCAPS
280
     0
  9
$JOINSTYLE
280
     0
  9
$LWDISPLAY
290
     1
  9
$INSUNITS
 70
     1
  9
$HYPERLINKBASE
  1

  9
$STYLESHEET
  1

  9
$XEDIT
290
     1
  9
$CEPSNTYPE
380
     0
  9
$PSTYLEMODE
290
     1
  9
$FINGERPRINTGUID
  2
{BCF219EB-E59D-6259-1F14-1F1207C8D49A}
  9
$VERSIONGUID
  2
{FAEB1C32-E019-11D5-929B-00C0DF256EC4}
  9
$EXTNAMES
290
     1
  9
$PSVPSCALE
 40
0.0
  9
$OLESTARTUP
290
     0
  9
$SORTENTS
280
   127
  9
$INDEXCTL
280
     0
  9
$HIDETEXT
280
     1
  9
$XCLIPFRAME
280
     2
  9
$HALOGAP
280
     0
  9
$OBSCOLOR
 70
   257
  9
$OBSLTYPE
280
     0
  9
$INTERSECTIONDISPLAY
280
     0
  9
$INTERSECTIONCOLOR
 70
   257
  9
$DIMASSOC
280
     2
  9
$PROJECTNAME
  1

  9
$CAMERADISPLAY
290
     0
  9
$LENSLENGTH
 40
50.0
  9
$CAMERAHEIGHT
 40
0.0
  9
$STEPSPERSEC
 40
2.0
  9
$STEPSIZE
 40
6.0
  9
$3DDWFPREC
 40
2.0
  9
$PSOLWIDTH
 40
0.25
  9
$PSOLHEIGHT
 40
4.0
  9
$LOFTANG1
 40
1.570796326794897
  9
$LOFTANG2
 40
1.570796326794897
  9
$LOFTMAG1
 40
0.0
  9
$LOFTMAG2
 40
0.0
  9
$LOFTPARAM
 70
     7
  9
$LOFTNORMALS
280
     1
  9
$LATITUDE
 40
37.795
  9
$LONGITUDE
 40
-122.394
  9
$NORTHDIRECTION
 40
0.0
  9
$TIMEZONE
 70
 -8000
  9
$LIGHTGLYPHDISPLAY
280
     1
  9
$TILEMODELIGHTSYNCH
280
     1
  9
$CMATERIAL
347
3C
  9
$SOLIDHIST
280
     1
  9
$SHOWHIST
280
     1
  9
$DWFFRAME
280
     2
  9
$DGNFRAME
280
     2
  9
$REALWORLDSCALE
290
     1
  9
$INTERFERECOLOR
 62
   256
  9
$CSHADOW
280
     0
  9
$SHADOWPLANELOCATION
 40
0.0
  0
ENDSEC
  0
SECTION
  2
CLASSES
  0
CLASS
  1
ACDBDICTIONARYWDFLT
  2
AcDbDictionaryWithDefault
  3
ObjectDBX Classes
 90
        0
 91
        4
280
     0
281
     0
  0
CLASS
  1
VISUALSTYLE
  2
AcDbVisualStyle
  3
ObjectDBX Classes
 90
     4095
 91
        4
280
     0
281
     0
  0
CLASS
  1
MATERIAL
  2
AcDbMaterial
  3
ObjectDBX Classes
 90
     1153
 91
        4
280
     0
281
     0
  0
CLASS
  1
SUN
  2
AcDbSun
  3
SCENEOE
 90
     1024
 91
        4
280
     0
281
     0
  0
ENDSEC
  0
SECTION
  2
TABLES
  0
TABLE
  2
VPORT
  5
8
330
0
100
AcDbSymbolTable
 70
     1
  0
VPORT
  5
29
330
8
100
AcDbSymbolTableRecord
100
AcDbViewportTableRecord
  2
*Active
 70
     0
 10
0.0
 20
0.0
 11
1.0
 21
1.0
 12
0.0
 22
0.0
 13
0.0
 23
0.0
 14
0.5
 24
0.5
 15
0.5
 25
0.5
 16
0.0
 26
0.0
 36
1.0
 17
105.0007777515277
 27
148.5000416295417
 37
0.0
 40
297.0000832590835
 41
0.7070757462376325
 42
50.0
 43
0.0
 44
0.0
 50
0.0
 51
0.0
 71
     0
 72
   100
 73
     1
 74
     3
 75
     0
 76
     0
 77
     0
 78
     0
281
     0
 65
     1
110
0.0
120
0.0
130
0.0
111
1.0
121
0.0
131
0.0
112
0.0
122
1.0
132
0.0
 79
     0
146
0.0
 60
     3
 61
     5
292
     1
282
     1
141
0.0
142
0.0
 63
   250
361
3F
  0
ENDTAB
  0
TABLE
  2
LTYPE
  5
5
330
0
100
AcDbSymbolTable
 70
     5
  0
LTYPE
  5
14
330
5
100
AcDbSymbolTableRecord
100
AcDbLinetypeTableRecord
  2
ByBlock
 70
     0
  3

 72
    65
 73
     0
 40
0.0
  0
LTYPE
  5
15
330
5
100
AcDbSymbolTableRecord
100
AcDbLinetypeTableRecord
  2
ByLayer
 70
     0
  3

 72
    65
 73
     0
 40
0.0
  0
LTYPE
  5
16
330
5
100
AcDbSymbolTableRecord
100
AcDbLinetypeTableRecord
  2
Continuous
 70
     0
  3
Solid line
 72
    65
 73
     0
 40
0.0
  0
LTYPE
  5
261
330
5
100
AcDbSymbolTableRecord
100
AcDbLinetypeTableRecord
  2
AI-Linetype-1
 70
     0
  3
Adobe Illustrator Linetype No. 1
 72
    65
 73
     2
 40
14.10434607047226
 49
7.052173035236129
 74
     0
 49
-7.052173035236129
 74
     0
  0
LTYPE
  5
27A
330
5
100
AcDbSymbolTableRecord
100
AcDbLinetypeTableRecord
  2
AI-Linetype-2
 70
     0
  3
Adobe Illustrator Linetype No. 2
 72
    65
 73
     2
 40
14.10434607047226
 49
7.052173035236129
 74
     0
 49
-7.052173035236129
 74
     0
  0
LTYPE
  5
298
330
5
100
AcDbSymbolTableRecord
100
AcDbLinetypeTableRecord
  2
AI-Linetype-3
 70
     0
  3
Adobe Illustrator Linetype No. 3
 72
    65
 73
     2
 40
14.10434607047226
 49
7.052173035236129
 74
     0
 49
-7.052173035236129
 74
     0
  0
LTYPE
  5
2B1
330
5
100
AcDbSymbolTableRecord
100
AcDbLinetypeTableRecord
  2
AI-Linetype-4
 70
     0
  3
Adobe Illustrator Linetype No. 4
 72
    65
 73
     2
 40
14.10434607047226
 49
7.052173035236129
 74
     0
 49
-7.052173035236129
 74
     0
  0
ENDTAB
  0
TABLE
  2
LAYER
  5
2
330
0
100
AcDbSymbolTable
 70
     1
  0
LAYER
  5
10
330
2
100
AcDbSymbolTableRecord
100
AcDbLayerTableRecord
  2
0
 70
     0
 62
     7
  6
Continuous
370
    -3
390
F
347
3E
  0
ENDTAB
  0
TABLE
  2
STYLE
  5
3
330
0
100
AcDbSymbolTable
 70
     1
  0
STYLE
  5
11
330
3
100
AcDbSymbolTableRecord
100
AcDbTextStyleTableRecord
  2
Standard
 70
     0
 40
0.0
 41
1.0
 50
0.0
 71
     0
 42
0.2
  3
txt
  4

  0
ENDTAB
  0
TABLE
  2
VIEW
  5
6
330
0
100
AcDbSymbolTable
 70
     0
  0
ENDTAB
  0
TABLE
  2
UCS
  5
7
330
0
100
AcDbSymbolTable
 70
     0
  0
ENDTAB
  0
TABLE
  2
APPID
  5
9
330
0
100
AcDbSymbolTable
 70
     1
  0
APPID
  5
12
330
9
100
AcDbSymbolTableRecord
100
AcDbRegAppTableRecord
  2
ACAD
 70
     0
  0
ENDTAB
  0
TABLE
  2
DIMSTYLE
  5
A
330
0
100
AcDbSymbolTable
 70
     1
100
AcDbDimStyleTable
  0
DIMSTYLE
105
27
330
A
100
AcDbSymbolTableRecord
100
AcDbDimStyleTableRecord
  2
Standard
 70
     0
178
     0
340
11
  0
ENDTAB
  0
TABLE
  2
BLOCK_RECORD
  5
1
330
0
100
AcDbSymbolTable
 70
   109
  0
BLOCK_RECORD
  5
1F
330
1
100
AcDbSymbolTableRecord
100
AcDbBlockTableRecord
  2
*Model_Space
340
22
 70
     0
280
     1
281
     0
  0
BLOCK_RECORD
  5
1B
330
1
100
AcDbSymbolTableRecord
100
AcDbBlockTableRecord
  2
*Paper_Space
340
1E
 70
     0
280
     1
281
     0
  0
BLOCK_RECORD
  5
23
330
1
100
AcDbSymbolTableRecord
100
AcDbBlockTableRecord
  2
*Paper_Space0
340
26
 70
     0
280
     1
281
     0
  0
BLOCK_RECORD
  5
40
330
1
100
AcDbSymbolTableRecord
100
AcDbBlockTableRecord
  2
block 2
340
0
102
{BLKREFS
331
41
102
}
 70
     0
280
     1
281
     0
  0
BLOCK_RECORD
  5
45
330
1
100
AcDbSymbolTableRecord
100
AcDbBlockTableRecord
  2
block 3
340
0
102
{BLKREFS
331
46
102
}
 70
     0
280
     1
281
     0
  0
BLOCK_RECORD
  5
4E
330
1
100
AcDbSymbolTableRecord
100
AcDbBlockTableRecord
  2
block 4
340
0
102
{BLKREFS
331
4F
102
}
 70
     0
280
     1
281
     0
  0
BLOCK_RECORD
  5
53
330
1
100
AcDbSymbolTableRecord
100
AcDbBlockTableRecord
  2
block 5
340
0
102
{BLKREFS
331
54
102
}
 70
     0
280
     1
281
     0
  0
BLOCK_RECORD
  5
5A
330
1
100
AcDbSymbolTableRecord
100
AcDbBlockTableRecord
  2
block 6
340
0
102
{BLKREFS
331
5B
102
}
 70
     0
280
     1
281
     0
  0
BLOCK_RECORD
  5
5F
330
1
100
AcDbSymbolTableRecord
100
AcDbBlockTableRecord
  2
block 7
340
0
102
{BLKREFS
331
60
102
}
 70
     0
280
     1
281
     0
  0
BLOCK_RECORD
  5
67
330
1
100
AcDbSymbolTableRecord
100
AcDbBlockTableRecord
  2
block 8
340
0
102
{BLKREFS
331
68
102
}
 70
     0
280
     1
281
     0
  0
BLOCK_RECORD
  5
76
330
1
100
AcDbSymbolTableRecord
100
AcDbBlockTableRecord
  2
block 9
340
0
102
{BLKREFS
331
77
102
}
 70
     0
280
     1
281
     0
  0
BLOCK_RECORD
  5
7B
330
1
100
AcDbSymbolTableRecord
100
AcDbBlockTableRecord
  2
block 10
340
0
102
{BLKREFS
331
7C
102
}
 70
     0
280
     1
281
     0
  0
BLOCK_RECORD
  5
80
330
1
100
AcDbSymbolTableRecord
100
AcDbBlockTableRecord
  2
block 11
340
0
102
{BLKREFS
331
81
102
}
 70
     0
280
     1
281
     0
  0
BLOCK_RECORD
  5
85
330
1
100
AcDbSymbolTableRecord
100
AcDbBlockTableRecord
  2
block 12
340
0
102
{BLKREFS
331
86
102
}
 70
     0
280
     1
281
     0
  0
BLOCK_RECORD
  5
8A
330
1
100
AcDbSymbolTableRecord
100
AcDbBlockTableRecord
  2
block 13
340
0
102
{BLKREFS
331
8B
102
}
 70
     0
280
     1
281
     0
  0
BLOCK_RECORD
  5
8F
330
1
100
AcDbSymbolTableRecord
100
AcDbBlockTableRecord
  2
block 14
340
0
102
{BLKREFS
331
90
102
}
 70
     0
280
     1
281
     0
  0
BLOCK_RECORD
  5
94
330
1
100
AcDbSymbolTableRecord
100
AcDbBlockTableRecord
  2
block 15
340
0
102
{BLKREFS
331
95
102
}
 70
     0
280
     1
281
     0
  0
BLOCK_RECORD
  5
9C
330
1
100
AcDbSymbolTableRecord
100
AcDbBlockTableRecord
  2
block 16
340
0
102
{BLKREFS
331
9D
102
}
 70
     0
280
     1
281
     0
  0
BLOCK_RECORD
  5
AB
330
1
100
AcDbSymbolTableRecord
100
AcDbBlockTableRecord
  2
block 17
340
0
102
{BLKREFS
331
AC
102
}
 70
     0
280
     1
281
     0
  0
BLOCK_RECORD
  5
B0
330
1
100
AcDbSymbolTableRecord
100
AcDbBlockTableRecord
  2
block 18
340
0
102
{BLKREFS
331
B1
102
}
 70
     0
280
     1
281
     0
  0
BLOCK_RECORD
  5
B8
330
1
100
AcDbSymbolTableRecord
100
AcDbBlockTableRecord
  2
block 19
340
0
102
{BLKREFS
331
B9
102
}
 70
     0
280
     1
281
     0
  0
BLOCK_RECORD
  5
BD
330
1
100
AcDbSymbolTableRecord
100
AcDbBlockTableRecord
  2
block 20
340
0
102
{BLKREFS
331
BE
102
}
 70
     0
280
     1
281
     0
  0
BLOCK_RECORD
  5
C2
330
1
100
AcDbSymbolTableRecord
100
AcDbBlockTableRecord
  2
block 21
340
0
102
{BLKREFS
331
C3
102
}
 70
     0
280
     1
281
     0
  0
BLOCK_RECORD
  5
C7
330
1
100
AcDbSymbolTableRecord
100
AcDbBlockTableRecord
  2
block 22
340
0
102
{BLKREFS
331
C8
102
}
 70
     0
280
     1
281
     0
  0
BLOCK_RECORD
  5
CC
330
1
100
AcDbSymbolTableRecord
100
AcDbBlockTableRecord
  2
block 23
340
0
102
{BLKREFS
331
CD
102
}
 70
     0
280
     1
281
     0
  0
BLOCK_RECORD
  5
D1
330
1
100
AcDbSymbolTableRecord
100
AcDbBlockTableRecord
  2
block 24
340
0
102
{BLKREFS
331
D2
102
}
 70
     0
280
     1
281
     0
  0
BLOCK_RECORD
  5
D6
330
1
100
AcDbSymbolTableRecord
100
AcDbBlockTableRecord
  2
block 25
340
0
102
{BLKREFS
331
D7
102
}
 70
     0
280
     1
281
     0
  0
BLOCK_RECORD
  5
DB
330
1
100
AcDbSymbolTableRecord
100
AcDbBlockTableRecord
  2
block 26
340
0
102
{BLKREFS
331
DC
102
}
 70
     0
280
     1
281
     0
  0
BLOCK_RECORD
  5
E0
330
1
100
AcDbSymbolTableRecord
100
AcDbBlockTableRecord
  2
block 27
340
0
102
{BLKREFS
331
E1
102
}
 70
     0
280
     1
281
     0
  0
BLOCK_RECORD
  5
E5
330
1
100
AcDbSymbolTableRecord
100
AcDbBlockTableRecord
  2
block 28
340
0
102
{BLKREFS
331
E6
102
}
 70
     0
280
     1
281
     0
  0
BLOCK_RECORD
  5
EA
330
1
100
AcDbSymbolTableRecord
100
AcDbBlockTableRecord
  2
block 29
340
0
102
{BLKREFS
331
EB
102
}
 70
     0
280
     1
281
     0
  0
BLOCK_RECORD
  5
EF
330
1
100
AcDbSymbolTableRecord
100
AcDbBlockTableRecord
  2
block 30
340
0
102
{BLKREFS
331
F0
102
}
 70
     0
280
     1
281
     0
  0
BLOCK_RECORD
  5
F4
330
1
100
AcDbSymbolTableRecord
100
AcDbBlockTableRecord
  2
block 31
340
0
102
{BLKREFS
331
F5
102
}
 70
     0
280
     1
281
     0
  0
BLOCK_RECORD
  5
FC
330
1
100
AcDbSymbolTableRecord
100
AcDbBlockTableRecord
  2
block 32
340
0
102
{BLKREFS
331
FD
102
}
 70
     0
280
     1
281
     0
  0
BLOCK_RECORD
  5
101
330
1
100
AcDbSymbolTableRecord
100
AcDbBlockTableRecord
  2
block 33
340
0
102
{BLKREFS
331
102
102
}
 70
     0
280
     1
281
     0
  0
BLOCK_RECORD
  5
106
330
1
100
AcDbSymbolTableRecord
100
AcDbBlockTableRecord
  2
block 34
340
0
102
{BLKREFS
331
107
102
}
 70
     0
280
     1
281
     0
  0
BLOCK_RECORD
  5
10B
330
1
100
AcDbSymbolTableRecord
100
AcDbBlockTableRecord
  2
block 35
340
0
102
{BLKREFS
331
10C
102
}
 70
     0
280
     1
281
     0
  0
BLOCK_RECORD
  5
110
330
1
100
AcDbSymbolTableRecord
100
AcDbBlockTableRecord
  2
block 36
340
0
102
{BLKREFS
331
111
102
}
 70
     0
280
     1
281
     0
  0
BLOCK_RECORD
  5
115
330
1
100
AcDbSymbolTableRecord
100
AcDbBlockTableRecord
  2
block 37
340
0
102
{BLKREFS
331
116
102
}
 70
     0
280
     1
281
     0
  0
BLOCK_RECORD
  5
11A
330
1
100
AcDbSymbolTableRecord
100
AcDbBlockTableRecord
  2
block 38
340
0
102
{BLKREFS
331
11B
102
}
 70
     0
280
     1
281
     0
  0
BLOCK_RECORD
  5
11F
330
1
100
AcDbSymbolTableRecord
100
AcDbBlockTableRecord
  2
block 39
340
0
102
{BLKREFS
331
120
102
}
 70
     0
280
     1
281
     0
  0
BLOCK_RECORD
  5
124
330
1
100
AcDbSymbolTableRecord
100
AcDbBlockTableRecord
  2
block 40
340
0
102
{BLKREFS
331
125
102
}
 70
     0
280
     1
281
     0
  0
BLOCK_RECORD
  5
129
330
1
100
AcDbSymbolTableRecord
100
AcDbBlockTableRecord
  2
block 41
340
0
102
{BLKREFS
331
12A
102
}
 70
     0
280
     1
281
     0
  0
BLOCK_RECORD
  5
12E
330
1
100
AcDbSymbolTableRecord
100
AcDbBlockTableRecord
  2
block 42
340
0
102
{BLKREFS
331
12F
102
}
 70
     0
280
     1
281
     0
  0
BLOCK_RECORD
  5
133
330
1
100
AcDbSymbolTableRecord
100
AcDbBlockTableRecord
  2
block 43
340
0
102
{BLKREFS
331
134
102
}
 70
     0
280
     1
281
     0
  0
BLOCK_RECORD
  5
13B
330
1
100
AcDbSymbolTableRecord
100
AcDbBlockTableRecord
  2
block 44
340
0
102
{BLKREFS
331
13C
102
}
 70
     0
280
     1
281
     0
  0
BLOCK_RECORD
  5
140
330
1
100
AcDbSymbolTableRecord
100
AcDbBlockTableRecord
  2
block 45
340
0
102
{BLKREFS
331
141
102
}
 70
     0
280
     1
281
     0
  0
BLOCK_RECORD
  5
145
330
1
100
AcDbSymbolTableRecord
100
AcDbBlockTableRecord
  2
block 46
340
0
102
{BLKREFS
331
146
102
}
 70
     0
280
     1
281
     0
  0
BLOCK_RECORD
  5
14A
330
1
100
AcDbSymbolTableRecord
100
AcDbBlockTableRecord
  2
block 47
340
0
102
{BLKREFS
331
14B
102
}
 70
     0
280
     1
281
     0
  0
BLOCK_RECORD
  5
14F
330
1
100
AcDbSymbolTableRecord
100
AcDbBlockTableRecord
  2
block 48
340
0
102
{BLKREFS
331
150
102
}
 70
     0
280
     1
281
     0
  0
BLOCK_RECORD
  5
154
330
1
100
AcDbSymbolTableRecord
100
AcDbBlockTableRecord
  2
block 49
340
0
102
{BLKREFS
331
155
102
}
 70
     0
280
     1
281
     0
  0
BLOCK_RECORD
  5
159
330
1
100
AcDbSymbolTableRecord
100
AcDbBlockTableRecord
  2
block 50
340
0
102
{BLKREFS
331
15A
102
}
 70
     0
280
     1
281
     0
  0
BLOCK_RECORD
  5
15E
330
1
100
AcDbSymbolTableRecord
100
AcDbBlockTableRecord
  2
block 51
340
0
102
{BLKREFS
331
15F
102
}
 70
     0
280
     1
281
     0
  0
BLOCK_RECORD
  5
163
330
1
100
AcDbSymbolTableRecord
100
AcDbBlockTableRecord
  2
block 52
340
0
102
{BLKREFS
331
164
102
}
 70
     0
280
     1
281
     0
  0
BLOCK_RECORD
  5
168
330
1
100
AcDbSymbolTableRecord
100
AcDbBlockTableRecord
  2
block 53
340
0
102
{BLKREFS
331
169
102
}
 70
     0
280
     1
281
     0
  0
BLOCK_RECORD
  5
16D
330
1
100
AcDbSymbolTableRecord
100
AcDbBlockTableRecord
  2
block 54
340
0
102
{BLKREFS
331
16E
102
}
 70
     0
280
     1
281
     0
  0
BLOCK_RECORD
  5
176
330
1
100
AcDbSymbolTableRecord
100
AcDbBlockTableRecord
  2
block 55
340
0
102
{BLKREFS
331
177
102
}
 70
     0
280
     1
281
     0
  0
BLOCK_RECORD
  5
17B
330
1
100
AcDbSymbolTableRecord
100
AcDbBlockTableRecord
  2
block 56
340
0
102
{BLKREFS
331
17C
102
}
 70
     0
280
     1
281
     0
  0
BLOCK_RECORD
  5
180
330
1
100
AcDbSymbolTableRecord
100
AcDbBlockTableRecord
  2
block 57
340
0
102
{BLKREFS
331
181
102
}
 70
     0
280
     1
281
     0
  0
BLOCK_RECORD
  5
185
330
1
100
AcDbSymbolTableRecord
100
AcDbBlockTableRecord
  2
block 58
340
0
102
{BLKREFS
331
186
102
}
 70
     0
280
     1
281
     0
  0
BLOCK_RECORD
  5
18D
330
1
100
AcDbSymbolTableRecord
100
AcDbBlockTableRecord
  2
block 59
340
0
102
{BLKREFS
331
18E
102
}
 70
     0
280
     1
281
     0
  0
BLOCK_RECORD
  5
192
330
1
100
AcDbSymbolTableRecord
100
AcDbBlockTableRecord
  2
block 60
340
0
102
{BLKREFS
331
193
102
}
 70
     0
280
     1
281
     0
  0
BLOCK_RECORD
  5
197
330
1
100
AcDbSymbolTableRecord
100
AcDbBlockTableRecord
  2
block 61
340
0
102
{BLKREFS
331
198
102
}
 70
     0
280
     1
281
     0
  0
BLOCK_RECORD
  5
19C
330
1
100
AcDbSymbolTableRecord
100
AcDbBlockTableRecord
  2
block 62
340
0
102
{BLKREFS
331
19D
102
}
 70
     0
280
     1
281
     0
  0
BLOCK_RECORD
  5
1A1
330
1
100
AcDbSymbolTableRecord
100
AcDbBlockTableRecord
  2
block 63
340
0
102
{BLKREFS
331
1A2
102
}
 70
     0
280
     1
281
     0
  0
BLOCK_RECORD
  5
1A6
330
1
100
AcDbSymbolTableRecord
100
AcDbBlockTableRecord
  2
block 64
340
0
102
{BLKREFS
331
1A7
102
}
 70
     0
280
     1
281
     0
  0
BLOCK_RECORD
  5
1AB
330
1
100
AcDbSymbolTableRecord
100
AcDbBlockTableRecord
  2
block 65
340
0
102
{BLKREFS
331
1AC
102
}
 70
     0
280
     1
281
     0
  0
BLOCK_RECORD
  5
1B0
330
1
100
AcDbSymbolTableRecord
100
AcDbBlockTableRecord
  2
block 66
340
0
102
{BLKREFS
331
1B1
102
}
 70
     0
280
     1
281
     0
  0
BLOCK_RECORD
  5
1B5
330
1
100
AcDbSymbolTableRecord
100
AcDbBlockTableRecord
  2
block 67
340
0
102
{BLKREFS
331
1B6
102
}
 70
     0
280
     1
281
     0
  0
BLOCK_RECORD
  5
1BA
330
1
100
AcDbSymbolTableRecord
100
AcDbBlockTableRecord
  2
block 68
340
0
102
{BLKREFS
331
1BB
102
}
 70
     0
280
     1
281
     0
  0
BLOCK_RECORD
  5
1BF
330
1
100
AcDbSymbolTableRecord
100
AcDbBlockTableRecord
  2
block 69
340
0
102
{BLKREFS
331
1C0
102
}
 70
     0
280
     1
281
     0
  0
BLOCK_RECORD
  5
1C4
330
1
100
AcDbSymbolTableRecord
100
AcDbBlockTableRecord
  2
block 70
340
0
102
{BLKREFS
331
1C5
102
}
 70
     0
280
     1
281
     0
  0
BLOCK_RECORD
  5
1C9
330
1
100
AcDbSymbolTableRecord
100
AcDbBlockTableRecord
  2
block 71
340
0
102
{BLKREFS
331
1CA
102
}
 70
     0
280
     1
281
     0
  0
BLOCK_RECORD
  5
1CE
330
1
100
AcDbSymbolTableRecord
100
AcDbBlockTableRecord
  2
block 72
340
0
102
{BLKREFS
331
1CF
102
}
 70
     0
280
     1
281
     0
  0
BLOCK_RECORD
  5
1D3
330
1
100
AcDbSymbolTableRecord
100
AcDbBlockTableRecord
  2
block 73
340
0
102
{BLKREFS
331
1D4
102
}
 70
     0
280
     1
281
     0
  0
BLOCK_RECORD
  5
1D8
330
1
100
AcDbSymbolTableRecord
100
AcDbBlockTableRecord
  2
block 74
340
0
102
{BLKREFS
331
1D9
102
}
 70
     0
280
     1
281
     0
  0
BLOCK_RECORD
  5
1DD
330
1
100
AcDbSymbolTableRecord
100
AcDbBlockTableRecord
  2
block 75
340
0
102
{BLKREFS
331
1DE
102
}
 70
     0
280
     1
281
     0
  0
BLOCK_RECORD
  5
1E2
330
1
100
AcDbSymbolTableRecord
100
AcDbBlockTableRecord
  2
block 76
340
0
102
{BLKREFS
331
1E3
102
}
 70
     0
280
     1
281
     0
  0
BLOCK_RECORD
  5
1E7
330
1
100
AcDbSymbolTableRecord
100
AcDbBlockTableRecord
  2
block 77
340
0
102
{BLKREFS
331
1E8
102
}
 70
     0
280
     1
281
     0
  0
BLOCK_RECORD
  5
1EC
330
1
100
AcDbSymbolTableRecord
100
AcDbBlockTableRecord
  2
block 78
340
0
102
{BLKREFS
331
1ED
102
}
 70
     0
280
     1
281
     0
  0
BLOCK_RECORD
  5
1F5
330
1
100
AcDbSymbolTableRecord
100
AcDbBlockTableRecord
  2
block 79
340
0
102
{BLKREFS
331
1F6
102
}
 70
     0
280
     1
281
     0
  0
BLOCK_RECORD
  5
1FA
330
1
100
AcDbSymbolTableRecord
100
AcDbBlockTableRecord
  2
block 80
340
0
102
{BLKREFS
331
1FB
102
}
 70
     0
280
     1
281
     0
  0
BLOCK_RECORD
  5
1FF
330
1
100
AcDbSymbolTableRecord
100
AcDbBlockTableRecord
  2
block 81
340
0
102
{BLKREFS
331
200
102
}
 70
     0
280
     1
281
     0
  0
BLOCK_RECORD
  5
204
330
1
100
AcDbSymbolTableRecord
100
AcDbBlockTableRecord
  2
block 82
340
0
102
{BLKREFS
331
205
102
}
 70
     0
280
     1
281
     0
  0
BLOCK_RECORD
  5
20C
330
1
100
AcDbSymbolTableRecord
100
AcDbBlockTableRecord
  2
block 83
340
0
102
{BLKREFS
331
20D
102
}
 70
     0
280
     1
281
     0
  0
BLOCK_RECORD
  5
211
330
1
100
AcDbSymbolTableRecord
100
AcDbBlockTableRecord
  2
block 84
340
0
102
{BLKREFS
331
212
102
}
 70
     0
280
     1
281
     0
  0
BLOCK_RECORD
  5
216
330
1
100
AcDbSymbolTableRecord
100
AcDbBlockTableRecord
  2
block 85
340
0
102
{BLKREFS
331
217
102
}
 70
     0
280
     1
281
     0
  0
BLOCK_RECORD
  5
21B
330
1
100
AcDbSymbolTableRecord
100
AcDbBlockTableRecord
  2
block 86
340
0
102
{BLKREFS
331
21C
102
}
 70
     0
280
     1
281
     0
  0
BLOCK_RECORD
  5
220
330
1
100
AcDbSymbolTableRecord
100
AcDbBlockTableRecord
  2
block 87
340
0
102
{BLKREFS
331
221
102
}
 70
     0
280
     1
281
     0
  0
BLOCK_RECORD
  5
225
330
1
100
AcDbSymbolTableRecord
100
AcDbBlockTableRecord
  2
block 88
340
0
102
{BLKREFS
331
226
102
}
 70
     0
280
     1
281
     0
  0
BLOCK_RECORD
  5
22A
330
1
100
AcDbSymbolTableRecord
100
AcDbBlockTableRecord
  2
block 89
340
0
102
{BLKREFS
331
22B
102
}
 70
     0
280
     1
281
     0
  0
BLOCK_RECORD
  5
22F
330
1
100
AcDbSymbolTableRecord
100
AcDbBlockTableRecord
  2
block 90
340
0
102
{BLKREFS
331
230
102
}
 70
     0
280
     1
281
     0
  0
BLOCK_RECORD
  5
234
330
1
100
AcDbSymbolTableRecord
100
AcDbBlockTableRecord
  2
block 91
340
0
102
{BLKREFS
331
235
102
}
 70
     0
280
     1
281
     0
  0
BLOCK_RECORD
  5
239
330
1
100
AcDbSymbolTableRecord
100
AcDbBlockTableRecord
  2
block 92
340
0
102
{BLKREFS
331
23A
102
}
 70
     0
280
     1
281
     0
  0
BLOCK_RECORD
  5
23E
330
1
100
AcDbSymbolTableRecord
100
AcDbBlockTableRecord
  2
block 93
340
0
102
{BLKREFS
331
23F
102
}
 70
     0
280
     1
281
     0
  0
BLOCK_RECORD
  5
243
330
1
100
AcDbSymbolTableRecord
100
AcDbBlockTableRecord
  2
block 94
340
0
102
{BLKREFS
331
244
102
}
 70
     0
280
     1
281
     0
  0
BLOCK_RECORD
  5
248
330
1
100
AcDbSymbolTableRecord
100
AcDbBlockTableRecord
  2
block 95
340
0
102
{BLKREFS
331
249
102
}
 70
     0
280
     1
281
     0
  0
BLOCK_RECORD
  5
24D
330
1
100
AcDbSymbolTableRecord
100
AcDbBlockTableRecord
  2
block 96
340
0
102
{BLKREFS
331
24E
102
}
 70
     0
280
     1
281
     0
  0
BLOCK_RECORD
  5
252
330
1
100
AcDbSymbolTableRecord
100
AcDbBlockTableRecord
  2
block 97
340
0
102
{BLKREFS
331
253
102
}
 70
     0
280
     1
281
     0
  0
BLOCK_RECORD
  5
25A
330
1
100
AcDbSymbolTableRecord
100
AcDbBlockTableRecord
  2
block 98
340
0
102
{BLKREFS
331
25B
102
}
 70
     0
280
     1
281
     0
  0
BLOCK_RECORD
  5
263
330
1
100
AcDbSymbolTableRecord
100
AcDbBlockTableRecord
  2
block 99
340
0
102
{BLKREFS
331
264
102
}
 70
     0
280
     1
281
     0
  0
BLOCK_RECORD
  5
26B
330
1
100
AcDbSymbolTableRecord
100
AcDbBlockTableRecord
  2
block 100
340
0
102
{BLKREFS
331
26C
102
}
 70
     0
280
     1
281
     0
  0
BLOCK_RECORD
  5
273
330
1
100
AcDbSymbolTableRecord
100
AcDbBlockTableRecord
  2
block 101
340
0
102
{BLKREFS
331
274
102
}
 70
     0
280
     1
281
     0
  0
BLOCK_RECORD
  5
27C
330
1
100
AcDbSymbolTableRecord
100
AcDbBlockTableRecord
  2
block 102
340
0
102
{BLKREFS
331
27D
102
}
 70
     0
280
     1
281
     0
  0
BLOCK_RECORD
  5
284
330
1
100
AcDbSymbolTableRecord
100
AcDbBlockTableRecord
  2
block 103
340
0
102
{BLKREFS
331
285
102
}
 70
     0
280
     1
281
     0
  0
BLOCK_RECORD
  5
289
330
1
100
AcDbSymbolTableRecord
100
AcDbBlockTableRecord
  2
block 104
340
0
102
{BLKREFS
331
28A
102
}
 70
     0
280
     1
281
     0
  0
BLOCK_RECORD
  5
291
330
1
100
AcDbSymbolTableRecord
100
AcDbBlockTableRecord
  2
block 105
340
0
102
{BLKREFS
331
292
102
}
 70
     0
280
     1
281
     0
  0
BLOCK_RECORD
  5
29A
330
1
100
AcDbSymbolTableRecord
100
AcDbBlockTableRecord
  2
block 106
340
0
102
{BLKREFS
331
29B
102
}
 70
     0
280
     1
281
     0
  0
BLOCK_RECORD
  5
2A2
330
1
100
AcDbSymbolTableRecord
100
AcDbBlockTableRecord
  2
block 107
340
0
102
{BLKREFS
331
2A3
102
}
 70
     0
280
     1
281
     0
  0
BLOCK_RECORD
  5
2AA
330
1
100
AcDbSymbolTableRecord
100
AcDbBlockTableRecord
  2
block 108
340
0
102
{BLKREFS
331
2AB
102
}
 70
     0
280
     1
281
     0
  0
BLOCK_RECORD
  5
2B3
330
1
100
AcDbSymbolTableRecord
100
AcDbBlockTableRecord
  2
block 109
340
0
102
{BLKREFS
331
2B4
102
}
 70
     0
280
     1
281
     0
  0
ENDTAB
  0
ENDSEC
  0
SECTION
  2
BLOCKS
  0
BLOCK
  5
20
330
1F
100
AcDbEntity
  8
0
100
AcDbBlockBegin
  2
*Model_Space
 70
     0
 10
0.0
 20
0.0
 30
0.0
  3
*Model_Space
  1

  0
ENDBLK
  5
21
330
1F
100
AcDbEntity
  8
0
100
AcDbBlockEnd
  0
BLOCK
  5
1C
330
1B
100
AcDbEntity
 67
     1
  8
0
100
AcDbBlockBegin
  2
*Paper_Space
 70
     0
 10
0.0
 20
0.0
 30
0.0
  3
*Paper_Space
  1

  0
ENDBLK
  5
1D
330
1B
100
AcDbEntity
 67
     1
  8
0
100
AcDbBlockEnd
  0
BLOCK
  5
24
330
23
100
AcDbEntity
  8
0
100
AcDbBlockBegin
  2
*Paper_Space0
 70
     0
 10
0.0
 20
0.0
 30
0.0
  3
*Paper_Space0
  1

  0
ENDBLK
  5
25
330
23
100
AcDbEntity
  8
0
100
AcDbBlockEnd
  0
BLOCK
  5
42
330
40
100
AcDbEntity
  8
0
100
AcDbBlockBegin
  2
block 2
 70
     0
 10
0.0
 20
0.0
 30
0.0
  3
block 2
  1

  0
SPLINE
  5
44
330
40
100
AcDbEntity
  8
0
 62
   179
420
  1842203
370
    25
100
AcDbSpline
210
0.0
220
0.0
230
1.0
 70
     8
 71
     3
 72
     8
 73
     4
 74
     0
 42
0.0000000001
 43
0.0000000001
 12
1.0
 22
0.0
 32
0.0
 13
1.0
 23
0.0
 33
0.0
 40
0.0
 40
0.0
 40
0.0
 40
0.0
 40
1.0
 40
1.0
 40
1.0
 40
1.0
 10
345.1736959514158
 20
23.86392500176425
 30
0.0
 10
345.178666535604
 20
23.90240782198086
 30
0.0
 10
345.1825139506599
 20
23.94100260804112
 30
0.0
 10
345.1852381965773
 20
23.97970935994568
 30
0.0
  0
ENDBLK
  5
43
330
40
100
AcDbEntity
  8
0
100
AcDbBlockEnd
  0
BLOCK
  5
47
330
45
100
AcDbEntity
  8
0
100
AcDbBlockBegin
  2
block 3
 70
     0
 10
0.0
 20
0.0
 30
0.0
  3
block 3
  1

  0
POLYLINE
  5
49
330
45
100
AcDbEntity
  8
0
 62
   179
420
  1842203
370
    25
100
AcDb2dPolyline
 66
     1
 10
0.0
 20
0.0
 30
0.0
  0
VERTEX
  5
4A
330
49
100
AcDbEntity
  8
0
 62
   179
420
  1842203
370
    25
100
AcDbVertex
100
AcDb2dVertex
 10
345.1861640601007
 20
30.95195544201696
 30
0.0
  0
VERTEX
  5
4B
330
49
100
AcDbEntity
  8
0
 62
   179
420
  1842203
370
    25
100
AcDbVertex
100
AcDb2dVertex
 10
345.1851549629731
 20
30.9703591279163
 30
0.0
  0
VERTEX
  5
4C
330
49
100
AcDbEntity
  8
0
 62
   179
420
  1842203
370
    25
100
AcDbVertex
100
AcDb2dVertex
 10
345.1840328175139
 20
30.98875626741895
 30
0.0
  0
SEQEND
  5
4D
330
49
100
AcDbEntity
  8
0
 62
   179
420
  1842203
370
    25
  0
ENDBLK
  5
48
330
45
100
AcDbEntity
  8
0
100
AcDbBlockEnd
  0
BLOCK
  5
50
330
4E
100
AcDbEntity
  8
0
100
AcDbBlockBegin
  2
block 4
 70
     0
 10
0.0
 20
0.0
 30
0.0
  3
block 4
  1

  0
SPLINE
  5
52
330
4E
100
AcDbEntity
  8
0
 62
   179
420
  1842203
370
    25
100
AcDbSpline
210
0.0
220
0.0
230
1.0
 70
     8
 71
     3
 72
    14
 73
    10
 74
     0
 42
0.0000000001
 43
0.0000000001
 12
1.0
 22
0.0
 32
0.0
 13
1.0
 23
0.0
 33
0.0
 40
0.0
 40
0.0
 40
0.0
 40
0.0
 40
1.0
 40
1.0
 40
1.0
 40
2.0
 40
2.0
 40
2.0
 40
3.0
 40
3.0
 40
3.0
 40
3.0
 10
-132.2996320820918
 20
3.277837215082865
 30
0.0
 10
-133.1797926007742
 20
27.48084828059189
 30
0.0
 10
-133.8387646946419
 20
51.68988011555959
 30
0.0
 10
-134.2765483637042
 20
75.90493271998596
 30
0.0
 10
-134.6001672454588
 20
93.78885181377588
 30
0.0
 10
-134.8043830929397
 20
111.6741342627214
 30
0.0
 10
-134.8891959061499
 20
129.560780066802
 30
0.0
 10
-134.9194869678919
 20
135.9390943691422
 30
0.0
 10
-134.9346276746283
 20
142.3174446348697
 30
0.0
 10
-134.9346180263592
 20
148.6958308639782
 30
0.0
  0
ENDBLK
  5
51
330
4E
100
AcDbEntity
  8
0
100
AcDbBlockEnd
  0
BLOCK
  5
55
330
53
100
AcDbEntity
  8
0
100
AcDbBlockBegin
  2
block 5
 70
     0
 10
0.0
 20
0.0
 30
0.0
  3
block 5
  1

  0
POLYLINE
  5
57
330
53
100
AcDbEntity
  8
0
 62
   179
420
  1842203
370
    25
100
AcDb2dPolyline
 66
     1
 10
0.0
 20
0.0
 30
0.0
  0
VERTEX
  5
58
330
57
100
AcDbEntity
  8
0
 62
   179
420
  1842203
370
    25
100
AcDbVertex
100
AcDb2dVertex
 10
342.5296397706959
 20
-33.50200380929719
 30
0.0
  0
VERTEX
  5
2BB
330
57
100
AcDbEntity
  8
0
100
AcDbVertex
100
AcDb2dVertex
 10
342.5296397706959
 20
-33.50200380929719
 30
0.0
  0
SEQEND
  5
59
330
57
100
AcDbEntity
  8
0
 62
   179
420
  1842203
370
    25
  0
ENDBLK
  5
56
330
53
100
AcDbEntity
  8
0
100
AcDbBlockEnd
  0
BLOCK
  5
5C
330
5A
100
AcDbEntity
  8
0
100
AcDbBlockBegin
  2
block 6
 70
     0
 10
0.0
 20
0.0
 30
0.0
  3
block 6
  1

  0
SPLINE
  5
5E
330
5A
100
AcDbEntity
  8
0
 62
   179
420
  1842203
370
    25
100
AcDbSpline
210
0.0
220
0.0
230
1.0
 70
     8
 71
     3
 72
     8
 73
     4
 74
     0
 42
0.0000000001
 43
0.0000000001
 12
1.0
 22
0.0
 32
0.0
 13
1.0
 23
0.0
 33
0.0
 40
0.0
 40
0.0
 40
0.0
 40
0.0
 40
1.0
 40
1.0
 40
1.0
 40
1.0
 10
345.1901735293509
 20
-27.54999755556318
 30
0.0
 10
344.3075653579506
 20
-29.52566568377324
 30
0.0
 10
343.4245214081963
 20
-31.50116977679941
 30
0.0
 10
342.5410693222416
 20
-33.4764489440592
 30
0.0
  0
ENDBLK
  5
5D
330
5A
100
AcDbEntity
  8
0
100
AcDbBlockEnd
  0
BLOCK
  5
61
330
5F
100
AcDbEntity
  8
0
100
AcDbBlockBegin
  2
block 7
 70
     0
 10
0.0
 20
0.0
 30
0.0
  3
block 7
  1

  0
POLYLINE
  5
63
330
5F
100
AcDbEntity
  8
0
 62
   179
420
  1842203
370
    25
100
AcDb2dPolyline
 66
     1
 10
0.0
 20
0.0
 30
0.0
  0
VERTEX
  5
64
330
63
100
AcDbEntity
  8
0
 62
   179
420
  1842203
370
    25
100
AcDbVertex
100
AcDb2dVertex
 10
208.4556023022636
 20
41.04361195141991
 30
0.0
  0
VERTEX
  5
65
330
63
100
AcDbEntity
  8
0
 62
   179
420
  1842203
370
    25
100
AcDbVertex
100
AcDb2dVertex
 10
208.5019476658904
 20
41.0946511857211
 30
0.0
  0
SEQEND
  5
66
330
63
100
AcDbEntity
  8
0
 62
   179
420
  1842203
370
    25
  0
ENDBLK
  5
62
330
5F
100
AcDbEntity
  8
0
100
AcDbBlockEnd
  0
BLOCK
  5
69
330
67
100
AcDbEntity
  8
0
100
AcDbBlockBegin
  2
block 8
 70
     0
 10
0.0
 20
0.0
 30
0.0
  3
block 8
  1

  0
POLYLINE
  5
6B
330
67
100
AcDbEntity
  8
0
 62
   179
420
  1842203
370
    25
100
AcDb2dPolyline
 66
     1
 10
0.0
 20
0.0
 30
0.0
  0
VERTEX
  5
6C
330
6B
100
AcDbEntity
  8
0
 62
   179
420
  1842203
370
    25
100
AcDbVertex
100
AcDb2dVertex
 10
208.5019476658904
 20
41.0946511857211
 30
0.0
  0
VERTEX
  5
6D
330
6B
100
AcDbEntity
  8
0
 62
   179
420
  1842203
370
    25
100
AcDbVertex
100
AcDb2dVertex
 10
208.5076030854178
 20
41.10116094900575
 30
0.0
  0
VERTEX
  5
6E
330
6B
100
AcDbEntity
  8
0
 62
   179
420
  1842203
370
    25
100
AcDbVertex
100
AcDb2dVertex
 10
208.5131425913736
 20
41.10777543336985
 30
0.0
  0
VERTEX
  5
6F
330
6B
100
AcDbEntity
  8
0
 62
   179
420
  1842203
370
    25
100
AcDbVertex
100
AcDb2dVertex
 10
208.5185660106851
 20
41.11449443215874
 30
0.0
  0
VERTEX
  5
70
330
6B
100
AcDbEntity
  8
0
 62
   179
420
  1842203
370
    25
100
AcDbVertex
100
AcDb2dVertex
 10
208.5238731739027
 20
41.12131773545083
 30
0.0
  0
VERTEX
  5
71
330
6B
100
AcDbEntity
  8
0
 62
   179
420
  1842203
370
    25
100
AcDbVertex
100
AcDb2dVertex
 10
208.5290639152223
 20
41.12824513006472
 30
0.0
  0
VERTEX
  5
72
330
6B
100
AcDbEntity
  8
0
 62
   179
420
  1842203
370
    25
100
AcDbVertex
100
AcDb2dVertex
 10
208.5341380724537
 20
41.13527639958036
 30
0.0
  0
VERTEX
  5
73
330
6B
100
AcDbEntity
  8
0
 62
   179
420
  1842203
370
    25
100
AcDbVertex
100
AcDb2dVertex
 10
208.5390954870358
 20
41.14241132431463
 30
0.0
  0
VERTEX
  5
74
330
6B
100
AcDbEntity
  8
0
 62
   179
420
  1842203
370
    25
100
AcDbVertex
100
AcDb2dVertex
 10
208.5439360040572
 20
41.14964968135286
 30
0.0
  0
SEQEND
  5
75
330
6B
100
AcDbEntity
  8
0
 62
   179
420
  1842203
370
    25
  0
ENDBLK
  5
6A
330
67
100
AcDbEntity
  8
0
100
AcDbBlockEnd
  0
BLOCK
  5
78
330
76
100
AcDbEntity
  8
0
100
AcDbBlockBegin
  2
block 9
 70
     0
 10
0.0
 20
0.0
 30
0.0
  3
block 9
  1

  0
SPLINE
  5
7A
330
76
100
AcDbEntity
  8
0
 62
   179
420
  1842203
370
    25
100
AcDbSpline
210
0.0
220
0.0
230
1.0
 70
     8
 71
     3
 72
     8
 73
     4
 74
     0
 42
0.0000000001
 43
0.0000000001
 12
1.0
 22
0.0
 32
0.0
 13
1.0
 23
0.0
 33
0.0
 40
0.0
 40
0.0
 40
0.0
 40
0.0
 40
1.0
 40
1.0
 40
1.0
 40
1.0
 10
209.1585108991205
 20
41.82396962538505
 30
0.0
 10
209.1910076460315
 20
41.85094194969691
 30
0.0
 10
209.2193811412571
 20
41.88171590036476
 30
0.0
 10
209.2436313848102
 20
41.9162914773886
 30
0.0
  0
ENDBLK
  5
79
330
76
100
AcDbEntity
  8
0
100
AcDbBlockEnd
  0
BLOCK
  5
7D
330
7B
100
AcDbEntity
  8
0
100
AcDbBlockBegin
  2
block 10
 70
     0
 10
0.0
 20
0.0
 30
0.0
  3
block 10
  1

  0
SPLINE
  5
7F
330
7B
100
AcDbEntity
  8
0
 62
   179
420
  1842203
370
    25
100
AcDbSpline
210
0.0
220
0.0
230
1.0
 70
     8
 71
     3
 72
    17
 73
    13
 74
     0
 42
0.0000000001
 43
0.0000000001
 12
1.0
 22
0.0
 32
0.0
 13
1.0
 23
0.0
 33
0.0
 40
0.0
 40
0.0
 40
0.0
 40
0.0
 40
1.0
 40
1.0
 40
1.0
 40
2.0
 40
2.0
 40
2.0
 40
3.0
 40
3.0
 40
3.0
 40
4.0
 40
4.0
 40
4.0
 40
4.0
 10
342.4905024354908
 20
-33.55911570587038
 30
0.0
 10
340.4490883387529
 20
-33.52275241877776
 30
0.0
 10
338.415008039788
 20
-33.48651723214056
 30
0.0
 10
336.3882619775095
 20
-33.45041059319542
 30
0.0
 10
329.2586380283856
 20
-33.32339578727102
 30
0.0
 10
322.1289855074818
 20
-33.19634939966508
 30
0.0
 10
314.9993215037522
 20
-33.06928087444783
 30
0.0
 10
305.7691458010208
 20
-32.90477595339617
 30
0.0
 10
296.5389227652925
 20
-32.74023360156981
 30
0.0
 10
287.3086929644111
 20
-32.57567046647004
 30
0.0
 10
283.244309054297
 20
-32.50320772470285
 30
0.0
 10
279.1629480046046
 20
-32.43044069727819
 30
0.0
 10
275.0646135886474
 20
-32.35736502830446
 30
0.0
  0
ENDBLK
  5
7E
330
7B
100
AcDbEntity
  8
0
100
AcDbBlockEnd
  0
BLOCK
  5
82
330
80
100
AcDbEntity
  8
0
100
AcDbBlockBegin
  2
block 11
 70
     0
 10
0.0
 20
0.0
 30
0.0
  3
block 11
  1

  0
SPLINE
  5
84
330
80
100
AcDbEntity
  8
0
 62
   179
420
  1842203
370
    25
100
AcDbSpline
210
0.0
220
0.0
230
1.0
 70
     8
 71
     3
 72
    14
 73
    10
 74
     0
 42
0.0000000001
 43
0.0000000001
 12
1.0
 22
0.0
 32
0.0
 13
1.0
 23
0.0
 33
0.0
 40
0.0
 40
0.0
 40
0.0
 40
0.0
 40
1.0
 40
1.0
 40
1.0
 40
2.0
 40
2.0
 40
2.0
 40
3.0
 40
3.0
 40
3.0
 40
3.0
 10
275.0646128204681
 20
-32.35736302971868
 30
0.0
 10
211.0876817838969
 20
-31.21665748244508
 30
0.0
 10
147.1109985048953
 20
-30.06213999841624
 30
0.0
 10
83.13456596529376
 20
-28.89381063143928
 30
0.0
 10
31.72810698330548
 20
-27.95502640666454
 30
0.0
 10
-19.67818608966135
 20
-27.00720079801195
 30
0.0
 10
-71.08431166339629
 20
-26.05033383479496
 30
0.0
 10
-83.620940444221
 20
-25.81697375172733
 30
0.0
 10
-96.16441840106683
 20
-25.58293311920069
 30
0.0
 10
-108.7147455030716
 20
-25.3482180461995
 30
0.0
  0
ENDBLK
  5
83
330
80
100
AcDbEntity
  8
0
100
AcDbBlockEnd
  0
BLOCK
  5
87
330
85
100
AcDbEntity
  8
0
100
AcDbBlockBegin
  2
block 12
 70
     0
 10
0.0
 20
0.0
 30
0.0
  3
block 12
  1

  0
SPLINE
  5
89
330
85
100
AcDbEntity
  8
0
 62
   179
420
  1842203
370
    25
100
AcDbSpline
210
0.0
220
0.0
230
1.0
 70
     8
 71
     3
 72
    71
 73
    67
 74
     0
 42
0.0000000001
 43
0.0000000001
 12
1.0
 22
0.0
 32
0.0
 13
1.0
 23
0.0
 33
0.0
 40
0.0
 40
0.0
 40
0.0
 40
0.0
 40
1.0
 40
1.0
 40
1.0
 40
2.0
 40
2.0
 40
2.0
 40
3.0
 40
3.0
 40
3.0
 40
4.0
 40
4.0
 40
4.0
 40
5.0
 40
5.0
 40
5.0
 40
6.0
 40
6.0
 40
6.0
 40
7.0
 40
7.0
 40
7.0
 40
8.0
 40
8.0
 40
8.0
 40
9.0
 40
9.0
 40
9.0
 40
10.0
 40
10.0
 40
10.0
 40
11.0
 40
11.0
 40
11.0
 40
12.0
 40
12.0
 40
12.0
 40
13.0
 40
13.0
 40
13.0
 40
14.0
 40
14.0
 40
14.0
 40
15.0
 40
15.0
 40
15.0
 40
16.0
 40
16.0
 40
16.0
 40
17.0
 40
17.0
 40
17.0
 40
18.0
 40
18.0
 40
18.0
 40
19.0
 40
19.0
 40
19.0
 40
20.0
 40
20.0
 40
20.0
 40
21.0
 40
21.0
 40
21.0
 40
22.0
 40
22.0
 40
22.0
 40
22.0
 10
-108.7147472460625
 20
-25.34828375213329
 30
0.0
 10
-109.6692737547567
 20
-25.3307753474682
 30
0.0
 10
-110.6237285617873
 20
-25.30971777484211
 30
0.0
 10
-111.5780984705104
 20
-25.28511132540287
 30
0.0
 10
-112.3803783483218
 20
-25.26460145341025
 30
0.0
 10
-113.1824960785769
 20
-25.23850923231767
 30
0.0
 10
-113.9844128191666
 20
-25.20683592561832
 30
0.0
 10
-114.811469916829
 20
-25.17378423604908
 30
0.0
 10
-115.6381837748932
 20
-25.13304047752442
 30
0.0
 10
-116.4644828546028
 20
-25.08460817575897
 30
0.0
 10
-117.2804926888406
 20
-25.03842050557905
 30
0.0
 10
-118.0958031174327
 20
-24.98119939508405
 30
0.0
 10
-118.9102649617565
 20
-24.91295531408211
 30
0.0
 10
-119.4279752037882
 20
-24.86859352382318
 30
0.0
 10
-119.9441537466799
 20
-24.80899843179716
 30
0.0
 10
-120.4583524582795
 20
-24.7342217768391
 30
0.0
 10
-120.7801962467101
 20
-24.68677976982141
 30
0.0
 10
-121.1006559370103
 20
-24.63074625240603
 30
0.0
 10
-121.4195022238237
 20
-24.56616131943256
 30
0.0
 10
-121.9517299832797
 20
-24.45927243583305
 30
0.0
 10
-122.4770073616454
 20
-24.32224945544508
 30
0.0
 10
-122.9936296604327
 20
-24.15553706307884
 30
0.0
 10
-123.5272333710639
 20
-23.98292631857367
 30
0.0
 10
-124.0472121494533
 20
-23.77280859170745
 30
0.0
 10
-124.5509334086218
 20
-23.52624768203238
 30
0.0
 10
-125.4742094746274
 20
-23.07385565428273
 30
0.0
 10
-126.324819006885
 20
-22.49630854410727
 30
0.0
 10
-127.0859089172313
 20
-21.80504926625909
 30
0.0
 10
-127.8015590170478
 20
-21.15208088967345
 30
0.0
 10
-128.4300520961611
 20
-20.41484333252547
 30
0.0
 10
-128.9615457021404
 20
-19.60488202913616
 30
0.0
 10
-129.4655560279314
 20
-18.83623434081307
 30
0.0
 10
-129.8891205492947
 20
-18.02049003436027
 30
0.0
 10
-130.2278827140562
 20
-17.16603940794144
 30
0.0
 10
-130.8188717243121
 20
-15.68923344427539
 30
0.0
 10
-131.1611211248972
 20
-14.15574905033901
 30
0.0
 10
-131.3720405687249
 20
-12.58419351466451
 30
0.0
 10
-131.4140932299853
 20
-12.26924487314172
 30
0.0
 10
-131.4514642967365
 20
-11.9537064816769
 30
0.0
 10
-131.4841455274786
 20
-11.63764792654445
 30
0.0
 10
-131.5162611197698
 20
-11.32619987722845
 30
0.0
 10
-131.545259586738
 20
-11.01444614813622
 30
0.0
 10
-131.5711380265364
 20
-10.70241793620066
 30
0.0
 10
-131.6062425375892
 20
-10.27659854006545
 30
0.0
 10
-131.6388163905238
 20
-9.85057808407411
 30
0.0
 10
-131.6688584353945
 20
-9.424371607864986
 30
0.0
 10
-131.6985630085049
 20
-9.009832457695708
 30
0.0
 10
-131.7272267794579
 20
-8.594410720624499
 30
0.0
 10
-131.7552378742038
 20
-8.178146049825543
 30
0.0
 10
-131.7757767299877
 20
-7.87292413263203
 30
0.0
 10
-131.7959028603308
 20
-7.56725158783942
 30
0.0
 10
-131.8155269499567
 20
-7.261127048108983
 30
0.0
 10
-131.87272653221
 20
-6.36943673709844
 30
0.0
 10
-131.9254207430651
 20
-5.477468843564201
 30
0.0
 10
-131.9736082377167
 20
-4.585246131275952
 30
0.0
 10
-132.0176435076884
 20
-3.768564119774509
 30
0.0
 10
-132.057877425306
 20
-2.951686010879663
 30
0.0
 10
-132.0943091190945
 20
-2.134629498386831
 30
0.0
 10
-132.1293239435944
 20
-1.345443423966405
 30
0.0
 10
-132.1614768445179
 20
-0.5561355696008554
 30
0.0
 10
-132.1907673990911
 20
0.2332836861846296
 30
0.0
 10
-132.2148081079391
 20
0.8766185987698345
 30
0.0
 10
-132.2374032750058
 20
1.520597213671059
 30
0.0
 10
-132.260047807696
 20
2.165158835075581
 30
0.0
 10
-132.2730849453354
 20
2.536252321110817
 30
0.0
 10
-132.2861470924313
 20
2.907149722400537
 30
0.0
 10
-132.2996083716658
 20
3.277837118467374
 30
0.0
  0
ENDBLK
  5
88
330
85
100
AcDbEntity
  8
0
100
AcDbBlockEnd
  0
BLOCK
  5
8C
330
8A
100
AcDbEntity
  8
0
100
AcDbBlockBegin
  2
block 13
 70
     0
 10
0.0
 20
0.0
 30
0.0
  3
block 13
  1

  0
SPLINE
  5
8E
330
8A
100
AcDbEntity
  8
0
 62
   179
420
  1842203
370
    25
100
AcDbSpline
210
0.0
220
0.0
230
1.0
 70
     8
 71
     3
 72
    14
 73
    10
 74
     0
 42
0.0000000001
 43
0.0000000001
 12
1.0
 22
0.0
 32
0.0
 13
1.0
 23
0.0
 33
0.0
 40
0.0
 40
0.0
 40
0.0
 40
0.0
 40
1.0
 40
1.0
 40
1.0
 40
2.0
 40
2.0
 40
2.0
 40
3.0
 40
3.0
 40
3.0
 40
3.0
 10
-134.9346180263464
 20
148.69583107028
 30
0.0
 10
-134.9346276819373
 20
155.0742188520845
 30
0.0
 10
-134.9194869752044
 20
161.4525706704953
 30
0.0
 10
-134.8891959061499
 20
167.8308865255065
 30
0.0
 10
-134.8043830994337
 20
185.7175323296705
 30
0.0
 10
-134.6001672519528
 20
203.602814778609
 30
0.0
 10
-134.2765483637042
 20
221.4867338723379
 30
0.0
 10
-133.8387646946419
 20
245.701786476755
 30
0.0
 10
-133.1797926007742
 20
269.9108183117166
 30
0.0
 10
-132.2996320820949
 20
294.1138293772189
 30
0.0
  0
ENDBLK
  5
8D
330
8A
100
AcDbEntity
  8
0
100
AcDbBlockEnd
  0
BLOCK
  5
91
330
8F
100
AcDbEntity
  8
0
100
AcDbBlockBegin
  2
block 14
 70
     0
 10
0.0
 20
0.0
 30
0.0
  3
block 14
  1

  0
SPLINE
  5
93
330
8F
100
AcDbEntity
  8
0
 62
   179
420
  1842203
370
    25
100
AcDbSpline
210
0.0
220
0.0
230
1.0
 70
     8
 71
     3
 72
     8
 73
     4
 74
     0
 42
0.0000000001
 43
0.0000000001
 12
1.0
 22
0.0
 32
0.0
 13
1.0
 23
0.0
 33
0.0
 40
0.0
 40
0.0
 40
0.0
 40
0.0
 40
1.0
 40
1.0
 40
1.0
 40
1.0
 10
342.5410693034976
 20
330.8681155782835
 30
0.0
 10
343.424522492198
 20
328.8928339454312
 30
0.0
 10
344.3075665001358
 20
326.9173297192319
 30
0.0
 10
345.1901735293316
 20
324.9416641478646
 30
0.0
  0
ENDBLK
  5
92
330
8F
100
AcDbEntity
  8
0
100
AcDbBlockEnd
  0
BLOCK
  5
96
330
94
100
AcDbEntity
  8
0
100
AcDbBlockBegin
  2
block 15
 70
     0
 10
0.0
 20
0.0
 30
0.0
  3
block 15
  1

  0
POLYLINE
  5
98
330
94
100
AcDbEntity
  8
0
 62
   179
420
  1842203
370
    25
100
AcDb2dPolyline
 66
     1
 10
0.0
 20
0.0
 30
0.0
  0
VERTEX
  5
99
330
98
100
AcDbEntity
  8
0
 62
   179
420
  1842203
370
    25
100
AcDbVertex
100
AcDb2dVertex
 10
208.4556023022636
 20
256.3480546408886
 30
0.0
  0
VERTEX
  5
9A
330
98
100
AcDbEntity
  8
0
 62
   179
420
  1842203
370
    25
100
AcDbVertex
100
AcDb2dVertex
 10
208.5019476658904
 20
256.2970154065938
 30
0.0
  0
SEQEND
  5
9B
330
98
100
AcDbEntity
  8
0
 62
   179
420
  1842203
370
    25
  0
ENDBLK
  5
97
330
94
100
AcDbEntity
  8
0
100
AcDbBlockEnd
  0
BLOCK
  5
9E
330
9C
100
AcDbEntity
  8
0
100
AcDbBlockBegin
  2
block 16
 70
     0
 10
0.0
 20
0.0
 30
0.0
  3
block 16
  1

  0
POLYLINE
  5
A0
330
9C
100
AcDbEntity
  8
0
 62
   179
420
  1842203
370
    25
100
AcDb2dPolyline
 66
     1
 10
0.0
 20
0.0
 30
0.0
  0
VERTEX
  5
A1
330
A0
100
AcDbEntity
  8
0
 62
   179
420
  1842203
370
    25
100
AcDbVertex
100
AcDb2dVertex
 10
208.5019476658904
 20
256.2970154065938
 30
0.0
  0
VERTEX
  5
A2
330
A0
100
AcDbEntity
  8
0
 62
   179
420
  1842203
370
    25
100
AcDbVertex
100
AcDb2dVertex
 10
208.5076030854178
 20
256.2905056433085
 30
0.0
  0
VERTEX
  5
A3
330
A0
100
AcDbEntity
  8
0
 62
   179
420
  1842203
370
    25
100
AcDbVertex
100
AcDb2dVertex
 10
208.5131425913736
 20
256.2838911589444
 30
0.0
  0
VERTEX
  5
A4
330
A0
100
AcDbEntity
  8
0
 62
   179
420
  1842203
370
    25
100
AcDbVertex
100
AcDb2dVertex
 10
208.5185660106851
 20
256.2771721601594
 30
0.0
  0
VERTEX
  5
A5
330
A0
100
AcDbEntity
  8
0
 62
   179
420
  1842203
370
    25
100
AcDbVertex
100
AcDb2dVertex
 10
208.5238731739027
 20
256.2703488568641
 30
0.0
  0
VERTEX
  5
A6
330
A0
100
AcDbEntity
  8
0
 62
   179
420
  1842203
370
    25
100
AcDbVertex
100
AcDb2dVertex
 10
208.5290639152223
 20
256.2634214622528
 30
0.0
  0
VERTEX
  5
A7
330
A0
100
AcDbEntity
  8
0
 62
   179
420
  1842203
370
    25
100
AcDbVertex
100
AcDb2dVertex
 10
208.5341380724537
 20
256.2563901927346
 30
0.0
  0
VERTEX
  5
A8
330
A0
100
AcDbEntity
  8
0
 62
   179
420
  1842203
370
    25
100
AcDbVertex
100
AcDb2dVertex
 10
208.5390954870358
 20
256.2492552679935
 30
0.0
  0
VERTEX
  5
A9
330
A0
100
AcDbEntity
  8
0
 62
   179
420
  1842203
370
    25
100
AcDbVertex
100
AcDb2dVertex
 10
208.5439360040572
 20
256.2420169109618
 30
0.0
  0
SEQEND
  5
AA
330
A0
100
AcDbEntity
  8
0
 62
   179
420
  1842203
370
    25
  0
ENDBLK
  5
9F
330
9C
100
AcDbEntity
  8
0
100
AcDbBlockEnd
  0
BLOCK
  5
AD
330
AB
100
AcDbEntity
  8
0
100
AcDbBlockBegin
  2
block 17
 70
     0
 10
0.0
 20
0.0
 30
0.0
  3
block 17
  1

  0
SPLINE
  5
AF
330
AB
100
AcDbEntity
  8
0
 62
   179
420
  1842203
370
    25
100
AcDbSpline
210
0.0
220
0.0
230
1.0
 70
     8
 71
     3
 72
     8
 73
     4
 74
     0
 42
0.0000000001
 43
0.0000000001
 12
1.0
 22
0.0
 32
0.0
 13
1.0
 23
0.0
 33
0.0
 40
0.0
 40
0.0
 40
0.0
 40
0.0
 40
1.0
 40
1.0
 40
1.0
 40
1.0
 10
209.1585108991205
 20
255.5676969669292
 30
0.0
 10
209.1910078682146
 20
255.5407244580891
 30
0.0
 10
209.2193815264665
 20
255.5099502752007
 30
0.0
 10
209.2436318738735
 20
255.4753744182452
 30
0.0
  0
ENDBLK
  5
AE
330
AB
100
AcDbEntity
  8
0
100
AcDbBlockEnd
  0
BLOCK
  5
B2
330
B0
100
AcDbEntity
  8
0
100
AcDbBlockBegin
  2
block 18
 70
     0
 10
0.0
 20
0.0
 30
0.0
  3
block 18
  1

  0
POLYLINE
  5
B4
330
B0
100
AcDbEntity
  8
0
 62
   179
420
  1842203
370
    25
100
AcDb2dPolyline
 66
     1
 10
0.0
 20
0.0
 30
0.0
  0
VERTEX
  5
B5
330
B4
100
AcDbEntity
  8
0
 62
   179
420
  1842203
370
    25
100
AcDbVertex
100
AcDb2dVertex
 10
172.0153096516209
 20
280.2576811599153
 30
0.0
  0
VERTEX
  5
B6
330
B4
100
AcDbEntity
  8
0
 62
   179
420
  1842203
370
    25
100
AcDbVertex
100
AcDb2dVertex
 10
171.7478459486983
 20
280.3218732440826
 30
0.0
  0
SEQEND
  5
B7
330
B4
100
AcDbEntity
  8
0
 62
   179
420
  1842203
370
    25
  0
ENDBLK
  5
B3
330
B0
100
AcDbEntity
  8
0
100
AcDbBlockEnd
  0
BLOCK
  5
BA
330
B8
100
AcDbEntity
  8
0
100
AcDbBlockBegin
  2
block 19
 70
     0
 10
0.0
 20
0.0
 30
0.0
  3
block 19
  1

  0
SPLINE
  5
BC
330
B8
100
AcDbEntity
  8
0
 62
   179
420
  1842203
370
    25
100
AcDbSpline
210
0.0
220
0.0
230
1.0
 70
     8
 71
     3
 72
    17
 73
    13
 74
     0
 42
0.0000000001
 43
0.0000000001
 12
1.0
 22
0.0
 32
0.0
 13
1.0
 23
0.0
 33
0.0
 40
0.0
 40
0.0
 40
0.0
 40
0.0
 40
1.0
 40
1.0
 40
1.0
 40
2.0
 40
2.0
 40
2.0
 40
3.0
 40
3.0
 40
3.0
 40
4.0
 40
4.0
 40
4.0
 40
4.0
 10
275.0646135886474
 20
329.7490316206123
 30
0.0
 10
279.1629484734223
 20
329.8221072979474
 30
0.0
 10
283.2443095227412
 20
329.8948743253727
 30
0.0
 10
287.3086929644111
 20
329.9673370587843
 30
0.0
 10
296.5389278794735
 20
330.1319002850644
 30
0.0
 10
305.7691510445939
 20
330.2964426391624
 30
0.0
 10
314.9993215037522
 20
330.4609474667621
 30
0.0
 10
322.1289877074526
 20
330.5880160311881
 30
0.0
 10
329.2586402996704
 20
330.7150624200515
 30
0.0
 10
336.3882619775095
 20
330.8420771855036
 30
0.0
 10
338.4150080904951
 20
330.8781838253532
 30
0.0
 10
340.4490883889144
 20
330.914419011984
 30
0.0
 10
342.4905024354908
 20
330.9507822981853
 30
0.0
  0
ENDBLK
  5
BB
330
B8
100
AcDbEntity
  8
0
100
AcDbBlockEnd
  0
BLOCK
  5
BF
330
BD
100
AcDbEntity
  8
0
100
AcDbBlockBegin
  2
block 20
 70
     0
 10
0.0
 20
0.0
 30
0.0
  3
block 20
  1

  0
SPLINE
  5
C1
330
BD
100
AcDbEntity
  8
0
 62
   179
420
  1842203
370
    25
100
AcDbSpline
210
0.0
220
0.0
230
1.0
 70
     8
 71
     3
 72
    14
 73
    10
 74
     0
 42
0.0000000001
 43
0.0000000001
 12
1.0
 22
0.0
 32
0.0
 13
1.0
 23
0.0
 33
0.0
 40
0.0
 40
0.0
 40
0.0
 40
0.0
 40
1.0
 40
1.0
 40
1.0
 40
2.0
 40
2.0
 40
2.0
 40
3.0
 40
3.0
 40
3.0
 40
3.0
 10
-108.7147455030716
 20
322.7398846385074
 30
0.0
 10
-96.16441838280407
 20
322.9745997118554
 30
0.0
 10
-83.62094042619248
 20
323.2086403443788
 30
0.0
 10
-71.08431166339629
 20
323.4420004271028
 30
0.0
 10
-19.67818608966135
 20
324.3988673902496
 30
0.0
 10
31.72810698330548
 20
325.346692998896
 30
0.0
 10
83.13456596530017
 20
326.2854772237093
 30
0.0
 10
147.1109985048953
 20
327.4538065907761
 30
0.0
 10
211.0876817838969
 20
328.6083240748049
 30
0.0
 10
275.0646128204681
 20
329.7490296220464
 30
0.0
  0
ENDBLK
  5
C0
330
BD
100
AcDbEntity
  8
0
100
AcDbBlockEnd
  0
BLOCK
  5
C4
330
C2
100
AcDbEntity
  8
0
100
AcDbBlockBegin
  2
block 21
 70
     0
 10
0.0
 20
0.0
 30
0.0
  3
block 21
  1

  0
SPLINE
  5
C6
330
C2
100
AcDbEntity
  8
0
 62
   179
420
  1842203
370
    25
100
AcDbSpline
210
0.0
220
0.0
230
1.0
 70
     8
 71
     3
 72
    71
 73
    67
 74
     0
 42
0.0000000001
 43
0.0000000001
 12
1.0
 22
0.0
 32
0.0
 13
1.0
 23
0.0
 33
0.0
 40
0.0
 40
0.0
 40
0.0
 40
0.0
 40
1.0
 40
1.0
 40
1.0
 40
2.0
 40
2.0
 40
2.0
 40
3.0
 40
3.0
 40
3.0
 40
4.0
 40
4.0
 40
4.0
 40
5.0
 40
5.0
 40
5.0
 40
6.0
 40
6.0
 40
6.0
 40
7.0
 40
7.0
 40
7.0
 40
8.0
 40
8.0
 40
8.0
 40
9.0
 40
9.0
 40
9.0
 40
10.0
 40
10.0
 40
10.0
 40
11.0
 40
11.0
 40
11.0
 40
12.0
 40
12.0
 40
12.0
 40
13.0
 40
13.0
 40
13.0
 40
14.0
 40
14.0
 40
14.0
 40
15.0
 40
15.0
 40
15.0
 40
16.0
 40
16.0
 40
16.0
 40
17.0
 40
17.0
 40
17.0
 40
18.0
 40
18.0
 40
18.0
 40
19.0
 40
19.0
 40
19.0
 40
20.0
 40
20.0
 40
20.0
 40
21.0
 40
21.0
 40
21.0
 40
22.0
 40
22.0
 40
22.0
 40
22.0
 10
-132.2996083716658
 20
294.1138294738405
 30
0.0
 10
-132.286147091549
 20
294.4845168942922
 30
0.0
 10
-132.2730849392906
 20
294.8554144432064
 30
0.0
 10
-132.260047807696
 20
295.226507757239
 30
0.0
 10
-132.2374032336865
 20
295.8710705548127
 30
0.0
 10
-132.2148081057092
 20
296.5150480532199
 30
0.0
 10
-132.1907673990911
 20
297.1583829061332
 30
0.0
 10
-132.1614768479767
 20
297.9478021620563
 30
0.0
 10
-132.1293239470532
 20
298.7371100164257
 30
0.0
 10
-132.0943091190945
 20
299.5262960907017
 30
0.0
 10
-132.0578774264383
 20
300.3433526032453
 30
0.0
 10
-132.0176435088178
 20
301.1602307121465
 30
0.0
 10
-131.9736082377167
 20
301.9769127235902
 30
0.0
 10
-131.9254207420352
 20
302.8691354358149
 30
0.0
 10
-131.8727265311832
 20
303.7611033293489
 30
0.0
 10
-131.8155269499567
 20
304.6527936404169
 30
0.0
 10
-131.7959028260962
 20
304.9589187141814
 30
0.0
 10
-131.7757766880071
 20
305.2645913487804
 30
0.0
 10
-131.7552378742038
 20
305.5698126421366
 30
0.0
 10
-131.7272266645443
 20
305.9860790206584
 30
0.0
 10
-131.6985629276146
 20
306.4015001788953
 30
0.0
 10
-131.6688584353945
 20
306.8160382001796
 30
0.0
 10
-131.6388164129611
 20
307.2422446780568
 30
0.0
 10
-131.6062425600198
 20
307.668265134138
 30
0.0
 10
-131.5711380265364
 20
308.0940845285156
 30
0.0
 10
-131.545259586738
 20
308.4061127404505
 30
0.0
 10
-131.5162611197698
 20
308.717866469543
 30
0.0
 10
-131.4841455274786
 20
309.0293145188593
 30
0.0
 10
-131.4514642967365
 20
309.3453730739911
 30
0.0
 10
-131.4140932299853
 20
309.660911465456
 30
0.0
 10
-131.3720405687249
 20
309.9758601069788
 30
0.0
 10
-131.1611211248972
 20
311.5474156426469
 30
0.0
 10
-130.8188717243153
 20
313.0809000365832
 30
0.0
 10
-130.2278827140562
 20
314.5577060002493
 30
0.0
 10
-129.8891205492947
 20
315.4121566266745
 30
0.0
 10
-129.4655560279314
 20
316.2279009331273
 30
0.0
 10
-128.9615457021404
 20
316.9965486214511
 30
0.0
 10
-128.4300520961611
 20
317.8065099248336
 30
0.0
 10
-127.8015590170478
 20
318.543747481998
 30
0.0
 10
-127.0859089172313
 20
319.1967158585737
 30
0.0
 10
-126.324819006885
 20
319.8879751364215
 30
0.0
 10
-125.4742094746274
 20
320.4655222465973
 30
0.0
 10
-124.5509334086218
 20
320.917914274347
 30
0.0
 10
-124.0472121494533
 20
321.164475184022
 30
0.0
 10
-123.5272333710639
 20
321.3745929108883
 30
0.0
 10
-122.9936296604327
 20
321.5472036553873
 30
0.0
 10
-122.4770073616454
 20
321.71391604776
 30
0.0
 10
-121.9517299832797
 20
321.8509390281473
 30
0.0
 10
-121.4195022238237
 20
321.9578279117468
 30
0.0
 10
-121.1006559370103
 20
322.0224128447171
 30
0.0
 10
-120.7801962467101
 20
322.0784463621363
 30
0.0
 10
-120.4583524582795
 20
322.1258883691566
 30
0.0
 10
-119.9441537466799
 20
322.2006650241114
 30
0.0
 10
-119.4279752037882
 20
322.2602601161378
 30
0.0
 10
-118.9102649617565
 20
322.30462190639
 30
0.0
 10
-118.0958031174327
 20
322.3728659873919
 30
0.0
 10
-117.2804926888406
 20
322.4300870979036
 30
0.0
 10
-116.4644828546028
 20
322.4762747680739
 30
0.0
 10
-115.6381837748932
 20
322.5247070698387
 30
0.0
 10
-114.811469916829
 20
322.5654508283637
 30
0.0
 10
-113.9844128191666
 20
322.5985025179265
 30
0.0
 10
-113.1824960775919
 20
322.6301757963141
 30
0.0
 10
-112.3803783474683
 20
322.6562680174
 30
0.0
 10
-111.5780984705104
 20
322.6767779177171
 30
0.0
 10
-110.623728561643
 20
322.7013843610121
 30
0.0
 10
-109.6692737546284
 20
322.722441933635
 30
0.0
 10
-108.7147472460625
 20
322.7399503444475
 30
0.0
  0
ENDBLK
  5
C5
330
C2
100
AcDbEntity
  8
0
100
AcDbBlockEnd
  0
BLOCK
  5
C9
330
C7
100
AcDbEntity
  8
0
100
AcDbBlockBegin
  2
block 22
 70
     0
 10
0.0
 20
0.0
 30
0.0
  3
block 22
  1

  0
SPLINE
  5
CB
330
C7
100
AcDbEntity
  8
0
 62
   179
420
  1842203
370
    25
100
AcDbSpline
210
0.0
220
0.0
230
1.0
 70
    24
 71
     3
 72
     8
 73
     4
 74
     0
 42
0.0000000001
 43
0.0000000001
 12
1.0
 22
0.0
 32
0.0
 13
1.0
 23
0.0
 33
0.0
 40
0.0
 40
0.0
 40
0.0
 40
0.0
 40
1.0
 40
1.0
 40
1.0
 40
1.0
 10
345.1901734993322
 20
148.6958332961607
 30
0.0
 10
345.190173441116
 20
93.39815862621087
 30
0.0
 10
345.190173382901
 20
38.10048395626494
 30
0.0
 10
345.1901733246912
 20
-17.19719071368165
 30
0.0
  0
ENDBLK
  5
CA
330
C7
100
AcDbEntity
  8
0
100
AcDbBlockEnd
  0
BLOCK
  5
CE
330
CC
100
AcDbEntity
  8
0
100
AcDbBlockBegin
  2
block 23
 70
     0
 10
0.0
 20
0.0
 30
0.0
  3
block 23
  1

  0
SPLINE
  5
D0
330
CC
100
AcDbEntity
  8
0
 62
   179
420
  1842203
370
    25
100
AcDbSpline
210
0.0
220
0.0
230
1.0
 70
     8
 71
     3
 72
    20
 73
    16
 74
     0
 42
0.0000000001
 43
0.0000000001
 12
1.0
 22
0.0
 32
0.0
 13
1.0
 23
0.0
 33
0.0
 40
0.0
 40
0.0
 40
0.0
 40
0.0
 40
1.0
 40
1.0
 40
1.0
 40
2.0
 40
2.0
 40
2.0
 40
3.0
 40
3.0
 40
3.0
 40
4.0
 40
4.0
 40
4.0
 40
5.0
 40
5.0
 40
5.0
 40
5.0
 10
345.1901735007568
 20
-27.54666495217769
 30
0.0
 10
345.1901734952375
 20
-27.52919028281438
 30
0.0
 10
345.1901734944354
 20
-27.51863967144815
 30
0.0
 10
345.1901734937032
 20
-27.50804418332226
 30
0.0
 10
345.190173491053
 20
-27.46966996787668
 30
0.0
 10
345.1901734893204
 20
-27.43070710028596
 30
0.0
 10
345.1901734877232
 20
-27.39175500368292
 30
0.0
 10
345.1901734809019
 20
-27.22517285620388
 30
0.0
 10
345.1901734765769
 20
-27.05878770177288
 30
0.0
 10
345.1901734725143
 20
-26.89239779228462
 30
0.0
 10
345.1901734555157
 20
-26.19569388303871
 30
0.0
 10
345.1901734431887
 20
-25.49890660607153
 30
0.0
 10
345.1901734315932
 20
-24.80212585840555
 30
0.0
 10
345.1901733894143
 20
-22.26711465100104
 30
0.0
 10
345.1901733569308
 20
-19.73218986766359
 30
0.0
 10
345.1901733246912
 20
-17.19719071368165
 30
0.0
  0
ENDBLK
  5
CF
330
CC
100
AcDbEntity
  8
0
100
AcDbBlockEnd
  0
BLOCK
  5
D3
330
D1
100
AcDbEntity
  8
0
100
AcDbBlockBegin
  2
block 24
 70
     0
 10
0.0
 20
0.0
 30
0.0
  3
block 24
  1

  0
SPLINE
  5
D5
330
D1
100
AcDbEntity
  8
0
 62
   179
420
  1842203
370
    25
100
AcDbSpline
210
0.0
220
0.0
230
1.0
 70
     8
 71
     3
 72
    20
 73
    16
 74
     0
 42
0.0000000001
 43
0.0000000001
 12
1.0
 22
0.0
 32
0.0
 13
1.0
 23
0.0
 33
0.0
 40
0.0
 40
0.0
 40
0.0
 40
0.0
 40
1.0
 40
1.0
 40
1.0
 40
2.0
 40
2.0
 40
2.0
 40
3.0
 40
3.0
 40
3.0
 40
4.0
 40
4.0
 40
4.0
 40
5.0
 40
5.0
 40
5.0
 40
5.0
 10
345.1901735007568
 20
324.938331544492
 30
0.0
 10
345.1901734952439
 20
324.9208568751293
 30
0.0
 10
345.1901734944354
 20
324.9103062637724
 30
0.0
 10
345.1901734937032
 20
324.8997107756372
 30
0.0
 10
345.190173491053
 20
324.8613365601846
 30
0.0
 10
345.1901734893204
 20
324.8223736925941
 30
0.0
 10
345.1901734877232
 20
324.7834215959972
 30
0.0
 10
345.1901734809019
 20
324.6168394485188
 30
0.0
 10
345.1901734765769
 20
324.4504542940871
 30
0.0
 10
345.1901734725143
 20
324.2840643845996
 30
0.0
 10
345.1901734555157
 20
323.5873604753565
 30
0.0
 10
345.1901734431887
 20
322.8905731983797
 30
0.0
 10
345.1901734315932
 20
322.1937924507205
 30
0.0
 10
345.1901733894143
 20
319.6587812433153
 30
0.0
 10
345.1901733569372
 20
317.1238564599782
 30
0.0
 10
345.1901733246912
 20
314.5888573059959
 30
0.0
  0
ENDBLK
  5
D4
330
D1
100
AcDbEntity
  8
0
100
AcDbBlockEnd
  0
BLOCK
  5
D8
330
D6
100
AcDbEntity
  8
0
100
AcDbBlockBegin
  2
block 25
 70
     0
 10
0.0
 20
0.0
 30
0.0
  3
block 25
  1

  0
SPLINE
  5
DA
330
D6
100
AcDbEntity
  8
0
 62
   179
420
  1842203
370
    25
100
AcDbSpline
210
0.0
220
0.0
230
1.0
 70
     8
 71
     3
 72
     8
 73
     4
 74
     0
 42
0.0000000001
 43
0.0000000001
 12
1.0
 22
0.0
 32
0.0
 13
1.0
 23
0.0
 33
0.0
 40
0.0
 40
0.0
 40
0.0
 40
0.0
 40
1.0
 40
1.0
 40
1.0
 40
1.0
 10
342.5194882827316
 20
-33.52188191617117
 30
0.0
 10
342.5229490830661
 20
-33.51602279604845
 30
0.0
 10
342.526284665993
 20
-33.50947532411097
 30
0.0
 10
342.5294938073554
 20
-33.50224823484265
 30
0.0
  0
ENDBLK
  5
D9
330
D6
100
AcDbEntity
  8
0
100
AcDbBlockEnd
  0
BLOCK
  5
DD
330
DB
100
AcDbEntity
  8
0
100
AcDbBlockBegin
  2
block 26
 70
     0
 10
0.0
 20
0.0
 30
0.0
  3
block 26
  1

  0
SPLINE
  5
DF
330
DB
100
AcDbEntity
  8
0
 62
   179
420
  1842203
370
    25
100
AcDbSpline
210
0.0
220
0.0
230
1.0
 70
     8
 71
     3
 72
    14
 73
    10
 74
     0
 42
0.0000000001
 43
0.0000000001
 12
1.0
 22
0.0
 32
0.0
 13
1.0
 23
0.0
 33
0.0
 40
0.0
 40
0.0
 40
0.0
 40
0.0
 40
1.0
 40
1.0
 40
1.0
 40
2.0
 40
2.0
 40
2.0
 40
3.0
 40
3.0
 40
3.0
 40
3.0
 10
227.1145961344422
 20
103.8589048418112
 30
0.0
 10
226.9983888449062
 20
102.5039949505842
 30
0.0
 10
226.8798681679099
 20
101.1492734293363
 30
0.0
 10
226.7575939937227
 20
99.79485612972424
 30
0.0
 10
226.3537158750746
 20
95.32114355337328
 30
0.0
 10
225.9081397656204
 20
90.8542610169383
 30
0.0
 10
225.3386487505199
 20
86.39479043845472
 30
0.0
 10
224.219877991231
 20
77.63411616475372
 30
0.0
 10
222.5671812780685
 20
68.49344774129716
 30
0.0
 10
219.515202313979
 20
60.11850410471453
 30
0.0
  0
ENDBLK
  5
DE
330
DB
100
AcDbEntity
  8
0
100
AcDbBlockEnd
  0
BLOCK
  5
E2
330
E0
100
AcDbEntity
  8
0
100
AcDbBlockBegin
  2
block 27
 70
     0
 10
0.0
 20
0.0
 30
0.0
  3
block 27
  1

  0
SPLINE
  5
E4
330
E0
100
AcDbEntity
  8
0
 62
   179
420
  1842203
370
    25
100
AcDbSpline
210
0.0
220
0.0
230
1.0
 70
     8
 71
     3
 72
     8
 73
     4
 74
     0
 42
0.0000000001
 43
0.0000000001
 12
1.0
 22
0.0
 32
0.0
 13
1.0
 23
0.0
 33
0.0
 40
0.0
 40
0.0
 40
0.0
 40
0.0
 40
1.0
 40
1.0
 40
1.0
 40
1.0
 10
227.5457183430768
 20
108.9810826813154
 30
0.0
 10
227.404242873303
 20
107.2735022113471
 30
0.0
 10
227.2605354704291
 20
105.5661095981835
 30
0.0
 10
227.1145961344422
 20
103.8589048418112
 30
0.0
  0
ENDBLK
  5
E3
330
E0
100
AcDbEntity
  8
0
100
AcDbBlockEnd
  0
BLOCK
  5
E7
330
E5
100
AcDbEntity
  8
0
100
AcDbBlockBegin
  2
block 28
 70
     0
 10
0.0
 20
0.0
 30
0.0
  3
block 28
  1

  0
SPLINE
  5
E9
330
E5
100
AcDbEntity
  8
0
 62
   179
420
  1842203
370
    25
100
AcDbSpline
210
0.0
220
0.0
230
1.0
 70
     8
 71
     3
 72
     8
 73
     4
 74
     0
 42
0.0000000001
 43
0.0000000001
 12
1.0
 22
0.0
 32
0.0
 13
1.0
 23
0.0
 33
0.0
 40
0.0
 40
0.0
 40
0.0
 40
0.0
 40
1.0
 40
1.0
 40
1.0
 40
1.0
 10
227.8984019265376
 20
113.2233368088232
 30
0.0
 10
227.7802931587761
 20
111.8092936824944
 30
0.0
 10
227.6632773298275
 20
110.3951651006231
 30
0.0
 10
227.5457183430768
 20
108.9810826813154
 30
0.0
  0
ENDBLK
  5
E8
330
E5
100
AcDbEntity
  8
0
100
AcDbBlockEnd
  0
BLOCK
  5
EC
330
EA
100
AcDbEntity
  8
0
100
AcDbBlockBegin
  2
block 29
 70
     0
 10
0.0
 20
0.0
 30
0.0
  3
block 29
  1

  0
SPLINE
  5
EE
330
EA
100
AcDbEntity
  8
0
 62
   179
420
  1842203
370
    25
100
AcDbSpline
210
0.0
220
0.0
230
1.0
 70
     8
 71
     3
 72
    17
 73
    13
 74
     0
 42
0.0000000001
 43
0.0000000001
 12
1.0
 22
0.0
 32
0.0
 13
1.0
 23
0.0
 33
0.0
 40
0.0
 40
0.0
 40
0.0
 40
0.0
 40
1.0
 40
1.0
 40
1.0
 40
2.0
 40
2.0
 40
2.0
 40
3.0
 40
3.0
 40
3.0
 40
4.0
 40
4.0
 40
4.0
 40
4.0
 10
219.515202313979
 20
60.11850410471453
 30
0.0
 10
219.1760914894022
 20
59.18966013509171
 30
0.0
 10
218.8200550595731
 20
58.26664858246425
 30
0.0
 10
218.4439717137759
 20
57.35199935992261
 30
0.0
 10
218.0670620040545
 20
56.43534038840603
 30
0.0
 10
217.6700171838329
 20
55.5270805362691
 30
0.0
 10
217.2524903628295
 20
54.62821456124432
 30
0.0
 10
216.3784109499342
 20
52.7464666011221
 30
0.0
 10
215.4145668742667
 20
50.90588835972295
 30
0.0
 10
214.3507254959499
 20
49.12454787172567
 30
0.0
 10
212.442329755501
 20
45.92905024504157
 30
0.0
 10
210.2121448581312
 20
42.92417842744634
 30
0.0
 10
207.6808853765722
 20
40.1947238511264
 30
0.0
  0
ENDBLK
  5
ED
330
EA
100
AcDbEntity
  8
0
100
AcDbBlockEnd
  0
BLOCK
  5
F1
330
EF
100
AcDbEntity
  8
0
100
AcDbBlockBegin
  2
block 30
 70
     0
 10
0.0
 20
0.0
 30
0.0
  3
block 30
  1

  0
SPLINE
  5
F3
330
EF
100
AcDbEntity
  8
0
 62
   179
420
  1842203
370
    25
100
AcDbSpline
210
0.0
220
0.0
230
1.0
 70
     8
 71
     3
 72
     8
 73
     4
 74
     0
 42
0.0000000001
 43
0.0000000001
 12
1.0
 22
0.0
 32
0.0
 13
1.0
 23
0.0
 33
0.0
 40
0.0
 40
0.0
 40
0.0
 40
0.0
 40
1.0
 40
1.0
 40
1.0
 40
1.0
 10
342.490567077888
 20
-33.55548672437044
 30
0.0
 10
342.490566791123
 20
-33.5657254282411
 30
0.0
 10
342.5001495817295
 20
-33.55462231595076
 30
0.0
 10
342.5194882827316
 20
-33.52188191617117
 30
0.0
  0
ENDBLK
  5
F2
330
EF
100
AcDbEntity
  8
0
100
AcDbBlockEnd
  0
BLOCK
  5
F6
330
F4
100
AcDbEntity
  8
0
100
AcDbBlockBegin
  2
block 31
 70
     0
 10
0.0
 20
0.0
 30
0.0
  3
block 31
  1

  0
POLYLINE
  5
F8
330
F4
100
AcDbEntity
  8
0
 62
   179
420
  1842203
370
    25
100
AcDb2dPolyline
 66
     1
 10
0.0
 20
0.0
 30
0.0
  0
VERTEX
  5
F9
330
F8
100
AcDbEntity
  8
0
 62
   179
420
  1842203
370
    25
100
AcDbVertex
100
AcDb2dVertex
 10
228.4115406432154
 20
119.2901190377457
 30
0.0
  0
VERTEX
  5
FA
330
F8
100
AcDbEntity
  8
0
 62
   179
420
  1842203
370
    25
100
AcDbVertex
100
AcDb2dVertex
 10
227.898401926537
 20
113.2233368088232
 30
0.0
  0
SEQEND
  5
FB
330
F8
100
AcDbEntity
  8
0
 62
   179
420
  1842203
370
    25
  0
ENDBLK
  5
F7
330
F4
100
AcDbEntity
  8
0
100
AcDbBlockEnd
  0
BLOCK
  5
FE
330
FC
100
AcDbEntity
  8
0
100
AcDbBlockBegin
  2
block 32
 70
     0
 10
0.0
 20
0.0
 30
0.0
  3
block 32
  1

  0
SPLINE
  5
100
330
FC
100
AcDbEntity
  8
0
 62
   179
420
  1842203
370
    25
100
AcDbSpline
210
0.0
220
0.0
230
1.0
 70
     8
 71
     3
 72
     8
 73
     4
 74
     0
 42
0.0000000001
 43
0.0000000001
 12
1.0
 22
0.0
 32
0.0
 13
1.0
 23
0.0
 33
0.0
 40
0.0
 40
0.0
 40
0.0
 40
0.0
 40
1.0
 40
1.0
 40
1.0
 40
1.0
 10
228.4371515306732
 20
119.5898799087286
 30
0.0
 10
229.2606906977708
 20
129.2743881333195
 30
0.0
 10
229.6724992004786
 20
138.9763725957934
 30
0.0
 10
229.6725770387916
 20
148.6958332961607
 30
0.0
  0
ENDBLK
  5
FF
330
FC
100
AcDbEntity
  8
0
100
AcDbBlockEnd
  0
BLOCK
  5
103
330
101
100
AcDbEntity
  8
0
100
AcDbBlockBegin
  2
block 33
 70
     0
 10
0.0
 20
0.0
 30
0.0
  3
block 33
  1

  0
SPLINE
  5
105
330
101
100
AcDbEntity
  8
0
 62
   179
420
  1842203
370
    25
100
AcDbSpline
210
0.0
220
0.0
230
1.0
 70
     8
 71
     3
 72
     8
 73
     4
 74
     0
 42
0.0000000001
 43
0.0000000001
 12
1.0
 22
0.0
 32
0.0
 13
1.0
 23
0.0
 33
0.0
 40
0.0
 40
0.0
 40
0.0
 40
0.0
 40
1.0
 40
1.0
 40
1.0
 40
1.0
 10
228.4115406432154
 20
119.2901190377457
 30
0.0
 10
228.4201213657628
 20
119.3900355707918
 30
0.0
 10
228.428658329305
 20
119.4899558734975
 30
0.0
 10
228.4371515306732
 20
119.5898799087286
 30
0.0
  0
ENDBLK
  5
104
330
101
100
AcDbEntity
  8
0
100
AcDbBlockEnd
  0
BLOCK
  5
108
330
106
100
AcDbEntity
  8
0
100
AcDbBlockBegin
  2
block 34
 70
     0
 10
0.0
 20
0.0
 30
0.0
  3
block 34
  1

  0
SPLINE
  5
10A
330
106
100
AcDbEntity
  8
0
 62
   179
420
  1842203
370
    25
100
AcDbSpline
210
0.0
220
0.0
230
1.0
 70
     8
 71
     3
 72
    23
 73
    19
 74
     0
 42
0.0000000001
 43
0.0000000001
 12
1.0
 22
0.0
 32
0.0
 13
1.0
 23
0.0
 33
0.0
 40
0.0
 40
0.0
 40
0.0
 40
0.0
 40
1.0
 40
1.0
 40
1.0
 40
2.0
 40
2.0
 40
2.0
 40
3.0
 40
3.0
 40
3.0
 40
4.0
 40
4.0
 40
4.0
 40
5.0
 40
5.0
 40
5.0
 40
6.0
 40
6.0
 40
6.0
 40
6.0
 10
135.17683832201
 20
15.24257094268408
 30
0.0
 10
138.7341206551517
 20
15.17845608535436
 30
0.0
 10
142.2913577267936
 20
15.11442386597881
 30
0.0
 10
145.8486609733338
 20
15.05032076346086
 30
0.0
 10
146.3127501639617
 20
15.04195781127285
 30
0.0
 10
146.7768404808855
 20
15.03359365264701
 30
0.0
 10
147.2409248056532
 20
15.02558384730933
 30
0.0
 10
148.0877978076313
 20
15.01096734868156
 30
0.0
 10
148.9346508557717
 20
14.99753084253043
 30
0.0
 10
149.7816239879975
 20
14.988937636855
 30
0.0
 10
152.0790468662809
 20
14.96562848269177
 30
0.0
 10
154.3773532883004
 20
14.97795492475418
 30
0.0
 10
156.6729988903187
 20
15.07056573055225
 30
0.0
 10
158.9650946476338
 20
15.16303332872414
 30
0.0
 10
161.2545378076387
 20
15.33553718903821
 30
0.0
 10
163.5320058015458
 20
15.6100395087527
 30
0.0
 10
165.8102432060492
 20
15.8846345652293
 30
0.0
 10
168.0764973518046
 20
16.26129701024305
 30
0.0
 10
170.3195380856752
 20
16.74569148831237
 30
0.0
  0
ENDBLK
  5
109
330
106
100
AcDbEntity
  8
0
100
AcDbBlockEnd
  0
BLOCK
  5
10D
330
10B
100
AcDbEntity
  8
0
100
AcDbBlockBegin
  2
block 35
 70
     0
 10
0.0
 20
0.0
 30
0.0
  3
block 35
  1

  0
SPLINE
  5
10F
330
10B
100
AcDbEntity
  8
0
 62
   179
420
  1842203
370
    25
100
AcDbSpline
210
0.0
220
0.0
230
1.0
 70
     8
 71
     3
 72
    41
 73
    37
 74
     0
 42
0.0000000001
 43
0.0000000001
 12
1.0
 22
0.0
 32
0.0
 13
1.0
 23
0.0
 33
0.0
 40
0.0
 40
0.0
 40
0.0
 40
0.0
 40
1.0
 40
1.0
 40
1.0
 40
2.0
 40
2.0
 40
2.0
 40
3.0
 40
3.0
 40
3.0
 40
4.0
 40
4.0
 40
4.0
 40
5.0
 40
5.0
 40
5.0
 40
6.0
 40
6.0
 40
6.0
 40
7.0
 40
7.0
 40
7.0
 40
8.0
 40
8.0
 40
8.0
 40
9.0
 40
9.0
 40
9.0
 40
10.0
 40
10.0
 40
10.0
 40
11.0
 40
11.0
 40
11.0
 40
12.0
 40
12.0
 40
12.0
 40
12.0
 10
-75.54356442905537
 20
64.38393672400454
 30
0.0
 10
-74.09397958946064
 20
61.51010912938947
 30
0.0
 10
-72.50418287547147
 20
58.70550986408666
 30
0.0
 10
-70.76835450734374
 20
55.99448662951502
 30
0.0
 10
-68.97212092205437
 20
53.18912230095872
 30
0.0
 10
-67.01951530965343
 20
50.4839600395499
 30
0.0
 10
-64.90255486467692
 20
47.911685382172
 30
0.0
 10
-61.14241040918064
 20
43.34281197034461
 30
0.0
 10
-56.86374531047189
 20
39.19318370533529
 30
0.0
 10
-52.14375927242685
 20
35.62692433693982
 30
0.0
 10
-47.46193757901029
 20
32.08950063680539
 30
0.0
 10
-42.34590286216246
 20
29.12605009270431
 30
0.0
 10
-36.97811436623488
 20
26.7537174284085
 30
0.0
 10
-31.58307640773442
 20
24.36934166848159
 30
0.0
 10
-25.9337221370381
 20
22.58210061618163
 30
0.0
 10
-20.18465910957119
 20
21.2572365044001
 30
0.0
 10
-15.5490878412934
 20
20.18897512309256
 30
0.0
 10
-10.84869110120293
 20
19.42132729160168
 30
0.0
 10
-6.125421906555389
 20
18.86335841662603
 30
0.0
 10
-0.4142085439480716
 20
18.1886817968127
 30
0.0
 10
5.330446195304225
 20
17.82057275336423
 30
0.0
 10
11.07685526668891
 20
17.59390613225061
 30
0.0
 10
12.64443386179149
 20
17.53207312678843
 30
0.0
 10
14.21214300704328
 20
17.48076568243041
 30
0.0
 10
15.78026191580663
 20
17.43778757165927
 30
0.0
 10
17.87030584109831
 20
17.38050483702158
 30
0.0
 10
19.96107769054057
 20
17.33801874209835
 30
0.0
 10
22.05180910264407
 20
17.29711862522728
 30
0.0
 10
26.48337560493299
 20
17.21042571632453
 30
0.0
 10
30.91476042996034
 20
17.13085830546498
 30
0.0
 10
35.34616411870922
 20
17.05093632852731
 30
0.0
 10
48.89173082970752
 20
16.80663710725642
 30
0.0
 10
62.43747379483759
 20
16.55902498145597
 30
0.0
 10
75.9831858227804
 20
16.31286540695578
 30
0.0
 10
95.71440902757563
 20
15.95429957456947
 30
0.0
 10
115.4455665898575
 20
15.59881576479018
 30
0.0
 10
135.17683832201
 20
15.24257094268408
 30
0.0
  0
ENDBLK
  5
10E
330
10B
100
AcDbEntity
  8
0
100
AcDbBlockEnd
  0
BLOCK
  5
112
330
110
100
AcDbEntity
  8
0
100
AcDbBlockBegin
  2
block 36
 70
     0
 10
0.0
 20
0.0
 30
0.0
  3
block 36
  1

  0
SPLINE
  5
114
330
110
100
AcDbEntity
  8
0
 62
   179
420
  1842203
370
    25
100
AcDbSpline
210
0.0
220
0.0
230
1.0
 70
     8
 71
     3
 72
    29
 73
    25
 74
     0
 42
0.0000000001
 43
0.0000000001
 12
1.0
 22
0.0
 32
0.0
 13
1.0
 23
0.0
 33
0.0
 40
0.0
 40
0.0
 40
0.0
 40
0.0
 40
1.0
 40
1.0
 40
1.0
 40
2.0
 40
2.0
 40
2.0
 40
3.0
 40
3.0
 40
3.0
 40
4.0
 40
4.0
 40
4.0
 40
5.0
 40
5.0
 40
5.0
 40
6.0
 40
6.0
 40
6.0
 40
7.0
 40
7.0
 40
7.0
 40
8.0
 40
8.0
 40
8.0
 40
8.0
 10
-89.8143024726847
 20
148.6958332961607
 30
0.0
 10
-89.81446048162542
 20
144.2603945660715
 30
0.0
 10
-89.80815234145948
 20
139.8249630907873
 30
0.0
 10
-89.79660991221891
 20
135.3895339293703
 30
0.0
 10
-89.79308644605597
 20
134.0355655190639
 30
0.0
 10
-89.78907522293521
 20
132.6815973243767
 30
0.0
 10
-89.7717451576812
 20
131.3277369960364
 30
0.0
 10
-89.75441526663435
 20
129.9738902774505
 30
0.0
 10
-89.72376680123139
 20
128.6201514230366
 30
0.0
 10
-89.68061630045048
 20
127.2668993323008
 30
0.0
 10
-89.63546110475029
 20
125.8507775750309
 30
0.0
 10
-89.57661524540876
 20
124.4351888603919
 30
0.0
 10
-89.5035450862401
 20
123.0202316446408
 30
0.0
 10
-89.1205007921613
 20
115.6028222119115
 30
0.0
 10
-88.34657169512494
 20
108.2027664150626
 30
0.0
 10
-87.08706628968513
 20
100.8825786820827
 30
0.0
 10
-86.0000024196852
 20
94.56461325552122
 30
0.0
 10
-84.55122269850796
 20
88.3061432042534
 30
0.0
 10
-82.65530825821142
 20
82.18227266510351
 30
0.0
 10
-81.7078579635874
 20
79.12197478285327
 30
0.0
 10
-80.64874351113895
 20
76.09529079932908
 30
0.0
 10
-79.46501837102386
 20
73.11840678866919
 30
0.0
 10
-78.28538588448384
 20
70.15181516310722
 30
0.0
 10
-76.98200288758301
 20
67.23467974529927
 30
0.0
 10
-75.54356442905537
 20
64.38393672400454
 30
0.0
  0
ENDBLK
  5
113
330
110
100
AcDbEntity
  8
0
100
AcDbBlockEnd
  0
BLOCK
  5
117
330
115
100
AcDbEntity
  8
0
100
AcDbBlockBegin
  2
block 37
 70
     0
 10
0.0
 20
0.0
 30
0.0
  3
block 37
  1

  0
SPLINE
  5
119
330
115
100
AcDbEntity
  8
0
 62
   179
420
  1842203
370
    25
100
AcDbSpline
210
0.0
220
0.0
230
1.0
 70
    24
 71
     3
 72
     8
 73
     4
 74
     0
 42
0.0000000001
 43
0.0000000001
 12
1.0
 22
0.0
 32
0.0
 13
1.0
 23
0.0
 33
0.0
 40
0.0
 40
0.0
 40
0.0
 40
0.0
 40
1.0
 40
1.0
 40
1.0
 40
1.0
 10
345.1901734993322
 20
148.6958332961607
 30
0.0
 10
345.190173441116
 20
203.9935079661034
 30
0.0
 10
345.1901733829075
 20
259.29118263605
 30
0.0
 10
345.1901733246912
 20
314.5888573059959
 30
0.0
  0
ENDBLK
  5
118
330
115
100
AcDbEntity
  8
0
100
AcDbBlockEnd
  0
BLOCK
  5
11C
330
11A
100
AcDbEntity
  8
0
100
AcDbBlockBegin
  2
block 38
 70
     0
 10
0.0
 20
0.0
 30
0.0
  3
block 38
  1

  0
SPLINE
  5
11E
330
11A
100
AcDbEntity
  8
0
 62
   179
420
  1842203
370
    25
100
AcDbSpline
210
0.0
220
0.0
230
1.0
 70
     8
 71
     3
 72
    14
 73
    10
 74
     0
 42
0.0000000001
 43
0.0000000001
 12
1.0
 22
0.0
 32
0.0
 13
1.0
 23
0.0
 33
0.0
 40
0.0
 40
0.0
 40
0.0
 40
0.0
 40
1.0
 40
1.0
 40
1.0
 40
2.0
 40
2.0
 40
2.0
 40
3.0
 40
3.0
 40
3.0
 40
3.0
 10
227.1145961344422
 20
193.5327617505034
 30
0.0
 10
226.9983888449062
 20
194.8876716417304
 30
0.0
 10
226.8798681679099
 20
196.2423931629844
 30
0.0
 10
226.7575939937227
 20
197.59681046259
 30
0.0
 10
226.3537158750746
 20
202.0705230389346
 30
0.0
 10
225.9081397656204
 20
206.5374055753763
 30
0.0
 10
225.3386487505199
 20
210.9968761538595
 30
0.0
 10
224.219877991231
 20
219.7575504275609
 30
0.0
 10
222.5671812780685
 20
228.8982188510174
 30
0.0
 10
219.515202313979
 20
237.2731624876004
 30
0.0
  0
ENDBLK
  5
11D
330
11A
100
AcDbEntity
  8
0
100
AcDbBlockEnd
  0
BLOCK
  5
121
330
11F
100
AcDbEntity
  8
0
100
AcDbBlockBegin
  2
block 39
 70
     0
 10
0.0
 20
0.0
 30
0.0
  3
block 39
  1

  0
SPLINE
  5
123
330
11F
100
AcDbEntity
  8
0
 62
   179
420
  1842203
370
    25
100
AcDbSpline
210
0.0
220
0.0
230
1.0
 70
     8
 71
     3
 72
     8
 73
     4
 74
     0
 42
0.0000000001
 43
0.0000000001
 12
1.0
 22
0.0
 32
0.0
 13
1.0
 23
0.0
 33
0.0
 40
0.0
 40
0.0
 40
0.0
 40
0.0
 40
1.0
 40
1.0
 40
1.0
 40
1.0
 10
227.5457183430768
 20
188.4105839109989
 30
0.0
 10
227.404242873303
 20
190.1181643809608
 30
0.0
 10
227.2605354704291
 20
191.8255569941314
 30
0.0
 10
227.1145961344422
 20
193.5327617505034
 30
0.0
  0
ENDBLK
  5
122
330
11F
100
AcDbEntity
  8
0
100
AcDbBlockEnd
  0
BLOCK
  5
126
330
124
100
AcDbEntity
  8
0
100
AcDbBlockBegin
  2
block 40
 70
     0
 10
0.0
 20
0.0
 30
0.0
  3
block 40
  1

  0
SPLINE
  5
128
330
124
100
AcDbEntity
  8
0
 62
   179
420
  1842203
370
    25
100
AcDbSpline
210
0.0
220
0.0
230
1.0
 70
     8
 71
     3
 72
     8
 73
     4
 74
     0
 42
0.0000000001
 43
0.0000000001
 12
1.0
 22
0.0
 32
0.0
 13
1.0
 23
0.0
 33
0.0
 40
0.0
 40
0.0
 40
0.0
 40
0.0
 40
1.0
 40
1.0
 40
1.0
 40
1.0
 10
227.8984019265376
 20
184.168329783491
 30
0.0
 10
227.7802931587761
 20
185.5823729098205
 30
0.0
 10
227.6632773298275
 20
186.996501491685
 30
0.0
 10
227.5457183430768
 20
188.4105839109989
 30
0.0
  0
ENDBLK
  5
127
330
124
100
AcDbEntity
  8
0
100
AcDbBlockEnd
  0
BLOCK
  5
12B
330
129
100
AcDbEntity
  8
0
100
AcDbBlockBegin
  2
block 41
 70
     0
 10
0.0
 20
0.0
 30
0.0
  3
block 41
  1

  0
SPLINE
  5
12D
330
129
100
AcDbEntity
  8
0
 62
   179
420
  1842203
370
    25
100
AcDbSpline
210
0.0
220
0.0
230
1.0
 70
     8
 71
     3
 72
    17
 73
    13
 74
     0
 42
0.0000000001
 43
0.0000000001
 12
1.0
 22
0.0
 32
0.0
 13
1.0
 23
0.0
 33
0.0
 40
0.0
 40
0.0
 40
0.0
 40
0.0
 40
1.0
 40
1.0
 40
1.0
 40
2.0
 40
2.0
 40
2.0
 40
3.0
 40
3.0
 40
3.0
 40
4.0
 40
4.0
 40
4.0
 40
4.0
 10
219.515202313979
 20
237.2731624876004
 30
0.0
 10
219.1760914894022
 20
238.2020064572226
 30
0.0
 10
218.8200550595667
 20
239.1250180098504
 30
0.0
 10
218.4439717137759
 20
240.0396672323853
 30
0.0
 10
218.0670620040545
 20
240.9563262039089
 30
0.0
 10
217.6700171838329
 20
241.8645860560458
 30
0.0
 10
217.2524903628295
 20
242.76345203107
 30
0.0
 10
216.3784109499342
 20
244.6451999911922
 30
0.0
 10
215.4145668742667
 20
246.485778232592
 30
0.0
 10
214.3507254959499
 20
248.2671187205886
 30
0.0
 10
212.442329755501
 20
251.4626163472734
 30
0.0
 10
210.2121448581312
 20
254.4674881648679
 30
0.0
 10
207.6808853765722
 20
257.1969427411879
 30
0.0
  0
ENDBLK
  5
12C
330
129
100
AcDbEntity
  8
0
100
AcDbBlockEnd
  0
BLOCK
  5
130
330
12E
100
AcDbEntity
  8
0
100
AcDbBlockBegin
  2
block 42
 70
     0
 10
0.0
 20
0.0
 30
0.0
  3
block 42
  1

  0
SPLINE
  5
132
330
12E
100
AcDbEntity
  8
0
 62
   179
420
  1842203
370
    25
100
AcDbSpline
210
0.0
220
0.0
230
1.0
 70
     8
 71
     3
 72
     8
 73
     4
 74
     0
 42
0.0000000001
 43
0.0000000001
 12
1.0
 22
0.0
 32
0.0
 13
1.0
 23
0.0
 33
0.0
 40
0.0
 40
0.0
 40
0.0
 40
0.0
 40
1.0
 40
1.0
 40
1.0
 40
1.0
 10
342.490567077888
 20
330.9471533166943
 30
0.0
 10
342.490566791123
 20
330.957392020556
 30
0.0
 10
342.5001495817295
 20
330.946288908265
 30
0.0
 10
342.5194882827316
 20
330.9135485084861
 30
0.0
  0
ENDBLK
  5
131
330
12E
100
AcDbEntity
  8
0
100
AcDbBlockEnd
  0
BLOCK
  5
135
330
133
100
AcDbEntity
  8
0
100
AcDbBlockBegin
  2
block 43
 70
     0
 10
0.0
 20
0.0
 30
0.0
  3
block 43
  1

  0
POLYLINE
  5
137
330
133
100
AcDbEntity
  8
0
 62
   179
420
  1842203
370
    25
100
AcDb2dPolyline
 66
     1
 10
0.0
 20
0.0
 30
0.0
  0
VERTEX
  5
138
330
137
100
AcDbEntity
  8
0
 62
   179
420
  1842203
370
    25
100
AcDbVertex
100
AcDb2dVertex
 10
228.4115406432282
 20
178.1015475545689
 30
0.0
  0
VERTEX
  5
139
330
137
100
AcDbEntity
  8
0
 62
   179
420
  1842203
370
    25
100
AcDbVertex
100
AcDb2dVertex
 10
227.8984019265376
 20
184.168329783491
 30
0.0
  0
SEQEND
  5
13A
330
137
100
AcDbEntity
  8
0
 62
   179
420
  1842203
370
    25
  0
ENDBLK
  5
136
330
133
100
AcDbEntity
  8
0
100
AcDbBlockEnd
  0
BLOCK
  5
13D
330
13B
100
AcDbEntity
  8
0
100
AcDbBlockBegin
  2
block 44
 70
     0
 10
0.0
 20
0.0
 30
0.0
  3
block 44
  1

  0
SPLINE
  5
13F
330
13B
100
AcDbEntity
  8
0
 62
   179
420
  1842203
370
    25
100
AcDbSpline
210
0.0
220
0.0
230
1.0
 70
     8
 71
     3
 72
     8
 73
     4
 74
     0
 42
0.0000000001
 43
0.0000000001
 12
1.0
 22
0.0
 32
0.0
 13
1.0
 23
0.0
 33
0.0
 40
0.0
 40
0.0
 40
0.0
 40
0.0
 40
1.0
 40
1.0
 40
1.0
 40
1.0
 10
228.437151530686
 20
177.801786683586
 30
0.0
 10
229.2606906977772
 20
168.1172784589954
 30
0.0
 10
229.6724992004786
 20
158.4152939965151
 30
0.0
 10
229.6725770387916
 20
148.6958332961607
 30
0.0
  0
ENDBLK
  5
13E
330
13B
100
AcDbEntity
  8
0
100
AcDbBlockEnd
  0
BLOCK
  5
142
330
140
100
AcDbEntity
  8
0
100
AcDbBlockBegin
  2
block 45
 70
     0
 10
0.0
 20
0.0
 30
0.0
  3
block 45
  1

  0
SPLINE
  5
144
330
140
100
AcDbEntity
  8
0
 62
   179
420
  1842203
370
    25
100
AcDbSpline
210
0.0
220
0.0
230
1.0
 70
     8
 71
     3
 72
     8
 73
     4
 74
     0
 42
0.0000000001
 43
0.0000000001
 12
1.0
 22
0.0
 32
0.0
 13
1.0
 23
0.0
 33
0.0
 40
0.0
 40
0.0
 40
0.0
 40
0.0
 40
1.0
 40
1.0
 40
1.0
 40
1.0
 10
228.4115406432282
 20
178.1015475545689
 30
0.0
 10
228.4201213657757
 20
178.0016310215229
 30
0.0
 10
228.4286583293114
 20
177.9017107188167
 30
0.0
 10
228.437151530686
 20
177.801786683586
 30
0.0
  0
ENDBLK
  5
143
330
140
100
AcDbEntity
  8
0
100
AcDbBlockEnd
  0
BLOCK
  5
147
330
145
100
AcDbEntity
  8
0
100
AcDbBlockBegin
  2
block 46
 70
     0
 10
0.0
 20
0.0
 30
0.0
  3
block 46
  1

  0
SPLINE
  5
149
330
145
100
AcDbEntity
  8
0
 62
   179
420
  1842203
370
    25
100
AcDbSpline
210
0.0
220
0.0
230
1.0
 70
     8
 71
     3
 72
    23
 73
    19
 74
     0
 42
0.0000000001
 43
0.0000000001
 12
1.0
 22
0.0
 32
0.0
 13
1.0
 23
0.0
 33
0.0
 40
0.0
 40
0.0
 40
0.0
 40
0.0
 40
1.0
 40
1.0
 40
1.0
 40
2.0
 40
2.0
 40
2.0
 40
3.0
 40
3.0
 40
3.0
 40
4.0
 40
4.0
 40
4.0
 40
5.0
 40
5.0
 40
5.0
 40
6.0
 40
6.0
 40
6.0
 40
6.0
 10
135.1768383219265
 20
282.1490956496302
 30
0.0
 10
138.734120655094
 20
282.2132105069535
 30
0.0
 10
142.291357726768
 20
282.2772427263355
 30
0.0
 10
145.8486609733274
 20
282.3413458288537
 30
0.0
 10
146.3127501639552
 20
282.3497087810414
 30
0.0
 10
146.7768404808855
 20
282.3580729396672
 30
0.0
 10
147.2409248056468
 20
282.3660827450053
 30
0.0
 10
148.0877978076313
 20
282.3806992436266
 30
0.0
 10
148.9346508557717
 20
282.3941357497841
 30
0.0
 10
149.7816239879975
 20
282.4027289554593
 30
0.0
 10
152.0790468662873
 20
282.4260381096225
 30
0.0
 10
154.3773532883068
 20
282.4137116675607
 30
0.0
 10
156.6729988903187
 20
282.3211008617627
 30
0.0
 10
158.9650946476338
 20
282.2286332635908
 30
0.0
 10
161.2545378076387
 20
282.0561294032767
 30
0.0
 10
163.5320058015458
 20
281.7816270835619
 30
0.0
 10
165.8102432060492
 20
281.5070320270856
 30
0.0
 10
168.0764973518046
 20
281.1303695820715
 30
0.0
 10
170.3195380856752
 20
280.6459751040019
 30
0.0
  0
ENDBLK
  5
148
330
145
100
AcDbEntity
  8
0
100
AcDbBlockEnd
  0
BLOCK
  5
14C
330
14A
100
AcDbEntity
  8
0
100
AcDbBlockBegin
  2
block 47
 70
     0
 10
0.0
 20
0.0
 30
0.0
  3
block 47
  1

  0
SPLINE
  5
14E
330
14A
100
AcDbEntity
  8
0
 62
   179
420
  1842203
370
    25
100
AcDbSpline
210
0.0
220
0.0
230
1.0
 70
     8
 71
     3
 72
    41
 73
    37
 74
     0
 42
0.0000000001
 43
0.0000000001
 12
1.0
 22
0.0
 32
0.0
 13
1.0
 23
0.0
 33
0.0
 40
0.0
 40
0.0
 40
0.0
 40
0.0
 40
1.0
 40
1.0
 40
1.0
 40
2.0
 40
2.0
 40
2.0
 40
3.0
 40
3.0
 40
3.0
 40
4.0
 40
4.0
 40
4.0
 40
5.0
 40
5.0
 40
5.0
 40
6.0
 40
6.0
 40
6.0
 40
7.0
 40
7.0
 40
7.0
 40
8.0
 40
8.0
 40
8.0
 40
9.0
 40
9.0
 40
9.0
 40
10.0
 40
10.0
 40
10.0
 40
11.0
 40
11.0
 40
11.0
 40
12.0
 40
12.0
 40
12.0
 40
12.0
 10
-75.5435644320489
 20
233.0077298623743
 30
0.0
 10
-74.0939795920435
 20
235.8815574582853
 30
0.0
 10
-72.50418287753453
 20
238.6861567248266
 30
0.0
 10
-70.76835450877152
 20
241.3971799605729
 30
0.0
 10
-68.97212092309071
 20
244.2025442899281
 30
0.0
 10
-67.01951531021491
 20
246.9077065520848
 30
0.0
 10
-64.90255486467339
 20
249.4799812101429
 30
0.0
 10
-61.14241040917743
 20
254.0488546219703
 30
0.0
 10
-56.86374531047189
 20
258.1984828869793
 30
0.0
 10
-52.14375927242364
 20
261.7647422553745
 30
0.0
 10
-47.46193757901029
 20
265.3021659555095
 30
0.0
 10
-42.34590286216246
 20
268.2656164996035
 30
0.0
 10
-36.97811436623488
 20
270.6379491639058
 30
0.0
 10
-31.58307640773442
 20
273.0223249238327
 30
0.0
 10
-25.9337221370381
 20
274.8095659761327
 30
0.0
 10
-20.18465910957119
 20
276.1344300879142
 30
0.0
 10
-15.54908784129019
 20
277.2026914692217
 30
0.0
 10
-10.84869110120293
 20
277.9703393007126
 30
0.0
 10
-6.12542190655218
 20
278.5283081756889
 30
0.0
 10
-0.4142085439480716
 20
279.2029847955019
 30
0.0
 10
5.330446195307754
 20
279.5710938389436
 30
0.0
 10
11.07685526669212
 20
279.797760460064
 30
0.0
 10
12.64443386179149
 20
279.8595934655265
 30
0.0
 10
14.21214300704328
 20
279.9109009098839
 30
0.0
 10
15.78026191580984
 20
279.9538790206556
 30
0.0
 10
17.87030584109831
 20
280.0111617552927
 30
0.0
 10
19.96107769054057
 20
280.0536478502162
 30
0.0
 10
22.05180910264086
 20
280.0945479670812
 30
0.0
 10
26.48337560493299
 20
280.1812408759901
 30
0.0
 10
30.91476042996034
 20
280.2608082868435
 30
0.0
 10
35.34616411870922
 20
280.340730263787
 30
0.0
 10
48.89173082970752
 20
280.5850294850579
 30
0.0
 10
62.43747379483759
 20
280.8326416108583
 30
0.0
 10
75.9831858227804
 20
281.0788011853588
 30
0.0
 10
95.71440902754354
 20
281.437367017739
 30
0.0
 10
115.4455665897997
 20
281.7928508275241
 30
0.0
 10
135.1768383219265
 20
282.1490956496302
 30
0.0
  0
ENDBLK
  5
14D
330
14A
100
AcDbEntity
  8
0
100
AcDbBlockEnd
  0
BLOCK
  5
151
330
14F
100
AcDbEntity
  8
0
100
AcDbBlockBegin
  2
block 48
 70
     0
 10
0.0
 20
0.0
 30
0.0
  3
block 48
  1

  0
SPLINE
  5
153
330
14F
100
AcDbEntity
  8
0
 62
   179
420
  1842203
370
    25
100
AcDbSpline
210
0.0
220
0.0
230
1.0
 70
     8
 71
     3
 72
    29
 73
    25
 74
     0
 42
0.0000000001
 43
0.0000000001
 12
1.0
 22
0.0
 32
0.0
 13
1.0
 23
0.0
 33
0.0
 40
0.0
 40
0.0
 40
0.0
 40
0.0
 40
1.0
 40
1.0
 40
1.0
 40
2.0
 40
2.0
 40
2.0
 40
3.0
 40
3.0
 40
3.0
 40
4.0
 40
4.0
 40
4.0
 40
5.0
 40
5.0
 40
5.0
 40
6.0
 40
6.0
 40
6.0
 40
7.0
 40
7.0
 40
7.0
 40
8.0
 40
8.0
 40
8.0
 40
8.0
 10
-89.8143024726847
 20
148.6958332961607
 30
0.0
 10
-89.81446048161901
 20
153.1312720262427
 30
0.0
 10
-89.80815234145948
 20
157.5667035015273
 30
0.0
 10
-89.79660991221891
 20
162.002132662944
 30
0.0
 10
-89.79308644605597
 20
163.356101073251
 30
0.0
 10
-89.78907522293521
 20
164.7100692679382
 30
0.0
 10
-89.77174515767798
 20
166.0639295962782
 30
0.0
 10
-89.75441526663435
 20
167.4177763148702
 30
0.0
 10
-89.72376680122818
 20
168.7715151692783
 30
0.0
 10
-89.68061630044727
 20
170.1247672600074
 30
0.0
 10
-89.63546110475029
 20
171.5408890171746
 30
0.0
 10
-89.57661524541517
 20
172.9564777317042
 30
0.0
 10
-89.50354508625612
 20
174.3714349473462
 30
0.0
 10
-89.12050079222867
 20
181.7888443792933
 30
0.0
 10
-88.34657169532707
 20
189.1889001753651
 30
0.0
 10
-87.08706629013751
 20
196.509087907601
 30
0.0
 10
-86.00000242035577
 20
202.8270533335204
 30
0.0
 10
-84.55122269947371
 20
209.0855233841593
 30
0.0
 10
-82.65530825959428
 20
215.2093939227384
 30
0.0
 10
-81.7078579651788
 20
218.2696918047063
 30
0.0
 10
-80.64874351296459
 20
221.2963757879607
 30
0.0
 10
-79.46501837311901
 20
224.2732597983703
 30
0.0
 10
-78.28538588684529
 20
227.2398514236949
 30
0.0
 10
-76.98200289024285
 20
230.1569868412782
 30
0.0
 10
-75.5435644320489
 20
233.0077298623743
 30
0.0
  0
ENDBLK
  5
152
330
14F
100
AcDbEntity
  8
0
100
AcDbBlockEnd
  0
BLOCK
  5
156
330
154
100
AcDbEntity
  8
0
100
AcDbBlockBegin
  2
block 49
 70
     0
 10
0.0
 20
0.0
 30
0.0
  3
block 49
  1

  0
SPLINE
  5
158
330
154
100
AcDbEntity
  8
0
 62
   179
420
  1842203
370
    25
100
AcDbSpline
210
0.0
220
0.0
230
1.0
 70
     8
 71
     3
 72
    29
 73
    25
 74
     0
 42
0.0000000001
 43
0.0000000001
 12
1.0
 22
0.0
 32
0.0
 13
1.0
 23
0.0
 33
0.0
 40
0.0
 40
0.0
 40
0.0
 40
0.0
 40
1.0
 40
1.0
 40
1.0
 40
2.0
 40
2.0
 40
2.0
 40
3.0
 40
3.0
 40
3.0
 40
4.0
 40
4.0
 40
4.0
 40
5.0
 40
5.0
 40
5.0
 40
6.0
 40
6.0
 40
6.0
 40
7.0
 40
7.0
 40
7.0
 40
8.0
 40
8.0
 40
8.0
 40
8.0
 10
135.1880050637653
 20
15.81250547387019
 30
0.0
 10
135.7431925551794
 20
15.80050430573264
 30
0.0
 10
136.2983608000828
 20
15.78899116913945
 30
0.0
 10
136.8535392642609
 20
15.77760656169899
 30
0.0
 10
138.4052242670139
 20
15.74578737963035
 30
0.0
 10
139.9569890989513
 20
15.71497222030085
 30
0.0
 10
141.5086801088249
 20
15.68315831846687
 30
0.0
 10
142.9510529935789
 20
15.65358573663235
 30
0.0
 10
144.3933620915348
 20
15.62315017992931
 30
0.0
 10
145.8358146048175
 20
15.59349973340288
 30
0.0
 10
146.3033914575698
 20
15.58388842048431
 30
0.0
 10
146.7709833798181
 20
15.57435960369673
 30
0.0
 10
147.2385536592865
 20
15.56540413092648
 30
0.0
 10
148.3169183753149
 20
15.54474998271451
 30
0.0
 10
149.3951679714474
 20
15.52714550435476
 30
0.0
 10
150.4736676420835
 20
15.51780133167356
 30
0.0
 10
152.8934476612867
 20
15.49683624195665
 30
0.0
 10
155.3144865512964
 20
15.51745339006895
 30
0.0
 10
157.7315867118487
 20
15.63257402172161
 30
0.0
 10
160.1937471329109
 20
15.74984076454436
 30
0.0
 10
162.651820601865
 20
15.96516735514651
 30
0.0
 10
165.0939018016334
 20
16.30091286791816
 30
0.0
 10
167.3788640597813
 20
16.61505714170355
 30
0.0
 10
169.6498256758616
 20
17.03462374223885
 30
0.0
 10
171.8899805798307
 20
17.58425153071719
 30
0.0
  0
ENDBLK
  5
157
330
154
100
AcDbEntity
  8
0
100
AcDbBlockEnd
  0
BLOCK
  5
15B
330
159
100
AcDbEntity
  8
0
100
AcDbBlockBegin
  2
block 50
 70
     0
 10
0.0
 20
0.0
 30
0.0
  3
block 50
  1

  0
SPLINE
  5
15D
330
159
100
AcDbEntity
  8
0
 62
   179
420
  1842203
370
    25
100
AcDbSpline
210
0.0
220
0.0
230
1.0
 70
     8
 71
     3
 72
    59
 73
    55
 74
     0
 42
0.0000000001
 43
0.0000000001
 12
1.0
 22
0.0
 32
0.0
 13
1.0
 23
0.0
 33
0.0
 40
0.0
 40
0.0
 40
0.0
 40
0.0
 40
1.0
 40
1.0
 40
1.0
 40
2.0
 40
2.0
 40
2.0
 40
3.0
 40
3.0
 40
3.0
 40
4.0
 40
4.0
 40
4.0
 40
5.0
 40
5.0
 40
5.0
 40
6.0
 40
6.0
 40
6.0
 40
7.0
 40
7.0
 40
7.0
 40
8.0
 40
8.0
 40
8.0
 40
9.0
 40
9.0
 40
9.0
 40
10.0
 40
10.0
 40
10.0
 40
11.0
 40
11.0
 40
11.0
 40
12.0
 40
12.0
 40
12.0
 40
13.0
 40
13.0
 40
13.0
 40
14.0
 40
14.0
 40
14.0
 40
15.0
 40
15.0
 40
15.0
 40
16.0
 40
16.0
 40
16.0
 40
17.0
 40
17.0
 40
17.0
 40
18.0
 40
18.0
 40
18.0
 40
18.0
 10
80.12939361601764
 20
146.6958123936601
 30
0.0
 10
80.14260798405435
 20
145.001274725284
 30
0.0
 10
80.18949032179694
 20
143.3048438029584
 30
0.0
 10
80.3403892116782
 20
141.6165141114462
 30
0.0
 10
80.45941503970712
 20
140.2847956364687
 30
0.0
 10
80.64315703476038
 20
138.9581175189668
 30
0.0
 10
80.91405215857999
 20
137.648874857081
 30
0.0
 10
81.16651596144813
 20
136.4287112135215
 30
0.0
 10
81.49467679547816
 20
135.2236911711845
 30
0.0
 10
81.90653555003723
 20
134.0477266911595
 30
0.0
 10
82.34800252302239
 20
132.7872230024932
 30
0.0
 10
82.88563393487505
 20
131.5601026025383
 30
0.0
 10
83.51283093594778
 20
130.3809470182938
 30
0.0
 10
83.80570128535973
 20
129.8303389838545
 30
0.0
 10
84.11810081672905
 20
129.2901893589583
 30
0.0
 10
84.44814936666235
 20
128.7610093889794
 30
0.0
 10
84.82541379989078
 20
128.1561263149814
 30
0.0
 10
85.22573809116042
 20
127.5655759747882
 30
0.0
 10
85.64708665203908
 20
126.9905073189281
 30
0.0
 10
85.96295893489821
 20
126.5593957263179
 30
0.0
 10
86.29064695775163
 20
126.1369849142805
 30
0.0
 10
86.62898331765402
 20
125.7232837220225
 30
0.0
 10
87.19262225778135
 20
125.0340935279754
 30
0.0
 10
87.78581316697756
 20
124.3690748466158
 30
0.0
 10
88.40331233305028
 20
123.7277071825139
 30
0.0
 10
89.39267984502047
 20
122.7000971629969
 30
0.0
 10
90.44444904773323
 20
121.7332016353313
 30
0.0
 10
91.54032887932486
 20
120.8199363317557
 30
0.0
 10
92.77326895205263
 20
119.7924501445504
 30
0.0
 10
94.06204335581916
 20
118.8328479971297
 30
0.0
 10
95.38917456077597
 20
117.930360092717
 30
0.0
 10
97.01014125086725
 20
116.8280554932919
 30
0.0
 10
98.68832991560011
 20
115.8109558552861
 30
0.0
 10
100.4053682628711
 20
114.8652333896629
 30
0.0
 10
102.2780663354664
 20
113.8337755649658
 30
0.0
 10
104.1969772856693
 20
112.8872230552123
 30
0.0
 10
106.1454527855634
 20
112.0072414578006
 30
0.0
 10
108.256213977379
 20
111.0539674723558
 30
0.0
 10
110.4016695843694
 20
110.1788153895054
 30
0.0
 10
112.5701464799833
 20
109.3653337745382
 30
0.0
 10
114.9062195788543
 20
108.4889801823077
 30
0.0
 10
117.2690099974632
 20
107.6841981530646
 30
0.0
 10
119.6542195913686
 20
106.9519518559699
 30
0.0
 10
121.8698525499199
 20
106.2717646582623
 30
0.0
 10
124.1048302161497
 20
105.6541659597481
 30
0.0
 10
126.3609385368951
 20
105.1232235678999
 30
0.0
 10
128.2692039132465
 20
104.674140971161
 30
0.0
 10
130.1925864630487
 20
104.2870535396456
 30
0.0
 10
132.1297178461656
 20
103.9877552951136
 30
0.0
 10
133.9785954526662
 20
103.7020927805307
 30
0.0
 10
135.8399976635665
 20
103.4964024942994
 30
0.0
 10
137.7061978927349
 20
103.3624264921449
 30
0.0
 10
139.7512257252971
 20
103.2156123137806
 30
0.0
 10
141.8020151679647
 20
103.1549148864232
 30
0.0
 10
143.8520989480247
 20
103.1479283187702
 30
0.0
  0
ENDBLK
  5
15C
330
159
100
AcDbEntity
  8
0
100
AcDbBlockEnd
  0
BLOCK
  5
160
330
15E
100
AcDbEntity
  8
0
100
AcDbBlockBegin
  2
block 51
 70
     0
 10
0.0
 20
0.0
 30
0.0
  3
block 51
  1

  0
SPLINE
  5
162
330
15E
100
AcDbEntity
  8
0
 62
   179
420
  1842203
370
    25
100
AcDbSpline
210
0.0
220
0.0
230
1.0
 70
     8
 71
     3
 72
    65
 73
    61
 74
     0
 42
0.0000000001
 43
0.0000000001
 12
1.0
 22
0.0
 32
0.0
 13
1.0
 23
0.0
 33
0.0
 40
0.0
 40
0.0
 40
0.0
 40
0.0
 40
1.0
 40
1.0
 40
1.0
 40
2.0
 40
2.0
 40
2.0
 40
3.0
 40
3.0
 40
3.0
 40
4.0
 40
4.0
 40
4.0
 40
5.0
 40
5.0
 40
5.0
 40
6.0
 40
6.0
 40
6.0
 40
7.0
 40
7.0
 40
7.0
 40
8.0
 40
8.0
 40
8.0
 40
9.0
 40
9.0
 40
9.0
 40
10.0
 40
10.0
 40
10.0
 40
11.0
 40
11.0
 40
11.0
 40
12.0
 40
12.0
 40
12.0
 40
13.0
 40
13.0
 40
13.0
 40
14.0
 40
14.0
 40
14.0
 40
15.0
 40
15.0
 40
15.0
 40
16.0
 40
16.0
 40
16.0
 40
17.0
 40
17.0
 40
17.0
 40
18.0
 40
18.0
 40
18.0
 40
19.0
 40
19.0
 40
19.0
 40
20.0
 40
20.0
 40
20.0
 40
20.0
 10
53.29057789128885
 20
146.695812826311
 30
0.0
 10
53.30524426009328
 20
144.8126715313
 30
0.0
 10
53.36771992829594
 20
142.9265168044662
 30
0.0
 10
53.57129344808095
 20
141.0535928401457
 30
0.0
 10
53.75101179253361
 20
139.400142064717
 30
0.0
 10
54.0406972055964
 20
137.7570029145441
 30
0.0
 10
54.47514351682911
 20
136.1518432651562
 30
0.0
 10
54.90780323982348
 20
134.5532845680087
 30
0.0
 10
55.48403569882441
 20
132.992393645163
 30
0.0
 10
56.19774223607256
 20
131.4978563019653
 30
0.0
 10
56.90854656360533
 20
130.0093963317028
 30
0.0
 10
57.75570919592794
 20
128.5867513991064
 30
0.0
 10
58.70903543049591
 20
127.2406049028288
 30
0.0
 10
59.75074556694218
 20
125.7696557151737
 30
0.0
 10
60.91921690208503
 20
124.3900469990386
 30
0.0
 10
62.17334334252808
 20
123.0952631398575
 30
0.0
 10
63.5668604143369
 20
121.6565697562572
 30
0.0
 10
65.0661310939407
 20
120.322604918874
 30
0.0
 10
66.63183696221793
 20
119.0734947697383
 30
0.0
 10
68.32079816714003
 20
117.7260522996683
 30
0.0
 10
70.0870660769167
 20
116.4773502180961
 30
0.0
 10
71.90183332050218
 20
115.3048933067008
 30
0.0
 10
73.91823063504967
 20
114.0021703399286
 30
0.0
 10
75.99450303288614
 20
112.7935762107256
 30
0.0
 10
78.10829866921432
 20
111.6557625174534
 30
0.0
 10
80.74601589289772
 20
110.2359323671183
 30
0.0
 10
83.44216243092666
 20
108.9263179792353
 30
0.0
 10
86.1744645582442
 20
107.698198076634
 30
0.0
 10
89.24642513802199
 20
106.3174079032845
 30
0.0
 10
92.36408919895486
 20
105.039633107217
 30
0.0
 10
95.51754170460025
 20
103.8565314452973
 30
0.0
 10
98.39771100089716
 20
102.7759592549891
 30
0.0
 10
101.3077345543357
 20
101.7743621672149
 30
0.0
 10
104.2537456994577
 20
100.8891673171718
 30
0.0
 10
106.9479908507369
 20
100.0796211833695
 30
0.0
 10
109.6723354293708
 20
99.36743195884178
 30
0.0
 10
112.4269571373042
 20
98.7963257749699
 30
0.0
 10
114.1566561171876
 20
98.43771327263639
 30
0.0
 10
115.8982931038936
 20
98.13472857720318
 30
0.0
 10
117.6503832743313
 20
97.90949497333119
 30
0.0
 10
119.287994170442
 20
97.69897783780472
 30
0.0
 10
120.9347368817938
 20
97.55638341571877
 30
0.0
 10
122.5853512958224
 20
97.51063338122091
 30
0.0
 10
122.7974999493175
 20
97.5047532628017
 30
0.0
 10
123.0097125602782
 20
97.50047293722994
 30
0.0
 10
123.2219116517375
 20
97.49790153224087
 30
0.0
 10
123.4871670194947
 20
97.49468719720261
 30
0.0
 10
123.7524012619999
 20
97.49414318151753
 30
0.0
 10
124.0176509917714
 20
97.4941089053475
 30
0.0
 10
124.3359557632633
 20
97.49406777328676
 30
0.0
 10
124.6542828371312
 20
97.4947606896287
 30
0.0
 10
124.9726083972425
 20
97.49558206237461
 30
0.0
 10
125.9713251787996
 20
97.49815904282161
 30
0.0
 10
126.9700270599312
 20
97.50200046091514
 30
0.0
 10
127.9687038837349
 20
97.50876910838352
 30
0.0
 10
129.9769415988673
 20
97.52238017133939
 30
0.0
 10
131.9850779893575
 20
97.5478281089747
 30
0.0
 10
133.9929012227337
 20
97.59134612706642
 30
0.0
 10
137.2813634087984
 20
97.66262100551846
 30
0.0
 10
140.5689855605344
 20
97.78236831934122
 30
0.0
 10
143.852098656049
 20
97.98445738723028
 30
0.0
  0
ENDBLK
  5
161
330
15E
100
AcDbEntity
  8
0
100
AcDbBlockEnd
  0
BLOCK
  5
165
330
163
100
AcDbEntity
  8
0
100
AcDbBlockBegin
  2
block 52
 70
     0
 10
0.0
 20
0.0
 30
0.0
  3
block 52
  1

  0
SPLINE
  5
167
330
163
100
AcDbEntity
  8
0
 62
   179
420
  1842203
370
    25
100
AcDbSpline
210
0.0
220
0.0
230
1.0
 70
     8
 71
     3
 72
    14
 73
    10
 74
     0
 42
0.0000000001
 43
0.0000000001
 12
1.0
 22
0.0
 32
0.0
 13
1.0
 23
0.0
 33
0.0
 40
0.0
 40
0.0
 40
0.0
 40
0.0
 40
1.0
 40
1.0
 40
1.0
 40
2.0
 40
2.0
 40
2.0
 40
3.0
 40
3.0
 40
3.0
 40
3.0
 10
171.8899805798307
 20
17.58425153071719
 30
0.0
 10
174.189366692757
 20
18.15086516570781
 30
0.0
 10
176.4443358965648
 20
18.86057003332152
 30
0.0
 10
178.6693052122033
 20
19.71369110289626
 30
0.0
 10
179.7817898700257
 20
20.14025163768426
 30
0.0
 10
180.8840825207605
 20
20.60144058969722
 30
0.0
 10
181.9707241213563
 20
21.09401313238562
 30
0.0
 10
183.057365721954
 20
21.5865856750798
 30
0.0
 10
184.1279264148616
 20
22.10989252157619
 30
0.0
 10
185.1885480245971
 20
22.66979397085512
 30
0.0
  0
ENDBLK
  5
166
330
163
100
AcDbEntity
  8
0
100
AcDbBlockEnd
  0
BLOCK
  5
16A
330
168
100
AcDbEntity
  8
0
100
AcDbBlockBegin
  2
block 53
 70
     0
 10
0.0
 20
0.0
 30
0.0
  3
block 53
  1

  0
SPLINE
  5
16C
330
168
100
AcDbEntity
  8
0
 62
   179
420
  1842203
370
    25
100
AcDbSpline
210
0.0
220
0.0
230
1.0
 70
     8
 71
     3
 72
    23
 73
    19
 74
     0
 42
0.0000000001
 43
0.0000000001
 12
1.0
 22
0.0
 32
0.0
 13
1.0
 23
0.0
 33
0.0
 40
0.0
 40
0.0
 40
0.0
 40
0.0
 40
1.0
 40
1.0
 40
1.0
 40
2.0
 40
2.0
 40
2.0
 40
3.0
 40
3.0
 40
3.0
 40
4.0
 40
4.0
 40
4.0
 40
5.0
 40
5.0
 40
5.0
 40
6.0
 40
6.0
 40
6.0
 40
6.0
 10
185.1885480245971
 20
22.66979397085512
 30
0.0
 10
185.8949713544732
 20
23.04458280596714
 30
0.0
 10
186.5947056862463
 20
23.43182691708595
 30
0.0
 10
187.2876683259733
 20
23.83088067723476
 30
0.0
 10
188.1560406374826
 20
24.33094693802745
 30
0.0
 10
189.0137791243876
 20
24.84955830329003
 30
0.0
 10
189.8608818670791
 20
25.38488772548007
 30
0.0
 10
191.5601481240684
 20
26.4587447414615
 30
0.0
 10
193.2166168637955
 20
27.59987409073023
 30
0.0
 10
194.8312086915632
 20
28.79729410256929
 30
0.0
 10
196.3692889076756
 20
29.93797126871874
 30
0.0
 10
197.8693670653838
 20
31.12973054542523
 30
0.0
 10
199.3316424254743
 20
32.36600547756303
 30
0.0
 10
200.2137565775184
 20
33.11178540604028
 30
0.0
 10
201.0821140000929
 20
33.87376492467796
 30
0.0
 10
201.9444592068549
 20
34.64237294703844
 30
0.0
 10
202.791505363094
 20
35.39734493029142
 30
0.0
 10
203.6327507391792
 20
36.15871230819018
 30
0.0
 10
204.4588495160534
 20
36.93668538008553
 30
0.0
  0
ENDBLK
  5
16B
330
168
100
AcDbEntity
  8
0
100
AcDbBlockEnd
  0
BLOCK
  5
16F
330
16D
100
AcDbEntity
  8
0
100
AcDbBlockBegin
  2
block 54
 70
     0
 10
0.0
 20
0.0
 30
0.0
  3
block 54
  1

  0
POLYLINE
  5
171
330
16D
100
AcDbEntity
  8
0
 62
   179
420
  1842203
370
    25
100
AcDb2dPolyline
 66
     1
 10
0.0
 20
0.0
 30
0.0
  0
VERTEX
  5
172
330
171
100
AcDbEntity
  8
0
 62
   179
420
  1842203
370
    25
100
AcDbVertex
100
AcDb2dVertex
 10
345.1848973214004
 20
-23.74128860925515
 30
0.0
  0
VERTEX
  5
173
330
171
100
AcDbEntity
  8
0
 62
   179
420
  1842203
370
    25
100
AcDbVertex
100
AcDb2dVertex
 10
345.1859887666826
 20
-23.76071555339988
 30
0.0
  0
VERTEX
  5
174
330
171
100
AcDbEntity
  8
0
 62
   179
420
  1842203
370
    25
100
AcDbVertex
100
AcDb2dVertex
 10
345.18695394891
 20
-23.78014916689792
 30
0.0
  0
SEQEND
  5
175
330
171
100
AcDbEntity
  8
0
 62
   179
420
  1842203
370
    25
  0
ENDBLK
  5
170
330
16D
100
AcDbEntity
  8
0
100
AcDbBlockEnd
  0
BLOCK
  5
178
330
176
100
AcDbEntity
  8
0
100
AcDbBlockBegin
  2
block 55
 70
     0
 10
0.0
 20
0.0
 30
0.0
  3
block 55
  1

  0
SPLINE
  5
17A
330
176
100
AcDbEntity
  8
0
 62
   179
420
  1842203
370
    25
100
AcDbSpline
210
0.0
220
0.0
230
1.0
 70
     8
 71
     3
 72
     8
 73
     4
 74
     0
 42
0.0000000001
 43
0.0000000001
 12
1.0
 22
0.0
 32
0.0
 13
1.0
 23
0.0
 33
0.0
 40
0.0
 40
0.0
 40
0.0
 40
0.0
 40
1.0
 40
1.0
 40
1.0
 40
1.0
 10
207.7484690322218
 20
40.19471855775616
 30
0.0
 10
207.2261767511139
 20
39.66312310099444
 30
0.0
 10
206.7006130504955
 20
39.13478186562769
 30
0.0
 10
206.1717779303445
 20
38.60969485164244
 30
0.0
  0
ENDBLK
  5
179
330
176
100
AcDbEntity
  8
0
100
AcDbBlockEnd
  0
BLOCK
  5
17D
330
17B
100
AcDbEntity
  8
0
100
AcDbBlockBegin
  2
block 56
 70
     0
 10
0.0
 20
0.0
 30
0.0
  3
block 56
  1

  0
SPLINE
  5
17F
330
17B
100
AcDbEntity
  8
0
 62
   179
420
  1842203
370
    25
100
AcDbSpline
210
0.0
220
0.0
230
1.0
 70
     8
 71
     3
 72
     8
 73
     4
 74
     0
 42
0.0000000001
 43
0.0000000001
 12
1.0
 22
0.0
 32
0.0
 13
1.0
 23
0.0
 33
0.0
 40
0.0
 40
0.0
 40
0.0
 40
0.0
 40
1.0
 40
1.0
 40
1.0
 40
1.0
 10
204.4588495160534
 20
36.93668538008553
 30
0.0
 10
205.0347086042284
 20
37.48935574393333
 30
0.0
 10
205.6056847423285
 20
38.04702556778949
 30
0.0
 10
206.1717779303445
 20
38.60969485164244
 30
0.0
  0
ENDBLK
  5
17E
330
17B
100
AcDbEntity
  8
0
100
AcDbBlockEnd
  0
BLOCK
  5
182
330
180
100
AcDbEntity
  8
0
100
AcDbBlockBegin
  2
block 57
 70
     0
 10
0.0
 20
0.0
 30
0.0
  3
block 57
  1

  0
SPLINE
  5
184
330
180
100
AcDbEntity
  8
0
 62
   179
420
  1842203
370
    25
100
AcDbSpline
210
0.0
220
0.0
230
1.0
 70
     8
 71
     3
 72
     8
 73
     4
 74
     0
 42
0.0000000001
 43
0.0000000001
 12
1.0
 22
0.0
 32
0.0
 13
1.0
 23
0.0
 33
0.0
 40
0.0
 40
0.0
 40
0.0
 40
0.0
 40
1.0
 40
1.0
 40
1.0
 40
1.0
 10
206.1717779303445
 20
38.60969485164244
 30
0.0
 10
206.6807761560621
 20
39.1323610355948
 30
0.0
 10
207.1838119714713
 20
39.66070403542086
 30
0.0
 10
207.6808853765722
 20
40.1947238511264
 30
0.0
  0
ENDBLK
  5
183
330
180
100
AcDbEntity
  8
0
100
AcDbBlockEnd
  0
BLOCK
  5
187
330
185
100
AcDbEntity
  8
0
100
AcDbBlockBegin
  2
block 58
 70
     0
 10
0.0
 20
0.0
 30
0.0
  3
block 58
  1

  0
POLYLINE
  5
189
330
185
100
AcDbEntity
  8
0
 62
   179
420
  1842203
370
    25
100
AcDb2dPolyline
 66
     1
 10
0.0
 20
0.0
 30
0.0
  0
VERTEX
  5
18A
330
189
100
AcDbEntity
  8
0
 62
   179
420
  1842203
370
    25
100
AcDbVertex
100
AcDb2dVertex
 10
208.5452647412379
 20
41.14846084059853
 30
0.0
  0
VERTEX
  5
18B
330
189
100
AcDbEntity
  8
0
 62
   179
420
  1842203
370
    25
100
AcDbVertex
100
AcDb2dVertex
 10
209.1584990231931
 20
41.82395083370225
 30
0.0
  0
SEQEND
  5
18C
330
189
100
AcDbEntity
  8
0
 62
   179
420
  1842203
370
    25
  0
ENDBLK
  5
188
330
185
100
AcDbEntity
  8
0
100
AcDbBlockEnd
  0
BLOCK
  5
18F
330
18D
100
AcDbEntity
  8
0
100
AcDbBlockBegin
  2
block 59
 70
     0
 10
0.0
 20
0.0
 30
0.0
  3
block 59
  1

  0
SPLINE
  5
191
330
18D
100
AcDbEntity
  8
0
 62
   179
420
  1842203
370
    25
100
AcDbSpline
210
0.0
220
0.0
230
1.0
 70
     8
 71
     3
 72
     8
 73
     4
 74
     0
 42
0.0000000001
 43
0.0000000001
 12
1.0
 22
0.0
 32
0.0
 13
1.0
 23
0.0
 33
0.0
 40
0.0
 40
0.0
 40
0.0
 40
0.0
 40
1.0
 40
1.0
 40
1.0
 40
1.0
 10
-60.74239026019912
 20
-26.23718315998987
 30
0.0
 10
-76.73314656636795
 20
-25.93978911781974
 30
0.0
 10
-92.72389505645832
 20
-25.64150901517046
 30
0.0
 10
-108.7146358437192
 20
-25.3423390589404
 30
0.0
  0
ENDBLK
  5
190
330
18D
100
AcDbEntity
  8
0
100
AcDbBlockEnd
  0
BLOCK
  5
194
330
192
100
AcDbEntity
  8
0
100
AcDbBlockBegin
  2
block 60
 70
     0
 10
0.0
 20
0.0
 30
0.0
  3
block 60
  1

  0
SPLINE
  5
196
330
192
100
AcDbEntity
  8
0
 62
   179
420
  1842203
370
    25
100
AcDbSpline
210
0.0
220
0.0
230
1.0
 70
     8
 71
     3
 72
     8
 73
     4
 74
     0
 42
0.0000000001
 43
0.0000000001
 12
1.0
 22
0.0
 32
0.0
 13
1.0
 23
0.0
 33
0.0
 40
0.0
 40
0.0
 40
0.0
 40
0.0
 40
1.0
 40
1.0
 40
1.0
 40
1.0
 10
35.20224227570169
 20
-28.01094503197634
 30
0.0
 10
19.21145425224043
 20
-27.71708005935993
 30
0.0
 10
3.220674271347234
 20
-27.42233661244196
 30
0.0
 10
-12.7700977802198
 20
-27.12671089814711
 30
0.0
  0
ENDBLK
  5
195
330
192
100
AcDbEntity
  8
0
100
AcDbBlockEnd
  0
BLOCK
  5
199
330
197
100
AcDbEntity
  8
0
100
AcDbBlockBegin
  2
block 61
 70
     0
 10
0.0
 20
0.0
 30
0.0
  3
block 61
  1

  0
SPLINE
  5
19B
330
197
100
AcDbEntity
  8
0
 62
   179
420
  1842203
370
    25
100
AcDbSpline
210
0.0
220
0.0
230
1.0
 70
     8
 71
     3
 72
     8
 73
     4
 74
     0
 42
0.0000000001
 43
0.0000000001
 12
1.0
 22
0.0
 32
0.0
 13
1.0
 23
0.0
 33
0.0
 40
0.0
 40
0.0
 40
0.0
 40
0.0
 40
1.0
 40
1.0
 40
1.0
 40
1.0
 10
206.7163720459353
 20
36.44661432784036
 30
0.0
 10
207.970328472393
 20
37.64033071159478
 30
0.0
 10
209.1661246305301
 20
38.88971286977913
 30
0.0
 10
210.3037605203592
 20
40.19476080240625
 30
0.0
  0
ENDBLK
  5
19A
330
197
100
AcDbEntity
  8
0
100
AcDbBlockEnd
  0
BLOCK
  5
19E
330
19C
100
AcDbEntity
  8
0
100
AcDbBlockBegin
  2
block 62
 70
     0
 10
0.0
 20
0.0
 30
0.0
  3
block 62
  1

  0
SPLINE
  5
1A0
330
19C
100
AcDbEntity
  8
0
 62
   179
420
  1842203
370
    25
100
AcDbSpline
210
0.0
220
0.0
230
1.0
 70
     8
 71
     3
 72
    23
 73
    19
 74
     0
 42
0.0000000001
 43
0.0000000001
 12
1.0
 22
0.0
 32
0.0
 13
1.0
 23
0.0
 33
0.0
 40
0.0
 40
0.0
 40
0.0
 40
0.0
 40
1.0
 40
1.0
 40
1.0
 40
2.0
 40
2.0
 40
2.0
 40
3.0
 40
3.0
 40
3.0
 40
4.0
 40
4.0
 40
4.0
 40
5.0
 40
5.0
 40
5.0
 40
6.0
 40
6.0
 40
6.0
 40
6.0
 10
206.7163720459353
 20
36.44661432784036
 30
0.0
 10
206.714740281911
 20
36.44830717843742
 30
0.0
 10
206.7146676273084
 20
36.44838101735854
 30
0.0
 10
206.7146676273084
 20
36.44838101735854
 30
0.0
 10
206.7161476913766
 20
36.44680908340835
 30
0.0
 10
206.7165163259805
 20
36.4464208927613
 30
0.0
 10
206.7165163259805
 20
36.4464208927613
 30
0.0
 10
206.7178628165448
 20
36.44500442790769
 30
0.0
 10
206.7183918238564
 20
36.44444832808126
 30
0.0
 10
206.7183918238564
 20
36.44444832808126
 30
0.0
 10
206.7195700652852
 20
36.44321025203446
 30
0.0
 10
206.7202192845805
 20
36.44252829139391
 30
0.0
 10
206.7202192845805
 20
36.44252829139391
 30
0.0
 10
206.7216378792217
 20
36.44103856807382
 30
0.0
 10
206.7224072365371
 20
36.44023082433724
 30
0.0
 10
206.7224072365371
 20
36.44023082433724
 30
0.0
 10
206.7240660220908
 20
36.43848962424457
 30
0.0
 10
206.7249554290966
 20
36.43755619018881
 30
0.0
 10
206.7249554290966
 20
36.43755619018881
 30
0.0
  0
ENDBLK
  5
19F
330
19C
100
AcDbEntity
  8
0
100
AcDbBlockEnd
  0
BLOCK
  5
1A3
330
1A1
100
AcDbEntity
  8
0
100
AcDbBlockBegin
  2
block 63
 70
     0
 10
0.0
 20
0.0
 30
0.0
  3
block 63
  1

  0
SPLINE
  5
1A5
330
1A1
100
AcDbEntity
  8
0
 62
   179
420
  1842203
370
    25
100
AcDbSpline
210
0.0
220
0.0
230
1.0
 70
     8
 71
     3
 72
     8
 73
     4
 74
     0
 42
0.0000000001
 43
0.0000000001
 12
1.0
 22
0.0
 32
0.0
 13
1.0
 23
0.0
 33
0.0
 40
0.0
 40
0.0
 40
0.0
 40
0.0
 40
1.0
 40
1.0
 40
1.0
 40
1.0
 10
152.8068771338776
 20
200.9586502012232
 30
0.0
 10
152.8068236056391
 20
201.0255062205952
 30
0.0
 10
152.8067799541845
 20
92.71334404892762
 30
0.0
 10
152.8066808658673
 20
92.78063377275942
 30
0.0
  0
ENDBLK
  5
1A4
330
1A1
100
AcDbEntity
  8
0
100
AcDbBlockEnd
  0
BLOCK
  5
1A8
330
1A6
100
AcDbEntity
  8
0
100
AcDbBlockBegin
  2
block 64
 70
     0
 10
0.0
 20
0.0
 30
0.0
  3
block 64
  1

  0
SPLINE
  5
1AA
330
1A6
100
AcDbEntity
  8
0
 62
   179
420
  1842203
370
    25
100
AcDbSpline
210
0.0
220
0.0
230
1.0
 70
    24
 71
     3
 72
     8
 73
     4
 74
     0
 42
0.0000000001
 43
0.0000000001
 12
1.0
 22
0.0
 32
0.0
 13
1.0
 23
0.0
 33
0.0
 40
0.0
 40
0.0
 40
0.0
 40
0.0
 40
1.0
 40
1.0
 40
1.0
 40
1.0
 10
207.6808853765722
 20
40.1947238511264
 30
0.0
 10
207.7034132617879
 20
40.19472208667415
 30
0.0
 10
207.7259411470049
 20
40.19472032220842
 30
0.0
 10
207.7484690322218
 20
40.19471855775616
 30
0.0
  0
ENDBLK
  5
1A9
330
1A6
100
AcDbEntity
  8
0
100
AcDbBlockEnd
  0
BLOCK
  5
1AD
330
1AB
100
AcDbEntity
  8
0
100
AcDbBlockBegin
  2
block 65
 70
     0
 10
0.0
 20
0.0
 30
0.0
  3
block 65
  1

  0
SPLINE
  5
1AF
330
1AB
100
AcDbEntity
  8
0
 62
   179
420
  1842203
370
    25
100
AcDbSpline
210
0.0
220
0.0
230
1.0
 70
     8
 71
     3
 72
    32
 73
    28
 74
     0
 42
0.0000000001
 43
0.0000000001
 12
1.0
 22
0.0
 32
0.0
 13
1.0
 23
0.0
 33
0.0
 40
0.0
 40
0.0
 40
0.0
 40
0.0
 40
1.0
 40
1.0
 40
1.0
 40
2.0
 40
2.0
 40
2.0
 40
3.0
 40
3.0
 40
3.0
 40
4.0
 40
4.0
 40
4.0
 40
5.0
 40
5.0
 40
5.0
 40
6.0
 40
6.0
 40
6.0
 40
7.0
 40
7.0
 40
7.0
 40
8.0
 40
8.0
 40
8.0
 40
9.0
 40
9.0
 40
9.0
 40
9.0
 10
210.407946204908
 20
40.19476136529759
 30
0.0
 10
212.2844457577685
 20
42.24183864686638
 30
0.0
 10
214.0436017128432
 20
44.39620486861781
 30
0.0
 10
215.6692496571731
 20
46.64750265024739
 30
0.0
 10
217.1916161851771
 20
48.75576994100582
 30
0.0
 10
218.5968999994597
 20
50.94904344233831
 30
0.0
 10
219.8714763384307
 20
53.2156274299982
 30
0.0
 10
221.1478592079354
 20
55.48542397783573
 30
0.0
 10
222.2931638210723
 20
57.82873897363604
 30
0.0
 10
223.3039891233458
 20
60.22870665866778
 30
0.0
 10
224.3201792074267
 20
62.64141176029592
 30
0.0
 10
225.2004587409462
 20
65.11137249578697
 30
0.0
 10
225.9565421071726
 20
67.61753066248251
 30
0.0
 10
226.8597969131005
 20
70.61151189470655
 30
0.0
 10
227.5858004357249
 20
73.65715366745627
 30
0.0
 10
228.2307815811943
 20
76.71744851707085
 30
0.0
 10
228.445445670078
 20
77.73598279551842
 30
0.0
 10
228.6511348564993
 20
78.75614020501801
 30
0.0
 10
228.8521534177054
 20
79.77736476723094
 30
0.0
 10
229.0878149574542
 20
80.97458432404792
 30
0.0
 10
229.3170573088125
 20
82.17327054839477
 30
0.0
 10
229.5396380516155
 20
83.37315808612573
 30
0.0
 10
229.9865521407328
 20
85.78238109084513
 30
0.0
 10
230.4066095682678
 20
88.19644726019831
 30
0.0
 10
230.8018270120858
 20
90.61455807908966
 30
0.0
 10
232.3283996958887
 20
99.9547883251566
 30
0.0
 10
233.4843649932689
 20
109.3553639003067
 30
0.0
 10
234.2946022831718
 20
118.7846179684737
 30
0.0
  0
ENDBLK
  5
1AE
330
1AB
100
AcDbEntity
  8
0
100
AcDbBlockEnd
  0
BLOCK
  5
1B2
330
1B0
100
AcDbEntity
  8
0
100
AcDbBlockBegin
  2
block 66
 70
     0
 10
0.0
 20
0.0
 30
0.0
  3
block 66
  1

  0
SPLINE
  5
1B4
330
1B0
100
AcDbEntity
  8
0
 62
   179
420
  1842203
370
    25
100
AcDbSpline
210
0.0
220
0.0
230
1.0
 70
     8
 71
     3
 72
     8
 73
     4
 74
     0
 42
0.0000000001
 43
0.0000000001
 12
1.0
 22
0.0
 32
0.0
 13
1.0
 23
0.0
 33
0.0
 40
0.0
 40
0.0
 40
0.0
 40
0.0
 40
1.0
 40
1.0
 40
1.0
 40
1.0
 10
210.3037605203592
 20
40.19476080240625
 30
0.0
 10
210.3384678596343
 20
40.19476096498199
 30
0.0
 10
210.3731961982013
 20
40.19476114863817
 30
0.0
 10
210.407946204908
 20
40.19476136529759
 30
0.0
  0
ENDBLK
  5
1B3
330
1B0
100
AcDbEntity
  8
0
100
AcDbBlockEnd
  0
BLOCK
  5
1B7
330
1B5
100
AcDbEntity
  8
0
100
AcDbBlockBegin
  2
block 67
 70
     0
 10
0.0
 20
0.0
 30
0.0
  3
block 67
  1

  0
SPLINE
  5
1B9
330
1B5
100
AcDbEntity
  8
0
 62
   179
420
  1842203
370
    25
100
AcDbSpline
210
0.0
220
0.0
230
1.0
 70
     8
 71
     3
 72
    20
 73
    16
 74
     0
 42
0.0000000001
 43
0.0000000001
 12
1.0
 22
0.0
 32
0.0
 13
1.0
 23
0.0
 33
0.0
 40
0.0
 40
0.0
 40
0.0
 40
0.0
 40
1.0
 40
1.0
 40
1.0
 40
2.0
 40
2.0
 40
2.0
 40
3.0
 40
3.0
 40
3.0
 40
4.0
 40
4.0
 40
4.0
 40
5.0
 40
5.0
 40
5.0
 40
5.0
 10
210.407946204908
 20
40.19476136529759
 30
0.0
 10
209.0765437852314
 20
38.74204761385442
 30
0.0
 10
207.6900208242002
 20
37.33998183775771
 30
0.0
 10
206.253470260599
 20
35.99121331130224
 30
0.0
 10
204.8164585942811
 20
34.64201185832637
 30
0.0
 10
203.3293872046022
 20
33.34614187510936
 30
0.0
 10
201.7973337068008
 20
32.10585065816151
 30
0.0
 10
198.5817898449988
 20
29.50267079844319
 30
0.0
 10
195.1680929066008
 20
27.14432391768599
 30
0.0
 10
191.5903372742882
 20
25.06669515478026
 30
0.0
 10
188.191658432022
 20
23.0930575885876
 30
0.0
 10
184.644933085366
 20
21.37273994755301
 30
0.0
 10
180.9813035476423
 20
19.95066424593078
 30
0.0
 10
177.5182980586524
 20
18.60646284407139
 30
0.0
 10
173.9508413928712
 20
17.52873368119259
 30
0.0
 10
170.3195380856752
 20
16.74569148831237
 30
0.0
  0
ENDBLK
  5
1B8
330
1B5
100
AcDbEntity
  8
0
100
AcDbBlockEnd
  0
BLOCK
  5
1BC
330
1BA
100
AcDbEntity
  8
0
100
AcDbBlockBegin
  2
block 68
 70
     0
 10
0.0
 20
0.0
 30
0.0
  3
block 68
  1

  0
SPLINE
  5
1BE
330
1BA
100
AcDbEntity
  8
0
 62
   179
420
  1842203
370
    25
100
AcDbSpline
210
0.0
220
0.0
230
1.0
 70
     8
 71
     3
 72
     8
 73
     4
 74
     0
 42
0.0000000001
 43
0.0000000001
 12
1.0
 22
0.0
 32
0.0
 13
1.0
 23
0.0
 33
0.0
 40
0.0
 40
0.0
 40
0.0
 40
0.0
 40
1.0
 40
1.0
 40
1.0
 40
1.0
 10
189.2621768137995
 20
23.77192310300396
 30
0.0
 10
195.6510038349357
 20
27.21082940146838
 30
0.0
 10
201.4690689123177
 20
31.43572647641813
 30
0.0
 10
206.7163720459353
 20
36.44661432784036
 30
0.0
  0
ENDBLK
  5
1BD
330
1BA
100
AcDbEntity
  8
0
100
AcDbBlockEnd
  0
BLOCK
  5
1C1
330
1BF
100
AcDbEntity
  8
0
100
AcDbBlockBegin
  2
block 69
 70
     0
 10
0.0
 20
0.0
 30
0.0
  3
block 69
  1

  0
SPLINE
  5
1C3
330
1BF
100
AcDbEntity
  8
0
 62
   179
420
  1842203
370
    25
100
AcDbSpline
210
0.0
220
0.0
230
1.0
 70
     8
 71
     3
 72
    68
 73
    64
 74
     0
 42
0.0000000001
 43
0.0000000001
 12
1.0
 22
0.0
 32
0.0
 13
1.0
 23
0.0
 33
0.0
 40
0.0
 40
0.0
 40
0.0
 40
0.0
 40
1.0
 40
1.0
 40
1.0
 40
2.0
 40
2.0
 40
2.0
 40
3.0
 40
3.0
 40
3.0
 40
4.0
 40
4.0
 40
4.0
 40
5.0
 40
5.0
 40
5.0
 40
6.0
 40
6.0
 40
6.0
 40
7.0
 40
7.0
 40
7.0
 40
8.0
 40
8.0
 40
8.0
 40
9.0
 40
9.0
 40
9.0
 40
10.0
 40
10.0
 40
10.0
 40
11.0
 40
11.0
 40
11.0
 40
12.0
 40
12.0
 40
12.0
 40
13.0
 40
13.0
 40
13.0
 40
14.0
 40
14.0
 40
14.0
 40
15.0
 40
15.0
 40
15.0
 40
16.0
 40
16.0
 40
16.0
 40
17.0
 40
17.0
 40
17.0
 40
18.0
 40
18.0
 40
18.0
 40
19.0
 40
19.0
 40
19.0
 40
20.0
 40
20.0
 40
20.0
 40
21.0
 40
21.0
 40
21.0
 40
21.0
 10
-88.9992806038252
 20
148.6958335851813
 30
0.0
 10
-88.99854904153625
 20
144.3634662032163
 30
0.0
 10
-88.99389243705191
 20
140.0311350943823
 30
0.0
 10
-88.98732681217886
 20
135.6987469235669
 30
0.0
 10
-88.98558805965018
 20
134.5514150202762
 30
0.0
 10
-88.98371542148999
 20
133.4040791150404
 30
0.0
 10
-88.97326042081714
 20
132.2568223851674
 30
0.0
 10
-88.9515011540595
 20
129.8691166347065
 30
0.0
 10
-88.89256720741385
 20
127.4817538339535
 30
0.0
 10
-88.79283454381635
 20
125.0959820511491
 30
0.0
 10
-88.55016394004791
 20
119.2908961535169
 30
0.0
 10
-88.06594390976382
 20
113.4952299019433
 30
0.0
 10
-87.30221881809322
 20
107.7353775267227
 30
0.0
 10
-86.53718930194088
 20
101.9656874592065
 30
0.0
 10
-85.49169913290199
 20
96.23193371103042
 30
0.0
 10
-84.1076372937488
 20
90.57876954413372
 30
0.0
 10
-82.79808096808344
 20
85.22992118681135
 30
0.0
 10
-81.1854232077288
 20
79.95321949698607
 30
0.0
 10
-79.21023909196855
 20
74.81263748156962
 30
0.0
 10
-77.38786787880534
 20
70.06976383799501
 30
0.0
 10
-75.25689511125589
 20
65.44276244061669
 30
0.0
 10
-72.76634358638067
 20
61.01431856086275
 30
0.0
 10
-70.39953579154587
 20
56.80590311999688
 30
0.0
 10
-67.70799311058376
 20
52.77680459249979
 30
0.0
 10
-64.67298086512547
 20
49.02183530153609
 30
0.0
 10
-61.85448365828972
 20
45.53474213604407
 30
0.0
 10
-58.73977449706668
 20
42.28406105856143
 30
0.0
 10
-55.35175222617483
 20
39.34759998412736
 30
0.0
 10
-51.92153934470007
 20
36.37457153327951
 30
0.0
 10
-48.21116390297547
 20
33.72363769635457
 30
0.0
 10
-44.29240415883584
 20
31.43213879716586
 30
0.0
 10
-41.21467071557893
 20
29.63243091567174
 30
0.0
 10
-38.00839980697755
 20
28.05443290060616
 30
0.0
 10
-34.7146378524489
 20
26.68957453515406
 30
0.0
 10
-31.4794684474515
 20
25.3489955597863
 30
0.0
 10
-28.15989305705837
 20
24.21404062242709
 30
0.0
 10
-24.79085840119411
 20
23.25832495998347
 30
0.0
 10
-20.86998684797231
 20
22.14606618658406
 30
0.0
 10
-16.88212653521578
 20
21.27657318357471
 30
0.0
 10
-12.86366272102925
 20
20.59660781493
 30
0.0
 10
-8.588442456407726
 20
19.87319661660381
 30
0.0
 10
-4.27858298133421
 20
19.36430621839164
 30
0.0
 10
0.0420061633716266
 20
18.99801908711644
 30
0.0
 10
3.101072207057531
 20
18.73868025899621
 30
0.0
 10
6.165516960582052
 20
18.55082747111012
 30
0.0
 10
9.232225849539875
 20
18.41010539619695
 30
0.0
 10
12.27221028515012
 20
18.2706096263159
 30
0.0
 10
15.31441956707557
 20
18.17742671904736
 30
0.0
 10
18.35683929028085
 20
18.10667058554785
 30
0.0
 10
19.86914010385906
 20
18.07149971236627
 30
0.0
 10
21.38149291332767
 20
18.04187005313028
 30
0.0
 10
22.8938706416939
 20
18.01278228987869
 30
0.0
 10
28.57637015540681
 20
17.90349001623433
 30
0.0
 10
34.25922146200304
 20
17.80184796752597
 30
0.0
 10
39.94198431601728
 20
17.69783075993056
 30
0.0
 10
45.56699340537354
 20
17.59487067639173
 30
0.0
 10
51.1919158309025
 20
17.48958346599755
 30
0.0
 10
56.81682876831501
 20
17.38351421775791
 30
0.0
 10
68.49456381911175
 20
17.16330661778402
 30
0.0
 10
80.1722579753614
 20
16.93972836982566
 30
0.0
 10
91.84984933704013
 20
16.7108198591726
 30
0.0
 10
106.2962377627503
 20
16.42763635356016
 30
0.0
 10
120.7424688690882
 20
16.13629528108897
 30
0.0
 10
135.1880050637653
 20
15.81250547387019
 30
0.0
  0
ENDBLK
  5
1C2
330
1BF
100
AcDbEntity
  8
0
100
AcDbBlockEnd
  0
BLOCK
  5
1C6
330
1C4
100
AcDbEntity
  8
0
100
AcDbBlockBegin
  2
block 70
 70
     0
 10
0.0
 20
0.0
 30
0.0
  3
block 70
  1

  0
SPLINE
  5
1C8
330
1C4
100
AcDbEntity
  8
0
 62
   179
420
  1842203
370
    25
100
AcDbSpline
210
0.0
220
0.0
230
1.0
 70
     8
 71
     3
 72
     8
 73
     4
 74
     0
 42
0.0000000001
 43
0.0000000001
 12
1.0
 22
0.0
 32
0.0
 13
1.0
 23
0.0
 33
0.0
 40
0.0
 40
0.0
 40
0.0
 40
0.0
 40
1.0
 40
1.0
 40
1.0
 40
1.0
 10
53.28367755154066
 20
148.6958332961607
 30
0.0
 10
53.28266831401373
 20
148.0291483885019
 30
0.0
 10
53.28496842726526
 20
147.3624748985576
 30
0.0
 10
53.29057789128885
 20
146.695812826311
 30
0.0
  0
ENDBLK
  5
1C7
330
1C4
100
AcDbEntity
  8
0
100
AcDbBlockEnd
  0
BLOCK
  5
1CB
330
1C9
100
AcDbEntity
  8
0
100
AcDbBlockBegin
  2
block 71
 70
     0
 10
0.0
 20
0.0
 30
0.0
  3
block 71
  1

  0
SPLINE
  5
1CD
330
1C9
100
AcDbEntity
  8
0
 62
   179
420
  1842203
370
    25
100
AcDbSpline
210
0.0
220
0.0
230
1.0
 70
     8
 71
     3
 72
     8
 73
     4
 74
     0
 42
0.0000000001
 43
0.0000000001
 12
1.0
 22
0.0
 32
0.0
 13
1.0
 23
0.0
 33
0.0
 40
0.0
 40
0.0
 40
0.0
 40
0.0
 40
1.0
 40
1.0
 40
1.0
 40
1.0
 10
80.1280449354792
 20
148.6955092602555
 30
0.0
 10
80.12505752383663
 20
148.0289413200179
 30
0.0
 10
80.12550708401622
 20
147.3623756978199
 30
0.0
 10
80.12939361601764
 20
146.6958123936601
 30
0.0
  0
ENDBLK
  5
1CC
330
1C9
100
AcDbEntity
  8
0
100
AcDbBlockEnd
  0
BLOCK
  5
1D0
330
1CE
100
AcDbEntity
  8
0
100
AcDbBlockBegin
  2
block 72
 70
     0
 10
0.0
 20
0.0
 30
0.0
  3
block 72
  1

  0
SPLINE
  5
1D2
330
1CE
100
AcDbEntity
  8
0
 62
   179
420
  1842203
370
    25
100
AcDbSpline
210
0.0
220
0.0
230
1.0
 70
     8
 71
     3
 72
     8
 73
     4
 74
     0
 42
0.0000000001
 43
0.0000000001
 12
1.0
 22
0.0
 32
0.0
 13
1.0
 23
0.0
 33
0.0
 40
0.0
 40
0.0
 40
0.0
 40
0.0
 40
1.0
 40
1.0
 40
1.0
 40
1.0
 10
235.5772973016586
 20
148.6958332963018
 30
0.0
 10
235.5772268290721
 20
138.7070957621288
 30
0.0
 10
235.14966182291
 20
128.7366906528476
 30
0.0
 10
234.2946022831718
 20
118.7846179684737
 30
0.0
  0
ENDBLK
  5
1D1
330
1CE
100
AcDbEntity
  8
0
100
AcDbBlockEnd
  0
BLOCK
  5
1D5
330
1D3
100
AcDbEntity
  8
0
100
AcDbBlockBegin
  2
block 73
 70
     0
 10
0.0
 20
0.0
 30
0.0
  3
block 73
  1

  0
SPLINE
  5
1D7
330
1D3
100
AcDbEntity
  8
0
 62
   179
420
  1842203
370
    25
100
AcDbSpline
210
0.0
220
0.0
230
1.0
 70
     8
 71
     3
 72
    29
 73
    25
 74
     0
 42
0.0000000001
 43
0.0000000001
 12
1.0
 22
0.0
 32
0.0
 13
1.0
 23
0.0
 33
0.0
 40
0.0
 40
0.0
 40
0.0
 40
0.0
 40
1.0
 40
1.0
 40
1.0
 40
2.0
 40
2.0
 40
2.0
 40
3.0
 40
3.0
 40
3.0
 40
4.0
 40
4.0
 40
4.0
 40
5.0
 40
5.0
 40
5.0
 40
6.0
 40
6.0
 40
6.0
 40
7.0
 40
7.0
 40
7.0
 40
8.0
 40
8.0
 40
8.0
 40
8.0
 10
135.1880050636562
 20
281.5791611184897
 30
0.0
 10
135.7431925550767
 20
281.5911622866269
 30
0.0
 10
136.2983607999865
 20
281.6026754232204
 30
0.0
 10
136.8535392641582
 20
281.6140600306602
 30
0.0
 10
138.4052242669177
 20
281.6458792127228
 30
0.0
 10
139.9569890988614
 20
281.6766943720455
 30
0.0
 10
141.5086801087351
 20
281.7085082738862
 30
0.0
 10
142.9510529934954
 20
281.738080855714
 30
0.0
 10
144.3933620914513
 20
281.7685164124171
 30
0.0
 10
145.8358146047405
 20
281.7981668589438
 30
0.0
 10
146.3033914574992
 20
281.8077781718559
 30
0.0
 10
146.7709833797411
 20
281.8173069886432
 30
0.0
 10
147.238553659216
 20
281.8262624614135
 30
0.0
 10
148.3169183752507
 20
281.8469166096325
 30
0.0
 10
149.3951679713832
 20
281.8645210879852
 30
0.0
 10
150.4736676420194
 20
281.8738652606664
 30
0.0
 10
152.8934476612353
 20
281.8948303503769
 30
0.0
 10
155.3144865512515
 20
281.8742132022652
 30
0.0
 10
157.7315867118038
 20
281.7590925706126
 30
0.0
 10
160.1937471328788
 20
281.6418258277827
 30
0.0
 10
162.6518206018393
 20
281.4264992371806
 30
0.0
 10
165.0939018016141
 20
281.0907537244032
 30
0.0
 10
167.3788640597685
 20
280.7766094506178
 30
0.0
 10
169.6498256758552
 20
280.3570428500754
 30
0.0
 10
171.8899805798307
 20
279.8074150615974
 30
0.0
  0
ENDBLK
  5
1D6
330
1D3
100
AcDbEntity
  8
0
100
AcDbBlockEnd
  0
BLOCK
  5
1DA
330
1D8
100
AcDbEntity
  8
0
100
AcDbBlockBegin
  2
block 74
 70
     0
 10
0.0
 20
0.0
 30
0.0
  3
block 74
  1

  0
SPLINE
  5
1DC
330
1D8
100
AcDbEntity
  8
0
 62
   179
420
  1842203
370
    25
100
AcDbSpline
210
0.0
220
0.0
230
1.0
 70
     8
 71
     3
 72
    59
 73
    55
 74
     0
 42
0.0000000001
 43
0.0000000001
 12
1.0
 22
0.0
 32
0.0
 13
1.0
 23
0.0
 33
0.0
 40
0.0
 40
0.0
 40
0.0
 40
0.0
 40
1.0
 40
1.0
 40
1.0
 40
2.0
 40
2.0
 40
2.0
 40
3.0
 40
3.0
 40
3.0
 40
4.0
 40
4.0
 40
4.0
 40
5.0
 40
5.0
 40
5.0
 40
6.0
 40
6.0
 40
6.0
 40
7.0
 40
7.0
 40
7.0
 40
8.0
 40
8.0
 40
8.0
 40
9.0
 40
9.0
 40
9.0
 40
10.0
 40
10.0
 40
10.0
 40
11.0
 40
11.0
 40
11.0
 40
12.0
 40
12.0
 40
12.0
 40
13.0
 40
13.0
 40
13.0
 40
14.0
 40
14.0
 40
14.0
 40
15.0
 40
15.0
 40
15.0
 40
16.0
 40
16.0
 40
16.0
 40
17.0
 40
17.0
 40
17.0
 40
18.0
 40
18.0
 40
18.0
 40
18.0
 10
80.12939361602406
 20
150.6958541986477
 30
0.0
 10
80.14260798405435
 20
152.3903918670309
 30
0.0
 10
80.18949032179694
 20
154.0868227893559
 30
0.0
 10
80.34038921168495
 20
155.7751524808687
 30
0.0
 10
80.45941503970712
 20
157.1068709558458
 30
0.0
 10
80.64315703476038
 20
158.4335490733478
 30
0.0
 10
80.91405215857999
 20
159.7427917352339
 30
0.0
 10
81.16651596144813
 20
160.9629553787934
 30
0.0
 10
81.49467679547816
 20
162.167975421124
 30
0.0
 10
81.90653555004333
 20
163.3439399011552
 30
0.0
 10
82.34800252302848
 20
164.604443589821
 30
0.0
 10
82.88563393487505
 20
165.831563989783
 30
0.0
 10
83.51283093594778
 20
167.0107195740211
 30
0.0
 10
83.80570128536583
 20
167.5613276084604
 30
0.0
 10
84.11810081673579
 20
168.1014772333495
 30
0.0
 10
84.44814936666235
 20
168.6306572033355
 30
0.0
 10
84.82541379989078
 20
169.2355402773329
 30
0.0
 10
85.22573809116042
 20
169.826090617526
 30
0.0
 10
85.64708665204549
 20
170.4011592733804
 30
0.0
 10
85.96295893490462
 20
170.8322708659935
 30
0.0
 10
86.29064695775163
 20
171.2546816780338
 30
0.0
 10
86.62898331765402
 20
171.6683828702918
 30
0.0
 10
87.19262225778135
 20
172.3575730643389
 30
0.0
 10
87.78581316697756
 20
173.0225917456959
 30
0.0
 10
88.40331233305028
 20
173.6639594098004
 30
0.0
 10
89.39267984502689
 20
174.6915694293174
 30
0.0
 10
90.44444904773998
 20
175.658464956983
 30
0.0
 10
91.54032887933127
 20
176.5717302605528
 30
0.0
 10
92.77326895205263
 20
177.5992164477639
 30
0.0
 10
94.06204335581916
 20
178.5588185951846
 30
0.0
 10
95.38917456077597
 20
179.4613064995976
 30
0.0
 10
97.01014125086725
 20
180.5636110990224
 30
0.0
 10
98.68832991560652
 20
181.580710737022
 30
0.0
 10
100.4053682628711
 20
182.5264332026514
 30
0.0
 10
102.2780663354725
 20
183.5578910273491
 30
0.0
 10
104.1969772856693
 20
184.5044435371026
 30
0.0
 10
106.1454527855698
 20
185.3844251345201
 30
0.0
 10
108.256213977379
 20
186.3376991199585
 30
0.0
 10
110.4016695843694
 20
187.2128512028095
 30
0.0
 10
112.5701464799833
 20
188.026332817776
 30
0.0
 10
114.9062195788543
 20
188.9026864100066
 30
0.0
 10
117.2690099974697
 20
189.7074684392497
 30
0.0
 10
119.6542195913686
 20
190.439714736345
 30
0.0
 10
121.8698525499263
 20
191.1199019340526
 30
0.0
 10
124.1048302161497
 20
191.7375006325665
 30
0.0
 10
126.3609385368951
 20
192.268443024415
 30
0.0
 10
128.2692039132465
 20
192.7175256211539
 30
0.0
 10
130.1925864630487
 20
193.1046130526629
 30
0.0
 10
132.1297178461656
 20
193.4039112972013
 30
0.0
 10
133.9785954526662
 20
193.6895738117903
 30
0.0
 10
135.8399976635665
 20
193.8952640980148
 30
0.0
 10
137.7061978927349
 20
194.02924010017
 30
0.0
 10
139.7512257252971
 20
194.1760542785343
 30
0.0
 10
141.8020151679647
 20
194.2367517058914
 30
0.0
 10
143.8520989480247
 20
194.2437382735444
 30
0.0
  0
ENDBLK
  5
1DB
330
1D8
100
AcDbEntity
  8
0
100
AcDbBlockEnd
  0
BLOCK
  5
1DF
330
1DD
100
AcDbEntity
  8
0
100
AcDbBlockBegin
  2
block 75
 70
     0
 10
0.0
 20
0.0
 30
0.0
  3
block 75
  1

  0
SPLINE
  5
1E1
330
1DD
100
AcDbEntity
  8
0
 62
   179
420
  1842203
370
    25
100
AcDbSpline
210
0.0
220
0.0
230
1.0
 70
     8
 71
     3
 72
    65
 73
    61
 74
     0
 42
0.0000000001
 43
0.0000000001
 12
1.0
 22
0.0
 32
0.0
 13
1.0
 23
0.0
 33
0.0
 40
0.0
 40
0.0
 40
0.0
 40
0.0
 40
1.0
 40
1.0
 40
1.0
 40
2.0
 40
2.0
 40
2.0
 40
3.0
 40
3.0
 40
3.0
 40
4.0
 40
4.0
 40
4.0
 40
5.0
 40
5.0
 40
5.0
 40
6.0
 40
6.0
 40
6.0
 40
7.0
 40
7.0
 40
7.0
 40
8.0
 40
8.0
 40
8.0
 40
9.0
 40
9.0
 40
9.0
 40
10.0
 40
10.0
 40
10.0
 40
11.0
 40
11.0
 40
11.0
 40
12.0
 40
12.0
 40
12.0
 40
13.0
 40
13.0
 40
13.0
 40
14.0
 40
14.0
 40
14.0
 40
15.0
 40
15.0
 40
15.0
 40
16.0
 40
16.0
 40
16.0
 40
17.0
 40
17.0
 40
17.0
 40
18.0
 40
18.0
 40
18.0
 40
19.0
 40
19.0
 40
19.0
 40
20.0
 40
20.0
 40
20.0
 40
20.0
 10
53.29057789128885
 20
150.6958537660039
 30
0.0
 10
53.30524426009328
 20
152.5789950610149
 30
0.0
 10
53.36771992830236
 20
154.4651497878486
 30
0.0
 10
53.57129344808737
 20
156.3380737521692
 30
0.0
 10
53.75101179253361
 20
157.9915245275915
 30
0.0
 10
54.04069720559031
 20
159.6346636777704
 30
0.0
 10
54.47514351682911
 20
161.2398233271581
 30
0.0
 10
54.90780323982348
 20
162.8383820243056
 30
0.0
 10
55.48403569882441
 20
164.3992729471519
 30
0.0
 10
56.19774223607256
 20
165.8938102903432
 30
0.0
 10
56.90854656360533
 20
167.382270260605
 30
0.0
 10
57.75570919592794
 20
168.8049151932079
 30
0.0
 10
58.70903543049591
 20
170.1510616894797
 30
0.0
 10
59.75074556694218
 20
171.6220108771345
 30
0.0
 10
60.91921690208503
 20
173.0016195932757
 30
0.0
 10
62.17334334252808
 20
174.2964034524574
 30
0.0
 10
63.5668604143369
 20
175.7350968360577
 30
0.0
 10
65.0661310939407
 20
177.0690616734406
 30
0.0
 10
66.63183696221793
 20
178.318171822576
 30
0.0
 10
68.32079816714003
 20
179.6656142926463
 30
0.0
 10
70.0870660769167
 20
180.9143163742181
 30
0.0
 10
71.90183332050218
 20
182.0867732856141
 30
0.0
 10
73.91823063504967
 20
183.3894962523857
 30
0.0
 10
75.99450303288614
 20
184.5980903815822
 30
0.0
 10
78.10829866920758
 20
185.7359040748609
 30
0.0
 10
80.74601589289772
 20
187.1557342252027
 30
0.0
 10
83.44216243092666
 20
188.4653486130789
 30
0.0
 10
86.1744645582442
 20
189.6934685156809
 30
0.0
 10
89.24642513802873
 20
191.0742586890233
 30
0.0
 10
92.36408919895486
 20
192.3520334850973
 30
0.0
 10
95.51754170460025
 20
193.5351351470169
 30
0.0
 10
98.39771100089716
 20
194.6157073373252
 30
0.0
 10
101.3077345543357
 20
195.6173044250929
 30
0.0
 10
104.2537456994577
 20
196.5024992751428
 30
0.0
 10
106.9479908507369
 20
197.3120454089448
 30
0.0
 10
109.6723354293708
 20
198.0242346334725
 30
0.0
 10
112.4269571373042
 20
198.595340817345
 30
0.0
 10
114.1566561171876
 20
198.9539533196721
 30
0.0
 10
115.8982931038936
 20
199.2569380151111
 30
0.0
 10
117.6503832743377
 20
199.4821716189837
 30
0.0
 10
119.287994170442
 20
199.6926887545096
 30
0.0
 10
120.9347368817938
 20
199.8352831765955
 30
0.0
 10
122.5853512958288
 20
199.881033211094
 30
0.0
 10
122.7974999493175
 20
199.8869133295132
 30
0.0
 10
123.0097125602782
 20
199.8911936550843
 30
0.0
 10
123.2219116517375
 20
199.8937650600673
 30
0.0
 10
123.4871670194947
 20
199.8969793951117
 30
0.0
 10
123.7524012619999
 20
199.8975234107967
 30
0.0
 10
124.0176509917714
 20
199.8975576869668
 30
0.0
 10
124.3359557632633
 20
199.8975988190282
 30
0.0
 10
124.6542828371312
 20
199.8969059026856
 30
0.0
 10
124.9726083972425
 20
199.89608452994
 30
0.0
 10
125.9713251787996
 20
199.893507549493
 30
0.0
 10
126.9700270599312
 20
199.8896661314024
 30
0.0
 10
127.9687038837349
 20
199.8828974839311
 30
0.0
 10
129.9769415988673
 20
199.8692864209752
 30
0.0
 10
131.9850779893575
 20
199.8438384833399
 30
0.0
 10
133.9929012227337
 20
199.8003204652485
 30
0.0
 10
137.2813634087984
 20
199.7290455867964
 30
0.0
 10
140.5689855605344
 20
199.6092982729673
 30
0.0
 10
143.852098656049
 20
199.4072092050782
 30
0.0
  0
ENDBLK
  5
1E0
330
1DD
100
AcDbEntity
  8
0
100
AcDbBlockEnd
  0
BLOCK
  5
1E4
330
1E2
100
AcDbEntity
  8
0
100
AcDbBlockBegin
  2
block 76
 70
     0
 10
0.0
 20
0.0
 30
0.0
  3
block 76
  1

  0
SPLINE
  5
1E6
330
1E2
100
AcDbEntity
  8
0
 62
   179
420
  1842203
370
    25
100
AcDbSpline
210
0.0
220
0.0
230
1.0
 70
     8
 71
     3
 72
    14
 73
    10
 74
     0
 42
0.0000000001
 43
0.0000000001
 12
1.0
 22
0.0
 32
0.0
 13
1.0
 23
0.0
 33
0.0
 40
0.0
 40
0.0
 40
0.0
 40
0.0
 40
1.0
 40
1.0
 40
1.0
 40
2.0
 40
2.0
 40
2.0
 40
3.0
 40
3.0
 40
3.0
 40
3.0
 10
171.8899805798307
 20
279.8074150615974
 30
0.0
 10
174.189366692757
 20
279.2408014266065
 30
0.0
 10
176.4443358965648
 20
278.531096558987
 30
0.0
 10
178.6693052122033
 20
277.6779754894116
 30
0.0
 10
179.7817898700257
 20
277.2514149546242
 30
0.0
 10
180.8840825207605
 20
276.790226002617
 30
0.0
 10
181.9707241213563
 20
276.2976534599226
 30
0.0
 10
183.057365721954
 20
275.8050809172345
 30
0.0
 10
184.1279264148616
 20
275.281774070732
 30
0.0
 10
185.1885480245971
 20
274.7218726214598
 30
0.0
  0
ENDBLK
  5
1E5
330
1E2
100
AcDbEntity
  8
0
100
AcDbBlockEnd
  0
BLOCK
  5
1E9
330
1E7
100
AcDbEntity
  8
0
100
AcDbBlockBegin
  2
block 77
 70
     0
 10
0.0
 20
0.0
 30
0.0
  3
block 77
  1

  0
SPLINE
  5
1EB
330
1E7
100
AcDbEntity
  8
0
 62
   179
420
  1842203
370
    25
100
AcDbSpline
210
0.0
220
0.0
230
1.0
 70
     8
 71
     3
 72
    23
 73
    19
 74
     0
 42
0.0000000001
 43
0.0000000001
 12
1.0
 22
0.0
 32
0.0
 13
1.0
 23
0.0
 33
0.0
 40
0.0
 40
0.0
 40
0.0
 40
0.0
 40
1.0
 40
1.0
 40
1.0
 40
2.0
 40
2.0
 40
2.0
 40
3.0
 40
3.0
 40
3.0
 40
4.0
 40
4.0
 40
4.0
 40
5.0
 40
5.0
 40
5.0
 40
6.0
 40
6.0
 40
6.0
 40
6.0
 10
185.1885480245971
 20
274.7218726214598
 30
0.0
 10
185.8949713544732
 20
274.3470837863471
 30
0.0
 10
186.5947056862463
 20
273.9598396752283
 30
0.0
 10
187.2876683259733
 20
273.5607859150801
 30
0.0
 10
188.1560406374826
 20
273.0607196542875
 30
0.0
 10
189.0137791243876
 20
272.5421082890242
 30
0.0
 10
189.8608818670791
 20
272.0067788668438
 30
0.0
 10
191.560148124062
 20
270.9329218508528
 30
0.0
 10
193.2166168637955
 20
269.7917925015847
 30
0.0
 10
194.8312086915632
 20
268.5943724897456
 30
0.0
 10
196.3692889076756
 20
267.4536953235891
 30
0.0
 10
197.8693670653838
 20
266.2619360468897
 30
0.0
 10
199.3316424254743
 20
265.0256611147452
 30
0.0
 10
200.2137565775184
 20
264.2798811862743
 30
0.0
 10
201.0821140001
 20
263.5179016676363
 30
0.0
 10
201.9444592068549
 20
262.7492936452762
 30
0.0
 10
202.7915053631005
 20
261.9943216620164
 30
0.0
 10
203.6327507391792
 20
261.2329542841177
 30
0.0
 10
204.4588495160534
 20
260.4549812122294
 30
0.0
  0
ENDBLK
  5
1EA
330
1E7
100
AcDbEntity
  8
0
100
AcDbBlockEnd
  0
BLOCK
  5
1EE
330
1EC
100
AcDbEntity
  8
0
100
AcDbBlockBegin
  2
block 78
 70
     0
 10
0.0
 20
0.0
 30
0.0
  3
block 78
  1

  0
POLYLINE
  5
1F0
330
1EC
100
AcDbEntity
  8
0
 62
   179
420
  1842203
370
    25
100
AcDb2dPolyline
 66
     1
 10
0.0
 20
0.0
 30
0.0
  0
VERTEX
  5
1F1
330
1F0
100
AcDbEntity
  8
0
 62
   179
420
  1842203
370
    25
100
AcDbVertex
100
AcDb2dVertex
 10
345.1848973214004
 20
321.1329552015698
 30
0.0
  0
VERTEX
  5
1F2
330
1F0
100
AcDbEntity
  8
0
 62
   179
420
  1842203
370
    25
100
AcDbVertex
100
AcDb2dVertex
 10
345.1859887666826
 20
321.1523821457142
 30
0.0
  0
VERTEX
  5
1F3
330
1F0
100
AcDbEntity
  8
0
 62
   179
420
  1842203
370
    25
100
AcDbVertex
100
AcDb2dVertex
 10
345.1869539489164
 20
321.1718157592122
 30
0.0
  0
SEQEND
  5
1F4
330
1F0
100
AcDbEntity
  8
0
 62
   179
420
  1842203
370
    25
  0
ENDBLK
  5
1EF
330
1EC
100
AcDbEntity
  8
0
100
AcDbBlockEnd
  0
BLOCK
  5
1F7
330
1F5
100
AcDbEntity
  8
0
100
AcDbBlockBegin
  2
block 79
 70
     0
 10
0.0
 20
0.0
 30
0.0
  3
block 79
  1

  0
SPLINE
  5
1F9
330
1F5
100
AcDbEntity
  8
0
 62
   179
420
  1842203
370
    25
100
AcDbSpline
210
0.0
220
0.0
230
1.0
 70
     8
 71
     3
 72
     8
 73
     4
 74
     0
 42
0.0000000001
 43
0.0000000001
 12
1.0
 22
0.0
 32
0.0
 13
1.0
 23
0.0
 33
0.0
 40
0.0
 40
0.0
 40
0.0
 40
0.0
 40
1.0
 40
1.0
 40
1.0
 40
1.0
 10
207.7484690322218
 20
257.1969480345584
 30
0.0
 10
207.2261767511139
 20
257.7285434913205
 30
0.0
 10
206.7006130504955
 20
258.2568847266872
 30
0.0
 10
206.1717779303445
 20
258.7819717406654
 30
0.0
  0
ENDBLK
  5
1F8
330
1F5
100
AcDbEntity
  8
0
100
AcDbBlockEnd
  0
BLOCK
  5
1FC
330
1FA
100
AcDbEntity
  8
0
100
AcDbBlockBegin
  2
block 80
 70
     0
 10
0.0
 20
0.0
 30
0.0
  3
block 80
  1

  0
SPLINE
  5
1FE
330
1FA
100
AcDbEntity
  8
0
 62
   179
420
  1842203
370
    25
100
AcDbSpline
210
0.0
220
0.0
230
1.0
 70
     8
 71
     3
 72
     8
 73
     4
 74
     0
 42
0.0000000001
 43
0.0000000001
 12
1.0
 22
0.0
 32
0.0
 13
1.0
 23
0.0
 33
0.0
 40
0.0
 40
0.0
 40
0.0
 40
0.0
 40
1.0
 40
1.0
 40
1.0
 40
1.0
 10
206.1717779303445
 20
258.7819717406654
 30
0.0
 10
206.6807761560621
 20
258.2593055567195
 30
0.0
 10
207.1838119714713
 20
257.730962556894
 30
0.0
 10
207.6808853765722
 20
257.1969427411879
 30
0.0
  0
ENDBLK
  5
1FD
330
1FA
100
AcDbEntity
  8
0
100
AcDbBlockEnd
  0
BLOCK
  5
201
330
1FF
100
AcDbEntity
  8
0
100
AcDbBlockBegin
  2
block 81
 70
     0
 10
0.0
 20
0.0
 30
0.0
  3
block 81
  1

  0
SPLINE
  5
203
330
1FF
100
AcDbEntity
  8
0
 62
   179
420
  1842203
370
    25
100
AcDbSpline
210
0.0
220
0.0
230
1.0
 70
     8
 71
     3
 72
     8
 73
     4
 74
     0
 42
0.0000000001
 43
0.0000000001
 12
1.0
 22
0.0
 32
0.0
 13
1.0
 23
0.0
 33
0.0
 40
0.0
 40
0.0
 40
0.0
 40
0.0
 40
1.0
 40
1.0
 40
1.0
 40
1.0
 10
204.4588495160534
 20
260.4549812122294
 30
0.0
 10
205.0347086042284
 20
259.9023108483816
 30
0.0
 10
205.6056847423285
 20
259.3446410245248
 30
0.0
 10
206.1717779303445
 20
258.7819717406654
 30
0.0
  0
ENDBLK
  5
202
330
1FF
100
AcDbEntity
  8
0
100
AcDbBlockEnd
  0
BLOCK
  5
206
330
204
100
AcDbEntity
  8
0
100
AcDbBlockBegin
  2
block 82
 70
     0
 10
0.0
 20
0.0
 30
0.0
  3
block 82
  1

  0
POLYLINE
  5
208
330
204
100
AcDbEntity
  8
0
 62
   179
420
  1842203
370
    25
100
AcDb2dPolyline
 66
     1
 10
0.0
 20
0.0
 30
0.0
  0
VERTEX
  5
209
330
208
100
AcDbEntity
  8
0
 62
   179
420
  1842203
370
    25
100
AcDbVertex
100
AcDb2dVertex
 10
208.5452647412379
 20
256.2432057517093
 30
0.0
  0
VERTEX
  5
20A
330
208
100
AcDbEntity
  8
0
 62
   179
420
  1842203
370
    25
100
AcDbVertex
100
AcDb2dVertex
 10
209.1584990231931
 20
255.5677157586123
 30
0.0
  0
SEQEND
  5
20B
330
208
100
AcDbEntity
  8
0
 62
   179
420
  1842203
370
    25
  0
ENDBLK
  5
207
330
204
100
AcDbEntity
  8
0
100
AcDbBlockEnd
  0
BLOCK
  5
20E
330
20C
100
AcDbEntity
  8
0
100
AcDbBlockBegin
  2
block 83
 70
     0
 10
0.0
 20
0.0
 30
0.0
  3
block 83
  1

  0
SPLINE
  5
210
330
20C
100
AcDbEntity
  8
0
 62
   179
420
  1842203
370
    25
100
AcDbSpline
210
0.0
220
0.0
230
1.0
 70
     8
 71
     3
 72
     8
 73
     4
 74
     0
 42
0.0000000001
 43
0.0000000001
 12
1.0
 22
0.0
 32
0.0
 13
1.0
 23
0.0
 33
0.0
 40
0.0
 40
0.0
 40
0.0
 40
0.0
 40
1.0
 40
1.0
 40
1.0
 40
1.0
 10
-60.74239026019912
 20
323.6288497523048
 30
0.0
 10
-76.73314656636795
 20
323.331455710134
 30
0.0
 10
-92.72389505645832
 20
323.0331756074847
 30
0.0
 10
-108.7146358437192
 20
322.7340056512547
 30
0.0
  0
ENDBLK
  5
20F
330
20C
100
AcDbEntity
  8
0
100
AcDbBlockEnd
  0
BLOCK
  5
213
330
211
100
AcDbEntity
  8
0
100
AcDbBlockBegin
  2
block 84
 70
     0
 10
0.0
 20
0.0
 30
0.0
  3
block 84
  1

  0
SPLINE
  5
215
330
211
100
AcDbEntity
  8
0
 62
   179
420
  1842203
370
    25
100
AcDbSpline
210
0.0
220
0.0
230
1.0
 70
     8
 71
     3
 72
     8
 73
     4
 74
     0
 42
0.0000000001
 43
0.0000000001
 12
1.0
 22
0.0
 32
0.0
 13
1.0
 23
0.0
 33
0.0
 40
0.0
 40
0.0
 40
0.0
 40
0.0
 40
1.0
 40
1.0
 40
1.0
 40
1.0
 10
35.20224227570169
 20
325.4026116242906
 30
0.0
 10
19.21145425224043
 20
325.1087466516678
 30
0.0
 10
3.220674271347234
 20
324.8140032047569
 30
0.0
 10
-12.7700977802198
 20
324.5183774904585
 30
0.0
  0
ENDBLK
  5
214
330
211
100
AcDbEntity
  8
0
100
AcDbBlockEnd
  0
BLOCK
  5
218
330
216
100
AcDbEntity
  8
0
100
AcDbBlockBegin
  2
block 85
 70
     0
 10
0.0
 20
0.0
 30
0.0
  3
block 85
  1

  0
SPLINE
  5
21A
330
216
100
AcDbEntity
  8
0
 62
   179
420
  1842203
370
    25
100
AcDbSpline
210
0.0
220
0.0
230
1.0
 70
     8
 71
     3
 72
     8
 73
     4
 74
     0
 42
0.0000000001
 43
0.0000000001
 12
1.0
 22
0.0
 32
0.0
 13
1.0
 23
0.0
 33
0.0
 40
0.0
 40
0.0
 40
0.0
 40
0.0
 40
1.0
 40
1.0
 40
1.0
 40
1.0
 10
206.7163720459289
 20
260.9450522644803
 30
0.0
 10
207.9703284723866
 20
259.7513358807262
 30
0.0
 10
209.1661246305301
 20
258.5019537225355
 30
0.0
 10
210.3037605203592
 20
257.1969057899083
 30
0.0
  0
ENDBLK
  5
219
330
216
100
AcDbEntity
  8
0
100
AcDbBlockEnd
  0
BLOCK
  5
21D
330
21B
100
AcDbEntity
  8
0
100
AcDbBlockBegin
  2
block 86
 70
     0
 10
0.0
 20
0.0
 30
0.0
  3
block 86
  1

  0
SPLINE
  5
21F
330
21B
100
AcDbEntity
  8
0
 62
   179
420
  1842203
370
    25
100
AcDbSpline
210
0.0
220
0.0
230
1.0
 70
     8
 71
     3
 72
    23
 73
    19
 74
     0
 42
0.0000000001
 43
0.0000000001
 12
1.0
 22
0.0
 32
0.0
 13
1.0
 23
0.0
 33
0.0
 40
0.0
 40
0.0
 40
0.0
 40
0.0
 40
1.0
 40
1.0
 40
1.0
 40
2.0
 40
2.0
 40
2.0
 40
3.0
 40
3.0
 40
3.0
 40
4.0
 40
4.0
 40
4.0
 40
5.0
 40
5.0
 40
5.0
 40
6.0
 40
6.0
 40
6.0
 40
6.0
 10
206.7163720459289
 20
260.9450522644803
 30
0.0
 10
206.7147402819046
 20
260.9433594138775
 30
0.0
 10
206.7146676273084
 20
260.9432855749557
 30
0.0
 10
206.7146676273084
 20
260.9432855749557
 30
0.0
 10
206.7161476913766
 20
260.9448575089059
 30
0.0
 10
206.7165163259805
 20
260.9452456995565
 30
0.0
 10
206.7165163259805
 20
260.9452456995565
 30
0.0
 10
206.7178628165448
 20
260.9466621644165
 30
0.0
 10
206.71839182385
 20
260.947218264233
 30
0.0
 10
206.71839182385
 20
260.947218264233
 30
0.0
 10
206.7195700652852
 20
260.9484563402868
 30
0.0
 10
206.7202192845741
 20
260.9491383009204
 30
0.0
 10
206.7202192845741
 20
260.9491383009204
 30
0.0
 10
206.7216378792153
 20
260.9506280242405
 30
0.0
 10
206.7224072365371
 20
260.9514357679841
 30
0.0
 10
206.7224072365371
 20
260.9514357679841
 30
0.0
 10
206.7240660220908
 20
260.9531769680697
 30
0.0
 10
206.7249554290966
 20
260.9541104021325
 30
0.0
 10
206.7249554290966
 20
260.9541104021325
 30
0.0
  0
ENDBLK
  5
21E
330
21B
100
AcDbEntity
  8
0
100
AcDbBlockEnd
  0
BLOCK
  5
222
330
220
100
AcDbEntity
  8
0
100
AcDbBlockBegin
  2
block 87
 70
     0
 10
0.0
 20
0.0
 30
0.0
  3
block 87
  1

  0
SPLINE
  5
224
330
220
100
AcDbEntity
  8
0
 62
   179
420
  1842203
370
    25
100
AcDbSpline
210
0.0
220
0.0
230
1.0
 70
    24
 71
     3
 72
     8
 73
     4
 74
     0
 42
0.0000000001
 43
0.0000000001
 12
1.0
 22
0.0
 32
0.0
 13
1.0
 23
0.0
 33
0.0
 40
0.0
 40
0.0
 40
0.0
 40
0.0
 40
1.0
 40
1.0
 40
1.0
 40
1.0
 10
207.6808853765722
 20
257.1969427411879
 30
0.0
 10
207.7034132617879
 20
257.1969445056504
 30
0.0
 10
207.7259411470049
 20
257.1969462700994
 30
0.0
 10
207.7484690322218
 20
257.1969480345584
 30
0.0
  0
ENDBLK
  5
223
330
220
100
AcDbEntity
  8
0
100
AcDbBlockEnd
  0
BLOCK
  5
227
330
225
100
AcDbEntity
  8
0
100
AcDbBlockBegin
  2
block 88
 70
     0
 10
0.0
 20
0.0
 30
0.0
  3
block 88
  1

  0
SPLINE
  5
229
330
225
100
AcDbEntity
  8
0
 62
   179
420
  1842203
370
    25
100
AcDbSpline
210
0.0
220
0.0
230
1.0
 70
     8
 71
     3
 72
    32
 73
    28
 74
     0
 42
0.0000000001
 43
0.0000000001
 12
1.0
 22
0.0
 32
0.0
 13
1.0
 23
0.0
 33
0.0
 40
0.0
 40
0.0
 40
0.0
 40
0.0
 40
1.0
 40
1.0
 40
1.0
 40
2.0
 40
2.0
 40
2.0
 40
3.0
 40
3.0
 40
3.0
 40
4.0
 40
4.0
 40
4.0
 40
5.0
 40
5.0
 40
5.0
 40
6.0
 40
6.0
 40
6.0
 40
7.0
 40
7.0
 40
7.0
 40
8.0
 40
8.0
 40
8.0
 40
9.0
 40
9.0
 40
9.0
 40
9.0
 10
210.407946204908
 20
257.1969052270173
 30
0.0
 10
212.2844457577685
 20
255.1498279454482
 30
0.0
 10
214.0436017128432
 20
252.9954617236901
 30
0.0
 10
215.6692496571731
 20
250.7441639420672
 30
0.0
 10
217.1916161851771
 20
248.6358966513085
 30
0.0
 10
218.5968999994597
 20
246.4426231499766
 30
0.0
 10
219.8714763384307
 20
244.1760391623161
 30
0.0
 10
221.1478592079354
 20
241.9062426144792
 30
0.0
 10
222.2931638210723
 20
239.5629276186789
 30
0.0
 10
223.3039891233458
 20
237.1629599336468
 30
0.0
 10
224.3201792074267
 20
234.750254832019
 30
0.0
 10
225.2004587409462
 20
232.2802940965279
 30
0.0
 10
225.9565421071726
 20
229.7741359298324
 30
0.0
 10
226.8597969131069
 20
226.7801546976081
 30
0.0
 10
227.5858004357249
 20
223.734512924858
 30
0.0
 10
228.2307815811943
 20
220.6742180752434
 30
0.0
 10
228.445445670078
 20
219.6556837967894
 30
0.0
 10
228.6511348564993
 20
218.6355263872966
 30
0.0
 10
228.8521534177054
 20
217.6143018250837
 30
0.0
 10
229.0878149574542
 20
216.417082268267
 30
0.0
 10
229.3170573088061
 20
215.2183960439137
 30
0.0
 10
229.5396380516155
 20
214.0185085061892
 30
0.0
 10
229.9865521407328
 20
211.6092855014691
 30
0.0
 10
230.4066095682678
 20
209.1952193321098
 30
0.0
 10
230.8018270120858
 20
206.7771085132249
 30
0.0
 10
232.3283996958887
 20
197.436878267158
 30
0.0
 10
233.4843649932689
 20
188.0363026920047
 30
0.0
 10
234.2946022831718
 20
178.6070486238409
 30
0.0
  0
ENDBLK
  5
228
330
225
100
AcDbEntity
  8
0
100
AcDbBlockEnd
  0
BLOCK
  5
22C
330
22A
100
AcDbEntity
  8
0
100
AcDbBlockBegin
  2
block 89
 70
     0
 10
0.0
 20
0.0
 30
0.0
  3
block 89
  1

  0
SPLINE
  5
22E
330
22A
100
AcDbEntity
  8
0
 62
   179
420
  1842203
370
    25
100
AcDbSpline
210
0.0
220
0.0
230
1.0
 70
     8
 71
     3
 72
     8
 73
     4
 74
     0
 42
0.0000000001
 43
0.0000000001
 12
1.0
 22
0.0
 32
0.0
 13
1.0
 23
0.0
 33
0.0
 40
0.0
 40
0.0
 40
0.0
 40
0.0
 40
1.0
 40
1.0
 40
1.0
 40
1.0
 10
210.3037605203592
 20
257.1969057899083
 30
0.0
 10
210.3384678596343
 20
257.1969056273323
 30
0.0
 10
210.3731961982013
 20
257.1969054436761
 30
0.0
 10
210.407946204908
 20
257.1969052270173
 30
0.0
  0
ENDBLK
  5
22D
330
22A
100
AcDbEntity
  8
0
100
AcDbBlockEnd
  0
BLOCK
  5
231
330
22F
100
AcDbEntity
  8
0
100
AcDbBlockBegin
  2
block 90
 70
     0
 10
0.0
 20
0.0
 30
0.0
  3
block 90
  1

  0
SPLINE
  5
233
330
22F
100
AcDbEntity
  8
0
 62
   179
420
  1842203
370
    25
100
AcDbSpline
210
0.0
220
0.0
230
1.0
 70
     8
 71
     3
 72
    20
 73
    16
 74
     0
 42
0.0000000001
 43
0.0000000001
 12
1.0
 22
0.0
 32
0.0
 13
1.0
 23
0.0
 33
0.0
 40
0.0
 40
0.0
 40
0.0
 40
0.0
 40
1.0
 40
1.0
 40
1.0
 40
2.0
 40
2.0
 40
2.0
 40
3.0
 40
3.0
 40
3.0
 40
4.0
 40
4.0
 40
4.0
 40
5.0
 40
5.0
 40
5.0
 40
5.0
 10
210.407946204908
 20
257.1969052270173
 30
0.0
 10
209.0765437852314
 20
258.6496189784598
 30
0.0
 10
207.6900208242002
 20
260.0516847545569
 30
0.0
 10
206.2534702606054
 20
261.4004532810127
 30
0.0
 10
204.8164585942811
 20
262.7496547339882
 30
0.0
 10
203.3293872046022
 20
264.0455247172148
 30
0.0
 10
201.7973337068008
 20
265.2858159341534
 30
0.0
 10
198.5817898449988
 20
267.8889957938711
 30
0.0
 10
195.1680929066008
 20
270.2473426746222
 30
0.0
 10
191.5903372742882
 20
272.3249714375347
 30
0.0
 10
188.191658432022
 20
274.2986090037267
 30
0.0
 10
184.644933085366
 20
276.0189266447619
 30
0.0
 10
180.9813035476423
 20
277.4410023463938
 30
0.0
 10
177.5182980586524
 20
278.7852037482435
 30
0.0
 10
173.9508413928712
 20
279.8629329111217
 30
0.0
 10
170.3195380856752
 20
280.6459751040019
 30
0.0
  0
ENDBLK
  5
232
330
22F
100
AcDbEntity
  8
0
100
AcDbBlockEnd
  0
BLOCK
  5
236
330
234
100
AcDbEntity
  8
0
100
AcDbBlockBegin
  2
block 91
 70
     0
 10
0.0
 20
0.0
 30
0.0
  3
block 91
  1

  0
SPLINE
  5
238
330
234
100
AcDbEntity
  8
0
 62
   179
420
  1842203
370
    25
100
AcDbSpline
210
0.0
220
0.0
230
1.0
 70
     8
 71
     3
 72
     8
 73
     4
 74
     0
 42
0.0000000001
 43
0.0000000001
 12
1.0
 22
0.0
 32
0.0
 13
1.0
 23
0.0
 33
0.0
 40
0.0
 40
0.0
 40
0.0
 40
0.0
 40
1.0
 40
1.0
 40
1.0
 40
1.0
 10
189.2621768137995
 20
273.6197434893103
 30
0.0
 10
195.6510038349357
 20
270.1808371908462
 30
0.0
 10
201.4690689123113
 20
265.9559401159029
 30
0.0
 10
206.7163720459289
 20
260.9450522644803
 30
0.0
  0
ENDBLK
  5
237
330
234
100
AcDbEntity
  8
0
100
AcDbBlockEnd
  0
BLOCK
  5
23B
330
239
100
AcDbEntity
  8
0
100
AcDbBlockBegin
  2
block 92
 70
     0
 10
0.0
 20
0.0
 30
0.0
  3
block 92
  1

  0
SPLINE
  5
23D
330
239
100
AcDbEntity
  8
0
 62
   179
420
  1842203
370
    25
100
AcDbSpline
210
0.0
220
0.0
230
1.0
 70
     8
 71
     3
 72
    68
 73
    64
 74
     0
 42
0.0000000001
 43
0.0000000001
 12
1.0
 22
0.0
 32
0.0
 13
1.0
 23
0.0
 33
0.0
 40
0.0
 40
0.0
 40
0.0
 40
0.0
 40
1.0
 40
1.0
 40
1.0
 40
2.0
 40
2.0
 40
2.0
 40
3.0
 40
3.0
 40
3.0
 40
4.0
 40
4.0
 40
4.0
 40
5.0
 40
5.0
 40
5.0
 40
6.0
 40
6.0
 40
6.0
 40
7.0
 40
7.0
 40
7.0
 40
8.0
 40
8.0
 40
8.0
 40
9.0
 40
9.0
 40
9.0
 40
10.0
 40
10.0
 40
10.0
 40
11.0
 40
11.0
 40
11.0
 40
12.0
 40
12.0
 40
12.0
 40
13.0
 40
13.0
 40
13.0
 40
14.0
 40
14.0
 40
14.0
 40
15.0
 40
15.0
 40
15.0
 40
16.0
 40
16.0
 40
16.0
 40
17.0
 40
17.0
 40
17.0
 40
18.0
 40
18.0
 40
18.0
 40
19.0
 40
19.0
 40
19.0
 40
20.0
 40
20.0
 40
20.0
 40
21.0
 40
21.0
 40
21.0
 40
21.0
 10
-88.9992806038252
 20
148.695833870548
 30
0.0
 10
-88.99854906706977
 20
153.0282014518331
 30
0.0
 10
-88.99389244979285
 20
157.3605327599326
 30
0.0
 10
-88.98732681776485
 20
161.692921130052
 30
0.0
 10
-88.98558806346219
 20
162.8402530104982
 30
0.0
 10
-88.98371542393485
 20
163.9875888928895
 30
0.0
 10
-88.97326041965887
 20
165.1348455998532
 30
0.0
 10
-88.9515011448062
 20
167.5225513679162
 30
0.0
 10
-88.89256717834776
 20
169.9099141860019
 30
0.0
 10
-88.79283449562155
 20
172.2956859858242
 30
0.0
 10
-88.55016384837094
 20
178.1007718515119
 30
0.0
 10
-88.06594378476277
 20
183.8964380695246
 30
0.0
 10
-87.30221865471536
 20
189.6562904089448
 30
0.0
 10
-86.53718909870004
 20
195.4259804512612
 30
0.0
 10
-85.49169888369559
 20
201.1597341718561
 30
0.0
 10
-84.1076369988143
 20
206.8128983075082
 30
0.0
 10
-82.79808063112407
 20
212.1617466301919
 30
0.0
 10
-81.18542282953
 20
217.4384482822334
 30
0.0
 10
-79.21023866912289
 20
222.579030254912
 30
0.0
 10
-77.38786741735795
 20
227.3219038522843
 30
0.0
 10
-75.25689460918863
 20
231.9489051995639
 30
0.0
 10
-72.76634304565106
 20
236.3773490242344
 30
0.0
 10
-70.39953521429011
 20
240.5857644123905
 30
0.0
 10
-67.70799249862458
 20
244.6148628826987
 30
0.0
 10
-64.67298022188956
 20
248.3698321121164
 30
0.0
 10
-61.85448298895206
 20
251.8569252168199
 30
0.0
 10
-58.73977380519928
 20
255.1076062302542
 30
0.0
 10
-55.35175151936516
 20
258.044067240485
 30
0.0
 10
-51.92153862159444
 20
261.0170956273485
 30
0.0
 10
-48.211163171162
 20
263.6680293999302
 30
0.0
 10
-44.29240342611404
 20
265.9595282388496
 30
0.0
 10
-41.21466998162538
 20
267.7592360733197
 30
0.0
 10
-38.00839907656298
 20
269.3372340438058
 30
0.0
 10
-34.71463712985342
 20
270.7020923689842
 30
0.0
 10
-31.47946772907199
 20
272.0426713062155
 30
0.0
 10
-28.15989234684448
 20
273.1776262091604
 30
0.0
 10
-24.7908577016228
 20
274.1333418412
 30
0.0
 10
-20.8699861611676
 20
275.2456005791
 30
0.0
 10
-16.8821258645498
 20
276.1150935520971
 30
0.0
 10
-12.86366206841491
 20
276.7950588960296
 30
0.0
 10
-8.58844182020163
 20
277.5184700685399
 30
0.0
 10
-4.278582363653965
 20
278.0273604466477
 30
0.0
 10
0.0420067617777986
 20
278.3936475625478
 30
0.0
 10
3.101072790990182
 20
278.6529863796943
 30
0.0
 10
6.165517529668995
 20
278.8408391590073
 30
0.0
 10
9.232226403569028
 20
278.9815612273495
 30
0.0
 10
12.2722108251681
 20
279.1210569907686
 30
0.0
 10
15.31442009288215
 20
279.2142398935067
 30
0.0
 10
18.35683980184878
 20
279.2849960243172
 30
0.0
 10
19.86914060825857
 20
279.320166896158
 30
0.0
 10
21.3814934105533
 20
279.3497965545212
 30
0.0
 10
22.89387113173892
 20
279.3788843170798
 30
0.0
 10
28.57637061841641
 20
279.4881765881118
 30
0.0
 10
34.25922189790086
 20
279.5898186368333
 30
0.0
 10
39.94198472482191
 20
279.6938358439991
 30
0.0
 10
45.56699378892733
 20
279.7967959271363
 30
0.0
 10
51.19191618920478
 20
279.9020831366872
 30
0.0
 10
56.8168291013735
 20
280.0081523841369
 30
0.0
 10
68.49456411528473
 20
280.228359982751
 30
0.0
 10
80.17225823463573
 20
280.4519382295284
 30
0.0
 10
91.8498495594235
 20
280.6808467390196
 30
0.0
 10
106.2962379109712
 20
280.9640302426239
 30
0.0
 10
120.742468943148
 20
281.2553713130612
 30
0.0
 10
135.1880050636562
 20
281.5791611184897
 30
0.0
  0
ENDBLK
  5
23C
330
239
100
AcDbEntity
  8
0
100
AcDbBlockEnd
  0
BLOCK
  5
240
330
23E
100
AcDbEntity
  8
0
100
AcDbBlockBegin
  2
block 93
 70
     0
 10
0.0
 20
0.0
 30
0.0
  3
block 93
  1

  0
SPLINE
  5
242
330
23E
100
AcDbEntity
  8
0
 62
   179
420
  1842203
370
    25
100
AcDbSpline
210
0.0
220
0.0
230
1.0
 70
     8
 71
     3
 72
     8
 73
     4
 74
     0
 42
0.0000000001
 43
0.0000000001
 12
1.0
 22
0.0
 32
0.0
 13
1.0
 23
0.0
 33
0.0
 40
0.0
 40
0.0
 40
0.0
 40
0.0
 40
1.0
 40
1.0
 40
1.0
 40
1.0
 10
53.28367754930146
 20
148.6958368093788
 30
0.0
 10
53.28266832106986
 20
149.3625205459542
 30
0.0
 10
53.28496843506255
 20
150.0291928648248
 30
0.0
 10
53.29057789128885
 20
150.6958537660039
 30
0.0
  0
ENDBLK
  5
241
330
23E
100
AcDbEntity
  8
0
100
AcDbBlockEnd
  0
BLOCK
  5
245
330
243
100
AcDbEntity
  8
0
100
AcDbBlockBegin
  2
block 94
 70
     0
 10
0.0
 20
0.0
 30
0.0
  3
block 94
  1

  0
SPLINE
  5
247
330
243
100
AcDbEntity
  8
0
 62
   179
420
  1842203
370
    25
100
AcDbSpline
210
0.0
220
0.0
230
1.0
 70
     8
 71
     3
 72
     8
 73
     4
 74
     0
 42
0.0000000001
 43
0.0000000001
 12
1.0
 22
0.0
 32
0.0
 13
1.0
 23
0.0
 33
0.0
 40
0.0
 40
0.0
 40
0.0
 40
0.0
 40
1.0
 40
1.0
 40
1.0
 40
1.0
 10
80.1280458482794
 20
148.6958331846674
 30
0.0
 10
80.12505759230656
 20
149.3625091724502
 30
0.0
 10
80.12550684822135
 20
150.0291828437792
 30
0.0
 10
80.12939361602406
 20
150.6958541986477
 30
0.0
  0
ENDBLK
  5
246
330
243
100
AcDbEntity
  8
0
100
AcDbBlockEnd
  0
BLOCK
  5
24A
330
248
100
AcDbEntity
  8
0
100
AcDbBlockBegin
  2
block 95
 70
     0
 10
0.0
 20
0.0
 30
0.0
  3
block 95
  1

  0
SPLINE
  5
24C
330
248
100
AcDbEntity
  8
0
 62
   179
420
  1842203
370
    25
100
AcDbSpline
210
0.0
220
0.0
230
1.0
 70
     8
 71
     3
 72
     8
 73
     4
 74
     0
 42
0.0000000001
 43
0.0000000001
 12
1.0
 22
0.0
 32
0.0
 13
1.0
 23
0.0
 33
0.0
 40
0.0
 40
0.0
 40
0.0
 40
0.0
 40
1.0
 40
1.0
 40
1.0
 40
1.0
 10
235.5772973016586
 20
148.6958332963018
 30
0.0
 10
235.577226880082
 20
158.6845708325668
 30
0.0
 10
235.1496618739187
 20
168.6549759417453
 30
0.0
 10
234.2946022831718
 20
178.6070486238409
 30
0.0
  0
ENDBLK
  5
24B
330
248
100
AcDbEntity
  8
0
100
AcDbBlockEnd
  0
BLOCK
  5
24F
330
24D
100
AcDbEntity
  8
0
100
AcDbBlockBegin
  2
block 96
 70
     0
 10
0.0
 20
0.0
 30
0.0
  3
block 96
  1

  0
SPLINE
  5
251
330
24D
100
AcDbEntity
  8
0
 62
   179
420
  1842203
370
    25
100
AcDbSpline
210
0.0
220
0.0
230
1.0
 70
    11
 71
     3
 72
    17
 73
    13
 74
     0
 42
0.0000000001
 43
0.0000000001
 12
1.0
 22
0.0
 32
0.0
 13
1.0
 23
0.0
 33
0.0
 40
0.0
 40
0.0
 40
0.0
 40
0.0
 40
1.0
 40
1.0
 40
1.0
 40
2.0
 40
2.0
 40
2.0
 40
3.0
 40
3.0
 40
3.0
 40
4.0
 40
4.0
 40
4.0
 40
4.0
 10
267.201156356802
 20
13.1115038077774
 30
0.0
 10
267.201156356802
 20
17.72108757139361
 30
0.0
 10
270.9378303400695
 20
21.45733091342799
 30
0.0
 10
275.5465528212189
 20
21.45733091342799
 30
0.0
 10
280.155705943602
 20
21.45733091342799
 30
0.0
 10
283.8919492856357
 20
17.72108757139361
 30
0.0
 10
283.8919492856357
 20
13.1115038077774
 30
0.0
 10
283.8919492856357
 20
8.502781326628066
 30
0.0
 10
280.155705943602
 20
4.766537984594329
 30
0.0
 10
275.5465528212189
 20
4.766537984594329
 30
0.0
 10
270.9378303400695
 20
4.766537984594329
 30
0.0
 10
267.201156356802
 20
8.502781326628066
 30
0.0
 10
267.201156356802
 20
13.1115038077774
 30
0.0
  0
ENDBLK
  5
250
330
24D
100
AcDbEntity
  8
0
100
AcDbBlockEnd
  0
BLOCK
  5
254
330
252
100
AcDbEntity
  8
0
100
AcDbBlockBegin
  2
block 97
 70
     0
 10
0.0
 20
0.0
 30
0.0
  3
block 97
  1

  0
POLYLINE
  5
256
330
252
100
AcDbEntity
  8
0
 62
     4
420
    65535
370
    25
100
AcDb2dPolyline
 66
     1
 10
0.0
 20
0.0
 30
0.0
  0
VERTEX
  5
257
330
256
100
AcDbEntity
  8
0
 62
     4
420
    65535
370
    25
100
AcDbVertex
100
AcDb2dVertex
 10
253.9292207432381
 20
13.11150956048288
 30
0.0
  0
VERTEX
  5
258
330
256
100
AcDbEntity
  8
0
 62
     4
420
    65535
370
    25
100
AcDbVertex
100
AcDb2dVertex
 10
265.1793092414022
 20
13.11150956048288
 30
0.0
  0
SEQEND
  5
259
330
256
100
AcDbEntity
  8
0
 62
     4
420
    65535
370
    25
  0
ENDBLK
  5
255
330
252
100
AcDbEntity
  8
0
100
AcDbBlockEnd
  0
BLOCK
  5
25C
330
25A
100
AcDbEntity
  8
0
100
AcDbBlockBegin
  2
block 98
 70
     0
 10
0.0
 20
0.0
 30
0.0
  3
block 98
  1

  0
POLYLINE
  5
25E
330
25A
100
AcDbEntity
  8
0
  6
AI-Linetype-1
 62
     4
420
    65535
370
    25
100
AcDb2dPolyline
 66
     1
 10
0.0
 20
0.0
 30
0.0
  0
VERTEX
  5
25F
330
25E
100
AcDbEntity
  8
0
  6
AI-Linetype-1
 62
     4
420
    65535
370
    25
100
AcDbVertex
100
AcDb2dVertex
 10
272.2314842952489
 20
13.11150956048288
 30
0.0
  0
VERTEX
  5
260
330
25E
100
AcDbEntity
  8
0
  6
AI-Linetype-1
 62
     4
420
    65535
370
    25
100
AcDbVertex
100
AcDb2dVertex
 10
282.8097361100957
 20
13.11150956048288
 30
0.0
  0
SEQEND
  5
262
330
25E
100
AcDbEntity
  8
0
  6
AI-Linetype-1
 62
     4
420
    65535
370
    25
  0
ENDBLK
  5
25D
330
25A
100
AcDbEntity
  8
0
100
AcDbBlockEnd
  0
BLOCK
  5
265
330
263
100
AcDbEntity
  8
0
100
AcDbBlockBegin
  2
block 99
 70
     0
 10
0.0
 20
0.0
 30
0.0
  3
block 99
  1

  0
POLYLINE
  5
267
330
263
100
AcDbEntity
  8
0
 62
     4
420
    65535
370
    25
100
AcDb2dPolyline
 66
     1
 10
0.0
 20
0.0
 30
0.0
  0
VERTEX
  5
268
330
267
100
AcDbEntity
  8
0
 62
     4
420
    65535
370
    25
100
AcDbVertex
100
AcDb2dVertex
 10
286.3358344029425
 20
13.11150956048288
 30
0.0
  0
VERTEX
  5
269
330
267
100
AcDbEntity
  8
0
 62
     4
420
    65535
370
    25
100
AcDbVertex
100
AcDb2dVertex
 10
297.5859013692598
 20
13.11150956048288
 30
0.0
  0
SEQEND
  5
26A
330
267
100
AcDbEntity
  8
0
 62
     4
420
    65535
370
    25
  0
ENDBLK
  5
266
330
263
100
AcDbEntity
  8
0
100
AcDbBlockEnd
  0
BLOCK
  5
26D
330
26B
100
AcDbEntity
  8
0
100
AcDbBlockBegin
  2
block 100
 70
     0
 10
0.0
 20
0.0
 30
0.0
  3
block 100
  1

  0
POLYLINE
  5
26F
330
26B
100
AcDbEntity
  8
0
 62
     4
420
    65535
370
    25
100
AcDb2dPolyline
 66
     1
 10
0.0
 20
0.0
 30
0.0
  0
VERTEX
  5
270
330
26F
100
AcDbEntity
  8
0
 62
     4
420
    65535
370
    25
100
AcDbVertex
100
AcDb2dVertex
 10
275.7291390184956
 20
-8.68840871477461
 30
0.0
  0
VERTEX
  5
271
330
26F
100
AcDbEntity
  8
0
 62
     4
420
    65535
370
    25
100
AcDbVertex
100
AcDb2dVertex
 10
275.7291390184956
 20
2.561658251542648
 30
0.0
  0
SEQEND
  5
272
330
26F
100
AcDbEntity
  8
0
 62
     4
420
    65535
370
    25
  0
ENDBLK
  5
26E
330
26B
100
AcDbEntity
  8
0
100
AcDbBlockEnd
  0
BLOCK
  5
275
330
273
100
AcDbEntity
  8
0
100
AcDbBlockBegin
  2
block 101
 70
     0
 10
0.0
 20
0.0
 30
0.0
  3
block 101
  1

  0
POLYLINE
  5
277
330
273
100
AcDbEntity
  8
0
  6
AI-Linetype-2
 62
     4
420
    65535
370
    25
100
AcDb2dPolyline
 66
     1
 10
0.0
 20
0.0
 30
0.0
  0
VERTEX
  5
278
330
277
100
AcDbEntity
  8
0
  6
AI-Linetype-2
 62
     4
420
    65535
370
    25
100
AcDbVertex
100
AcDb2dVertex
 10
275.7291390184956
 20
9.613833305389413
 30
0.0
  0
VERTEX
  5
279
330
277
100
AcDbEntity
  8
0
  6
AI-Linetype-2
 62
     4
420
    65535
370
    25
100
AcDbVertex
100
AcDb2dVertex
 10
275.7291390184956
 20
20.19210665208295
 30
0.0
  0
SEQEND
  5
27B
330
277
100
AcDbEntity
  8
0
  6
AI-Linetype-2
 62
     4
420
    65535
370
    25
  0
ENDBLK
  5
276
330
273
100
AcDbEntity
  8
0
100
AcDbBlockEnd
  0
BLOCK
  5
27E
330
27C
100
AcDbEntity
  8
0
100
AcDbBlockBegin
  2
block 102
 70
     0
 10
0.0
 20
0.0
 30
0.0
  3
block 102
  1

  0
POLYLINE
  5
280
330
27C
100
AcDbEntity
  8
0
 62
     4
420
    65535
370
    25
100
AcDb2dPolyline
 66
     1
 10
0.0
 20
0.0
 30
0.0
  0
VERTEX
  5
281
330
280
100
AcDbEntity
  8
0
 62
     4
420
    65535
370
    25
100
AcDbVertex
100
AcDb2dVertex
 10
275.7291390184956
 20
23.71818341308294
 30
0.0
  0
VERTEX
  5
282
330
280
100
AcDbEntity
  8
0
 62
     4
420
    65535
370
    25
100
AcDbVertex
100
AcDb2dVertex
 10
275.7291390184956
 20
34.96827191124699
 30
0.0
  0
SEQEND
  5
283
330
280
100
AcDbEntity
  8
0
 62
     4
420
    65535
370
    25
  0
ENDBLK
  5
27F
330
27C
100
AcDbEntity
  8
0
100
AcDbBlockEnd
  0
BLOCK
  5
286
330
284
100
AcDbEntity
  8
0
100
AcDbBlockBegin
  2
block 103
 70
     0
 10
0.0
 20
0.0
 30
0.0
  3
block 103
  1

  0
SPLINE
  5
288
330
284
100
AcDbEntity
  8
0
 62
   179
420
  1842203
370
    25
100
AcDbSpline
210
0.0
220
0.0
230
1.0
 70
    11
 71
     3
 72
    17
 73
    13
 74
     0
 42
0.0000000001
 43
0.0000000001
 12
1.0
 22
0.0
 32
0.0
 13
1.0
 23
0.0
 33
0.0
 40
0.0
 40
0.0
 40
0.0
 40
0.0
 40
1.0
 40
1.0
 40
1.0
 40
2.0
 40
2.0
 40
2.0
 40
3.0
 40
3.0
 40
3.0
 40
4.0
 40
4.0
 40
4.0
 40
4.0
 10
267.201156356802
 20
283.4136158342337
 30
0.0
 10
267.201156356802
 20
288.02319959785
 30
0.0
 10
270.9378303400695
 20
291.7594429398843
 30
0.0
 10
275.5465528212189
 20
291.7594429398843
 30
0.0
 10
280.155705943602
 20
291.7594429398843
 30
0.0
 10
283.8919492856357
 20
288.02319959785
 30
0.0
 10
283.8919492856357
 20
283.4136158342337
 30
0.0
 10
283.8919492856357
 20
278.8048933530847
 30
0.0
 10
280.155705943602
 20
275.0686500110507
 30
0.0
 10
275.5465528212189
 20
275.0686500110507
 30
0.0
 10
270.9378303400695
 20
275.0686500110507
 30
0.0
 10
267.201156356802
 20
278.8048933530847
 30
0.0
 10
267.201156356802
 20
283.4136158342337
 30
0.0
  0
ENDBLK
  5
287
330
284
100
AcDbEntity
  8
0
100
AcDbBlockEnd
  0
BLOCK
  5
28B
330
289
100
AcDbEntity
  8
0
100
AcDbBlockBegin
  2
block 104
 70
     0
 10
0.0
 20
0.0
 30
0.0
  3
block 104
  1

  0
POLYLINE
  5
28D
330
289
100
AcDbEntity
  8
0
 62
     4
420
    65535
370
    25
100
AcDb2dPolyline
 66
     1
 10
0.0
 20
0.0
 30
0.0
  0
VERTEX
  5
28E
330
28D
100
AcDbEntity
  8
0
 62
     4
420
    65535
370
    25
100
AcDbVertex
100
AcDb2dVertex
 10
253.9292207432381
 20
283.4136158786682
 30
0.0
  0
VERTEX
  5
28F
330
28D
100
AcDbEntity
  8
0
 62
     4
420
    65535
370
    25
100
AcDbVertex
100
AcDb2dVertex
 10
265.1793092414022
 20
283.4136158786682
 30
0.0
  0
SEQEND
  5
290
330
28D
100
AcDbEntity
  8
0
 62
     4
420
    65535
370
    25
  0
ENDBLK
  5
28C
330
289
100
AcDbEntity
  8
0
100
AcDbBlockEnd
  0
BLOCK
  5
293
330
291
100
AcDbEntity
  8
0
100
AcDbBlockBegin
  2
block 105
 70
     0
 10
0.0
 20
0.0
 30
0.0
  3
block 105
  1

  0
POLYLINE
  5
295
330
291
100
AcDbEntity
  8
0
  6
AI-Linetype-3
 62
     4
420
    65535
370
    25
100
AcDb2dPolyline
 66
     1
 10
0.0
 20
0.0
 30
0.0
  0
VERTEX
  5
296
330
295
100
AcDbEntity
  8
0
  6
AI-Linetype-3
 62
     4
420
    65535
370
    25
100
AcDbVertex
100
AcDb2dVertex
 10
272.2314842952489
 20
283.4136158786682
 30
0.0
  0
VERTEX
  5
297
330
295
100
AcDbEntity
  8
0
  6
AI-Linetype-3
 62
     4
420
    65535
370
    25
100
AcDbVertex
100
AcDb2dVertex
 10
282.8097361100957
 20
283.4136158786682
 30
0.0
  0
SEQEND
  5
299
330
295
100
AcDbEntity
  8
0
  6
AI-Linetype-3
 62
     4
420
    65535
370
    25
  0
ENDBLK
  5
294
330
291
100
AcDbEntity
  8
0
100
AcDbBlockEnd
  0
BLOCK
  5
29C
330
29A
100
AcDbEntity
  8
0
100
AcDbBlockBegin
  2
block 106
 70
     0
 10
0.0
 20
0.0
 30
0.0
  3
block 106
  1

  0
POLYLINE
  5
29E
330
29A
100
AcDbEntity
  8
0
 62
     4
420
    65535
370
    25
100
AcDb2dPolyline
 66
     1
 10
0.0
 20
0.0
 30
0.0
  0
VERTEX
  5
29F
330
29E
100
AcDbEntity
  8
0
 62
     4
420
    65535
370
    25
100
AcDbVertex
100
AcDb2dVertex
 10
286.3358344029425
 20
283.4136158786682
 30
0.0
  0
VERTEX
  5
2A0
330
29E
100
AcDbEntity
  8
0
 62
     4
420
    65535
370
    25
100
AcDbVertex
100
AcDb2dVertex
 10
297.5859013692598
 20
283.4136158786682
 30
0.0
  0
SEQEND
  5
2A1
330
29E
100
AcDbEntity
  8
0
 62
     4
420
    65535
370
    25
  0
ENDBLK
  5
29D
330
29A
100
AcDbEntity
  8
0
100
AcDbBlockEnd
  0
BLOCK
  5
2A4
330
2A2
100
AcDbEntity
  8
0
100
AcDbBlockBegin
  2
block 107
 70
     0
 10
0.0
 20
0.0
 30
0.0
  3
block 107
  1

  0
POLYLINE
  5
2A6
330
2A2
100
AcDbEntity
  8
0
 62
     4
420
    65535
370
    25
100
AcDb2dPolyline
 66
     1
 10
0.0
 20
0.0
 30
0.0
  0
VERTEX
  5
2A7
330
2A6
100
AcDbEntity
  8
0
 62
     4
420
    65535
370
    25
100
AcDbVertex
100
AcDb2dVertex
 10
275.7291390184956
 20
261.6136942390597
 30
0.0
  0
VERTEX
  5
2A8
330
2A6
100
AcDbEntity
  8
0
 62
     4
420
    65535
370
    25
100
AcDbVertex
100
AcDb2dVertex
 10
275.7291390184956
 20
272.8637787000024
 30
0.0
  0
SEQEND
  5
2A9
330
2A6
100
AcDbEntity
  8
0
 62
     4
420
    65535
370
    25
  0
ENDBLK
  5
2A5
330
2A2
100
AcDbEntity
  8
0
100
AcDbBlockEnd
  0
BLOCK
  5
2AC
330
2AA
100
AcDbEntity
  8
0
100
AcDbBlockBegin
  2
block 108
 70
     0
 10
0.0
 20
0.0
 30
0.0
  3
block 108
  1

  0
POLYLINE
  5
2AE
330
2AA
100
AcDbEntity
  8
0
  6
AI-Linetype-4
 62
     4
420
    65535
370
    25
100
AcDb2dPolyline
 66
     1
 10
0.0
 20
0.0
 30
0.0
  0
VERTEX
  5
2AF
330
2AE
100
AcDbEntity
  8
0
  6
AI-Linetype-4
 62
     4
420
    65535
370
    25
100
AcDbVertex
100
AcDb2dVertex
 10
275.7291390184956
 20
279.9159510623683
 30
0.0
  0
VERTEX
  5
2B0
330
2AE
100
AcDbEntity
  8
0
  6
AI-Linetype-4
 62
     4
420
    65535
370
    25
100
AcDbVertex
100
AcDb2dVertex
 10
275.7291390184956
 20
290.4942112880927
 30
0.0
  0
SEQEND
  5
2B2
330
2AE
100
AcDbEntity
  8
0
  6
AI-Linetype-4
 62
     4
420
    65535
370
    25
  0
ENDBLK
  5
2AD
330
2AA
100
AcDbEntity
  8
0
100
AcDbBlockEnd
  0
BLOCK
  5
2B5
330
2B3
100
AcDbEntity
  8
0
100
AcDbBlockBegin
  2
block 109
 70
     0
 10
0.0
 20
0.0
 30
0.0
  3
block 109
  1

  0
POLYLINE
  5
2B7
330
2B3
100
AcDbEntity
  8
0
 62
     4
420
    65535
370
    25
100
AcDb2dPolyline
 66
     1
 10
0.0
 20
0.0
 30
0.0
  0
VERTEX
  5
2B8
330
2B7
100
AcDbEntity
  8
0
 62
     4
420
    65535
370
    25
100
AcDbVertex
100
AcDb2dVertex
 10
275.7291390184956
 20
294.0202978898196
 30
0.0
  0
VERTEX
  5
2B9
330
2B7
100
AcDbEntity
  8
0
 62
     4
420
    65535
370
    25
100
AcDbVertex
100
AcDb2dVertex
 10
275.7291390184956
 20
305.2703815937834
 30
0.0
  0
SEQEND
  5
2BA
330
2B7
100
AcDbEntity
  8
0
 62
     4
420
    65535
370
    25
  0
ENDBLK
  5
2B6
330
2B3
100
AcDbEntity
  8
0
100
AcDbBlockEnd
  0
ENDSEC
  0
SECTION
  2
ENTITIES
  0
INSERT
  5
41
330
1F
100
AcDbEntity
  8
0
100
AcDbBlockReference
  2
block 2
 10
0.0
 20
0.0
 30
0.0
  0
INSERT
  5
46
330
1F
100
AcDbEntity
  8
0
100
AcDbBlockReference
  2
block 3
 10
0.0
 20
0.0
 30
0.0
  0
INSERT
  5
4F
330
1F
100
AcDbEntity
  8
0
100
AcDbBlockReference
  2
block 4
 10
0.0
 20
0.0
 30
0.0
  0
INSERT
  5
54
330
1F
100
AcDbEntity
  8
0
100
AcDbBlockReference
  2
block 5
 10
0.0
 20
0.0
 30
0.0
  0
INSERT
  5
5B
330
1F
100
AcDbEntity
  8
0
100
AcDbBlockReference
  2
block 6
 10
0.0
 20
0.0
 30
0.0
  0
INSERT
  5
60
330
1F
100
AcDbEntity
  8
0
100
AcDbBlockReference
  2
block 7
 10
0.0
 20
0.0
 30
0.0
  0
INSERT
  5
68
330
1F
100
AcDbEntity
  8
0
100
AcDbBlockReference
  2
block 8
 10
0.0
 20
0.0
 30
0.0
  0
INSERT
  5
77
330
1F
100
AcDbEntity
  8
0
100
AcDbBlockReference
  2
block 9
 10
0.0
 20
0.0
 30
0.0
  0
INSERT
  5
7C
330
1F
100
AcDbEntity
  8
0
100
AcDbBlockReference
  2
block 10
 10
0.0
 20
0.0
 30
0.0
  0
INSERT
  5
81
330
1F
100
AcDbEntity
  8
0
100
AcDbBlockReference
  2
block 11
 10
0.0
 20
0.0
 30
0.0
  0
INSERT
  5
86
330
1F
100
AcDbEntity
  8
0
100
AcDbBlockReference
  2
block 12
 10
0.0
 20
0.0
 30
0.0
  0
INSERT
  5
8B
330
1F
100
AcDbEntity
  8
0
100
AcDbBlockReference
  2
block 13
 10
0.0
 20
0.0
 30
0.0
  0
INSERT
  5
90
330
1F
100
AcDbEntity
  8
0
100
AcDbBlockReference
  2
block 14
 10
0.0
 20
0.0
 30
0.0
  0
INSERT
  5
95
330
1F
100
AcDbEntity
  8
0
100
AcDbBlockReference
  2
block 15
 10
0.0
 20
0.0
 30
0.0
  0
INSERT
  5
9D
330
1F
100
AcDbEntity
  8
0
100
AcDbBlockReference
  2
block 16
 10
0.0
 20
0.0
 30
0.0
  0
INSERT
  5
AC
330
1F
100
AcDbEntity
  8
0
100
AcDbBlockReference
  2
block 17
 10
0.0
 20
0.0
 30
0.0
  0
INSERT
  5
B1
330
1F
100
AcDbEntity
  8
0
100
AcDbBlockReference
  2
block 18
 10
0.0
 20
0.0
 30
0.0
  0
INSERT
  5
B9
330
1F
100
AcDbEntity
  8
0
100
AcDbBlockReference
  2
block 19
 10
0.0
 20
0.0
 30
0.0
  0
INSERT
  5
BE
330
1F
100
AcDbEntity
  8
0
100
AcDbBlockReference
  2
block 20
 10
0.0
 20
0.0
 30
0.0
  0
INSERT
  5
C3
330
1F
100
AcDbEntity
  8
0
100
AcDbBlockReference
  2
block 21
 10
0.0
 20
0.0
 30
0.0
  0
INSERT
  5
C8
330
1F
100
AcDbEntity
  8
0
100
AcDbBlockReference
  2
block 22
 10
0.0
 20
0.0
 30
0.0
  0
INSERT
  5
CD
330
1F
100
AcDbEntity
  8
0
100
AcDbBlockReference
  2
block 23
 10
0.0
 20
0.0
 30
0.0
  0
INSERT
  5
D2
330
1F
100
AcDbEntity
  8
0
100
AcDbBlockReference
  2
block 24
 10
0.0
 20
0.0
 30
0.0
  0
INSERT
  5
D7
330
1F
100
AcDbEntity
  8
0
100
AcDbBlockReference
  2
block 25
 10
0.0
 20
0.0
 30
0.0
  0
INSERT
  5
DC
330
1F
100
AcDbEntity
  8
0
100
AcDbBlockReference
  2
block 26
 10
0.0
 20
0.0
 30
0.0
  0
INSERT
  5
E1
330
1F
100
AcDbEntity
  8
0
100
AcDbBlockReference
  2
block 27
 10
0.0
 20
0.0
 30
0.0
  0
INSERT
  5
E6
330
1F
100
AcDbEntity
  8
0
100
AcDbBlockReference
  2
block 28
 10
0.0
 20
0.0
 30
0.0
  0
INSERT
  5
EB
330
1F
100
AcDbEntity
  8
0
100
AcDbBlockReference
  2
block 29
 10
0.0
 20
0.0
 30
0.0
  0
INSERT
  5
F0
330
1F
100
AcDbEntity
  8
0
100
AcDbBlockReference
  2
block 30
 10
0.0
 20
0.0
 30
0.0
  0
INSERT
  5
F5
330
1F
100
AcDbEntity
  8
0
100
AcDbBlockReference
  2
block 31
 10
0.0
 20
0.0
 30
0.0
  0
INSERT
  5
FD
330
1F
100
AcDbEntity
  8
0
100
AcDbBlockReference
  2
block 32
 10
0.0
 20
0.0
 30
0.0
  0
INSERT
  5
102
330
1F
100
AcDbEntity
  8
0
100
AcDbBlockReference
  2
block 33
 10
0.0
 20
0.0
 30
0.0
  0
INSERT
  5
107
330
1F
100
AcDbEntity
  8
0
100
AcDbBlockReference
  2
block 34
 10
0.0
 20
0.0
 30
0.0
  0
INSERT
  5
10C
330
1F
100
AcDbEntity
  8
0
100
AcDbBlockReference
  2
block 35
 10
0.0
 20
0.0
 30
0.0
  0
INSERT
  5
111
330
1F
100
AcDbEntity
  8
0
100
AcDbBlockReference
  2
block 36
 10
0.0
 20
0.0
 30
0.0
  0
INSERT
  5
116
330
1F
100
AcDbEntity
  8
0
100
AcDbBlockReference
  2
block 37
 10
0.0
 20
0.0
 30
0.0
  0
INSERT
  5
11B
330
1F
100
AcDbEntity
  8
0
100
AcDbBlockReference
  2
block 38
 10
0.0
 20
0.0
 30
0.0
  0
INSERT
  5
120
330
1F
100
AcDbEntity
  8
0
100
AcDbBlockReference
  2
block 39
 10
0.0
 20
0.0
 30
0.0
  0
INSERT
  5
125
330
1F
100
AcDbEntity
  8
0
100
AcDbBlockReference
  2
block 40
 10
0.0
 20
0.0
 30
0.0
  0
INSERT
  5
12A
330
1F
100
AcDbEntity
  8
0
100
AcDbBlockReference
  2
block 41
 10
0.0
 20
0.0
 30
0.0
  0
INSERT
  5
12F
330
1F
100
AcDbEntity
  8
0
100
AcDbBlockReference
  2
block 42
 10
0.0
 20
0.0
 30
0.0
  0
INSERT
  5
134
330
1F
100
AcDbEntity
  8
0
100
AcDbBlockReference
  2
block 43
 10
0.0
 20
0.0
 30
0.0
  0
INSERT
  5
13C
330
1F
100
AcDbEntity
  8
0
100
AcDbBlockReference
  2
block 44
 10
0.0
 20
0.0
 30
0.0
  0
INSERT
  5
141
330
1F
100
AcDbEntity
  8
0
100
AcDbBlockReference
  2
block 45
 10
0.0
 20
0.0
 30
0.0
  0
INSERT
  5
146
330
1F
100
AcDbEntity
  8
0
100
AcDbBlockReference
  2
block 46
 10
0.0
 20
0.0
 30
0.0
  0
INSERT
  5
14B
330
1F
100
AcDbEntity
  8
0
100
AcDbBlockReference
  2
block 47
 10
0.0
 20
0.0
 30
0.0
  0
INSERT
  5
150
330
1F
100
AcDbEntity
  8
0
100
AcDbBlockReference
  2
block 48
 10
0.0
 20
0.0
 30
0.0
  0
INSERT
  5
155
330
1F
100
AcDbEntity
  8
0
100
AcDbBlockReference
  2
block 49
 10
0.0
 20
0.0
 30
0.0
  0
INSERT
  5
15A
330
1F
100
AcDbEntity
  8
0
100
AcDbBlockReference
  2
block 50
 10
0.0
 20
0.0
 30
0.0
  0
INSERT
  5
15F
330
1F
100
AcDbEntity
  8
0
100
AcDbBlockReference
  2
block 51
 10
0.0
 20
0.0
 30
0.0
  0
INSERT
  5
164
330
1F
100
AcDbEntity
  8
0
100
AcDbBlockReference
  2
block 52
 10
0.0
 20
0.0
 30
0.0
  0
INSERT
  5
169
330
1F
100
AcDbEntity
  8
0
100
AcDbBlockReference
  2
block 53
 10
0.0
 20
0.0
 30
0.0
  0
INSERT
  5
16E
330
1F
100
AcDbEntity
  8
0
100
AcDbBlockReference
  2
block 54
 10
0.0
 20
0.0
 30
0.0
  0
INSERT
  5
177
330
1F
100
AcDbEntity
  8
0
100
AcDbBlockReference
  2
block 55
 10
0.0
 20
0.0
 30
0.0
  0
INSERT
  5
17C
330
1F
100
AcDbEntity
  8
0
100
AcDbBlockReference
  2
block 56
 10
0.0
 20
0.0
 30
0.0
  0
INSERT
  5
181
330
1F
100
AcDbEntity
  8
0
100
AcDbBlockReference
  2
block 57
 10
0.0
 20
0.0
 30
0.0
  0
INSERT
  5
186
330
1F
100
AcDbEntity
  8
0
100
AcDbBlockReference
  2
block 58
 10
0.0
 20
0.0
 30
0.0
  0
INSERT
  5
18E
330
1F
100
AcDbEntity
  8
0
100
AcDbBlockReference
  2
block 59
 10
0.0
 20
0.0
 30
0.0
  0
INSERT
  5
193
330
1F
100
AcDbEntity
  8
0
100
AcDbBlockReference
  2
block 60
 10
0.0
 20
0.0
 30
0.0
  0
INSERT
  5
198
330
1F
100
AcDbEntity
  8
0
100
AcDbBlockReference
  2
block 61
 10
0.0
 20
0.0
 30
0.0
  0
INSERT
  5
19D
330
1F
100
AcDbEntity
  8
0
100
AcDbBlockReference
  2
block 62
 10
0.0
 20
0.0
 30
0.0
  0
INSERT
  5
1A2
330
1F
100
AcDbEntity
  8
0
100
AcDbBlockReference
  2
block 63
 10
0.0
 20
0.0
 30
0.0
  0
INSERT
  5
1A7
330
1F
100
AcDbEntity
  8
0
100
AcDbBlockReference
  2
block 64
 10
0.0
 20
0.0
 30
0.0
  0
INSERT
  5
1AC
330
1F
100
AcDbEntity
  8
0
100
AcDbBlockReference
  2
block 65
 10
0.0
 20
0.0
 30
0.0
  0
INSERT
  5
1B1
330
1F
100
AcDbEntity
  8
0
100
AcDbBlockReference
  2
block 66
 10
0.0
 20
0.0
 30
0.0
  0
INSERT
  5
1B6
330
1F
100
AcDbEntity
  8
0
100
AcDbBlockReference
  2
block 67
 10
0.0
 20
0.0
 30
0.0
  0
INSERT
  5
1BB
330
1F
100
AcDbEntity
  8
0
100
AcDbBlockReference
  2
block 68
 10
0.0
 20
0.0
 30
0.0
  0
INSERT
  5
1C0
330
1F
100
AcDbEntity
  8
0
100
AcDbBlockReference
  2
block 69
 10
0.0
 20
0.0
 30
0.0
  0
INSERT
  5
1C5
330
1F
100
AcDbEntity
  8
0
100
AcDbBlockReference
  2
block 70
 10
0.0
 20
0.0
 30
0.0
  0
INSERT
  5
1CA
330
1F
100
AcDbEntity
  8
0
100
AcDbBlockReference
  2
block 71
 10
0.0
 20
0.0
 30
0.0
  0
INSERT
  5
1CF
330
1F
100
AcDbEntity
  8
0
100
AcDbBlockReference
  2
block 72
 10
0.0
 20
0.0
 30
0.0
  0
INSERT
  5
1D4
330
1F
100
AcDbEntity
  8
0
100
AcDbBlockReference
  2
block 73
 10
0.0
 20
0.0
 30
0.0
  0
INSERT
  5
1D9
330
1F
100
AcDbEntity
  8
0
100
AcDbBlockReference
  2
block 74
 10
0.0
 20
0.0
 30
0.0
  0
INSERT
  5
1DE
330
1F
100
AcDbEntity
  8
0
100
AcDbBlockReference
  2
block 75
 10
0.0
 20
0.0
 30
0.0
  0
INSERT
  5
1E3
330
1F
100
AcDbEntity
  8
0
100
AcDbBlockReference
  2
block 76
 10
0.0
 20
0.0
 30
0.0
  0
INSERT
  5
1E8
330
1F
100
AcDbEntity
  8
0
100
AcDbBlockReference
  2
block 77
 10
0.0
 20
0.0
 30
0.0
  0
INSERT
  5
1ED
330
1F
100
AcDbEntity
  8
0
100
AcDbBlockReference
  2
block 78
 10
0.0
 20
0.0
 30
0.0
  0
INSERT
  5
1F6
330
1F
100
AcDbEntity
  8
0
100
AcDbBlockReference
  2
block 79
 10
0.0
 20
0.0
 30
0.0
  0
INSERT
  5
1FB
330
1F
100
AcDbEntity
  8
0
100
AcDbBlockReference
  2
block 80
 10
0.0
 20
0.0
 30
0.0
  0
INSERT
  5
200
330
1F
100
AcDbEntity
  8
0
100
AcDbBlockReference
  2
block 81
 10
0.0
 20
0.0
 30
0.0
  0
INSERT
  5
205
330
1F
100
AcDbEntity
  8
0
100
AcDbBlockReference
  2
block 82
 10
0.0
 20
0.0
 30
0.0
  0
INSERT
  5
20D
330
1F
100
AcDbEntity
  8
0
100
AcDbBlockReference
  2
block 83
 10
0.0
 20
0.0
 30
0.0
  0
INSERT
  5
212
330
1F
100
AcDbEntity
  8
0
100
AcDbBlockReference
  2
block 84
 10
0.0
 20
0.0
 30
0.0
  0
INSERT
  5
217
330
1F
100
AcDbEntity
  8
0
100
AcDbBlockReference
  2
block 85
 10
0.0
 20
0.0
 30
0.0
  0
INSERT
  5
21C
330
1F
100
AcDbEntity
  8
0
100
AcDbBlockReference
  2
block 86
 10
0.0
 20
0.0
 30
0.0
  0
INSERT
  5
221
330
1F
100
AcDbEntity
  8
0
100
AcDbBlockReference
  2
block 87
 10
0.0
 20
0.0
 30
0.0
  0
INSERT
  5
226
330
1F
100
AcDbEntity
  8
0
100
AcDbBlockReference
  2
block 88
 10
0.0
 20
0.0
 30
0.0
  0
INSERT
  5
22B
330
1F
100
AcDbEntity
  8
0
100
AcDbBlockReference
  2
block 89
 10
0.0
 20
0.0
 30
0.0
  0
INSERT
  5
230
330
1F
100
AcDbEntity
  8
0
100
AcDbBlockReference
  2
block 90
 10
0.0
 20
0.0
 30
0.0
  0
INSERT
  5
235
330
1F
100
AcDbEntity
  8
0
100
AcDbBlockReference
  2
block 91
 10
0.0
 20
0.0
 30
0.0
  0
INSERT
  5
23A
330
1F
100
AcDbEntity
  8
0
100
AcDbBlockReference
  2
block 92
 10
0.0
 20
0.0
 30
0.0
  0
INSERT
  5
23F
330
1F
100
AcDbEntity
  8
0
100
AcDbBlockReference
  2
block 93
 10
0.0
 20
0.0
 30
0.0
  0
INSERT
  5
244
330
1F
100
AcDbEntity
  8
0
100
AcDbBlockReference
  2
block 94
 10
0.0
 20
0.0
 30
0.0
  0
INSERT
  5
249
330
1F
100
AcDbEntity
  8
0
100
AcDbBlockReference
  2
block 95
 10
0.0
 20
0.0
 30
0.0
  0
INSERT
  5
24E
330
1F
100
AcDbEntity
  8
0
100
AcDbBlockReference
  2
block 96
 10
0.0
 20
0.0
 30
0.0
  0
INSERT
  5
253
330
1F
100
AcDbEntity
  8
0
100
AcDbBlockReference
  2
block 97
 10
0.0
 20
0.0
 30
0.0
  0
INSERT
  5
25B
330
1F
100
AcDbEntity
  8
0
100
AcDbBlockReference
  2
block 98
 10
0.0
 20
0.0
 30
0.0
  0
INSERT
  5
264
330
1F
100
AcDbEntity
  8
0
100
AcDbBlockReference
  2
block 99
 10
0.0
 20
0.0
 30
0.0
  0
INSERT
  5
26C
330
1F
100
AcDbEntity
  8
0
100
AcDbBlockReference
  2
block 100
 10
0.0
 20
0.0
 30
0.0
  0
INSERT
  5
274
330
1F
100
AcDbEntity
  8
0
100
AcDbBlockReference
  2
block 101
 10
0.0
 20
0.0
 30
0.0
  0
INSERT
  5
27D
330
1F
100
AcDbEntity
  8
0
100
AcDbBlockReference
  2
block 102
 10
0.0
 20
0.0
 30
0.0
  0
INSERT
  5
285
330
1F
100
AcDbEntity
  8
0
100
AcDbBlockReference
  2
block 103
 10
0.0
 20
0.0
 30
0.0
  0
INSERT
  5
28A
330
1F
100
AcDbEntity
  8
0
100
AcDbBlockReference
  2
block 104
 10
0.0
 20
0.0
 30
0.0
  0
INSERT
  5
292
330
1F
100
AcDbEntity
  8
0
100
AcDbBlockReference
  2
block 105
 10
0.0
 20
0.0
 30
0.0
  0
INSERT
  5
29B
330
1F
100
AcDbEntity
  8
0
100
AcDbBlockReference
  2
block 106
 10
0.0
 20
0.0
 30
0.0
  0
INSERT
  5
2A3
330
1F
100
AcDbEntity
  8
0
100
AcDbBlockReference
  2
block 107
 10
0.0
 20
0.0
 30
0.0
  0
INSERT
  5
2AB
330
1F
100
AcDbEntity
  8
0
100
AcDbBlockReference
  2
block 108
 10
0.0
 20
0.0
 30
0.0
  0
INSERT
  5
2B4
330
1F
100
AcDbEntity
  8
0
100
AcDbBlockReference
  2
block 109
 10
0.0
 20
0.0
 30
0.0
  0
ENDSEC
  0
SECTION
  2
OBJECTS
  0
DICTIONARY
  5
C
330
0
100
AcDbDictionary
281
     1
  3
ACAD_GROUP
350
D
  3
ACAD_LAYOUT
350
1A
  3
ACAD_MATERIAL
350
3B
  3
ACAD_MLEADERSTYLE
350
2BD
  3
ACAD_MLINESTYLE
350
17
  3
ACAD_PLOTSETTINGS
350
19
  3
ACAD_PLOTSTYLENAME
350
E
  3
ACAD_TABLESTYLE
350
2BC
  3
ACAD_VISUALSTYLE
350
2A
  0
SUN
  5
3F
330
29
100
AcDbSun
 90
        1
290
     0
 63
     7
421
 16777215
 40
1.0
291
     1
 91
  2455826
 92
 54000000
292
     0
 70
     2
 71
   256
280
     1
  0
DICTIONARY
  5
D
102
{ACAD_REACTORS
330
C
102
}
330
C
100
AcDbDictionary
281
     1
  0
DICTIONARY
  5
1A
102
{ACAD_REACTORS
330
C
102
}
330
C
100
AcDbDictionary
281
     1
  3
Layout1
350
1E
  3
Layout2
350
26
  3
Model
350
22
  0
DICTIONARY
  5
3B
102
{ACAD_REACTORS
330
C
102
}
330
C
100
AcDbDictionary
281
     1
  3
ByBlock
350
3D
  3
ByLayer
350
3C
  3
Global
350
3E
  0
DICTIONARY
  5
2BD
102
{ACAD_REACTORS
330
C
102
}
330
C
100
AcDbDictionary
281
     1
  0
DICTIONARY
  5
17
102
{ACAD_REACTORS
330
C
102
}
330
C
100
AcDbDictionary
281
     1
  3
Standard
350
18
  0
DICTIONARY
  5
19
102
{ACAD_REACTORS
330
C
102
}
330
C
100
AcDbDictionary
281
     1
  0
ACDBDICTIONARYWDFLT
  5
E
102
{ACAD_REACTORS
330
C
102
}
330
C
100
AcDbDictionary
281
     1
  3
Normal
350
F
100
AcDbDictionaryWithDefault
340
F
  0
DICTIONARY
  5
2BC
102
{ACAD_REACTORS
330
C
102
}
330
C
100
AcDbDictionary
281
     1
  0
DICTIONARY
  5
2A
102
{ACAD_REACTORS
330
C
102
}
330
C
100
AcDbDictionary
281
     1
  3
2dWireframe
350
2F
  3
3D Hidden
350
31
  3
3dWireframe
350
30
  3
Basic
350
32
  3
Brighten
350
36
  3
ColorChange
350
3A
  3
Conceptual
350
34
  3
Dim
350
35
  3
Facepattern
350
39
  3
Flat
350
2B
  3
FlatWithEdges
350
2C
  3
Gouraud
350
2D
  3
GouraudWithEdges
350
2E
  3
Linepattern
350
38
  3
Realistic
350
33
  3
Thicken
350
37
  0
LAYOUT
  5
1E
102
{ACAD_REACTORS
330
1A
102
}
330
1A
100
AcDbPlotSettings
  1

  2
none_device
  4

  6

 40
0.0
 41
0.0
 42
0.0
 43
0.0
 44
0.0
 45
0.0
 46
0.0
 47
0.0
 48
0.0
 49
0.0
140
0.0
141
0.0
142
1.0
143
1.0
 70
   688
 72
     0
 73
     0
 74
     5
  7

 75
    16
 76
     0
 77
     2
 78
   300
147
1.0
148
0.0
149
0.0
100
AcDbLayout
  1
Layout1
 70
     1
 71
     1
 10
0.0
 20
0.0
 11
12.0
 21
9.0
 12
0.0
 22
0.0
 32
0.0
 14
1.000000000000000E+20
 24
1.000000000000000E+20
 34
1.000000000000000E+20
 15
-1.000000000000000E+20
 25
-1.000000000000000E+20
 35
-1.000000000000000E+20
146
0.0
 13
0.0
 23
0.0
 33
0.0
 16
1.0
 26
0.0
 36
0.0
 17
0.0
 27
1.0
 37
0.0
 76
     0
330
1B
  0
LAYOUT
  5
26
102
{ACAD_REACTORS
330
1A
102
}
330
1A
100
AcDbPlotSettings
  1

  2
none_device
  4

  6

 40
0.0
 41
0.0
 42
0.0
 43
0.0
 44
0.0
 45
0.0
 46
0.0
 47
0.0
 48
0.0
 49
0.0
140
0.0
141
0.0
142
1.0
143
1.0
 70
   688
 72
     0
 73
     0
 74
     5
  7

 75
    16
 76
     0
 77
     2
 78
   300
147
1.0
148
0.0
149
0.0
100
AcDbLayout
  1
Layout2
 70
     1
 71
     2
 10
0.0
 20
0.0
 11
0.0
 21
0.0
 12
0.0
 22
0.0
 32
0.0
 14
0.0
 24
0.0
 34
0.0
 15
0.0
 25
0.0
 35
0.0
146
0.0
 13
0.0
 23
0.0
 33
0.0
 16
1.0
 26
0.0
 36
0.0
 17
0.0
 27
1.0
 37
0.0
 76
     0
330
23
  0
LAYOUT
  5
22
102
{ACAD_REACTORS
330
1A
102
}
330
1A
100
AcDbPlotSettings
  1

  2
none_device
  4

  6

 40
0.0
 41
0.0
 42
0.0
 43
0.0
 44
0.0
 45
0.0
 46
0.0
 47
0.0
 48
0.0
 49
0.0
140
0.0
141
0.0
142
1.0
143
1.0
 70
  1712
 72
     0
 73
     0
 74
     0
  7

 75
     0
 76
     0
 77
     2
 78
   300
147
1.0
148
0.0
149
0.0
100
AcDbLayout
  1
Model
 70
     1
 71
     0
 10
0.0
 20
0.0
 11
12.0
 21
9.0
 12
0.0
 22
0.0
 32
0.0
 14
1.000000000000000E+20
 24
1.000000000000000E+20
 34
1.000000000000000E+20
 15
-1.000000000000000E+20
 25
-1.000000000000000E+20
 35
-1.000000000000000E+20
146
0.0
 13
0.0
 23
0.0
 33
0.0
 16
1.0
 26
0.0
 36
0.0
 17
0.0
 27
1.0
 37
0.0
 76
     0
330
1F
331
29
  0
MATERIAL
  5
3D
102
{ACAD_REACTORS
330
3B
102
}
330
3B
100
AcDbMaterial
  1
ByBlock
 72
     1
 94
      127
  0
MATERIAL
  5
3C
102
{ACAD_REACTORS
330
3B
102
}
330
3B
100
AcDbMaterial
  1
ByLayer
 72
     1
 94
      127
  0
MATERIAL
  5
3E
102
{ACAD_REACTORS
330
3B
102
}
330
3B
100
AcDbMaterial
  1
Global
 72
     1
 94
      127
  0
MLINESTYLE
  5
18
102
{ACAD_REACTORS
330
17
102
}
330
17
100
AcDbMlineStyle
  2
Standard
 70
     0
  3

 62
   256
 51
90.0
 52
90.0
 71
     2
 49
0.5
 62
   256
  6
BYLAYER
 49
-0.5
 62
   256
  6
BYLAYER
  0
ACDBPLACEHOLDER
  5
F
102
{ACAD_REACTORS
330
E
102
}
330
E
  0
VISUALSTYLE
  5
2F
102
{ACAD_REACTORS
330
2A
102
}
330
2A
100
AcDbVisualStyle
  2
2dWireframe
 70
     4
177
     2
291
     0
 71
     0
176
     1
 72
     2
176
     1
 73
     0
176
     1
 90
        0
176
     1
 40
-0.6
176
     1
 41
-30.0
176
     1
 62
     5
 63
     7
421
 16777215
176
     1
 74
     1
176
     1
 91
        4
176
     1
 64
     7
176
     1
 65
   257
176
     1
 75
     1
176
     1
175
     1
176
     1
 42
1.0
176
     1
 92
        0
176
     1
 66
   257
176
     1
 43
1.0
176
     1
 76
     1
176
     1
 77
     6
176
     1
 78
     2
176
     1
 67
     7
176
     1
 79
     5
176
     1
170
     0
176
     1
171
     0
176
     1
290
     0
176
     1
 93
        1
176
     1
 44
0.0
176
     1
173
     0
176
     1
  0
VISUALSTYLE
  5
31
102
{ACAD_REACTORS
330
2A
102
}
330
2A
100
AcDbVisualStyle
  2
3D Hidden
 70
     6
177
     2
291
     0
 71
     1
176
     1
 72
     2
176
     1
 73
     2
176
     1
 90
        0
176
     1
 40
-0.6
176
     1
 41
-30.0
176
     1
 62
     5
 63
     7
421
 16777215
176
     1
 74
     2
176
     1
 91
        2
176
     1
 64
     7
176
     1
 65
   257
176
     1
 75
     2
176
     1
175
     1
176
     1
 42
40.0
176
     1
 92
        0
176
     1
 66
   257
176
     1
 43
1.0
176
     1
 76
     1
176
     1
 77
     6
176
     1
 78
     2
176
     1
 67
     7
176
     1
 79
     3
176
     1
170
     0
176
     1
171
     0
176
     1
290
     0
176
     1
 93
        1
176
     1
 44
0.0
176
     1
173
     0
176
     1
  0
VISUALSTYLE
  5
30
102
{ACAD_REACTORS
330
2A
102
}
330
2A
100
AcDbVisualStyle
  2
3dWireframe
 70
     5
177
     2
291
     0
 71
     0
176
     1
 72
     2
176
     1
 73
     0
176
     1
 90
        0
176
     1
 40
-0.6
176
     1
 41
-30.0
176
     1
 62
     5
 63
     7
421
 16777215
176
     1
 74
     1
176
     1
 91
        4
176
     1
 64
     7
176
     1
 65
   257
176
     1
 75
     1
176
     1
175
     1
176
     1
 42
1.0
176
     1
 92
        0
176
     1
 66
   257
176
     1
 43
1.0
176
     1
 76
     1
176
     1
 77
     6
176
     1
 78
     2
176
     1
 67
     7
176
     1
 79
     5
176
     1
170
     0
176
     1
171
     0
176
     1
290
     0
176
     1
 93
        1
176
     1
 44
0.0
176
     1
173
     0
176
     1
  0
VISUALSTYLE
  5
32
102
{ACAD_REACTORS
330
2A
102
}
330
2A
100
AcDbVisualStyle
  2
Basic
 70
     7
177
     2
291
     1
 71
     1
176
     1
 72
     0
176
     1
 73
     1
176
     1
 90
        0
176
     1
 40
-0.6
176
     1
 41
-30.0
176
     1
 62
     5
 63
     7
421
 16777215
176
     1
 74
     0
176
     1
 91
        4
176
     1
 64
     7
176
     1
 65
   257
176
     1
 75
     1
176
     1
175
     1
176
     1
 42
1.0
176
     1
 92
        8
176
     1
 66
     7
176
     1
 43
1.0
176
     1
 76
     1
176
     1
 77
     6
176
     1
 78
     2
176
     1
 67
     7
176
     1
 79
     5
176
     1
170
     0
176
     1
171
     0
176
     1
290
     0
176
     1
 93
        1
176
     1
 44
0.0
176
     1
173
     0
176
     1
  0
VISUALSTYLE
  5
36
102
{ACAD_REACTORS
330
2A
102
}
330
2A
100
AcDbVisualStyle
  2
Brighten
 70
    12
177
     2
291
     1
 71
     2
176
     1
 72
     2
176
     1
 73
     0
176
     1
 90
        0
176
     1
 40
-0.6
176
     1
 41
-30.0
176
     1
 62
     5
 63
     7
421
 16777215
176
     1
 74
     1
176
     1
 91
        4
176
     1
 64
     7
176
     1
 65
   257
176
     1
 75
     1
176
     1
175
     1
176
     1
 42
1.0
176
     1
 92
        8
176
     1
 66
     7
176
     1
 43
1.0
176
     1
 76
     1
176
     1
 77
     6
176
     1
 78
     2
176
     1
 67
     7
176
     1
 79
     5
176
     1
170
     0
176
     1
171
     0
176
     1
290
     0
176
     1
 93
        1
176
     1
 44
50.0
176
     1
173
     0
176
     1
  0
VISUALSTYLE
  5
3A
102
{ACAD_REACTORS
330
2A
102
}
330
2A
100
AcDbVisualStyle
  2
ColorChange
 70
    16
177
     2
291
     1
 71
     2
176
     1
 72
     2
176
     1
 73
     3
176
     1
 90
        0
176
     1
 40
-0.6
176
     1
 41
-30.0
176
     1
 62
     5
 63
     8
421
  8421504
176
     1
 74
     1
176
     1
 91
        4
176
     1
 64
     7
176
     1
 65
   257
176
     1
 75
     1
176
     1
175
     1
176
     1
 42
1.0
176
     1
 92
        8
176
     1
 66
     8
424
  8421504
176
     1
 43
1.0
176
     1
 76
     1
176
     1
 77
     6
176
     1
 78
     2
176
     1
 67
     7
176
     1
 79
     5
176
     1
170
     0
176
     1
171
     0
176
     1
290
     0
176
     1
 93
        1
176
     1
 44
0.0
176
     1
173
     0
176
     1
  0
VISUALSTYLE
  5
34
102
{ACAD_REACTORS
330
2A
102
}
330
2A
100
AcDbVisualStyle
  2
Conceptual
 70
     9
177
     2
291
     0
 71
     3
176
     1
 72
     2
176
     1
 73
     0
176
     1
 90
        0
176
     1
 40
-0.6
176
     1
 41
-30.0
176
     1
 62
     5
 63
     7
421
 16777215
176
     1
 74
     2
176
     1
 91
        2
176
     1
 64
     7
176
     1
 65
   257
176
     1
 75
     1
176
     1
175
     1
176
     1
 42
40.0
176
     1
 92
        8
176
     1
 66
     7
176
     1
 43
1.0
176
     1
 76
     1
176
     1
 77
     6
176
     1
 78
     2
176
     1
 67
     7
176
     1
 79
     3
176
     1
170
     0
176
     1
171
     0
176
     1
290
     0
176
     1
 93
        1
176
     1
 44
0.0
176
     1
173
     0
176
     1
  0
VISUALSTYLE
  5
35
102
{ACAD_REACTORS
330
2A
102
}
330
2A
100
AcDbVisualStyle
  2
Dim
 70
    11
177
     2
291
     1
 71
     2
176
     1
 72
     2
176
     1
 73
     0
176
     1
 90
        0
176
     1
 40
-0.6
176
     1
 41
-30.0
176
     1
 62
     5
 63
     7
421
 16777215
176
     1
 74
     1
176
     1
 91
        4
176
     1
 64
     7
176
     1
 65
   257
176
     1
 75
     1
176
     1
175
     1
176
     1
 42
1.0
176
     1
 92
        8
176
     1
 66
     7
176
     1
 43
1.0
176
     1
 76
     1
176
     1
 77
     6
176
     1
 78
     2
176
     1
 67
     7
176
     1
 79
     5
176
     1
170
     0
176
     1
171
     0
176
     1
290
     0
176
     1
 93
        1
176
     1
 44
-50.0
176
     1
173
     0
176
     1
  0
VISUALSTYLE
  5
39
102
{ACAD_REACTORS
330
2A
102
}
330
2A
100
AcDbVisualStyle
  2
Facepattern
 70
    15
177
     2
291
     1
 71
     2
176
     1
 72
     2
176
     1
 73
     0
176
     1
 90
        0
176
     1
 40
-0.6
176
     1
 41
-30.0
176
     1
 62
     5
 63
     7
421
 16777215
176
     1
 74
     1
176
     1
 91
        4
176
     1
 64
     7
176
     1
 65
   257
176
     1
 75
     1
176
     1
175
     1
176
     1
 42
1.0
176
     1
 92
        8
176
     1
 66
     7
176
     1
 43
1.0
176
     1
 76
     1
176
     1
 77
     6
176
     1
 78
     2
176
     1
 67
     7
176
     1
 79
     5
176
     1
170
     0
176
     1
171
     0
176
     1
290
     0
176
     1
 93
        1
176
     1
 44
0.0
176
     1
173
     0
176
     1
  0
VISUALSTYLE
  5
2B
102
{ACAD_REACTORS
330
2A
102
}
330
2A
100
AcDbVisualStyle
  2
Flat
 70
     0
177
     2
291
     1
 71
     2
176
     1
 72
     1
176
     1
 73
     1
176
     1
 90
        2
176
     1
 40
-0.6
176
     1
 41
30.0
176
     1
 62
     5
 63
     7
421
 16777215
176
     1
 74
     0
176
     1
 91
        4
176
     1
 64
     7
176
     1
 65
   257
176
     1
 75
     1
176
     1
175
     1
176
     1
 42
1.0
176
     1
 92
        8
176
     1
 66
     7
176
     1
 43
1.0
176
     1
 76
     1
176
     1
 77
     6
176
     1
 78
     2
176
     1
 67
     7
176
     1
 79
     5
176
     1
170
     0
176
     1
171
     0
176
     1
290
     0
176
     1
 93
       13
176
     1
 44
0.0
176
     1
173
     0
176
     1
  0
VISUALSTYLE
  5
2C
102
{ACAD_REACTORS
330
2A
102
}
330
2A
100
AcDbVisualStyle
  2
FlatWithEdges
 70
     1
177
     2
291
     1
 71
     2
176
     1
 72
     1
176
     1
 73
     1
176
     1
 90
        2
176
     1
 40
-0.6
176
     1
 41
30.0
176
     1
 62
     5
 63
     7
421
 16777215
176
     1
 74
     1
176
     1
 91
        4
176
     1
 64
     7
176
     1
 65
   257
176
     1
 75
     1
176
     1
175
     1
176
     1
 42
1.0
176
     1
 92
        0
176
     1
 66
   257
176
     1
 43
1.0
176
     1
 76
     1
176
     1
 77
     6
176
     1
 78
     2
176
     1
 67
     7
176
     1
 79
     5
176
     1
170
     0
176
     1
171
     0
176
     1
290
     0
176
     1
 93
       13
176
     1
 44
0.0
176
     1
173
     0
176
     1
  0
VISUALSTYLE
  5
2D
102
{ACAD_REACTORS
330
2A
102
}
330
2A
100
AcDbVisualStyle
  2
Gouraud
 70
     2
177
     2
291
     1
 71
     2
176
     1
 72
     2
176
     1
 73
     1
176
     1
 90
        2
176
     1
 40
-0.6
176
     1
 41
30.0
176
     1
 62
     5
 63
     7
421
 16777215
176
     1
 74
     0
176
     1
 91
        4
176
     1
 64
     7
176
     1
 65
   257
176
     1
 75
     1
176
     1
175
     1
176
     1
 42
1.0
176
     1
 92
        0
176
     1
 66
     7
176
     1
 43
1.0
176
     1
 76
     1
176
     1
 77
     6
176
     1
 78
     2
176
     1
 67
     7
176
     1
 79
     5
176
     1
170
     0
176
     1
171
     0
176
     1
290
     0
176
     1
 93
       13
176
     1
 44
0.0
176
     1
173
     0
176
     1
  0
VISUALSTYLE
  5
2E
102
{ACAD_REACTORS
330
2A
102
}
330
2A
100
AcDbVisualStyle
  2
GouraudWithEdges
 70
     3
177
     2
291
     1
 71
     2
176
     1
 72
     2
176
     1
 73
     1
176
     1
 90
        2
176
     1
 40
-0.6
176
     1
 41
30.0
176
     1
 62
     5
 63
     7
421
 16777215
176
     1
 74
     1
176
     1
 91
        4
176
     1
 64
     7
176
     1
 65
   257
176
     1
 75
     1
176
     1
175
     1
176
     1
 42
1.0
176
     1
 92
        0
176
     1
 66
   257
176
     1
 43
1.0
176
     1
 76
     1
176
     1
 77
     6
176
     1
 78
     2
176
     1
 67
     7
176
     1
 79
     5
176
     1
170
     0
176
     1
171
     0
176
     1
290
     0
176
     1
 93
       13
176
     1
 44
0.0
176
     1
173
     0
176
     1
  0
VISUALSTYLE
  5
38
102
{ACAD_REACTORS
330
2A
102
}
330
2A
100
AcDbVisualStyle
  2
Linepattern
 70
    14
177
     2
291
     1
 71
     2
176
     1
 72
     2
176
     1
 73
     0
176
     1
 90
        0
176
     1
 40
-0.6
176
     1
 41
-30.0
176
     1
 62
     5
 63
     7
421
 16777215
176
     1
 74
     1
176
     1
 91
        4
176
     1
 64
     7
176
     1
 65
   257
176
     1
 75
     7
176
     1
175
     7
176
     1
 42
1.0
176
     1
 92
        8
176
     1
 66
     7
176
     1
 43
1.0
176
     1
 76
     1
176
     1
 77
     6
176
     1
 78
     2
176
     1
 67
     7
176
     1
 79
     5
176
     1
170
     0
176
     1
171
     0
176
     1
290
     0
176
     1
 93
        1
176
     1
 44
0.0
176
     1
173
     0
176
     1
  0
VISUALSTYLE
  5
33
102
{ACAD_REACTORS
330
2A
102
}
330
2A
100
AcDbVisualStyle
  2
Realistic
 70
     8
177
     2
291
     0
 71
     2
176
     1
 72
     2
176
     1
 73
     0
176
     1
 90
        0
176
     1
 40
-0.6
176
     1
 41
-30.0
176
     1
 62
     5
 63
     7
421
 16777215
176
     1
 74
     1
176
     1
 91
        0
176
     1
 64
     7
176
     1
 65
   257
176
     1
 75
     1
176
     1
175
     1
176
     1
 42
1.0
176
     1
 92
        8
176
     1
 66
     8
424
  7895160
176
     1
 43
1.0
176
     1
 76
     1
176
     1
 77
     6
176
     1
 78
     2
176
     1
 67
     7
176
     1
 79
     5
176
     1
170
     0
176
     1
171
     0
176
     1
290
     0
176
     1
 93
       13
176
     1
 44
0.0
176
     1
173
     0
176
     1
  0
VISUALSTYLE
  5
37
102
{ACAD_REACTORS
330
2A
102
}
330
2A
100
AcDbVisualStyle
  2
Thicken
 70
    13
177
     2
291
     1
 71
     2
176
     1
 72
     2
176
     1
 73
     0
176
     1
 90
        0
176
     1
 40
-0.6
176
     1
 41
-30.0
176
     1
 62
     5
 63
     7
421
 16777215
176
     1
 74
     1
176
     1
 91
        4
176
     1
 64
     7
176
     1
 65
   257
176
     1
 75
     1
176
     1
175
     1
176
     1
 42
1.0
176
     1
 92
       12
176
     1
 66
     7
176
     1
 43
1.0
176
     1
 76
     1
176
     1
 77
     6
176
     1
 78
     2
176
     1
 67
     7
176
     1
 79
     5
176
     1
170
     0
176
     1
171
     0
176
     1
290
     0
176
     1
 93
        1
176
     1
 44
0.0
176
     1
173
     0
176
     1
  0
ENDSEC
  0
EOF
