  0
SECTION
  2
HEADER
  9
$ACADVER
  1
AC1018
  9
$ACADMAINTVER
 70
     2
  9
$DWGCODEPAGE
  3
ANSI_1252
  9
$TITLE
  1

  9
$SUBJECT
  1

  9
$AUTHOR
  1

  9
$KEYWORDS
  1

  9
$COMMENTS
  1

  9
$LASTSAVEDBY
  1

  9
$REVISIONNUMBER
  1

  9
$CUSTOMPROPERTYTAG
  1
AmdtFileType
  9
$CUSTOMPROPERTY
  1
84
  9
$INSBASE
 10
0.0
 20
0.0
 30
0.0
  9
$EXTMIN
 10
-527.0545313535321
 20
-26.22300347222222
 30
0.0
  9
$EXTMAX
 10
527.0876042701988
 20
172.0710678118654
 30
0.0
  9
$LIMMIN
 10
-216.9252604166667
 20
-3.158463541666666
  9
$LIMMAX
 10
382.7694010416666
 20
486.4254340277777
  9
$ORTHOMODE
 70
     0
  9
$REGENMODE
 70
     1
  9
$FILLMODE
 70
     1
  9
$QTEXTMODE
 70
     0
  9
$MIRRTEXT
 70
     1
  9
$LTSCALE
 40
1.0
  9
$ATTMODE
 70
     1
  9
$TEXTSIZE
 40
0.0
  9
$TRACEWID
 40
0.05
  9
$TEXTSTYLE
  7
STANDARD
  9
$CLAYER
  8
0
  9
$CELTYPE
  6
CONTINUOUS
  9
$CECOLOR
 62
   256
  9
$CELTSCALE
 40
1.0
  9
$DISPSILH
 70
     0
  9
$DIMSCALE
 40
1.0
  9
$DIMASZ
 40
0.18
  9
$DIMEXO
 40
0.0625
  9
$DIMDLI
 40
0.38
  9
$DIMRND
 40
0.0
  9
$DIMDLE
 40
0.0
  9
$DIMEXE
 40
0.18
  9
$DIMTP
 40
0.0
  9
$DIMTM
 40
0.0
  9
$DIMTXT
 40
0.18
  9
$DIMCEN
 40
0.09
  9
$DIMTSZ
 40
0.0
  9
$DIMTOL
 70
     0
  9
$DIMLIM
 70
     0
  9
$DIMTIH
 70
     1
  9
$DIMTOH
 70
     1
  9
$DIMSE1
 70
     0
  9
$DIMSE2
 70
     0
  9
$DIMTAD
 70
     0
  9
$DIMZIN
 70
     0
  9
$DIMBLK
  1

  9
$DIMASO
 70
     1
  9
$DIMSHO
 70
     1
  9
$DIMPOST
  1

  9
$DIMAPOST
  1

  9
$DIMALT
 70
     0
  9
$DIMALTD
 70
     2
  9
$DIMALTF
 40
25.4
  9
$DIMLFAC
 40
1.0
  9
$DIMTOFL
 70
     0
  9
$DIMTVP
 40
0.0
  9
$DIMTIX
 70
     0
  9
$DIMSOXD
 70
     0
  9
$DIMSAH
 70
     0
  9
$DIMBLK1
  1

  9
$DIMBLK2
  1

  9
$DIMSTYLE
  2
STANDARD
  9
$DIMCLRD
 70
     0
  9
$DIMCLRE
 70
     0
  9
$DIMCLRT
 70
     0
  9
$DIMTFAC
 40
1.0
  9
$DIMGAP
 40
0.09
  9
$DIMJUST
 70
     0
  9
$DIMSD1
 70
     0
  9
$DIMSD2
 70
     0
  9
$DIMTOLJ
 70
     1
  9
$DIMTZIN
 70
     0
  9
$DIMALTZ
 70
     0
  9
$DIMALTTZ
 70
     0
  9
$DIMUPT
 70
     0
  9
$DIMDEC
 70
     4
  9
$DIMTDEC
 70
     4
  9
$DIMALTU
 70
     2
  9
$DIMALTTD
 70
     2
  9
$DIMTXSTY
  7
STANDARD
  9
$DIMAUNIT
 70
     0
  9
$DIMADEC
 70
     0
  9
$DIMALTRND
 40
0.0
  9
$DIMAZIN
 70
     0
  9
$DIMDSEP
 70
    46
  9
$DIMATFIT
 70
     3
  9
$DIMFRAC
 70
     0
  9
$DIMLDRBLK
  1

  9
$DIMLUNIT
 70
     2
  9
$DIMLWD
 70
    -2
  9
$DIMLWE
 70
    -2
  9
$DIMTMOVE
 70
     2
  9
$LUNITS
 70
     2
  9
$LUPREC
 70
     4
  9
$SKETCHINC
 40
0.1
  9
$FILLETRAD
 40
5.0
  9
$AUNITS
 70
     0
  9
$AUPREC
 70
     0
  9
$MENU
  1
acad
  9
$ELEVATION
 40
0.0
  9
$PELEVATION
 40
0.0
  9
$THICKNESS
 40
0.0
  9
$LIMCHECK
 70
     0
  9
$CHAMFERA
 40
6.0
  9
$CHAMFERB
 40
6.0
  9
$CHAMFERC
 40
0.0
  9
$CHAMFERD
 40
0.0
  9
$SKPOLY
 70
     0
  9
$TDCREATE
 40
2444975.083333334
  9
$TDUCREATE
 40
2444975.000000000
  9
$TDUPDATE
 40
2454383.262720440
  9
$TDUUPDATE
 40
2454383.179387107
  9
$TDINDWG
 40
0.1065889120
  9
$TDUSRTIMER
 40
0.1065889120
  9
$USRTIMER
 70
     1
  9
$ANGBASE
 50
0.0
  9
$ANGDIR
 70
     0
  9
$PDMODE
 70
     0
  9
$PDSIZE
 40
0.0
  9
$PLINEWID
 40
0.0
  9
$SPLFRAME
 70
     0
  9
$SPLINETYPE
 70
     6
  9
$SPLINESEGS
 70
     8
  9
$HANDSEED
  5
207B
  9
$SURFTAB1
 70
     6
  9
$SURFTAB2
 70
     6
  9
$SURFTYPE
 70
     6
  9
$SURFU
 70
     6
  9
$SURFV
 70
     6
  9
$UCSBASE
  2

  9
$UCSNAME
  2

  9
$UCSORG
 10
0.0
 20
0.0
 30
0.0
  9
$UCSXDIR
 10
1.0
 20
0.0
 30
0.0
  9
$UCSYDIR
 10
0.0
 20
1.0
 30
0.0
  9
$UCSORTHOREF
  2

  9
$UCSORTHOVIEW
 70
     0
  9
$UCSORGTOP
 10
0.0
 20
0.0
 30
0.0
  9
$UCSORGBOTTOM
 10
0.0
 20
0.0
 30
0.0
  9
$UCSORGLEFT
 10
0.0
 20
0.0
 30
0.0
  9
$UCSORGRIGHT
 10
0.0
 20
0.0
 30
0.0
  9
$UCSORGFRONT
 10
0.0
 20
0.0
 30
0.0
  9
$UCSORGBACK
 10
0.0
 20
0.0
 30
0.0
  9
$PUCSBASE
  2

  9
$PUCSNAME
  2

  9
$PUCSORG
 10
0.0
 20
0.0
 30
0.0
  9
$PUCSXDIR
 10
1.0
 20
0.0
 30
0.0
  9
$PUCSYDIR
 10
0.0
 20
1.0
 30
0.0
  9
$PUCSORTHOREF
  2

  9
$PUCSORTHOVIEW
 70
     0
  9
$PUCSORGTOP
 10
0.0
 20
0.0
 30
0.0
  9
$PUCSORGBOTTOM
 10
0.0
 20
0.0
 30
0.0
  9
$PUCSORGLEFT
 10
0.0
 20
0.0
 30
0.0
  9
$PUCSORGRIGHT
 10
0.0
 20
0.0
 30
0.0
  9
$PUCSORGFRONT
 10
0.0
 20
0.0
 30
0.0
  9
$PUCSORGBACK
 10
0.0
 20
0.0
 30
0.0
  9
$USERI1
 70
     0
  9
$USERI2
 70
     0
  9
$USERI3
 70
     0
  9
$USERI4
 70
     0
  9
$USERI5
 70
     0
  9
$USERR1
 40
0.0
  9
$USERR2
 40
0.0
  9
$USERR3
 40
0.0
  9
$USERR4
 40
0.0
  9
$USERR5
 40
0.0
  9
$WORLDVIEW
 70
     1
  9
$SHADEDGE
 70
     3
  9
$SHADEDIF
 70
    70
  9
$TILEMODE
 70
     1
  9
$MAXACTVP
 70
    16
  9
$PINSBASE
 10
0.0
 20
0.0
 30
0.0
  9
$PLIMCHECK
 70
     0
  9
$PEXTMIN
 10
1.000000000000000E+20
 20
1.000000000000000E+20
 30
1.000000000000000E+20
  9
$PEXTMAX
 10
-1.000000000000000E+20
 20
-1.000000000000000E+20
 30
-1.000000000000000E+20
  9
$PLIMMIN
 10
0.0
 20
0.0
  9
$PLIMMAX
 10
12.0
 20
9.0
  9
$UNITMODE
 70
     0
  9
$VISRETAIN
 70
     0
  9
$PLINEGEN
 70
     1
  9
$PSLTSCALE
 70
     0
  9
$TREEDEPTH
 70
  3020
  9
$CMLSTYLE
  2
Standard
  9
$CMLJUST
 70
     0
  9
$CMLSCALE
 40
1.0
  9
$PROXYGRAPHICS
 70
     1
  9
$MEASUREMENT
 70
     0
  9
$CELWEIGHT
370
    -1
  9
$ENDCAPS
280
     0
  9
$JOINSTYLE
280
     0
  9
$LWDISPLAY
290
     0
  9
$INSUNITS
 70
     0
  9
$HYPERLINKBASE
  1

  9
$STYLESHEET
  1

  9
$XEDIT
290
     1
  9
$CEPSNTYPE
380
     0
  9
$PSTYLEMODE
290
     1
  9
$FINGERPRINTGUID
  2
{29873ED7-7251-4913-A7CF-C47C8B80DDE5}
  9
$VERSIONGUID
  2
{951329CB-FA90-40EC-97F5-617B401E8829}
  9
$EXTNAMES
290
     1
  9
$PSVPSCALE
 40
0.0
  9
$OLESTARTUP
290
     0
  9
$SORTENTS
280
   127
  9
$INDEXCTL
280
     1
  9
$HIDETEXT
280
     1
  9
$XCLIPFRAME
290
     0
  9
$HALOGAP
280
     0
  9
$OBSCOLOR
 70
   257
  9
$OBSLTYPE
280
     0
  9
$INTERSECTIONDISPLAY
280
     0
  9
$INTERSECTIONCOLOR
 70
   257
  9
$DIMASSOC
280
     2
  9
$PROJECTNAME
  1

  0
ENDSEC
  0
SECTION
  2
CLASSES
  0
CLASS
  1
ACDBDICTIONARYWDFLT
  2
AcDbDictionaryWithDefault
  3
ObjectDBX Classes
 90
        0
 91
        1
280
     0
281
     0
  0
CLASS
  1
ACME_DOCUMENT
  2
AcMeDbDoc
  3
AcMeServices
 90
        0
 91
        2
280
     0
281
     0
  0
CLASS
  1
AMGSETTINGSOBJ
  2
AmgSettingsObj
  3
"AcadM|Product Description: AutoCAD Mechanical 2000|Company: Autodesk"
 90
        0
 91
        2
280
     0
281
     0
  0
CLASS
  1
ACMESCOPE
  2
AcMeScope
  3
AcMeServices
 90
        0
 91
        1
280
     0
281
     0
  0
CLASS
  1
ACMECOMMANDHISTORY
  2
AcMeCommandHistory
  3
AcMeServices
 90
        0
 91
        1
280
     0
281
     0
  0
CLASS
  1
ACIMSYSVARMAN
  2
AcImSysVarManager
  3
AcMeServices
 90
        0
 91
        6
280
     0
281
     0
  0
CLASS
  1
ACIMREALSYSVAR
  2
AcImRealSysVar
  3
AcMeServices
 90
        0
 91
       16
280
     0
281
     0
  0
CLASS
  1
ACIMINTSYSVAR
  2
AcImIntSysVar
  3
AcMeServices
 90
        0
 91
       45
280
     0
281
     0
  0
CLASS
  1
ACMEDRAWINGMAN
  2
AcMeDrawingMan
  3
AcMeServices
 90
        0
 91
        1
280
     0
281
     0
  0
CLASS
  1
ACMEVIEW
  2
AcMeView
  3
AcMeServices
 90
        0
 91
        1
280
     0
281
     0
  0
CLASS
  1
ACDBENTITYCACHE
  2
AcMeEntityCache
  3
AcMeServices
 90
        0
 91
        1
280
     0
281
     0
  0
CLASS
  1
GSMANAGER
  2
AcMeGSManager
  3
AcMeServices
 90
        0
 91
        1
280
     0
281
     0
  0
CLASS
  1
AMDTINTERNALREACTOR
  2
AmdtInternalReactor
  3
AcMeServices
 90
        0
 91
        2
280
     0
281
     0
  0
CLASS
  1
ACMESTATEMGR
  2
AcMeStateMgr
  3
AcMeServices
 90
        0
 91
        1
280
     0
281
     0
  0
CLASS
  1
ACGREFMASTER
  2
AcGrefMaster
  3
AcAttribServices
 90
        0
 91
        1
280
     0
281
     0
  0
CLASS
  1
ACME_DATABASE
  2
AcMeDbDatabase
  3
AcMeServices
 90
        0
 91
        1
280
     0
281
     0
  0
CLASS
  1
ACRFINSADJUSTERMGR
  2
AcRfInsAdjusterMgr
  3
AcMeServices
 90
        0
 91
        1
280
     0
281
     0
  0
CLASS
  1
ACGREFACADMASTER
  2
AcGrefacadMaster
  3
AcGrefServices
 90
        0
 91
        1
280
     0
281
     0
  0
CLASS
  1
AMIMASTER
  2
AmiMaster
  3
AmiServices
 90
        0
 91
        1
280
     0
281
     0
  0
CLASS
  1
ACMDATADICTIONARY
  2
AcmDataDictionary
  3
"AcmSymBB|Product Description: AutoCAD Mechanical 2004 DX|Company: Autodesk"
 90
        0
 91
        1
280
     0
281
     0
  0
CLASS
  1
ACMDATAENTRYBLOCK
  2
AcmDataEntryBlock
  3
"AcmSymBB|Product Description: AutoCAD Mechanical 2004 DX|Company: Autodesk"
 90
        0
 91
        1
280
     0
281
     0
  0
CLASS
  1
ACIMSTRSYSVAR
  2
AcImStrSysVar
  3
AcMeServices
 90
        0
 91
       11
280
     0
281
     0
  0
CLASS
  1
ACMSTANDARDANSI
  2
AcmStandardANSI
  3
"Amdt_StdImp|Product Description: AutoCAD Mechanical 2004 DX|Company: Autodesk"
 90
        0
 91
        1
280
     0
281
     0
  0
CLASS
  1
AMGOBJPROPCFG
  2
AmgObjPropCfg
  3
"AmgLay|Product Description: AutoCAD Mechanical 2000|Company: Autodesk"
 90
        1
 91
        1
280
     0
281
     0
  0
CLASS
  1
ACMSURFSTANDARDANSI
  2
AcmSurfTextStdANSI
  3
"Amdt_StdImp|Product Description: AutoCAD Mechanical 2004 DX|Company: Autodesk"
 90
        0
 91
        1
280
     0
281
     0
  0
CLASS
  1
ACMFCFSTANDARDANSI
  2
AcmFCFStdANSI
  3
"Amdt_StdImp|Product Description: AutoCAD Mechanical 2004 DX|Company: Autodesk"
 90
        0
 91
        1
280
     0
281
     0
  0
CLASS
  1
ACMWELDSTANDARDANSI
  2
AcmWeldingStdANSI
  3
"Amdt_StdImp|Product Description: AutoCAD Mechanical 2004 DX|Company: Autodesk"
 90
        0
 91
        1
280
     0
281
     0
  0
CLASS
  1
ACMIDSTANDARDANSI
  2
AcmIdStdANSI
  3
"Amdt_StdImp|Product Description: AutoCAD Mechanical 2004 DX|Company: Autodesk"
 90
        0
 91
        1
280
     0
281
     0
  0
CLASS
  1
ACMDATUMSTANDARDANSI
  2
AcmDatumStdANSI
  3
"Amdt_StdImp|Product Description: AutoCAD Mechanical 2004 DX|Company: Autodesk"
 90
        0
 91
        1
280
     0
281
     0
  0
CLASS
  1
ACMBOMSTANDARDANSI
  2
AcmBOMStdANSI
  3
"Amdt_StdImp|Product Description: AutoCAD Mechanical 2004 DX|Company: Autodesk"
 90
        0
 91
        1
280
     0
281
     0
  0
CLASS
  1
ACMDETAILSTANDARDANSI
  2
AmdtDetailSymStdANSI
  3
"Amdt_StdImp|Product Description: AutoCAD Mechanical 2004 DX|Company: Autodesk"
 90
        0
 91
        1
280
     0
281
     0
  0
CLASS
  1
ACMSECTIONSTANDARDANSI
  2
AmdtSectionSymStdANSI
  3
"Amdt_StdImp|Product Description: AutoCAD Mechanical 2004 DX|Company: Autodesk"
 90
        0
 91
        1
280
     0
281
     0
  0
CLASS
  1
ACMCENTERLINESTANDARDANSI
  2
AmdtCenterLineStdANSI
  3
"Amdt_StdImp|Product Description: AutoCAD Mechanical 2004 DX|Company: Autodesk"
 90
        0
 91
        1
280
     0
281
     0
  0
CLASS
  1
ACMNOTESTANDARDANSI
  2
AmdtNoteStdANSI
  3
"Amdt_StdImp|Product Description: AutoCAD Mechanical 2004 DX|Company: Autodesk"
 90
        0
 91
        1
280
     0
281
     0
  0
CLASS
  1
ACAMGLAYSTD
  2
AcAmgLayStd
  3
"AcAmgLayStd|Product Description: AutoCAD Mechanical 2000|Company: Autodesk"
 90
        0
 91
        1
280
     0
281
     0
  0
CLASS
  1
ACAMGDIMSTD
  2
AcAmgDimStd
  3
"AcAmgDimStd|Product Description: AutoCAD Mechanical 2000|Company: Autodesk"
 90
        0
 91
        1
280
     0
281
     0
  0
CLASS
  1
ACAMGHOLECHARTSTDANSI
  2
AcAmgHoleChartStdANSI
  3
ACMSYMBB_MODULE_NAME
 90
        0
 91
        1
280
     0
281
     0
  0
CLASS
  1
ACAMGTITLESTD
  2
AcAmgTitleStd
  3
"TITLEAPP"
 90
        0
 91
        1
280
     0
281
     0
  0
CLASS
  1
ACAMGFILTERDAT
  2
AcAmgFilterDat
  3
"AcadM|Product Description: AutoCAD Mechanical 2000|Company: Autodesk"
 90
        0
 91
        6
280
     0
281
     0
  0
CLASS
  1
LAYER_INDEX
  2
AcDbLayerIndex
  3
ObjectDBX Classes
 90
        0
 91
        1
280
     0
281
     0
  0
CLASS
  1
IDBUFFER
  2
AcDbIdBuffer
  3
ObjectDBX Classes
 90
        0
 91
        1
280
     0
281
     0
  0
CLASS
  1
DICTIONARYVAR
  2
AcDbDictionaryVar
  3
ObjectDBX Classes
 90
        0
 91
        3
280
     0
281
     0
  0
CLASS
  1
DIMASSOC
  2
AcDbDimAssoc
  3
"AcDbDimAssoc|Product Desc:     AcDim ARX App For Dimension|Company:          Autodesk, Inc.|WEB Address:      www.autodesk.com"
 90
        0
 91
        0
280
     0
281
     0
  0
CLASS
  1
AMDTFORMULAUPDATEDISPATCHER
  2
AmdtFormulaUpdateDispatcher
  3
AcMeServices
 90
        0
 91
        1
280
     0
281
     0
  0
CLASS
  1
AM_DRAWING_MGR
  2
AcDmDwgMgr
  3
AcMechDwgViewMgmt
 90
        0
 91
        1
280
     0
281
     0
  0
CLASS
  1
AM_DWG_DOCUMENT
  2
AcDmDwgDocument
  3
AcMechDwgViewMgmt
 90
        0
 91
        1
280
     0
281
     0
  0
CLASS
  1
AM_DWG_SHEET
  2
AcDmSheet
  3
AcMechDwgViewMgmt
 90
        0
 91
        1
280
     0
281
     0
  0
CLASS
  1
AM_VIEWDIMPARMAP
  2
AcDmViewDimParMap
  3
AcMechDwgViewMgmt
 90
        0
 91
        1
280
     0
281
     0
  0
CLASS
  1
AM_DWGMGR_NAME
  2
AcDmDwgMgrName
  3
AcMechDwgViewMgmt
 90
        0
 91
        1
280
     0
281
     0
  0
CLASS
  1
AMDTMENUSTATEMGR
  2
AmdtMenuStateMgr
  3
McadcomServices
 90
        0
 91
        1
280
     0
281
     0
  0
CLASS
  1
AMDTMCOMMENUSTATE
  2
AmdtMcomMenuState
  3
McadcomServices
 90
        0
 91
        1
280
     0
281
     0
  0
CLASS
  1
ASAPP
  2
AcAsAppObject
  3
AutoSurfServices
 90
        0
 91
        1
280
     0
281
     0
  0
CLASS
  1
IM_STATIC_MAN
  2
AcImStaticVarManager
  3
AcMeServices
 90
        0
 91
        1
280
     0
281
     0
  0
CLASS
  1
ACIMDBLSTATICVAR
  2
AcImDblStaticVar
  3
AcMeServices
 90
        0
 91
       20
280
     0
281
     0
  0
CLASS
  1
ACIMSTRSTATICVAR
  2
AcImStrStaticVar
  3
AcMeServices
 90
        0
 91
       12
280
     0
281
     0
  0
CLASS
  1
ACIMINTSTATICVAR
  2
AcImIntStaticVar
  3
AcMeServices
 90
        0
 91
       17
280
     0
281
     0
  0
CLASS
  1
ACASGREFMASTER
  2
AcAsGrefMaster
  3
AutoSurfResolverServices
 90
        0
 91
        1
280
     0
281
     0
  0
CLASS
  1
ACADGREFMODULE
  2
AcAdGrefModule
  3
AdGrefServices
 90
        0
 91
        1
280
     0
281
     0
  0
CLASS
  1
AMDTMAPISURFMOUDULE
  2
AmdtMApiSurfModule
  3
MApiSurfServices
 90
        0
 91
        1
280
     0
281
     0
  0
CLASS
  1
MAPIAMMOUDLE
  2
MApiAmModule
  3
MApiAmServices
 90
        0
 91
        1
280
     0
281
     0
  0
CLASS
  1
AMDTADMENUSTATE
  2
AmdtAdMenuState
  3
DesignerServices
 90
        0
 91
        1
280
     0
281
     0
  0
CLASS
  1
ADAPPL
  2
AcAdAppl
  3
DesignerServices
 90
        0
 91
        1
280
     0
281
     0
  0
CLASS
  1
DEPMGR
  2
AcAdDepMgr
  3
DesignerServices
 90
        0
 91
        1
280
     0
281
     0
  0
CLASS
  1
PARAMMGR
  2
AcAdParamMgr
  3
DesignerServices
 90
        0
 91
        1
280
     0
281
     0
  0
CLASS
  1
PARAMSCOPE
  2
AcAdParamScope
  3
DesignerServices
 90
        0
 91
        1
280
     0
281
     0
  0
CLASS
  1
NAMEDAPPL
  2
AcAdNamedAppl
  3
DesignerServices
 90
        0
 91
        1
280
     0
281
     0
  0
CLASS
  1
AMDTDMMENUSTATE
  2
AmdtDmMenuState
  3
AcMechDwgViewMgmt
 90
        0
 91
        1
280
     0
281
     0
  0
CLASS
  1
MAPIADMODULE
  2
MApiAdModule
  3
MApiAdServices
 90
        0
 91
        1
280
     0
281
     0
  0
CLASS
  1
AMDTAMMENUSTATE
  2
AmdtAmMenuState
  3
DesignerAssemblies
 90
        0
 91
        1
280
     0
281
     0
  0
CLASS
  1
ACAMPROJECT
  2
AcAmProject
  3
DesignerAssemblies
 90
        0
 91
        1
280
     0
281
     0
  0
CLASS
  1
ACAMGRCOMPDEF
  2
AcAmGrCompDef
  3
DesignerAssemblies
 90
        0
 91
        1
280
     0
281
     0
  0
CLASS
  1
ACCMCONTEXT
  2
AcCmContext
  3
DesignerAssemblies
 90
        0
 91
        1
280
     0
281
     0
  0
CLASS
  1
ACAMCOMPDEF
  2
AcAmCompDef
  3
DesignerAssemblies
 90
        0
 91
        1
280
     0
281
     0
  0
CLASS
  1
ACAMCOMPDEFMGR
  2
AcAmCompDefMgr
  3
DesignerAssemblies
 90
        0
 91
        1
280
     0
281
     0
  0
CLASS
  1
AMCONTEXTMGR
  2
AcAmContextMgr
  3
DesignerAssemblies
 90
        0
 91
        1
280
     0
281
     0
  0
CLASS
  1
ACAMCONTEXTMODELER
  2
AcAmContextModeler
  3
DesignerAssemblies
 90
        0
 91
        1
280
     0
281
     0
  0
CLASS
  1
ACMTHREADLINESTANDARDANSI
  2
AmdtThreadLineStdANSI
  3
"Amdt_StdImp|Product Description: AutoCAD Mechanical 2004 DX|Company: Autodesk"
 90
        0
 91
        1
280
     0
281
     0
  0
CLASS
  1
CATALOGSTATE
  2
AcAmCatalogState
  3
DesignerAssemblies
 90
        0
 91
        1
280
     0
281
     0
  0
CLASS
  1
ACAMGRCOMPDEFSET
  2
AcAmGrCompDefSet
  3
DesignerAssemblies
 90
        0
 91
        1
280
     0
281
     0
  0
CLASS
  1
AMDTBROWSERDBTAB
  2
AmdtBrowserDbTab
  3
McadcomServices
 90
        0
 91
        1
280
     0
281
     0
  0
CLASS
  1
CBROWSERAPPOBJECT
  2
CBrowserAppObject
  3
McadcomServices
 90
        0
 91
        3
280
     0
281
     0
  0
CLASS
  1
DM_PLACEHOLDER
  2
AcDmSelsetPlaceholder
  3
AcMechDwgViewMgmt
 90
        0
 91
        1
280
     0
281
     0
  0
ENDSEC
  0
SECTION
  2
TABLES
  0
TABLE
  2
VPORT
  5
1C4
330
0
100
AcDbSymbolTable
 70
     4
  0
VPORT
  5
207A
330
1C4
100
AcDbSymbolTableRecord
100
AcDbViewportTableRecord
  2
*Active
 70
     0
 10
0.0
 20
0.0
 11
1.0
 21
1.0
 12
0.0
 22
0.0
 13
0.0
 23
0.0
 14
1.0
 24
1.0
 15
0.0
 25
0.0
 16
0.0
 26
0.0
 36
1.0
 17
0.0256867265629808
 27
75.17574953464424
 37
0.0
 40
530.7341557311872
 41
1.987161198288159
 42
50.0
 43
0.0
 44
0.0
 50
0.0
 51
0.0
 71
     0
 72
   100
 73
     1
 74
     1
 75
     0
 76
     0
 77
     0
 78
     0
281
     0
 65
     0
110
0.0
120
0.0
130
0.0
111
1.0
121
0.0
131
0.0
112
0.0
122
1.0
132
0.0
 79
     0
146
0.0
  0
ENDTAB
  0
TABLE
  2
LTYPE
  5
1C1
330
0
100
AcDbSymbolTable
 70
    12
  0
LTYPE
  5
1CF
330
1C1
100
AcDbSymbolTableRecord
100
AcDbLinetypeTableRecord
  2
ByBlock
 70
     0
  3

 72
    65
 73
     0
 40
0.0
  0
LTYPE
  5
1D0
330
1C1
100
AcDbSymbolTableRecord
100
AcDbLinetypeTableRecord
  2
ByLayer
 70
     0
  3

 72
    65
 73
     0
 40
0.0
  0
LTYPE
  5
1D1
330
1C1
100
AcDbSymbolTableRecord
100
AcDbLinetypeTableRecord
  2
CONTINUOUS
 70
     0
  3
Solid line
 72
    65
 73
     0
 40
0.0
  0
LTYPE
  5
214
330
1C1
100
AcDbSymbolTableRecord
100
AcDbLinetypeTableRecord
  2
Amconstr
 70
     0
  3
_______________________
 72
    65
 73
     2
 40
9999.0
 49
9999.0
 74
     0
 49
0.0
 74
     0
  0
LTYPE
  5
21A
330
1C1
100
AcDbSymbolTableRecord
100
AcDbLinetypeTableRecord
  2
HIDDEN
 70
     0
  3
Hidden __ __ __ __ __ __ __ __ __ __ __ __ __ _
 72
    65
 73
     2
 40
0.375
 49
0.25
 74
     0
 49
-0.125
 74
     0
  0
LTYPE
  5
21B
330
1C1
100
AcDbSymbolTableRecord
100
AcDbLinetypeTableRecord
  2
CENTER
 70
     0
  3
Center ____ _ ____ _ ____ _ ____ _ ____ _ ____
 72
    65
 73
     4
 40
2.0
 49
1.25
 74
     0
 49
-0.25
 74
     0
 49
0.25
 74
     0
 49
-0.25
 74
     0
  0
LTYPE
  5
21C
330
1C1
100
AcDbSymbolTableRecord
100
AcDbLinetypeTableRecord
  2
PHANTOM2
 70
     0
  3
Phantom (.5x) ___ _ _ ___ _ _ ___ _ _ ___ _ _
 72
    65
 73
     6
 40
1.25
 49
0.625
 74
     0
 49
-0.125
 74
     0
 49
0.125
 74
     0
 49
-0.125
 74
     0
 49
0.125
 74
     0
 49
-0.125
 74
     0
  0
LTYPE
  5
21D
330
1C1
100
AcDbSymbolTableRecord
100
AcDbLinetypeTableRecord
  2
CENTER2
 70
     0
  3
Center (.5x) ___ _ ___ _ ___ _ ___ _ ___ _ ___
 72
    65
 73
     4
 40
1.125
 49
0.75
 74
     0
 49
-0.125
 74
     0
 49
0.125
 74
     0
 49
-0.125
 74
     0
  0
LTYPE
  5
21E
330
1C1
100
AcDbSymbolTableRecord
100
AcDbLinetypeTableRecord
  2
HIDDEN2
 70
     0
  3
Hidden (.5x) _ _ _ _ _ _ _ _ _ _ _ _ _ _ _ _ _
 72
    65
 73
     2
 40
0.1875
 49
0.125
 74
     0
 49
-0.0625
 74
     0
  0
LTYPE
  5
21F
330
1C1
100
AcDbSymbolTableRecord
100
AcDbLinetypeTableRecord
  2
Amzigzag2
 70
     0
  3
/\/-/\/-/\/-/\/-/\/-/\/
 72
    65
 73
     2
 40
0.4401
 49
0.0001
 74
     4
 75
   135
340
218
 46
0.0016
 50
0.0
 44
0.0
 45
0.0
 49
-0.4400000000000001
 74
     0
  0
LTYPE
  5
22C
330
1C1
100
AcDbSymbolTableRecord
100
AcDbLinetypeTableRecord
  2
ACANSTGB
 70
     0
  3
__ . . __ . .
 72
    65
 73
     6
 40
0.35433070866
 49
0.15748031496
 74
     0
 49
-0.03937007874
 74
     0
 49
0.03937007874
 74
     0
 49
-0.03937007874
 74
     0
 49
0.03937007874
 74
     0
 49
-0.03937007874
 74
     0
  0
LTYPE
  5
22D
330
1C1
100
AcDbSymbolTableRecord
100
AcDbLinetypeTableRecord
  2
ACANSTGL
 70
     0
  3
_ _ _ _ _
 72
    65
 73
     2
 40
0.11811023622
 49
0.07874015748
 74
     0
 49
-0.03937007874
 74
     0
  0
LTYPE
  5
2037
330
1C1
100
AcDbSymbolTableRecord
100
AcDbLinetypeTableRecord
  2
ASULTYPE
 70
     0
  3
Ausgezogene Linie
 72
    65
 73
     2
 40
3.0
 49
2.5
 74
     0
 49
0.5
 74
     0
  0
LTYPE
  5
2038
330
1C1
100
AcDbSymbolTableRecord
100
AcDbLinetypeTableRecord
  2
ASVLTYPE
 70
     0
  3
__ __ __ __ __ __ __ __ __ __ __ __ __ __ __ __ __ __ __ __ __
 72
    65
 73
     2
 40
0.75
 49
0.5
 74
     0
 49
-0.25
 74
     0
  0
ENDTAB
  0
TABLE
  2
LAYER
  5
1BE
330
0
100
AcDbSymbolTable
 70
     1
  0
LAYER
  5
1CC
330
1BE
100
AcDbSymbolTableRecord
100
AcDbLayerTableRecord
  2
0
 70
     0
 62
     7
  6
CONTINUOUS
370
    -3
390
1CB
  0
ENDTAB
  0
TABLE
  2
STYLE
  5
1BF
330
0
100
AcDbSymbolTable
 70
     4
  0
STYLE
  5
1CD
330
1BF
100
AcDbSymbolTableRecord
100
AcDbTextStyleTableRecord
  2
STANDARD
 70
     0
 40
0.0
 41
1.0
 50
0.0
 71
     0
 42
0.0
  3
txt
  4

  0
STYLE
  5
218
330
1BF
100
AcDbSymbolTableRecord
100
AcDbTextStyleTableRecord
  2

 70
     1
 40
0.0
 41
1.0
 50
0.0
 71
     0
 42
0.2
  3
ltypeshp.shx
  4

  0
STYLE
  5
220
330
1BF
100
AcDbSymbolTableRecord
100
AcDbTextStyleTableRecord
  2
ACANSTS
 70
     0
 40
1.0
 41
1.0
 50
0.0
 71
     0
 42
0.2
  3
romans.shx
  4

  0
STYLE
  5
22B
330
1BF
100
AcDbSymbolTableRecord
100
AcDbTextStyleTableRecord
  2
ACANSGDT
 70
     0
 40
0.0
 41
1.0
 50
0.0
 71
     0
 42
0.2
  3
amgdtans.shx
  4

  0
ENDTAB
  0
TABLE
  2
VIEW
  5
1C2
330
0
100
AcDbSymbolTable
 70
     0
  0
ENDTAB
  0
TABLE
  2
UCS
  5
1C3
330
0
100
AcDbSymbolTable
 70
     0
  0
ENDTAB
  0
TABLE
  2
APPID
  5
1C5
330
0
100
AcDbSymbolTable
 70
    13
  0
APPID
  5
1CE
330
1C5
100
AcDbSymbolTableRecord
100
AcDbRegAppTableRecord
  2
ACAD
 70
     0
  0
APPID
  5
1F3
330
1C5
100
AcDbSymbolTableRecord
100
AcDbRegAppTableRecord
  2
MCAD_NO_VIS
 70
     0
  0
APPID
  5
1F4
330
1C5
100
AcDbSymbolTableRecord
100
AcDbRegAppTableRecord
  2
ACAD_TEMP_GRAPHIC
 70
     0
  0
APPID
  5
205
330
1C5
100
AcDbSymbolTableRecord
100
AcDbRegAppTableRecord
  2
ACATTRIBSERVICES
 70
     0
  0
APPID
  5
1FC5
330
1C5
100
AcDbSymbolTableRecord
100
AcDbRegAppTableRecord
  2
GENIUS_GENDIM_13
 70
     0
  0
APPID
  5
1FC6
330
1C5
100
AcDbSymbolTableRecord
100
AcDbRegAppTableRecord
  2
GENIUS_GENDTOL_13
 70
     0
  0
APPID
  5
1FC7
330
1C5
100
AcDbSymbolTableRecord
100
AcDbRegAppTableRecord
  2
GENIUS_GE3DTOL_13
 70
     0
  0
APPID
  5
1FED
330
1C5
100
AcDbSymbolTableRecord
100
AcDbRegAppTableRecord
  2
AD_DRAW
 70
     0
  0
APPID
  5
2039
330
1C5
100
AcDbSymbolTableRecord
100
AcDbRegAppTableRecord
  2
ASURF_PCURVE_APPNAME
 70
     0
  0
APPID
  5
203E
330
1C5
100
AcDbSymbolTableRecord
100
AcDbRegAppTableRecord
  2
AMG_3D2D_5.0
 70
     0
  0
APPID
  5
206D
330
1C5
100
AcDbSymbolTableRecord
100
AcDbRegAppTableRecord
  2
DESIGNERASSEMBLIES
 70
     0
  0
APPID
  5
2072
330
1C5
100
AcDbSymbolTableRecord
100
AcDbRegAppTableRecord
  2
ACADM_DIM_EDIT
 70
     0
  0
APPID
  5
2073
330
1C5
100
AcDbSymbolTableRecord
100
AcDbRegAppTableRecord
  2
AMDT_DM_ADJ
 70
     0
  0
ENDTAB
  0
TABLE
  2
DIMSTYLE
  5
1C6
330
0
100
AcDbSymbolTable
 70
     7
100
AcDbDimStyleTable
 71
     0
  0
DIMSTYLE
105
1E4
330
1C6
100
AcDbSymbolTableRecord
100
AcDbDimStyleTableRecord
  2
STANDARD
 70
     0
279
     2
340
1CD
  0
DIMSTYLE
105
231
330
1C6
100
AcDbSymbolTableRecord
100
AcDbDimStyleTableRecord
  2
AM_ANSI
 70
     0
  4
mm
 41
0.1
 42
0.05
 43
0.5
 44
0.1
 47
0.1
 48
0.1
 78
     7
 79
     2
140
0.12
141
0.0
146
0.71
147
0.06
176
   256
177
   256
178
     2
274
     4
284
     7
340
1CD
371
    -1
372
    -1
  0
DIMSTYLE
105
232
330
1C6
100
AcDbSymbolTableRecord
100
AcDbDimStyleTableRecord
  2
AM_ANSI$3
 70
     0
  4
mm
 41
0.1
 42
0.05
 43
0.5
 44
0.1
 47
0.1
 48
0.1
 78
     7
 79
     2
140
0.12
141
0.0
146
0.71
147
0.06
176
   256
177
   256
178
     2
274
     4
284
     7
288
     1
289
     0
340
1CD
371
    -1
372
    -1
  0
DIMSTYLE
105
233
330
1C6
100
AcDbSymbolTableRecord
100
AcDbDimStyleTableRecord
  2
AM_ANSI$4
 70
     0
  4
mm
 41
0.1
 42
0.05
 43
0.5
 44
0.1
 47
0.1
 48
0.1
 78
     7
 79
     2
140
0.12
141
0.0
146
0.71
147
0.06
176
   256
177
   256
178
     2
274
     4
284
     7
288
     1
289
     0
340
1CD
371
    -1
372
    -1
  0
DIMSTYLE
105
234
330
1C6
100
AcDbSymbolTableRecord
100
AcDbDimStyleTableRecord
  2
AM_ANSI$7
 70
     0
  4
mm
 41
0.1
 42
0.05
 43
0.5
 44
0.1
 47
0.1
 48
0.1
 78
     7
 79
     2
140
0.24
141
0.0
146
0.71
147
0.06
176
   256
177
   256
178
     2
274
     4
284
     7
340
1CD
371
    -1
372
    -1
  0
DIMSTYLE
105
235
330
1C6
100
AcDbSymbolTableRecord
100
AcDbDimStyleTableRecord
  2
AM_ANSI$SF
 70
     0
  4
mm
 41
0.1
 42
0.05
 43
0.5
 44
0.1
 47
0.1
 48
0.1
 75
     1
 76
     1
 78
     7
 79
     2
140
0.12
141
0.0
146
0.71
147
0.06
176
   256
177
   256
178
     2
274
     4
284
     7
340
1CD
371
    -1
372
    -1
  0
DIMSTYLE
105
23A
330
1C6
100
AcDbSymbolTableRecord
100
AcDbDimStyleTableRecord
  2
AM_ANSI$SH
 70
     0
  4
mm
 41
0.1
 42
0.05
 43
0.5
 44
0.1
 47
0.1
 48
0.1
 75
     1
 76
     1
 78
     7
 79
     2
140
0.12
141
0.0
146
0.71
147
0.06
173
     1
176
   256
177
   256
178
     2
274
     4
284
     7
340
1CD
343
236
371
    -1
372
    -1
  0
ENDTAB
  0
TABLE
  2
BLOCK_RECORD
  5
1BD
330
0
100
AcDbSymbolTable
 70
     2
  0
BLOCK_RECORD
  5
1DA
102
{ACAD_XDICTIONARY
360
245
102
}
330
1BD
100
AcDbSymbolTableRecord
100
AcDbBlockTableRecord
  2
*Model_Space
340
1DD
  0
BLOCK_RECORD
  5
1D6
330
1BD
100
AcDbSymbolTableRecord
100
AcDbBlockTableRecord
  2
*Paper_Space
340
1D9
  0
BLOCK_RECORD
  5
236
330
1BD
100
AcDbSymbolTableRecord
100
AcDbBlockTableRecord
  2
GENAXEH
340
0
  0
BLOCK_RECORD
  5
2064
330
1BD
100
AcDbSymbolTableRecord
100
AcDbBlockTableRecord
  2
*U1
340
0
  0
ENDTAB
  0
ENDSEC
  0
SECTION
  2
BLOCKS
  0
BLOCK
  5
1E8
330
1DA
100
AcDbEntity
  8
0
100
AcDbBlockBegin
  2
*Model_Space
 70
     0
 10
0.0
 20
0.0
 30
0.0
  3
*Model_Space
  1

  0
ENDBLK
  5
1E9
330
1DA
100
AcDbEntity
  8
0
100
AcDbBlockEnd
  0
BLOCK
  5
1E6
330
1D6
100
AcDbEntity
 67
     1
  8
0
100
AcDbBlockBegin
  2
*Paper_Space
 70
     0
 10
0.0
 20
0.0
 30
0.0
  3
*Paper_Space
  1

  0
ENDBLK
  5
1E7
330
1D6
100
AcDbEntity
 67
     1
  8
0
100
AcDbBlockEnd
  0
BLOCK
  5
238
330
236
100
AcDbEntity
  8
0
100
AcDbBlockBegin
  2
GENAXEH
 70
     0
 10
0.0
 20
0.0
 30
0.0
  3
GENAXEH
  1

  0
LINE
  5
237
330
236
100
AcDbEntity
  8
0
100
AcDbLine
 10
-1.0
 20
0.0
 30
0.0
 11
1.0
 21
0.0
 31
0.0
  0
ENDBLK
  5
239
330
236
100
AcDbEntity
  8
0
100
AcDbBlockEnd
  0
BLOCK
  5
2065
330
2064
100
AcDbEntity
  8
0
100
AcDbBlockBegin
  2
*U1
 70
     1
 10
0.0
 20
0.0
 30
0.0
  3
*U1
  1

  0
ENDBLK
  5
2066
330
2064
100
AcDbEntity
  8
0
100
AcDbBlockEnd
  0
ENDSEC
  0
SECTION
  2
ENTITIES
  0
POLYLINE
  5
FE5
330
1DA
100
AcDbEntity
  8
0
  6
CENTER2
 62
     4
 48
30.0
100
AcDb2dPolyline
 66
     1
 10
0.0
 20
0.0
 30
0.0
  0
VERTEX
  5
FE6
330
FE5
100
AcDbEntity
  8
0
  6
CENTER2
 62
     4
 48
30.0
100
AcDbVertex
100
AcDb2dVertex
 10
-140.0
 20
154.3021267361111
 30
0.0
  0
VERTEX
  5
FE7
330
FE5
100
AcDbEntity
  8
0
  6
CENTER2
 62
     4
 48
30.0
100
AcDbVertex
100
AcDb2dVertex
 10
-140.0
 20
87.27434895833335
 30
0.0
  0
SEQEND
  5
FE8
330
FE5
100
AcDbEntity
  8
0
  6
CENTER2
 62
     4
 48
30.0
  0
POLYLINE
  5
FE9
330
1DA
100
AcDbEntity
  8
0
  6
CENTER2
 62
     4
 48
30.0
100
AcDb2dPolyline
 66
     1
 10
0.0
 20
0.0
 30
0.0
  0
VERTEX
  5
FEA
330
FE9
100
AcDbEntity
  8
0
  6
CENTER2
 62
     4
 48
30.0
100
AcDbVertex
100
AcDb2dVertex
 10
-88.96297743055553
 20
120.0
 30
0.0
  0
VERTEX
  5
FEB
330
FE9
100
AcDbEntity
  8
0
  6
CENTER2
 62
     4
 48
30.0
100
AcDbVertex
100
AcDb2dVertex
 10
-191.0370225694444
 20
120.0
 30
0.0
  0
SEQEND
  5
FEC
330
FE9
100
AcDbEntity
  8
0
  6
CENTER2
 62
     4
 48
30.0
  0
POLYLINE
  5
FED
330
1DA
100
AcDbEntity
  8
0
  6
CENTER2
 62
     4
 48
30.0
100
AcDb2dPolyline
 66
     1
 10
0.0
 20
0.0
 30
0.0
  0
VERTEX
  5
FEE
330
FED
100
AcDbEntity
  8
0
  6
CENTER2
 62
     4
 48
30.0
100
AcDbVertex
100
AcDb2dVertex
 10
0.0
 20
75.66362847222222
 30
0.0
  0
VERTEX
  5
FEF
330
FED
100
AcDbEntity
  8
0
  6
CENTER2
 62
     4
 48
30.0
100
AcDbVertex
100
AcDb2dVertex
 10
0.0
 20
-26.22300347222222
 30
0.0
  0
SEQEND
  5
FF0
330
FED
100
AcDbEntity
  8
0
  6
CENTER2
 62
     4
 48
30.0
  0
LINE
  5
1701
330
1DA
100
AcDbEntity
  8
0
  6
Continuous
100
AcDbLine
 10
-49.97193798099798
 20
40.0
 30
0.0
 11
49.93886506433129
 21
40.0
 31
0.0
  0
POLYLINE
  5
17FE
330
1DA
100
AcDbEntity
  8
0
  6
CENTER2
 62
     4
 48
30.0
100
AcDb2dPolyline
 66
     1
 10
0.0
 20
0.0
 30
0.0
  0
VERTEX
  5
17FF
330
17FE
100
AcDbEntity
  8
0
  6
CENTER2
 62
     4
 48
30.0
100
AcDbVertex
100
AcDb2dVertex
 10
88.96297743055553
 20
120.0
 30
0.0
  0
VERTEX
  5
1800
330
17FE
100
AcDbEntity
  8
0
  6
CENTER2
 62
     4
 48
30.0
100
AcDbVertex
100
AcDb2dVertex
 10
191.0370225694444
 20
120.0
 30
0.0
  0
SEQEND
  5
1801
330
17FE
100
AcDbEntity
  8
0
  6
CENTER2
 62
     4
 48
30.0
  0
POLYLINE
  5
1802
330
1DA
100
AcDbEntity
  8
0
  6
CENTER2
 62
     4
 48
30.0
100
AcDb2dPolyline
 66
     1
 10
0.0
 20
0.0
 30
0.0
  0
VERTEX
  5
1803
330
1802
100
AcDbEntity
  8
0
  6
CENTER2
 62
     4
 48
30.0
100
AcDbVertex
100
AcDb2dVertex
 10
140.0
 20
154.3021267361111
 30
0.0
  0
VERTEX
  5
1804
330
1802
100
AcDbEntity
  8
0
  6
CENTER2
 62
     4
 48
30.0
100
AcDbVertex
100
AcDb2dVertex
 10
140.0
 20
87.27434895833335
 30
0.0
  0
SEQEND
  5
1805
330
1802
100
AcDbEntity
  8
0
  6
CENTER2
 62
     4
 48
30.0
  0
LINE
  5
1A8D
330
1DA
100
AcDbEntity
  8
0
  6
HIDDEN
 62
     6
 48
50.0
100
AcDbLine
 10
-31.99177720852744
 20
60.31401573745757
 30
0.0
 11
0.0
 21
60.31401573745757
 31
0.0
  0
LINE
  5
1AA1
330
1DA
100
AcDbEntity
  8
0
  6
HIDDEN
 62
     6
 48
50.0
100
AcDbLine
 10
-26.0
 20
54.0
 30
0.0
 11
0.0
 21
54.0
 31
0.0
  0
LINE
  5
1AAF
330
1DA
100
AcDbEntity
  8
0
  6
HIDDEN
 62
     6
 48
50.0
100
AcDbLine
 10
-273.9800431471555
 20
164.2155372436685
 30
0.0
 11
-258.2369730176111
 21
79.93214983301766
 31
0.0
  0
ARC
  5
1AB0
330
1DA
100
AcDbEntity
  8
0
  6
HIDDEN
 62
     6
 48
50.0
100
AcDbCircle
 10
-248.3888954874891
 20
81.66863160968693
 30
0.0
 40
9.999999999999973
100
AcDbArc
 50
190.0
 51
266.9999999999999
  0
LINE
  5
1AB1
330
1DA
100
AcDbEntity
  8
0
  6
HIDDEN
 62
     6
 48
50.0
100
AcDbLine
 10
-248.9122550499185
 20
71.68233626214123
 30
0.0
 11
-31.99177720852744
 21
60.31401573745757
 31
0.0
  0
LINE
  5
1AB2
330
1DA
100
AcDbEntity
  8
0
  6
HIDDEN
 62
     6
 48
50.0
100
AcDbLine
 10
-31.99177720852744
 20
60.31401573745757
 30
0.0
 11
-26.0
 21
54.0
 31
0.0
  0
LINE
  5
1AB3
330
1DA
100
AcDbEntity
  8
0
  6
HIDDEN
 62
     6
 48
50.0
100
AcDbLine
 10
-26.0
 20
54.0
 30
0.0
 11
-26.0
 21
0.0
 31
0.0
  0
LINE
  5
1AB8
330
1DA
100
AcDbEntity
  8
0
  6
HIDDEN
 62
     6
 48
50.0
100
AcDbLine
 10
-249.1739348311333
 20
66.68918858836832
 30
0.0
 11
-26.99177720852743
 21
55.04511511105284
 31
0.0
  0
ARC
  5
1AB9
330
1DA
100
AcDbEntity
  8
0
  6
HIDDEN
 62
     6
 48
50.0
100
AcDbCircle
 10
-248.3888954874891
 20
81.66863160968693
 30
0.0
 40
14.99999999999997
100
AcDbArc
 50
190.0
 51
266.9999999999999
  0
LINE
  5
1ABA
330
1DA
100
AcDbEntity
  8
0
  6
HIDDEN
 62
     6
 48
50.0
100
AcDbLine
 10
-278.1238380953125
 20
158.9223137816574
 30
0.0
 11
-263.1610117826722
 21
79.06390894468302
 31
0.0
  0
LINE
  5
1ABB
330
1DA
100
AcDbEntity
  8
0
  6
HIDDEN
 62
     6
 48
50.0
100
AcDbLine
 10
-520.6369615675205
 20
158.0540728933227
 30
0.0
 11
-520.6369615675205
 21
55.0
 31
0.0
  0
LINE
  5
1ABD
330
1DA
100
AcDbEntity
  8
0
  6
HIDDEN
 62
     6
 48
50.0
100
AcDbLine
 10
-480.7841375211793
 20
157.6182941795844
 30
0.0
 11
-490.2376439471488
 21
54.56422128626172
 31
0.0
  0
LINE
  5
1ABE
330
1DA
100
AcDbEntity
  8
0
  6
HIDDEN
 62
     6
 48
50.0
100
AcDbLine
 10
-308.2804478631493
 20
157.1858320049881
 30
0.0
 11
-289.2275994366174
 21
54.13175911166536
 31
0.0
  0
LINE
  5
1AC0
330
1DA
100
AcDbEntity
  8
0
  6
HIDDEN
 62
     6
 48
50.0
100
AcDbLine
 10
-312.6836996707283
 20
153.3640615127902
 30
0.0
 11
-293.4230975925037
 21
49.13175911166536
 31
0.0
  0
LINE
  5
1AC1
330
1DA
100
AcDbEntity
  8
0
  6
HIDDEN
 62
     6
 48
50.0
100
AcDbLine
 10
-476.1750710014897
 20
152.9315993381939
 30
0.0
 11
-485.6559880770618
 21
49.56422128626172
 31
0.0
  0
LINE
  5
1AC3
330
1DA
100
AcDbEntity
  8
0
  6
HIDDEN
 62
     6
 48
50.0
100
AcDbLine
 10
-485.765111011638
 20
163.0540728933227
 30
0.0
 11
-515.6369615675205
 21
163.0540728933227
 31
0.0
  0
ARC
  5
1AC5
330
1DA
100
AcDbEntity
  8
0
  6
HIDDEN
 62
     6
 48
50.0
100
AcDbCircle
 10
-485.765111011638
 20
158.0540728933227
 30
0.0
 40
5.0
100
AcDbArc
 50
355.0
 51
90.0
  0
ARC
  5
1AC6
330
1DA
100
AcDbEntity
  8
0
  6
HIDDEN
 62
     6
 48
50.0
100
AcDbCircle
 10
-515.6369615675205
 20
158.0540728933227
 30
0.0
 40
5.0
100
AcDbArc
 50
90.0
 51
180.0
  0
LINE
  5
1AC8
330
1DA
100
AcDbEntity
  8
0
  6
HIDDEN
 62
     6
 48
50.0
100
AcDbLine
 10
-288.4990588274427
 20
45.0
 30
0.0
 11
-269.4817149577362
 21
45.0
 31
0.0
  0
LINE
  5
1AC9
330
1DA
100
AcDbEntity
  8
0
  6
HIDDEN
 62
     6
 48
50.0
100
AcDbLine
 10
-515.6369615675205
 20
50.0
 30
0.0
 11
-495.2186174376075
 21
50.0
 31
0.0
  0
ARC
  5
1ACA
330
1DA
100
AcDbEntity
  8
0
  6
HIDDEN
 62
     6
 48
50.0
100
AcDbCircle
 10
-515.6369615675205
 20
55.0
 30
0.0
 40
5.0
100
AcDbArc
 50
180.0
 51
270.0
  0
ARC
  5
1ACB
330
1DA
100
AcDbEntity
  8
0
  6
HIDDEN
 62
     6
 48
50.0
100
AcDbCircle
 10
-495.2186174376075
 20
55.0
 30
0.0
 40
5.0
100
AcDbArc
 50
270.0
 51
355.0
  0
LINE
  5
1ACC
330
1DA
100
AcDbEntity
  8
0
  6
HIDDEN
 62
     6
 48
50.0
100
AcDbLine
 10
-517.1383767458141
 20
43.08875535305276
 30
0.0
 11
-519.0834912310067
 21
40.61269829617105
 31
0.0
  0
LINE
  5
1ACE
330
1DA
100
AcDbEntity
  8
0
  6
HIDDEN
 62
     6
 48
50.0
100
AcDbLine
 10
-303.3564090980883
 20
163.0540728933227
 30
0.0
 11
-283.0478768603736
 21
163.0540728933227
 31
0.0
  0
ARC
  5
1ACF
330
1DA
100
AcDbEntity
  8
0
  6
HIDDEN
 62
     6
 48
50.0
100
AcDbCircle
 10
-283.0478768603736
 20
158.0540728933227
 30
0.0
 40
5.0
100
AcDbArc
 50
10.00000000000004
 51
90.0
  0
ARC
  5
1AD0
330
1DA
100
AcDbEntity
  8
0
  6
HIDDEN
 62
     6
 48
50.0
100
AcDbCircle
 10
-303.3564090980883
 20
158.0540728933227
 30
0.0
 40
5.0
100
AcDbArc
 50
90.00000000000003
 51
190.0
  0
ARC
  5
1AD1
330
1DA
100
AcDbEntity
  8
0
  6
HIDDEN
 62
     6
 48
50.0
100
AcDbCircle
 10
-317.6077384357893
 20
152.4958206244556
 30
0.0
 40
5.0
100
AcDbArc
 50
10.00000000000009
 51
90.0
  0
ARC
  5
1AD2
330
1DA
100
AcDbEntity
  8
0
  6
HIDDEN
 62
     6
 48
50.0
100
AcDbCircle
 10
-471.194097511031
 20
152.4958206244556
 30
0.0
 40
5.0
100
AcDbArc
 50
90.0
 51
175.0
  0
ARC
  5
1AD3
330
1DA
100
AcDbEntity
  8
0
  6
HIDDEN
 62
     6
 48
50.0
100
AcDbCircle
 10
-280.8736974182409
 20
163.0
 30
0.0
 40
7.0
100
AcDbArc
 50
10.00000000000004
 51
90.0
  0
LINE
  5
1AD4
330
1DA
100
AcDbEntity
  8
0
  6
HIDDEN
 62
     6
 48
50.0
100
AcDbLine
 10
-284.3035606715564
 20
50.0
 30
0.0
 11
-272.4489192957178
 21
50.0
 31
0.0
  0
LINE
  5
1AD5
330
1DA
100
AcDbEntity
  8
0
  6
HIDDEN
 62
     6
 48
50.0
100
AcDbLine
 10
-258.3281962107251
 20
70.43429579785197
 30
0.0
 11
-268.0601223098274
 21
52.60449149101089
 31
0.0
  0
ARC
  5
1AD6
330
1DA
100
AcDbEntity
  8
0
  6
HIDDEN
 62
     6
 48
50.0
100
AcDbCircle
 10
-284.3035606715564
 20
55.0
 30
0.0
 40
5.0
100
AcDbArc
 50
190.0
 51
270.0
  0
ARC
  5
1AD7
330
1DA
100
AcDbEntity
  8
0
  6
HIDDEN
 62
     6
 48
50.0
100
AcDbCircle
 10
-272.4489192957178
 20
55.0
 30
0.0
 40
5.0
100
AcDbArc
 50
270.0
 51
331.3732508331317
  0
ARC
  5
1AD8
330
1DA
100
AcDbEntity
  8
0
  6
HIDDEN
 62
     6
 48
50.0
100
AcDbCircle
 10
-288.4990588274427
 20
50.0
 30
0.0
 40
5.0
100
AcDbArc
 50
190.0000000000001
 51
270.0
  0
LINE
  5
1AD9
330
1DA
100
AcDbEntity
  8
0
  6
HIDDEN
 62
     6
 48
50.0
100
AcDbLine
 10
-253.9393992248347
 20
68.03878728886286
 30
0.0
 11
-265.0929179718458
 21
47.60449149101089
 31
0.0
  0
ARC
  5
1ADA
330
1DA
100
AcDbEntity
  8
0
  6
HIDDEN
 62
     6
 48
50.0
100
AcDbCircle
 10
-269.4817149577362
 20
50.0
 30
0.0
 40
5.0
100
AcDbArc
 50
270.0
 51
331.3732508331317
  0
LINE
  5
1ADB
330
1DA
100
AcDbEntity
  8
0
  6
HIDDEN
 62
     6
 48
50.0
100
AcDbLine
 10
-513.2065081863393
 20
45.0
 30
0.0
 11
-490.6369615675205
 21
45.0
 31
0.0
  0
ARC
  5
1ADC
330
1DA
100
AcDbEntity
  8
0
  6
HIDDEN
 62
     6
 48
50.0
100
AcDbCircle
 10
-490.6369615675205
 20
50.0
 30
0.0
 40
5.0
100
AcDbArc
 50
270.0
 51
355.0000000000001
  0
ARC
  5
1ADD
330
1DA
100
AcDbEntity
  8
0
  6
HIDDEN
 62
     6
 48
50.0
100
AcDbCircle
 10
-513.2065081863393
 20
40.0
 30
0.0
 40
5.0
100
AcDbArc
 50
90.0
 51
141.8479089154689
  0
POLYLINE
  5
1CE1
330
1DA
100
AcDbEntity
  8
0
  6
CENTER2
 62
     4
 48
30.0
100
AcDb2dPolyline
 66
     1
 10
0.0
 20
0.0
 30
0.0
  0
VERTEX
  5
1CE2
330
1CE1
100
AcDbEntity
  8
0
  6
CENTER2
 62
     4
 48
30.0
100
AcDbVertex
100
AcDb2dVertex
 10
293.9629774305555
 20
120.0
 30
0.0
  0
VERTEX
  5
1CE3
330
1CE1
100
AcDbEntity
  8
0
  6
CENTER2
 62
     4
 48
30.0
100
AcDbVertex
100
AcDb2dVertex
 10
396.0370225694444
 20
120.0
 30
0.0
  0
SEQEND
  5
1CE4
330
1CE1
100
AcDbEntity
  8
0
  6
CENTER2
 62
     4
 48
30.0
  0
POLYLINE
  5
1CE5
330
1DA
100
AcDbEntity
  8
0
  6
CENTER2
 62
     4
 48
30.0
100
AcDb2dPolyline
 66
     1
 10
0.0
 20
0.0
 30
0.0
  0
VERTEX
  5
1CE6
330
1CE5
100
AcDbEntity
  8
0
  6
CENTER2
 62
     4
 48
30.0
100
AcDbVertex
100
AcDb2dVertex
 10
345.0
 20
154.3021267361111
 30
0.0
  0
VERTEX
  5
1CE7
330
1CE5
100
AcDbEntity
  8
0
  6
CENTER2
 62
     4
 48
30.0
100
AcDbVertex
100
AcDb2dVertex
 10
345.0
 20
87.27434895833335
 30
0.0
  0
SEQEND
  5
1CE8
330
1CE5
100
AcDbEntity
  8
0
  6
CENTER2
 62
     4
 48
30.0
  0
LINE
  5
1CF7
330
1DA
100
AcDbEntity
  8
0
  6
HIDDEN
 62
     6
 48
50.0
100
AcDbLine
 10
-434.8550569900758
 20
153.3640615127902
 30
0.0
 11
-415.5944549118514
 21
49.13175911166536
 31
0.0
  0
LINE
  5
1CF8
330
1DA
100
AcDbEntity
  8
0
  6
HIDDEN
 62
     6
 48
50.0
100
AcDbLine
 10
-430.4518051824969
 20
157.1858320049881
 30
0.0
 11
-411.398956755965
 21
54.13175911166536
 31
0.0
  0
ARC
  5
1CF9
330
1DA
100
AcDbEntity
  8
0
  6
HIDDEN
 62
     6
 48
50.0
100
AcDbCircle
 10
-406.474917990904
 20
55.0
 30
0.0
 40
5.0
100
AcDbArc
 50
190.0
 51
270.0
  0
ARC
  5
1CFA
330
1DA
100
AcDbEntity
  8
0
  6
HIDDEN
 62
     6
 48
50.0
100
AcDbCircle
 10
-410.6704161467903
 20
50.0
 30
0.0
 40
5.0
100
AcDbArc
 50
190.0000000000001
 51
270.0
  0
ARC
  5
1CFC
330
1DA
100
AcDbEntity
  8
0
  6
HIDDEN
 62
     6
 48
50.0
100
AcDbCircle
 10
-439.7790957551369
 20
152.4958206244556
 30
0.0
 40
5.0
100
AcDbArc
 50
10.00000000000009
 51
90.0
  0
ARC
  5
1CFD
330
1DA
100
AcDbEntity
  8
0
  6
HIDDEN
 62
     6
 48
50.0
100
AcDbCircle
 10
-425.5277664174359
 20
158.0540728933227
 30
0.0
 40
5.0
100
AcDbArc
 50
90.00000000000003
 51
190.0
  0
LINE
  5
1CFE
330
1DA
100
AcDbEntity
  8
0
  6
HIDDEN
 62
     6
 48
50.0
100
AcDbLine
 10
-379.6371326230948
 20
157.1858320049881
 30
0.0
 11
-398.6899810496267
 21
54.13175911166536
 31
0.0
  0
LINE
  5
1CFF
330
1DA
100
AcDbEntity
  8
0
  6
HIDDEN
 62
     6
 48
50.0
100
AcDbLine
 10
-375.2338808155158
 20
153.3640615127902
 30
0.0
 11
-394.4944828937404
 21
49.13175911166536
 31
0.0
  0
ARC
  5
1D00
330
1DA
100
AcDbEntity
  8
0
  6
HIDDEN
 62
     6
 48
50.0
100
AcDbCircle
 10
-403.6140198146877
 20
55.0
 30
0.0
 40
5.0
100
AcDbArc
 50
270.0
 51
350.0
  0
ARC
  5
1D01
330
1DA
100
AcDbEntity
  8
0
  6
HIDDEN
 62
     6
 48
50.0
100
AcDbCircle
 10
-399.4185216588014
 20
50.0
 30
0.0
 40
5.0
100
AcDbArc
 50
270.0
 51
349.9999999999999
  0
ARC
  5
1D03
330
1DA
100
AcDbEntity
  8
0
  6
HIDDEN
 62
     6
 48
50.0
100
AcDbCircle
 10
-370.3098420504548
 20
152.4958206244556
 30
0.0
 40
5.0
100
AcDbArc
 50
90.0
 51
169.9999999999999
  0
ARC
  5
1D04
330
1DA
100
AcDbEntity
  8
0
  6
HIDDEN
 62
     6
 48
50.0
100
AcDbCircle
 10
-384.5611713881558
 20
158.0540728933227
 30
0.0
 40
5.0
100
AcDbArc
 50
350.0
 51
89.99999999999998
  0
ARC
  5
1D06
330
1DA
100
AcDbEntity
  8
0
  6
HIDDEN
 62
     6
 48
50.0
100
AcDbCircle
 10
-405.0444689027958
 20
43.395588148608
 30
0.0
 40
121.3990051379104
100
AcDbArc
 50
80.28618397493209
 51
99.71381602506777
  0
LINE
  5
1D15
330
1DA
100
AcDbEntity
  8
0
  6
HIDDEN
 62
     6
 48
50.0
100
AcDbLine
 10
-410.6704161467903
 20
45.0
 30
0.0
 11
-399.4185216588014
 21
45.0
 31
0.0
  0
POLYLINE
  5
1D1A
330
1DA
100
AcDbEntity
  8
0
  6
CENTER2
 62
     4
 48
30.0
100
AcDb2dPolyline
 66
     1
 10
0.0
 20
0.0
 30
0.0
  0
VERTEX
  5
1D1B
330
1D1A
100
AcDbEntity
  8
0
  6
CENTER2
 62
     4
 48
30.0
100
AcDbVertex
100
AcDb2dVertex
 10
-293.9629774305556
 20
120.0
 30
0.0
  0
VERTEX
  5
1D1C
330
1D1A
100
AcDbEntity
  8
0
  6
CENTER2
 62
     4
 48
30.0
100
AcDbVertex
100
AcDb2dVertex
 10
-396.0370225694445
 20
120.0
 30
0.0
  0
SEQEND
  5
1D1D
330
1D1A
100
AcDbEntity
  8
0
  6
CENTER2
 62
     4
 48
30.0
  0
POLYLINE
  5
1D22
330
1DA
100
AcDbEntity
  8
0
  6
CENTER2
 62
     4
 48
30.0
100
AcDb2dPolyline
 66
     1
 10
0.0
 20
0.0
 30
0.0
  0
VERTEX
  5
1D23
330
1D22
100
AcDbEntity
  8
0
  6
CENTER2
 62
     4
 48
30.0
100
AcDbVertex
100
AcDb2dVertex
 10
-345.0
 20
154.3021267361111
 30
0.0
  0
VERTEX
  5
1D24
330
1D22
100
AcDbEntity
  8
0
  6
CENTER2
 62
     4
 48
30.0
100
AcDbVertex
100
AcDb2dVertex
 10
-345.0
 20
87.27434895833335
 30
0.0
  0
SEQEND
  5
1D25
330
1D22
100
AcDbEntity
  8
0
  6
CENTER2
 62
     4
 48
30.0
  0
LWPOLYLINE
  5
1E92
330
1DA
100
AcDbEntity
  8
0
  6
Continuous
100
AcDbPolyline
 90
       14
 70
   129
 43
0.0
 10
525.0165364583333
 20
160.0
 42
0.4142135623730951
 10
515.0165364583333
 20
170.0
 10
-514.9834635416666
 20
170.0
 42
0.4142135623730951
 10
-524.9834635416666
 20
160.0
 10
-524.9834635416666
 20
50.0
 42
0.4142135623730951
 10
-514.9834635416666
 20
40.0
 10
-49.9554015226646
 20
40.0
 42
-0.3729018752331755
 10
-45.00649150765787
 20
35.7129443620421
 10
-39.86165309725254
 20
0.0
 10
39.86165309725254
 20
0.0
 10
45.006491507658
 20
35.71294436204221
 42
-0.3729018752331736
 10
49.95540152266469
 20
40.0
 10
514.3164087236998
 20
40.0
 42
0.394544270620118
 10
525.0165364583333
 20
49.99999999999727
  0
ARC
  5
1EFF
330
1DA
100
AcDbEntity
  8
0
  6
HIDDEN
 62
     6
 48
50.0
100
AcDbCircle
 10
-455.4865966330839
 20
112.4789135996728
 30
0.0
 40
47.67858535976762
100
AcDbArc
 50
70.76486995555477
 51
109.2351300444452
  0
ARC
  5
1F00
330
1DA
100
AcDbEntity
  8
0
  6
HIDDEN
 62
     6
 48
50.0
100
AcDbCircle
 10
-343.9587902431221
 20
20.18093922792224
 30
0.0
 40
139.8204369335783
100
AcDbArc
 50
79.13686941241038
 51
100.8631305875896
  0
ENDSEC
  0
SECTION
  2
OBJECTS
  0
DICTIONARY
  5
1C8
330
0
100
AcDbDictionary
281
     1
  3
ACAD_COLOR
350
1FBE
  3
ACAD_GROUP
350
1C9
  3
ACAD_LAYOUT
350
1D5
  3
ACAD_MATERIAL
350
1FBD
  3
ACAD_MLINESTYLE
350
1D2
  3
ACAD_PLOTSETTINGS
350
1D4
  3
ACAD_PLOTSTYLENAME
350
1CA
  3
AcDbVariableDictionary
350
24B
  3
AcmDictionary
350
208
  3
AMG
350
1EE
  3
AMGSNAPSETTINGS
350
23E
  3
MAPISURF_MODULE
350
203C
  0
DICTIONARY
  5
245
330
1DA
100
AcDbDictionary
280
     1
281
     1
  3
ACAD_INDEX
360
1910
  0
DICTIONARY
  5
1FBE
102
{ACAD_REACTORS
330
1C8
102
}
330
1C8
100
AcDbDictionary
281
     1
  0
DICTIONARY
  5
1C9
102
{ACAD_REACTORS
330
1C8
102
}
330
1C8
100
AcDbDictionary
281
     1
  0
DICTIONARY
  5
1D5
102
{ACAD_REACTORS
330
1C8
102
}
330
1C8
100
AcDbDictionary
281
     1
  3
Layout1
350
1D9
  3
Model
350
1DD
  0
DICTIONARY
  5
1FBD
102
{ACAD_REACTORS
330
1C8
102
}
330
1C8
100
AcDbDictionary
281
     1
  0
DICTIONARY
  5
1D2
102
{ACAD_REACTORS
330
1C8
102
}
330
1C8
100
AcDbDictionary
281
     1
  3
Standard
350
1D3
  0
DICTIONARY
  5
1D4
102
{ACAD_REACTORS
330
1C8
102
}
330
1C8
100
AcDbDictionary
281
     1
  0
ACDBDICTIONARYWDFLT
  5
1CA
102
{ACAD_REACTORS
330
1C8
102
}
330
1C8
100
AcDbDictionary
281
     1
  3
Normal
350
1CB
100
AcDbDictionaryWithDefault
340
1CB
  0
DICTIONARY
  5
24B
102
{ACAD_REACTORS
330
1C8
102
}
330
1C8
100
AcDbDictionary
281
     1
  3
DIMASSOC
350
24E
  3
HIDETEXT
350
24D
  3
INDEXCTL
350
24C
  0
DICTIONARY
  5
208
102
{ACAD_REACTORS
330
1C8
102
}
330
1C8
100
AcDbDictionary
281
     1
  3
AcmBOMDATA
350
209
  3
AcmStdDictionary
350
20E
  0
DICTIONARY
  5
1EE
102
{ACAD_REACTORS
330
1C8
102
}
330
1C8
100
AcDbDictionary
281
     1
  3
AcMgSettings
350
1EF
  3
AMGLAYCFG
350
210
  0
DICTIONARY
  5
23E
102
{ACAD_REACTORS
330
1C8
102
}
330
1C8
100
AcDbDictionary
281
     1
  3
DIMENSION
350
243
  3
FEA
350
242
  3
HATCH (1)
350
23F
  3
HATCH (2)
350
240
  3
SIMPLE WELD
350
244
  3
SYMBOLS
350
241
  0
DICTIONARY
  5
1910
102
{ACAD_REACTORS
330
245
102
}
330
245
100
AcDbDictionary
281
     1
  3
*A1
350
1911
  0
LAYOUT
  5
1D9
102
{ACAD_REACTORS
330
1D5
102
}
330
1D5
100
AcDbPlotSettings
  1

  2
Epson Stylus COLOR 440 ESC/P 2
  4

  6

 40
0.0
 41
0.0
 42
0.0
 43
0.0
 44
0.0
 45
0.0
 46
0.0
 47
0.0
 48
0.0
 49
0.0
140
0.0
141
0.0
142
1.0
143
1.0
 70
   688
 72
     0
 73
     0
 74
     5
  7

 75
    16
147
1.0
 76
     0
 77
     2
 78
   300
148
0.0
149
0.0
100
AcDbLayout
  1
Layout1
 70
     0
 71
     1
 10
0.0
 20
0.0
 11
12.0
 21
9.0
 12
0.0
 22
0.0
 32
0.0
 14
1.000000000000000E+20
 24
1.000000000000000E+20
 34
1.000000000000000E+20
 15
-1.000000000000000E+20
 25
-1.000000000000000E+20
 35
-1.000000000000000E+20
146
0.0
 13
0.0
 23
0.0
 33
0.0
 16
1.0
 26
0.0
 36
0.0
 17
0.0
 27
1.0
 37
0.0
 76
     0
330
1D6
  0
LAYOUT
  5
1DD
102
{ACAD_REACTORS
330
1D5
102
}
330
1D5
100
AcDbPlotSettings
  1

  2
Epson Stylus COLOR 440 ESC/P 2
  4

  6

 40
0.0
 41
0.0
 42
0.0
 43
0.0
 44
0.0
 45
0.0
 46
0.0
 47
0.0
 48
0.0
 49
0.0
140
0.0
141
0.0
142
1.0
143
1.0
 70
  1712
 72
     0
 73
     0
 74
     0
  7

 75
     0
147
1.0
 76
     0
 77
     2
 78
   300
148
0.0
149
0.0
100
AcDbLayout
  1
Model
 70
     1
 71
     0
 10
0.0
 20
0.0
 11
12.0
 21
9.0
 12
0.0
 22
0.0
 32
0.0
 14
0.0
 24
0.0
 34
0.0
 15
0.0
 25
0.0
 35
0.0
146
0.0
 13
0.0
 23
0.0
 33
0.0
 16
1.0
 26
0.0
 36
0.0
 17
0.0
 27
1.0
 37
0.0
 76
     0
330
1DA
  0
MLINESTYLE
  5
1D3
102
{ACAD_REACTORS
330
1D2
102
}
330
1D2
100
AcDbMlineStyle
  2
STANDARD
 70
     0
  3

 62
   256
 51
90.0
 52
90.0
 71
     2
 49
0.5
 62
   256
  6
BYLAYER
 49
-0.5
 62
   256
  6
BYLAYER
  0
ACDBPLACEHOLDER
  5
1CB
102
{ACAD_REACTORS
330
1CA
102
}
330
1CA
  0
DICTIONARYVAR
  5
24E
102
{ACAD_REACTORS
330
24B
102
}
330
24B
100
DictionaryVariables
280
     0
  1
2
  0
DICTIONARYVAR
  5
24D
102
{ACAD_REACTORS
330
24B
102
}
330
24B
100
DictionaryVariables
280
     0
  1
1
  0
DICTIONARYVAR
  5
24C
102
{ACAD_REACTORS
330
24B
102
}
330
24B
100
DictionaryVariables
280
     0
  1
1
  0
ACMDATADICTIONARY
  5
209
102
{ACAD_REACTORS
330
208
102
}
330
208
100
AcDbDictionary
281
     1
  3
*A1
350
20A
100
AcmDataDictionary
  0
DICTIONARY
  5
20E
102
{ACAD_REACTORS
330
208
102
}
330
208
100
AcDbDictionary
281
     1
  3
ANSI
350
20F
  0
DICTIONARY
  5
1EF
102
{ACAD_REACTORS
330
1EE
102
}
330
1EE
100
AcDbDictionary
281
     1
  3
DWGSETTINGS
350
1F0
  3
TRANSSETTINGS
350
1F1
  0
ACAMGFILTERDAT
  5
243
102
{ACAD_REACTORS
330
23E
102
}
330
23E
100
AcAmgFilterDat
 70
    15
  1
DIMENSION,AMDT_*_DIM
  2
*
  3
*
  4
*
  5
*
290
     1
  0
ACAMGFILTERDAT
  5
242
102
{ACAD_REACTORS
330
23E
102
}
330
23E
100
AcAmgFilterDat
 70
    15
  1
*
  2
AM_FEA-AM_*
  3
*
  4
*
  5
*
290
     1
  0
ACAMGFILTERDAT
  5
23F
102
{ACAD_REACTORS
330
23E
102
}
330
23E
100
AcAmgFilterDat
 70
    15
  1
HATCH
  2
*
  3
*
  4
*
  5
*
290
     1
  0
ACAMGFILTERDAT
  5
240
102
{ACAD_REACTORS
330
23E
102
}
330
23E
100
AcAmgFilterDat
 70
    15
  1
LINE
  2
8,8N,*-8,*-8N,AM_8,AM_8N,*-AM_8,*-AM_8N
  3
*
  4
*
  5
INSERT,STDPART2D
290
     1
  0
ACAMGFILTERDAT
  5
244
102
{ACAD_REACTORS
330
23E
102
}
330
23E
100
AcAmgFilterDat
 70
    15
  1
ARC
  2
AM_5
  3
*
  4
2
  5
INSERT
290
     0
  0
ACAMGFILTERDAT
  5
241
102
{ACAD_REACTORS
330
23E
102
}
330
23E
100
AcAmgFilterDat
 70
    15
  1
ACMFCFRAME,ACMDATUMTARGET,ACMDATUMID,ACMWELDSYM,ACMSURFSYM,ACMFEATID,ACMPARTREF,ACMBALLOON,AMDTEDGESYM,AMGSCREWCALCTABLE
  2
*
  3
*
  4
*
  5
*
290
     1
  0
LAYER_INDEX
  5
1911
102
{ACAD_REACTORS
330
1910
102
}
330
1910
100
AcDbIndex
 40
2454383.26272044
100
AcDbLayerIndex
  8
0
360
1912
 90
       66
  0
ACMDATAENTRYBLOCK
  5
20A
102
{ACAD_REACTORS
330
209
102
}
330
209
100
AcmDataEntry
100
AcmDataEntryBlock
  0
IDBUFFER
  5
1912
330
0
100
AcDbIdBuffer
330
FE5
330
FE9
330
FED
330
1701
330
17FE
330
1802
330
1A8D
330
1AA1
330
1AAF
330
1AB0
330
1AB1
330
1AB2
330
1AB3
330
1AB8
330
1AB9
330
1ABA
330
1ABB
330
1ABD
330
1ABE
330
1AC0
330
1AC1
330
1AC3
330
1AC5
330
1AC6
330
1AC8
330
1AC9
330
1ACA
330
1ACB
330
1ACC
330
1ACE
330
1ACF
330
1AD0
330
1AD1
330
1AD2
330
1AD3
330
1AD4
330
1AD5
330
1AD6
330
1AD7
330
1AD8
330
1AD9
330
1ADA
330
1ADB
330
1ADC
330
1ADD
330
1CE1
330
1CE5
330
1CF7
330
1CF8
330
1CF9
330
1CFA
330
1CFC
330
1CFD
330
1CFE
330
1CFF
330
1D00
330
1D01
330
1D03
330
1D04
330
1D06
330
1D15
330
1D1A
330
1D22
330
1E92
330
1EFF
330
1F00
  0
ENDSEC
  0
EOF
