  0
SECTION
  2
HEADER
  9
$ACADVER
  1
AC1018
  9
$ACADMAINTVER
 70
   104
  9
$DWGCODEPAGE
  3
ANSI_1252
  9
$LASTSAVEDBY
  1
Administrator
  9
$CUSTOMPROPERTYTAG
  1
AmdtFileType
  9
$CUSTOMPROPERTY
  1
84
  9
$INSBASE
 10
0.0
 20
0.0
 30
0.0
  9
$EXTMIN
 10
-823.2156185163573
 20
-867.949520014862
 30
0.0
  9
$EXTMAX
 10
1076.675988899633
 20
531.6472824671091
 30
0.0
  9
$LIMMIN
 10
0.0
 20
0.0
  9
$LIMMAX
 10
420.0
 20
297.0
  9
$ORTHOMODE
 70
     0
  9
$REGENMODE
 70
     1
  9
$FILLMODE
 70
     1
  9
$QTEXTMODE
 70
     0
  9
$MIRRTEXT
 70
     1
  9
$LTSCALE
 40
1.0
  9
$ATTMODE
 70
     1
  9
$TEXTSIZE
 40
2.5
  9
$TRACEWID
 40
1.0
  9
$TEXTSTYLE
  7
STANDARD
  9
$CLAYER
  8
0
  9
$CELTYPE
  6
ByLayer
  9
$CECOLOR
 62
   256
  9
$CELTSCALE
 40
1.0
  9
$DISPSILH
 70
     0
  9
$DIMSCALE
 40
1.0
  9
$DIMASZ
 40
2.5
  9
$DIMEXO
 40
1.0
  9
$DIMDLI
 40
10.0
  9
$DIMRND
 40
0.0
  9
$DIMDLE
 40
0.0
  9
$DIMEXE
 40
1.0
  9
$DIMTP
 40
0.1
  9
$DIMTM
 40
0.1
  9
$DIMTXT
 40
3.5
  9
$DIMCEN
 40
0.0
  9
$DIMTSZ
 40
0.0
  9
$DIMTOL
 70
     0
  9
$DIMLIM
 70
     0
  9
$DIMTIH
 70
     0
  9
$DIMTOH
 70
     0
  9
$DIMSE1
 70
     0
  9
$DIMSE2
 70
     0
  9
$DIMTAD
 70
     1
  9
$DIMZIN
 70
     8
  9
$DIMBLK
  1

  9
$DIMASO
 70
     1
  9
$DIMSHO
 70
     1
  9
$DIMPOST
  1

  9
$DIMAPOST
  1
"
  9
$DIMALT
 70
     0
  9
$DIMALTD
 70
     2
  9
$DIMALTF
 40
0.0393701
  9
$DIMLFAC
 40
1.0
  9
$DIMTOFL
 70
     1
  9
$DIMTVP
 40
0.0
  9
$DIMTIX
 70
     0
  9
$DIMSOXD
 70
     0
  9
$DIMSAH
 70
     0
  9
$DIMBLK1
  1

  9
$DIMBLK2
  1

  9
$DIMSTYLE
  2
AM_DIN
  9
$DIMCLRD
 70
   256
  9
$DIMCLRE
 70
   256
  9
$DIMCLRT
 70
     2
  9
$DIMTFAC
 40
0.71
  9
$DIMGAP
 40
1.5
  9
$DIMJUST
 70
     0
  9
$DIMSD1
 70
     0
  9
$DIMSD2
 70
     0
  9
$DIMTOLJ
 70
     0
  9
$DIMTZIN
 70
     8
  9
$DIMALTZ
 70
     0
  9
$DIMALTTZ
 70
     0
  9
$DIMUPT
 70
     0
  9
$DIMDEC
 70
     2
  9
$DIMTDEC
 70
     3
  9
$DIMALTU
 70
     2
  9
$DIMALTTD
 70
     4
  9
$DIMTXSTY
  7
STANDARD
  9
$DIMAUNIT
 70
     0
  9
$DIMADEC
 70
     0
  9
$DIMALTRND
 40
0.0
  9
$DIMAZIN
 70
     2
  9
$DIMDSEP
 70
    46
  9
$DIMATFIT
 70
     3
  9
$DIMFRAC
 70
     0
  9
$DIMLDRBLK
  1

  9
$DIMLUNIT
 70
     2
  9
$DIMLWD
 70
    -1
  9
$DIMLWE
 70
    -1
  9
$DIMTMOVE
 70
     0
  9
$LUNITS
 70
     2
  9
$LUPREC
 70
     2
  9
$SKETCHINC
 40
1.0
  9
$FILLETRAD
 40
0.0
  9
$AUNITS
 70
     0
  9
$AUPREC
 70
     0
  9
$MENU
  1
.
  9
$ELEVATION
 40
0.0
  9
$PELEVATION
 40
0.0
  9
$THICKNESS
 40
0.0
  9
$LIMCHECK
 70
     0
  9
$CHAMFERA
 40
2.5
  9
$CHAMFERB
 40
2.5
  9
$CHAMFERC
 40
20.0
  9
$CHAMFERD
 40
0.0
  9
$SKPOLY
 70
     0
  9
$TDCREATE
 40
2453918.262673241
  9
$TDUCREATE
 40
2453918.179339908
  9
$TDUPDATE
 40
2457170.837441493
  9
$TDUUPDATE
 40
2457170.754108160
  9
$TDINDWG
 40
0.1223509028
  9
$TDUSRTIMER
 40
0.1223467477
  9
$USRTIMER
 70
     1
  9
$ANGBASE
 50
0.0
  9
$ANGDIR
 70
     0
  9
$PDMODE
 70
     0
  9
$PDSIZE
 40
0.0
  9
$PLINEWID
 40
0.0
  9
$SPLFRAME
 70
     0
  9
$SPLINETYPE
 70
     6
  9
$SPLINESEGS
 70
     8
  9
$HANDSEED
  5
1C2F
  9
$SURFTAB1
 70
     6
  9
$SURFTAB2
 70
     6
  9
$SURFTYPE
 70
     6
  9
$SURFU
 70
     6
  9
$SURFV
 70
     6
  9
$UCSBASE
  2

  9
$UCSNAME
  2

  9
$UCSORG
 10
0.0
 20
0.0
 30
0.0
  9
$UCSXDIR
 10
1.0
 20
0.0
 30
0.0
  9
$UCSYDIR
 10
0.0
 20
1.0
 30
0.0
  9
$UCSORTHOREF
  2

  9
$UCSORTHOVIEW
 70
     0
  9
$UCSORGTOP
 10
0.0
 20
0.0
 30
0.0
  9
$UCSORGBOTTOM
 10
0.0
 20
0.0
 30
0.0
  9
$UCSORGLEFT
 10
0.0
 20
0.0
 30
0.0
  9
$UCSORGRIGHT
 10
0.0
 20
0.0
 30
0.0
  9
$UCSORGFRONT
 10
0.0
 20
0.0
 30
0.0
  9
$UCSORGBACK
 10
0.0
 20
0.0
 30
0.0
  9
$PUCSBASE
  2

  9
$PUCSNAME
  2

  9
$PUCSORG
 10
0.0
 20
0.0
 30
0.0
  9
$PUCSXDIR
 10
1.0
 20
0.0
 30
0.0
  9
$PUCSYDIR
 10
0.0
 20
1.0
 30
0.0
  9
$PUCSORTHOREF
  2

  9
$PUCSORTHOVIEW
 70
     0
  9
$PUCSORGTOP
 10
0.0
 20
0.0
 30
0.0
  9
$PUCSORGBOTTOM
 10
0.0
 20
0.0
 30
0.0
  9
$PUCSORGLEFT
 10
0.0
 20
0.0
 30
0.0
  9
$PUCSORGRIGHT
 10
0.0
 20
0.0
 30
0.0
  9
$PUCSORGFRONT
 10
0.0
 20
0.0
 30
0.0
  9
$PUCSORGBACK
 10
0.0
 20
0.0
 30
0.0
  9
$USERI1
 70
     0
  9
$USERI2
 70
     0
  9
$USERI3
 70
     0
  9
$USERI4
 70
     0
  9
$USERI5
 70
     0
  9
$USERR1
 40
0.0
  9
$USERR2
 40
0.0
  9
$USERR3
 40
0.0
  9
$USERR4
 40
0.0
  9
$USERR5
 40
0.0
  9
$WORLDVIEW
 70
     1
  9
$SHADEDGE
 70
     3
  9
$SHADEDIF
 70
    70
  9
$TILEMODE
 70
     1
  9
$MAXACTVP
 70
    64
  9
$PINSBASE
 10
0.0
 20
0.0
 30
0.0
  9
$PLIMCHECK
 70
     0
  9
$PEXTMIN
 10
1.000000000000000E+20
 20
1.000000000000000E+20
 30
1.000000000000000E+20
  9
$PEXTMAX
 10
-1.000000000000000E+20
 20
-1.000000000000000E+20
 30
-1.000000000000000E+20
  9
$PLIMMIN
 10
0.0
 20
0.0
  9
$PLIMMAX
 10
420.0
 20
297.0
  9
$UNITMODE
 70
     0
  9
$VISRETAIN
 70
     1
  9
$PLINEGEN
 70
     0
  9
$PSLTSCALE
 70
     1
  9
$TREEDEPTH
 70
  3020
  9
$CMLSTYLE
  2
Standard
  9
$CMLJUST
 70
     0
  9
$CMLSCALE
 40
20.0
  9
$PROXYGRAPHICS
 70
     1
  9
$MEASUREMENT
 70
     1
  9
$CELWEIGHT
370
    -1
  9
$ENDCAPS
280
     0
  9
$JOINSTYLE
280
     0
  9
$LWDISPLAY
290
     0
  9
$INSUNITS
 70
     4
  9
$HYPERLINKBASE
  1

  9
$STYLESHEET
  1

  9
$XEDIT
290
     1
  9
$CEPSNTYPE
380
     0
  9
$PSTYLEMODE
290
     1
  9
$FINGERPRINTGUID
  2
{E66C8CC1-E66B-408F-9010-06FD783B68A0}
  9
$VERSIONGUID
  2
{66806554-F465-49A4-B0D8-BAB7C45D78FB}
  9
$EXTNAMES
290
     1
  9
$PSVPSCALE
 40
0.0
  9
$OLESTARTUP
290
     0
  9
$SORTENTS
280
   127
  9
$INDEXCTL
280
     0
  9
$HIDETEXT
280
     1
  9
$XCLIPFRAME
290
     0
  9
$HALOGAP
280
     0
  9
$OBSCOLOR
 70
   257
  9
$OBSLTYPE
280
     0
  9
$INTERSECTIONDISPLAY
280
     0
  9
$INTERSECTIONCOLOR
 70
   257
  9
$DIMASSOC
280
     2
  9
$PROJECTNAME
  1

  0
ENDSEC
  0
SECTION
  2
CLASSES
  0
CLASS
  1
ACDBDICTIONARYWDFLT
  2
AcDbDictionaryWithDefault
  3
ObjectDBX Classes
 90
        0
 91
        1
280
     0
281
     0
  0
CLASS
  1
ACME_DOCUMENT
  2
AcMeDbDoc
  3
AcMeServices
 90
     1024
 91
        2
280
     0
281
     0
  0
CLASS
  1
ACMESCOPE
  2
AcMeScope
  3
AcMeServices
 90
     1024
 91
        1
280
     0
281
     0
  0
CLASS
  1
ACMECOMMANDHISTORY
  2
AcMeCommandHistory
  3
AcMeServices
 90
     1024
 91
        1
280
     0
281
     0
  0
CLASS
  1
ACIMSYSVARMAN
  2
AcImSysVarManager
  3
AcMeServices
 90
     1024
 91
        4
280
     0
281
     0
  0
CLASS
  1
ACIMREALSYSVAR
  2
AcImRealSysVar
  3
AcMeServices
 90
     1024
 91
        1
280
     0
281
     0
  0
CLASS
  1
ACIMINTSYSVAR
  2
AcImIntSysVar
  3
AcMeServices
 90
     1024
 91
       27
280
     0
281
     0
  0
CLASS
  1
ACMEDRAWINGMAN
  2
AcMeDrawingMan
  3
AcMeServices
 90
     1024
 91
        0
280
     0
281
     0
  0
CLASS
  1
ACMEVIEW
  2
AcMeView
  3
AcMeServices
 90
     1024
 91
        0
280
     0
281
     0
  0
CLASS
  1
ACDBENTITYCACHE
  2
AcMeEntityCache
  3
AcMeServices
 90
     1024
 91
        1
280
     0
281
     0
  0
CLASS
  1
GSMANAGER
  2
AcMeGSManager
  3
AcMeServices
 90
     1024
 91
        0
280
     0
281
     0
  0
CLASS
  1
AMDTINTERNALREACTOR
  2
AmdtInternalReactor
  3
AcMeServices
 90
     1024
 91
        1
280
     0
281
     0
  0
CLASS
  1
ACMESTATEMGR
  2
AcMeStateMgr
  3
AcMeServices
 90
     1024
 91
        1
280
     0
281
     0
  0
CLASS
  1
ACGREFMASTER
  2
AcGrefMaster
  3
AcAttribServices
 90
     1024
 91
        1
280
     0
281
     0
  0
CLASS
  1
ACME_DATABASE
  2
AcMeDbDatabase
  3
AcMeServices
 90
     1024
 91
        1
280
     0
281
     0
  0
CLASS
  1
ACRFINSADJUSTERMGR
  2
AcRfInsAdjusterMgr
  3
AcMeServices
 90
     1024
 91
        1
280
     0
281
     0
  0
CLASS
  1
ACGREFACADMASTER
  2
AcGrefacadMaster
  3
AcGrefServices
 90
     1024
 91
        1
280
     0
281
     0
  0
CLASS
  1
AMIMASTER
  2
AmiMaster
  3
AmiServices
 90
     1024
 91
        1
280
     0
281
     0
  0
CLASS
  1
AMGSETTINGSOBJ
  2
AmgSettingsObj
  3
"AcadM|Product Description: AutoCAD Mechanical|Company: Autodesk, Inc."
 90
     1024
 91
        2
280
     0
281
     0
  0
CLASS
  1
ACMDATADICTIONARY
  2
AcmDataDictionary
  3
"AcmSymBB|Product Description: AutoCAD Mechanical|Company: Autodesk, Inc."
 90
     1024
 91
        1
280
     0
281
     0
  0
CLASS
  1
ACMDATAENTRYBLOCK
  2
AcmDataEntryBlock
  3
AcmSymBB|Product Description: AutoCAD Mechanical|Company: Autodesk, Inc.
 90
     1024
 91
        0
280
     0
281
     0
  0
CLASS
  1
ACIMSTRSYSVAR
  2
AcImStrSysVar
  3
AcMeServices
 90
     1024
 91
        5
280
     0
281
     0
  0
CLASS
  1
ACMSTANDARDDIN
  2
AcmStandardDIN
  3
"Amdt_StdImp|Product Description: AutoCAD Mechanical|Company: Autodesk, Inc."
 90
     1024
 91
        1
280
     0
281
     0
  0
CLASS
  1
AMGOBJPROPCFG
  2
AmgObjPropCfg
  3
"AmgLay|Product Description: AutoCAD Mechanical|Company: Autodesk, Inc."
 90
     1025
 91
        1
280
     0
281
     0
  0
CLASS
  1
AMDTEDGESTANDARDDIN
  2
AmdtEdgeStdDIN
  3
"Amdt_StdImp|Product Description: AutoCAD Mechanical|Company: Autodesk, Inc."
 90
     1024
 91
        0
280
     0
281
     0
  0
CLASS
  1
ACMSURFSTANDARDDIN
  2
AcmSurfTextStdDIN
  3
"Amdt_StdImp|Product Description: AutoCAD Mechanical|Company: Autodesk, Inc."
 90
     1024
 91
        0
280
     0
281
     0
  0
CLASS
  1
ACMFCFSTANDARDDIN
  2
AcmFCFStdDIN
  3
"Amdt_StdImp|Product Description: AutoCAD Mechanical|Company: Autodesk, Inc."
 90
     1024
 91
        1
280
     0
281
     0
  0
CLASS
  1
ACMWELDSTANDARDDIN
  2
AcmWeldingStdDIN
  3
"Amdt_StdImp|Product Description: AutoCAD Mechanical|Company: Autodesk, Inc."
 90
     1024
 91
        1
280
     0
281
     0
  0
CLASS
  1
ACMIDSTANDARDDIN
  2
AcmIdStdDIN
  3
"Amdt_StdImp|Product Description: AutoCAD Mechanical|Company: Autodesk, Inc."
 90
     1024
 91
        1
280
     0
281
     0
  0
CLASS
  1
ACMDATUMSTANDARDDIN
  2
AcmDatumStdDIN
  3
"Amdt_StdImp|Product Description: AutoCAD Mechanical|Company: Autodesk, Inc."
 90
     1024
 91
        1
280
     0
281
     0
  0
CLASS
  1
ACMBOMSTANDARDDIN
  2
AcmBOMStdDIN
  3
"Amdt_StdImp|Product Description: AutoCAD Mechanical|Company: Autodesk, Inc."
 90
     1024
 91
        1
280
     0
281
     0
  0
CLASS
  1
ACMDETAILSTANDARDDIN
  2
AmdtDetailSymStdDIN
  3
"Amdt_StdImp|Product Description: AutoCAD Mechanical|Company: Autodesk, Inc."
 90
     1024
 91
        1
280
     0
281
     0
  0
CLASS
  1
ACMSECTIONSTANDARDDIN
  2
AmdtSectionSymStdDIN
  3
"Amdt_StdImp|Product Description: AutoCAD Mechanical|Company: Autodesk, Inc."
 90
     1024
 91
        1
280
     0
281
     0
  0
CLASS
  1
ACMCENTERLINESTANDARDDIN
  2
AmdtCenterLineStdDIN
  3
"Amdt_StdImp|Product Description: AutoCAD Mechanical|Company: Autodesk, Inc."
 90
     1024
 91
        1
280
     0
281
     0
  0
CLASS
  1
ACMNOTESTANDARDDIN
  2
AmdtNoteStdDIN
  3
"Amdt_StdImp|Product Description: AutoCAD Mechanical|Company: Autodesk, Inc."
 90
     1024
 91
        1
280
     0
281
     0
  0
CLASS
  1
ACAMGLAYSTD
  2
AcAmgLayStd
  3
"AmgLay|Product Description: AutoCAD Mechanical|Company: Autodesk, Inc."
 90
     1024
 91
        1
280
     0
281
     0
  0
CLASS
  1
ACAMGDIMSTD
  2
AcAmgDimStd
  3
"AmgDim|Product Description: AutoCAD Mechanical|Company: Autodesk, Inc."
 90
     1024
 91
        1
280
     0
281
     0
  0
CLASS
  1
ACAMGHOLECHARTSTDDIN
  2
AcAmgHoleChartStdDIN
  3
AmgDim|Product Description: AutoCAD Mechanical|Company: Autodesk, Inc.
 90
     1024
 91
        1
280
     0
281
     0
  0
CLASS
  1
ACAMGTITLESTD
  2
AcAmgTitleStd
  3
"AmgTitle|Product Description: AutoCAD Mechanical|Company: Autodesk, Inc."
 90
     4095
 91
        1
280
     0
281
     0
  0
CLASS
  1
LAYER_INDEX
  2
AcDbLayerIndex
  3
ObjectDBX Classes
 90
        0
 91
        0
280
     0
281
     0
  0
CLASS
  1
IDBUFFER
  2
AcDbIdBuffer
  3
ObjectDBX Classes
 90
        0
 91
        0
280
     0
281
     0
  0
CLASS
  1
DICTIONARYVAR
  2
AcDbDictionaryVar
  3
ObjectDBX Classes
 90
        0
 91
       10
280
     0
281
     0
  0
CLASS
  1
ACAMGFILTERDAT
  2
AcAmgFilterDat
  3
"AcadM|Product Description: AutoCAD Mechanical|Company: Autodesk, Inc."
 90
     1024
 91
        0
280
     0
281
     0
  0
CLASS
  1
ACMSTANDARDANSI
  2
AcmStandardANSI
  3
"Amdt_StdImp|Product Description: AutoCAD Mechanical|Company: Autodesk, Inc."
 90
     1024
 91
        0
280
     0
281
     0
  0
CLASS
  1
ACMSURFSTANDARDANSI
  2
AcmSurfTextStdANSI
  3
"Amdt_StdImp|Product Description: AutoCAD Mechanical|Company: Autodesk, Inc."
 90
     1024
 91
        0
280
     0
281
     0
  0
CLASS
  1
ACMFCFSTANDARDANSI
  2
AcmFCFStdANSI
  3
"Amdt_StdImp|Product Description: AutoCAD Mechanical|Company: Autodesk, Inc."
 90
     1024
 91
        0
280
     0
281
     0
  0
CLASS
  1
ACMWELDSTANDARDANSI
  2
AcmWeldingStdANSI
  3
"Amdt_StdImp|Product Description: AutoCAD Mechanical|Company: Autodesk, Inc."
 90
     1024
 91
        0
280
     0
281
     0
  0
CLASS
  1
ACMIDSTANDARDANSI
  2
AcmIdStdANSI
  3
"Amdt_StdImp|Product Description: AutoCAD Mechanical|Company: Autodesk, Inc."
 90
     1024
 91
        0
280
     0
281
     0
  0
CLASS
  1
ACMDATUMSTANDARDANSI
  2
AcmDatumStdANSI
  3
"Amdt_StdImp|Product Description: AutoCAD Mechanical|Company: Autodesk, Inc."
 90
     1024
 91
        0
280
     0
281
     0
  0
CLASS
  1
ACMBOMSTANDARDANSI
  2
AcmBOMStdANSI
  3
"Amdt_StdImp|Product Description: AutoCAD Mechanical|Company: Autodesk, Inc."
 90
     1024
 91
        0
280
     0
281
     0
  0
CLASS
  1
ACMDETAILSTANDARDANSI
  2
AmdtDetailSymStdANSI
  3
"Amdt_StdImp|Product Description: AutoCAD Mechanical|Company: Autodesk, Inc."
 90
     1024
 91
        0
280
     0
281
     0
  0
CLASS
  1
ACMSECTIONSTANDARDANSI
  2
AmdtSectionSymStdANSI
  3
"Amdt_StdImp|Product Description: AutoCAD Mechanical|Company: Autodesk, Inc."
 90
     1024
 91
        0
280
     0
281
     0
  0
CLASS
  1
ACMCENTERLINESTANDARDANSI
  2
AmdtCenterLineStdANSI
  3
"Amdt_StdImp|Product Description: AutoCAD Mechanical|Company: Autodesk, Inc."
 90
     1024
 91
        0
280
     0
281
     0
  0
CLASS
  1
ACMNOTESTANDARDANSI
  2
AmdtNoteStdANSI
  3
"Amdt_StdImp|Product Description: AutoCAD Mechanical|Company: Autodesk, Inc."
 90
     1024
 91
        0
280
     0
281
     0
  0
CLASS
  1
ACAMGHOLECHARTSTDANSI
  2
AcAmgHoleChartStdANSI
  3
AmgDim|Product Description: AutoCAD Mechanical|Company: Autodesk, Inc.
 90
     1024
 91
        0
280
     0
281
     0
  0
CLASS
  1
AMDTFORMULAUPDATEDISPATCHER
  2
AmdtFormulaUpdateDispatcher
  3
AcMeServices
 90
     1024
 91
        0
280
     0
281
     0
  0
CLASS
  1
DIMASSOC
  2
AcDbDimAssoc
  3
"AcDbDimAssoc|Product Desc:     AcDim ARX App For Dimension|Company:          Autodesk, Inc.|WEB Address:      www.autodesk.com"
 90
        0
 91
        0
280
     0
281
     0
  0
CLASS
  1
MATERIAL
  2
AcDbMaterial
  3
ObjectDBX Classes
 90
     1153
 91
        3
280
     0
281
     0
  0
CLASS
  1
VISUALSTYLE
  2
AcDbVisualStyle
  3
ObjectDBX Classes
 90
     4095
 91
       26
280
     0
281
     0
  0
CLASS
  1
TABLESTYLE
  2
AcDbTableStyle
  3
ObjectDBX Classes
 90
     4095
 91
        1
280
     0
281
     0
  0
CLASS
  1
SCALE
  2
AcDbScale
  3
ObjectDBX Classes
 90
     1153
 91
       17
280
     0
281
     0
  0
CLASS
  1
MLEADERSTYLE
  2
AcDbMLeaderStyle
  3
ACDB_MLEADERSTYLE_CLASS
 90
     4095
 91
        1
280
     0
281
     0
  0
CLASS
  1
AM_DRAWING_MGR
  2
AcDmDwgMgr
  3
AcMechDwgViewMgmt
 90
     1024
 91
        1
280
     0
281
     0
  0
CLASS
  1
AM_DWG_DOCUMENT
  2
AcDmDwgDocument
  3
AcMechDwgViewMgmt
 90
     1024
 91
        1
280
     0
281
     0
  0
CLASS
  1
AM_DWG_SHEET
  2
AcDmSheet
  3
AcMechDwgViewMgmt
 90
     1024
 91
        2
280
     0
281
     0
  0
CLASS
  1
AM_VIEWDIMPARMAP
  2
AcDmViewDimParMap
  3
AcMechDwgViewMgmt
 90
     1024
 91
        2
280
     0
281
     0
  0
CLASS
  1
AM_DWGMGR_NAME
  2
AcDmDwgMgrName
  3
AcMechDwgViewMgmt
 90
     1024
 91
        1
280
     0
281
     0
  0
CLASS
  1
AMDTMENUSTATEMGR
  2
AmdtMenuStateMgr
  3
McadcomServices
 90
     1024
 91
        1
280
     0
281
     0
  0
CLASS
  1
AMDTMCOMMENUSTATE
  2
AmdtMcomMenuState
  3
McadcomServices
 90
     1024
 91
        1
280
     0
281
     0
  0
CLASS
  1
MAPIAMMOUDLE
  2
MApiAmModule
  3
MApiAmServices
 90
     1024
 91
        1
280
     0
281
     0
  0
CLASS
  1
AMDTADMENUSTATE
  2
AmdtAdMenuState
  3
DesignerServices
 90
     1024
 91
        0
280
     0
281
     0
  0
CLASS
  1
ADAPPL
  2
AcAdAppl
  3
DesignerAssemblies
 90
     1024
 91
        0
280
     0
281
     0
  0
CLASS
  1
DEPMGR
  2
AcAdDepMgr
  3
DesignerAssemblies
 90
     1024
 91
        0
280
     0
281
     0
  0
CLASS
  1
PARAMMGR
  2
AcAdParamMgr
  3
DesignerAssemblies
 90
     1024
 91
        0
280
     0
281
     0
  0
CLASS
  1
PARAMSCOPE
  2
AcAdParamScope
  3
DesignerAssemblies
 90
     1024
 91
        0
280
     0
281
     0
  0
CLASS
  1
NAMEDAPPL
  2
AcAdNamedAppl
  3
DesignerAssemblies
 90
     1024
 91
        0
280
     0
281
     0
  0
CLASS
  1
AMDTDMMENUSTATE
  2
AmdtDmMenuState
  3
AcMechDwgViewMgmt
 90
     1024
 91
        1
280
     0
281
     0
  0
CLASS
  1
AMDTAMMENUSTATE
  2
AmdtAmMenuState
  3
DesignerAssemblies
 90
     1024
 91
        1
280
     0
281
     0
  0
CLASS
  1
ACAMPROJECT
  2
AcAmProject
  3
DesignerAssemblies
 90
     1024
 91
        1
280
     0
281
     0
  0
CLASS
  1
ACAMGRCOMPDEF
  2
AcAmGrCompDef
  3
DesignerAssemblies
 90
     1024
 91
        1
280
     0
281
     0
  0
CLASS
  1
ACCMCONTEXT
  2
AcCmContext
  3
DesignerAssemblies
 90
     1024
 91
        0
280
     0
281
     0
  0
CLASS
  1
ACAMCOMPDEF
  2
AcAmCompDef
  3
DesignerAssemblies
 90
     1024
 91
        1
280
     0
281
     0
  0
CLASS
  1
ACAMCOMPDEFMGR
  2
AcAmCompDefMgr
  3
DesignerAssemblies
 90
     1024
 91
        1
280
     0
281
     0
  0
CLASS
  1
AMCONTEXTMGR
  2
AcAmContextMgr
  3
DesignerAssemblies
 90
     1024
 91
        1
280
     0
281
     0
  0
CLASS
  1
ACAMCONTEXTMODELER
  2
AcAmContextModeler
  3
DesignerAssemblies
 90
     1024
 91
        1
280
     0
281
     0
  0
CLASS
  1
ACRFATTGENMGR
  2
AcRfAttGeneralMgr
  3
AcAttribServices
 90
     1024
 91
        0
280
     0
281
     0
  0
CLASS
  1
ACRFOBJATTMGR
  2
AcRfObjAttGroupMgr
  3
AcAttribServices
 90
     1024
 91
        0
280
     0
281
     0
  0
CLASS
  1
ACRFMCADAPIATTHOLDER
  2
AcRfMCADAPIAttHolder
  3
AcAttribServices
 90
     1024
 91
        0
280
     0
281
     0
  0
CLASS
  1
AMDTSYSATTR
  2
AmdtSystemAttribute
  3
AcAttribServices
 90
     1024
 91
        0
280
     0
281
     0
  0
CLASS
  1
ACMTHREADLINESTANDARDDIN
  2
AmdtThreadLineStdDIN
  3
"Amdt_StdImp|Product Description: AutoCAD Mechanical|Company: Autodesk, Inc."
 90
     1024
 91
        1
280
     0
281
     0
  0
CLASS
  1
ACMTAPERSTANDARDDIN
  2
AcmTaperStdDIN
  3
"Amdt_StdImp|Product Description: AutoCAD Mechanical|Company: Autodesk, Inc."
 90
     1024
 91
        1
280
     0
281
     0
  0
CLASS
  1
ACMANOOTATIONVIEWSTANDARDDIN
  2
AmdtAnViewStdDIN
  3
"Amdt_StdImp|Product Description: AutoCAD Mechanical|Company: Autodesk, Inc."
 90
     1024
 91
        1
280
     0
281
     0
  0
CLASS
  1
ACMTHREADLINESTANDARDANSI
  2
AmdtThreadLineStdANSI
  3
"Amdt_StdImp|Product Description: AutoCAD Mechanical|Company: Autodesk, Inc."
 90
     1024
 91
        0
280
     0
281
     0
  0
CLASS
  1
ACMTAPERSTANDARDANSI
  2
AcmTaperStdANSI
  3
"Amdt_StdImp|Product Description: AutoCAD Mechanical|Company: Autodesk, Inc."
 90
     1024
 91
        0
280
     0
281
     0
  0
CLASS
  1
ACMANOOTATIONVIEWSTANDARDANSI
  2
AmdtAnViewStdANSI
  3
"Amdt_StdImp|Product Description: AutoCAD Mechanical|Company: Autodesk, Inc."
 90
     1024
 91
        0
280
     0
281
     0
  0
CLASS
  1
CATALOGSTATE
  2
AcAmCatalogState
  3
DesignerAssemblies
 90
     1024
 91
        0
280
     0
281
     0
  0
CLASS
  1
ACAMGRCOMPDEFSET
  2
AcAmGrCompDefSet
  3
DesignerAssemblies
 90
     1024
 91
        1
280
     0
281
     0
  0
CLASS
  1
AMDTBROWSERDBTAB
  2
AmdtBrowserDbTab
  3
McadcomServices
 90
     1024
 91
        1
280
     0
281
     0
  0
CLASS
  1
CBROWSERAPPOBJECT
  2
CBrowserAppObject
  3
McadcomServices
 90
     1024
 91
        2
280
     0
281
     0
  0
CLASS
  1
DM_PLACEHOLDER
  2
AcDmSelsetPlaceholder
  3
AcMechDwgViewMgmt
 90
     1024
 91
        1
280
     0
281
     0
  0
CLASS
  1
SORTENTSTABLE
  2
AcDbSortentsTable
  3
ObjectDBX Classes
 90
        0
 91
        1
280
     0
281
     0
  0
CLASS
  1
CAMSSTRUCTBTNSTATE
  2
StructBtnState
  3
DesignerAssemblies
 90
     1024
 91
        0
280
     0
281
     0
  0
CLASS
  1
CELLSTYLEMAP
  2
AcDbCellStyleMap
  3
ObjectDBX Classes
 90
     1152
 91
        3
280
     0
281
     0
  0
CLASS
  1
AMDTEDGESTANDARDDIN13715
  2
AmdtEdgeStdDIN13715
  3
"Amdt_StdImp|Product Description: AutoCAD Mechanical|Company: Autodesk, Inc."
 90
     1024
 91
        1
280
     0
281
     0
  0
CLASS
  1
ACMSURFSTANDARDDIN2002
  2
AcmSurfTextStdDIN2002
  3
"Amdt_StdImp|Product Description: AutoCAD Mechanical|Company: Autodesk, Inc."
 90
     1024
 91
        1
280
     0
281
     0
  0
CLASS
  1
AMDTNOTETEMPLATEDB
  2
AmdtNoteTemplateDB
  3
AcmSymBB|Product Description: AutoCAD Mechanical|Company: Autodesk, Inc.
 90
     1024
 91
        6
280
     0
281
     0
  0
CLASS
  1
AEC_REFEDIT_STATUS_TRACKER
  2
AecDbRefEditStatusTracker
  3
AecArchBase60|Product Desc: Autodesk Architectural Desktop 2007 |Company: Autodesk,Inc. |WEB Address: www.autodesk.com
 90
      129
 91
        0
280
     0
281
     0
  0
CLASS
  1
NPOCOLLECTION
  2
AcDbImpNonPersistentObjectsCollection
  3
ObjectDBX Classes
 90
     1153
 91
        0
280
     0
281
     0
  0
ENDSEC
  0
SECTION
  2
TABLES
  0
TABLE
  2
VPORT
  5
8
102
{ACAD_XDICTIONARY
360
14E0
102
}
330
0
100
AcDbSymbolTable
 70
     1
  0
VPORT
  5
13B3
330
8
100
AcDbSymbolTableRecord
100
AcDbViewportTableRecord
  2
*Active
 70
     0
 10
0.0
 20
0.0
 11
1.0
 21
1.0
 12
125.7363555243752
 22
-166.9719500405826
 13
0.0
 23
0.0
 14
2.5
 24
2.5
 15
10.0
 25
10.0
 16
0.0
 26
0.0
 36
1.0
 17
0.0
 27
0.0
 37
0.0
 40
1711.845080256694
 41
2.253924284395198
 42
50.0
 43
0.0
 44
0.0
 50
0.0
 51
0.0
 71
     0
 72
   100
 73
     1
 74
     3
 75
     0
 76
     0
 77
     0
 78
     0
281
     0
 65
     1
110
0.0
120
0.0
130
0.0
111
1.0
121
0.0
131
0.0
112
0.0
122
1.0
132
0.0
 79
     0
146
0.0
  0
ENDTAB
  0
TABLE
  2
LTYPE
  5
5
330
0
100
AcDbSymbolTable
 70
    24
  0
LTYPE
  5
14
330
5
100
AcDbSymbolTableRecord
100
AcDbLinetypeTableRecord
  2
ByBlock
 70
     0
  3

 72
    65
 73
     0
 40
0.0
  0
LTYPE
  5
15
330
5
100
AcDbSymbolTableRecord
100
AcDbLinetypeTableRecord
  2
ByLayer
 70
     0
  3

 72
    65
 73
     0
 40
0.0
  0
LTYPE
  5
16
330
5
100
AcDbSymbolTableRecord
100
AcDbLinetypeTableRecord
  2
Continuous
 70
     0
  3
Solid line
 72
    65
 73
     0
 40
0.0
  0
LTYPE
  5
50
330
5
100
AcDbSymbolTableRecord
100
AcDbLinetypeTableRecord
  2
Amconstr
 70
     0
  3
_______________________
 72
    65
 73
     2
 40
9999.0
 49
9999.0
 74
     0
 49
0.0
 74
     0
  0
LTYPE
  5
55
330
5
100
AcDbSymbolTableRecord
100
AcDbLinetypeTableRecord
  2
Amzigzag
 70
     0
  3
/\/-/\/-/\/-/\/-/\/-/\/
 72
    65
 73
     2
 40
11.0001
 49
0.0001
 74
     4
 75
   135
340
54
 46
0.04
 50
0.0
 44
0.0
 45
0.0
 49
-11.0
 74
     0
  0
LTYPE
  5
56
330
5
100
AcDbSymbolTableRecord
100
AcDbLinetypeTableRecord
  2
AM_DIN_F_W050
 70
     0
  3
__ __ __ __ __ __ __ __ __ __ __ __ __ __ __
 72
    65
 73
     2
 40
6.25
 49
4.75
 74
     0
 49
-1.5
 74
     0
  0
LTYPE
  5
57
330
5
100
AcDbSymbolTableRecord
100
AcDbLinetypeTableRecord
  2
AM_DIN_G_W050
 70
     0
  3
____ . ____ . ____ . ____ . ____ . ____ . ____
 72
    65
 73
     4
 40
13.75
 49
9.75
 74
     0
 49
-1.5
 74
     0
 49
1.0
 74
     0
 49
-1.5
 74
     0
  0
LTYPE
  5
58
330
5
100
AcDbSymbolTableRecord
100
AcDbLinetypeTableRecord
  2
AM_DIN_K_W050
 70
     0
  3
_____ . . _____ . . _____ . . ____ .. ____
 72
    65
 73
     6
 40
16.25
 49
9.75
 74
     0
 49
-1.5
 74
     0
 49
1.0
 74
     0
 49
-1.5
 74
     0
 49
1.0
 74
     0
 49
-1.5
 74
     0
  0
LTYPE
  5
59
330
5
100
AcDbSymbolTableRecord
100
AcDbLinetypeTableRecord
  2
AM_DIN_G_W050x2
 70
     0
  3
__ . __ . __ . __ . __ . __
 72
    65
 73
     4
 40
6.875
 49
4.75
 74
     0
 49
-0.875
 74
     0
 49
0.375
 74
     0
 49
-0.875
 74
     0
  0
LTYPE
  5
5A
330
5
100
AcDbSymbolTableRecord
100
AcDbLinetypeTableRecord
  2
AM_DIN_F_W050x2
 70
     0
  3
 _ _ _ _ _ _ _ _ _ _ _ _
 72
    65
 73
     2
 40
3.125
 49
2.25
 74
     0
 49
-0.875
 74
     0
  0
LTYPE
  5
68
330
5
100
AcDbSymbolTableRecord
100
AcDbLinetypeTableRecord
  2
ACDINWELD
 70
     0
  3
_ _ _ _ _
 72
    65
 73
     2
 40
2.0
 49
2.0
 74
     0
 49
-1.0
 74
     0
  0
LTYPE
  5
69
330
5
100
AcDbSymbolTableRecord
100
AcDbLinetypeTableRecord
  2
ACDINTGB
 70
     0
  3
__ . . __ . .
 72
    65
 73
     6
 40
9.0
 49
4.0
 74
     0
 49
-1.0
 74
     0
 49
1.0
 74
     0
 49
-1.0
 74
     0
 49
1.0
 74
     0
 49
-1.0
 74
     0
  0
LTYPE
  5
6A
330
5
100
AcDbSymbolTableRecord
100
AcDbLinetypeTableRecord
  2
ACDINTGL
 70
     0
  3
_ _ _ _ _
 72
    65
 73
     2
 40
3.0
 49
2.0
 74
     0
 49
-1.0
 74
     0
  0
LTYPE
  5
6C
330
5
100
AcDbSymbolTableRecord
100
AcDbLinetypeTableRecord
  2
CENTER
 70
     0
  3
__ . __
 72
    65
 73
     4
 40
7.0
 49
4.0
 74
     0
 49
-1.0
 74
     0
 49
1.0
 74
     0
 49
-1.0
 74
     0
  0
LTYPE
  5
33D
330
5
100
AcDbSymbolTableRecord
100
AcDbLinetypeTableRecord
  2
PHANTOM2
 70
     0
  3
Phantom (.5x) ___ _ _ ___ _ _ ___ _ _ ___ _ _
 72
    65
 73
     6
 40
1.25
 49
0.625
 74
     0
 49
-0.125
 74
     0
 49
0.125
 74
     0
 49
-0.125
 74
     0
 49
0.125
 74
     0
 49
-0.125
 74
     0
  0
LTYPE
  5
33E
330
5
100
AcDbSymbolTableRecord
100
AcDbLinetypeTableRecord
  2
CENTER2
 70
     0
  3
Center (.5x) ___ _ ___ _ ___ _ ___ _ ___ _ ___
 72
    65
 73
     4
 40
1.125
 49
0.75
 74
     0
 49
-0.125
 74
     0
 49
0.125
 74
     0
 49
-0.125
 74
     0
  0
LTYPE
  5
341
330
5
100
AcDbSymbolTableRecord
100
AcDbLinetypeTableRecord
  2
ACANSTGB
 70
     0
  3
__ . . __ . .
 72
    65
 73
     6
 40
0.35433070866
 49
0.15748031496
 74
     0
 49
-0.03937007874
 74
     0
 49
0.03937007874
 74
     0
 49
-0.03937007874
 74
     0
 49
0.03937007874
 74
     0
 49
-0.03937007874
 74
     0
  0
LTYPE
  5
342
330
5
100
AcDbSymbolTableRecord
100
AcDbLinetypeTableRecord
  2
ACANSTGL
 70
     0
  3
_ _ _ _ _
 72
    65
 73
     2
 40
0.11811023622
 49
0.07874015748
 74
     0
 49
-0.03937007874
 74
     0
  0
LTYPE
  5
1424
330
5
100
AcDbSymbolTableRecord
100
AcDbLinetypeTableRecord
  2
HIDDEN
 70
     0
  3
Verdeckt
 72
    65
 73
     2
 40
9.525
 49
6.349999999999999
 74
     0
 49
-3.174999999999999
 74
     0
  0
LTYPE
  5
155C
330
5
100
AcDbSymbolTableRecord
100
AcDbLinetypeTableRecord
  2
AM_ISO02W050
 70
     0
  3
__ __ __ __ __ __ __ __ __ __ __ __ __ __ __
 72
    65
 73
     2
 40
7.5
 49
6.0
 74
     0
 49
-1.5
 74
     0
  0
LTYPE
  5
155D
330
5
100
AcDbSymbolTableRecord
100
AcDbLinetypeTableRecord
  2
AM_ISO08W050
 70
     0
  3
____ . ____ . ____ . ____ . ____ . ____ . ____
 72
    65
 73
     4
 40
18.0
 49
12.0
 74
     0
 49
-1.5
 74
     0
 49
3.0
 74
     0
 49
-1.5
 74
     0
  0
LTYPE
  5
155E
330
5
100
AcDbSymbolTableRecord
100
AcDbLinetypeTableRecord
  2
AM_ISO09W050
 70
     0
  3
_____ . . _____ . . _____ . . ____ .. ____
 72
    65
 73
     6
 40
22.5
 49
12.0
 74
     0
 49
-1.5
 74
     0
 49
3.0
 74
     0
 49
-1.5
 74
     0
 49
3.0
 74
     0
 49
-1.5
 74
     0
  0
LTYPE
  5
155F
330
5
100
AcDbSymbolTableRecord
100
AcDbLinetypeTableRecord
  2
AM_ISO08W050x2
 70
     0
  3
__ . __ . __ . __ . __ . __
 72
    65
 73
     4
 40
9.0
 49
6.0
 74
     0
 49
-0.75
 74
     0
 49
1.5
 74
     0
 49
-0.75
 74
     0
  0
LTYPE
  5
1560
330
5
100
AcDbSymbolTableRecord
100
AcDbLinetypeTableRecord
  2
AM_ISO02W050x2
 70
     0
  3
 _ _ _ _ _ _ _ _ _ _ _ _
 72
    65
 73
     2
 40
3.75
 49
3.0
 74
     0
 49
-0.75
 74
     0
  0
LTYPE
  5
157B
330
5
100
AcDbSymbolTableRecord
100
AcDbLinetypeTableRecord
  2
HIDDEN2
 70
     0
  3
Hidden (.5x) _ _ _ _ _ _ _ _ _ _ _ _ _ _ _ _ _
 72
    65
 73
     2
 40
0.1875
 49
0.125
 74
     0
 49
-0.0625
 74
     0
  0
LTYPE
  5
157C
330
5
100
AcDbSymbolTableRecord
100
AcDbLinetypeTableRecord
  2
Amzigzag2
 70
     0
  3
/\/-/\/-/\/-/\/-/\/-/\/
 72
    65
 73
     2
 40
0.4401
 49
0.0001
 74
     4
 75
   136
340
157D
 46
0.0016
 50
0.0
 44
0.0
 45
0.0
 49
-0.4400000000000001
 74
     0
  0
ENDTAB
  0
TABLE
  2
LAYER
  5
2
102
{ACAD_XDICTIONARY
360
15A4
102
}
330
0
100
AcDbSymbolTable
 70
     1
  0
LAYER
  5
10
102
{ACAD_XDICTIONARY
360
1490
102
}
330
2
100
AcDbSymbolTableRecord
100
AcDbLayerTableRecord
  2
0
 70
     0
 62
     7
  6
Continuous
370
    -3
390
F
  0
ENDTAB
  0
TABLE
  2
STYLE
  5
3
330
0
100
AcDbSymbolTable
 70
     7
  0
STYLE
  5
11
330
3
100
AcDbSymbolTableRecord
100
AcDbTextStyleTableRecord
  2
STANDARD
 70
     0
 40
0.0
 41
1.0
 50
0.0
 71
     0
 42
2.5
  3
ISOCP.SHX
  4

  0
STYLE
  5
54
330
3
100
AcDbSymbolTableRecord
100
AcDbTextStyleTableRecord
  2

 70
     1
 40
0.0
 41
1.0
 50
0.0
 71
     0
 42
2.5
  3
ltypeshp.shx
  4

  0
STYLE
  5
5B
330
3
100
AcDbSymbolTableRecord
100
AcDbTextStyleTableRecord
  2
ACDINTS
 70
     0
 40
1.0
 41
1.0
 50
0.0
 71
     0
 42
2.5
  3
isocp.shx
  4

  0
STYLE
  5
67
330
3
100
AcDbSymbolTableRecord
100
AcDbTextStyleTableRecord
  2
ACDINGDT
 70
     0
 40
0.0
 41
1.0
 50
0.0
 71
     0
 42
2.5
  3
amgdt.shx
  4

  0
STYLE
  5
343
330
3
100
AcDbSymbolTableRecord
100
AcDbTextStyleTableRecord
  2
ACANSTS
 70
     0
 40
1.0
 41
1.0
 50
0.0
 71
     0
 42
0.2
  3
romans.shx
  4

  0
STYLE
  5
344
330
3
100
AcDbSymbolTableRecord
100
AcDbTextStyleTableRecord
  2
ACANSGDT
 70
     0
 40
0.0
 41
1.0
 50
0.0
 71
     0
 42
0.2
  3
amgdtans.shx
  4

  0
STYLE
  5
157D
330
3
100
AcDbSymbolTableRecord
100
AcDbTextStyleTableRecord
  2

 70
     1
 40
0.0
 41
1.0
 50
0.0
 71
     0
 42
0.2
  3
genltshp.shx
  4

  0
ENDTAB
  0
TABLE
  2
VIEW
  5
6
330
0
100
AcDbSymbolTable
 70
     1
  0
ENDTAB
  0
TABLE
  2
UCS
  5
7
330
0
100
AcDbSymbolTable
 70
     0
  0
ENDTAB
  0
TABLE
  2
APPID
  5
9
330
0
100
AcDbSymbolTable
 70
    14
  0
APPID
  5
12
330
9
100
AcDbSymbolTableRecord
100
AcDbRegAppTableRecord
  2
ACAD
 70
     0
  0
APPID
  5
2C
330
9
100
AcDbSymbolTableRecord
100
AcDbRegAppTableRecord
  2
MCAD_NO_VIS
 70
     0
  0
APPID
  5
2D
330
9
100
AcDbSymbolTableRecord
100
AcDbRegAppTableRecord
  2
ACAD_TEMP_GRAPHIC
 70
     0
  0
APPID
  5
3E
330
9
100
AcDbSymbolTableRecord
100
AcDbRegAppTableRecord
  2
ACATTRIBSERVICES
 70
     0
  0
APPID
  5
13F6
330
9
100
AcDbSymbolTableRecord
100
AcDbRegAppTableRecord
  2
ACAD_MLEADERVER
 70
     0
  0
APPID
  5
1426
330
9
100
AcDbSymbolTableRecord
100
AcDbRegAppTableRecord
  2
AD_DRAW
 70
     0
  0
APPID
  5
1445
330
9
100
AcDbSymbolTableRecord
100
AcDbRegAppTableRecord
  2
DESIGNERASSEMBLIES
 70
     0
  0
APPID
  5
1454
330
9
100
AcDbSymbolTableRecord
100
AcDbRegAppTableRecord
  2
ACADM_DIM_EDIT
 70
     0
  0
APPID
  5
1455
330
9
100
AcDbSymbolTableRecord
100
AcDbRegAppTableRecord
  2
AMDT_DM_ADJ
 70
     0
  0
APPID
  5
145B
330
9
100
AcDbSymbolTableRecord
100
AcDbRegAppTableRecord
  2
GENIUS_GENODEF_13
 70
     0
  0
APPID
  5
145C
330
9
100
AcDbSymbolTableRecord
100
AcDbRegAppTableRecord
  2
GENIUS_GENOBJ-N-FIL_13
 70
     0
  0
APPID
  5
1558
330
9
100
AcDbSymbolTableRecord
100
AcDbRegAppTableRecord
  2
ACAD_DSTYLE_DIMBREAK
 70
     0
  0
APPID
  5
1559
330
9
100
AcDbSymbolTableRecord
100
AcDbRegAppTableRecord
  2
ACAD_DSTYLE_DIMJAG
 70
     0
  0
APPID
  5
15B8
330
9
100
AcDbSymbolTableRecord
100
AcDbRegAppTableRecord
  2
ACAD_EXEMPT_FROM_CAD_STANDARDS
 70
     0
  0
ENDTAB
  0
TABLE
  2
DIMSTYLE
  5
A
330
0
100
AcDbSymbolTable
 70
    14
100
AcDbDimStyleTable
 71
     1
340
6F
  0
DIMSTYLE
105
6F
102
{ACAD_REACTORS
330
1B92
102
}
330
A
100
AcDbSymbolTableRecord
100
AcDbDimStyleTableRecord
  2
AM_DIN
 70
     0
  4
"
 41
2.5
 42
1.0
 43
10.0
 44
1.0
 47
0.1
 48
0.1
 73
     0
 74
     0
 77
     1
 78
     8
 79
     2
140
3.5
141
0.0
143
0.0393701
146
0.71
147
1.5
172
     1
176
   256
177
   256
178
     2
271
     2
272
     3
274
     4
283
     0
284
     8
340
11
371
    -1
372
    -1
  0
DIMSTYLE
105
70
330
A
100
AcDbSymbolTableRecord
100
AcDbDimStyleTableRecord
  2
AM_DIN$3
 70
     0
  4
"
 41
2.5
 42
1.0
 43
10.0
 44
1.0
 47
0.1
 48
0.1
 73
     0
 77
     1
 78
     8
 79
     2
140
3.5
141
0.0
143
0.0393701
146
0.71
147
1.5
176
   256
177
   256
178
     2
271
     2
272
     3
274
     4
283
     0
284
     8
288
     1
289
     0
340
11
371
    -1
372
    -1
  0
DIMSTYLE
105
71
330
A
100
AcDbSymbolTableRecord
100
AcDbDimStyleTableRecord
  2
AM_DIN$4
 70
     0
  4
"
 41
2.5
 42
1.0
 43
10.0
 44
1.0
 47
0.1
 48
0.1
 73
     0
 77
     1
 78
     8
 79
     2
140
3.5
141
0.0
143
0.0393701
146
0.71
147
1.5
176
   256
177
   256
178
     2
271
     2
272
     3
274
     4
283
     0
284
     8
288
     1
289
     0
340
11
371
    -1
372
    -1
  0
DIMSTYLE
105
72
330
A
100
AcDbSymbolTableRecord
100
AcDbDimStyleTableRecord
  2
AM_DIN$6
 70
     0
  4
"
 41
2.5
 42
1.0
 43
10.0
 44
1.0
 47
0.1
 48
0.1
 73
     0
 74
     0
 78
     8
 79
     2
140
3.5
141
0.0
143
0.0393701
146
0.71
147
1.5
172
     1
176
   256
177
   256
178
     2
271
     2
272
     3
274
     4
283
     0
284
     8
340
11
371
    -1
372
    -1
  0
DIMSTYLE
105
73
330
A
100
AcDbSymbolTableRecord
100
AcDbDimStyleTableRecord
  2
AM_DIN$7
 70
     0
  4
"
 41
2.5
 42
1.0
 43
10.0
 44
1.0
 47
0.1
 48
0.1
 73
     0
 74
     0
 77
     1
 78
     8
 79
     2
140
5.0
141
0.0
143
0.0393701
146
0.71
147
1.5
172
     1
176
   256
177
   256
178
     2
271
     2
272
     3
274
     4
283
     0
284
     8
340
11
371
    -1
372
    -1
  0
DIMSTYLE
105
74
330
A
100
AcDbSymbolTableRecord
100
AcDbDimStyleTableRecord
  2
AM_DIN$SF
 70
     0
  4
"
 41
2.5
 42
1.0
 43
10.0
 44
1.0
 47
0.1
 48
0.1
 73
     0
 74
     0
 75
     1
 76
     1
 77
     1
 78
     8
 79
     2
140
3.5
141
0.0
143
0.0393701
146
0.71
147
1.5
172
     1
176
   256
177
   256
178
     2
271
     2
272
     3
274
     4
283
     0
284
     8
340
11
371
    -1
372
    -1
  0
DIMSTYLE
105
79
330
A
100
AcDbSymbolTableRecord
100
AcDbDimStyleTableRecord
  2
AM_DIN$SH
 70
     0
  4
"
 41
2.5
 42
1.0
 43
10.0
 44
1.0
 47
0.1
 48
0.1
 73
     0
 74
     0
 75
     1
 76
     1
 77
     1
 78
     8
 79
     2
140
3.5
141
0.0
143
0.0393701
144
2.0
146
0.71
147
1.5
172
     1
173
     1
176
   256
177
   256
178
     2
271
     2
272
     3
274
     4
283
     0
284
     8
340
11
343
75
371
    -1
372
    -1
  0
DIMSTYLE
105
92
330
A
100
AcDbSymbolTableRecord
100
AcDbDimStyleTableRecord
  2
STANDARD
 70
     0
279
     2
340
11
  0
DIMSTYLE
105
345
330
A
100
AcDbSymbolTableRecord
100
AcDbDimStyleTableRecord
  2
AM_ANSI
 70
     0
  4
mm
 41
0.1
 42
0.05
 43
0.5
 44
0.1
 47
0.1
 48
0.1
 78
     7
 79
     2
140
0.12
141
0.0
146
0.71
147
0.06
176
   256
177
   256
178
     2
274
     4
284
     7
340
11
371
    -1
372
    -1
  0
DIMSTYLE
105
346
330
A
100
AcDbSymbolTableRecord
100
AcDbDimStyleTableRecord
  2
AM_ANSI$3
 70
     0
  4
mm
 41
0.1
 42
0.05
 43
0.5
 44
0.1
 47
0.1
 48
0.1
 78
     7
 79
     2
140
0.12
141
0.0
146
0.71
147
0.06
176
   256
177
   256
178
     2
274
     4
284
     7
288
     1
289
     0
340
11
371
    -1
372
    -1
  0
DIMSTYLE
105
347
330
A
100
AcDbSymbolTableRecord
100
AcDbDimStyleTableRecord
  2
AM_ANSI$4
 70
     0
  4
mm
 41
0.1
 42
0.05
 43
0.5
 44
0.1
 47
0.1
 48
0.1
 78
     7
 79
     2
140
0.12
141
0.0
146
0.71
147
0.06
176
   256
177
   256
178
     2
274
     4
284
     7
288
     1
289
     0
340
11
371
    -1
372
    -1
  0
DIMSTYLE
105
348
330
A
100
AcDbSymbolTableRecord
100
AcDbDimStyleTableRecord
  2
AM_ANSI$7
 70
     0
  4
mm
 41
0.1
 42
0.05
 43
0.5
 44
0.1
 47
0.1
 48
0.1
 78
     7
 79
     2
140
0.24
141
0.0
146
0.71
147
0.06
176
   256
177
   256
178
     2
274
     4
284
     7
340
11
371
    -1
372
    -1
  0
DIMSTYLE
105
349
330
A
100
AcDbSymbolTableRecord
100
AcDbDimStyleTableRecord
  2
AM_ANSI$SF
 70
     0
  4
mm
 41
0.1
 42
0.05
 43
0.5
 44
0.1
 47
0.1
 48
0.1
 75
     1
 76
     1
 78
     7
 79
     2
140
0.12
141
0.0
146
0.71
147
0.06
176
   256
177
   256
178
     2
274
     4
284
     7
340
11
371
    -1
372
    -1
  0
DIMSTYLE
105
34A
330
A
100
AcDbSymbolTableRecord
100
AcDbDimStyleTableRecord
  2
AM_ANSI$SH
 70
     0
  4
mm
 41
0.1
 42
0.05
 43
0.5
 44
0.1
 47
0.1
 48
0.1
 75
     1
 76
     1
 78
     7
 79
     2
140
0.12
141
0.0
146
0.71
147
0.06
173
     1
176
   256
177
   256
178
     2
274
     4
284
     7
340
11
343
75
371
    -1
372
    -1
  0
ENDTAB
  0
TABLE
  2
BLOCK_RECORD
  5
1
330
0
100
AcDbSymbolTable
 70
     6
  0
BLOCK_RECORD
  5
1F
102
{ACAD_XDICTIONARY
360
81
102
}
330
1
100
AcDbSymbolTableRecord
100
AcDbBlockTableRecord
  2
*Model_Space
340
22
  0
BLOCK_RECORD
  5
1B
330
1
100
AcDbSymbolTableRecord
100
AcDbBlockTableRecord
  2
*Paper_Space
340
1E
  0
BLOCK_RECORD
  5
23
330
1
100
AcDbSymbolTableRecord
100
AcDbBlockTableRecord
  2
*Paper_Space0
340
26
  0
BLOCK_RECORD
  5
75
330
1
100
AcDbSymbolTableRecord
100
AcDbBlockTableRecord
  2
GENAXEH
340
0
  0
BLOCK_RECORD
  5
1569
330
1
100
AcDbSymbolTableRecord
100
AcDbBlockTableRecord
  2
block 2
340
0
  0
BLOCK_RECORD
  5
191C
330
1
100
AcDbSymbolTableRecord
100
AcDbBlockTableRecord
  2
A$C4E4056AC
340
0
1001
ACAD
1000
DesignCenter Data
1002
{
1070
     1
1070
     4
1002
}
  0
BLOCK_RECORD
  5
1992
330
1
100
AcDbSymbolTableRecord
100
AcDbBlockTableRecord
  2
A$C6A94611C
340
0
1001
ACAD
1000
DesignCenter Data
1002
{
1070
     1
1070
     4
1002
}
  0
ENDTAB
  0
ENDSEC
  0
SECTION
  2
BLOCKS
  0
BLOCK
  5
20
330
1F
100
AcDbEntity
  8
0
100
AcDbBlockBegin
  2
*Model_Space
 70
     0
 10
0.0
 20
0.0
 30
0.0
  3
*Model_Space
  1

  0
ENDBLK
  5
21
330
1F
100
AcDbEntity
  8
0
100
AcDbBlockEnd
  0
BLOCK
  5
1C
330
1B
100
AcDbEntity
 67
     1
  8
0
100
AcDbBlockBegin
  2
*Paper_Space
 70
     0
 10
0.0
 20
0.0
 30
0.0
  3
*Paper_Space
  1

  0
ENDBLK
  5
1D
330
1B
100
AcDbEntity
 67
     1
  8
0
100
AcDbBlockEnd
  0
BLOCK
  5
24
330
23
100
AcDbEntity
 67
     1
  8
0
100
AcDbBlockBegin
  2
*Paper_Space0
 70
     0
 10
0.0
 20
0.0
 30
0.0
  3
*Paper_Space0
  1

  0
ENDBLK
  5
25
330
23
100
AcDbEntity
 67
     1
  8
0
100
AcDbBlockEnd
  0
BLOCK
  5
77
330
75
100
AcDbEntity
  8
0
100
AcDbBlockBegin
  2
GENAXEH
 70
     0
 10
0.0
 20
0.0
 30
0.0
  3
GENAXEH
  1

  0
LINE
  5
76
330
75
100
AcDbEntity
  8
0
100
AcDbLine
 10
-1.0
 20
0.0
 30
0.0
 11
1.0
 21
0.0
 31
0.0
  0
ENDBLK
  5
78
330
75
100
AcDbEntity
  8
0
100
AcDbBlockEnd
  0
BLOCK
  5
156A
330
1569
100
AcDbEntity
  8
0
100
AcDbBlockBegin
  2
block 2
 70
     0
 10
0.0
 20
0.0
 30
0.0
  3
block 2
  1

  0
SPLINE
  5
156B
330
1569
100
AcDbEntity
  8
0
 62
   250
420
  1842203
370
     9
100
AcDbSpline
210
0.0
220
0.0
230
1.0
 70
    11
 71
     3
 72
    32
 73
    28
 74
     0
 42
0.0000000001
 43
0.0000000001
 40
0.0
 40
0.0
 40
0.0
 40
0.0
 40
1.0
 40
1.0
 40
1.0
 40
2.0
 40
2.0
 40
2.0
 40
3.0
 40
3.0
 40
3.0
 40
4.0
 40
4.0
 40
4.0
 40
5.0
 40
5.0
 40
5.0
 40
6.0
 40
6.0
 40
6.0
 40
7.0
 40
7.0
 40
7.0
 40
8.0
 40
8.0
 40
8.0
 40
9.0
 40
9.0
 40
9.0
 40
9.0
 10
-742.8948782864985
 20
10.11480034469352
 30
0.0
 10
-742.8948782864985
 20
10.11480034469352
 30
0.0
 10
-742.3932723838461
 20
773.9172741120762
 30
0.0
 10
-742.3932723838461
 20
773.9172741120762
 30
0.0
 10
-742.3932723838461
 20
775.5764320977726
 30
0.0
 10
-741.0483071064046
 20
776.9158852224377
 30
0.0
 10
-739.3891491207083
 20
776.9158852224377
 30
0.0
 10
-739.3891491207083
 20
776.9158852224377
 30
0.0
 10
921.3949216446513
 20
777.5222220278417
 30
0.0
 10
921.3949216446513
 20
777.5222220278417
 30
0.0
 10
921.3949216446513
 20
777.5222220278417
 30
0.0
 10
1024.317838285587
 20
302.8707464520601
 30
0.0
 10
1024.317838285587
 20
302.8707464520601
 30
0.0
 10
1032.696310505714
 20
251.2659721594058
 30
0.0
 10
1015.415711551701
 20
173.2414496094674
 30
0.0
 10
933.5381942110599
 20
126.751953093312
 30
0.0
 10
266.0330294473807
 20
-252.2857204230397
 30
0.0
 10
263.4753905591312
 20
-254.1819009781212
 30
0.0
 10
-178.6268228720099
 20
-502.4217012632834
 30
0.0
 10
-233.6932291082434
 20
-533.344878338886
 30
0.0
 10
-310.5050780473737
 20
-523.4946613274596
 30
0.0
 10
-360.0979165766422
 20
-462.1774738427889
 30
0.0
 10
-501.9972654995007
 20
-286.7256509699853
 30
0.0
 10
-593.6092446432643
 20
-174.0792968314802
 30
0.0
 10
-742.8948782864985
 20
10.11480034469352
 30
0.0
 10
-742.8948782864985
 20
10.11480034469352
 30
0.0
 10
-742.8948782864985
 20
10.11480034469352
 30
0.0
 10
-742.8948782864985
 20
10.11480034469352
 30
0.0
  0
SPLINE
  5
156C
330
1569
100
AcDbEntity
  8
0
 62
   250
420
  1842203
370
     9
100
AcDbSpline
210
0.0
220
0.0
230
1.0
 70
     8
 71
     3
 72
    17
 73
    13
 74
     0
 42
0.0000000001
 43
0.0000000001
 40
0.0
 40
0.0
 40
0.0
 40
0.0
 40
1.0
 40
1.0
 40
1.0
 40
2.0
 40
2.0
 40
2.0
 40
3.0
 40
3.0
 40
3.0
 40
4.0
 40
4.0
 40
4.0
 40
4.0
 10
375.7910155310522
 20
-103.7883246268307
 30
0.0
 10
377.2186631001398
 20
-105.1112412931666
 30
0.0
 10
378.8447481691777
 20
-107.7295138619565
 30
0.0
 10
378.8447481691777
 20
-107.7295138619565
 30
0.0
 10
380.4322481687809
 20
-110.4911024029328
 30
0.0
 10
370.3835936574041
 20
-119.2113280951971
 30
0.0
 10
356.5205294247588
 20
-127.2149739265296
 30
0.0
 10
342.6629773448898
 20
-135.2131076050856
 30
0.0
 10
330.1393662369096
 20
-139.4684895484662
 30
0.0
 10
328.5463540845301
 20
-136.7069010074899
 30
0.0
 10
328.5463540845301
 20
-136.7069010074899
 30
0.0
 10
326.4792967933802
 20
-134.4965277441536
 30
0.0
 10
325.5477429741686
 20
-132.8263454529045
 30
0.0
  0
SPLINE
  5
156D
330
1569
100
AcDbEntity
  8
0
 62
   250
420
  1842203
370
     9
100
AcDbSpline
210
0.0
220
0.0
230
1.0
 70
    11
 71
     3
 72
    20
 73
    16
 74
     0
 42
0.0000000001
 43
0.0000000001
 40
0.0
 40
0.0
 40
0.0
 40
0.0
 40
1.0
 40
1.0
 40
1.0
 40
2.0
 40
2.0
 40
2.0
 40
3.0
 40
3.0
 40
3.0
 40
4.0
 40
4.0
 40
4.0
 40
5.0
 40
5.0
 40
5.0
 40
5.0
 10
325.5477429741686
 20
-132.8263454529045
 30
0.0
 10
323.9492186690128
 20
-130.0702690647046
 30
0.0
 10
333.8986544304142
 20
-121.3445312196639
 30
0.0
 10
347.7562065102832
 20
-113.3463975411078
 30
0.0
 10
361.6192707429285
 20
-105.3427517097754
 30
0.0
 10
374.1373696981323
 20
-101.0928819191712
 30
0.0
 10
375.7358940032883
 20
-103.8489583073711
 30
0.0
 10
377.3289061556678
 20
-106.6105468483473
 30
0.0
 10
367.3794703942663
 20
-115.3307725406117
 30
0.0
 10
353.5219183143973
 20
-123.3289062191678
 30
0.0
 10
339.658854081752
 20
-131.3325520505002
 30
0.0
 10
327.1407551265482
 20
-135.5824218411044
 30
0.0
 10
325.5477429741686
 20
-132.8263454529045
 30
0.0
 10
325.5477429741686
 20
-132.8263454529045
 30
0.0
 10
325.5477429741686
 20
-132.8263454529045
 30
0.0
 10
325.5477429741686
 20
-132.8263454529045
 30
0.0
  0
SPLINE
  5
156E
330
1569
100
AcDbEntity
  8
0
 62
   250
420
  1842203
370
     9
100
AcDbSpline
210
0.0
220
0.0
230
1.0
 70
    11
 71
     3
 72
    38
 73
    34
 74
     0
 42
0.0000000001
 43
0.0000000001
 40
0.0
 40
0.0
 40
0.0
 40
0.0
 40
1.0
 40
1.0
 40
1.0
 40
2.0
 40
2.0
 40
2.0
 40
3.0
 40
3.0
 40
3.0
 40
4.0
 40
4.0
 40
4.0
 40
5.0
 40
5.0
 40
5.0
 40
6.0
 40
6.0
 40
6.0
 40
7.0
 40
7.0
 40
7.0
 40
8.0
 40
8.0
 40
8.0
 40
9.0
 40
9.0
 40
9.0
 40
10.0
 40
10.0
 40
10.0
 40
11.0
 40
11.0
 40
11.0
 40
11.0
 10
924.1179251161927
 20
555.0958331945594
 30
0.0
 10
909.505208105957
 20
620.4589408171075
 30
0.0
 10
856.8035154107992
 20
662.1528644177951
 30
0.0
 10
789.8308591775422
 20
662.1528644177951
 30
0.0
 10
300.6824217998294
 20
662.1528644177951
 30
0.0
 10
-450.2326387763307
 20
662.1528644177951
 30
0.0
 10
-510.6237845945662
 20
662.1528644177951
 30
0.0
 10
-568.0328557607696
 20
662.1528644177951
 30
0.0
 10
-638.2521699793259
 20
639.7790362983886
 30
0.0
 10
-638.2521699793259
 20
574.4545137452753
 30
0.0
 10
-638.2521699793259
 20
574.4545137452753
 30
0.0
 10
-638.7262151180962
 20
55.033333319575
 30
0.0
 10
-638.7262151180962
 20
55.033333319575
 30
0.0
 10
-638.7262151180962
 20
-27.85290797914789
 30
0.0
 10
-608.8338106116805
 20
-86.78884546441391
 30
0.0
 10
-552.7256075007074
 20
-155.4592447528018
 30
0.0
 10
-458.3244790520855
 20
-270.9829426405876
 30
0.0
 10
-448.0498262768764
 20
-283.743576317953
 30
0.0
 10
-318.3213106843086
 20
-443.535373153005
 30
0.0
 10
-284.0081596512202
 20
-485.8025606424383
 30
0.0
 10
-226.4006509850665
 20
-479.1108071718889
 30
0.0
 10
-179.0181857191343
 20
-452.305208220257
 30
0.0
 10
338.2863280404284
 20
-159.5878471823253
 30
0.0
 10
522.8221786887389
 20
-54.9947482501402
 30
0.0
 10
916.2520831042703
 20
167.9883680135584
 30
0.0
 10
968.6120223272915
 20
197.6602864089182
 30
0.0
 10
992.2922306547048
 20
250.1745659096786
 30
0.0
 10
979.1512584357677
 20
308.9120658949942
 30
0.0
 10
955.5647567055533
 20
414.3981335769559
 30
0.0
 10
944.6121091388469
 20
463.4177082174789
 30
0.0
 10
924.1179251161927
 20
555.0958331945594
 30
0.0
 10
924.1179251161927
 20
555.0958331945594
 30
0.0
 10
924.1179251161927
 20
555.0958331945594
 30
0.0
 10
924.1179251161927
 20
555.0958331945594
 30
0.0
  0
SPLINE
  5
156F
330
1569
100
AcDbEntity
  8
0
 62
   250
420
  1842203
370
     9
100
AcDbSpline
210
0.0
220
0.0
230
1.0
 70
    11
 71
     3
 72
    38
 73
    34
 74
     0
 42
0.0000000001
 43
0.0000000001
 40
0.0
 40
0.0
 40
0.0
 40
0.0
 40
1.0
 40
1.0
 40
1.0
 40
2.0
 40
2.0
 40
2.0
 40
3.0
 40
3.0
 40
3.0
 40
4.0
 40
4.0
 40
4.0
 40
5.0
 40
5.0
 40
5.0
 40
6.0
 40
6.0
 40
6.0
 40
7.0
 40
7.0
 40
7.0
 40
8.0
 40
8.0
 40
8.0
 40
9.0
 40
9.0
 40
9.0
 40
10.0
 40
10.0
 40
10.0
 40
11.0
 40
11.0
 40
11.0
 40
11.0
 10
-186.4210068978392
 20
559.3346786796107
 30
0.0
 10
-234.2058593164485
 20
559.3346786796107
 30
0.0
 10
-234.2058593164485
 20
521.8244790362105
 30
0.0
 10
-234.2058593164485
 20
521.8244790362105
 30
0.0
 10
-234.2058593164485
 20
521.8244790362105
 30
0.0
 10
-234.2058593164485
 20
302.8707464520601
 30
0.0
 10
-234.2058593164485
 20
302.8707464520601
 30
0.0
 10
-234.2058593164485
 20
262.7477863926464
 30
0.0
 10
-226.7203558460977
 20
239.3762586207115
 30
0.0
 10
-207.019921823245
 20
215.1613714739875
 30
0.0
 10
-111.5604600415543
 20
97.80763886443699
 30
0.0
 10
-70.69887151010306
 20
47.83997394637334
 30
0.0
 10
20.44457464766663
 20
-65.49539928918171
 30
0.0
 10
36.98103297686586
 20
-86.06124129792915
 30
0.0
 10
68.73103296892836
 20
-85.62026907581715
 30
0.0
 10
96.67764754527503
 20
-69.72322046868031
 30
0.0
 10
374.9752169201451
 20
88.54722220008541
 30
0.0
 10
527.2925345903991
 20
174.2997829425362
 30
0.0
 10
768.0578557107633
 20
310.7365884639825
 30
0.0
 10
772.4786022374359
 20
313.239105824468
 30
0.0
 10
773.9944442509458
 20
317.8693141566438
 30
0.0
 10
772.8975258484423
 20
322.8302516554036
 30
0.0
 10
750.3197480763089
 20
424.5515189910843
 30
0.0
 10
743.6665796751944
 20
454.5266057891462
 30
0.0
 10
722.6818140554406
 20
549.0434894460725
 30
0.0
 10
721.7612845417819
 20
553.2217012505834
 30
0.0
 10
717.4011716956497
 20
559.3346786796107
 30
0.0
 10
710.5936630167961
 20
559.3346786796107
 30
0.0
 10
710.5936630167961
 20
559.3346786796107
 30
0.0
 10
-186.4210068978392
 20
559.3346786796107
 30
0.0
 10
-186.4210068978392
 20
559.3346786796107
 30
0.0
 10
-186.4210068978392
 20
559.3346786796107
 30
0.0
 10
-186.4210068978392
 20
559.3346786796107
 30
0.0
 10
-186.4210068978392
 20
559.3346786796107
 30
0.0
  0
SPLINE
  5
1570
330
1569
100
AcDbEntity
  8
0
 62
   250
420
  1842203
370
     9
100
AcDbSpline
210
0.0
220
0.0
230
1.0
 70
    11
 71
     3
 72
    20
 73
    16
 74
     0
 42
0.0000000001
 43
0.0000000001
 40
0.0
 40
0.0
 40
0.0
 40
0.0
 40
1.0
 40
1.0
 40
1.0
 40
2.0
 40
2.0
 40
2.0
 40
3.0
 40
3.0
 40
3.0
 40
4.0
 40
4.0
 40
4.0
 40
5.0
 40
5.0
 40
5.0
 40
5.0
 10
289.8069443719927
 20
303.3888888130416
 30
0.0
 10
289.5478731915019
 20
318.5087238787062
 30
0.0
 10
277.0738714585093
 20
330.5417533895868
 30
0.0
 10
261.9595485456212
 20
330.282682209096
 30
0.0
 10
246.8397134799567
 20
330.0180988758288
 30
0.0
 10
234.8011718162997
 20
317.5496092956127
 30
0.0
 10
235.0657551495669
 20
302.4352863827246
 30
0.0
 10
235.3358506356105
 20
287.31545131706
 30
0.0
 10
247.7988280630503
 20
275.276909653403
 30
0.0
 10
262.9131509759384
 20
275.5414929866702
 30
0.0
 10
278.0329860416029
 20
275.8060763199374
 30
0.0
 10
290.0715277052599
 20
288.2690537473772
 30
0.0
 10
289.8069443719927
 20
303.3888888130416
 30
0.0
 10
289.8069443719927
 20
303.3888888130416
 30
0.0
 10
289.8069443719927
 20
303.3888888130416
 30
0.0
 10
289.8069443719927
 20
303.3888888130416
 30
0.0
  0
POLYLINE
  5
1571
330
1569
100
AcDbEntity
  8
0
 62
   250
420
  1842203
370
     9
100
AcDb2dPolyline
 66
     1
 10
0.0
 20
0.0
 30
0.0
  0
VERTEX
  5
1572
330
1571
100
AcDbEntity
  8
0
 62
   250
420
  1842203
370
     9
100
AcDbVertex
100
AcDb2dVertex
 10
326.0713974879266
 20
302.8707464520601
 30
0.0
  0
VERTEX
  5
1573
330
1571
100
AcDbEntity
  8
0
 62
   250
420
  1842203
370
     9
100
AcDbVertex
100
AcDb2dVertex
 10
196.3483940481351
 20
302.8707464520601
 30
0.0
  0
SEQEND
  5
1574
330
1571
100
AcDbEntity
  8
0
370
     9
  0
POLYLINE
  5
1575
330
1569
100
AcDbEntity
  8
0
 62
   250
420
  1842203
370
     9
100
AcDb2dPolyline
 66
     1
 10
0.0
 20
0.0
 30
0.0
  0
VERTEX
  5
1576
330
1575
100
AcDbEntity
  8
0
 62
   250
420
  1842203
370
     9
100
AcDbVertex
100
AcDb2dVertex
 10
262.439105837168
 20
237.948611051624
 30
0.0
  0
VERTEX
  5
1577
330
1575
100
AcDbEntity
  8
0
 62
   250
420
  1842203
370
     9
100
AcDbVertex
100
AcDb2dVertex
 10
262.439105837168
 20
367.6716144914154
 30
0.0
  0
SEQEND
  5
1578
330
1575
100
AcDbEntity
  8
0
370
     9
  0
SPLINE
  5
1579
330
1569
100
AcDbEntity
  8
0
 62
   250
420
  1842203
370
     9
100
AcDbSpline
210
0.0
220
0.0
230
1.0
 70
    11
 71
     3
 72
    20
 73
    16
 74
     0
 42
0.0000000001
 43
0.0000000001
 40
0.0
 40
0.0
 40
0.0
 40
0.0
 40
1.0
 40
1.0
 40
1.0
 40
2.0
 40
2.0
 40
2.0
 40
3.0
 40
3.0
 40
3.0
 40
4.0
 40
4.0
 40
4.0
 40
5.0
 40
5.0
 40
5.0
 40
5.0
 10
215.1944443906459
 20
303.3062065213957
 30
0.0
 10
215.1944443906459
 20
329.4007377648721
 30
0.0
 10
236.3445745936917
 20
350.5508679679179
 30
0.0
 10
262.439105837168
 20
350.5508679679179
 30
0.0
 10
288.5336370806444
 20
350.5508679679179
 30
0.0
 10
309.6782551309138
 20
329.4007377648721
 30
0.0
 10
309.6782551309138
 20
303.3062065213957
 30
0.0
 10
309.6782551309138
 20
277.2116752779193
 30
0.0
 10
288.5336370806444
 20
256.0615450748735
 30
0.0
 10
262.439105837168
 20
256.0615450748735
 30
0.0
 10
236.3445745936917
 20
256.0615450748735
 30
0.0
 10
215.1944443906459
 20
277.2116752779193
 30
0.0
 10
215.1944443906459
 20
303.3062065213957
 30
0.0
 10
215.1944443906459
 20
303.3062065213957
 30
0.0
 10
215.1944443906459
 20
303.3062065213957
 30
0.0
 10
215.1944443906459
 20
303.3062065213957
 30
0.0
  0
ENDBLK
  5
157A
330
1569
100
AcDbEntity
  8
0
100
AcDbBlockEnd
  0
BLOCK
  5
198F
330
191C
100
AcDbEntity
  8
0
100
AcDbBlockBegin
  2
A$C4E4056AC
 70
     0
 10
0.0
 20
0.0
 30
0.0
  3
A$C4E4056AC
  1

  0
ARC
  5
191D
330
191C
100
AcDbEntity
  8
0
100
AcDbCircle
 10
1151.885729720808
 20
1045.237687417382
 30
0.0
 40
20.00000000029769
100
AcDbArc
 50
293.6221636266432
 51
0.0
  0
LINE
  5
191E
330
191C
100
AcDbEntity
  8
0
100
AcDbLine
 10
989.8581595833499
 20
952.545820702161
 30
0.0
 11
1159.899799266661
 21
1026.913531537436
 31
0.0
  0
ARC
  5
191F
330
191C
100
AcDbEntity
  8
0
100
AcDbCircle
 10
969.8229857208085
 20
998.3562104173826
 30
0.0
 40
49.99999999852811
100
AcDbArc
 50
239.3570647360595
 51
293.6221636173877
  0
ARC
  5
1920
330
191C
100
AcDbEntity
  8
0
100
AcDbCircle
 10
867.8857297208082
 20
826.2841446173819
 30
0.0
 40
150.0000000046145
100
AcDbArc
 50
59.35706472055829
 51
167.8872625365334
  0
ARC
  5
1921
330
191C
100
AcDbEntity
  8
0
100
AcDbCircle
 10
672.3384072208084
 20
868.2513305173815
 30
0.0
 40
50.00000000074408
100
AcDbArc
 50
293.6221636724441
 51
347.8872625250825
  0
LINE
  5
1922
330
191C
100
AcDbEntity
  8
0
100
AcDbLine
 10
606.6860703437198
 20
784.9655080186551
 30
0.0
 11
692.373581157492
 21
822.4409407525353
 31
0.0
  0
ARC
  5
1923
330
191C
100
AcDbEntity
  8
0
100
AcDbCircle
 10
598.6720007908084
 20
803.289663917382
 30
0.0
 40
20.00000000026226
100
AcDbArc
 50
209.5499999973358
 51
293.6221636236008
  0
LINE
  5
1924
330
191C
100
AcDbEntity
  8
0
100
AcDbLine
 10
435.832273504227
 20
1049.969857313152
 30
0.0
 11
581.2734921838909
 21
793.4260083179008
 31
0.0
  0
LINE
  5
1925
330
191C
100
AcDbEntity
  8
0
100
AcDbLine
 10
435.4783167717182
 20
1050.594203003846
 30
0.0
 11
435.832273504227
 21
1049.969857313152
 31
0.0
  0
LINE
  5
1926
330
191C
100
AcDbEntity
  8
0
100
AcDbLine
 10
675.4819918118139
 20
627.2515571908232
 30
0.0
 11
873.984687526271
 21
277.1125384393463
 31
0.0
  0
ARC
  5
1927
330
191C
100
AcDbEntity
  8
0
100
AcDbCircle
 10
692.8805075208083
 20
637.1152168173816
 30
0.0
 40
20.00000000029767
100
AcDbArc
 50
113.6221636266431
 51
209.5499999991561
  0
LINE
  5
1928
330
191C
100
AcDbEntity
  8
0
100
AcDbLine
 10
764.5261795925432
 20
690.2785605633371
 30
0.0
 11
684.8664379749548
 21
655.439372697328
 31
0.0
  0
ARC
  5
1929
330
191C
100
AcDbEntity
  8
0
100
AcDbCircle
 10
784.5613534208085
 20
644.4681708173828
 30
0.0
 40
49.99999999834605
100
AcDbArc
 50
65.37850428365732
 51
113.6221635672931
  0
ARC
  5
192A
330
191C
100
AcDbEntity
  8
0
100
AcDbCircle
 10
867.8857297208082
 20
826.2841446173819
 30
0.0
 40
149.9999999955374
100
AcDbArc
 50
245.3785043320096
 51
340.537368832959
  0
ARC
  5
192B
330
191C
100
AcDbEntity
  8
0
100
AcDbCircle
 10
1066.641640420808
 20
756.0468376173822
 30
0.0
 40
60.80130770090497
100
AcDbArc
 50
113.6221636205558
 51
160.5373688021944
  0
LINE
  5
192C
330
191C
100
AcDbEntity
  8
0
100
AcDbLine
 10
1143.871660156518
 20
856.1853059329994
 30
0.0
 11
1042.278344957715
 21
811.7534697335234
 31
0.0
  0
ARC
  5
192D
330
191C
100
AcDbEntity
  8
0
100
AcDbCircle
 10
1151.885729720808
 20
837.8611500173818
 30
0.0
 40
20.0
100
AcDbArc
 50
0.0
 51
113.6221636340811
  0
LINE
  5
192E
330
191C
100
AcDbEntity
  8
0
100
AcDbLine
 10
1171.885729720808
 20
344.7282159173817
 30
0.0
 11
1171.885729720808
 21
837.8611500173818
 31
0.0
  0
ARC
  5
192F
330
191C
100
AcDbEntity
  8
0
100
AcDbCircle
 10
1151.885729720809
 20
344.7282159173817
 30
0.0
 40
19.99999999944558
100
AcDbArc
 50
282.4999999979153
 51
0.0
  0
LINE
  5
1930
330
191C
100
AcDbEntity
  8
0
100
AcDbLine
 10
895.7119906804564
 20
267.4502626115682
 30
0.0
 11
1156.214502755423
 21
325.202382576284
 31
0.0
  0
ARC
  5
1931
330
191C
100
AcDbEntity
  8
0
100
AcDbCircle
 10
891.3831959208087
 20
286.9761939173825
 30
0.0
 40
20.0000000002628
100
AcDbArc
 50
209.5499999947456
 51
282.5000000168245
  0
ELLIPSE
  5
1932
330
191C
100
AcDbEntity
  8
0
100
AcDbEllipse
 10
513.53885648821
 20
1022.100784287124
 30
0.0
 11
67.03597947270221
 21
-58.12237638671696
 31
0.0
210
0.0
220
0.0
230
1.0
 40
0.6762833388719222
 41
3.023719705547482
 42
3.662243683160209
  0
LINE
  5
1933
330
191C
100
AcDbEntity
  8
0
100
AcDbLine
 10
440.290422329785
 20
1076.000780600358
 30
0.0
 11
451.5904888071954
 21
1085.151393927446
 31
0.0
  0
ARC
  5
1934
330
191C
100
AcDbEntity
  8
0
100
AcDbCircle
 10
452.8768301708084
 20
1060.457861317382
 30
0.0
 40
20.00000000004161
100
AcDbArc
 50
128.9999999475274
 51
209.5499999904869
  0
LINE
  5
1935
330
191C
100
AcDbEntity
  8
0
100
AcDbLine
 10
1289.533276920808
 20
686.2823010175088
 30
0.0
 11
1389.533276920808
 21
686.2823010175088
 31
0.0
  0
LINE
  5
1936
330
191C
100
AcDbEntity
  8
0
100
AcDbLine
 10
1289.533276920808
 20
1236.282301017509
 30
0.0
 11
1289.533276920808
 21
686.2823010175088
 31
0.0
  0
LINE
  5
1937
330
191C
100
AcDbEntity
  8
0
100
AcDbLine
 10
1389.533276920808
 20
1236.282301017509
 30
0.0
 11
1289.533276920808
 21
1236.282301017509
 31
0.0
  0
LINE
  5
1938
330
191C
100
AcDbEntity
  8
0
100
AcDbLine
 10
1389.533276920808
 20
686.2823010175088
 30
0.0
 11
1389.533276920808
 21
1236.282301017509
 31
0.0
  0
SPLINE
  5
1939
330
191C
100
AcDbEntity
  8
0
100
AcDbSpline
210
0.0
220
0.0
230
1.0
 70
     8
 71
     3
 72
     8
 73
     4
 74
     0
 42
0.0000000001
 43
0.0000000001
 40
0.0
 40
0.0
 40
0.0
 40
0.0
 40
23.87757447055718
 40
23.87757447055718
 40
23.87757447055718
 40
23.87757447055718
 10
1231.513036120808
 20
1343.158266157396
 30
0.0
 10
1230.496386758066
 20
1336.210567708983
 30
0.0
 10
1228.092740389437
 20
1334.008928944715
 30
0.0
 10
1224.101658989883
 20
1334.121779889251
 30
0.0
  0
ARC
  5
193A
330
191C
100
AcDbEntity
  8
0
100
AcDbCircle
 10
1151.885729720808
 20
1371.284144617382
 30
0.0
 40
20.00000000000024
100
AcDbArc
 50
19.54115093202312
 51
90.0
  0
LINE
  5
193B
330
191C
100
AcDbEntity
  8
0
100
AcDbLine
 10
1151.885729720808
 20
1391.284144617382
 30
0.0
 11
1144.742319620809
 21
1391.284144617382
 31
0.0
  0
SPLINE
  5
193C
330
191C
100
AcDbEntity
  8
0
100
AcDbSpline
210
0.0
220
0.0
230
1.0
 70
     8
 71
     5
 72
    15
 73
     9
 74
     0
 42
0.0000000001
 43
0.0000000001
 40
252.6026795
 40
252.6026795
 40
252.6026795
 40
252.6026795
 40
252.6026795
 40
252.6026795
 40
307.8333429
 40
307.8333429
 40
307.8333429
 40
325.3643551171202
 40
325.3643551171202
 40
325.3643551171202
 40
325.3643551171202
 40
325.3643551171202
 40
325.3643551171202
 10
1144.742319620808
 20
1391.284141137382
 30
0.0
 10
1149.241258420808
 20
1391.284139817382
 30
0.0
 10
1153.707873020809
 20
1390.466316487382
 30
0.0
 10
1157.994269020808
 20
1388.814167377382
 30
0.0
 10
1163.213969086662
 20
1385.651104314681
 30
0.0
 10
1167.734194728837
 20
1381.393832773553
 30
0.0
 10
1168.779993259175
 20
1380.308301378724
 30
0.0
 10
1169.780410458423
 20
1379.166964805993
 30
0.0
 10
1170.733814397765
 20
1377.973850600804
 30
0.0
  0
ARC
  5
193D
330
191C
100
AcDbEntity
  8
0
100
AcDbCircle
 10
1151.885729720806
 20
1371.284144617382
 30
0.0
 40
20.0000000000017
100
AcDbArc
 50
0.0
 51
19.54115093201698
  0
LINE
  5
193E
330
191C
100
AcDbEntity
  8
0
100
AcDbLine
 10
1144.742319620809
 20
1391.284144617382
 30
0.0
 11
882.7507380208082
 21
1391.284144617382
 31
0.0
  0
LINE
  5
193F
330
191C
100
AcDbEntity
  8
0
100
AcDbLine
 10
1171.885729720808
 20
1371.284144617382
 30
0.0
 11
1171.885729720808
 21
1045.237687417382
 31
0.0
  0
CIRCLE
  5
1940
330
191C
100
AcDbEntity
  8
0
100
AcDbCircle
 10
867.8857297208082
 20
826.2841446173819
 30
0.0
 40
56.50000000000001
  0
ARC
  5
1941
330
191C
100
AcDbEntity
  8
0
100
AcDbCircle
 10
882.7507380208082
 20
1241.284144617382
 30
0.0
 40
149.9999999999998
100
AcDbArc
 50
90.0
 51
129.0000000173955
  0
SPLINE
  5
1942
330
191C
100
AcDbEntity
  8
0
100
AcDbSpline
210
0.0
220
0.0
230
1.0
 70
    24
 71
     3
 72
    10
 73
     6
 74
     0
 42
0.0000000001
 43
0.0000000001
 40
0.0000141434114196
 40
0.0000141434114196
 40
0.0000141434114196
 40
0.0000141434114196
 40
0.00514768847132
 40
0.00514768847132
 40
0.0102823915914739
 40
0.0102823915914739
 40
0.0102823915914739
 40
0.0102823915914739
 10
451.590488768403
 20
1085.15139397535
 30
0.0
 10
451.6037871477744
 20
1085.162162790631
 30
0.0
 10
451.6170855271461
 20
1085.172931605912
 30
0.0
 10
451.6436852858285
 20
1085.194471665778
 30
0.0
 10
451.6569866651393
 20
1085.205242910362
 30
0.0
 10
451.6702880444502
 20
1085.216014154946
 30
0.0
  0
CIRCLE
  5
1943
330
191C
100
AcDbEntity
  8
0
100
AcDbCircle
 10
867.8857297208082
 20
826.284144617376
 30
0.0
 40
37.5
  0
SPLINE
  5
1944
330
191C
100
AcDbEntity
  8
0
100
AcDbSpline
210
0.0
220
0.0
230
1.0
 70
    24
 71
     3
 72
    10
 73
     6
 74
     0
 42
0.0000000001
 43
0.0000000001
 40
0.0000000012443939
 40
0.0000000012443939
 40
0.0000000012443939
 40
0.0000000012443939
 40
21.66146464407856
 40
21.66146464407856
 40
43.32292845103366
 40
43.32292845103366
 40
43.32292845103366
 40
43.32292845103366
 10
788.3526793103826
 20
1357.856038828939
 30
0.0
 10
732.2389467531116
 20
1312.416034166265
 30
0.0
 10
676.1252141958398
 20
1266.976029503591
 30
0.0
 10
563.8977512466312
 20
1176.096021931694
 30
0.0
 10
507.784020854694
 20
1130.656019022472
 30
0.0
 10
451.6702904627568
 20
1085.216016113249
 30
0.0
  0
ELLIPSE
  5
1945
330
191C
100
AcDbEntity
  8
0
100
AcDbEllipse
 10
842.5503437118441
 20
177.1668248843846
 30
0.0
 11
53.09848696757449
 21
119.3974616047165
 31
0.0
210
0.0
220
0.0
230
1.0
 40
0.9897726330522235
 41
2.509901362858121
 42
3.773307798909207
  0
LINE
  5
1946
330
191C
100
AcDbEntity
  8
0
100
AcDbLine
 10
869.4856705223406
 20
49.77563491784827
 30
0.0
 11
1177.523016020961
 21
118.0658709175423
 31
0.0
  0
SPLINE
  5
1947
330
191C
100
AcDbEntity
  8
0
100
AcDbSpline
210
0.0
220
0.0
230
1.0
 70
     8
 71
     3
 72
    23
 73
    19
 74
     0
 42
0.0000000001
 43
0.0000000001
 40
0.0
 40
0.0
 40
0.0
 40
0.0
 40
51.89676365000002
 40
51.89676365000002
 40
51.89676365000002
 40
96.98683161000005
 40
96.98683161000005
 40
96.98683161000005
 40
135.4825583
 40
135.4825583
 40
135.4825583
 40
172.202072
 40
172.202072
 40
172.202072
 40
211.6595349000001
 40
211.6595349000001
 40
211.6595349000001
 40
217.8427421
 40
217.8427421
 40
217.8427421
 40
217.8427421
 10
1283.956903220808
 20
252.4378389175085
 30
0.0
 10
1283.956903220808
 20
238.7243955841752
 30
0.0
 10
1281.885507197189
 20
224.8336527941442
 30
0.0
 10
1277.671455127974
 20
211.3271719495217
 30
0.0
 10
1274.010111321079
 20
199.5921793150733
 30
0.0
 10
1268.726589249795
 20
188.1455427857738
 30
0.0
 10
1261.849796250209
 20
177.4481784226641
 30
0.0
 10
1255.978721847515
 20
168.3152843407361
 30
0.0
 10
1248.943656360133
 20
159.7308075073931
 30
0.0
 10
1240.863675589501
 20
152.0339946004233
 30
0.0
 10
1233.156509363177
 20
144.6923166718638
 30
0.0
 10
1224.496785775159
 20
138.162590170291
 30
0.0
 10
1215.117572562047
 20
132.7387303334167
 30
0.0
 10
1205.039008874873
 20
126.9104464940185
 30
0.0
 10
1194.131025678316
 20
122.3687654908806
 30
0.0
 10
1182.850982395009
 20
119.3652728561928
 30
0.0
 10
1181.083335929183
 20
118.8946086036276
 30
0.0
 10
1179.306403854143
 20
118.4612375841752
 30
0.0
 10
1177.523016020808
 20
118.0658709175086
 30
0.0
  0
ELLIPSE
  5
1948
330
191C
100
AcDbEntity
  8
0
100
AcDbEllipse
 10
700.5708563476848
 20
1448.18802293167
 30
0.0
 11
270.6620360102168
 21
-243.384846669082
 31
0.0
210
0.0
220
0.0
230
1.0
 40
0.8437536049772138
 41
2.388006691052257
 42
3.00818658455141
  0
ELLIPSE
  5
1949
330
191C
100
AcDbEntity
  8
0
100
AcDbEllipse
 10
200.8301236401453
 20
1293.239392422219
 30
0.0
 11
128.4711162096814
 21
-111.3932551029573
 31
0.0
210
0.0
220
0.0
230
1.0
 40
0.6763151591514597
 41
3.022030782169674
 42
4.229528007117407
  0
ELLIPSE
  5
194A
330
191C
100
AcDbEntity
  8
0
100
AcDbEllipse
 10
200.8301236208074
 20
1293.239392417508
 30
0.0
 11
128.4711162096801
 21
-111.3932551029572
 31
0.0
210
0.0
220
0.0
230
1.0
 40
0.6763151591514611
 41
3.022030782082179
 42
4.229528007117416
  0
LINE
  5
194B
330
191C
100
AcDbEntity
  8
0
100
AcDbLine
 10
459.6284206038431
 20
1719.786229428064
 30
0.0
 11
82.26214550473015
 21
1414.201045184489
 31
0.0
  0
LINE
  5
194C
330
191C
100
AcDbEntity
  8
0
100
AcDbLine
 10
729.9139026240914
 20
111.8440329117177
 30
0.0
 11
74.45537791965671
 21
1268.00775571954
 31
0.0
  0
ELLIPSE
  5
194D
330
191C
100
AcDbEntity
  8
0
100
AcDbEllipse
 10
417.7931264308101
 20
707.4973670174904
 30
0.0
 11
12.82275542849566
 21
-22.61806674410989
 31
0.0
210
0.0
220
0.0
230
1.0
 40
0.3420201432910311
 41
0.0428347812542597
 42
0.2673541618900389
  0
ELLIPSE
  5
194E
330
191C
100
AcDbEntity
  8
0
100
AcDbEllipse
 10
417.7931264308167
 20
707.4973670174858
 30
0.0
 11
-12.82275542850698
 21
22.61806674411396
 31
0.0
210
0.0
220
0.0
230
1.0
 40
0.3420201432910194
 41
6.015831149920803
 42
6.326020088085868
  0
LINE
  5
194F
330
191C
100
AcDbEntity
  8
0
100
AcDbLine
 10
1344.533276920808
 20
1844.607867117509
 30
0.0
 11
1394.533276920808
 21
1844.607867117509
 31
0.0
  0
LINE
  5
1950
330
191C
100
AcDbEntity
  8
0
100
AcDbLine
 10
1344.533276920808
 20
1724.607867117509
 30
0.0
 11
1344.533276920808
 21
1844.607867117509
 31
0.0
  0
LINE
  5
1951
330
191C
100
AcDbEntity
  8
0
100
AcDbLine
 10
1394.533276920808
 20
1724.607867117509
 30
0.0
 11
1344.533276920808
 21
1724.607867117509
 31
0.0
  0
LINE
  5
1952
330
191C
100
AcDbEntity
  8
0
100
AcDbLine
 10
1344.533276920808
 20
383.6313899175084
 30
0.0
 11
1394.533276920808
 21
383.6313899175084
 31
0.0
  0
LINE
  5
1953
330
191C
100
AcDbEntity
  8
0
100
AcDbLine
 10
1344.533276920808
 20
263.6313899175086
 30
0.0
 11
1344.533276920808
 21
383.6313899175084
 31
0.0
  0
LINE
  5
1954
330
191C
100
AcDbEntity
  8
0
100
AcDbLine
 10
1394.533276920808
 20
263.6313899175086
 30
0.0
 11
1344.533276920808
 21
263.6313899175086
 31
0.0
  0
LINE
  5
1955
330
191C
100
AcDbEntity
  8
0
100
AcDbLine
 10
733.9914888208081
 20
1844.607867117509
 30
0.0
 11
733.9914888208081
 21
1894.607867117509
 31
0.0
  0
LINE
  5
1956
330
191C
100
AcDbEntity
  8
0
100
AcDbLine
 10
853.9914888208086
 20
1844.607867117509
 30
0.0
 11
733.9914888208081
 21
1844.607867117509
 31
0.0
  0
LINE
  5
1957
330
191C
100
AcDbEntity
  8
0
100
AcDbLine
 10
853.9914888208086
 20
1894.607867117509
 30
0.0
 11
853.9914888208086
 21
1844.607867117509
 31
0.0
  0
LINE
  5
1958
330
191C
100
AcDbEntity
  8
0
100
AcDbLine
 10
853.9914888208086
 20
1894.607867117509
 30
0.0
 11
733.9914888208081
 21
1894.607867117509
 31
0.0
  0
LINE
  5
1959
330
191C
100
AcDbEntity
  8
0
100
AcDbLine
 10
1394.533276920808
 20
263.6313899175086
 30
0.0
 11
1394.533276920808
 21
383.6313899175084
 31
0.0
  0
LINE
  5
195A
330
191C
100
AcDbEntity
  8
0
100
AcDbLine
 10
1394.533276920808
 20
1724.607867117509
 30
0.0
 11
1394.533276920808
 21
1844.607867117509
 31
0.0
  0
SPLINE
  5
195B
330
191C
100
AcDbEntity
  8
0
100
AcDbSpline
210
0.0
220
0.0
230
1.0
 70
     8
 71
     3
 72
     8
 73
     4
 74
     0
 42
0.0000000001
 43
0.0000000001
 40
-20.2169198302649
 40
-20.2169198302649
 40
-20.2169198302649
 40
-20.2169198302649
 40
0.0
 40
0.0
 40
0.0
 40
0.0
 10
418.6638846750618
 20
983.5182300407618
 30
0.0
 10
415.0736891842975
 20
981.5003430522111
 30
0.0
 10
411.4233776913886
 20
981.6946076065754
 30
0.0
 10
406.7240584208084
 20
985.769239217393
 30
0.0
  0
SPLINE
  5
195C
330
191C
100
AcDbEntity
  8
0
100
AcDbSpline
210
0.0
220
0.0
230
1.0
 70
     8
 71
     3
 72
    16
 73
    12
 74
     0
 42
0.0000000001
 43
0.0000000001
 40
-16.11618951327091
 40
-16.11618951327091
 40
-16.11618951327091
 40
-16.11618951327091
 40
-14.13247397323406
 40
-14.13247397323406
 40
-12.16984828253386
 40
-12.16984828253386
 40
-8.686446366325878
 40
-8.686446366325878
 40
-4.71758625773788
 40
-4.71758625773788
 40
0.0
 40
0.0
 40
0.0
 40
0.0
 10
1195.741287322676
 20
1781.939405412748
 30
0.0
 10
1202.299641472534
 20
1781.939405409862
 30
0.0
 10
1208.79125719876
 20
1781.060629553962
 30
0.0
 10
1221.366845895427
 20
1777.585925159121
 30
0.0
 10
1227.335819332457
 20
1775.041452848775
 30
0.0
 10
1242.90969381843
 20
1765.995983348583
 30
0.0
 10
1251.467999011566
 20
1758.128851716518
 30
0.0
 10
1266.563328011841
 20
1738.570181399544
 30
0.0
 10
1272.574324148296
 20
1726.61543592025
 30
0.0
 10
1281.63419134584
 20
1699.189007859212
 30
0.0
 10
1283.956903248808
 20
1683.365749951236
 30
0.0
 10
1283.956903249059
 20
1667.640462425457
 30
0.0
  0
LINE
  5
195D
330
191C
100
AcDbEntity
  8
0
100
AcDbLine
 10
1195.741287322676
 20
1781.939405410209
 30
0.0
 11
643.7104158208082
 21
1781.939405417509
 31
0.0
  0
LINE
  5
195E
330
191C
100
AcDbEntity
  8
0
100
AcDbLine
 10
1283.956903220808
 20
252.437839039592
 30
0.0
 11
1283.956903220808
 21
1667.640460355382
 31
0.0
  0
ELLIPSE
  5
195F
330
191C
100
AcDbEntity
  8
0
100
AcDbEllipse
 10
417.7931264308083
 20
707.4973670174909
 30
0.0
 11
-12.82275542849781
 21
22.61806674410976
 31
0.0
210
0.0
220
0.0
230
0.9999999999999998
 40
0.3420201432910352
 41
0.0428347809063953
 42
3.184427434496188
  0
LINE
  5
1960
330
191C
100
AcDbEntity
  8
0
100
AcDbLine
 10
1394.533276920808
 20
1894.607867117507
 30
0.0
 11
853.9914888208086
 21
1894.607867117507
 31
0.0
  0
LINE
  5
1961
330
191C
100
AcDbEntity
  8
0
100
AcDbLine
 10
1394.533276920808
 20
1844.607867117507
 30
0.0
 11
1394.533276920808
 21
1894.607867117507
 31
0.0
  0
LINE
  5
1962
330
191C
100
AcDbEntity
  8
0
100
AcDbLine
 10
1394.533276920808
 20
383.6313899175063
 30
0.0
 11
1394.533276920808
 21
1724.607867117506
 31
0.0
  0
LINE
  5
1963
330
191C
100
AcDbEntity
  8
0
100
AcDbLine
 10
1394.533276920544
 20
123.631389917083
 30
0.0
 11
1394.533276920808
 21
263.6313899175064
 31
0.0
  0
LINE
  5
1964
330
191C
100
AcDbEntity
  8
0
100
AcDbLine
 10
880.5208411208321
 20
9.677575917511489
 30
0.0
 11
1394.533276920544
 21
123.631389917083
 31
0.0
  0
SPLINE
  5
1965
330
191C
100
AcDbEntity
  8
0
100
AcDbSpline
210
0.0
220
0.0
230
1.0
 70
     8
 71
     3
 72
    22
 73
    18
 74
     0
 42
0.0000000001
 43
0.0000000001
 40
-22.05327166353585
 40
-22.05327166353585
 40
-22.05327166353585
 40
-22.05327166353585
 40
-15.98709741037316
 40
-15.98709741037316
 40
-13.99844380526752
 40
-13.99844380526752
 40
-12.24177512469713
 40
-12.24177512469713
 40
-11.02663814631356
 40
-11.02663814631356
 40
-9.811505998123099
 40
-9.811505998123099
 40
-8.054861506332732
 40
-8.054861506332732
 40
-6.066242487408032
 40
-6.066242487408032
 40
-0.0000028930358647
 40
-0.0000028930358647
 40
-0.0000028930358647
 40
-0.0000028930358647
 10
692.747538739796
 20
93.18148287110535
 30
0.0
 10
702.7199744584641
 20
75.59107611571653
 30
0.0
 10
715.658093480785
 20
59.86923985412682
 30
0.0
 10
736.072407124519
 20
42.43636204678796
 30
0.0
 10
741.3559555534716
 20
38.42680519846886
 30
0.0
 10
751.7184935433001
 20
31.46801342855406
 30
0.0
 10
756.7419787383619
 20
28.4546665912078
 30
0.0
 10
765.4846638890012
 20
23.80055499600144
 30
0.0
 10
769.1255117624352
 20
22.02464174914439
 30
0.0
 10
776.5262058318251
 20
18.73350730471111
 30
0.0
 10
780.2834763032576
 20
17.21943030115994
 30
0.0
 10
789.5950088875013
 20
13.84470904306204
 30
0.0
 10
795.1971462346389
 20
12.13275878610329
 30
0.0
 10
807.3048836346911
 20
9.098820516413525
 30
0.0
 10
813.8209144317468
 20
7.860983590254704
 30
0.0
 10
840.4390462922711
 20
4.37817019168915
 30
0.0
 10
860.7793654696175
 20
5.300952699821323
 30
0.0
 10
880.5208492859994
 20
9.67753908684142
 30
0.0
  0
LINE
  5
1966
330
191C
100
AcDbEntity
  8
0
100
AcDbLine
 10
29.96510256375314
 20
1262.263858341162
 30
0.0
 11
692.7475387936326
 21
93.18148290162685
 31
0.0
  0
ELLIPSE
  5
1967
330
191C
100
AcDbEntity
  8
0
100
AcDbEllipse
 10
172.3460256500473
 20
1329.320687070777
 30
0.0
 11
-128.4598876112058
 21
117.8906866481925
 31
0.0
210
0.0
220
0.0
230
1.0
 40
0.8889836944116851
 41
6.151774921745476
 42
7.50535696539644
  0
LINE
  5
1968
330
191C
100
AcDbEntity
  8
0
100
AcDbLine
 10
593.9914888053135
 20
1894.607867118682
 30
0.0
 11
58.72630302080825
 21
1461.158666147507
 31
0.0
  0
LINE
  5
1969
330
191C
100
AcDbEntity
  8
0
100
AcDbLine
 10
733.9914888208081
 20
1894.607867117507
 30
0.0
 11
593.9914888053135
 21
1894.607867118682
 31
0.0
  0
LINE
  5
196A
330
191C
100
AcDbEntity
  8
0
100
AcDbLine
 10
882.7618269208278
 20
14.71682891750254
 30
0.0
 11
1394.533276920451
 21
128.173827916916
 31
0.0
  0
SPLINE
  5
196B
330
191C
100
AcDbEntity
  8
0
100
AcDbSpline
210
0.0
220
0.0
230
1.0
 70
     8
 71
     3
 72
    22
 73
    18
 74
     0
 42
0.0000000001
 43
0.0000000001
 40
0.0000027075651746
 40
0.0000027075651746
 40
0.0000027075651746
 40
0.0000027075651746
 40
6.066241256288347
 40
6.066241256288347
 40
8.054860686619404
 40
8.054860686619404
 40
9.811505466800101
 40
9.811505466800101
 40
11.02663767261191
 40
11.02663767261191
 40
12.24177459292379
 40
12.24177459292379
 40
13.99844298251283
 40
13.99844298251283
 40
15.98709617060792
 40
15.98709617060792
 40
22.05327103373619
 40
22.05327103373619
 40
22.05327103373619
 40
22.05327103373619
 10
882.76183424973
 20
14.71679585897755
 30
0.0
 10
863.0203537325064
 20
10.34021064817443
 30
0.0
 10
842.680038127259
 20
9.417428008353567
 30
0.0
 10
816.0619081804036
 20
12.90023976366751
 30
0.0
 10
809.54587598117
 20
14.13807667399703
 30
0.0
 10
797.4381362201461
 20
17.17201512262341
 30
0.0
 10
791.8359979079196
 20
18.88396551737082
 30
0.0
 10
782.5244641736437
 20
22.25868698996373
 30
0.0
 10
778.7671934950333
 20
23.77276399458879
 30
0.0
 10
771.3664993652032
 20
27.06389830163516
 30
0.0
 10
767.7256516272459
 20
28.839811385237
 30
0.0
 10
758.9829673880918
 20
33.49392221941548
 30
0.0
 10
753.9594829203886
 20
36.50726838156947
 30
0.0
 10
743.5969465729681
 20
43.4660583672603
 30
0.0
 10
738.313399014524
 20
47.47561405904207
 30
0.0
 10
717.8990835949273
 20
64.90849078151427
 30
0.0
 10
704.9609622589725
 20
80.6303278505311
 30
0.0
 10
694.9885246208086
 20
98.22073591749859
 30
0.0
  0
LINE
  5
196C
330
191C
100
AcDbEntity
  8
0
100
AcDbLine
 10
40.59187363486967
 20
1252.51141902547
 30
0.0
 11
694.9885246208325
 21
98.22073591723961
 31
0.0
  0
ELLIPSE
  5
196D
330
191C
100
AcDbEntity
  8
0
100
AcDbEllipse
 10
182.9727973967474
 20
1319.568246512329
 30
0.0
 11
-128.4598876112058
 21
117.8906866481925
 31
0.0
210
0.0
220
0.0
230
1.0
 40
0.8889836944116851
 41
6.151774920125791
 42
7.505356957186831
  0
LINE
  5
196E
330
191C
100
AcDbEntity
  8
0
100
AcDbLine
 10
616.6615195244951
 20
1894.607867118461
 30
0.0
 11
69.35307412080828
 21
1451.406226787499
 31
0.0
  0
LINE
  5
196F
330
191C
100
AcDbEntity
  8
0
100
AcDbLine
 10
690.629846126658
 20
95.64441086029887
 30
0.0
 11
35.99894063197371
 21
1250.348295723828
 31
0.0
  0
SPLINE
  5
1970
330
191C
100
AcDbEntity
  8
0
100
AcDbSpline
210
0.0
220
0.0
230
1.0
 70
     8
 71
     3
 72
    22
 73
    18
 74
     0
 42
0.0000000001
 43
0.0000000001
 40
-22.67648840504878
 40
-22.67648840504878
 40
-22.67648840504878
 40
-22.67648840504878
 40
-16.90914022136706
 40
-16.90914022136706
 40
-14.67278680273524
 40
-14.67278680273524
 40
-12.70060340961846
 40
-12.70060340961846
 40
-11.33824639421452
 40
-11.33824639421452
 40
-9.975894244078466
 40
-9.975894244078466
 40
-8.003735288143229
 40
-8.003735288143229
 40
-5.767416957220824
 40
-5.767416957220824
 40
-0.0000027193546445
 40
-0.0000027193546445
 40
-0.0000027193546445
 40
-0.0000027193546445
 10
690.6298461467711
 20
95.64441087170212
 30
0.0
 10
700.1110303374603
 20
78.9205264234538
 30
0.0
 10
712.2039752055461
 20
63.82898027102783
 30
0.0
 10
732.025147423617
 20
45.97690168127974
 30
0.0
 10
737.871527650697
 20
41.34292906527071
 30
0.0
 10
749.3918732498782
 20
33.3414468305798
 30
0.0
 10
754.9947533773752
 20
29.89585717355704
 30
0.0
 10
764.7714039214074
 20
24.61115957763627
 30
0.0
 10
768.8473319036686
 20
22.60692995661634
 30
0.0
 10
777.144907663508
 20
18.91694686075448
 30
0.0
 10
781.3631241940318
 20
17.23271791386628
 30
0.0
 10
791.8354321102829
 20
13.51256728015778
 30
0.0
 10
798.1466012654927
 20
11.65988704732035
 30
0.0
 10
811.8040713337702
 20
8.464573818902408
 30
0.0
 10
819.1607395006419
 20
7.227016586590025
 30
0.0
 10
845.6928839785259
 20
4.465424093266506
 30
0.0
 10
864.9990967234939
 20
5.593651159972864
 30
0.0
 10
883.7681073878636
 20
9.754644686964638
 30
0.0
  0
ELLIPSE
  5
1971
330
191C
100
AcDbEntity
  8
0
100
AcDbEllipse
 10
182.9727975096984
 20
1319.56824646407
 30
0.0
 11
-132.6037549902973
 21
121.6936119962813
 31
0.0
210
0.0
220
0.0
230
1.0
 40
0.8889836941593641
 41
6.151774919345385
 42
7.505356955736221
  0
LINE
  5
1972
330
191C
100
AcDbEntity
  8
0
100
AcDbLine
 10
1394.02970112081
 20
122.8769509174988
 30
0.0
 11
883.7681000208084
 21
9.754677917498497
 31
0.0
  0
ELLIPSE
  5
1973
330
191C
100
AcDbEntity
  8
0
100
AcDbEllipse
 10
1392.533276920808
 20
129.8045271371534
 30
0.0
 11
0.0000000000000048
 21
-7.091516307456792
 31
0.0
210
0.0
220
0.0
230
1.0
 40
0.9870949591753388
 41
0.2154377110638423
 42
1.570797141901967
  0
LINE
  5
1974
330
191C
100
AcDbEntity
  8
0
100
AcDbLine
 10
65.68792175345061
 20
1455.659065073932
 30
0.0
 11
611.2604186205228
 21
1897.454961917575
 31
0.0
  0
ELLIPSE
  5
1975
330
191C
100
AcDbEntity
  8
0
100
AcDbEllipse
 10
617.758513416561
 20
1892.607867307626
 30
0.0
 11
-9.006699842049169
 21
-0.0000001035680386
 31
0.0
210
0.0
220
0.0
230
0.9999999999999998
 40
0.7771991996338681
 41
4.712388982078994
 42
5.518316840128338
  0
SPLINE
  5
1976
330
191C
100
AcDbEntity
  8
0
100
AcDbSpline
210
0.0
220
0.0
230
1.0
 70
    24
 71
     3
 72
     8
 73
     4
 74
     0
 42
0.0000000001
 43
0.0000000001
 40
0.0
 40
0.0
 40
0.0
 40
0.0
 40
0.1021111136511543
 40
0.1021111136511543
 40
0.1021111136511543
 40
0.1021111136511543
 10
1224.545623213676
 20
1334.119149656209
 30
0.0
 10
1224.244833351491
 20
1334.114103256405
 30
0.0
 10
1223.944167606076
 20
1334.109051880588
 30
0.0
 10
1223.64362701167
 20
1334.103995539904
 30
0.0
  0
LINE
  5
1977
330
191C
100
AcDbEntity
  8
0
100
AcDbLine
 10
409.0576844785586
 20
732.4326354266413
 30
0.0
 11
404.9703709765017
 21
730.1154337924792
 31
0.0
  0
SPLINE
  5
1978
330
191C
100
AcDbEntity
  8
0
100
AcDbSpline
210
0.0
220
0.0
230
1.0
 70
    24
 71
     3
 72
     8
 73
     4
 74
     0
 42
0.0000000001
 43
0.0000000001
 40
0.0
 40
0.0
 40
0.0
 40
0.0
 40
0.0253296777232598
 40
0.0253296777232598
 40
0.0253296777232598
 40
0.0253296777232598
 10
418.7482069453778
 20
983.5643461381184
 30
0.0
 10
418.6904335214676
 20
983.5324746889188
 30
0.0
 10
418.6326543757825
 20
983.5005998111974
 30
0.0
 10
418.5748695151014
 20
983.4687215087123
 30
0.0
  0
LINE
  5
1979
330
191C
100
AcDbEntity
  8
0
100
AcDbLine
 10
1394.048231033656
 20
117.6171212867759
 30
0.0
 11
1394.048295954239
 21
117.6171356793484
 31
0.0
  0
LINE
  5
197A
330
191C
100
AcDbEntity
  8
0
100
AcDbLine
 10
434.7031952990808
 20
687.1965018795811
 30
0.0
 11
430.6158817936866
 21
684.8793003121218
 31
0.0
  0
SPLINE
  5
197B
330
191C
100
AcDbEntity
  8
0
100
AcDbSpline
210
0.0
220
0.0
230
1.0
 70
     8
 71
     3
 72
    40
 73
    36
 74
     0
 42
0.0000000001
 43
0.0000000001
 40
0.0
 40
0.0
 40
0.0
 40
0.0
 40
0.050875272262767
 40
0.050875272262767
 40
0.1070284133595421
 40
0.1070284133595421
 40
0.2572716438631879
 40
0.2572716438631879
 40
0.7355628468090984
 40
0.7355628468090984
 40
2.046645289982193
 40
2.046645289982193
 40
2.611581396494069
 40
2.611581396494069
 40
3.204975156026595
 40
3.204975156026595
 40
3.471780430403442
 40
3.471780430403442
 40
3.660510943392014
 40
3.660510943392014
 40
3.855842675269078
 40
3.855842675269078
 40
4.157680060271554
 40
4.157680060271554
 40
4.821259439465056
 40
4.821259439465056
 40
5.822309792056898
 40
5.822309792056898
 40
7.059286823064008
 40
7.059286823064008
 40
7.386491196899376
 40
7.386491196899376
 40
7.50541460293336
 40
7.50541460293336
 40
7.612893758132333
 40
7.612893758132333
 40
7.612893758132333
 40
7.612893758132333
 10
1181.885728920808
 20
1343.158255137383
 30
0.0
 10
1182.055313161684
 20
1343.158255151208
 30
0.0
 10
1182.224894243685
 20
1343.157676028345
 30
0.0
 10
1182.581628850853
 20
1343.155238261292
 30
0.0
 10
1182.768772087649
 20
1343.153253165593
 30
0.0
 10
1183.456531384349
 20
1343.143359592837
 30
0.0
 10
1183.956855328898
 20
1343.13110084449
 30
0.0
 10
1186.047952031771
 20
1343.058657645201
 30
0.0
 10
1187.630413328477
 20
1342.952368070509
 30
0.0
 10
1193.502833747429
 20
1342.366974552423
 30
0.0
 10
1197.615414434466
 20
1341.561766731667
 30
0.0
 10
1203.195803404651
 20
1340.038271660362
 30
0.0
 10
1204.824953092165
 20
1339.536224392026
 30
0.0
 10
1208.055948788801
 20
1338.466688166376
 30
0.0
 10
1209.655632804207
 20
1337.895957772622
 30
0.0
 10
1211.879522134538
 20
1337.09508390275
 30
0.0
 10
1212.557739809262
 20
1336.849906665482
 30
0.0
 10
1213.694293640945
 20
1336.44420540427
 30
0.0
 10
1214.159245965145
 20
1336.279787010712
 30
0.0
 10
1215.092558353412
 20
1335.955960454513
 30
0.0
 10
1215.560710430565
 20
1335.796846365574
 30
0.0
 10
1216.734593737088
 20
1335.410742571654
 30
0.0
 10
1217.430965278655
 20
1335.193962614328
 30
0.0
 10
1219.601635694955
 20
1334.578593733993
 30
0.0
 10
1221.000992523258
 20
1334.275921727626
 30
0.0
 10
1224.254636052374
 20
1333.979102266439
 30
0.0
 10
1225.902390198309
 20
1334.228613281943
 30
0.0
 10
1228.938629471741
 20
1335.953379516079
 30
0.0
 10
1230.057157940917
 20
1337.637723085279
 30
0.0
 10
1230.96938456373
 20
1340.468888626977
 30
0.0
 10
1231.131003144824
 20
1341.096159353216
 30
0.0
 10
1231.316266138967
 20
1341.992062261801
 30
0.0
 10
1231.362247780542
 20
1342.234813411949
 30
0.0
 10
1231.443611662476
 20
1342.703962756591
 30
0.0
 10
1231.479589936434
 20
1342.929697528108
 30
0.0
 10
1231.513036192627
 20
1343.158266157396
 30
0.0
  0
SPLINE
  5
197C
330
191C
100
AcDbEntity
  8
0
100
AcDbSpline
210
0.0
220
0.0
230
1.0
 70
     8
 71
     3
 72
     8
 73
     4
 74
     0
 42
0.0000000001
 43
0.0000000001
 40
23.87757447055718
 40
23.87757447055718
 40
23.87757447055718
 40
23.87757447055718
 40
69.90816117999999
 40
69.90816117999999
 40
69.90816117999999
 40
69.90816117999999
 10
1224.101658989883
 20
1334.121779889251
 30
0.0
 10
1216.407752782908
 20
1334.339331097988
 30
0.0
 10
1202.814436788032
 20
1343.158256836168
 30
0.0
 10
1181.885728920808
 20
1343.158255137383
 30
0.0
  0
ELLIPSE
  5
197D
330
191C
100
AcDbEntity
  8
0
100
AcDbEllipse
 10
421.8804399708083
 20
709.8145687174913
 30
0.0
 11
-12.82275542849784
 21
22.61806674410983
 31
0.0
210
0.0
220
0.0
230
1.0
 40
0.3420201432910362
 41
3.184427454933455
 42
6.326020087449808
  0
ELLIPSE
  5
197E
330
191C
100
AcDbEntity
  8
0
100
AcDbEllipse
 10
417.7931264308083
 20
707.4973670174909
 30
0.0
 11
12.82275542849778
 21
-22.61806674410984
 31
0.0
210
0.0
220
0.0
230
0.9999999999999998
 40
0.3420201432910325
 41
0.2673541618900093
 42
2.874238496331042
  0
CIRCLE
  5
197F
330
191C
100
AcDbEntity
  8
0
100
AcDbCircle
 10
867.8857297208082
 20
826.2841446173766
 30
0.0
 40
26.0
  0
SPLINE
  5
1980
330
191C
100
AcDbEntity
  8
0
100
AcDbSpline
210
0.0
220
0.0
230
1.0
 70
     8
 71
     3
 72
    16
 73
    12
 74
     0
 42
0.0000000001
 43
0.0000000001
 40
0.0000000063046383
 40
0.0000000063046383
 40
0.0000000063046383
 40
0.0000000063046383
 40
1.020218695363752
 40
1.020218695363752
 40
1.907394162264164
 40
1.907394162264164
 40
3.155669097810791
 40
3.155669097810791
 40
4.721674273969544
 40
4.721674273969544
 40
6.21254046286271
 40
6.21254046286271
 40
6.21254046286271
 40
6.21254046286271
 10
406.7240584187502
 20
985.7692392277009
 30
0.0
 10
408.6166974550005
 20
984.1281914411659
 30
0.0
 10
410.5543755506148
 20
982.9453189316545
 30
0.0
 10
414.3141963651268
 20
982.1172619266256
 30
0.0
 10
416.0082339933262
 20
982.3168681083588
 30
0.0
 10
420.150809546044
 20
984.1105833421199
 30
0.0
 10
422.4484150450064
 20
986.1533492439209
 30
0.0
 10
427.77969664094
 20
991.6445088955576
 30
0.0
 10
431.0121559363649
 20
995.5035202155855
 30
0.0
 10
438.6722190235072
 20
1002.905985149573
 30
0.0
 10
442.842030165722
 20
1006.237632856798
 30
0.0
 10
447.5926893064554
 20
1008.938700585419
 30
0.0
  0
SPLINE
  5
1981
330
191C
100
AcDbEntity
  8
0
100
AcDbSpline
210
0.0
220
0.0
230
1.0
 70
     8
 71
     3
 72
     8
 73
     4
 74
     0
 42
0.0000000001
 43
0.0000000001
 40
-60.83287595
 40
-60.83287595
 40
-60.83287595
 40
-60.83287595
 40
-20.2169198302649
 40
-20.2169198302649
 40
-20.2169198302649
 40
-20.2169198302649
 10
447.5926883953418
 20
1008.938701674907
 30
0.0
 10
432.8467134529546
 20
1000.554627729246
 30
0.0
 10
425.8766165718295
 20
987.5721813879334
 30
0.0
 10
418.6638846750618
 20
983.5182300407618
 30
0.0
  0
ELLIPSE
  5
1982
330
191C
100
AcDbEntity
  8
0
100
AcDbEllipse
 10
421.8804399708085
 20
709.8145687174913
 30
0.0
 11
12.8227554284978
 21
-22.6180667441098
 31
0.0
210
0.0
220
0.0
230
0.9999999999999998
 40
0.3420201432910362
 41
3.184427434066552
 42
6.326020087656346
  0
ARC
  5
1983
330
191C
100
AcDbEntity
  8
0
100
AcDbCircle
 10
1392.533276920809
 20
1892.607867117508
 30
0.0
 40
7.00000000000003
100
AcDbArc
 50
44.99999999771085
 51
90.00000000001303
  0
ARC
  5
1984
330
191C
100
AcDbEntity
  8
0
100
AcDbCircle
 10
1392.533276920809
 20
1892.607867117508
 30
0.0
 40
7.000000000002066
100
AcDbArc
 50
0.0
 51
45.00000000214636
  0
LINE
  5
1985
330
191C
100
AcDbEntity
  8
0
100
AcDbLine
 10
1399.533276920809
 20
1892.607867117508
 30
0.0
 11
1399.533276920809
 21
124.4509449175079
 31
0.0
  0
LINE
  5
1986
330
191C
100
AcDbEntity
  8
0
100
AcDbLine
 10
1397.48302438873
 20
1897.557614585431
 30
0.0
 11
1392.533276920809
 21
1892.60786711751
 31
0.0
  0
LINE
  5
1987
330
191C
100
AcDbEntity
  8
0
100
AcDbLine
 10
591.0402628108085
 20
1899.607867117441
 30
0.0
 11
1392.533276920809
 21
1899.607867117508
 31
0.0
  0
LINE
  5
1988
330
191C
100
AcDbEntity
  8
0
100
AcDbLine
 10
881.2332179355196
 20
3.928566352363191
 30
0.0
 11
1394.048231033656
 21
117.6171212867759
 31
0.0
  0
SPLINE
  5
1989
330
191C
100
AcDbEntity
  8
0
100
AcDbSpline
210
0.0
220
0.0
230
1.0
 70
     8
 71
     3
 72
    18
 73
    14
 74
     0
 42
0.0000000001
 43
0.0000000001
 40
0.0
 40
0.0
 40
0.0
 40
0.0
 40
3.813207417467999
 40
3.813207417467999
 40
7.601557592766662
 40
7.601557592766662
 40
11.37388284518798
 40
11.37388284518798
 40
15.1371581930427
 40
15.1371581930427
 40
18.90061077787894
 40
18.90061077787894
 40
22.61253487156944
 40
22.61253487156944
 40
22.61253487156944
 40
22.61253487156944
 10
881.2332169081747
 20
3.928487282013747
 30
0.0
 10
868.8238199479844
 20
1.177388822155421
 30
0.0
 10
856.0495656889939
 20
-0.2608759874807447
 30
0.0
 10
830.7113554230351
 20
-0.3872301004910241
 30
0.0
 10
818.0053060897167
 20
0.906244649137875
 30
0.0
 10
793.3494007005656
 20
6.125421439267256
 30
0.0
 10
781.2586039817611
 20
10.06952291463756
 30
0.0
 10
758.346593735802
 20
20.36453637363752
 30
0.0
 10
747.3940068821613
 20
26.76691633015162
 30
0.0
 10
727.202065336877
 20
41.65812479898773
 30
0.0
 10
717.8500450984445
 20
50.2296286937767
 30
0.0
 10
701.3595060311993
 20
68.91023283588083
 30
0.0
 10
694.1035508478558
 20
79.09618831780335
 30
0.0
 10
688.0013587402677
 20
89.85984791371675
 30
0.0
  0
SPLINE
  5
198A
330
191C
100
AcDbEntity
  8
0
100
AcDbSpline
210
0.0
220
0.0
230
1.0
 70
     8
 71
     3
 72
    20
 73
    16
 74
     0
 42
0.0000000001
 43
0.0000000001
 40
0.0
 40
0.0
 40
0.0
 40
0.0
 40
3.950253887052605
 40
3.950253887052605
 40
7.837103088611234
 40
7.837103088611234
 40
11.59805442451296
 40
11.59805442451296
 40
15.22052590365146
 40
15.22052590365146
 40
18.71979605653696
 40
18.71979605653696
 40
22.13545056357414
 40
22.13545056357414
 40
22.52830335863732
 40
22.52830335863732
 40
22.52830335863732
 40
22.52830335863732
 10
23.81511187184424
 20
1261.418400737233
 30
0.0
 10
17.32112075314421
 20
1272.873158561729
 30
0.0
 10
11.96948881814296
 20
1285.062676139455
 30
0.0
 10
4.105670034225113
 20
1309.97465823943
 30
0.0
 10
1.508387062028077
 20
1322.828786641291
 30
0.0
 10
-0.6564070605463713
 20
1348.229373475491
 30
0.0
 10
-0.328223839095017
 20
1360.927722654451
 30
0.0
 10
3.234122420328048
 20
1385.279953783607
 30
0.0
 10
6.388022898111785
 20
1397.112067299429
 30
0.0
 10
15.25729661729838
 20
1419.132119374695
 30
0.0
 10
20.94422616952943
 20
1429.509153497208
 30
0.0
 10
34.4068617479536
 20
1448.218733024473
 30
0.0
 10
42.22135203786456
 20
1456.721081648732
 30
0.0
 10
51.86529543871689
 20
1464.976867418886
 30
0.0
 10
52.8718227432455
 20
1465.814935174422
 30
0.0
 10
53.8895024817889
 20
1466.639036260907
 30
0.0
  0
LINE
  5
198B
330
191C
100
AcDbEntity
  8
0
100
AcDbLine
 10
688.0013547787602
 20
89.85986570435171
 30
0.0
 11
23.81515847785249
 21
1261.41833433376
 31
0.0
  0
ARC
  5
198C
330
191C
100
AcDbEntity
  8
0
100
AcDbCircle
 10
1392.533276920809
 20
124.4509449175077
 30
0.0
 40
7.000000000000829
100
AcDbArc
 50
282.499462944114
 51
0.0
  0
LINE
  5
198D
330
191C
100
AcDbEntity
  8
0
100
AcDbLine
 10
586.6350354153496
 20
1898.047869902435
 30
0.0
 11
53.88945791350193
 21
1466.639091298232
 31
0.0
  0
ARC
  5
198E
330
191C
100
AcDbEntity
  8
0
100
AcDbCircle
 10
591.0402628108085
 20
1892.607867117508
 30
0.0
 40
7.000000000010751
100
AcDbArc
 50
90.0
 51
128.99582338632
  0
ENDBLK
  5
1990
330
191C
100
AcDbEntity
  8
0
100
AcDbBlockEnd
  0
BLOCK
  5
1A05
330
1992
100
AcDbEntity
  8
0
100
AcDbBlockBegin
  2
A$C6A94611C
 70
     0
 10
0.0
 20
0.0
 30
0.0
  3
A$C6A94611C
  1

  0
ARC
  5
1993
330
1992
100
AcDbEntity
  8
0
100
AcDbCircle
 10
1151.885729720808
 20
1045.237687417382
 30
0.0
 40
20.00000000029769
100
AcDbArc
 50
293.6221636266432
 51
0.0
  0
LINE
  5
1994
330
1992
100
AcDbEntity
  8
0
100
AcDbLine
 10
989.8581595833499
 20
952.545820702161
 30
0.0
 11
1159.899799266661
 21
1026.913531537436
 31
0.0
  0
ARC
  5
1995
330
1992
100
AcDbEntity
  8
0
100
AcDbCircle
 10
969.8229857208085
 20
998.3562104173826
 30
0.0
 40
49.99999999852811
100
AcDbArc
 50
239.3570647360595
 51
293.6221636173877
  0
ARC
  5
1996
330
1992
100
AcDbEntity
  8
0
100
AcDbCircle
 10
867.8857297208082
 20
826.2841446173819
 30
0.0
 40
150.0000000046145
100
AcDbArc
 50
59.35706472055829
 51
167.8872625365334
  0
ARC
  5
1997
330
1992
100
AcDbEntity
  8
0
100
AcDbCircle
 10
672.3384072208084
 20
868.2513305173815
 30
0.0
 40
50.00000000074408
100
AcDbArc
 50
293.6221636724441
 51
347.8872625250825
  0
LINE
  5
1998
330
1992
100
AcDbEntity
  8
0
100
AcDbLine
 10
606.6860703437198
 20
784.9655080186551
 30
0.0
 11
692.373581157492
 21
822.4409407525353
 31
0.0
  0
ARC
  5
1999
330
1992
100
AcDbEntity
  8
0
100
AcDbCircle
 10
598.6720007908084
 20
803.289663917382
 30
0.0
 40
20.00000000026226
100
AcDbArc
 50
209.5499999973358
 51
293.6221636236008
  0
LINE
  5
199A
330
1992
100
AcDbEntity
  8
0
100
AcDbLine
 10
435.832273504227
 20
1049.969857313152
 30
0.0
 11
581.2734921838909
 21
793.4260083179008
 31
0.0
  0
LINE
  5
199B
330
1992
100
AcDbEntity
  8
0
100
AcDbLine
 10
435.4783167717182
 20
1050.594203003846
 30
0.0
 11
435.832273504227
 21
1049.969857313152
 31
0.0
  0
LINE
  5
199C
330
1992
100
AcDbEntity
  8
0
100
AcDbLine
 10
675.4819918118139
 20
627.2515571908232
 30
0.0
 11
873.984687526271
 21
277.1125384393463
 31
0.0
  0
ARC
  5
199D
330
1992
100
AcDbEntity
  8
0
100
AcDbCircle
 10
692.8805075208083
 20
637.1152168173816
 30
0.0
 40
20.00000000029767
100
AcDbArc
 50
113.6221636266431
 51
209.5499999991561
  0
LINE
  5
199E
330
1992
100
AcDbEntity
  8
0
100
AcDbLine
 10
764.5261795925432
 20
690.2785605633371
 30
0.0
 11
684.8664379749548
 21
655.439372697328
 31
0.0
  0
ARC
  5
199F
330
1992
100
AcDbEntity
  8
0
100
AcDbCircle
 10
784.5613534208085
 20
644.4681708173828
 30
0.0
 40
49.99999999834605
100
AcDbArc
 50
65.37850428365732
 51
113.6221635672931
  0
ARC
  5
19A0
330
1992
100
AcDbEntity
  8
0
100
AcDbCircle
 10
867.8857297208082
 20
826.2841446173819
 30
0.0
 40
149.9999999955374
100
AcDbArc
 50
245.3785043320096
 51
340.537368832959
  0
ARC
  5
19A1
330
1992
100
AcDbEntity
  8
0
100
AcDbCircle
 10
1066.641640420808
 20
756.0468376173822
 30
0.0
 40
60.80130770090497
100
AcDbArc
 50
113.6221636205558
 51
160.5373688021944
  0
LINE
  5
19A2
330
1992
100
AcDbEntity
  8
0
100
AcDbLine
 10
1143.871660156518
 20
856.1853059329994
 30
0.0
 11
1042.278344957715
 21
811.7534697335234
 31
0.0
  0
ARC
  5
19A3
330
1992
100
AcDbEntity
  8
0
100
AcDbCircle
 10
1151.885729720808
 20
837.8611500173818
 30
0.0
 40
20.0
100
AcDbArc
 50
0.0
 51
113.6221636340811
  0
LINE
  5
19A4
330
1992
100
AcDbEntity
  8
0
100
AcDbLine
 10
1171.885729720808
 20
344.7282159173817
 30
0.0
 11
1171.885729720808
 21
837.8611500173818
 31
0.0
  0
ARC
  5
19A5
330
1992
100
AcDbEntity
  8
0
100
AcDbCircle
 10
1151.885729720809
 20
344.7282159173817
 30
0.0
 40
19.99999999944558
100
AcDbArc
 50
282.4999999979153
 51
0.0
  0
LINE
  5
19A6
330
1992
100
AcDbEntity
  8
0
100
AcDbLine
 10
895.7119906804564
 20
267.4502626115682
 30
0.0
 11
1156.214502755423
 21
325.202382576284
 31
0.0
  0
ARC
  5
19A7
330
1992
100
AcDbEntity
  8
0
100
AcDbCircle
 10
891.3831959208087
 20
286.9761939173825
 30
0.0
 40
20.0000000002628
100
AcDbArc
 50
209.5499999947456
 51
282.5000000168245
  0
ELLIPSE
  5
19A8
330
1992
100
AcDbEntity
  8
0
100
AcDbEllipse
 10
513.53885648821
 20
1022.100784287124
 30
0.0
 11
67.03597947270221
 21
-58.12237638671696
 31
0.0
210
0.0
220
0.0
230
1.0
 40
0.6762833388719222
 41
3.023719705547482
 42
3.662243683160209
  0
LINE
  5
19A9
330
1992
100
AcDbEntity
  8
0
100
AcDbLine
 10
440.290422329785
 20
1076.000780600358
 30
0.0
 11
451.5904888071954
 21
1085.151393927446
 31
0.0
  0
ARC
  5
19AA
330
1992
100
AcDbEntity
  8
0
100
AcDbCircle
 10
452.8768301708084
 20
1060.457861317382
 30
0.0
 40
20.00000000004161
100
AcDbArc
 50
128.9999999475274
 51
209.5499999904869
  0
LINE
  5
19AB
330
1992
100
AcDbEntity
  8
0
100
AcDbLine
 10
1289.533276920808
 20
686.2823010175088
 30
0.0
 11
1389.533276920808
 21
686.2823010175088
 31
0.0
  0
LINE
  5
19AC
330
1992
100
AcDbEntity
  8
0
100
AcDbLine
 10
1289.533276920808
 20
1236.282301017509
 30
0.0
 11
1289.533276920808
 21
686.2823010175088
 31
0.0
  0
LINE
  5
19AD
330
1992
100
AcDbEntity
  8
0
100
AcDbLine
 10
1389.533276920808
 20
1236.282301017509
 30
0.0
 11
1289.533276920808
 21
1236.282301017509
 31
0.0
  0
LINE
  5
19AE
330
1992
100
AcDbEntity
  8
0
100
AcDbLine
 10
1389.533276920808
 20
686.2823010175088
 30
0.0
 11
1389.533276920808
 21
1236.282301017509
 31
0.0
  0
SPLINE
  5
19AF
330
1992
100
AcDbEntity
  8
0
100
AcDbSpline
210
0.0
220
0.0
230
1.0
 70
     8
 71
     3
 72
     8
 73
     4
 74
     0
 42
0.0000000001
 43
0.0000000001
 40
0.0
 40
0.0
 40
0.0
 40
0.0
 40
23.87757447055718
 40
23.87757447055718
 40
23.87757447055718
 40
23.87757447055718
 10
1231.513036120808
 20
1343.158266157396
 30
0.0
 10
1230.496386758066
 20
1336.210567708983
 30
0.0
 10
1228.092740389437
 20
1334.008928944715
 30
0.0
 10
1224.101658989883
 20
1334.121779889251
 30
0.0
  0
ARC
  5
19B0
330
1992
100
AcDbEntity
  8
0
100
AcDbCircle
 10
1151.885729720808
 20
1371.284144617382
 30
0.0
 40
20.00000000000024
100
AcDbArc
 50
19.54115093202312
 51
90.0
  0
LINE
  5
19B1
330
1992
100
AcDbEntity
  8
0
100
AcDbLine
 10
1151.885729720808
 20
1391.284144617382
 30
0.0
 11
1144.742319620809
 21
1391.284144617382
 31
0.0
  0
SPLINE
  5
19B2
330
1992
100
AcDbEntity
  8
0
100
AcDbSpline
210
0.0
220
0.0
230
1.0
 70
     8
 71
     5
 72
    15
 73
     9
 74
     0
 42
0.0000000001
 43
0.0000000001
 40
252.6026795
 40
252.6026795
 40
252.6026795
 40
252.6026795
 40
252.6026795
 40
252.6026795
 40
307.8333429
 40
307.8333429
 40
307.8333429
 40
325.3643551171202
 40
325.3643551171202
 40
325.3643551171202
 40
325.3643551171202
 40
325.3643551171202
 40
325.3643551171202
 10
1144.742319620808
 20
1391.284141137382
 30
0.0
 10
1149.241258420808
 20
1391.284139817382
 30
0.0
 10
1153.707873020809
 20
1390.466316487382
 30
0.0
 10
1157.994269020808
 20
1388.814167377382
 30
0.0
 10
1163.213969086662
 20
1385.651104314681
 30
0.0
 10
1167.734194728837
 20
1381.393832773553
 30
0.0
 10
1168.779993259175
 20
1380.308301378724
 30
0.0
 10
1169.780410458423
 20
1379.166964805993
 30
0.0
 10
1170.733814397765
 20
1377.973850600804
 30
0.0
  0
ARC
  5
19B3
330
1992
100
AcDbEntity
  8
0
100
AcDbCircle
 10
1151.885729720806
 20
1371.284144617382
 30
0.0
 40
20.0000000000017
100
AcDbArc
 50
0.0
 51
19.54115093201698
  0
LINE
  5
19B4
330
1992
100
AcDbEntity
  8
0
100
AcDbLine
 10
1144.742319620809
 20
1391.284144617382
 30
0.0
 11
882.7507380208082
 21
1391.284144617382
 31
0.0
  0
LINE
  5
19B5
330
1992
100
AcDbEntity
  8
0
100
AcDbLine
 10
1171.885729720808
 20
1371.284144617382
 30
0.0
 11
1171.885729720808
 21
1045.237687417382
 31
0.0
  0
CIRCLE
  5
19B6
330
1992
100
AcDbEntity
  8
0
100
AcDbCircle
 10
867.8857297208082
 20
826.2841446173819
 30
0.0
 40
56.50000000000001
  0
ARC
  5
19B7
330
1992
100
AcDbEntity
  8
0
100
AcDbCircle
 10
882.7507380208082
 20
1241.284144617382
 30
0.0
 40
149.9999999999998
100
AcDbArc
 50
90.0
 51
129.0000000173955
  0
SPLINE
  5
19B8
330
1992
100
AcDbEntity
  8
0
100
AcDbSpline
210
0.0
220
0.0
230
1.0
 70
    24
 71
     3
 72
    10
 73
     6
 74
     0
 42
0.0000000001
 43
0.0000000001
 40
0.0000141434114196
 40
0.0000141434114196
 40
0.0000141434114196
 40
0.0000141434114196
 40
0.00514768847132
 40
0.00514768847132
 40
0.0102823915914739
 40
0.0102823915914739
 40
0.0102823915914739
 40
0.0102823915914739
 10
451.590488768403
 20
1085.15139397535
 30
0.0
 10
451.6037871477744
 20
1085.162162790631
 30
0.0
 10
451.6170855271461
 20
1085.172931605912
 30
0.0
 10
451.6436852858285
 20
1085.194471665778
 30
0.0
 10
451.6569866651393
 20
1085.205242910362
 30
0.0
 10
451.6702880444502
 20
1085.216014154946
 30
0.0
  0
CIRCLE
  5
19B9
330
1992
100
AcDbEntity
  8
0
100
AcDbCircle
 10
867.8857297208082
 20
826.284144617376
 30
0.0
 40
37.5
  0
SPLINE
  5
19BA
330
1992
100
AcDbEntity
  8
0
100
AcDbSpline
210
0.0
220
0.0
230
1.0
 70
    24
 71
     3
 72
    10
 73
     6
 74
     0
 42
0.0000000001
 43
0.0000000001
 40
0.0000000012443939
 40
0.0000000012443939
 40
0.0000000012443939
 40
0.0000000012443939
 40
21.66146464407856
 40
21.66146464407856
 40
43.32292845103366
 40
43.32292845103366
 40
43.32292845103366
 40
43.32292845103366
 10
788.3526793103826
 20
1357.856038828939
 30
0.0
 10
732.2389467531116
 20
1312.416034166265
 30
0.0
 10
676.1252141958398
 20
1266.976029503591
 30
0.0
 10
563.8977512466312
 20
1176.096021931694
 30
0.0
 10
507.784020854694
 20
1130.656019022472
 30
0.0
 10
451.6702904627568
 20
1085.216016113249
 30
0.0
  0
ELLIPSE
  5
19BB
330
1992
100
AcDbEntity
  8
0
100
AcDbEllipse
 10
842.5503437118441
 20
177.1668248843846
 30
0.0
 11
53.09848696757449
 21
119.3974616047165
 31
0.0
210
0.0
220
0.0
230
1.0
 40
0.9897726330522235
 41
2.509901362858121
 42
3.773307798909207
  0
LINE
  5
19BC
330
1992
100
AcDbEntity
  8
0
100
AcDbLine
 10
869.4856705223406
 20
49.77563491784827
 30
0.0
 11
1177.523016020961
 21
118.0658709175423
 31
0.0
  0
SPLINE
  5
19BD
330
1992
100
AcDbEntity
  8
0
100
AcDbSpline
210
0.0
220
0.0
230
1.0
 70
     8
 71
     3
 72
    23
 73
    19
 74
     0
 42
0.0000000001
 43
0.0000000001
 40
0.0
 40
0.0
 40
0.0
 40
0.0
 40
51.89676365000002
 40
51.89676365000002
 40
51.89676365000002
 40
96.98683161000005
 40
96.98683161000005
 40
96.98683161000005
 40
135.4825583
 40
135.4825583
 40
135.4825583
 40
172.202072
 40
172.202072
 40
172.202072
 40
211.6595349000001
 40
211.6595349000001
 40
211.6595349000001
 40
217.8427421
 40
217.8427421
 40
217.8427421
 40
217.8427421
 10
1283.956903220808
 20
252.4378389175085
 30
0.0
 10
1283.956903220808
 20
238.7243955841752
 30
0.0
 10
1281.885507197189
 20
224.8336527941442
 30
0.0
 10
1277.671455127974
 20
211.3271719495217
 30
0.0
 10
1274.010111321079
 20
199.5921793150733
 30
0.0
 10
1268.726589249795
 20
188.1455427857738
 30
0.0
 10
1261.849796250209
 20
177.4481784226641
 30
0.0
 10
1255.978721847515
 20
168.3152843407361
 30
0.0
 10
1248.943656360133
 20
159.7308075073931
 30
0.0
 10
1240.863675589501
 20
152.0339946004233
 30
0.0
 10
1233.156509363177
 20
144.6923166718638
 30
0.0
 10
1224.496785775159
 20
138.162590170291
 30
0.0
 10
1215.117572562047
 20
132.7387303334167
 30
0.0
 10
1205.039008874873
 20
126.9104464940185
 30
0.0
 10
1194.131025678316
 20
122.3687654908806
 30
0.0
 10
1182.850982395009
 20
119.3652728561928
 30
0.0
 10
1181.083335929183
 20
118.8946086036276
 30
0.0
 10
1179.306403854143
 20
118.4612375841752
 30
0.0
 10
1177.523016020808
 20
118.0658709175086
 30
0.0
  0
ELLIPSE
  5
19BE
330
1992
100
AcDbEntity
  8
0
100
AcDbEllipse
 10
700.5708563476848
 20
1448.18802293167
 30
0.0
 11
270.6620360102168
 21
-243.384846669082
 31
0.0
210
0.0
220
0.0
230
1.0
 40
0.8437536049772138
 41
2.388006691052257
 42
3.00818658455141
  0
ELLIPSE
  5
19BF
330
1992
100
AcDbEntity
  8
0
100
AcDbEllipse
 10
200.8301236401453
 20
1293.239392422219
 30
0.0
 11
128.4711162096814
 21
-111.3932551029573
 31
0.0
210
0.0
220
0.0
230
1.0
 40
0.6763151591514597
 41
3.022030782169674
 42
4.229528007117407
  0
ELLIPSE
  5
19C0
330
1992
100
AcDbEntity
  8
0
100
AcDbEllipse
 10
200.8301236208074
 20
1293.239392417508
 30
0.0
 11
128.4711162096801
 21
-111.3932551029572
 31
0.0
210
0.0
220
0.0
230
1.0
 40
0.6763151591514611
 41
3.022030782082179
 42
4.229528007117416
  0
LINE
  5
19C1
330
1992
100
AcDbEntity
  8
0
100
AcDbLine
 10
459.6284206038431
 20
1719.786229428064
 30
0.0
 11
82.26214550473015
 21
1414.201045184489
 31
0.0
  0
LINE
  5
19C2
330
1992
100
AcDbEntity
  8
0
100
AcDbLine
 10
729.9139026240914
 20
111.8440329117177
 30
0.0
 11
74.45537791965671
 21
1268.00775571954
 31
0.0
  0
ELLIPSE
  5
19C3
330
1992
100
AcDbEntity
  8
0
100
AcDbEllipse
 10
417.7931264308101
 20
707.4973670174904
 30
0.0
 11
12.82275542849566
 21
-22.61806674410989
 31
0.0
210
0.0
220
0.0
230
1.0
 40
0.3420201432910311
 41
0.0428347812542597
 42
0.2673541618900389
  0
ELLIPSE
  5
19C4
330
1992
100
AcDbEntity
  8
0
100
AcDbEllipse
 10
417.7931264308167
 20
707.4973670174858
 30
0.0
 11
-12.82275542850698
 21
22.61806674411396
 31
0.0
210
0.0
220
0.0
230
1.0
 40
0.3420201432910194
 41
6.015831149920803
 42
6.326020088085868
  0
LINE
  5
19C5
330
1992
100
AcDbEntity
  8
0
100
AcDbLine
 10
1344.533276920808
 20
1844.607867117509
 30
0.0
 11
1394.533276920808
 21
1844.607867117509
 31
0.0
  0
LINE
  5
19C6
330
1992
100
AcDbEntity
  8
0
100
AcDbLine
 10
1344.533276920808
 20
1724.607867117509
 30
0.0
 11
1344.533276920808
 21
1844.607867117509
 31
0.0
  0
LINE
  5
19C7
330
1992
100
AcDbEntity
  8
0
100
AcDbLine
 10
1394.533276920808
 20
1724.607867117509
 30
0.0
 11
1344.533276920808
 21
1724.607867117509
 31
0.0
  0
LINE
  5
19C8
330
1992
100
AcDbEntity
  8
0
100
AcDbLine
 10
1344.533276920808
 20
383.6313899175084
 30
0.0
 11
1394.533276920808
 21
383.6313899175084
 31
0.0
  0
LINE
  5
19C9
330
1992
100
AcDbEntity
  8
0
100
AcDbLine
 10
1344.533276920808
 20
263.6313899175086
 30
0.0
 11
1344.533276920808
 21
383.6313899175084
 31
0.0
  0
LINE
  5
19CA
330
1992
100
AcDbEntity
  8
0
100
AcDbLine
 10
1394.533276920808
 20
263.6313899175086
 30
0.0
 11
1344.533276920808
 21
263.6313899175086
 31
0.0
  0
LINE
  5
19CB
330
1992
100
AcDbEntity
  8
0
100
AcDbLine
 10
733.9914888208081
 20
1844.607867117509
 30
0.0
 11
733.9914888208081
 21
1894.607867117509
 31
0.0
  0
LINE
  5
19CC
330
1992
100
AcDbEntity
  8
0
100
AcDbLine
 10
853.9914888208086
 20
1844.607867117509
 30
0.0
 11
733.9914888208081
 21
1844.607867117509
 31
0.0
  0
LINE
  5
19CD
330
1992
100
AcDbEntity
  8
0
100
AcDbLine
 10
853.9914888208086
 20
1894.607867117509
 30
0.0
 11
853.9914888208086
 21
1844.607867117509
 31
0.0
  0
LINE
  5
19CE
330
1992
100
AcDbEntity
  8
0
100
AcDbLine
 10
853.9914888208086
 20
1894.607867117509
 30
0.0
 11
733.9914888208081
 21
1894.607867117509
 31
0.0
  0
LINE
  5
19CF
330
1992
100
AcDbEntity
  8
0
100
AcDbLine
 10
1394.533276920808
 20
263.6313899175086
 30
0.0
 11
1394.533276920808
 21
383.6313899175084
 31
0.0
  0
LINE
  5
19D0
330
1992
100
AcDbEntity
  8
0
100
AcDbLine
 10
1394.533276920808
 20
1724.607867117509
 30
0.0
 11
1394.533276920808
 21
1844.607867117509
 31
0.0
  0
SPLINE
  5
19D1
330
1992
100
AcDbEntity
  8
0
100
AcDbSpline
210
0.0
220
0.0
230
1.0
 70
     8
 71
     3
 72
     8
 73
     4
 74
     0
 42
0.0000000001
 43
0.0000000001
 40
-20.2169198302649
 40
-20.2169198302649
 40
-20.2169198302649
 40
-20.2169198302649
 40
0.0
 40
0.0
 40
0.0
 40
0.0
 10
418.6638846750618
 20
983.5182300407618
 30
0.0
 10
415.0736891842975
 20
981.5003430522111
 30
0.0
 10
411.4233776913886
 20
981.6946076065754
 30
0.0
 10
406.7240584208084
 20
985.769239217393
 30
0.0
  0
SPLINE
  5
19D2
330
1992
100
AcDbEntity
  8
0
100
AcDbSpline
210
0.0
220
0.0
230
1.0
 70
     8
 71
     3
 72
    16
 73
    12
 74
     0
 42
0.0000000001
 43
0.0000000001
 40
-16.11618951327091
 40
-16.11618951327091
 40
-16.11618951327091
 40
-16.11618951327091
 40
-14.13247397323406
 40
-14.13247397323406
 40
-12.16984828253386
 40
-12.16984828253386
 40
-8.686446366325878
 40
-8.686446366325878
 40
-4.71758625773788
 40
-4.71758625773788
 40
0.0
 40
0.0
 40
0.0
 40
0.0
 10
1195.741287322676
 20
1781.939405412748
 30
0.0
 10
1202.299641472534
 20
1781.939405409862
 30
0.0
 10
1208.79125719876
 20
1781.060629553962
 30
0.0
 10
1221.366845895427
 20
1777.585925159121
 30
0.0
 10
1227.335819332457
 20
1775.041452848775
 30
0.0
 10
1242.90969381843
 20
1765.995983348583
 30
0.0
 10
1251.467999011566
 20
1758.128851716518
 30
0.0
 10
1266.563328011841
 20
1738.570181399544
 30
0.0
 10
1272.574324148296
 20
1726.61543592025
 30
0.0
 10
1281.63419134584
 20
1699.189007859212
 30
0.0
 10
1283.956903248808
 20
1683.365749951236
 30
0.0
 10
1283.956903249059
 20
1667.640462425457
 30
0.0
  0
LINE
  5
19D3
330
1992
100
AcDbEntity
  8
0
100
AcDbLine
 10
1195.741287322676
 20
1781.939405410209
 30
0.0
 11
643.7104158208082
 21
1781.939405417509
 31
0.0
  0
LINE
  5
19D4
330
1992
100
AcDbEntity
  8
0
100
AcDbLine
 10
1283.956903220808
 20
252.437839039592
 30
0.0
 11
1283.956903220808
 21
1667.640460355382
 31
0.0
  0
ELLIPSE
  5
19D5
330
1992
100
AcDbEntity
  8
0
100
AcDbEllipse
 10
417.7931264308083
 20
707.4973670174909
 30
0.0
 11
-12.82275542849781
 21
22.61806674410976
 31
0.0
210
0.0
220
0.0
230
0.9999999999999998
 40
0.3420201432910352
 41
0.0428347809063953
 42
3.184427434496188
  0
LINE
  5
19D6
330
1992
100
AcDbEntity
  8
0
100
AcDbLine
 10
1394.533276920808
 20
1894.607867117507
 30
0.0
 11
853.9914888208086
 21
1894.607867117507
 31
0.0
  0
LINE
  5
19D7
330
1992
100
AcDbEntity
  8
0
100
AcDbLine
 10
1394.533276920808
 20
1844.607867117507
 30
0.0
 11
1394.533276920808
 21
1894.607867117507
 31
0.0
  0
LINE
  5
19D8
330
1992
100
AcDbEntity
  8
0
100
AcDbLine
 10
1394.533276920808
 20
383.6313899175063
 30
0.0
 11
1394.533276920808
 21
1724.607867117506
 31
0.0
  0
LINE
  5
19D9
330
1992
100
AcDbEntity
  8
0
100
AcDbLine
 10
1394.533276920544
 20
123.631389917083
 30
0.0
 11
1394.533276920808
 21
263.6313899175064
 31
0.0
  0
LINE
  5
19DA
330
1992
100
AcDbEntity
  8
0
100
AcDbLine
 10
880.5208411208321
 20
9.677575917511489
 30
0.0
 11
1394.533276920544
 21
123.631389917083
 31
0.0
  0
SPLINE
  5
19DB
330
1992
100
AcDbEntity
  8
0
100
AcDbSpline
210
0.0
220
0.0
230
1.0
 70
     8
 71
     3
 72
    22
 73
    18
 74
     0
 42
0.0000000001
 43
0.0000000001
 40
-22.05327166353585
 40
-22.05327166353585
 40
-22.05327166353585
 40
-22.05327166353585
 40
-15.98709741037316
 40
-15.98709741037316
 40
-13.99844380526752
 40
-13.99844380526752
 40
-12.24177512469713
 40
-12.24177512469713
 40
-11.02663814631356
 40
-11.02663814631356
 40
-9.811505998123099
 40
-9.811505998123099
 40
-8.054861506332732
 40
-8.054861506332732
 40
-6.066242487408032
 40
-6.066242487408032
 40
-0.0000028930358647
 40
-0.0000028930358647
 40
-0.0000028930358647
 40
-0.0000028930358647
 10
692.747538739796
 20
93.18148287110535
 30
0.0
 10
702.7199744584641
 20
75.59107611571653
 30
0.0
 10
715.658093480785
 20
59.86923985412682
 30
0.0
 10
736.072407124519
 20
42.43636204678796
 30
0.0
 10
741.3559555534716
 20
38.42680519846886
 30
0.0
 10
751.7184935433001
 20
31.46801342855406
 30
0.0
 10
756.7419787383619
 20
28.4546665912078
 30
0.0
 10
765.4846638890012
 20
23.80055499600144
 30
0.0
 10
769.1255117624352
 20
22.02464174914439
 30
0.0
 10
776.5262058318251
 20
18.73350730471111
 30
0.0
 10
780.2834763032576
 20
17.21943030115994
 30
0.0
 10
789.5950088875013
 20
13.84470904306204
 30
0.0
 10
795.1971462346389
 20
12.13275878610329
 30
0.0
 10
807.3048836346911
 20
9.098820516413525
 30
0.0
 10
813.8209144317468
 20
7.860983590254704
 30
0.0
 10
840.4390462922711
 20
4.37817019168915
 30
0.0
 10
860.7793654696175
 20
5.300952699821323
 30
0.0
 10
880.5208492859994
 20
9.67753908684142
 30
0.0
  0
LINE
  5
19DC
330
1992
100
AcDbEntity
  8
0
100
AcDbLine
 10
29.96510256375314
 20
1262.263858341162
 30
0.0
 11
692.7475387936326
 21
93.18148290162685
 31
0.0
  0
ELLIPSE
  5
19DD
330
1992
100
AcDbEntity
  8
0
100
AcDbEllipse
 10
172.3460256500473
 20
1329.320687070777
 30
0.0
 11
-128.4598876112058
 21
117.8906866481925
 31
0.0
210
0.0
220
0.0
230
1.0
 40
0.8889836944116851
 41
6.151774921745476
 42
7.50535696539644
  0
LINE
  5
19DE
330
1992
100
AcDbEntity
  8
0
100
AcDbLine
 10
593.9914888053135
 20
1894.607867118682
 30
0.0
 11
58.72630302080825
 21
1461.158666147507
 31
0.0
  0
LINE
  5
19DF
330
1992
100
AcDbEntity
  8
0
100
AcDbLine
 10
733.9914888208081
 20
1894.607867117507
 30
0.0
 11
593.9914888053135
 21
1894.607867118682
 31
0.0
  0
LINE
  5
19E0
330
1992
100
AcDbEntity
  8
0
100
AcDbLine
 10
882.7618269208278
 20
14.71682891750254
 30
0.0
 11
1394.533276920451
 21
128.173827916916
 31
0.0
  0
SPLINE
  5
19E1
330
1992
100
AcDbEntity
  8
0
100
AcDbSpline
210
0.0
220
0.0
230
1.0
 70
     8
 71
     3
 72
    22
 73
    18
 74
     0
 42
0.0000000001
 43
0.0000000001
 40
0.0000027075651746
 40
0.0000027075651746
 40
0.0000027075651746
 40
0.0000027075651746
 40
6.066241256288347
 40
6.066241256288347
 40
8.054860686619404
 40
8.054860686619404
 40
9.811505466800101
 40
9.811505466800101
 40
11.02663767261191
 40
11.02663767261191
 40
12.24177459292379
 40
12.24177459292379
 40
13.99844298251283
 40
13.99844298251283
 40
15.98709617060792
 40
15.98709617060792
 40
22.05327103373619
 40
22.05327103373619
 40
22.05327103373619
 40
22.05327103373619
 10
882.76183424973
 20
14.71679585897755
 30
0.0
 10
863.0203537325064
 20
10.34021064817443
 30
0.0
 10
842.680038127259
 20
9.417428008353567
 30
0.0
 10
816.0619081804036
 20
12.90023976366751
 30
0.0
 10
809.54587598117
 20
14.13807667399703
 30
0.0
 10
797.4381362201461
 20
17.17201512262341
 30
0.0
 10
791.8359979079196
 20
18.88396551737082
 30
0.0
 10
782.5244641736437
 20
22.25868698996373
 30
0.0
 10
778.7671934950333
 20
23.77276399458879
 30
0.0
 10
771.3664993652032
 20
27.06389830163516
 30
0.0
 10
767.7256516272459
 20
28.839811385237
 30
0.0
 10
758.9829673880918
 20
33.49392221941548
 30
0.0
 10
753.9594829203886
 20
36.50726838156947
 30
0.0
 10
743.5969465729681
 20
43.4660583672603
 30
0.0
 10
738.313399014524
 20
47.47561405904207
 30
0.0
 10
717.8990835949273
 20
64.90849078151427
 30
0.0
 10
704.9609622589725
 20
80.6303278505311
 30
0.0
 10
694.9885246208086
 20
98.22073591749859
 30
0.0
  0
LINE
  5
19E2
330
1992
100
AcDbEntity
  8
0
100
AcDbLine
 10
40.59187363486967
 20
1252.51141902547
 30
0.0
 11
694.9885246208325
 21
98.22073591723961
 31
0.0
  0
ELLIPSE
  5
19E3
330
1992
100
AcDbEntity
  8
0
100
AcDbEllipse
 10
182.9727973967474
 20
1319.568246512329
 30
0.0
 11
-128.4598876112058
 21
117.8906866481925
 31
0.0
210
0.0
220
0.0
230
1.0
 40
0.8889836944116851
 41
6.151774920125791
 42
7.505356957186831
  0
LINE
  5
19E4
330
1992
100
AcDbEntity
  8
0
100
AcDbLine
 10
616.6615195244951
 20
1894.607867118461
 30
0.0
 11
69.35307412080828
 21
1451.406226787499
 31
0.0
  0
LINE
  5
19E5
330
1992
100
AcDbEntity
  8
0
100
AcDbLine
 10
690.629846126658
 20
95.64441086029887
 30
0.0
 11
35.99894063197371
 21
1250.348295723828
 31
0.0
  0
SPLINE
  5
19E6
330
1992
100
AcDbEntity
  8
0
100
AcDbSpline
210
0.0
220
0.0
230
1.0
 70
     8
 71
     3
 72
    22
 73
    18
 74
     0
 42
0.0000000001
 43
0.0000000001
 40
-22.67648840504878
 40
-22.67648840504878
 40
-22.67648840504878
 40
-22.67648840504878
 40
-16.90914022136706
 40
-16.90914022136706
 40
-14.67278680273524
 40
-14.67278680273524
 40
-12.70060340961846
 40
-12.70060340961846
 40
-11.33824639421452
 40
-11.33824639421452
 40
-9.975894244078466
 40
-9.975894244078466
 40
-8.003735288143229
 40
-8.003735288143229
 40
-5.767416957220824
 40
-5.767416957220824
 40
-0.0000027193546445
 40
-0.0000027193546445
 40
-0.0000027193546445
 40
-0.0000027193546445
 10
690.6298461467711
 20
95.64441087170212
 30
0.0
 10
700.1110303374603
 20
78.9205264234538
 30
0.0
 10
712.2039752055461
 20
63.82898027102783
 30
0.0
 10
732.025147423617
 20
45.97690168127974
 30
0.0
 10
737.871527650697
 20
41.34292906527071
 30
0.0
 10
749.3918732498782
 20
33.3414468305798
 30
0.0
 10
754.9947533773752
 20
29.89585717355704
 30
0.0
 10
764.7714039214074
 20
24.61115957763627
 30
0.0
 10
768.8473319036686
 20
22.60692995661634
 30
0.0
 10
777.144907663508
 20
18.91694686075448
 30
0.0
 10
781.3631241940318
 20
17.23271791386628
 30
0.0
 10
791.8354321102829
 20
13.51256728015778
 30
0.0
 10
798.1466012654927
 20
11.65988704732035
 30
0.0
 10
811.8040713337702
 20
8.464573818902408
 30
0.0
 10
819.1607395006419
 20
7.227016586590025
 30
0.0
 10
845.6928839785259
 20
4.465424093266506
 30
0.0
 10
864.9990967234939
 20
5.593651159972864
 30
0.0
 10
883.7681073878636
 20
9.754644686964638
 30
0.0
  0
ELLIPSE
  5
19E7
330
1992
100
AcDbEntity
  8
0
100
AcDbEllipse
 10
182.9727975096984
 20
1319.56824646407
 30
0.0
 11
-132.6037549902973
 21
121.6936119962813
 31
0.0
210
0.0
220
0.0
230
1.0
 40
0.8889836941593641
 41
6.151774919345385
 42
7.505356955736221
  0
LINE
  5
19E8
330
1992
100
AcDbEntity
  8
0
100
AcDbLine
 10
1394.02970112081
 20
122.8769509174988
 30
0.0
 11
883.7681000208084
 21
9.754677917498497
 31
0.0
  0
ELLIPSE
  5
19E9
330
1992
100
AcDbEntity
  8
0
100
AcDbEllipse
 10
1392.533276920808
 20
129.8045271371534
 30
0.0
 11
0.0000000000000048
 21
-7.091516307456792
 31
0.0
210
0.0
220
0.0
230
1.0
 40
0.9870949591753388
 41
0.2154377110638423
 42
1.570797141901967
  0
LINE
  5
19EA
330
1992
100
AcDbEntity
  8
0
100
AcDbLine
 10
65.68792175345061
 20
1455.659065073932
 30
0.0
 11
611.2604186205228
 21
1897.454961917575
 31
0.0
  0
ELLIPSE
  5
19EB
330
1992
100
AcDbEntity
  8
0
100
AcDbEllipse
 10
617.758513416561
 20
1892.607867307626
 30
0.0
 11
-9.006699842049169
 21
-0.0000001035680386
 31
0.0
210
0.0
220
0.0
230
0.9999999999999998
 40
0.7771991996338681
 41
4.712388982078994
 42
5.518316840128338
  0
SPLINE
  5
19EC
330
1992
100
AcDbEntity
  8
0
100
AcDbSpline
210
0.0
220
0.0
230
1.0
 70
    24
 71
     3
 72
     8
 73
     4
 74
     0
 42
0.0000000001
 43
0.0000000001
 40
0.0
 40
0.0
 40
0.0
 40
0.0
 40
0.1021111136511543
 40
0.1021111136511543
 40
0.1021111136511543
 40
0.1021111136511543
 10
1224.545623213676
 20
1334.119149656209
 30
0.0
 10
1224.244833351491
 20
1334.114103256405
 30
0.0
 10
1223.944167606076
 20
1334.109051880588
 30
0.0
 10
1223.64362701167
 20
1334.103995539904
 30
0.0
  0
LINE
  5
19ED
330
1992
100
AcDbEntity
  8
0
100
AcDbLine
 10
409.0576844785586
 20
732.4326354266413
 30
0.0
 11
404.9703709765017
 21
730.1154337924792
 31
0.0
  0
SPLINE
  5
19EE
330
1992
100
AcDbEntity
  8
0
100
AcDbSpline
210
0.0
220
0.0
230
1.0
 70
    24
 71
     3
 72
     8
 73
     4
 74
     0
 42
0.0000000001
 43
0.0000000001
 40
0.0
 40
0.0
 40
0.0
 40
0.0
 40
0.0253296777232598
 40
0.0253296777232598
 40
0.0253296777232598
 40
0.0253296777232598
 10
418.7482069453778
 20
983.5643461381184
 30
0.0
 10
418.6904335214676
 20
983.5324746889188
 30
0.0
 10
418.6326543757825
 20
983.5005998111974
 30
0.0
 10
418.5748695151014
 20
983.4687215087123
 30
0.0
  0
LINE
  5
19EF
330
1992
100
AcDbEntity
  8
0
100
AcDbLine
 10
1394.048231033656
 20
117.6171212867759
 30
0.0
 11
1394.048295954239
 21
117.6171356793484
 31
0.0
  0
LINE
  5
19F0
330
1992
100
AcDbEntity
  8
0
100
AcDbLine
 10
434.7031952990808
 20
687.1965018795811
 30
0.0
 11
430.6158817936866
 21
684.8793003121218
 31
0.0
  0
SPLINE
  5
19F1
330
1992
100
AcDbEntity
  8
0
100
AcDbSpline
210
0.0
220
0.0
230
1.0
 70
     8
 71
     3
 72
    40
 73
    36
 74
     0
 42
0.0000000001
 43
0.0000000001
 40
0.0
 40
0.0
 40
0.0
 40
0.0
 40
0.050875272262767
 40
0.050875272262767
 40
0.1070284133595421
 40
0.1070284133595421
 40
0.2572716438631879
 40
0.2572716438631879
 40
0.7355628468090984
 40
0.7355628468090984
 40
2.046645289982193
 40
2.046645289982193
 40
2.611581396494069
 40
2.611581396494069
 40
3.204975156026595
 40
3.204975156026595
 40
3.471780430403442
 40
3.471780430403442
 40
3.660510943392014
 40
3.660510943392014
 40
3.855842675269078
 40
3.855842675269078
 40
4.157680060271554
 40
4.157680060271554
 40
4.821259439465056
 40
4.821259439465056
 40
5.822309792056898
 40
5.822309792056898
 40
7.059286823064008
 40
7.059286823064008
 40
7.386491196899376
 40
7.386491196899376
 40
7.50541460293336
 40
7.50541460293336
 40
7.612893758132333
 40
7.612893758132333
 40
7.612893758132333
 40
7.612893758132333
 10
1181.885728920808
 20
1343.158255137383
 30
0.0
 10
1182.055313161684
 20
1343.158255151208
 30
0.0
 10
1182.224894243685
 20
1343.157676028345
 30
0.0
 10
1182.581628850853
 20
1343.155238261292
 30
0.0
 10
1182.768772087649
 20
1343.153253165593
 30
0.0
 10
1183.456531384349
 20
1343.143359592837
 30
0.0
 10
1183.956855328898
 20
1343.13110084449
 30
0.0
 10
1186.047952031771
 20
1343.058657645201
 30
0.0
 10
1187.630413328477
 20
1342.952368070509
 30
0.0
 10
1193.502833747429
 20
1342.366974552423
 30
0.0
 10
1197.615414434466
 20
1341.561766731667
 30
0.0
 10
1203.195803404651
 20
1340.038271660362
 30
0.0
 10
1204.824953092165
 20
1339.536224392026
 30
0.0
 10
1208.055948788801
 20
1338.466688166376
 30
0.0
 10
1209.655632804207
 20
1337.895957772622
 30
0.0
 10
1211.879522134538
 20
1337.09508390275
 30
0.0
 10
1212.557739809262
 20
1336.849906665482
 30
0.0
 10
1213.694293640945
 20
1336.44420540427
 30
0.0
 10
1214.159245965145
 20
1336.279787010712
 30
0.0
 10
1215.092558353412
 20
1335.955960454513
 30
0.0
 10
1215.560710430565
 20
1335.796846365574
 30
0.0
 10
1216.734593737088
 20
1335.410742571654
 30
0.0
 10
1217.430965278655
 20
1335.193962614328
 30
0.0
 10
1219.601635694955
 20
1334.578593733993
 30
0.0
 10
1221.000992523258
 20
1334.275921727626
 30
0.0
 10
1224.254636052374
 20
1333.979102266439
 30
0.0
 10
1225.902390198309
 20
1334.228613281943
 30
0.0
 10
1228.938629471741
 20
1335.953379516079
 30
0.0
 10
1230.057157940917
 20
1337.637723085279
 30
0.0
 10
1230.96938456373
 20
1340.468888626977
 30
0.0
 10
1231.131003144824
 20
1341.096159353216
 30
0.0
 10
1231.316266138967
 20
1341.992062261801
 30
0.0
 10
1231.362247780542
 20
1342.234813411949
 30
0.0
 10
1231.443611662476
 20
1342.703962756591
 30
0.0
 10
1231.479589936434
 20
1342.929697528108
 30
0.0
 10
1231.513036192627
 20
1343.158266157396
 30
0.0
  0
SPLINE
  5
19F2
330
1992
100
AcDbEntity
  8
0
100
AcDbSpline
210
0.0
220
0.0
230
1.0
 70
     8
 71
     3
 72
     8
 73
     4
 74
     0
 42
0.0000000001
 43
0.0000000001
 40
23.87757447055718
 40
23.87757447055718
 40
23.87757447055718
 40
23.87757447055718
 40
69.90816117999999
 40
69.90816117999999
 40
69.90816117999999
 40
69.90816117999999
 10
1224.101658989883
 20
1334.121779889251
 30
0.0
 10
1216.407752782908
 20
1334.339331097988
 30
0.0
 10
1202.814436788032
 20
1343.158256836168
 30
0.0
 10
1181.885728920808
 20
1343.158255137383
 30
0.0
  0
ELLIPSE
  5
19F3
330
1992
100
AcDbEntity
  8
0
100
AcDbEllipse
 10
421.8804399708083
 20
709.8145687174913
 30
0.0
 11
-12.82275542849784
 21
22.61806674410983
 31
0.0
210
0.0
220
0.0
230
1.0
 40
0.3420201432910362
 41
3.184427454933455
 42
6.326020087449808
  0
ELLIPSE
  5
19F4
330
1992
100
AcDbEntity
  8
0
100
AcDbEllipse
 10
417.7931264308083
 20
707.4973670174909
 30
0.0
 11
12.82275542849778
 21
-22.61806674410984
 31
0.0
210
0.0
220
0.0
230
0.9999999999999998
 40
0.3420201432910325
 41
0.2673541618900093
 42
2.874238496331042
  0
CIRCLE
  5
19F5
330
1992
100
AcDbEntity
  8
0
100
AcDbCircle
 10
867.8857297208082
 20
826.2841446173766
 30
0.0
 40
26.0
  0
SPLINE
  5
19F6
330
1992
100
AcDbEntity
  8
0
100
AcDbSpline
210
0.0
220
0.0
230
1.0
 70
     8
 71
     3
 72
    16
 73
    12
 74
     0
 42
0.0000000001
 43
0.0000000001
 40
0.0000000063046383
 40
0.0000000063046383
 40
0.0000000063046383
 40
0.0000000063046383
 40
1.020218695363752
 40
1.020218695363752
 40
1.907394162264164
 40
1.907394162264164
 40
3.155669097810791
 40
3.155669097810791
 40
4.721674273969544
 40
4.721674273969544
 40
6.21254046286271
 40
6.21254046286271
 40
6.21254046286271
 40
6.21254046286271
 10
406.7240584187502
 20
985.7692392277009
 30
0.0
 10
408.6166974550005
 20
984.1281914411659
 30
0.0
 10
410.5543755506148
 20
982.9453189316545
 30
0.0
 10
414.3141963651268
 20
982.1172619266256
 30
0.0
 10
416.0082339933262
 20
982.3168681083588
 30
0.0
 10
420.150809546044
 20
984.1105833421199
 30
0.0
 10
422.4484150450064
 20
986.1533492439209
 30
0.0
 10
427.77969664094
 20
991.6445088955576
 30
0.0
 10
431.0121559363649
 20
995.5035202155855
 30
0.0
 10
438.6722190235072
 20
1002.905985149573
 30
0.0
 10
442.842030165722
 20
1006.237632856798
 30
0.0
 10
447.5926893064554
 20
1008.938700585419
 30
0.0
  0
SPLINE
  5
19F7
330
1992
100
AcDbEntity
  8
0
100
AcDbSpline
210
0.0
220
0.0
230
1.0
 70
     8
 71
     3
 72
     8
 73
     4
 74
     0
 42
0.0000000001
 43
0.0000000001
 40
-60.83287595
 40
-60.83287595
 40
-60.83287595
 40
-60.83287595
 40
-20.2169198302649
 40
-20.2169198302649
 40
-20.2169198302649
 40
-20.2169198302649
 10
447.5926883953418
 20
1008.938701674907
 30
0.0
 10
432.8467134529546
 20
1000.554627729246
 30
0.0
 10
425.8766165718295
 20
987.5721813879334
 30
0.0
 10
418.6638846750618
 20
983.5182300407618
 30
0.0
  0
ELLIPSE
  5
19F8
330
1992
100
AcDbEntity
  8
0
100
AcDbEllipse
 10
421.8804399708085
 20
709.8145687174913
 30
0.0
 11
12.8227554284978
 21
-22.6180667441098
 31
0.0
210
0.0
220
0.0
230
0.9999999999999998
 40
0.3420201432910362
 41
3.184427434066552
 42
6.326020087656346
  0
ARC
  5
19F9
330
1992
100
AcDbEntity
  8
0
100
AcDbCircle
 10
1392.533276920809
 20
1892.607867117508
 30
0.0
 40
7.00000000000003
100
AcDbArc
 50
44.99999999771085
 51
90.00000000001303
  0
ARC
  5
19FA
330
1992
100
AcDbEntity
  8
0
100
AcDbCircle
 10
1392.533276920809
 20
1892.607867117508
 30
0.0
 40
7.000000000002066
100
AcDbArc
 50
0.0
 51
45.00000000214636
  0
LINE
  5
19FB
330
1992
100
AcDbEntity
  8
0
100
AcDbLine
 10
1399.533276920809
 20
1892.607867117508
 30
0.0
 11
1399.533276920809
 21
124.4509449175079
 31
0.0
  0
LINE
  5
19FC
330
1992
100
AcDbEntity
  8
0
100
AcDbLine
 10
1397.48302438873
 20
1897.557614585431
 30
0.0
 11
1392.533276920809
 21
1892.60786711751
 31
0.0
  0
LINE
  5
19FD
330
1992
100
AcDbEntity
  8
0
100
AcDbLine
 10
591.0402628108085
 20
1899.607867117441
 30
0.0
 11
1392.533276920809
 21
1899.607867117508
 31
0.0
  0
LINE
  5
19FE
330
1992
100
AcDbEntity
  8
0
100
AcDbLine
 10
881.2332179355196
 20
3.928566352363191
 30
0.0
 11
1394.048231033656
 21
117.6171212867759
 31
0.0
  0
SPLINE
  5
19FF
330
1992
100
AcDbEntity
  8
0
100
AcDbSpline
210
0.0
220
0.0
230
1.0
 70
     8
 71
     3
 72
    18
 73
    14
 74
     0
 42
0.0000000001
 43
0.0000000001
 40
0.0
 40
0.0
 40
0.0
 40
0.0
 40
3.813207417467999
 40
3.813207417467999
 40
7.601557592766662
 40
7.601557592766662
 40
11.37388284518798
 40
11.37388284518798
 40
15.1371581930427
 40
15.1371581930427
 40
18.90061077787894
 40
18.90061077787894
 40
22.61253487156944
 40
22.61253487156944
 40
22.61253487156944
 40
22.61253487156944
 10
881.2332169081747
 20
3.928487282013747
 30
0.0
 10
868.8238199479844
 20
1.177388822155421
 30
0.0
 10
856.0495656889939
 20
-0.2608759874807447
 30
0.0
 10
830.7113554230351
 20
-0.3872301004910241
 30
0.0
 10
818.0053060897167
 20
0.906244649137875
 30
0.0
 10
793.3494007005656
 20
6.125421439267256
 30
0.0
 10
781.2586039817611
 20
10.06952291463756
 30
0.0
 10
758.346593735802
 20
20.36453637363752
 30
0.0
 10
747.3940068821613
 20
26.76691633015162
 30
0.0
 10
727.202065336877
 20
41.65812479898773
 30
0.0
 10
717.8500450984445
 20
50.2296286937767
 30
0.0
 10
701.3595060311993
 20
68.91023283588083
 30
0.0
 10
694.1035508478558
 20
79.09618831780335
 30
0.0
 10
688.0013587402677
 20
89.85984791371675
 30
0.0
  0
SPLINE
  5
1A00
330
1992
100
AcDbEntity
  8
0
100
AcDbSpline
210
0.0
220
0.0
230
1.0
 70
     8
 71
     3
 72
    20
 73
    16
 74
     0
 42
0.0000000001
 43
0.0000000001
 40
0.0
 40
0.0
 40
0.0
 40
0.0
 40
3.950253887052605
 40
3.950253887052605
 40
7.837103088611234
 40
7.837103088611234
 40
11.59805442451296
 40
11.59805442451296
 40
15.22052590365146
 40
15.22052590365146
 40
18.71979605653696
 40
18.71979605653696
 40
22.13545056357414
 40
22.13545056357414
 40
22.52830335863732
 40
22.52830335863732
 40
22.52830335863732
 40
22.52830335863732
 10
23.81511187184424
 20
1261.418400737233
 30
0.0
 10
17.32112075314421
 20
1272.873158561729
 30
0.0
 10
11.96948881814296
 20
1285.062676139455
 30
0.0
 10
4.105670034225113
 20
1309.97465823943
 30
0.0
 10
1.508387062028077
 20
1322.828786641291
 30
0.0
 10
-0.6564070605463713
 20
1348.229373475491
 30
0.0
 10
-0.328223839095017
 20
1360.927722654451
 30
0.0
 10
3.234122420328048
 20
1385.279953783607
 30
0.0
 10
6.388022898111785
 20
1397.112067299429
 30
0.0
 10
15.25729661729838
 20
1419.132119374695
 30
0.0
 10
20.94422616952943
 20
1429.509153497208
 30
0.0
 10
34.4068617479536
 20
1448.218733024473
 30
0.0
 10
42.22135203786456
 20
1456.721081648732
 30
0.0
 10
51.86529543871689
 20
1464.976867418886
 30
0.0
 10
52.8718227432455
 20
1465.814935174422
 30
0.0
 10
53.8895024817889
 20
1466.639036260907
 30
0.0
  0
LINE
  5
1A01
330
1992
100
AcDbEntity
  8
0
100
AcDbLine
 10
688.0013547787602
 20
89.85986570435171
 30
0.0
 11
23.81515847785249
 21
1261.41833433376
 31
0.0
  0
ARC
  5
1A02
330
1992
100
AcDbEntity
  8
0
100
AcDbCircle
 10
1392.533276920809
 20
124.4509449175077
 30
0.0
 40
7.000000000000829
100
AcDbArc
 50
282.499462944114
 51
0.0
  0
LINE
  5
1A03
330
1992
100
AcDbEntity
  8
0
100
AcDbLine
 10
586.6350354153496
 20
1898.047869902435
 30
0.0
 11
53.88945791350193
 21
1466.639091298232
 31
0.0
  0
ARC
  5
1A04
330
1992
100
AcDbEntity
  8
0
100
AcDbCircle
 10
591.0402628108085
 20
1892.607867117508
 30
0.0
 40
7.000000000010751
100
AcDbArc
 50
90.0
 51
128.99582338632
  0
ENDBLK
  5
1A06
330
1992
100
AcDbEntity
  8
0
100
AcDbBlockEnd
  0
ENDSEC
  0
SECTION
  2
ENTITIES
  0
ARC
  5
18A9
330
1F
100
AcDbEntity
  8
0
  6
AM_DIN_F_W050
 62
     6
 48
4.0
100
AcDbCircle
 10
222.3058091008057
 20
283.999735267107
 30
0.0
 40
20.00000000029769
100
AcDbArc
 50
89.99999999999998
 51
156.3778363733508
  0
LINE
  5
18AA
330
1F
100
AcDbEntity
  8
0
  6
AM_DIN_F_W050
 62
     6
 48
4.0
100
AcDbLine
 10
127.9376648647257
 20
123.6197123388082
 30
0.0
 11
203.9816532208598
 21
292.0138048129606
 31
0.0
  0
ARC
  5
18AB
330
1F
100
AcDbEntity
  8
0
  6
AM_DIN_F_W050
 62
     6
 48
4.0
100
AcDbCircle
 10
173.748054600937
 20
103.5845384671085
 30
0.0
 40
49.99999999852811
100
AcDbArc
 50
156.377836382632
 51
210.6429352639638
  0
ARC
  5
18AC
330
1F
100
AcDbEntity
  8
0
  6
AM_DIN_F_W050
 62
     6
 48
4.0
100
AcDbCircle
 10
1.675988800936483
 20
1.647282467108432
 30
0.0
 40
150.0000000046145
100
AcDbArc
 50
282.1127374634791
 51
30.64293527940443
  0
ARC
  5
18AD
330
1F
100
AcDbEntity
  8
0
  6
AM_DIN_F_W050
 62
     6
 48
4.0
100
AcDbCircle
 10
43.64317470093597
 20
-193.9000400328916
 30
0.0
 40
50.00000000074408
100
AcDbArc
 50
102.1127374749111
 51
156.3778363275678
  0
LINE
  5
18AE
330
1F
100
AcDbEntity
  8
0
  6
AM_DIN_F_W050
 62
     6
 48
4.0
100
AcDbLine
 10
-39.97835931900637
 20
-260.3199807108167
 30
0.0
 11
-2.167215063910168
 21
-173.8648660962078
 31
0.0
  0
ARC
  5
18AF
330
1F
100
AcDbEntity
  8
0
  6
AM_DIN_F_W050
 62
     6
 48
4.0
100
AcDbCircle
 10
-21.65420342594464
 20
-268.3340502648734
 30
0.0
 40
20.00000000026221
100
AcDbArc
 50
156.3778363763714
 51
240.4500000026712
  0
LINE
  5
18B2
330
1F
100
AcDbEntity
  8
0
100
AcDbLine
 10
227.0379799783935
 20
-432.0537171419062
 30
0.0
 11
-545.8193398772295
 21
6.098693072570021
 31
0.0
  0
ARC
  5
18B3
330
1F
100
AcDbEntity
  8
0
  6
AM_DIN_F_W050
 62
     6
 48
4.0
100
AcDbCircle
 10
-187.8286505356856
 20
-174.1255435310782
 30
0.0
 40
20.00000000029762
100
AcDbArc
 50
240.4500000008446
 51
336.377836373351
  0
LINE
  5
18B4
330
1F
100
AcDbEntity
  8
0
  6
AM_DIN_F_W050
 62
     6
 48
4.0
100
AcDbLine
 10
-134.329595253108
 20
-101.7122676611563
 30
0.0
 11
-169.5044946410377
 21
-182.1396130815966
 31
0.0
  0
ARC
  5
18B5
330
1F
100
AcDbEntity
  8
0
  6
AM_DIN_F_W050
 62
     6
 48
4.0
100
AcDbCircle
 10
-180.1399849990625
 20
-81.67709383289111
 30
0.0
 40
49.99999999834605
100
AcDbArc
 50
336.3778364326812
 51
24.62149571633736
  0
ARC
  5
18B6
330
1F
100
AcDbEntity
  8
0
  6
AM_DIN_F_W050
 62
     6
 48
4.0
100
AcDbCircle
 10
1.675988800936483
 20
1.647282467108432
 30
0.0
 40
149.9999999955374
100
AcDbArc
 50
109.4626311670342
 51
204.6214956679646
  0
ARC
  5
18B7
330
1F
100
AcDbEntity
  8
0
  6
AM_DIN_F_W050
 62
     6
 48
4.0
100
AcDbCircle
 10
-68.56131819906334
 20
200.4031931671086
 30
0.0
 40
60.80130770090497
100
AcDbArc
 50
289.4626311978188
 51
336.3778363794468
  0
LINE
  5
18B8
330
1F
100
AcDbEntity
  8
0
  6
AM_DIN_F_W050
 62
     6
 48
4.0
100
AcDbLine
 10
33.25342761642342
 20
275.9856657028167
 30
0.0
 11
-12.85468615378261
 21
176.0398977350077
 31
0.0
  0
ARC
  5
18B9
330
1F
100
AcDbEntity
  8
0
  6
AM_DIN_F_W050
 62
     6
 48
4.0
100
AcDbCircle
 10
14.92927170080576
 20
283.9997352671071
 30
0.0
 40
20.0
100
AcDbArc
 50
336.3778363659055
 51
89.99999999999998
  0
ARC
  5
18BB
330
1F
100
AcDbEntity
  8
0
100
AcDbCircle
 10
-478.2036623991943
 20
283.9997352671077
 30
0.0
 40
19.99999999944558
100
AcDbArc
 50
89.99999999999998
 51
167.5000000020964
  0
LINE
  5
18BC
330
1F
100
AcDbEntity
  8
0
100
AcDbLine
 10
-555.4816157050076
 20
27.82599622675542
 30
0.0
 11
-497.7294957402922
 21
288.3285083017219
 31
0.0
  0
ARC
  5
18BD
330
1F
100
AcDbEntity
  8
0
100
AcDbCircle
 10
-535.9556843991936
 20
23.49720146710768
 30
0.0
 40
20.0000000002628
100
AcDbArc
 50
167.4999999831496
 51
240.4500000052474
  0
ARC
  5
18C0
330
1F
100
AcDbEntity
  8
0
100
AcDbCircle
 10
237.5121174493069
 20
-414.9859621860788
 30
0.0
 40
20.02537927210791
100
AcDbArc
 50
238.4633976938168
 51
320.9733754243214
  0
ARC
  5
18C6
330
1F
100
AcDbEntity
  8
0
100
AcDbCircle
 10
548.3392955408772
 20
283.9867645071774
 30
0.0
 40
20.01297496321892
100
AcDbArc
 50
0.0371344017785103
 51
89.96286559821944
  0
LINE
  5
18CA
330
1F
100
AcDbEntity
  8
0
100
AcDbLine
 10
568.3522663008071
 20
283.9997352671069
 30
0.0
 11
568.3522663008057
 21
14.8647435671067
 31
0.0
  0
LINE
  5
18CB
330
1F
100
AcDbEntity
  8
0
100
AcDbLine
 10
548.3522663008058
 20
303.9997352671074
 30
0.0
 11
-478.2036623992052
 21
303.9997352665533
 31
0.0
  0
ARC
  5
18CD
330
1F
100
AcDbEntity
  8
0
100
AcDbCircle
 10
418.3522663008057
 20
14.86474356710675
 30
0.0
 40
149.9999999999998
100
AcDbArc
 50
320.9999999826199
 51
0.0
  0
ELLIPSE
  5
18D1
330
1F
100
AcDbEntity
  8
0
100
AcDbEllipse
 10
-645.7650534321914
 20
-25.33565074185689
 30
0.0
 11
119.3974616047165
 21
53.09848696757446
 31
0.0
210
0.0
220
0.0
230
-1.0
 40
0.9897726330522235
 41
2.509901362858121
 42
3.773307798909207
  0
LINE
  5
18D2
330
1F
100
AcDbEntity
  8
0
100
AcDbLine
 10
-773.1562433987278
 20
1.599676068639612
 30
0.0
 11
-704.8660073990334
 21
309.6370215672603
 31
0.0
  0
ELLIPSE
  5
18D4
330
1F
100
AcDbEntity
  8
0
100
AcDbEllipse
 10
625.2561446150943
 20
-167.3151381060167
 30
0.0
 11
-243.3848466690819
 21
270.6620360102169
 31
0.0
210
0.0
220
0.0
230
-1.0
 40
0.8437536049772138
 41
2.388006691052257
 42
3.00818658455141
  0
ELLIPSE
  5
18D5
330
1F
100
AcDbEntity
  8
0
100
AcDbEllipse
 10
470.3075141056427
 20
-667.0558708135559
 30
0.0
 11
-111.3932551029573
 21
128.4711162096815
 31
0.0
210
0.0
220
0.0
230
-1.0
 40
0.6763151591514597
 41
3.022030782169674
 42
4.229528007117407
  0
ELLIPSE
  5
18D6
330
1F
100
AcDbEntity
  8
0
100
AcDbEllipse
 10
470.3075141009324
 20
-667.0558708328941
 30
0.0
 11
-111.3932551029571
 21
128.4711162096801
 31
0.0
210
0.0
220
0.0
230
-1.0
 40
0.6763151591514611
 41
3.022030782082179
 42
4.229528007117416
  0
LINE
  5
18D7
330
1F
100
AcDbEntity
  8
0
100
AcDbLine
 10
896.854351111488
 20
-408.2575738498583
 30
0.0
 11
591.2691668679128
 21
-785.6238489489713
 31
0.0
  0
LINE
  5
18D8
330
1F
100
AcDbEntity
  8
0
100
AcDbLine
 10
-711.0878454048584
 20
-137.9720918296096
 30
0.0
 11
445.0758774029643
 21
-793.4306165340445
 31
0.0
  0
LINE
  5
18E4
330
1F
100
AcDbEntity
  8
0
  6
AM_DIN_F_W050
 62
     6
 48
4.0
100
AcDbLine
 10
1071.675988800934
 20
526.6472824671069
 30
0.0
 11
1071.675988800932
 21
-273.8945056498371
 31
0.0
  0
LINE
  5
18E9
330
1F
100
AcDbEntity
  8
0
100
AcDbLine
 10
959.0075270936328
 20
327.8552928689744
 30
0.0
 11
959.0075271009322
 21
-224.1755786328929
 31
0.0
  0
LINE
  5
18EA
330
1F
100
AcDbEntity
  8
0
100
AcDbLine
 10
-570.4940392769839
 20
416.0709087671072
 30
0.0
 11
844.7085820388071
 21
416.0709087671068
 31
0.0
  0
LINE
  5
18EE
330
1F
100
AcDbEntity
  8
0
  6
AM_DIN_F_W050
 62
     6
 48
4.0
100
AcDbLine
 10
-699.9232565481462
 20
526.6472824671075
 30
0.0
 11
1071.675988800931
 21
526.6472824671069
 31
0.0
  0
LINE
  5
18F0
330
1F
100
AcDbEntity
  8
0
  6
AM_DIN_F_W050
 62
     6
 48
4.0
100
AcDbLine
 10
-813.4213716599868
 20
11.88124593416826
 30
0.0
 11
-700.0549323093517
 21
526.1437077556909
 31
0.0
  0
LINE
  5
18F2
330
1F
100
AcDbEntity
  8
0
  6
AM_DIN_F_W050
 62
     6
 48
4.0
100
AcDbLine
 10
439.3319800245865
 20
-837.9208918899481
 30
0.0
 11
-730.2481189827883
 21
-174.8562835515909
 31
0.0
  0
ELLIPSE
  5
18F3
330
1F
100
AcDbEntity
  8
0
  6
AM_DIN_F_W050
 62
     6
 48
4.0
100
AcDbEllipse
 10
506.3888087542002
 20
-695.5399688036537
 30
0.0
 11
117.8906866481925
 21
-128.4598876112058
 31
0.0
210
0.0
220
0.0
230
-1.0
 40
0.8889836944116851
 41
6.151774921745476
 42
7.50535696539644
  0
LINE
  5
18F4
330
1F
100
AcDbEntity
  8
0
  6
AM_DIN_F_W050
 62
     6
 48
4.0
100
AcDbLine
 10
1071.675988802105
 20
-273.8945056483879
 30
0.0
 11
638.2267878309305
 21
-809.1596914328931
 31
0.0
  0
LINE
  5
18F6
330
1F
100
AcDbEntity
  8
0
  6
AM_DIN_F_W050
 62
     6
 48
4.0
100
AcDbLine
 10
-809.0944960247391
 20
10.90890509566937
 30
0.0
 11
-694.7580503996599
 21
526.64728246675
 31
0.0
  0
LINE
  5
18F8
330
1F
100
AcDbEntity
  8
0
  6
AM_DIN_F_W050
 62
     6
 48
4.0
100
AcDbLine
 10
429.5795407088937
 20
-827.2941208188319
 30
0.0
 11
-728.0765704305211
 21
-170.9895233641239
 31
0.0
  0
ELLIPSE
  5
18F9
330
1F
100
AcDbEntity
  8
0
  6
AM_DIN_F_W050
 62
     6
 48
4.0
100
AcDbEllipse
 10
496.6363681957529
 20
-684.9131970569539
 30
0.0
 11
117.8906866481925
 21
-128.4598876112058
 31
0.0
210
0.0
220
0.0
230
-1.0
 40
0.8889836944116851
 41
6.151774920125791
 42
7.505356957186831
  0
LINE
  5
18FA
330
1F
100
AcDbEntity
  8
0
  6
AM_DIN_F_W050
 62
     6
 48
4.0
100
AcDbLine
 10
1071.675988801884
 20
-251.2244749292066
 30
0.0
 11
628.4743484709227
 21
-798.5329203328931
 31
0.0
  0
ELLIPSE
  5
18FF
330
1F
100
AcDbEntity
  8
0
  6
AM_DIN_F_W050
 62
     6
 48
4.0
100
AcDbEllipse
 10
-693.1273511794228
 20
524.647282467107
 30
0.0
 11
-7.091516307456792
 21
0.0000000000000065
 31
0.0
210
0.0
220
0.0
230
-1.0
 40
0.9870949591753388
 41
0.2154377110638423
 42
1.570797141901967
  0
ELLIPSE
  5
1901
330
1F
100
AcDbEntity
  8
0
  6
AM_DIN_F_W050
 62
     6
 48
4.0
100
AcDbEllipse
 10
1069.67598899105
 20
-250.1274810371404
 30
0.0
 11
-0.0000001035680407
 21
-9.006699842049169
 31
0.0
210
0.0
220
0.0
230
-0.9999999999999998
 40
0.7771991996338681
 41
4.712388982078994
 42
5.518316840128338
  0
LINE
  5
1905
330
1F
100
AcDbEntity
  8
0
100
AcDbLine
 10
-705.3147570298
 20
526.1622365799556
 30
0.0
 11
-705.3147426372277
 21
526.1623015005386
 31
0.0
  0
ELLIPSE
  5
1909
330
1F
100
AcDbEntity
  8
0
100
AcDbEllipse
 10
-113.1173095990849
 20
-446.0055544828928
 30
0.0
 11
22.61806674410983
 21
-12.82275542849785
 31
0.0
210
0.0
220
0.0
230
-1.0
 40
0.3420201432910362
 41
3.184427454933455
 42
6.326020087449808
  0
ELLIPSE
  5
190A
330
1F
100
AcDbEntity
  8
0
100
AcDbEllipse
 10
-115.4345112990855
 20
-450.092868022893
 30
0.0
 11
-22.61806674410983
 21
12.82275542849779
 31
0.0
210
0.0
220
0.0
230
-1.0
 40
0.3420201432910325
 41
0.2673541618900093
 42
2.874238496331042
  0
ELLIPSE
  5
190E
330
1F
100
AcDbEntity
  8
0
100
AcDbEllipse
 10
-113.1173095990849
 20
-446.0055544828923
 30
0.0
 11
-22.6180667441098
 21
12.8227554284978
 31
0.0
210
0.0
220
0.0
230
-1.0
 40
0.3420201432910362
 41
3.184427434066552
 42
6.326020087656346
  0
SPLINE
  5
1A07
330
1F
100
AcDbEntity
  8
0
100
AcDbSpline
210
0.0
220
0.0
230
1.0
 70
    40
 71
     3
 72
    13
 73
     9
 74
     7
 42
0.0000000001
 43
0.0000000001
 44
0.00001
 40
0.0
 40
0.0
 40
0.0
 40
0.0
 40
24.44773495449781
 40
57.71905008357298
 40
85.91801501429795
 40
119.0678573084345
 40
137.38327272139
 40
159.9960095564149
 40
159.9960095564149
 40
159.9960095564149
 40
159.9960095564149
 10
959.0075250305137
 20
327.8552927430161
 30
0.0
 10
958.5606319100289
 20
336.121162510706
 30
0.0
 10
957.5055547647936
 20
355.6361871947333
 30
0.0
 10
939.6918510608767
 20
379.9278606222241
 30
0.0
 10
915.1061032972032
 20
399.7969356666366
 30
0.0
 10
890.107874056105
 20
409.96790095793
 30
0.0
 10
865.9189377074055
 20
415.2166355528032
 30
0.0
 10
852.2568583980621
 20
415.7668926342034
 30
0.0
 10
844.7085820388071
 20
416.0709087671068
 30
0.0
 11
959.0075250305137
 21
327.8552927430161
 31
0.0
 11
955.7091533262706
 21
352.0795055992892
 31
0.0
 11
937.6946945056957
 21
380.0519864299205
 31
0.0
 11
915.6931291878306
 21
397.6903748690032
 31
0.0
 11
885.180908791032
 21
410.6486328762865
 31
0.0
 11
867.2625453276806
 21
414.4416122519701
 31
0.0
 11
844.7085820388071
 21
416.0709087671068
 31
0.0
  0
SPLINE
  5
1A08
330
1F
100
AcDbEntity
  8
0
100
AcDbSpline
210
0.0
220
0.0
230
1.0
 70
    40
 71
     3
 72
    12
 73
     8
 74
     6
 42
0.0000000001
 43
0.0000000001
 44
0.00001
 40
0.0
 40
0.0
 40
0.0
 40
0.0
 40
36.51195541564276
 40
72.98334254549107
 40
110.1738021400875
 40
142.8069187393047
 40
184.9410747906208
 40
184.9410747906208
 40
184.9410747906208
 40
184.9410747906208
 10
-570.4940392769839
 20
416.0709087671072
 30
0.0
 10
-582.7210463483826
 20
415.2986035949103
 30
0.0
 10
-607.1614751131404
 20
413.7548513556657
 30
0.0
 10
-641.3631687831021
 20
398.3035309513203
 30
0.0
 10
-669.0374061758864
 20
376.164196086162
 30
0.0
 10
-694.5820704104088
 20
347.8759907778832
 30
0.0
 10
-701.1594234527969
 20
323.4192884496824
 30
0.0
 10
-704.8660080274129
 20
309.6370214782303
 30
0.0
 11
-570.4940392769839
 21
416.0709087671072
 31
0.0
 11
-606.7285850305021
 21
411.5786284652917
 31
0.0
 11
-640.2356018403906
 21
397.1757848683794
 31
0.0
 11
-669.5862803339553
 21
374.3357332742017
 31
0.0
 11
-690.4175004574214
 21
349.2164067078742
 31
0.0
 11
-704.8660080274129
 21
309.6370214782303
 31
0.0
  0
LINE
  5
1A17
330
1F
100
AcDbEntity
  8
0
100
AcDbLine
 10
253.0689022415085
 20
-427.5955720896759
 30
0.0
 11
534.9241605190258
 21
-79.53331509077059
 31
0.0
  0
CIRCLE
  5
1A4F
330
1F
100
AcDbEntity
  8
0
100
AcDbCircle
 10
1.675988800936483
 20
1.647282467108425
 30
0.0
 40
26.0
  0
CIRCLE
  5
1A50
330
1F
100
AcDbEntity
  8
0
100
AcDbCircle
 10
1.675988800936483
 20
1.647282467108425
 30
0.0
 40
37.5
  0
CIRCLE
  5
1A51
330
1F
100
AcDbEntity
  8
0
100
AcDbCircle
 10
1.675988800942167
 20
1.647282467108425
 30
0.0
 40
56.50000000000001
  0
LINE
  5
1A52
330
1F
100
AcDbEntity
  8
0
  6
CENTER2
 62
     4
 48
30.0
100
AcDbLine
 10
61.94010039647584
 20
1.647282467108415
 30
0.0
 11
-58.58812279459151
 21
1.647282467108443
 31
0.0
  0
LINE
  5
1A53
330
1F
100
AcDbEntity
  8
0
  6
CENTER2
 62
     4
 48
30.0
100
AcDbLine
 10
1.675988800942185
 20
61.91139406264216
 30
0.0
 11
1.67598880094215
 21
-58.6168291284253
 31
0.0
  0
ARC
  5
1A6B
330
1F
100
AcDbEntity
  8
0
  6
AM_DIN_F_W050
 62
     6
 48
4.0
100
AcDbCircle
 10
-646.4496535535631
 20
-25.64084484806579
 30
0.0
 40
171.1357062561128
100
AcDbArc
 50
167.3348198242784
 51
240.6817034768732
  0
ARC
  5
1A6D
330
1F
100
AcDbEntity
  8
0
  6
AM_DIN_F_W050
 62
     6
 48
4.0
100
AcDbCircle
 10
-646.4496535535631
 20
-25.64084484806579
 30
0.0
 40
166.7009055320403
100
AcDbArc
 50
167.3348198242784
 51
240.6817034768732
  0
ELLIPSE
  5
1A7E
330
1F
100
AcDbEntity
  8
0
  6
AM_DIN_F_W050
 62
     6
 48
4.0
100
AcDbEllipse
 10
497.9091266620969
 20
-684.9133782076464
 30
0.0
 11
-122.664737947767
 21
131.6358391080428
 31
0.0
210
0.0
220
0.0
230
-1.0
 40
0.8924907516810664
 41
3.019195981439216
 42
4.300667578317751
  0
LINE
  5
1A7F
330
1F
100
AcDbEntity
  8
0
  6
AM_DIN_F_W050
 62
     6
 48
4.0
100
AcDbLine
 10
633.9999400821486
 20
-802.1982263635024
 30
0.0
 11
1074.523083602197
 21
-256.6255758346518
 31
0.0
  0
LWPOLYLINE
  5
1AF0
330
1F
100
AcDbEntity
  8
0
100
AcDbPolyline
 90
       10
 70
     1
 43
0.0
 10
-705.3014550023994
 20
526.2222380406142
 42
-0.3492033706040585
 10
-698.4809333990691
 20
531.6472824671091
 10
1069.675988800931
 20
531.6472824671073
 42
-0.4142135623731193
 10
1076.675988800931
 20
524.6472824671068
 10
1076.675988800941
 20
-276.8457316428936
 42
-0.1725107525841858
 10
1075.104365842579
 20
-281.2653156384582
 10
643.7072129816554
 20
-813.9965365401991
 42
-0.3642937318549296
 10
438.4861738875013
 20
-844.0706760293796
 10
-734.3166861210924
 20
-179.1790027087738
 42
-0.3291869284968522
 10
-819.0479958469119
 20
13.14566787312607
  0
ENDSEC
  0
SECTION
  2
OBJECTS
  0
DICTIONARY
  5
C
330
0
100
AcDbDictionary
281
     1
  3
ACAD_COLOR
350
13DF
  3
ACAD_GROUP
350
D
  3
ACAD_LAYOUT
350
1A
  3
ACAD_MATERIAL
350
13B5
  3
ACAD_MLEADERSTYLE
350
13F4
  3
ACAD_MLINESTYLE
350
17
  3
ACAD_PLOTSETTINGS
350
19
  3
ACAD_PLOTSTYLENAME
350
E
  3
ACAD_SCALELIST
350
13E2
  3
ACAD_TABLESTYLE
350
13E0
  3
ACAD_VISUALSTYLE
350
13CE
  3
ACDB_RECOMPOSE_DATA
350
1BF6
  3
AcDbVariableDictionary
350
86
  3
AcmDictionary
350
45
  3
AEC_PROPERTY_SET_DEFS
350
159A
  3
AMG
350
41
  3
AMGSNAPSETTINGS
350
332
  0
DICTIONARY
  5
14E0
330
8
100
AcDbDictionary
280
     1
281
     1
  0
DICTIONARY
  5
15A4
330
2
100
AcDbDictionary
280
     1
281
     1
  3
ACAD_LAYERSTATES
360
15A5
  0
DICTIONARY
  5
1490
330
10
100
AcDbDictionary
280
     1
281
     1
  3
ADSK_XREC_LAYER_RECONCILED
360
1491
  0
DICTIONARY
  5
81
330
1F
100
AcDbDictionary
280
     1
281
     1
  3
ACAD_SORTENTS
360
16CD
  0
DICTIONARY
  5
13DF
102
{ACAD_REACTORS
330
C
102
}
330
C
100
AcDbDictionary
281
     1
  0
DICTIONARY
  5
D
102
{ACAD_REACTORS
330
C
102
}
330
C
100
AcDbDictionary
281
     1
  0
DICTIONARY
  5
1A
102
{ACAD_REACTORS
330
C
102
}
330
C
100
AcDbDictionary
281
     1
  3
Layout1
350
1E
  3
Layout2
350
26
  3
Model
350
22
  0
DICTIONARY
  5
13B5
102
{ACAD_REACTORS
330
C
102
}
330
C
100
AcDbDictionary
281
     1
  3
ByBlock
350
13BE
  3
ByLayer
350
13B6
  3
Global
350
13C6
  0
DICTIONARY
  5
13F4
102
{ACAD_REACTORS
330
C
102
}
330
C
100
AcDbDictionary
281
     1
  3
Standard
350
13F5
  0
DICTIONARY
  5
17
102
{ACAD_REACTORS
330
C
102
}
330
C
100
AcDbDictionary
281
     1
  3
Standard
350
18
  0
DICTIONARY
  5
19
102
{ACAD_REACTORS
330
C
102
}
330
C
100
AcDbDictionary
281
     1
  0
ACDBDICTIONARYWDFLT
  5
E
102
{ACAD_REACTORS
330
C
102
}
330
C
100
AcDbDictionary
281
     1
  3
Normal
350
F
100
AcDbDictionaryWithDefault
340
F
  0
DICTIONARY
  5
13E2
102
{ACAD_REACTORS
330
C
102
}
330
C
100
AcDbDictionary
281
     1
  3
A0
350
13E3
  3
A1
350
13E4
  3
A2
350
13E5
  3
A3
350
13E6
  3
A4
350
13E7
  3
A5
350
13E8
  3
A6
350
13E9
  3
A7
350
13EA
  3
A8
350
13EB
  3
A9
350
13EC
  3
B0
350
13ED
  3
B1
350
13EE
  3
B2
350
13EF
  3
B3
350
13F0
  3
B4
350
13F1
  3
B5
350
13F2
  3
B6
350
13F3
  0
DICTIONARY
  5
13E0
102
{ACAD_REACTORS
330
C
102
}
330
C
100
AcDbDictionary
281
     1
  3
Standard
350
13E1
  0
DICTIONARY
  5
13CE
102
{ACAD_REACTORS
330
C
102
}
330
C
100
AcDbDictionary
281
     1
  3
2dWireframe
350
13D4
  3
3D Hidden
350
13D6
  3
3dWireframe
350
13D5
  3
Basic
350
13D3
  3
Brighten
350
13DA
  3
ColorChange
350
13DE
  3
Conceptual
350
13D7
  3
Dim
350
13D9
  3
EdgeColorOff
350
14F0
  3
Facepattern
350
13DD
  3
Flat
350
13CF
  3
FlatWithEdges
350
13D0
  3
Gouraud
350
13D1
  3
GouraudWithEdges
350
13D2
  3
Hidden
350
14E8
  3
JitterOff
350
14EE
  3
Linepattern
350
13DC
  3
OverhangOff
350
14EF
  3
Realistic
350
13D8
  3
Shaded
350
14ED
  3
Shaded with edges
350
14EC
  3
Shades of Gray
350
14E9
  3
Sketchy
350
14EA
  3
Thicken
350
13DB
  3
Wireframe
350
14E7
  3
X-Ray
350
14EB
  0
XRECORD
  5
1BF6
102
{ACAD_REACTORS
330
C
102
}
330
C
100
AcDbXrecord
280
     1
 90
        1
330
13E1
  0
DICTIONARY
  5
86
102
{ACAD_REACTORS
330
C
102
}
330
C
100
AcDbDictionary
281
     1
  3
CANNOSCALE
350
14A3
  3
CMLEADERSTYLE
350
14A1
  3
CTABLESTYLE
350
14A0
  3
DIMASSOC
350
89
  3
HIDETEXT
350
88
  3
INDEXCTL
350
87
  3
LAYEREVAL
350
14A5
  3
LAYERNOTIFY
350
14A6
  3
LIGHTINGUNITS
350
14A4
  3
MSLTSCALE
350
14A2
  0
DICTIONARY
  5
45
102
{ACAD_REACTORS
330
C
102
}
330
C
100
AcDbDictionary
281
     1
  3
AcmStdDictionary
350
4A
  3
AMDTSECTSYM_ARROWCOLOR
350
144D
  0
DICTIONARY
  5
159A
102
{ACAD_REACTORS
330
C
102
}
330
C
100
AcDbDictionary
281
     1
  0
DICTIONARY
  5
41
102
{ACAD_REACTORS
330
C
102
}
330
C
100
AcDbDictionary
281
     1
  0
DICTIONARY
  5
332
102
{ACAD_REACTORS
330
C
102
}
330
C
100
AcDbDictionary
281
     1
  0
DICTIONARY
  5
15A5
102
{ACAD_REACTORS
330
15A4
102
}
330
15A4
100
AcDbDictionary
281
     1
  0
XRECORD
  5
1491
102
{ACAD_REACTORS
330
1490
102
}
330
1490
100
AcDbXrecord
280
     1
290
     1
  0
SORTENTSTABLE
  5
16CD
102
{ACAD_REACTORS
330
81
102
}
330
81
100
AcDbSortentsTable
330
1F
331
18AC
  5
18B7
331
18D7
  5
18EF
331
190E
  5
1919
331
190A
  5
1917
331
18CB
  5
18D8
331
18FA
  5
190A
331
18F6
  5
1900
331
18BB
  5
18CC
331
18B7
  5
18C9
331
1A6D
  5
1A41
331
18F2
  5
18FC
331
18B3
  5
18C0
331
18EE
  5
18F8
331
18EA
  5
18F5
331
1A51
  5
1A53
331
18AF
  5
18BB
331
18AB
  5
18B6
331
18D6
  5
18EE
331
18D2
  5
18EA
331
1909
  5
1916
331
1905
  5
1914
331
18CA
  5
18D7
331
18C6
  5
18D2
331
1901
  5
1913
331
18F9
  5
1909
331
18B6
  5
18C8
331
18B2
  5
18BD
331
18E9
  5
18F4
331
1A50
  5
1A52
331
18AE
  5
18B9
331
18AA
  5
18B5
331
18D5
  5
18ED
331
18D1
  5
18E9
331
1A08
  5
1A27
331
18CD
  5
18E5
331
18F8
  5
1905
331
18BD
  5
18CF
331
18F4
  5
18FE
331
18B9
  5
18CB
331
18B5
  5
18C7
331
1A6B
  5
1A4F
331
18F0
  5
18FA
331
1A53
  5
1A6C
331
18AD
  5
18B8
331
1A4F
  5
1A51
331
18A9
  5
18B4
331
18E4
  5
18F1
331
1A17
  5
1A28
331
18D8
  5
18F0
331
18D4
  5
18EC
331
1A07
  5
1A26
331
18FF
  5
1911
331
18C0
  5
18D1
331
18BC
  5
18CD
331
18F3
  5
18FD
331
18B8
  5
18CA
331
18B4
  5
18C6
331
1A52
  5
1A6B
  0
LAYOUT
  5
1E
102
{ACAD_REACTORS
330
1A
102
}
330
1A
100
AcDbPlotSettings
  1

  2
Epson Stylus COLOR 440 ESC/P 2
  4

  6

 40
0.0
 41
0.0
 42
0.0
 43
0.0
 44
0.0
 45
0.0
 46
0.0
 47
0.0
 48
0.0
 49
0.0
140
0.0
141
0.0
142
1.0
143
1.0
 70
   688
 72
     0
 73
     0
 74
     5
  7

 75
    16
147
1.0
 76
     0
 77
     2
 78
   300
148
0.0
149
0.0
100
AcDbLayout
  1
Layout1
 70
     1
 71
     1
 10
0.0
 20
0.0
 11
420.0
 21
297.0
 12
0.0
 22
0.0
 32
0.0
 14
1.000000000000000E+20
 24
1.000000000000000E+20
 34
1.000000000000000E+20
 15
-1.000000000000000E+20
 25
-1.000000000000000E+20
 35
-1.000000000000000E+20
146
0.0
 13
0.0
 23
0.0
 33
0.0
 16
1.0
 26
0.0
 36
0.0
 17
0.0
 27
1.0
 37
0.0
 76
     0
330
1B
  0
LAYOUT
  5
26
102
{ACAD_REACTORS
330
1A
102
}
330
1A
100
AcDbPlotSettings
  1

  2
Epson Stylus COLOR 440 ESC/P 2
  4

  6

 40
0.0
 41
0.0
 42
0.0
 43
0.0
 44
0.0
 45
0.0
 46
0.0
 47
0.0
 48
0.0
 49
0.0
140
0.0
141
0.0
142
1.0
143
1.0
 70
   688
 72
     0
 73
     0
 74
     5
  7

 75
    16
147
1.0
 76
     0
 77
     2
 78
   300
148
0.0
149
0.0
100
AcDbLayout
  1
Layout2
 70
     1
 71
     2
 10
0.0
 20
0.0
 11
12.0
 21
9.0
 12
0.0
 22
0.0
 32
0.0
 14
0.0
 24
0.0
 34
0.0
 15
0.0
 25
0.0
 35
0.0
146
0.0
 13
0.0
 23
0.0
 33
0.0
 16
1.0
 26
0.0
 36
0.0
 17
0.0
 27
1.0
 37
0.0
 76
     0
330
23
  0
LAYOUT
  5
22
102
{ACAD_XDICTIONARY
360
15AA
102
}
102
{ACAD_REACTORS
330
1A
102
}
330
1A
100
AcDbPlotSettings
  1

  2
Epson Stylus COLOR 440 ESC/P 2
  4

  6

 40
0.0
 41
0.0
 42
0.0
 43
0.0
 44
0.0
 45
0.0
 46
0.0
 47
0.0
 48
0.0
 49
0.0
140
0.0
141
0.0
142
1.0
143
1.0
 70
  1712
 72
     0
 73
     0
 74
     0
  7

 75
     0
147
1.0
 76
     0
 77
     2
 78
   300
148
0.0
149
0.0
100
AcDbLayout
  1
Model
 70
     1
 71
     0
 10
0.0
 20
0.0
 11
12.0
 21
9.0
 12
0.0
 22
0.0
 32
0.0
 14
0.0
 24
0.0
 34
0.0
 15
0.0
 25
0.0
 35
0.0
146
0.0
 13
0.0
 23
0.0
 33
0.0
 16
1.0
 26
0.0
 36
0.0
 17
0.0
 27
1.0
 37
0.0
 76
     0
330
1F
331
13B3
  0
MATERIAL
  5
13BE
102
{ACAD_XDICTIONARY
360
13BF
102
}
102
{ACAD_REACTORS
330
13B5
102
}
330
13B5
100
AcDbMaterial
  1
ByBlock
 72
     0
 43
0.0008202099737533
 43
0.0
 43
0.0
 43
0.0
 43
0.0
 43
0.0008202099737533
 43
0.0
 43
0.0
 43
0.0
 43
0.0
 43
1.0
 43
0.0
 43
0.0
 43
0.0
 43
0.0
 43
1.0
 77
     0
 47
0.0008202099737533
 47
0.0
 47
0.0
 47
0.0
 47
0.0
 47
0.0008202099737533
 47
0.0
 47
0.0
 47
0.0
 47
0.0
 47
1.0
 47
0.0
 47
0.0
 47
0.0
 47
0.0
 47
1.0
171
     0
 49
0.0008202099737533
 49
0.0
 49
0.0
 49
0.0
 49
0.0
 49
0.0008202099737533
 49
0.0
 49
0.0
 49
0.0
 49
0.0
 49
1.0
 49
0.0
 49
0.0
 49
0.0
 49
0.0
 49
1.0
175
     0
142
0.0008202099737533
142
0.0
142
0.0
142
0.0
142
0.0
142
0.0008202099737533
142
0.0
142
0.0
142
0.0
142
0.0
142
1.0
142
0.0
142
0.0
142
0.0
142
0.0
142
1.0
179
     0
144
0.0008202099737533
144
0.0
144
0.0
144
0.0
144
0.0
144
0.0008202099737533
144
0.0
144
0.0
144
0.0
144
0.0
144
1.0
144
0.0
144
0.0
144
0.0
144
0.0
144
1.0
147
0.0008202099737533
147
0.0
147
0.0
147
0.0
147
0.0
147
0.0008202099737533
147
0.0
147
0.0
147
0.0
147
0.0
147
1.0
147
0.0
147
0.0
147
0.0
147
0.0
147
1.0
  0
MATERIAL
  5
13B6
102
{ACAD_XDICTIONARY
360
13B7
102
}
102
{ACAD_REACTORS
330
13B5
102
}
330
13B5
100
AcDbMaterial
  1
ByLayer
 72
     0
 43
0.0008202099737533
 43
0.0
 43
0.0
 43
0.0
 43
0.0
 43
0.0008202099737533
 43
0.0
 43
0.0
 43
0.0
 43
0.0
 43
1.0
 43
0.0
 43
0.0
 43
0.0
 43
0.0
 43
1.0
 77
     0
 47
0.0008202099737533
 47
0.0
 47
0.0
 47
0.0
 47
0.0
 47
0.0008202099737533
 47
0.0
 47
0.0
 47
0.0
 47
0.0
 47
1.0
 47
0.0
 47
0.0
 47
0.0
 47
0.0
 47
1.0
171
     0
 49
0.0008202099737533
 49
0.0
 49
0.0
 49
0.0
 49
0.0
 49
0.0008202099737533
 49
0.0
 49
0.0
 49
0.0
 49
0.0
 49
1.0
 49
0.0
 49
0.0
 49
0.0
 49
0.0
 49
1.0
175
     0
142
0.0008202099737533
142
0.0
142
0.0
142
0.0
142
0.0
142
0.0008202099737533
142
0.0
142
0.0
142
0.0
142
0.0
142
1.0
142
0.0
142
0.0
142
0.0
142
0.0
142
1.0
179
     0
144
0.0008202099737533
144
0.0
144
0.0
144
0.0
144
0.0
144
0.0008202099737533
144
0.0
144
0.0
144
0.0
144
0.0
144
1.0
144
0.0
144
0.0
144
0.0
144
0.0
144
1.0
147
0.0008202099737533
147
0.0
147
0.0
147
0.0
147
0.0
147
0.0008202099737533
147
0.0
147
0.0
147
0.0
147
0.0
147
1.0
147
0.0
147
0.0
147
0.0
147
0.0
147
1.0
  0
MATERIAL
  5
13C6
102
{ACAD_XDICTIONARY
360
13C7
102
}
102
{ACAD_REACTORS
330
13B5
102
}
330
13B5
100
AcDbMaterial
  1
Global
 72
     0
 43
0.0008202099737533
 43
0.0
 43
0.0
 43
0.0
 43
0.0
 43
0.0008202099737533
 43
0.0
 43
0.0
 43
0.0
 43
0.0
 43
1.0
 43
0.0
 43
0.0
 43
0.0
 43
0.0
 43
1.0
 77
     0
 47
0.0008202099737533
 47
0.0
 47
0.0
 47
0.0
 47
0.0
 47
0.0008202099737533
 47
0.0
 47
0.0
 47
0.0
 47
0.0
 47
1.0
 47
0.0
 47
0.0
 47
0.0
 47
0.0
 47
1.0
171
     0
 49
0.0008202099737533
 49
0.0
 49
0.0
 49
0.0
 49
0.0
 49
0.0008202099737533
 49
0.0
 49
0.0
 49
0.0
 49
0.0
 49
1.0
 49
0.0
 49
0.0
 49
0.0
 49
0.0
 49
1.0
175
     0
142
0.0008202099737533
142
0.0
142
0.0
142
0.0
142
0.0
142
0.0008202099737533
142
0.0
142
0.0
142
0.0
142
0.0
142
1.0
142
0.0
142
0.0
142
0.0
142
0.0
142
1.0
179
     0
144
0.0008202099737533
144
0.0
144
0.0
144
0.0
144
0.0
144
0.0008202099737533
144
0.0
144
0.0
144
0.0
144
0.0
144
1.0
144
0.0
144
0.0
144
0.0
144
0.0
144
1.0
147
0.0008202099737533
147
0.0
147
0.0
147
0.0
147
0.0
147
0.0008202099737533
147
0.0
147
0.0
147
0.0
147
0.0
147
1.0
147
0.0
147
0.0
147
0.0
147
0.0
147
1.0
  0
MLEADERSTYLE
  5
13F5
102
{ACAD_REACTORS
330
13F4
102
}
330
13F4
100
AcDbMLeaderStyle
170
     2
171
     1
172
     0
 90
        2
 40
0.0
 41
0.0
173
     1
 91
-1056964608
340
14
 92
       -2
290
     1
 42
2.0
291
     1
 43
0.36
  3
Standard
 44
4.0
300

342
11
174
     1
178
     6
175
     1
176
     0
 93
-1056964608
 45
4.0
292
     0
297
     0
 46
4.0
 94
-1056964608
 47
1.0
 49
1.0
140
1.0
293
     1
141
0.0
294
     1
177
     0
142
1.0
295
     0
296
     0
143
0.125
1001
ACAD_MLEADERVER
1070
     2
  0
MLINESTYLE
  5
18
102
{ACAD_REACTORS
330
17
102
}
330
17
100
AcDbMlineStyle
  2
STANDARD
 70
     0
  3

 62
   256
 51
90.0
 52
90.0
 71
     2
 49
0.5
 62
   256
  6
BYLAYER
 49
-0.5
 62
   256
  6
BYLAYER
  0
ACDBPLACEHOLDER
  5
F
102
{ACAD_REACTORS
330
E
102
}
330
E
  0
SCALE
  5
13E3
102
{ACAD_REACTORS
330
13E2
102
}
330
13E2
100
AcDbScale
 70
     0
300
1:1
140
1.0
141
1.0
290
     1
  0
SCALE
  5
13E4
102
{ACAD_REACTORS
330
13E2
102
}
330
13E2
100
AcDbScale
 70
     0
300
1:2
140
1.0
141
2.0
290
     0
  0
SCALE
  5
13E5
102
{ACAD_REACTORS
330
13E2
102
}
330
13E2
100
AcDbScale
 70
     0
300
1:4
140
1.0
141
4.0
290
     0
  0
SCALE
  5
13E6
102
{ACAD_REACTORS
330
13E2
102
}
330
13E2
100
AcDbScale
 70
     0
300
1:5
140
1.0
141
5.0
290
     0
  0
SCALE
  5
13E7
102
{ACAD_REACTORS
330
13E2
102
}
330
13E2
100
AcDbScale
 70
     0
300
1:8
140
1.0
141
8.0
290
     0
  0
SCALE
  5
13E8
102
{ACAD_REACTORS
330
13E2
102
}
330
13E2
100
AcDbScale
 70
     0
300
1:10
140
1.0
141
10.0
290
     0
  0
SCALE
  5
13E9
102
{ACAD_REACTORS
330
13E2
102
}
330
13E2
100
AcDbScale
 70
     0
300
1:16
140
1.0
141
16.0
290
     0
  0
SCALE
  5
13EA
102
{ACAD_REACTORS
330
13E2
102
}
330
13E2
100
AcDbScale
 70
     0
300
1:20
140
1.0
141
20.0
290
     0
  0
SCALE
  5
13EB
102
{ACAD_REACTORS
330
13E2
102
}
330
13E2
100
AcDbScale
 70
     0
300
1:30
140
1.0
141
30.0
290
     0
  0
SCALE
  5
13EC
102
{ACAD_REACTORS
330
13E2
102
}
330
13E2
100
AcDbScale
 70
     0
300
1:40
140
1.0
141
40.0
290
     0
  0
SCALE
  5
13ED
102
{ACAD_REACTORS
330
13E2
102
}
330
13E2
100
AcDbScale
 70
     0
300
1:50
140
1.0
141
50.0
290
     0
  0
SCALE
  5
13EE
102
{ACAD_REACTORS
330
13E2
102
}
330
13E2
100
AcDbScale
 70
     0
300
1:100
140
1.0
141
100.0
290
     0
  0
SCALE
  5
13EF
102
{ACAD_REACTORS
330
13E2
102
}
330
13E2
100
AcDbScale
 70
     0
300
2:1
140
2.0
141
1.0
290
     0
  0
SCALE
  5
13F0
102
{ACAD_REACTORS
330
13E2
102
}
330
13E2
100
AcDbScale
 70
     0
300
4:1
140
4.0
141
1.0
290
     0
  0
SCALE
  5
13F1
102
{ACAD_REACTORS
330
13E2
102
}
330
13E2
100
AcDbScale
 70
     0
300
8:1
140
8.0
141
1.0
290
     0
  0
SCALE
  5
13F2
102
{ACAD_REACTORS
330
13E2
102
}
330
13E2
100
AcDbScale
 70
     0
300
10:1
140
10.0
141
1.0
290
     0
  0
SCALE
  5
13F3
102
{ACAD_REACTORS
330
13E2
102
}
330
13E2
100
AcDbScale
 70
     0
300
100:1
140
100.0
141
1.0
290
     0
  0
TABLESTYLE
  5
13E1
102
{ACAD_XDICTIONARY
360
149D
102
}
102
{ACAD_REACTORS
330
13E0
102
}
330
13E0
100
AcDbTableStyle
  3
Standard
 70
     0
 71
     0
 40
1.5
 41
1.5
280
     0
281
     0
  7
STANDARD
140
4.5
170
     2
 62
     0
 63
     7
283
     0
274
    -2
284
     1
 64
     0
275
    -2
285
     1
 65
     0
276
    -2
286
     1
 66
     0
277
    -2
287
     1
 67
     0
278
    -2
288
     1
 68
     0
279
    -2
289
     1
 69
     0
  7
STANDARD
140
6.0
170
     5
 62
     0
 63
     7
283
     0
274
    -2
284
     1
 64
     0
275
    -2
285
     1
 65
     0
276
    -2
286
     1
 66
     0
277
    -2
287
     1
 67
     0
278
    -2
288
     1
 68
     0
279
    -2
289
     1
 69
     0
  7
STANDARD
140
4.5
170
     5
 62
     0
 63
     7
283
     0
274
    -2
284
     1
 64
     0
275
    -2
285
     1
 65
     0
276
    -2
286
     1
 66
     0
277
    -2
287
     1
 67
     0
278
    -2
288
     1
 68
     0
279
    -2
289
     1
 69
     0
  0
VISUALSTYLE
  5
13D4
102
{ACAD_XDICTIONARY
360
1C04
102
}
102
{ACAD_REACTORS
330
13CE
102
}
330
13CE
100
AcDbVisualStyle
  2
2dWireframe
 70
     4
 71
     0
 72
     2
 73
     0
 90
        0
 40
-0.6
 41
-30.0
 62
     5
 63
     7
421
 16777215
 74
     1
 91
        4
 64
     7
 65
   257
 75
     1
175
     1
 42
1.0
 92
        0
 66
   257
 43
1.0
 76
     1
 77
     6
 78
     2
 67
     7
 79
     5
170
     0
171
     0
290
     0
174
     0
 93
        1
 44
0.0
173
     0
291
     0
 45
0.0
1001
ACAD
1000
AcDbSavedByObjectVersion
1070
     0
  0
VISUALSTYLE
  5
13D6
102
{ACAD_XDICTIONARY
360
1C08
102
}
102
{ACAD_REACTORS
330
13CE
102
}
330
13CE
100
AcDbVisualStyle
  2
3D Hidden
 70
     6
 71
     1
 72
     2
 73
     2
 90
        0
 40
-0.6
 41
-30.0
 62
     5
 63
     7
421
 16777215
 74
     2
 91
        2
 64
     7
 65
   257
 75
     2
175
     1
 42
40.0
 92
        0
 66
   257
 43
1.0
 76
     1
 77
     6
 78
     2
 67
     7
 79
     3
170
     0
171
     0
290
     0
174
     0
 93
        1
 44
0.0
173
     0
291
     0
 45
0.0
1001
ACAD
1000
AcDbSavedByObjectVersion
1070
     0
  0
VISUALSTYLE
  5
13D5
102
{ACAD_XDICTIONARY
360
1C06
102
}
102
{ACAD_REACTORS
330
13CE
102
}
330
13CE
100
AcDbVisualStyle
  2
3dWireframe
 70
     5
 71
     0
 72
     2
 73
     0
 90
        0
 40
-0.6
 41
-30.0
 62
     5
 63
     7
421
 16777215
 74
     1
 91
        4
 64
     7
 65
   257
 75
     1
175
     1
 42
1.0
 92
        0
 66
   257
 43
1.0
 76
     1
 77
     6
 78
     2
 67
     7
 79
     5
170
     0
171
     0
290
     0
174
     0
 93
        1
 44
0.0
173
     0
291
     0
 45
0.0
1001
ACAD
1000
AcDbSavedByObjectVersion
1070
     0
  0
VISUALSTYLE
  5
13D3
102
{ACAD_XDICTIONARY
360
1C02
102
}
102
{ACAD_REACTORS
330
13CE
102
}
330
13CE
100
AcDbVisualStyle
  2
Basic
 70
     7
 71
     1
 72
     0
 73
     1
 90
        0
 40
-0.6
 41
-30.0
 62
     5
 63
     7
421
 16777215
 74
     0
 91
        4
 64
     7
 65
   257
 75
     1
175
     1
 42
1.0
 92
        8
 66
     7
 43
1.0
 76
     1
 77
     6
 78
     2
 67
     7
 79
     5
170
     0
171
     0
290
     0
174
     0
 93
        1
 44
0.0
173
     0
291
     1
 45
0.0
1001
ACAD
1000
AcDbSavedByObjectVersion
1070
     0
  0
VISUALSTYLE
  5
13DA
102
{ACAD_XDICTIONARY
360
1C10
102
}
102
{ACAD_REACTORS
330
13CE
102
}
330
13CE
100
AcDbVisualStyle
  2
Brighten
 70
    12
 71
     2
 72
     2
 73
     0
 90
        0
 40
-0.6
 41
-30.0
 62
     5
 63
     7
421
 16777215
 74
     1
 91
        4
 64
     7
 65
   257
 75
     1
175
     1
 42
1.0
 92
        8
 66
     7
 43
1.0
 76
     1
 77
     6
 78
     2
 67
     7
 79
     5
170
     0
171
     0
290
     0
174
     0
 93
        1
 44
50.0
173
     0
291
     1
 45
0.0
1001
ACAD
1000
AcDbSavedByObjectVersion
1070
     0
  0
VISUALSTYLE
  5
13DE
102
{ACAD_XDICTIONARY
360
1C18
102
}
102
{ACAD_REACTORS
330
13CE
102
}
330
13CE
100
AcDbVisualStyle
  2
ColorChange
 70
    16
 71
     2
 72
     2
 73
     3
 90
        0
 40
-0.6
 41
-30.0
 62
     5
 63
     8
421
  8421504
 74
     1
 91
        4
 64
     7
 65
   257
 75
     1
175
     1
 42
1.0
 92
        8
 66
     8
424
  8421504
 43
1.0
 76
     1
 77
     6
 78
     2
 67
     7
 79
     5
170
     0
171
     0
290
     0
174
     0
 93
        1
 44
0.0
173
     0
291
     1
 45
0.0
1001
ACAD
1000
AcDbSavedByObjectVersion
1070
     0
  0
VISUALSTYLE
  5
13D7
102
{ACAD_XDICTIONARY
360
1C0A
102
}
102
{ACAD_REACTORS
330
13CE
102
}
330
13CE
100
AcDbVisualStyle
  2
Conceptual
 70
     9
 71
     3
 72
     2
 73
     0
 90
        0
 40
-0.6
 41
-30.0
 62
     5
 63
     7
421
 16777215
 74
     2
 91
        2
 64
     7
 65
   257
 75
     1
175
     1
 42
40.0
 92
        8
 66
     7
 43
1.0
 76
     1
 77
     6
 78
     2
 67
     7
 79
     3
170
     0
171
     0
290
     0
174
     0
 93
        1
 44
0.0
173
     0
291
     0
 45
0.0
1001
ACAD
1000
AcDbSavedByObjectVersion
1070
     0
  0
VISUALSTYLE
  5
13D9
102
{ACAD_XDICTIONARY
360
1C0E
102
}
102
{ACAD_REACTORS
330
13CE
102
}
330
13CE
100
AcDbVisualStyle
  2
Dim
 70
    11
 71
     2
 72
     2
 73
     0
 90
        0
 40
-0.6
 41
-30.0
 62
     5
 63
     7
421
 16777215
 74
     1
 91
        4
 64
     7
 65
   257
 75
     1
175
     1
 42
1.0
 92
        8
 66
     7
 43
1.0
 76
     1
 77
     6
 78
     2
 67
     7
 79
     5
170
     0
171
     0
290
     0
174
     0
 93
        1
 44
-50.0
173
     0
291
     1
 45
0.0
1001
ACAD
1000
AcDbSavedByObjectVersion
1070
     0
  0
VISUALSTYLE
  5
14F0
102
{ACAD_XDICTIONARY
360
1C2D
102
}
102
{ACAD_REACTORS
330
13CE
102
}
330
13CE
100
AcDbVisualStyle
  2
EdgeColorOff
 70
    22
 71
     2
 72
     2
 73
     0
 90
        0
 40
-0.6
 41
-30.0
 62
     5
 63
     7
421
 16777215
 74
     1
 91
        4
 64
     7
 65
   257
 75
     1
175
     1
 42
1.0
 92
        8
 66
     7
 43
1.0
 76
     1
 77
     6
 78
     2
 67
     7
 79
     5
170
     0
171
     0
290
     0
174
     0
 93
        1
 44
0.0
173
     0
291
     1
 45
0.0
1001
ACAD
1000
AcDbSavedByObjectVersion
1070
     0
  0
VISUALSTYLE
  5
13DD
102
{ACAD_XDICTIONARY
360
1C16
102
}
102
{ACAD_REACTORS
330
13CE
102
}
330
13CE
100
AcDbVisualStyle
  2
Facepattern
 70
    15
 71
     2
 72
     2
 73
     0
 90
        0
 40
-0.6
 41
-30.0
 62
     5
 63
     7
421
 16777215
 74
     1
 91
        4
 64
     7
 65
   257
 75
     1
175
     1
 42
1.0
 92
        8
 66
     7
 43
1.0
 76
     1
 77
     6
 78
     2
 67
     7
 79
     5
170
     0
171
     0
290
     0
174
     0
 93
        1
 44
0.0
173
     0
291
     1
 45
0.0
1001
ACAD
1000
AcDbSavedByObjectVersion
1070
     0
  0
VISUALSTYLE
  5
13CF
102
{ACAD_XDICTIONARY
360
1BFA
102
}
102
{ACAD_REACTORS
330
13CE
102
}
330
13CE
100
AcDbVisualStyle
  2
Flat
 70
     0
 71
     2
 72
     1
 73
     1
 90
        2
 40
-0.6
 41
30.0
 62
     5
 63
     7
421
 16777215
 74
     0
 91
        4
 64
     7
 65
   257
 75
     1
175
     1
 42
1.0
 92
        8
 66
     7
 43
1.0
 76
     1
 77
     6
 78
     2
 67
     7
 79
     5
170
     0
171
     0
290
     0
174
     0
 93
       13
 44
0.0
173
     0
291
     1
 45
0.0
1001
ACAD
1000
AcDbSavedByObjectVersion
1070
     0
  0
VISUALSTYLE
  5
13D0
102
{ACAD_XDICTIONARY
360
1BFC
102
}
102
{ACAD_REACTORS
330
13CE
102
}
330
13CE
100
AcDbVisualStyle
  2
FlatWithEdges
 70
     1
 71
     2
 72
     1
 73
     1
 90
        2
 40
-0.6
 41
30.0
 62
     5
 63
     7
421
 16777215
 74
     1
 91
        4
 64
     7
 65
   257
 75
     1
175
     1
 42
1.0
 92
        0
 66
   257
 43
1.0
 76
     1
 77
     6
 78
     2
 67
     7
 79
     5
170
     0
171
     0
290
     0
174
     0
 93
       13
 44
0.0
173
     0
291
     1
 45
0.0
1001
ACAD
1000
AcDbSavedByObjectVersion
1070
     0
  0
VISUALSTYLE
  5
13D1
102
{ACAD_XDICTIONARY
360
1BFE
102
}
102
{ACAD_REACTORS
330
13CE
102
}
330
13CE
100
AcDbVisualStyle
  2
Gouraud
 70
     2
 71
     2
 72
     2
 73
     1
 90
        2
 40
-0.6
 41
30.0
 62
     5
 63
     7
421
 16777215
 74
     0
 91
        4
 64
     7
 65
   257
 75
     1
175
     1
 42
1.0
 92
        0
 66
     7
 43
1.0
 76
     1
 77
     6
 78
     2
 67
     7
 79
     5
170
     0
171
     0
290
     0
174
     0
 93
       13
 44
0.0
173
     0
291
     1
 45
0.0
1001
ACAD
1000
AcDbSavedByObjectVersion
1070
     0
  0
VISUALSTYLE
  5
13D2
102
{ACAD_XDICTIONARY
360
1C00
102
}
102
{ACAD_REACTORS
330
13CE
102
}
330
13CE
100
AcDbVisualStyle
  2
GouraudWithEdges
 70
     3
 71
     2
 72
     2
 73
     1
 90
        2
 40
-0.6
 41
30.0
 62
     5
 63
     7
421
 16777215
 74
     1
 91
        4
 64
     7
 65
   257
 75
     1
175
     1
 42
1.0
 92
        0
 66
   257
 43
1.0
 76
     1
 77
     6
 78
     2
 67
     7
 79
     5
170
     0
171
     0
290
     0
174
     0
 93
       13
 44
0.0
173
     0
291
     1
 45
0.0
1001
ACAD
1000
AcDbSavedByObjectVersion
1070
     0
  0
VISUALSTYLE
  5
14E8
102
{ACAD_XDICTIONARY
360
1C1D
102
}
102
{ACAD_REACTORS
330
13CE
102
}
330
13CE
100
AcDbVisualStyle
  2
Hidden
 70
     6
 71
     1
 72
     2
 73
     2
 90
        0
 40
-0.6
 41
-30.0
 62
     5
 63
     7
421
 16777215
 74
     2
 91
        2
 64
     7
 65
   257
 75
     2
175
     1
 42
40.0
 92
        0
 66
   257
 43
1.0
 76
     1
 77
     6
 78
     2
 67
     7
 79
     3
170
     0
171
     0
290
     0
174
     0
 93
        1
 44
0.0
173
     0
291
     0
 45
0.0
1001
ACAD
1000
AcDbSavedByObjectVersion
1070
     0
  0
VISUALSTYLE
  5
14EE
102
{ACAD_XDICTIONARY
360
1C29
102
}
102
{ACAD_REACTORS
330
13CE
102
}
330
13CE
100
AcDbVisualStyle
  2
JitterOff
 70
    20
 71
     2
 72
     2
 73
     0
 90
        0
 40
-0.6
 41
-30.0
 62
     5
 63
     7
421
 16777215
 74
     1
 91
        4
 64
     7
 65
   257
 75
     1
175
     1
 42
1.0
 92
       10
 66
     7
 43
1.0
 76
     1
 77
     6
 78
     2
 67
     7
 79
     5
170
     0
171
     0
290
     0
174
     0
 93
        1
 44
0.0
173
     0
291
     1
 45
0.0
1001
ACAD
1000
AcDbSavedByObjectVersion
1070
     0
  0
VISUALSTYLE
  5
13DC
102
{ACAD_XDICTIONARY
360
1C14
102
}
102
{ACAD_REACTORS
330
13CE
102
}
330
13CE
100
AcDbVisualStyle
  2
Linepattern
 70
    14
 71
     2
 72
     2
 73
     0
 90
        0
 40
-0.6
 41
-30.0
 62
     5
 63
     7
421
 16777215
 74
     1
 91
        4
 64
     7
 65
   257
 75
     7
175
     7
 42
1.0
 92
        8
 66
     7
 43
1.0
 76
     1
 77
     6
 78
     2
 67
     7
 79
     5
170
     0
171
     0
290
     0
174
     0
 93
        1
 44
0.0
173
     0
291
     1
 45
0.0
1001
ACAD
1000
AcDbSavedByObjectVersion
1070
     0
  0
VISUALSTYLE
  5
14EF
102
{ACAD_XDICTIONARY
360
1C2B
102
}
102
{ACAD_REACTORS
330
13CE
102
}
330
13CE
100
AcDbVisualStyle
  2
OverhangOff
 70
    21
 71
     2
 72
     2
 73
     0
 90
        0
 40
-0.6
 41
-30.0
 62
     5
 63
     7
421
 16777215
 74
     1
 91
        4
 64
     7
 65
   257
 75
     1
175
     1
 42
1.0
 92
        9
 66
     7
 43
1.0
 76
     1
 77
     6
 78
     2
 67
     7
 79
     5
170
     0
171
     0
290
     0
174
     0
 93
        1
 44
0.0
173
     0
291
     1
 45
0.0
1001
ACAD
1000
AcDbSavedByObjectVersion
1070
     0
  0
VISUALSTYLE
  5
13D8
102
{ACAD_XDICTIONARY
360
1C0C
102
}
102
{ACAD_REACTORS
330
13CE
102
}
330
13CE
100
AcDbVisualStyle
  2
Realistic
 70
     8
 71
     2
 72
     2
 73
     0
 90
        0
 40
-0.6
 41
-30.0
 62
     5
 63
     7
421
 16777215
 74
     1
 91
        0
 64
     7
 65
   257
 75
     1
175
     1
 42
1.0
 92
        8
 66
     8
424
  7895160
 43
1.0
 76
     1
 77
     6
 78
     2
 67
     7
 79
     5
170
     0
171
     0
290
     0
174
     0
 93
       13
 44
0.0
173
     0
291
     0
 45
0.0
1001
ACAD
1000
AcDbSavedByObjectVersion
1070
     0
  0
VISUALSTYLE
  5
14ED
102
{ACAD_XDICTIONARY
360
1C27
102
}
102
{ACAD_REACTORS
330
13CE
102
}
330
13CE
100
AcDbVisualStyle
  2
Shaded
 70
    27
 71
     2
 72
     2
 73
     1
 90
        2
 40
-0.6
 41
30.0
 62
     5
 63
     7
421
 16777215
 74
     0
 91
        4
 64
     7
 65
   257
 75
     1
175
     1
 42
1.0
 92
        8
 66
   257
 43
1.0
 76
     1
 77
     6
 78
     2
 67
     8
425
  7895160
 79
     3
170
     0
171
     0
290
     0
174
     0
 93
        5
 44
0.0
173
     0
291
     0
 45
0.0
1001
ACAD
1000
AcDbSavedByObjectVersion
1070
     0
  0
VISUALSTYLE
  5
14EC
102
{ACAD_XDICTIONARY
360
1C25
102
}
102
{ACAD_REACTORS
330
13CE
102
}
330
13CE
100
AcDbVisualStyle
  2
Shaded with edges
 70
    26
 71
     2
 72
     2
 73
     1
 90
        2
 40
-0.6
 41
30.0
 62
     5
 63
     7
421
 16777215
 74
     1
 91
       10
 64
     7
 65
   257
 75
     2
175
     1
 42
1.0
 92
        8
 66
   257
 43
1.0
 76
     1
 77
     6
 78
     2
 67
     7
 79
     3
170
     0
171
     0
290
     0
174
     0
 93
        5
 44
0.0
173
     0
291
     0
 45
0.0
1001
ACAD
1000
AcDbSavedByObjectVersion
1070
     0
  0
VISUALSTYLE
  5
14E9
102
{ACAD_XDICTIONARY
360
1C1F
102
}
102
{ACAD_REACTORS
330
13CE
102
}
330
13CE
100
AcDbVisualStyle
  2
Shades of Gray
 70
    23
 71
     2
 72
     2
 73
     3
 90
        0
 40
-0.6
 41
-30.0
 62
     5
 63
     7
421
 16777215
 74
     2
 91
        2
 64
     7
 65
     7
 75
     1
175
     1
 42
40.0
 92
        8
 66
     7
 43
1.0
 76
     1
 77
     6
 78
     2
 67
     7
 79
     3
170
     0
171
     0
290
     0
174
     0
 93
        1
 44
0.0
173
     0
291
     0
 45
0.0
1001
ACAD
1000
AcDbSavedByObjectVersion
1070
     0
  0
VISUALSTYLE
  5
14EA
102
{ACAD_XDICTIONARY
360
1C21
102
}
102
{ACAD_REACTORS
330
13CE
102
}
330
13CE
100
AcDbVisualStyle
  2
Sketchy
 70
    24
 71
     1
 72
     2
 73
     2
 90
        0
 40
-0.6
 41
-30.0
 62
     5
 63
     7
421
 16777215
 74
     2
 91
        2
 64
     7
 65
     7
 75
     1
175
     1
 42
40.0
 92
       11
 66
     7
 43
1.0
 76
     1
 77
     6
 78
     2
 67
     7
 79
     6
170
     0
171
     0
290
     0
174
     0
 93
        1
 44
0.0
173
     0
291
     0
 45
0.0
1001
ACAD
1000
AcDbSavedByObjectVersion
1070
     0
  0
VISUALSTYLE
  5
13DB
102
{ACAD_XDICTIONARY
360
1C12
102
}
102
{ACAD_REACTORS
330
13CE
102
}
330
13CE
100
AcDbVisualStyle
  2
Thicken
 70
    13
 71
     2
 72
     2
 73
     0
 90
        0
 40
-0.6
 41
-30.0
 62
     5
 63
     7
421
 16777215
 74
     1
 91
        4
 64
     7
 65
   257
 75
     1
175
     1
 42
1.0
 92
       12
 66
     7
 43
1.0
 76
     1
 77
     6
 78
     2
 67
     7
 79
     5
170
     0
171
     0
290
     0
174
     0
 93
        1
 44
0.0
173
     0
291
     1
 45
0.0
1001
ACAD
1000
AcDbSavedByObjectVersion
1070
     0
  0
VISUALSTYLE
  5
14E7
102
{ACAD_XDICTIONARY
360
1C1B
102
}
102
{ACAD_REACTORS
330
13CE
102
}
330
13CE
100
AcDbVisualStyle
  2
Wireframe
 70
     5
 71
     0
 72
     2
 73
     0
 90
        0
 40
-0.6
 41
-30.0
 62
     5
 63
     7
421
 16777215
 74
     1
 91
        4
 64
     7
 65
   257
 75
     1
175
     1
 42
1.0
 92
        0
 66
   257
 43
1.0
 76
     1
 77
     6
 78
     2
 67
     7
 79
     3
170
     0
171
     0
290
     0
174
     0
 93
        1
 44
0.0
173
     0
291
     0
 45
0.0
1001
ACAD
1000
AcDbSavedByObjectVersion
1070
     0
  0
VISUALSTYLE
  5
14EB
102
{ACAD_XDICTIONARY
360
1C23
102
}
102
{ACAD_REACTORS
330
13CE
102
}
330
13CE
100
AcDbVisualStyle
  2
X-Ray
 70
    25
 71
     2
 72
     2
 73
     1
 90
        1
 40
0.5
 41
-30.0
 62
     5
 63
     7
421
 16777215
 74
     1
 91
        0
 64
     7
 65
   257
 75
     1
175
     1
 42
1.0
 92
        8
 66
     7
 43
1.0
 76
     1
 77
     6
 78
     2
 67
     7
 79
     3
170
     0
171
     0
290
     0
174
     0
 93
       13
 44
0.0
173
     0
291
     0
 45
0.0
1001
ACAD
1000
AcDbSavedByObjectVersion
1070
     0
  0
DICTIONARYVAR
  5
14A3
102
{ACAD_REACTORS
330
86
102
}
330
86
100
DictionaryVariables
280
     0
  1
1:1
  0
DICTIONARYVAR
  5
14A1
102
{ACAD_REACTORS
330
86
102
}
330
86
100
DictionaryVariables
280
     0
  1
STANDARD
  0
DICTIONARYVAR
  5
14A0
102
{ACAD_REACTORS
330
86
102
}
330
86
100
DictionaryVariables
280
     0
  1
STANDARD
  0
DICTIONARYVAR
  5
89
102
{ACAD_REACTORS
330
86
102
}
330
86
100
DictionaryVariables
280
     0
  1
2
  0
DICTIONARYVAR
  5
88
102
{ACAD_REACTORS
330
86
102
}
330
86
100
DictionaryVariables
280
     0
  1
1
  0
DICTIONARYVAR
  5
87
102
{ACAD_REACTORS
330
86
102
}
330
86
100
DictionaryVariables
280
     0
  1
1
  0
DICTIONARYVAR
  5
14A5
102
{ACAD_REACTORS
330
86
102
}
330
86
100
DictionaryVariables
280
     0
  1
1
  0
DICTIONARYVAR
  5
14A6
102
{ACAD_REACTORS
330
86
102
}
330
86
100
DictionaryVariables
280
     0
  1
15
  0
DICTIONARYVAR
  5
14A4
102
{ACAD_REACTORS
330
86
102
}
330
86
100
DictionaryVariables
280
     0
  1
0
  0
DICTIONARYVAR
  5
14A2
102
{ACAD_REACTORS
330
86
102
}
330
86
100
DictionaryVariables
280
     0
  1
0
  0
DICTIONARY
  5
4A
102
{ACAD_REACTORS
330
45
102
}
330
45
100
AcDbDictionary
281
     1
  0
XRECORD
  5
144D
102
{ACAD_REACTORS
330
45
102
}
330
45
100
AcDbXrecord
280
     1
 90
-1023410169
  0
DICTIONARY
  5
15AA
330
22
100
AcDbDictionary
280
     1
281
     1
  3
ADSK_XREC_LAYOUTTHUMBNAIL
360
15AB
  0
DICTIONARY
  5
13BF
330
13BE
100
AcDbDictionary
280
     1
281
     1
  3
ACAD_XREC_ROUNDTRIP
360
1BF8
  3
BUMPTILE
360
13C1
  3
DIFFUSETILE
360
13C0
  3
OPACITYTILE
360
13C4
  3
REFLECTIONTILE
360
13C3
  3
REFRACTIONTILE
360
13C5
  3
SPECULARTILE
360
13C2
  0
DICTIONARY
  5
13B7
330
13B6
100
AcDbDictionary
280
     1
281
     1
  3
ACAD_XREC_ROUNDTRIP
360
1BF7
  3
BUMPTILE
360
13B9
  3
DIFFUSETILE
360
13B8
  3
OPACITYTILE
360
13BC
  3
REFLECTIONTILE
360
13BB
  3
REFRACTIONTILE
360
13BD
  3
SPECULARTILE
360
13BA
  0
DICTIONARY
  5
13C7
330
13C6
100
AcDbDictionary
280
     1
281
     1
  3
ACAD_XREC_ROUNDTRIP
360
1BF9
  3
BUMPTILE
360
13C9
  3
DIFFUSETILE
360
13C8
  3
OPACITYTILE
360
13CC
  3
REFLECTIONTILE
360
13CB
  3
REFRACTIONTILE
360
13CD
  3
SPECULARTILE
360
13CA
  0
DICTIONARY
  5
149D
330
13E1
100
AcDbDictionary
280
     1
281
     1
  3
ACAD_ROUNDTRIP_2008_TABLESTYLE_CELLSTYLEMAP
360
1BF5
  3
ACAD_XREC_ROUNDTRIP
360
1C1A
  0
DICTIONARY
  5
1C04
330
13D4
100
AcDbDictionary
280
     1
281
     1
  3
ACAD_XREC_ROUNDTRIP
360
1C05
  0
DICTIONARY
  5
1C08
330
13D6
100
AcDbDictionary
280
     1
281
     1
  3
ACAD_XREC_ROUNDTRIP
360
1C09
  0
DICTIONARY
  5
1C06
330
13D5
100
AcDbDictionary
280
     1
281
     1
  3
ACAD_XREC_ROUNDTRIP
360
1C07
  0
DICTIONARY
  5
1C02
330
13D3
100
AcDbDictionary
280
     1
281
     1
  3
ACAD_XREC_ROUNDTRIP
360
1C03
  0
DICTIONARY
  5
1C10
330
13DA
100
AcDbDictionary
280
     1
281
     1
  3
ACAD_XREC_ROUNDTRIP
360
1C11
  0
DICTIONARY
  5
1C18
330
13DE
100
AcDbDictionary
280
     1
281
     1
  3
ACAD_XREC_ROUNDTRIP
360
1C19
  0
DICTIONARY
  5
1C0A
330
13D7
100
AcDbDictionary
280
     1
281
     1
  3
ACAD_XREC_ROUNDTRIP
360
1C0B
  0
DICTIONARY
  5
1C0E
330
13D9
100
AcDbDictionary
280
     1
281
     1
  3
ACAD_XREC_ROUNDTRIP
360
1C0F
  0
DICTIONARY
  5
1C2D
330
14F0
100
AcDbDictionary
280
     1
281
     1
  3
ACAD_XREC_ROUNDTRIP
360
1C2E
  0
DICTIONARY
  5
1C16
330
13DD
100
AcDbDictionary
280
     1
281
     1
  3
ACAD_XREC_ROUNDTRIP
360
1C17
  0
DICTIONARY
  5
1BFA
330
13CF
100
AcDbDictionary
280
     1
281
     1
  3
ACAD_XREC_ROUNDTRIP
360
1BFB
  0
DICTIONARY
  5
1BFC
330
13D0
100
AcDbDictionary
280
     1
281
     1
  3
ACAD_XREC_ROUNDTRIP
360
1BFD
  0
DICTIONARY
  5
1BFE
330
13D1
100
AcDbDictionary
280
     1
281
     1
  3
ACAD_XREC_ROUNDTRIP
360
1BFF
  0
DICTIONARY
  5
1C00
330
13D2
100
AcDbDictionary
280
     1
281
     1
  3
ACAD_XREC_ROUNDTRIP
360
1C01
  0
DICTIONARY
  5
1C1D
330
14E8
100
AcDbDictionary
280
     1
281
     1
  3
ACAD_XREC_ROUNDTRIP
360
1C1E
  0
DICTIONARY
  5
1C29
330
14EE
100
AcDbDictionary
280
     1
281
     1
  3
ACAD_XREC_ROUNDTRIP
360
1C2A
  0
DICTIONARY
  5
1C14
330
13DC
100
AcDbDictionary
280
     1
281
     1
  3
ACAD_XREC_ROUNDTRIP
360
1C15
  0
DICTIONARY
  5
1C2B
330
14EF
100
AcDbDictionary
280
     1
281
     1
  3
ACAD_XREC_ROUNDTRIP
360
1C2C
  0
DICTIONARY
  5
1C0C
330
13D8
100
AcDbDictionary
280
     1
281
     1
  3
ACAD_XREC_ROUNDTRIP
360
1C0D
  0
DICTIONARY
  5
1C27
330
14ED
100
AcDbDictionary
280
     1
281
     1
  3
ACAD_XREC_ROUNDTRIP
360
1C28
  0
DICTIONARY
  5
1C25
330
14EC
100
AcDbDictionary
280
     1
281
     1
  3
ACAD_XREC_ROUNDTRIP
360
1C26
  0
DICTIONARY
  5
1C1F
330
14E9
100
AcDbDictionary
280
     1
281
     1
  3
ACAD_XREC_ROUNDTRIP
360
1C20
  0
DICTIONARY
  5
1C21
330
14EA
100
AcDbDictionary
280
     1
281
     1
  3
ACAD_XREC_ROUNDTRIP
360
1C22
  0
DICTIONARY
  5
1C12
330
13DB
100
AcDbDictionary
280
     1
281
     1
  3
ACAD_XREC_ROUNDTRIP
360
1C13
  0
DICTIONARY
  5
1C1B
330
14E7
100
AcDbDictionary
280
     1
281
     1
  3
ACAD_XREC_ROUNDTRIP
360
1C1C
  0
DICTIONARY
  5
1C23
330
14EB
100
AcDbDictionary
280
     1
281
     1
  3
ACAD_XREC_ROUNDTRIP
360
1C24
  0
XRECORD
  5
15AB
102
{ACAD_REACTORS
330
15AA
102
}
330
15AA
100
AcDbXrecord
280
     1
310
28000000000100007100000001000800000000000071000000000000000000000001000000000000FFFFFF0000000000FFFFFF000000000000000000000000000000000000000000000000000000000000000000330000006600000099000000CC000000FF00000000330000333300006633000099330000CC330000FF3300
310
0000660000336600006666000099660000CC660000FF66000000990000339900006699000099990000CC990000FF99000000CC000033CC000066CC000099CC0000CCCC0000FFCC000000FF000033FF000066FF000099FF0000CCFF0000FFFF000000003300330033006600330099003300CC003300FF003300003333003333
310
33006633330099333300CC333300FF33330000663300336633006666330099663300CC663300FF66330000993300339933006699330099993300CC993300FF99330000CC330033CC330066CC330099CC3300CCCC3300FFCC330000FF330033FF330066FF330099FF3300CCFF3300FFFF330000006600330066006600660099
310
006600CC006600FF00660000336600333366006633660099336600CC336600FF33660000666600336666006666660099666600CC666600FF66660000996600339966006699660099996600CC996600FF99660000CC660033CC660066CC660099CC6600CCCC6600FFCC660000FF660033FF660066FF660099FF6600CCFF6600
310
FFFF660000009900330099006600990099009900CC009900FF00990000339900333399006633990099339900CC339900FF33990000669900336699006666990099669900CC669900FF66990000999900339999006699990099999900CC999900FF99990000CC990033CC990066CC990099CC9900CCCC9900FFCC990000FF99
310
0033FF990066FF990099FF9900CCFF9900FFFF99000000CC003300CC006600CC009900CC00CC00CC00FF00CC000033CC003333CC006633CC009933CC00CC33CC00FF33CC000066CC003366CC006666CC009966CC00CC66CC00FF66CC000099CC003399CC006699CC009999CC00CC99CC00FF99CC0000CCCC0033CCCC0066CC
310
CC0099CCCC00CCCCCC00FFCCCC0000FFCC0033FFCC0066FFCC0099FFCC00CCFFCC00FFFFCC000000FF003300FF006600FF009900FF00CC00FF00FF00FF000033FF003333FF006633FF009933FF00CC33FF00FF33FF000066FF003366FF006666FF009966FF00CC66FF00FF66FF000099FF003399FF006699FF009999FF00CC
310
99FF00FF99FF0000CCFF0033CCFF0066CCFF0099CCFF00CCCCFF00FFCCFF0000FFFF0033FFFF0066FFFF0099FFFF00CCFFFF00FFFFFF00000000000D0D0D001A1A1A00282828003535350043434300505050005D5D5D006B6B6B00787878008686860093939300A1A1A100AEAEAE00BBBBBB00C9C9C900D6D6D600E4E4E400
310
F1F1F100FFFFFF000000000000000000000000000000000000000000000000000000000000000000000000000000000000000000000000000000000000000000000000000000000000000000000000000000000000000000000000000000000000000000000000000000000000000000000000000000000000000000000000
310
00000000000000000000000000000000000000000000000000000000000000000000000000000000000000000000000000000000000000000000000000000000000000000000000000000000000000000000000000000000000000000000000000000000000000000000000000000000000000000000000000000000000000
310
00000000000000000000000000000000000000000000000000000000000000000000000000000000000000000000000000000000000000000000000000000000000000000000000000000000000000000000000000000000000000000000000000000000000000000000000000000000000000000000000000000000000000
310
00000000000000000000000000000000000000000000000000000000000000000000000000000000000000000000000000000000000000000000000000000000000000000000000000000000000000000000000000000000000000000000000000000000000000000000000000000000000000000000000000000000000000
310
00000000000000000000000000000000000000000000000000000000000000000000000000000000000000000000000000000000000000000000000000000000000000000000000000000000000000000000000000000000000000000000000000000000000000000000000000000000000000000000000000000000000000
310
00000000000000000000000000000000000000000000000000000000000000000000000000000000000000000000000000000000000000000000000000000000000000000000000000000000000000000000000000000000000000000000000000000000000000000000000000000000000000000000000000000000000000
310
00000000000000000000000000000000000000000000000000000000000000000000000000000000000000000000000000000000000000000000000000000000000000000000000000000000000000000000000000000000000000000000000000000000000000000000000000000000000000000000000000000000000000
310
00000000000000000000000000000000000000000000000000000000000000000000000000000000000000000000000000000000000000000000000000000000000000000000000000000000000000000000000000000000000000000000000000000000000000000000000000000000000000000000000000000000000000
310
00000000000000000000000000000000000000000000000000000000000000000000000000000000000000000000000000000000000000000000000000000000000000000000000000000000000000000000000000000000000000000000000000000000000000000000000000000000000000000000000000000000000000
310
00000000000000000000000000000000000000000000000000000000000000000000000000000000000000000000000000000000000000000000000000000000000000000000000000000000000000000000000000000000000000000000000000000000000000000000000000000000000000000000000000000000000000
310
00000000000000000000000000000000000000000000000000000000000000000000000000000000000000000000000000000000000000000000000000000000000000000000000000000000000000000000000000000000000000000000000000000000000000000000000000000000000000000000000000000000000000
310
00000000000000000000000000000000000000000000000000000000000000000000000000000000000000000000000000000000000000000000000000000000000000000000000000000000000000000000000000000000000000000000000000000000000000000000000000000000000000000000000000000000000000
310
00000000000000000000000000000000000000000000000000000000000000000000000000000000000000000000000000000000000000000000000000000000000000000000000000000000000000000000000000000000000000000000000000000000000000000000000000000000000000000000000000000000000000
310
00000000000000000000000000000000000000000000000000000000000000000000000000000000000000000000000000000000000000000000000000000000000000000000000000000000000000000000000000000000000000000000000000000000000000000000000000000000000000000000000000000000000000
310
00000000000000000000000000000000000000000000000000000000000000000000000000000000000000000000000000000000000000000000000000000000000000000000000000000000000000000000000000000000000000000000000000000000000000000000000000000000000000000000000000000000000000
310
00000000000000000000000000000000000000000000000000000000000000000000000000000000000000000000000000000000000000000000000000000000000000000000000000000000000000000000000000000000000000000000000000000000000000000000000000000000000000000000000000000000000000
310
00000000000000000000000000000000000000000000000000000000000000000000000000000000000000000000000000000000000000000000000000000000000000000000000000000000000000000000000000000000000000000000000000000000000000000000000000000000000000000000000000000000000000
310
00000000000000000000000000000000000000000000000000000000000000000000000000000000000000000000000000000000000000000000000000000000000000000000000000000000000000000000000000000000000000000000000000000000000000000000000000000000000000000000000000000000000000
310
00000000000000000000000000000000000000000000000000000000000000000000000000000000000000000000000000000000000000000000000000000000000000000000000000000000000000000000000000000000000000000000000000000000000000000000000000000000000000000000000000000000000000
310
00000000000000000000000000000000000000000000000000000000000000000000000000000000000000000000000000000000000000000000000000000000000000000000000000000000000000000000000000000000000000000000000000000000000000000000000000000000000000000000000000000000000000
310
00000000000000000000000000000000000000000000000000000000000000000000000000000000000000000000000000000000000000000000000000000000000000000000000000000000000000000000000000000000000000000000000000000000000000000000000000000000000000000000000000000000000000
310
000000000000000000000000000000000000000000000000000000000000000000000000000000000000000000000000000000000000000000000000000000000000000000000000000000000000000000000000000000000000000000E2E2E2E2E20000000000000000000000000000000000000000000000000000000000
310
00000000000000000000000000000000000000000000000000000000000000000000000000000000000000000000000000000000000000000000000000000000000000000000000000000000000000000000000000000000000000000000000000000000000000000000000000000000000000000000000000000000000000
310
000000000000000000000000000000000000000000000000000000000000000000000000000000000000000000000000000000000000000000000000000000000000000000000000000000000000000000000000000000000000000000E2E2C3C3C3C3C3E2E200000000000000000000000000000000000000000000000000
310
00000000000000000000000000000000000000000000000000000000000000000000000000000000000000000000000000000000000000000000000000000000000000000000000000000000000000000000000000000000000000000000000000000000000000000000000000000000000000000000000000000000000000
310
000000000000000000000000000000000000000000000000000000000000000000000000000000000000000000000000000000000000000000000000000000000000000000000000000000000000000000000000000000000000000000E2E2C3C300000000C3C3C3E2E2000000000000000000000000000000000000000000
310
00000000000000000000000000000000000000000000000000000000000000000000000000000000000000000000000000000000000000000000000000000000000000000000000000000000000000000000000000000000000000000000000000000000000000000000000000000000000000000000000000000000000000
310
000000000000000000000000000000000000000000000000000000000000000000000000000000000000000000000000000000000000000000000000000000000000000000000000000000000000000000000000000000000000000000E2E2C3000000000000000000C3C3C3E2000000000000000000000000000000000000
310
00000000000000000000000000000000000000000000000000000000000000000000000000000000000000000000000000000000000000000000000000000000000000000000000000000000000000000000000000000000000000000000000000000000000000000000000000000000000000000000000000000000000000
310
000000000000000000000000000000000000000000000000000000000000000000000000000000000000000000000000000000000000000000000000000000000000000000000000000000000000000000000000000000000000000000E2E2C3000000E2E2E2E2E2E2E2000000C3C3E2000000000000000000000000000000
310
00000000000000000000000000000000000000000000000000000000000000000000000000000000000000000000000000000000000000000000000000000000000000000000000000000000000000000000000000000000000000000000000000000000000000000000000000000000000000000000000000000000000000
310
000000000000000000000000000000000000000000000000000000000000000000000000000000000000000000000000000000000000000000000000000000000000000000000000000000000000000000000000000000000000000000E2E2C300000000E200000000000000E2000000C3C3E2000000000000000000000000
310
00000000000000000000000000000000000000000000000000000000000000000000000000000000000000000000000000000000000000000000000000000000000000000000000000000000000000000000000000000000000000000000000000000000000000000000000000000000000000000000000000000000000000
310
000000000000000000000000000000000000000000000000000000000000000000000000000000000000000000000000000000000000000000000000000000000000000000000000000000000000000000000000000000000000000000E2E2C3C3000000E2E2000000000000000000E20000C300C3E2000000000000000000
310
00000000000000000000000000000000000000000000000000000000000000000000000000000000000000000000000000000000000000000000000000000000000000000000000000000000000000000000000000000000000000000000000000000000000000000000000000000000000000000000000000000000000000
310
00000000000000000000000000000000000000000000000000000000000000000000000000000000000000000000000000000000000000000000000000000000000000000000000000000000000000000000000000000000000000000000E2C3C3000000E2E2000000000000000000000000E20000C3C3E200000000000000
310
00000000000000000000000000000000000000000000000000000000000000000000000000000000000000000000000000000000000000000000000000000000000000000000000000000000000000000000000000000000000000000000000000000000000000000000000000000000000000000000000000000000000000
310
00000000000000000000000000000000000000000000000000000000000000000000000000000000000000000000000000000000000000000000000000000000000000000000000000000000000000000000000000000000000000000000E2E2C3000000E2E2000000000000000000000000000000E20000C3C3E200000000
310
00000000000000000000000000000000000000000000000000000000000000000000000000000000000000000000000000000000000000000000000000000000000000000000000000000000000000000000000000000000000000000000000000000000000000000000000000000000000000000000000000000000000000
310
00000000000000000000000000000000000000000000000000000000000000000000000000000000000000000000000000000000000000000000000000000000000000000000000000000000000000000000000000000000000000000000E2E2C3000000E2E20000000000000000000000000000000000E2000000C3C3E200
310
00000000000000000000000000000000000000000000000000000000000000000000000000000000000000000000000000000000000000000000000000000000000000000000000000000000000000000000000000000000000000000000000000000000000000000000000000000000000000000000000000000000000000
310
00000000000000000000000000000000000000000000000000000000000000000000000000000000000000000000000000000000000000000000000000000000000000000000000000000000000000000000000000000000000000000000E2E2C300000000E20000000000000000000000000000000000000000E2000000C3
310
C3E20000000000000000000000000000000000000000000000000000000000000000000000000000000000000000000000000000000000000000000000000000000000000000000000000000000000000000000000000000000000000000000000000000000000000000000000000000000000000000000000000000000000
310
00000000000000000000000000000000000000000000000000000000000000000000000000000000000000000000000000000000000000000000000000000000000000000000000000000000000000000000000000000000000000000000E2E2C3C3000000E2E200000000000000000000000000000000000000000000E200
310
0000C3C3E20000000000000000000000000000000000000000000000000000000000000000000000000000000000000000000000000000000000000000000000000000000000000000000000000000000000000000000000000000000000000000000000000000000000000000000000000000000000000000000000000000
310
0000000000000000000000000000000000000000000000000000000000000000000000000000000000000000000000000000000000000000000000000000000000000000000000000000000000000000000000000000000000000000000000E2C300000000E2E2000000000000000000000000000000000000000000000000
310
00E20000C3C3E2000000000000000000000000000000000000000000000000000000000000000000000000000000000000000000000000000000000000000000000000000000000000000000000000000000000000000000000000000000000000000000000000000000000000000000000000000000000000000000000000
310
0000000000000000000000000000000000000000000000000000000000000000000000000000000000000000000000000000000000000000000000000000000000000000000000000000000000000000000000000000000000000000000000E2E2C3000000E2E2000000000000000000000000000000000000000000000000
310
00000000E20000C3C3E2000000000000000000000000000000000000000000000000000000000000000000000000000000000000000000000000000000000000000000000000000000000000000000000000000000000000000000000000000000000000000000000000000000000000000000000000000000000000000000
310
0000000000000000000000000000000000000000000000000000000000000000000000000000000000000000000000000000000000000000000000000000000000000000000000000000000000000000000000000000000000000000000000E2E2C3000000E2E2000000000000000000000000000000000000000000000000
310
00000000000000E20000C3C3E2000000000000000000000000000000000000000000000000000000000000000000000000000000000000000000000000000000000000000000000000000000000000000000000000000000000000000000000000000000000000000000000000000000000000000000000000000000000000
310
0000000000000000000000000000000000000000000000000000000000000000000000000000000000000000000000000000000000000000000000000000000000000000000000000000000000000000000000000000000000000000000000E2E2C300000000E2000000000000000000000000000000000000000000000000
310
000000000000000000E200000000C3E2000000000000000000000000000000000000000000000000000000000000000000000000000000000000000000000000000000000000000000000000000000000000000000000000000000000000000000000000000000000000000000000000000000000000000000000000000000
310
000000000000000000000000000000000000000000000000000000000000000000000000000000000000000000000000000000000000000000000000000000000000000000000000000000000000000000000000000000000000000000000000E2C300000000E2E20000000000000000000000000000000000000000000000
310
000000000000000000000000E2000000C3C3E2000000000000000000000000000000000000000000000000000000000000000000000000000000000000000000000000000000000000000000000000000000000000000000000000000000000000000000000000000000000000000000000000000000000000000000000000
310
000000000000000000000000000000000000000000000000000000000000000000000000000000000000000000000000000000000000000000000000000000000000000000000000000000000000000000000000000000000000000000000000E2E2C3000000E2E20000000000000000000000000000000000000000000000
310
000000000000000000000000000000E2000000C3E200000000000000000000000000000000000000000000000000000000000000000000000000000000000000000000000000000000000000000000000000000000000000000000000000000000000000000000000000000000000000000000000000000000000000000000
310
000000000000000000000000000000000000000000000000000000000000000000000000000000000000000000000000000000000000000000000000000000000000000000000000000000000000000000000000000000000000000000000000E2E2C3000000E2E20000000000000000000000000000000000000000000000
310
000000000000000000000000000000000000E2000000C3E200000000000000000000000000000000000000000000000000000000000000000000000000000000000000000000000000000000000000000000000000000000000000000000000000000000000000000000000000000000000000000000000000000000000000
310
000000000000000000000000000000000000000000000000000000000000000000000000000000000000000000000000000000000000000000000000000000000000000000000000000000000000000000000000000000000000000000000000E2E2C3C3000000E20000000000000000000000000000000000000000000000
310
000000000000000000000000000000000000000000E2000000C3E200000000000000000000000000000000000000000000000000000000000000000000000000000000000000000000000000000000000000000000000000000000000000000000000000000000000000000000000000000000000000000000000000000000
310
000000000000000000000000000000000000000000000000000000000000000000000000000000000000000000000000000000000000000000000000000000000000000000000000000000000000000000000000000000000000000000000000E2E2C3C3000000E2E200000000000000000000000000000000000000000000
310
000000000000000000000000000000000000000000000000E20000C3C3E200000000000000000000000000000000000000000000000000000000000000000000000000000000000000000000000000000000000000000000000000000000000000000000000000000000000000000000000000000000000000000000000000
310
00000000000000000000000000000000000000000000000000000000000000000000000000000000000000000000000000000000000000000000000000000000000000000000000000000000000000000000000000000000000000000000000000E2C300000000E2E200000000000000000000000000000000000000000000
310
0000000000000000000000000000000000000000000000000000E2000000C3C3E200000000000000000000000000000000000000000000000000000000000000000000000000000000000000000000000000000000000000000000000000000000000000000000000000000000000000000000000000000000000000000000
310
00000000000000000000000000000000000000000000000000000000000000000000000000000000000000000000000000000000000000000000000000000000000000000000000000000000000000000000000000000000000000000000000000E2E2C3000000E2E200000000000000000000000000000000000000000000
310
0000000000000000000000000000000000000000000000000000000000E2000000C3E20000000000000000000000000000000000000000000000000000000000000000000000000000000000000000000000000000000000000000000000000000000000000000000000000000000000000000000000000000000000000000
310
00000000000000000000000000000000000000000000000000000000000000000000000000000000000000000000000000000000000000000000000000000000000000000000000000000000000000000000000000000000000000000000000000E2E2C3000000E2E200000000000000000000000000000000000000000000
310
0000000000000000000000000000000000000000000000000000000000000000E2000000C3E20000000000000000000000000000000000000000000000000000000000000000000000000000000000000000000000000000000000000000000000000000000000000000000000000000000000000000000000000000000000
310
00000000000000000000000000000000000000000000000000000000000000000000000000000000000000000000000000000000000000000000000000000000000000000000000000000000000000000000000000000000000000000000000000E2E2C3C3000000E200000000000000000000000000000000000000000000
310
0000000000000000000000000000000000000000000000000000000000000000000000E2000000C3E20000000000000000000000000000000000000000000000000000000000000000000000000000000000000000000000000000000000000000000000000000000000000000000000000000000000000000000000000000
310
00000000000000000000000000000000000000000000000000000000000000000000000000000000000000000000000000000000000000000000000000000000000000000000000000000000000000000000000000000000000000000000000000E2E2C300000000E2E2000000000000000000000000000000000000000000
310
0000000000000000000000000000000000000000000000000000000000000000000000000000E20000C3C3E20000000000000000000000000000000000000000000000000000000000000000000000000000000000000000000000000000000000000000000000000000000000000000000000000000000000000000000000
310
0000000000000000000000000000000000000000000000000000000000000000000000000000000000000000000000000000000000000000000000000000000000000000000000000000000000000000000000000000000000000000000000000000E2C3C3000000E2E2000000000000000000000000000000000000000000
310
0000000000000000000000000000000000000000000000000000000000000000000000000000000000E20000C300E20000000000000000000000000000000000000000000000000000000000000000000000000000000000000000000000000000000000000000000000000000000000000000000000000000000000000000
310
0000000000000000000000000000000000000000000000000000000000000000000000000000000000000000000000000000000000000000000000000000000000000000000000000000000000000000000000000000000000000000000000000000E2E2C3000000E2E2E2E2E2000000000000000000000000000000000000
310
00000000000000000000000000000000000000000000000000000000000000000000000000000000000000E2000000C3E2000000000000000000000000000000000000000000000000000000000000000000000000000000000000000000000000000000000000000000000000000000000000000000000000000000000000
310
0000000000000000000000000000000000000000000000000000000000000000000000000000000000000000000000000000000000000000000000000000000000000000000000000000000000000000000000000000000000000000000000000000E2E2C3000000E2E200E2E2E2E200000000000000000000000000000000
310
0000000000E200000000000000000000000000000000000000000000000000000000000000000000000000000000E2000000C3E2000000000000000000000000000000000000000000000000000000000000000000000000000000000000000000000000000000000000000000000000000000000000000000000000000000
310
0000000000000000000000000000000000000000000000000000000000000000000000000000000000000000000000000000000000000000000000000000000000000000000000000000000000000000000000000000000000000000000000000000E2E2C300000000E2000000E2E200000000000000000000000000000000
310
000000000000E2E2E200000000000000000000000000000000000000000000000000000000000000000000000000000000E2000000C3E2000000000000000000000000000000000000000000000000000000000000000000000000000000000000000000000000000000000000000000000000000000000000000000000000
310
0000000000000000000000000000000000000000000000000000000000000000000000000000000000000000000000000000000000000000000000000000000000000000000000000000000000000000000000000000000000000000000000000000E2E2C3C3000000E2E20000000000000000000000000000000000000000
310
000000000000E2E2000000E200000000000000000000000000000000000000000000000000000000000000000000000000000000E20000C3C3E2000000000000000000000000000000000000000000000000000000000000000000000000000000000000000000000000000000000000000000000000000000000000000000
310
000000000000000000000000000000000000000000000000000000000000000000000000000000000000000000000000000000000000000000000000000000000000000000000000000000000000000000000000000000000000000000000000000000E2C3C3000000E2E20000000000000000000000000000000000000000
310
000000000000E2E2000000000000E200000000000000000000000000000000000000000000000000000000000000000000000000000000E20000C3C3E2000000000000000000000000000000000000000000000000000000000000000000000000000000000000000000000000000000000000000000000000000000000000
310
000000000000000000000000000000000000000000000000000000000000000000000000000000000000000000000000000000000000000000000000000000000000000000000000000000000000000000000000000000000000000000000000000000E2E2C3000000E2E20000000000000000000000000000000000000000
310
000000000000E2E20000000000000000E20000000000000000000000000000000000000000000000000000000000000000000000000000000000E20000C3E200000000000000000000000000000000000000000000000000000000000000000000000000000000000000000000000000000000000000000000000000000000
310
000000000000000000000000000000000000000000000000000000000000000000000000000000000000000000000000000000000000000000000000000000000000000000000000000000000000000000000000000000000000000000000000000000E2E2C3000000E2E20000000000000000000000000000000000000000
310
000000000000E2E20000000000000000000000E20000000000000000000000000000000000000000000000000000000000000000000000000000000000E20000C3E200000000000000000000000000000000000000000000000000000000000000000000000000000000000000000000000000000000000000000000000000
310
000000000000000000000000000000000000000000000000000000000000000000000000000000000000000000000000000000000000000000000000000000000000000000000000000000000000000000000000000000000000000000000000000000E2E2C300000000E20000000000000000000000000000000000000000
310
000000000000E2E20000000000000000000000000000E200000000000000000000000000000000000000000000000000000000000000000000000000000000E20000C3C3E200000000000000000000000000000000000000000000000000000000000000000000000000000000000000000000000000000000000000000000
310
00000000000000000000000000000000000000000000000000000000000000000000000000000000000000000000000000000000000000000000000000000000000000000000000000000000000000000000000000000000000000000000000000000000E2C3C3000000E2E200000000000000000000000000000000000000
310
00000000000000E20000000000000000000000000000000000E200000000000000000000000000000000000000000000000000000000000000000000000000000000E20000C3C3E200000000000000000000000000000000000000000000000000000000000000000000000000000000000000000000000000000000000000
310
00000000000000000000000000000000000000000000000000000000000000000000000000000000000000000000000000000000000000000000000000000000000000000000000000000000000000000000000000000000000000000000000000000000E2E2C3000000E2E200000000000000000000000000000000000000
310
00000000000000E2E200000000000000000000000000000000000000E2000000000000000000000000000000000000000000000000000000000000000000000000000000E2000000C3C3E200000000000000000000000000000000000000000000000000000000000000000000000000000000000000000000000000000000
310
00000000000000000000000000000000000000000000000000000000000000000000000000000000000000000000000000000000000000000000000000000000000000000000000000000000000000000000000000000000000000000000000000000000E2E2C3000000E2E200000000000000000000000000000000000000
310
00000000000000E2E200000000000000000000000000000000000000000000E20000000000000000000000000000000000000000000000000000000000000000000000000000E200000000C3E20000000000000000000000000000000000000000000000000000000000000000000000000000000000000000000000000000
310
00000000000000000000000000000000000000000000000000000000000000000000000000000000000000000000000000000000000000000000000000000000000000000000000000000000000000000000000000000000000000000000000000000000E2E2C300000000E200000000000000000000000000000000000000
310
00000000000000E2E2000000000000000000000000000000000000000000000000E20000000000000000000000000000000000000000000000000000000000000000000000000000E20000000000C3E20000000000000000000000000000000000000000000000000000000000000000000000000000000000000000000000
310
00000000000000000000000000000000000000000000000000000000000000000000000000000000000000000000000000000000000000000000000000000000000000000000000000000000000000000000000000000000000000000000000000000000E2E2C3C3000000E2E2000000000000000000000000000000000000
310
00000000000000E2E2C30000000000000000000000000000000000000000000000000000E200000000000000000000000000000000000000000000000000000000000000000000000000E20000000000C300E20000000000000000000000000000000000000000000000000000000000000000000000000000000000000000
310
0000000000000000000000000000000000000000000000000000000000000000000000000000000000000000000000000000000000000000000000000000000000000000000000000000000000000000000000000000000000000000000000000000000000E2C3C3000000E2E2000000000000000000000000000000000000
310
0000000000000000E20000C3000000000000000000000000000000000000000000000000000000E2000000000000000000000000000000000000000000000000000000000000000000000000E2000000000000C3E2000000000000000000000000000000000000000000000000000000000000000000000000000000000000
310
0000000000000000000000000000000000000000000000000000000000000000000000000000000000000000000000000000000000000000000000000000000000000000000000000000000000000000000000000000000000000000000000000000000000E2E2C3000000E2E2000000000000000000000000000000000000
310
0000000000000000E2E2000000C300000000000000000000000000000000000000000000000000000000E2000000000000000000000000000000000000000000000000000000000000000000000000E2000000000000E200000000000000000000000000000000000000000000000000000000000000000000000000000000
310
0000000000000000000000000000000000000000000000000000000000000000000000000000000000000000000000000000000000000000000000000000000000000000000000000000000000000000000000000000000000000000000000000000000000E2E2C3000000E2E2000000000000000000000000000000000000
310
0000000000000000E2E2000000000000C300000000000000000000000000000000000000000000000000000000E20000000000000000000000000000000000000000000000000000000000000000000000E2000000000000E20000000000000000000000000000000000000000000000000000000000000000000000000000
310
0000000000000000000000000000000000000000000000000000000000000000000000000000000000000000000000000000000000000000000000000000000000000000000000000000000000000000000000000000000000000000000000000000000000E2E2C3C3000000E2000000000000000000000000000000000000
310
0000000000000000E2E20000000000000000C30000000000000000000000000000000000000000000000000000000000E200000000000000000000000000000000000000000000000000000000000000000000E2000000000000E2000000000000000000000000000000000000000000000000000000000000000000000000
310
0000000000000000000000000000000000000000000000000000000000000000000000000000000000000000000000000000000000000000000000000000000000000000000000000000000000000000000000000000000000000000000000000000000000E2E2C3C3000000E2E20000000000000000000000000000000000
310
0000000000000000C3C3C3000000000000000000C3C300000000000000000000000000000000000000000000000000000000E200000000000000000000000000000000000000000000000000000000000000000000E2000000000000E200000000000000000000000000000000000000000000000000000000000000000000
310
000000000000000000000000000000000000000000000000000000000000000000000000000000000000000000000000000000000000000000000000000000000000000000000000000000000000000000000000000000000000000000000000000000000000E2C3C3000000E2E20000000000000000000000000000000000
310
0000000000000000E2E20000C300000000000000000000C30000000000000000000000000000000000000000000000000000000000E2000000000000000000000000000000000000000000000000000000000000000000E2000000000000E20000000000000000000000000000000000000000000000000000000000000000
310
000000000000000000000000000000000000000000000000000000000000000000000000000000000000000000000000000000000000000000000000000000000000000000000000000000000000000000000000000000000000000000000000000000000000E2E2C3000000E2E20000000000000000000000000000000000
310
000000000000000000E200000000C3C3000000000000000000C3C30000000000000000000000000000000000000000000000000000000000E20000000000000000000000000000000000000000000000000000000000000000E2000000000000E2000000000000000000000000000000000000000000000000000000000000
310
00000000000000000000000000000000000000000000000000000000000000000000000000000000000000000000000000000000000000000000000000000000000000000000000000000000000000000000000000000000000000000000000000000000000000E2C3C30000E2E20000000000000000000000000000000000
310
000000000000000000E2E2000000000000C300000000000000000000C3C30000000000000000000000000000000000000000000000000000000000E200000000000000000000000000000000000000000000000000000000000000E2000000000000E200000000000000000000000000000000000000000000000000000000
310
0000000000000000000000000000000000000000000000000000000000000000000000000000000000000000000000000000000000000000000000000000000000000000000000000000000000000000000000000000000000000000000000000000000000000000E2C3C30000E20000000000000000000000000000000000
310
000000000000000000E2E20000000000000000C3000000000000000000000000C3C3C3000000000000000000000000000000000000000000000000000000E2000000000000000000000000000000000000000000000000000000000000E2000000000000E20000000000000000000000000000000000000000000000000000
310
00000000000000000000000000000000000000000000000000000000000000000000000000000000000000000000000000000000000000000000000000000000000000000000000000000000000000000000000000000000000000000000000000000000000000000000E2C30000E200000000000000000000000000000000
310
000000000000000000E2E20000000000000000000000C300000000000000000000000000C3C3000000000000000000000000000000000000000000000000000000E20000000000000000000000000000000000000000000000000000000000E2000000000000E2000000000000000000000000000000000000000000000000
310
0000000000000000000000000000000000000000000000000000000000000000000000000000000000000000000000000000000000000000000000000000000000000000000000000000000000000000000000000000000000000000000000000000000000000000000000E2C30000E2000000000000000000000000000000
310
000000000000000000E2E200000000000000000000000000C3000000000000000000000000000000C30000000000000000000000000000000000000000000000000000E20000000000000000000000000000000000000000000000000000000000E2000000000000E200000000000000000000000000000000000000000000
310
00000000000000000000000000000000000000000000000000000000000000000000000000000000000000000000000000000000000000000000000000000000000000000000000000000000000000000000000000000000000000000000000000000000000000000000000000E20000E20000000000000000000000000000
310
00000000000000000000E200000000000000000000000000000000C3000000000000000000000000000000C30000000000000000000000000000000000000000000000000000E200000000000000000000000000000000000000000000000000000000E2000000000000E20000000000000000000000000000000000000000
310
0000000000000000000000000000000000000000000000000000000000000000000000000000000000000000000000000000000000000000000000000000000000000000000000000000000000000000000000000000000000000000000000000000000000000000000000000000E2C30000E2000000000000000000000000
310
00000000000000000000E2E20000000000000000000000000000000000C300000000000000000000000000000000C30000000000000000000000000000000000000000000000000000E2000000000000000000000000000000000000000000000000000000E2000000000000E2000000000000000000000000000000000000
310
00000000000000000000000000000000000000000000000000000000000000000000000000000000000000000000000000000000000000000000000000000000000000000000000000000000000000000000000000000000000000000000000000000000000000000000000000000000E2C300E20000000000000000000000
310
00000000000000000000E2E2000000000000000000000000000000000000C300000000000000002D0000000000000000C3000000000000000000000000000000000000000000000000000000E20000000000000000000000000000000000000000000000000000E2000000000000E200000000000000000000000000000000
310
000000000000000000000000000000000000000000000000000000000000000000000000000000000000000000000000000000000000000000000000000000000000000000000000000000000000000000000000000000000000000000000000000000000000000000000000000000000000E2C300E2000000000000000000
310
00000000000000000000E2E20000000000000000000000000000000000000000C3000000000000E2E22DE2E200000000000000C30000000000000000000000000000000000000000000000000000E20000000000000000000000000000000000000000000000000000E2000000000000E20000000000000000000000000000
310
0000000000000000000000000000000000000000000000000000000000000000000000000000000000000000000000000000000000000000000000000000000000000000000000000000000000000000000000000000000000000000000000000000000000000000000000000000000000000000E2C300E200000000000000
310
00000000000000000000E2E200000000000000000000000000000000000000000000C30000000000E200E22DE2E2E2000000000000C30000000000000000000000000000000000000000000000000000E20000000000000000000000000000000000000000000000000000E2000000000000E2000000000000000000000000
310
00000000000000000000000000000000000000000000000000000000000000000000000000000000000000000000000000000000000000000000000000000000000000000000000000000000000000000000000000000000000000000000000000000000000000000000000000000000000000000000E2C300E20000000000
310
00000000000000000000E2E20000000000000000000000000000000000000000000000C3C30000000000E2E2E22DE2E2E2E20000000000C30000000000000000000000000000000000000000000000000000E20000000000000000000000000000000000000000000000000000E2000000000000E200000000000000000000
310
000000000000000000000000000000000000000000000000000000000000000000000000000000000000000000000000000000000000000000000000000000000000000000000000000000000000000000000000000000000000000000000000000000000000000000000000000000000000000000000000E2C300E2000000
310
0000000000000000000000E200000000000000000000000000000000000000000000000000C300000000002D2D2D2D2D2D2D2D2D0000000000C3000000000000000000000000000000000000000000000000000000E200000000000000000000000000000000000000000000000000E2000000000000E20000000000000000
310
0000000000000000000000000000000000000000000000000000000000000000000000000000000000000000000000000000000000000000000000000000000000000000000000000000000000000000000000000000000000000000000000000000000000000000000000000000000000000000000000000000E2C300E200
310
00000000000000000000000000E200000000000000000000000000000000000000000000000000C3000000000000E2E2E22D00E2E2E20000000000C3000000000000000000000000000000000000000000000000000000E200000000000000000000000000000000000000000000000000E2000000000000E2000000000000
310
00000000000000000000000000000000000000000000000000000000000000000000000000000000000000000000000000000000000000000000000000000000000000000000000000000000000000000000000000000000000000000000000000000000000000000000000000000000000000000000000000000000E2C300
310
00E2000000000000000000000000E2000000000000000000000000000000000000000000000000000000C30000000000E200E22DE2E2E2000000000000C3000000000000000000000000000000000000000000000000000000E200000000000000000000000000000000000000000000000000E2000000000000E200000000
310
000000000000000000000000000000000000000000000000000000000000000000000000000000000000000000000000000000000000000000000000000000000000000000000000000000000000000000000000000000000000000000000000000000000000000000000000000000000000000000000000000000000000E2
310
C30000E2000000000000000000000000E2000000000000000000000000000000000000000000000000000000C3000000000000E2002D00E200000000000000C3000000000000000000000000000000000000000000000000000000E200000000000000000000000000000000000000000000000000E2000000000000E20000
310
00000000000000000000000000000000000000000000000000000000000000000000000000000000000000000000000000000000000000000000000000000000000000000000000000000000000000000000000000000000000000000000000000000000000000000000000000000000000000000000000000000000000000
310
0000E2C300E2000000000000000000000000E2000000000000000000000000000000000000000000000000000000C300000000000000E22DE200000000000000C300000000000000000000000000000000000000000000000000000000E200000000000000000000000000000000000000000000000000E2000000000000E2
310
00000000000000000000000000000000000000000000000000000000000000000000000000000000000000000000000000000000000000000000000000000000000000000000000000000000000000000000000000000000000000000000000000000000000000000000000000000000000000000000000000000000000000
310
00000000E2C300E200000000000000000000000000E2000000000000000000000000000000000000000000000000000000C300000000000000000000000000000000C300000000000000000000000000000000000000000000000000000000E200000000000000000000000000000000000000000000000000E20000000000
310
00E20000000000000000000000000000000000000000000000000000000000000000000000000000000000000000000000000000000000000000000000000000000000000000000000000000000000000000000000000000000000000000000000000000000000000000000000000000000000000000000000000000000000
310
000000000000E2C30000E2000000000000000000000000E2000000000000000000000000000000000000000000000000000000C3C30000000000000000000000000000C30000000000000000000000000000000000000000000000000000000000E200000000000000000000000000000000000000000000000000E2000000
310
000000E2000000000000000000000000000000000000000000000000000000000000000000000000000000000000000000000000000000000000000000000000000000000000000000000000000000000000000000000000000000000000000000000000000000000000000000000000000000000000000000000000000000
310
0000000000000000E2C30000E2000000000000000000000000E200000000000000000000000000000000000000000000000000000000C3C300000000000000000000000000C30000000000000000000000000000000000000000000000000000000000E200000000000000000000000000000000000000000000000000E200
310
0000000000E200000000000000000000000000000000000000000000000000000000000000000000000000000000000000000000000000000000000000000000000000000000000000000000000000000000000000000000000000000000000000000000000000000000000000000000000000000000000000000000000000
310
0000000000000000000000E20000E2000000000000000000000000E20000000000000000000000000000000000000000000000000000000000C3C300000000000000000000000000C300000000000000000000000000000000000000000000000000000000E200000000000000000000000000000000000000000000000000
310
E2000000000000E20000000000000000000000000000000000000000000000000000000000000000000000000000000000000000000000000000000000000000000000000000000000000000000000000000000000000000000000000000000000000000000000000000000000000000000000000000000000000000000000
310
00000000000000000000000000E2C300E200000000000000000000000000E20000000000000000000000000000000000000000000000000000000000C3C3C30000000000000000000000C300000000000000000000000000000000000000000000000000000000E20000000000000000000000000000000000000000000000
310
0000E2000000000000E2000000000000000000000000000000000000000000000000000000000000000000000000000000000000000000000000000000000000000000000000000000000000000000000000000000000000000000000000000000000000000000000000000000000000000000000000000000000000000000
310
000000000000000000000000000000E2C30000E2000000000000000000000000E20000000000000000000000000000000000000000000000000000000000000000C3C300000000000000000000C3000000000000000000000000000000000000000000000000000000E2000000000000000000000000000000000000000000
310
00000000E2000000000000E200000000000000000000000000000000000000000000000000000000000000000000000000000000000000000000000000000000000000000000000000000000000000000000000000000000000000000000000000000000000000000000000000000000000000000000000000000000000000
310
0000000000000000000000000000000000E2C30000E2000000000000000000000000E2000000000000000000000000000000000000000000000000000000000000000000C300000000000000000000C3000000000000000000000000000000000000000000000000000000E200000000000000000000000000000000000000
310
000000000000E2000000000000E20000000000000000000000000000000000000000000000000000000000000000000000000000000000000000000000000000000000000000000000000000000000000000000000000000000000000000000000000000000000000000000000000000000000000000000000000000000000
310
0000000000000000000000000000000000000000E20000E2000000000000000000000000E200000000000000000000000000000000000000000000000000000000000000000000C3000000000000000000C3C30000000000000000000000000000000000000000000000000000E20000000000000000000000000000000000
310
0000000000000000E2000000000000E2000000000000000000000000000000000000000000000000000000000000000000000000000000000000000000000000000000000000000000000000000000000000000000000000000000000000000000000000000000000000000000000000000000000000000000000000000000
310
00000000000000000000000000000000000000000000E20000E200000000000000000000000000E2000000000000000000000000000000000000000000000000000000000000000000C300000000000000000000C30000000000000000000000000000000000000000000000000000E2000000000000000000000000000000
310
00000000000000000000E2000000000000E200000000000000000000000000000000000000000000000000000000000000000000000000000000000000000000000000000000000000000000000000000000000000000000000000000000000000000000000000000000000000000000000000000000000000000000000000
310
000000000000000000000000000000000000000000000000E2C30000E2000000000000000000000000E2000000000000000000000000000000000000000000000000000000000000000000C3C3000000000000000000C30000000000000000000000000000000000000000000000000000E200000000000000000000000000
310
000000000000000000000000E2000000000000E20000000000000000000000000000000000000000000000000000000000000000000000000000000000000000000000000000000000000000000000000000000000000000000000000000000000000000000000000000000000000000000000000000000000000000000000
310
0000000000000000000000000000000000000000000000000000E2C30000E2000000000000000000000000E200000000000000000000000000000000000000000000000000000000000000000000C300000000000000000000C300000000000000000000000000000000000000000000000000E20000000000000000000000
310
0000000000000000000000000000E2000000000000E2000000000000000000000000000000000000000000000000000000000000000000000000000000000000000000000000000000000000000000000000000000000000000000000000000000000000000000000000000000000000000000000000000000000000000000
310
0000000000000000000000000000000000000000000000000000000000E20000E2000000000000000000000000E200000000000000000000000000000000000000000000000000000000000000000000C300000000000000000000C300000000000000000000000000000000000000000000000000E2000000000000000000
310
00000000000000000000000000000000E2000000000000E200000000000000000000000000000000000000000000000000000000000000000000000000000000000000000000000000000000000000000000000000000000000000000000000000000000000000000000000000000000000000000000000000000000000000
310
00000000000000000000000000000000000000000000000000000000000000E20000E200000000000000000000000000E200000000000000000000000000000000000000000000000000000000000000000000C300000000000000000000C3000000000000000000000000000000000000000000000000E200000000000000
310
000000000000000000000000000000000000E2000000000000E20000000000000000000000000000000000000000000000000000000000000000000000000000000000000000000000000000000000000000000000000000000000000000000000000000000000000000000000000000000000000000000000000000000000
310
000000000000000000000000000000000000000000000000000000000000000000E2C30000E2000000000000000000000000E200000000000000000000000000000000000000000000000000000000000000000000C300000000000000000000C3000000000000000000000000000000000000000000000000E20000000000
310
0000000000000000000000000000000000000000E2000000000000E2000000000000000000000000000000000000000000000000000000000000000000000000000000000000000000000000000000000000000000000000000000000000000000000000000000000000000000000000000000000000000000000000000000
310
0000000000000000000000000000000000000000000000000000000000000000000000E2C30000E2000000000000000000000000E2E2000000000000000000000000000000000000000000000000000000000000000000C30000000000000000000000C30000000000000000000000000000000000000000000000E2000000
310
00000000000000000000000000000000000000000000E2000000000000E200000000000000000000000000000000000000000000000000000000000000000000000000000000000000000000000000000000000000000000000000000000000000000000000000000000000000000000000000000000000000000000000000
310
0000000000000000000000000000000000000000000000000000000000000000000000000000E20000E200000000000000000000000000E2E2E2E2E2E2E2E2E2E2E2E2E2E2E2E2E2E2E2E2E2E2E2E2E2E2E2E2E2E2E2E2E2E2E2E2E2E2E2E2E2E2E2E2E2E2E2E2E2E2E2E2E2E2E2E2E2E2E2E2E2E2E2E2E2E2E2E2E2E20000
310
000000000000000000000000000000000000000000000000E2000000000000E20000000000000000000000000000000000000000000000000000000000000000000000000000000000000000000000000000000000000000000000000000000000000000000000000000000000000000000000000000000000000000000000
310
00000000000000000000000000000000000000000000000000000000000000000000000000000000E20000E20000000000000000000000000000000000000000000000000000000000000000000000000000000000000000000000000000000000000000000000000000000000000000000000000000000000000000000000
310
0000000000000000000000000000000000000000000000000000E2000000000000E2000000000000000000000000000000000000000000000000000000000000000000000000000000000000000000000000000000000000000000000000000000000000000000000000000000000000000000000000000000000000000000
310
000000000000000000000000000000000000000000000000000000000000000000000000000000000000E2C300E2000000000000000000000000000000000000000000000000000000000000000000000000000000000000000000000000000000000000000000000000000000000000000000000000000000000000000000
310
00000000000000000000000000000000000000000000000000000000E2000000000000E200000000000000000000000000000000000000000000000000000000000000000000000000000000000000000000000000000000000000000000000000000000000000000000000000000000000000000000000000000000000000
310
0000000000000000000000000000000000000000000000000000000000000000000000000000000000000000E2C30000E2000000000000000000000000000000000000000000000000000000000000000000000000000000000000000000000000000000000000000000000000000000000000000000000000000000000000
310
0000000000000000000000000000000000000000000000000000000000E200000000000000E20000000000000000000000000000000000000000000000000000000000000000000000000000000000000000000000000000000000000000000000000000000000000000000000000000000000000000000000000000000000
310
0000000000000000000000000000000000000000000000000000000000000000000000000000000000000000000000E20000E2E2000000000000000000000000000000000000000000000000000000000000000000000000000000000000000000000000000000000000000000000000000000000000000000000000000000
310
00000000000000000000000000000000000000000000000000000000000000E200000000000000E2000000000000000000000000000000000000000000000000000000000000000000000000000000000000000000000000000000000000000000000000000000000000000000000000000000000000000000000000000000
310
00000000000000000000000000000000000000000000000000000000000000000000000000000000000000000000000000E200000000E2000000000000000000000000000000000000000000000000000000000000000000000000000000000000000000000000000000000000000000000000000000000000000000000000
310
0000000000000000000000000000000000000000000000000000000000000000E20000000000000000E200000000000000000000000000000000000000000000000000000000000000000000000000000000000000000000000000000000000000000000000000000000000000000000000000000000000000000000000000
310
000000000000000000000000000000000000000000000000000000000000000000000000000000000000000000000000000000E20000000000E2E20000000000000000000000000000000000000000000000000000000000000000000000000000000000000000000000000000000000000000000000000000000000000000
310
0000000000000000000000000000000000000000000000000000000000000000E2E2000000000000000000E20000000000000000000000000000000000000000000000000000000000000000000000000000000000000000000000000000000000000000000000000000000000000000000000000000000000000000000000
310
0000000000000000000000000000000000000000000000000000000000000000000000000000000000000000000000000000000000E2C30000000000E2E2E2E2E2E2E2E2E2E2E2E2E2E2E2E2E2E2E2E2E2E2E2E2E2E2E2E2E2E2E2E2E2E2E2E2E2E2E2E2E2E2E2E2E2E2E2E2E2E2E2E2E2E2E2E2E2E2E2E2E2E2E2E2E2E2E2
310
E2E2E2E2E2E2E2E2E2E2E2E2E2E2E2E2E2E2E2E2E2E2E2E2E2E2E2E2E2E2E2E2E2E20000000000000000000000E2000000000000000000000000000000000000000000000000000000000000000000000000000000000000000000000000000000000000000000000000000000000000000000000000000000000000000000
310
0000000000000000000000000000000000000000000000000000000000000000000000000000000000000000000000000000000000000000E200000000000000000000000000000000000000000000000000000000000000000000000000000000000000000000000000000000000000000000000000000000000000000000
310
0000000000000000000000000000000000000000000000000000000000000000000000000000000000000000000000E200000000000000000000000000000000000000000000000000000000000000000000000000000000000000000000000000000000000000000000000000000000000000000000000000000000000000
310
00000000000000000000000000000000000000000000000000000000000000000000000000000000000000000000000000000000000000000000E20000000000000000000000000000000000000000000000000000000000000000000000000000000000000000000000000000000000000000000000000000000000000000
310
00000000000000000000000000000000000000000000000000000000000000000000000000000000000000000000000000E20000000000000000000000000000000000000000000000000000000000000000000000000000000000000000000000000000000000000000000000000000000000000000000000000000000000
310
000000000000000000000000000000000000000000000000000000000000000000000000000000000000000000000000000000000000000000000000E2000000000000000000000000000000000000000000000000000000000000000000000000000000000000000000000000000000000000000000000000000000000000
310
000000000000000000000000000000000000000000000000000000000000000000000000000000000000000000000000000000E2000000000000000000000000000000000000000000000000000000000000000000000000000000000000000000000000000000000000000000000000000000000000000000000000000000
310
0000000000000000000000000000000000000000000000000000000000000000000000000000000000000000000000000000000000000000000000000000E2C3000000000000000000000000000000000000000000000000000000000000000000000000000000000000000000000000000000000000000000000000000000
310
0000000000000000000000000000000000000000000000000000000000000000000000000000000000000000000000000000000000E200000000000000000000000000000000000000000000000000000000000000000000000000000000000000000000000000000000000000000000000000000000000000000000000000
310
00000000000000000000000000000000000000000000000000000000000000000000000000000000000000000000000000000000000000000000000000000000C3E200000000000000000000000000000000000000000000000000000000000000000000000000000000000000000000000000000000000000000000000000
310
00000000000000000000000000000000000000000000000000000000000000000000000000000000000000000000000000000000000000E20000000000000000000000000000000000000000000000000000000000000000000000000000000000000000000000000000000000000000000000000000000000000000000000
310
00000000000000000000000000000000000000000000000000000000000000000000000000000000000000000000000000000000000000000000000000000000000000E20000000000000000000000000000000000000000000000000000000000000000000000000000000000000000000000000000000000000000000000
310
000000000000000000000000000000000000000000000000000000000000000000000000000000000000000000000000000000000000000000E2000000000000000000000000000000000000000000000000000000000000000000000000000000000000000000000000000000000000000000000000000000000000000000
310
000000000000000000000000000000000000000000000000000000000000000000000000000000000000000000000000000000000000000000000000000000000000000000E2C3C3C3C3C3C3C3C3C3C3C3C3C3C3C3C3C3C3C3C3C3C3C3C3C3C3C3C3C3C3C3C3C3C3C3C3C3C3C3C3C3C3C3C3C3C3C3C3C3C3C3C3C3C3C3C3C3
310
C3C3C3C3C3C3C3C3C3C3C3C3C3C3C3C3C3C3C3C3C3C3C3C3C3C3C3C3C3C3C3C3C3C3C3C3C3C3C3C3C3C3C3C3C3C3C3C3C3C3C3C3C3C3C3C3C3C3C3E200000000000000000000000000000000000000000000000000000000000000000000000000000000000000000000000000000000000000000000000000000000000000
310
0000000000000000000000000000000000000000000000000000000000000000000000000000000000000000000000000000000000000000000000000000000000000000000000E2E2E2E2E2E2E2E2E2E2E2E2E2E2E2E2E2E2E2E2E2E2E2E2E2E2E2E2E2E2E2E2E2E2E2E2E2E2E2E2E2E2E2E2E2E2E2E2E2E2E2E2E2E2E2E2
310
E2E2E2E2E2E2E2E2E2E2E2E2E2E2E2E2E2E2E2E2E2E2E2E2E2E2E2E2E2E2E2E2E2E2E2E2E2E2E2E2E2E2E2E2E2E2E2E2E2E2E2E2E2E2E2E2E2E2E2E2E2E20000000000000000000000000000000000000000000000000000000000000000000000000000000000000000000000000000000000000000000000000000000000
310
00000000000000000000000000000000000000000000000000000000000000000000000000000000000000000000000000000000000000000000000000000000000000000000000000000000000000000000000000000000000000000000000000000000000000000000000000000000000000000000000000000000000000
310
00000000000000000000000000000000000000000000000000000000000000000000000000000000000000000000000000000000000000000000000000000000000000000000000000000000000000000000000000000000000000000000000000000000000000000000000000000000000000000000000000000000000000
310
00000000000000000000000000000000000000000000000000000000000000000000000000000000000000000000000000000000000000000000000000000000000000000000000000000000000000000000000000000000000000000000000000000000000000000000000000000000000000000000000000000000000000
310
00000000000000000000000000000000000000000000000000000000000000000000000000000000000000000000000000000000000000000000000000000000000000000000000000000000000000000000000000000000000000000000000000000000000000000000000000000000000000000000000000000000000000
310
00000000000000000000000000000000000000000000000000000000000000000000000000000000000000000000000000000000000000000000000000000000000000000000000000000000000000000000000000000000000000000000000000000000000000000000000000000000000000000000000000000000000000
310
00000000000000000000000000000000000000000000000000000000000000000000000000000000000000000000000000000000000000000000000000000000000000000000000000000000000000000000000000000000000000000000000000000000000000000000000000000000000000000000000000000000000000
310
00000000000000000000000000000000000000000000000000000000000000000000000000000000000000000000000000000000000000000000000000000000000000000000000000000000000000000000000000000000000000000000000000000000000000000000000000000000000000000000000000000000000000
310
00000000000000000000000000000000000000000000000000000000000000000000000000000000000000000000000000000000000000000000000000000000000000000000000000000000000000000000000000000000000000000000000000000000000000000000000000000000000000000000000000000000000000
310
00000000000000000000000000000000000000000000000000000000000000000000000000000000000000000000000000000000000000000000000000000000000000000000000000000000000000000000000000000000000000000000000000000000000000000000000000000000000000000000000000000000000000
310
00000000000000000000000000000000000000000000000000000000000000000000000000000000000000000000000000000000000000000000000000000000000000000000000000000000000000000000000000000000000000000000000000000000000000000000000000000000000000000000000000000000000000
310
00000000000000000000000000000000000000000000000000000000000000000000000000000000000000000000000000000000000000000000000000000000000000000000000000000000000000000000000000000000000000000000000000000000000000000000000000000000000000000000000000000000000000
310
00000000000000000000000000000000000000000000000000000000000000000000000000000000000000000000000000000000000000000000000000000000000000000000000000000000000000000000000000000000000000000000000000000000000000000000000000000000000000000000000000000000000000
310
00000000000000000000000000000000000000000000000000000000000000000000000000000000000000000000000000000000000000000000000000000000000000000000000000000000000000000000000000000000000000000000000000000000000000000000000000000000000000000000000000000000000000
310
00000000000000000000000000000000000000000000000000000000000000000000000000000000000000000000000000000000000000000000000000000000000000000000000000000000000000000000000000000000000000000000000000000000000000000000000000000000000000000000000000000000000000
310
00000000000000000000000000000000000000000000000000000000000000000000000000000000000000000000000000000000000000000000000000000000000000000000000000000000000000000000000000000000000000000000000000000000000000000000000000000000000000000000000000000000000000
310
00000000000000000000000000000000000000000000000000000000000000000000000000000000000000000000000000000000000000000000000000000000000000000000000000000000000000000000000000000000000000000000000000000000000000000000000000000000000000000000000000000000000000
310
00000000000000000000000000000000000000000000000000000000000000000000000000000000000000000000000000000000000000000000000000000000000000000000000000000000000000000000000000000000000000000000000000000000000000000000000000000000000000000000000000000000000000
310
00000000000000000000000000000000000000000000000000000000000000000000000000000000000000000000000000000000000000000000000000000000000000000000000000000000000000000000000000000000000000000000000000000000000000000000000000000000000000000000000000000000000000
310
00000000000000000000000000000000000000000000000000000000000000000000000000000000000000000000000000000000000000000000000000000000000000000000000000000000000000000000000000000000000000000000000000000000000000000000000000000000000000000000000000000000000000
310
00000000000000000000000000000000000000000000000000000000000000000000000000000000000000000000000000000000000000000000000000000000000000000000000000000000000000000000000000000000000000000000000000000000000000000000000000000000000000000000000000000000000000
310
0000000000000000000000000000000000000000
  0
XRECORD
  5
1BF8
102
{ACAD_REACTORS
330
13BF
102
}
330
13BF
100
AcDbXrecord
280
     1
102
MATERIAL
148
0.0
149
0.0
149
0.0
 93
        0
 94
      127
282
     0
 72
     0
 77
     0
171
     0
175
     0
179
     0
273
     0
  0
XRECORD
  5
13C1
102
{ACAD_REACTORS
330
13BF
102
}
330
13BF
100
AcDbXrecord
280
     1
270
     1
271
     1
  0
XRECORD
  5
13C0
102
{ACAD_REACTORS
330
13BF
102
}
330
13BF
100
AcDbXrecord
280
     1
270
     1
271
     1
  0
XRECORD
  5
13C4
102
{ACAD_REACTORS
330
13BF
102
}
330
13BF
100
AcDbXrecord
280
     1
270
     1
271
     1
  0
XRECORD
  5
13C3
102
{ACAD_REACTORS
330
13BF
102
}
330
13BF
100
AcDbXrecord
280
     1
270
     1
271
     1
  0
XRECORD
  5
13C5
102
{ACAD_REACTORS
330
13BF
102
}
330
13BF
100
AcDbXrecord
280
     1
270
     1
271
     1
  0
XRECORD
  5
13C2
102
{ACAD_REACTORS
330
13BF
102
}
330
13BF
100
AcDbXrecord
280
     1
270
     1
271
     1
  0
XRECORD
  5
1BF7
102
{ACAD_REACTORS
330
13B7
102
}
330
13B7
100
AcDbXrecord
280
     1
102
MATERIAL
148
0.0
149
0.0
149
0.0
 93
        0
 94
      127
282
     0
 72
     0
 77
     0
171
     0
175
     0
179
     0
273
     0
  0
XRECORD
  5
13B9
102
{ACAD_REACTORS
330
13B7
102
}
330
13B7
100
AcDbXrecord
280
     1
270
     1
271
     1
  0
XRECORD
  5
13B8
102
{ACAD_REACTORS
330
13B7
102
}
330
13B7
100
AcDbXrecord
280
     1
270
     1
271
     1
  0
XRECORD
  5
13BC
102
{ACAD_REACTORS
330
13B7
102
}
330
13B7
100
AcDbXrecord
280
     1
270
     1
271
     1
  0
XRECORD
  5
13BB
102
{ACAD_REACTORS
330
13B7
102
}
330
13B7
100
AcDbXrecord
280
     1
270
     1
271
     1
  0
XRECORD
  5
13BD
102
{ACAD_REACTORS
330
13B7
102
}
330
13B7
100
AcDbXrecord
280
     1
270
     1
271
     1
  0
XRECORD
  5
13BA
102
{ACAD_REACTORS
330
13B7
102
}
330
13B7
100
AcDbXrecord
280
     1
270
     1
271
     1
  0
XRECORD
  5
1BF9
102
{ACAD_REACTORS
330
13C7
102
}
330
13C7
100
AcDbXrecord
280
     1
102
MATERIAL
148
0.0
149
0.0
149
0.0
 93
        0
 94
      127
282
     0
 72
     0
 77
     0
171
     0
175
     0
179
     0
273
     0
  0
XRECORD
  5
13C9
102
{ACAD_REACTORS
330
13C7
102
}
330
13C7
100
AcDbXrecord
280
     1
270
     1
271
     1
  0
XRECORD
  5
13C8
102
{ACAD_REACTORS
330
13C7
102
}
330
13C7
100
AcDbXrecord
280
     1
270
     1
271
     1
  0
XRECORD
  5
13CC
102
{ACAD_REACTORS
330
13C7
102
}
330
13C7
100
AcDbXrecord
280
     1
270
     1
271
     1
  0
XRECORD
  5
13CB
102
{ACAD_REACTORS
330
13C7
102
}
330
13C7
100
AcDbXrecord
280
     1
270
     1
271
     1
  0
XRECORD
  5
13CD
102
{ACAD_REACTORS
330
13C7
102
}
330
13C7
100
AcDbXrecord
280
     1
270
     1
271
     1
  0
XRECORD
  5
13CA
102
{ACAD_REACTORS
330
13C7
102
}
330
13C7
100
AcDbXrecord
280
     1
270
     1
271
     1
  0
CELLSTYLEMAP
  5
1BF5
102
{ACAD_REACTORS
330
149D
102
}
330
149D
100
AcDbCellStyleMap
 90
        3
300
CELLSTYLE
  1
TABLEFORMAT_BEGIN
 90
        5
170
     1
 91
        0
 92
    32768
 62
   257
 93
        1
300
CONTENTFORMAT
  1
CONTENTFORMAT_BEGIN
 90
        0
 91
        0
 92
      512
 93
        0
300

 40
0.0
140
1.0
 94
        5
 62
     0
340
11
144
6.0
309
CONTENTFORMAT_END
171
     1
301
MARGIN
  1
CELLMARGIN_BEGIN
 40
1.5
 40
1.5
 40
1.5
 40
1.5
 40
4.5
 40
4.5
309
CELLMARGIN_END
 94
        6
 95
        1
302
GRIDFORMAT
  1
GRIDFORMAT_BEGIN
 90
        0
 91
        1
 62
     0
 92
       -2
340
0
 93
        0
 40
1.125
309
GRIDFORMAT_END
 95
        2
302
GRIDFORMAT
  1
GRIDFORMAT_BEGIN
 90
        0
 91
        1
 62
     0
 92
       -2
340
0
 93
        0
 40
1.125
309
GRIDFORMAT_END
 95
        4
302
GRIDFORMAT
  1
GRIDFORMAT_BEGIN
 90
        0
 91
        1
 62
     0
 92
       -2
340
0
 93
        0
 40
1.125
309
GRIDFORMAT_END
 95
        8
302
GRIDFORMAT
  1
GRIDFORMAT_BEGIN
 90
        0
 91
        1
 62
     0
 92
       -2
340
0
 93
        0
 40
1.125
309
GRIDFORMAT_END
 95
       16
302
GRIDFORMAT
  1
GRIDFORMAT_BEGIN
 90
        0
 91
        1
 62
     0
 92
       -2
340
0
 93
        0
 40
1.125
309
GRIDFORMAT_END
 95
       32
302
GRIDFORMAT
  1
GRIDFORMAT_BEGIN
 90
        0
 91
        1
 62
     0
 92
       -2
340
0
 93
        0
 40
1.125
309
GRIDFORMAT_END
309
TABLEFORMAT_END
  1
CELLSTYLE_BEGIN
 90
        1
 91
        1
300
_TITLE
309
CELLSTYLE_END
300
CELLSTYLE
  1
TABLEFORMAT_BEGIN
 90
        5
170
     1
 91
        0
 92
        0
 62
   257
 93
        1
300
CONTENTFORMAT
  1
CONTENTFORMAT_BEGIN
 90
        0
 91
        0
 92
      512
 93
        0
300

 40
0.0
140
1.0
 94
        5
 62
     0
340
11
144
4.5
309
CONTENTFORMAT_END
171
     1
301
MARGIN
  1
CELLMARGIN_BEGIN
 40
1.5
 40
1.5
 40
1.5
 40
1.5
 40
4.5
 40
4.5
309
CELLMARGIN_END
 94
        6
 95
        1
302
GRIDFORMAT
  1
GRIDFORMAT_BEGIN
 90
        0
 91
        1
 62
     0
 92
       -2
340
0
 93
        0
 40
1.125
309
GRIDFORMAT_END
 95
        2
302
GRIDFORMAT
  1
GRIDFORMAT_BEGIN
 90
        0
 91
        1
 62
     0
 92
       -2
340
0
 93
        0
 40
1.125
309
GRIDFORMAT_END
 95
        4
302
GRIDFORMAT
  1
GRIDFORMAT_BEGIN
 90
        0
 91
        1
 62
     0
 92
       -2
340
0
 93
        0
 40
1.125
309
GRIDFORMAT_END
 95
        8
302
GRIDFORMAT
  1
GRIDFORMAT_BEGIN
 90
        0
 91
        1
 62
     0
 92
       -2
340
0
 93
        0
 40
1.125
309
GRIDFORMAT_END
 95
       16
302
GRIDFORMAT
  1
GRIDFORMAT_BEGIN
 90
        0
 91
        1
 62
     0
 92
       -2
340
0
 93
        0
 40
1.125
309
GRIDFORMAT_END
 95
       32
302
GRIDFORMAT
  1
GRIDFORMAT_BEGIN
 90
        0
 91
        1
 62
     0
 92
       -2
340
0
 93
        0
 40
1.125
309
GRIDFORMAT_END
309
TABLEFORMAT_END
  1
CELLSTYLE_BEGIN
 90
        2
 91
        1
300
_HEADER
309
CELLSTYLE_END
300
CELLSTYLE
  1
TABLEFORMAT_BEGIN
 90
        5
170
     1
 91
        0
 92
        0
 62
   257
 93
        1
300
CONTENTFORMAT
  1
CONTENTFORMAT_BEGIN
 90
        0
 91
        0
 92
      512
 93
        0
300

 40
0.0
140
1.0
 94
        2
 62
     0
340
11
144
4.5
309
CONTENTFORMAT_END
171
     1
301
MARGIN
  1
CELLMARGIN_BEGIN
 40
1.5
 40
1.5
 40
1.5
 40
1.5
 40
4.5
 40
4.5
309
CELLMARGIN_END
 94
        6
 95
        1
302
GRIDFORMAT
  1
GRIDFORMAT_BEGIN
 90
        0
 91
        1
 62
     0
 92
       -2
340
0
 93
        0
 40
1.125
309
GRIDFORMAT_END
 95
        2
302
GRIDFORMAT
  1
GRIDFORMAT_BEGIN
 90
        0
 91
        1
 62
     0
 92
       -2
340
0
 93
        0
 40
1.125
309
GRIDFORMAT_END
 95
        4
302
GRIDFORMAT
  1
GRIDFORMAT_BEGIN
 90
        0
 91
        1
 62
     0
 92
       -2
340
0
 93
        0
 40
1.125
309
GRIDFORMAT_END
 95
        8
302
GRIDFORMAT
  1
GRIDFORMAT_BEGIN
 90
        0
 91
        1
 62
     0
 92
       -2
340
0
 93
        0
 40
1.125
309
GRIDFORMAT_END
 95
       16
302
GRIDFORMAT
  1
GRIDFORMAT_BEGIN
 90
        0
 91
        1
 62
     0
 92
       -2
340
0
 93
        0
 40
1.125
309
GRIDFORMAT_END
 95
       32
302
GRIDFORMAT
  1
GRIDFORMAT_BEGIN
 90
        0
 91
        1
 62
     0
 92
       -2
340
0
 93
        0
 40
1.125
309
GRIDFORMAT_END
309
TABLEFORMAT_END
  1
CELLSTYLE_BEGIN
 90
        3
 91
        2
300
_DATA
309
CELLSTYLE_END
  0
XRECORD
  5
1C1A
102
{ACAD_REACTORS
330
149D
102
}
330
149D
100
AcDbXrecord
280
     1
102
ACAD_ROUNDTRIP_PRE2007_TABLESTYLE
 90
      512
 91
        0
  1

 92
      512
 93
        0
  2

 94
      512
 95
        0
  3

  0
XRECORD
  5
1C05
102
{ACAD_REACTORS
330
1C04
102
}
330
1C04
100
AcDbXrecord
280
     1
102
RTVSPropertyOp0
 70
     1
102
RTVSPropertyOp1
 70
     1
102
RTVSPropertyOp2
 70
     1
102
RTVSPropertyOp3
 70
     1
102
RTVSPropertyOp4
 70
     1
102
RTVSPropertyOp5
 70
     1
102
RTVSPropertyOp6
 70
     1
102
RTVSPropertyOp7
 70
     1
102
RTVSPropertyOp8
 70
     1
102
RTVSPropertyOp9
 70
     1
102
RTVSPropertyOp10
 70
     1
102
RTVSPropertyOp11
 70
     1
102
RTVSPropertyOp12
 70
     1
102
RTVSPropertyOp13
 70
     1
102
RTVSPropertyOp14
 70
     1
102
RTVSPropertyOp15
 70
     1
102
RTVSPropertyOp16
 70
     1
102
RTVSPropertyOp17
 70
     1
102
RTVSPropertyOp18
 70
     1
102
RTVSPropertyOp19
 70
     1
102
RTVSPropertyOp20
 70
     1
102
RTVSPropertyOp21
 70
     1
102
RTVSPropertyOp22
 70
     1
102
RTVSPropertyOp23
 70
     1
102
RTVSPropertyOp24
 70
     1
102
RTVSPropertyOp25
 70
     1
102
RTVSPropertyOp26
 70
     1
102
RTVSPropertyOp27
 70
     1
102
RTVSPropertyOp28
 70
     1
102
RTVSPropertyOp29
 70
     1
102
RTVSPropertyOp30
 70
     1
102
RTVSPropertyOp31
 70
     1
102
RTVSPropertyOp32
 70
     1
  0
XRECORD
  5
1C09
102
{ACAD_REACTORS
330
1C08
102
}
330
1C08
100
AcDbXrecord
280
     1
102
RTVSPropertyOp0
 70
     1
102
RTVSPropertyOp1
 70
     1
102
RTVSPropertyOp2
 70
     1
102
RTVSPropertyOp3
 70
     1
102
RTVSPropertyOp4
 70
     1
102
RTVSPropertyOp5
 70
     1
102
RTVSPropertyOp6
 70
     1
102
RTVSPropertyOp7
 70
     1
102
RTVSPropertyOp8
 70
     1
102
RTVSPropertyOp9
 70
     1
102
RTVSPropertyOp10
 70
     1
102
RTVSPropertyOp11
 70
     1
102
RTVSPropertyOp12
 70
     1
102
RTVSPropertyOp13
 70
     1
102
RTVSPropertyOp14
 70
     1
102
RTVSPropertyOp15
 70
     1
102
RTVSPropertyOp16
 70
     1
102
RTVSPropertyOp17
 70
     1
102
RTVSPropertyOp18
 70
     1
102
RTVSPropertyOp19
 70
     1
102
RTVSPropertyOp20
 70
     1
102
RTVSPropertyOp21
 70
     1
102
RTVSPropertyOp22
 70
     1
102
RTVSPropertyOp23
 70
     1
102
RTVSPropertyOp24
 70
     1
102
RTVSPropertyOp25
 70
     1
102
RTVSPropertyOp26
 70
     1
102
RTVSPropertyOp27
 70
     1
102
RTVSPropertyOp28
 70
     1
102
RTVSPropertyOp29
 70
     1
102
RTVSPropertyOp30
 70
     1
102
RTVSPropertyOp31
 70
     1
102
RTVSPropertyOp32
 70
     1
  0
XRECORD
  5
1C07
102
{ACAD_REACTORS
330
1C06
102
}
330
1C06
100
AcDbXrecord
280
     1
102
RTVSPropertyOp0
 70
     1
102
RTVSPropertyOp1
 70
     1
102
RTVSPropertyOp2
 70
     1
102
RTVSPropertyOp3
 70
     1
102
RTVSPropertyOp4
 70
     1
102
RTVSPropertyOp5
 70
     1
102
RTVSPropertyOp6
 70
     1
102
RTVSPropertyOp7
 70
     1
102
RTVSPropertyOp8
 70
     1
102
RTVSPropertyOp9
 70
     1
102
RTVSPropertyOp10
 70
     1
102
RTVSPropertyOp11
 70
     1
102
RTVSPropertyOp12
 70
     1
102
RTVSPropertyOp13
 70
     1
102
RTVSPropertyOp14
 70
     1
102
RTVSPropertyOp15
 70
     1
102
RTVSPropertyOp16
 70
     1
102
RTVSPropertyOp17
 70
     1
102
RTVSPropertyOp18
 70
     1
102
RTVSPropertyOp19
 70
     1
102
RTVSPropertyOp20
 70
     1
102
RTVSPropertyOp21
 70
     1
102
RTVSPropertyOp22
 70
     1
102
RTVSPropertyOp23
 70
     1
102
RTVSPropertyOp24
 70
     1
102
RTVSPropertyOp25
 70
     1
102
RTVSPropertyOp26
 70
     1
102
RTVSPropertyOp27
 70
     1
102
RTVSPropertyOp28
 70
     1
102
RTVSPropertyOp29
 70
     1
102
RTVSPropertyOp30
 70
     1
102
RTVSPropertyOp31
 70
     1
102
RTVSPropertyOp32
 70
     1
  0
XRECORD
  5
1C03
102
{ACAD_REACTORS
330
1C02
102
}
330
1C02
100
AcDbXrecord
280
     1
102
RTVSPropertyOp0
 70
     1
102
RTVSPropertyOp1
 70
     1
102
RTVSPropertyOp2
 70
     1
102
RTVSPropertyOp3
 70
     1
102
RTVSPropertyOp4
 70
     1
102
RTVSPropertyOp5
 70
     1
102
RTVSPropertyOp6
 70
     1
102
RTVSPropertyOp7
 70
     1
102
RTVSPropertyOp8
 70
     1
102
RTVSPropertyOp9
 70
     1
102
RTVSPropertyOp10
 70
     1
102
RTVSPropertyOp11
 70
     1
102
RTVSPropertyOp12
 70
     1
102
RTVSPropertyOp13
 70
     1
102
RTVSPropertyOp14
 70
     1
102
RTVSPropertyOp15
 70
     1
102
RTVSPropertyOp16
 70
     1
102
RTVSPropertyOp17
 70
     1
102
RTVSPropertyOp18
 70
     1
102
RTVSPropertyOp19
 70
     1
102
RTVSPropertyOp20
 70
     1
102
RTVSPropertyOp21
 70
     1
102
RTVSPropertyOp22
 70
     1
102
RTVSPropertyOp23
 70
     1
102
RTVSPropertyOp24
 70
     1
102
RTVSPropertyOp25
 70
     1
102
RTVSPropertyOp26
 70
     1
102
RTVSPropertyOp27
 70
     1
102
RTVSPropertyOp28
 70
     1
102
RTVSPropertyOp29
 70
     1
102
RTVSPropertyOp30
 70
     1
102
RTVSPropertyOp31
 70
     1
102
RTVSPropertyOp32
 70
     1
  0
XRECORD
  5
1C11
102
{ACAD_REACTORS
330
1C10
102
}
330
1C10
100
AcDbXrecord
280
     1
102
RTVSPropertyOp0
 70
     1
102
RTVSPropertyOp1
 70
     1
102
RTVSPropertyOp2
 70
     1
102
RTVSPropertyOp3
 70
     1
102
RTVSPropertyOp4
 70
     1
102
RTVSPropertyOp5
 70
     1
102
RTVSPropertyOp6
 70
     1
102
RTVSPropertyOp7
 70
     1
102
RTVSPropertyOp8
 70
     1
102
RTVSPropertyOp9
 70
     1
102
RTVSPropertyOp10
 70
     1
102
RTVSPropertyOp11
 70
     1
102
RTVSPropertyOp12
 70
     1
102
RTVSPropertyOp13
 70
     1
102
RTVSPropertyOp14
 70
     1
102
RTVSPropertyOp15
 70
     1
102
RTVSPropertyOp16
 70
     1
102
RTVSPropertyOp17
 70
     1
102
RTVSPropertyOp18
 70
     1
102
RTVSPropertyOp19
 70
     1
102
RTVSPropertyOp20
 70
     1
102
RTVSPropertyOp21
 70
     1
102
RTVSPropertyOp22
 70
     1
102
RTVSPropertyOp23
 70
     1
102
RTVSPropertyOp24
 70
     1
102
RTVSPropertyOp25
 70
     1
102
RTVSPropertyOp26
 70
     1
102
RTVSPropertyOp27
 70
     1
102
RTVSPropertyOp28
 70
     1
102
RTVSPropertyOp29
 70
     1
102
RTVSPropertyOp30
 70
     1
102
RTVSPropertyOp31
 70
     1
102
RTVSPropertyOp32
 70
     1
  0
XRECORD
  5
1C19
102
{ACAD_REACTORS
330
1C18
102
}
330
1C18
100
AcDbXrecord
280
     1
102
RTVSPropertyOp0
 70
     1
102
RTVSPropertyOp1
 70
     1
102
RTVSPropertyOp2
 70
     1
102
RTVSPropertyOp3
 70
     1
102
RTVSPropertyOp4
 70
     1
102
RTVSPropertyOp5
 70
     1
102
RTVSPropertyOp6
 70
     1
102
RTVSPropertyOp7
 70
     1
102
RTVSPropertyOp8
 70
     1
102
RTVSPropertyOp9
 70
     1
102
RTVSPropertyOp10
 70
     1
102
RTVSPropertyOp11
 70
     1
102
RTVSPropertyOp12
 70
     1
102
RTVSPropertyOp13
 70
     1
102
RTVSPropertyOp14
 70
     1
102
RTVSPropertyOp15
 70
     1
102
RTVSPropertyOp16
 70
     1
102
RTVSPropertyOp17
 70
     1
102
RTVSPropertyOp18
 70
     1
102
RTVSPropertyOp19
 70
     1
102
RTVSPropertyOp20
 70
     1
102
RTVSPropertyOp21
 70
     1
102
RTVSPropertyOp22
 70
     1
102
RTVSPropertyOp23
 70
     1
102
RTVSPropertyOp24
 70
     1
102
RTVSPropertyOp25
 70
     1
102
RTVSPropertyOp26
 70
     1
102
RTVSPropertyOp27
 70
     1
102
RTVSPropertyOp28
 70
     1
102
RTVSPropertyOp29
 70
     1
102
RTVSPropertyOp30
 70
     1
102
RTVSPropertyOp31
 70
     1
102
RTVSPropertyOp32
 70
     1
  0
XRECORD
  5
1C0B
102
{ACAD_REACTORS
330
1C0A
102
}
330
1C0A
100
AcDbXrecord
280
     1
102
RTVSPropertyOp0
 70
     1
102
RTVSPropertyOp1
 70
     1
102
RTVSPropertyOp2
 70
     1
102
RTVSPropertyOp3
 70
     1
102
RTVSPropertyOp4
 70
     1
102
RTVSPropertyOp5
 70
     1
102
RTVSPropertyOp6
 70
     1
102
RTVSPropertyOp7
 70
     1
102
RTVSPropertyOp8
 70
     1
102
RTVSPropertyOp9
 70
     1
102
RTVSPropertyOp10
 70
     1
102
RTVSPropertyOp11
 70
     1
102
RTVSPropertyOp12
 70
     1
102
RTVSPropertyOp13
 70
     1
102
RTVSPropertyOp14
 70
     1
102
RTVSPropertyOp15
 70
     1
102
RTVSPropertyOp16
 70
     1
102
RTVSPropertyOp17
 70
     1
102
RTVSPropertyOp18
 70
     1
102
RTVSPropertyOp19
 70
     1
102
RTVSPropertyOp20
 70
     1
102
RTVSPropertyOp21
 70
     1
102
RTVSPropertyOp22
 70
     1
102
RTVSPropertyOp23
 70
     1
102
RTVSPropertyOp24
 70
     1
102
RTVSPropertyOp25
 70
     1
102
RTVSPropertyOp26
 70
     1
102
RTVSPropertyOp27
 70
     1
102
RTVSPropertyOp28
 70
     1
102
RTVSPropertyOp29
 70
     1
102
RTVSPropertyOp30
 70
     1
102
RTVSPropertyOp31
 70
     1
102
RTVSPropertyOp32
 70
     1
  0
XRECORD
  5
1C0F
102
{ACAD_REACTORS
330
1C0E
102
}
330
1C0E
100
AcDbXrecord
280
     1
102
RTVSPropertyOp0
 70
     1
102
RTVSPropertyOp1
 70
     1
102
RTVSPropertyOp2
 70
     1
102
RTVSPropertyOp3
 70
     1
102
RTVSPropertyOp4
 70
     1
102
RTVSPropertyOp5
 70
     1
102
RTVSPropertyOp6
 70
     1
102
RTVSPropertyOp7
 70
     1
102
RTVSPropertyOp8
 70
     1
102
RTVSPropertyOp9
 70
     1
102
RTVSPropertyOp10
 70
     1
102
RTVSPropertyOp11
 70
     1
102
RTVSPropertyOp12
 70
     1
102
RTVSPropertyOp13
 70
     1
102
RTVSPropertyOp14
 70
     1
102
RTVSPropertyOp15
 70
     1
102
RTVSPropertyOp16
 70
     1
102
RTVSPropertyOp17
 70
     1
102
RTVSPropertyOp18
 70
     1
102
RTVSPropertyOp19
 70
     1
102
RTVSPropertyOp20
 70
     1
102
RTVSPropertyOp21
 70
     1
102
RTVSPropertyOp22
 70
     1
102
RTVSPropertyOp23
 70
     1
102
RTVSPropertyOp24
 70
     1
102
RTVSPropertyOp25
 70
     1
102
RTVSPropertyOp26
 70
     1
102
RTVSPropertyOp27
 70
     1
102
RTVSPropertyOp28
 70
     1
102
RTVSPropertyOp29
 70
     1
102
RTVSPropertyOp30
 70
     1
102
RTVSPropertyOp31
 70
     1
102
RTVSPropertyOp32
 70
     1
  0
XRECORD
  5
1C2E
102
{ACAD_REACTORS
330
1C2D
102
}
330
1C2D
100
AcDbXrecord
280
     1
102
RTVSPropertyOp0
 70
     0
102
RTVSPropertyOp1
 70
     0
102
RTVSPropertyOp2
 70
     0
102
RTVSPropertyOp3
 70
     0
102
RTVSPropertyOp4
 70
     0
102
RTVSPropertyOp5
 70
     0
102
RTVSPropertyOp6
 70
     0
102
RTVSPropertyOp7
 70
     0
102
RTVSPropertyOp8
 70
     0
102
RTVSPropertyOp9
 70
     0
102
RTVSPropertyOp10
 70
     0
102
RTVSPropertyOp11
 70
     0
102
RTVSPropertyOp12
 70
     0
102
RTVSPropertyOp13
 70
     0
102
RTVSPropertyOp14
 70
     2
102
RTVSPropertyOp15
 70
     0
102
RTVSPropertyOp16
 70
     0
102
RTVSPropertyOp17
 70
     0
102
RTVSPropertyOp18
 70
     0
102
RTVSPropertyOp19
 70
     0
102
RTVSPropertyOp20
 70
     0
102
RTVSPropertyOp21
 70
     0
102
RTVSPropertyOp22
 70
     0
102
RTVSPropertyOp23
 70
     0
102
RTVSPropertyOp24
 70
     0
102
RTVSPropertyOp25
 70
     0
102
RTVSPropertyOp26
 70
     0
102
RTVSPropertyOp27
 70
     0
102
RTVSPropertyOp28
 70
     1
102
RTVSPropertyOp29
 70
     1
102
RTVSPropertyOp30
 70
     1
102
RTVSPropertyOp31
 70
     1
102
RTVSPropertyOp32
 70
     1
  0
XRECORD
  5
1C17
102
{ACAD_REACTORS
330
1C16
102
}
330
1C16
100
AcDbXrecord
280
     1
102
RTVSPropertyOp0
 70
     1
102
RTVSPropertyOp1
 70
     1
102
RTVSPropertyOp2
 70
     1
102
RTVSPropertyOp3
 70
     1
102
RTVSPropertyOp4
 70
     1
102
RTVSPropertyOp5
 70
     1
102
RTVSPropertyOp6
 70
     1
102
RTVSPropertyOp7
 70
     1
102
RTVSPropertyOp8
 70
     1
102
RTVSPropertyOp9
 70
     1
102
RTVSPropertyOp10
 70
     1
102
RTVSPropertyOp11
 70
     1
102
RTVSPropertyOp12
 70
     1
102
RTVSPropertyOp13
 70
     1
102
RTVSPropertyOp14
 70
     1
102
RTVSPropertyOp15
 70
     1
102
RTVSPropertyOp16
 70
     1
102
RTVSPropertyOp17
 70
     1
102
RTVSPropertyOp18
 70
     1
102
RTVSPropertyOp19
 70
     1
102
RTVSPropertyOp20
 70
     1
102
RTVSPropertyOp21
 70
     1
102
RTVSPropertyOp22
 70
     1
102
RTVSPropertyOp23
 70
     1
102
RTVSPropertyOp24
 70
     1
102
RTVSPropertyOp25
 70
     1
102
RTVSPropertyOp26
 70
     1
102
RTVSPropertyOp27
 70
     1
102
RTVSPropertyOp28
 70
     1
102
RTVSPropertyOp29
 70
     1
102
RTVSPropertyOp30
 70
     1
102
RTVSPropertyOp31
 70
     1
102
RTVSPropertyOp32
 70
     1
  0
XRECORD
  5
1BFB
102
{ACAD_REACTORS
330
1BFA
102
}
330
1BFA
100
AcDbXrecord
280
     1
102
RTVSPropertyOp0
 70
     1
102
RTVSPropertyOp1
 70
     1
102
RTVSPropertyOp2
 70
     1
102
RTVSPropertyOp3
 70
     1
102
RTVSPropertyOp4
 70
     1
102
RTVSPropertyOp5
 70
     1
102
RTVSPropertyOp6
 70
     1
102
RTVSPropertyOp7
 70
     1
102
RTVSPropertyOp8
 70
     1
102
RTVSPropertyOp9
 70
     1
102
RTVSPropertyOp10
 70
     1
102
RTVSPropertyOp11
 70
     1
102
RTVSPropertyOp12
 70
     1
102
RTVSPropertyOp13
 70
     1
102
RTVSPropertyOp14
 70
     1
102
RTVSPropertyOp15
 70
     1
102
RTVSPropertyOp16
 70
     1
102
RTVSPropertyOp17
 70
     1
102
RTVSPropertyOp18
 70
     1
102
RTVSPropertyOp19
 70
     1
102
RTVSPropertyOp20
 70
     1
102
RTVSPropertyOp21
 70
     1
102
RTVSPropertyOp22
 70
     1
102
RTVSPropertyOp23
 70
     1
102
RTVSPropertyOp24
 70
     1
102
RTVSPropertyOp25
 70
     1
102
RTVSPropertyOp26
 70
     1
102
RTVSPropertyOp27
 70
     1
102
RTVSPropertyOp28
 70
     1
102
RTVSPropertyOp29
 70
     1
102
RTVSPropertyOp30
 70
     1
102
RTVSPropertyOp31
 70
     1
102
RTVSPropertyOp32
 70
     1
  0
XRECORD
  5
1BFD
102
{ACAD_REACTORS
330
1BFC
102
}
330
1BFC
100
AcDbXrecord
280
     1
102
RTVSPropertyOp0
 70
     1
102
RTVSPropertyOp1
 70
     1
102
RTVSPropertyOp2
 70
     1
102
RTVSPropertyOp3
 70
     1
102
RTVSPropertyOp4
 70
     1
102
RTVSPropertyOp5
 70
     1
102
RTVSPropertyOp6
 70
     1
102
RTVSPropertyOp7
 70
     1
102
RTVSPropertyOp8
 70
     1
102
RTVSPropertyOp9
 70
     1
102
RTVSPropertyOp10
 70
     1
102
RTVSPropertyOp11
 70
     1
102
RTVSPropertyOp12
 70
     1
102
RTVSPropertyOp13
 70
     1
102
RTVSPropertyOp14
 70
     1
102
RTVSPropertyOp15
 70
     1
102
RTVSPropertyOp16
 70
     1
102
RTVSPropertyOp17
 70
     1
102
RTVSPropertyOp18
 70
     1
102
RTVSPropertyOp19
 70
     1
102
RTVSPropertyOp20
 70
     1
102
RTVSPropertyOp21
 70
     1
102
RTVSPropertyOp22
 70
     1
102
RTVSPropertyOp23
 70
     1
102
RTVSPropertyOp24
 70
     1
102
RTVSPropertyOp25
 70
     1
102
RTVSPropertyOp26
 70
     1
102
RTVSPropertyOp27
 70
     1
102
RTVSPropertyOp28
 70
     1
102
RTVSPropertyOp29
 70
     1
102
RTVSPropertyOp30
 70
     1
102
RTVSPropertyOp31
 70
     1
102
RTVSPropertyOp32
 70
     1
  0
XRECORD
  5
1BFF
102
{ACAD_REACTORS
330
1BFE
102
}
330
1BFE
100
AcDbXrecord
280
     1
102
RTVSPropertyOp0
 70
     1
102
RTVSPropertyOp1
 70
     1
102
RTVSPropertyOp2
 70
     1
102
RTVSPropertyOp3
 70
     1
102
RTVSPropertyOp4
 70
     1
102
RTVSPropertyOp5
 70
     1
102
RTVSPropertyOp6
 70
     1
102
RTVSPropertyOp7
 70
     1
102
RTVSPropertyOp8
 70
     1
102
RTVSPropertyOp9
 70
     1
102
RTVSPropertyOp10
 70
     1
102
RTVSPropertyOp11
 70
     1
102
RTVSPropertyOp12
 70
     1
102
RTVSPropertyOp13
 70
     1
102
RTVSPropertyOp14
 70
     1
102
RTVSPropertyOp15
 70
     1
102
RTVSPropertyOp16
 70
     1
102
RTVSPropertyOp17
 70
     1
102
RTVSPropertyOp18
 70
     1
102
RTVSPropertyOp19
 70
     1
102
RTVSPropertyOp20
 70
     1
102
RTVSPropertyOp21
 70
     1
102
RTVSPropertyOp22
 70
     1
102
RTVSPropertyOp23
 70
     1
102
RTVSPropertyOp24
 70
     1
102
RTVSPropertyOp25
 70
     1
102
RTVSPropertyOp26
 70
     1
102
RTVSPropertyOp27
 70
     1
102
RTVSPropertyOp28
 70
     1
102
RTVSPropertyOp29
 70
     1
102
RTVSPropertyOp30
 70
     1
102
RTVSPropertyOp31
 70
     1
102
RTVSPropertyOp32
 70
     1
  0
XRECORD
  5
1C01
102
{ACAD_REACTORS
330
1C00
102
}
330
1C00
100
AcDbXrecord
280
     1
102
RTVSPropertyOp0
 70
     1
102
RTVSPropertyOp1
 70
     1
102
RTVSPropertyOp2
 70
     1
102
RTVSPropertyOp3
 70
     1
102
RTVSPropertyOp4
 70
     1
102
RTVSPropertyOp5
 70
     1
102
RTVSPropertyOp6
 70
     1
102
RTVSPropertyOp7
 70
     1
102
RTVSPropertyOp8
 70
     1
102
RTVSPropertyOp9
 70
     1
102
RTVSPropertyOp10
 70
     1
102
RTVSPropertyOp11
 70
     1
102
RTVSPropertyOp12
 70
     1
102
RTVSPropertyOp13
 70
     1
102
RTVSPropertyOp14
 70
     1
102
RTVSPropertyOp15
 70
     1
102
RTVSPropertyOp16
 70
     1
102
RTVSPropertyOp17
 70
     1
102
RTVSPropertyOp18
 70
     1
102
RTVSPropertyOp19
 70
     1
102
RTVSPropertyOp20
 70
     1
102
RTVSPropertyOp21
 70
     1
102
RTVSPropertyOp22
 70
     1
102
RTVSPropertyOp23
 70
     1
102
RTVSPropertyOp24
 70
     1
102
RTVSPropertyOp25
 70
     1
102
RTVSPropertyOp26
 70
     1
102
RTVSPropertyOp27
 70
     1
102
RTVSPropertyOp28
 70
     1
102
RTVSPropertyOp29
 70
     1
102
RTVSPropertyOp30
 70
     1
102
RTVSPropertyOp31
 70
     1
102
RTVSPropertyOp32
 70
     1
  0
XRECORD
  5
1C1E
102
{ACAD_REACTORS
330
1C1D
102
}
330
1C1D
100
AcDbXrecord
280
     1
102
RTVSPropertyOp0
 70
     1
102
RTVSPropertyOp1
 70
     1
102
RTVSPropertyOp2
 70
     1
102
RTVSPropertyOp3
 70
     1
102
RTVSPropertyOp4
 70
     1
102
RTVSPropertyOp5
 70
     1
102
RTVSPropertyOp6
 70
     1
102
RTVSPropertyOp7
 70
     1
102
RTVSPropertyOp8
 70
     1
102
RTVSPropertyOp9
 70
     1
102
RTVSPropertyOp10
 70
     1
102
RTVSPropertyOp11
 70
     1
102
RTVSPropertyOp12
 70
     1
102
RTVSPropertyOp13
 70
     1
102
RTVSPropertyOp14
 70
     1
102
RTVSPropertyOp15
 70
     1
102
RTVSPropertyOp16
 70
     1
102
RTVSPropertyOp17
 70
     1
102
RTVSPropertyOp18
 70
     1
102
RTVSPropertyOp19
 70
     1
102
RTVSPropertyOp20
 70
     1
102
RTVSPropertyOp21
 70
     1
102
RTVSPropertyOp22
 70
     1
102
RTVSPropertyOp23
 70
     1
102
RTVSPropertyOp24
 70
     1
102
RTVSPropertyOp25
 70
     1
102
RTVSPropertyOp26
 70
     1
102
RTVSPropertyOp27
 70
     1
102
RTVSPropertyOp28
 70
     1
102
RTVSPropertyOp29
 70
     1
102
RTVSPropertyOp30
 70
     1
102
RTVSPropertyOp31
 70
     1
102
RTVSPropertyOp32
 70
     1
  0
XRECORD
  5
1C2A
102
{ACAD_REACTORS
330
1C29
102
}
330
1C29
100
AcDbXrecord
280
     1
102
RTVSPropertyOp0
 70
     0
102
RTVSPropertyOp1
 70
     0
102
RTVSPropertyOp2
 70
     0
102
RTVSPropertyOp3
 70
     0
102
RTVSPropertyOp4
 70
     0
102
RTVSPropertyOp5
 70
     0
102
RTVSPropertyOp6
 70
     0
102
RTVSPropertyOp7
 70
     0
102
RTVSPropertyOp8
 70
     0
102
RTVSPropertyOp9
 70
     0
102
RTVSPropertyOp10
 70
     0
102
RTVSPropertyOp11
 70
     0
102
RTVSPropertyOp12
 70
     0
102
RTVSPropertyOp13
 70
     0
102
RTVSPropertyOp14
 70
     2
102
RTVSPropertyOp15
 70
     0
102
RTVSPropertyOp16
 70
     0
102
RTVSPropertyOp17
 70
     0
102
RTVSPropertyOp18
 70
     0
102
RTVSPropertyOp19
 70
     0
102
RTVSPropertyOp20
 70
     0
102
RTVSPropertyOp21
 70
     0
102
RTVSPropertyOp22
 70
     0
102
RTVSPropertyOp23
 70
     0
102
RTVSPropertyOp24
 70
     0
102
RTVSPropertyOp25
 70
     0
102
RTVSPropertyOp26
 70
     0
102
RTVSPropertyOp27
 70
     0
102
RTVSPropertyOp28
 70
     1
102
RTVSPropertyOp29
 70
     1
102
RTVSPropertyOp30
 70
     1
102
RTVSPropertyOp31
 70
     1
102
RTVSPropertyOp32
 70
     1
  0
XRECORD
  5
1C15
102
{ACAD_REACTORS
330
1C14
102
}
330
1C14
100
AcDbXrecord
280
     1
102
RTVSPropertyOp0
 70
     1
102
RTVSPropertyOp1
 70
     1
102
RTVSPropertyOp2
 70
     1
102
RTVSPropertyOp3
 70
     1
102
RTVSPropertyOp4
 70
     1
102
RTVSPropertyOp5
 70
     1
102
RTVSPropertyOp6
 70
     1
102
RTVSPropertyOp7
 70
     1
102
RTVSPropertyOp8
 70
     1
102
RTVSPropertyOp9
 70
     1
102
RTVSPropertyOp10
 70
     1
102
RTVSPropertyOp11
 70
     1
102
RTVSPropertyOp12
 70
     1
102
RTVSPropertyOp13
 70
     1
102
RTVSPropertyOp14
 70
     1
102
RTVSPropertyOp15
 70
     1
102
RTVSPropertyOp16
 70
     1
102
RTVSPropertyOp17
 70
     1
102
RTVSPropertyOp18
 70
     1
102
RTVSPropertyOp19
 70
     1
102
RTVSPropertyOp20
 70
     1
102
RTVSPropertyOp21
 70
     1
102
RTVSPropertyOp22
 70
     1
102
RTVSPropertyOp23
 70
     1
102
RTVSPropertyOp24
 70
     1
102
RTVSPropertyOp25
 70
     1
102
RTVSPropertyOp26
 70
     1
102
RTVSPropertyOp27
 70
     1
102
RTVSPropertyOp28
 70
     1
102
RTVSPropertyOp29
 70
     1
102
RTVSPropertyOp30
 70
     1
102
RTVSPropertyOp31
 70
     1
102
RTVSPropertyOp32
 70
     1
  0
XRECORD
  5
1C2C
102
{ACAD_REACTORS
330
1C2B
102
}
330
1C2B
100
AcDbXrecord
280
     1
102
RTVSPropertyOp0
 70
     0
102
RTVSPropertyOp1
 70
     0
102
RTVSPropertyOp2
 70
     0
102
RTVSPropertyOp3
 70
     0
102
RTVSPropertyOp4
 70
     0
102
RTVSPropertyOp5
 70
     0
102
RTVSPropertyOp6
 70
     0
102
RTVSPropertyOp7
 70
     0
102
RTVSPropertyOp8
 70
     0
102
RTVSPropertyOp9
 70
     0
102
RTVSPropertyOp10
 70
     0
102
RTVSPropertyOp11
 70
     0
102
RTVSPropertyOp12
 70
     0
102
RTVSPropertyOp13
 70
     0
102
RTVSPropertyOp14
 70
     2
102
RTVSPropertyOp15
 70
     0
102
RTVSPropertyOp16
 70
     0
102
RTVSPropertyOp17
 70
     0
102
RTVSPropertyOp18
 70
     0
102
RTVSPropertyOp19
 70
     0
102
RTVSPropertyOp20
 70
     0
102
RTVSPropertyOp21
 70
     0
102
RTVSPropertyOp22
 70
     0
102
RTVSPropertyOp23
 70
     0
102
RTVSPropertyOp24
 70
     0
102
RTVSPropertyOp25
 70
     0
102
RTVSPropertyOp26
 70
     0
102
RTVSPropertyOp27
 70
     0
102
RTVSPropertyOp28
 70
     1
102
RTVSPropertyOp29
 70
     1
102
RTVSPropertyOp30
 70
     1
102
RTVSPropertyOp31
 70
     1
102
RTVSPropertyOp32
 70
     1
  0
XRECORD
  5
1C0D
102
{ACAD_REACTORS
330
1C0C
102
}
330
1C0C
100
AcDbXrecord
280
     1
102
RTVSPropertyOp0
 70
     1
102
RTVSPropertyOp1
 70
     1
102
RTVSPropertyOp2
 70
     1
102
RTVSPropertyOp3
 70
     1
102
RTVSPropertyOp4
 70
     1
102
RTVSPropertyOp5
 70
     1
102
RTVSPropertyOp6
 70
     1
102
RTVSPropertyOp7
 70
     1
102
RTVSPropertyOp8
 70
     1
102
RTVSPropertyOp9
 70
     1
102
RTVSPropertyOp10
 70
     1
102
RTVSPropertyOp11
 70
     1
102
RTVSPropertyOp12
 70
     1
102
RTVSPropertyOp13
 70
     1
102
RTVSPropertyOp14
 70
     1
102
RTVSPropertyOp15
 70
     1
102
RTVSPropertyOp16
 70
     1
102
RTVSPropertyOp17
 70
     1
102
RTVSPropertyOp18
 70
     1
102
RTVSPropertyOp19
 70
     1
102
RTVSPropertyOp20
 70
     1
102
RTVSPropertyOp21
 70
     1
102
RTVSPropertyOp22
 70
     1
102
RTVSPropertyOp23
 70
     1
102
RTVSPropertyOp24
 70
     1
102
RTVSPropertyOp25
 70
     1
102
RTVSPropertyOp26
 70
     1
102
RTVSPropertyOp27
 70
     1
102
RTVSPropertyOp28
 70
     1
102
RTVSPropertyOp29
 70
     1
102
RTVSPropertyOp30
 70
     1
102
RTVSPropertyOp31
 70
     1
102
RTVSPropertyOp32
 70
     1
  0
XRECORD
  5
1C28
102
{ACAD_REACTORS
330
1C27
102
}
330
1C27
100
AcDbXrecord
280
     1
102
RTVSPropertyOp0
 70
     1
102
RTVSPropertyOp1
 70
     1
102
RTVSPropertyOp2
 70
     1
102
RTVSPropertyOp3
 70
     1
102
RTVSPropertyOp4
 70
     1
102
RTVSPropertyOp5
 70
     1
102
RTVSPropertyOp6
 70
     1
102
RTVSPropertyOp7
 70
     1
102
RTVSPropertyOp8
 70
     1
102
RTVSPropertyOp9
 70
     1
102
RTVSPropertyOp10
 70
     1
102
RTVSPropertyOp11
 70
     1
102
RTVSPropertyOp12
 70
     1
102
RTVSPropertyOp13
 70
     1
102
RTVSPropertyOp14
 70
     1
102
RTVSPropertyOp15
 70
     1
102
RTVSPropertyOp16
 70
     1
102
RTVSPropertyOp17
 70
     1
102
RTVSPropertyOp18
 70
     1
102
RTVSPropertyOp19
 70
     1
102
RTVSPropertyOp20
 70
     1
102
RTVSPropertyOp21
 70
     1
102
RTVSPropertyOp22
 70
     1
102
RTVSPropertyOp23
 70
     1
102
RTVSPropertyOp24
 70
     1
102
RTVSPropertyOp25
 70
     1
102
RTVSPropertyOp26
 70
     1
102
RTVSPropertyOp27
 70
     1
102
RTVSPropertyOp28
 70
     1
102
RTVSPropertyOp29
 70
     1
102
RTVSPropertyOp30
 70
     1
102
RTVSPropertyOp31
 70
     1
102
RTVSPropertyOp32
 70
     1
  0
XRECORD
  5
1C26
102
{ACAD_REACTORS
330
1C25
102
}
330
1C25
100
AcDbXrecord
280
     1
102
RTVSPropertyOp0
 70
     1
102
RTVSPropertyOp1
 70
     1
102
RTVSPropertyOp2
 70
     1
102
RTVSPropertyOp3
 70
     1
102
RTVSPropertyOp4
 70
     1
102
RTVSPropertyOp5
 70
     1
102
RTVSPropertyOp6
 70
     1
102
RTVSPropertyOp7
 70
     1
102
RTVSPropertyOp8
 70
     1
102
RTVSPropertyOp9
 70
     1
102
RTVSPropertyOp10
 70
     1
102
RTVSPropertyOp11
 70
     1
102
RTVSPropertyOp12
 70
     1
102
RTVSPropertyOp13
 70
     1
102
RTVSPropertyOp14
 70
     1
102
RTVSPropertyOp15
 70
     1
102
RTVSPropertyOp16
 70
     1
102
RTVSPropertyOp17
 70
     1
102
RTVSPropertyOp18
 70
     1
102
RTVSPropertyOp19
 70
     1
102
RTVSPropertyOp20
 70
     1
102
RTVSPropertyOp21
 70
     1
102
RTVSPropertyOp22
 70
     1
102
RTVSPropertyOp23
 70
     1
102
RTVSPropertyOp24
 70
     1
102
RTVSPropertyOp25
 70
     1
102
RTVSPropertyOp26
 70
     1
102
RTVSPropertyOp27
 70
     1
102
RTVSPropertyOp28
 70
     1
102
RTVSPropertyOp29
 70
     1
102
RTVSPropertyOp30
 70
     1
102
RTVSPropertyOp31
 70
     1
102
RTVSPropertyOp32
 70
     1
  0
XRECORD
  5
1C20
102
{ACAD_REACTORS
330
1C1F
102
}
330
1C1F
100
AcDbXrecord
280
     1
102
RTVSPropertyOp0
 70
     1
102
RTVSPropertyOp1
 70
     1
102
RTVSPropertyOp2
 70
     1
102
RTVSPropertyOp3
 70
     1
102
RTVSPropertyOp4
 70
     1
102
RTVSPropertyOp5
 70
     1
102
RTVSPropertyOp6
 70
     1
102
RTVSPropertyOp7
 70
     1
102
RTVSPropertyOp8
 70
     1
102
RTVSPropertyOp9
 70
     1
102
RTVSPropertyOp10
 70
     1
102
RTVSPropertyOp11
 70
     1
102
RTVSPropertyOp12
 70
     1
102
RTVSPropertyOp13
 70
     1
102
RTVSPropertyOp14
 70
     1
102
RTVSPropertyOp15
 70
     1
102
RTVSPropertyOp16
 70
     1
102
RTVSPropertyOp17
 70
     1
102
RTVSPropertyOp18
 70
     1
102
RTVSPropertyOp19
 70
     1
102
RTVSPropertyOp20
 70
     1
102
RTVSPropertyOp21
 70
     1
102
RTVSPropertyOp22
 70
     1
102
RTVSPropertyOp23
 70
     1
102
RTVSPropertyOp24
 70
     1
102
RTVSPropertyOp25
 70
     1
102
RTVSPropertyOp26
 70
     1
102
RTVSPropertyOp27
 70
     1
102
RTVSPropertyOp28
 70
     1
102
RTVSPropertyOp29
 70
     1
102
RTVSPropertyOp30
 70
     1
102
RTVSPropertyOp31
 70
     1
102
RTVSPropertyOp32
 70
     1
  0
XRECORD
  5
1C22
102
{ACAD_REACTORS
330
1C21
102
}
330
1C21
100
AcDbXrecord
280
     1
102
RTVSPropertyOp0
 70
     1
102
RTVSPropertyOp1
 70
     1
102
RTVSPropertyOp2
 70
     1
102
RTVSPropertyOp3
 70
     1
102
RTVSPropertyOp4
 70
     1
102
RTVSPropertyOp5
 70
     1
102
RTVSPropertyOp6
 70
     1
102
RTVSPropertyOp7
 70
     1
102
RTVSPropertyOp8
 70
     1
102
RTVSPropertyOp9
 70
     1
102
RTVSPropertyOp10
 70
     1
102
RTVSPropertyOp11
 70
     1
102
RTVSPropertyOp12
 70
     1
102
RTVSPropertyOp13
 70
     1
102
RTVSPropertyOp14
 70
     1
102
RTVSPropertyOp15
 70
     1
102
RTVSPropertyOp16
 70
     1
102
RTVSPropertyOp17
 70
     1
102
RTVSPropertyOp18
 70
     1
102
RTVSPropertyOp19
 70
     1
102
RTVSPropertyOp20
 70
     1
102
RTVSPropertyOp21
 70
     1
102
RTVSPropertyOp22
 70
     1
102
RTVSPropertyOp23
 70
     1
102
RTVSPropertyOp24
 70
     1
102
RTVSPropertyOp25
 70
     1
102
RTVSPropertyOp26
 70
     1
102
RTVSPropertyOp27
 70
     1
102
RTVSPropertyOp28
 70
     1
102
RTVSPropertyOp29
 70
     1
102
RTVSPropertyOp30
 70
     1
102
RTVSPropertyOp31
 70
     1
102
RTVSPropertyOp32
 70
     1
  0
XRECORD
  5
1C13
102
{ACAD_REACTORS
330
1C12
102
}
330
1C12
100
AcDbXrecord
280
     1
102
RTVSPropertyOp0
 70
     1
102
RTVSPropertyOp1
 70
     1
102
RTVSPropertyOp2
 70
     1
102
RTVSPropertyOp3
 70
     1
102
RTVSPropertyOp4
 70
     1
102
RTVSPropertyOp5
 70
     1
102
RTVSPropertyOp6
 70
     1
102
RTVSPropertyOp7
 70
     1
102
RTVSPropertyOp8
 70
     1
102
RTVSPropertyOp9
 70
     1
102
RTVSPropertyOp10
 70
     1
102
RTVSPropertyOp11
 70
     1
102
RTVSPropertyOp12
 70
     1
102
RTVSPropertyOp13
 70
     1
102
RTVSPropertyOp14
 70
     1
102
RTVSPropertyOp15
 70
     1
102
RTVSPropertyOp16
 70
     1
102
RTVSPropertyOp17
 70
     1
102
RTVSPropertyOp18
 70
     1
102
RTVSPropertyOp19
 70
     1
102
RTVSPropertyOp20
 70
     1
102
RTVSPropertyOp21
 70
     1
102
RTVSPropertyOp22
 70
     1
102
RTVSPropertyOp23
 70
     1
102
RTVSPropertyOp24
 70
     1
102
RTVSPropertyOp25
 70
     1
102
RTVSPropertyOp26
 70
     1
102
RTVSPropertyOp27
 70
     1
102
RTVSPropertyOp28
 70
     1
102
RTVSPropertyOp29
 70
     1
102
RTVSPropertyOp30
 70
     1
102
RTVSPropertyOp31
 70
     1
102
RTVSPropertyOp32
 70
     1
  0
XRECORD
  5
1C1C
102
{ACAD_REACTORS
330
1C1B
102
}
330
1C1B
100
AcDbXrecord
280
     1
102
RTVSPropertyOp0
 70
     1
102
RTVSPropertyOp1
 70
     1
102
RTVSPropertyOp2
 70
     1
102
RTVSPropertyOp3
 70
     1
102
RTVSPropertyOp4
 70
     1
102
RTVSPropertyOp5
 70
     1
102
RTVSPropertyOp6
 70
     1
102
RTVSPropertyOp7
 70
     1
102
RTVSPropertyOp8
 70
     1
102
RTVSPropertyOp9
 70
     1
102
RTVSPropertyOp10
 70
     1
102
RTVSPropertyOp11
 70
     1
102
RTVSPropertyOp12
 70
     1
102
RTVSPropertyOp13
 70
     1
102
RTVSPropertyOp14
 70
     1
102
RTVSPropertyOp15
 70
     1
102
RTVSPropertyOp16
 70
     1
102
RTVSPropertyOp17
 70
     1
102
RTVSPropertyOp18
 70
     1
102
RTVSPropertyOp19
 70
     1
102
RTVSPropertyOp20
 70
     1
102
RTVSPropertyOp21
 70
     1
102
RTVSPropertyOp22
 70
     1
102
RTVSPropertyOp23
 70
     1
102
RTVSPropertyOp24
 70
     1
102
RTVSPropertyOp25
 70
     1
102
RTVSPropertyOp26
 70
     1
102
RTVSPropertyOp27
 70
     1
102
RTVSPropertyOp28
 70
     1
102
RTVSPropertyOp29
 70
     1
102
RTVSPropertyOp30
 70
     1
102
RTVSPropertyOp31
 70
     1
102
RTVSPropertyOp32
 70
     1
  0
XRECORD
  5
1C24
102
{ACAD_REACTORS
330
1C23
102
}
330
1C23
100
AcDbXrecord
280
     1
102
RTVSPropertyOp0
 70
     1
102
RTVSPropertyOp1
 70
     1
102
RTVSPropertyOp2
 70
     1
102
RTVSPropertyOp3
 70
     1
102
RTVSPropertyOp4
 70
     1
102
RTVSPropertyOp5
 70
     1
102
RTVSPropertyOp6
 70
     1
102
RTVSPropertyOp7
 70
     1
102
RTVSPropertyOp8
 70
     1
102
RTVSPropertyOp9
 70
     1
102
RTVSPropertyOp10
 70
     1
102
RTVSPropertyOp11
 70
     1
102
RTVSPropertyOp12
 70
     1
102
RTVSPropertyOp13
 70
     1
102
RTVSPropertyOp14
 70
     1
102
RTVSPropertyOp15
 70
     1
102
RTVSPropertyOp16
 70
     1
102
RTVSPropertyOp17
 70
     1
102
RTVSPropertyOp18
 70
     1
102
RTVSPropertyOp19
 70
     1
102
RTVSPropertyOp20
 70
     1
102
RTVSPropertyOp21
 70
     1
102
RTVSPropertyOp22
 70
     1
102
RTVSPropertyOp23
 70
     1
102
RTVSPropertyOp24
 70
     1
102
RTVSPropertyOp25
 70
     1
102
RTVSPropertyOp26
 70
     1
102
RTVSPropertyOp27
 70
     1
102
RTVSPropertyOp28
 70
     1
102
RTVSPropertyOp29
 70
     1
102
RTVSPropertyOp30
 70
     1
102
RTVSPropertyOp31
 70
     1
102
RTVSPropertyOp32
 70
     1
  0
ENDSEC
  0
EOF
