  0
SECTION
  2
HEADER
  9
$ACADVER
  1
AC1021
  9
$ACADMAINTVER
 70
    25
  9
$DWGCODEPAGE
  3
ANSI_1252
  9
$INSBASE
 10
0.0
 20
0.0
 30
0.0
  9
$EXTMIN
 10
0.0
 20
0.0
 30
0.0
  9
$EXTMAX
 10
3000.0
 20
4500.0
 30
0.0
  9
$LIMMIN
 10
0.0
 20
0.0
  9
$LIMMAX
 10
3000.0
 20
4500.0
  9
$ORTHOMODE
 70
     0
  9
$REGENMODE
 70
     1
  9
$FILLMODE
 70
     1
  9
$QTEXTMODE
 70
     0
  9
$MIRRTEXT
 70
     1
  9
$LTSCALE
 40
1.0
  9
$ATTMODE
 70
     1
  9
$TEXTSIZE
 40
10.0
  9
$TRACEWID
 40
1.0
  9
$TEXTSTYLE
  7
Standard
  9
$CLAYER
  8
0
  9
$CELTYPE
  6
ByLayer
  9
$CECOLOR
 62
   256
  9
$CELTSCALE
 40
1.0
  9
$DISPSILH
 70
     0
  9
$DIMSCALE
 40
1.0
  9
$DIMASZ
 40
2.5
  9
$DIMEXO
 40
0.625
  9
$DIMDLI
 40
3.75
  9
$DIMRND
 40
0.0
  9
$DIMDLE
 40
0.0
  9
$DIMEXE
 40
1.25
  9
$DIMTP
 40
0.0
  9
$DIMTM
 40
0.0
  9
$DIMTXT
 40
2.5
  9
$DIMCEN
 40
2.5
  9
$DIMTSZ
 40
0.0
  9
$DIMTOL
 70
     0
  9
$DIMLIM
 70
     0
  9
$DIMTIH
 70
     0
  9
$DIMTOH
 70
     0
  9
$DIMSE1
 70
     0
  9
$DIMSE2
 70
     0
  9
$DIMTAD
 70
     1
  9
$DIMZIN
 70
     8
  9
$DIMBLK
  1

  9
$DIMASO
 70
     1
  9
$DIMSHO
 70
     1
  9
$DIMPOST
  1

  9
$DIMAPOST
  1

  9
$DIMALT
 70
     0
  9
$DIMALTD
 70
     3
  9
$DIMALTF
 40
0.0393700787
  9
$DIMLFAC
 40
1.0
  9
$DIMTOFL
 70
     1
  9
$DIMTVP
 40
0.0
  9
$DIMTIX
 70
     0
  9
$DIMSOXD
 70
     0
  9
$DIMSAH
 70
     0
  9
$DIMBLK1
  1

  9
$DIMBLK2
  1

  9
$DIMSTYLE
  2
ISO-25
  9
$DIMCLRD
 70
     0
  9
$DIMCLRE
 70
     0
  9
$DIMCLRT
 70
     0
  9
$DIMTFAC
 40
1.0
  9
$DIMGAP
 40
0.625
  9
$DIMJUST
 70
     0
  9
$DIMSD1
 70
     0
  9
$DIMSD2
 70
     0
  9
$DIMTOLJ
 70
     0
  9
$DIMTZIN
 70
     8
  9
$DIMALTZ
 70
     0
  9
$DIMALTTZ
 70
     0
  9
$DIMUPT
 70
     0
  9
$DIMDEC
 70
     2
  9
$DIMTDEC
 70
     2
  9
$DIMALTU
 70
     2
  9
$DIMALTTD
 70
     3
  9
$DIMTXSTY
  7
Standard
  9
$DIMAUNIT
 70
     0
  9
$DIMADEC
 70
     0
  9
$DIMALTRND
 40
0.0
  9
$DIMAZIN
 70
     0
  9
$DIMDSEP
 70
    44
  9
$DIMATFIT
 70
     3
  9
$DIMFRAC
 70
     0
  9
$DIMLDRBLK
  1

  9
$DIMLUNIT
 70
     2
  9
$DIMLWD
 70
    -2
  9
$DIMLWE
 70
    -2
  9
$DIMTMOVE
 70
     0
  9
$DIMFXL
 40
1.0
  9
$DIMFXLON
 70
     0
  9
$DIMJOGANG
 40
0.7853981634
  9
$DIMTFILL
 70
     0
  9
$DIMTFILLCLR
 70
     0
  9
$DIMARCSYM
 70
     0
  9
$DIMLTYPE
  6

  9
$DIMLTEX1
  6

  9
$DIMLTEX2
  6

  9
$LUNITS
 70
     2
  9
$LUPREC
 70
     4
  9
$SKETCHINC
 40
1.0
  9
$FILLETRAD
 40
10.0
  9
$AUNITS
 70
     0
  9
$AUPREC
 70
     0
  9
$MENU
  1
.
  9
$ELEVATION
 40
0.0
  9
$PELEVATION
 40
0.0
  9
$THICKNESS
 40
0.0
  9
$LIMCHECK
 70
     0
  9
$CHAMFERA
 40
0.0
  9
$CHAMFERB
 40
0.0
  9
$CHAMFERC
 40
0.0
  9
$CHAMFERD
 40
0.0
  9
$SKPOLY
 70
     0
  9
$TDCREATE
 40
2460341.563291945
  9
$TDUCREATE
 40
2460341.521625278
  9
$TDUPDATE
 40
2460341.563294086
  9
$TDUUPDATE
 40
2460341.521627419
  9
$TDINDWG
 40
0.0000000116
  9
$TDUSRTIMER
 40
0.0000000116
  9
$USRTIMER
 70
     1
  9
$ANGBASE
 50
0.0
  9
$ANGDIR
 70
     0
  9
$PDMODE
 70
     0
  9
$PDSIZE
 40
0.0
  9
$PLINEWID
 40
0.0
  9
$SPLFRAME
 70
     0
  9
$SPLINETYPE
 70
     6
  9
$SPLINESEGS
 70
     8
  9
$HANDSEED
  5
2AC
  9
$SURFTAB1
 70
     6
  9
$SURFTAB2
 70
     6
  9
$SURFTYPE
 70
     6
  9
$SURFU
 70
     6
  9
$SURFV
 70
     6
  9
$UCSBASE
  2

  9
$UCSNAME
  2

  9
$UCSORG
 10
0.0
 20
0.0
 30
0.0
  9
$UCSXDIR
 10
1.0
 20
0.0
 30
0.0
  9
$UCSYDIR
 10
0.0
 20
1.0
 30
0.0
  9
$UCSORTHOREF
  2

  9
$UCSORTHOVIEW
 70
     0
  9
$UCSORGTOP
 10
0.0
 20
0.0
 30
0.0
  9
$UCSORGBOTTOM
 10
0.0
 20
0.0
 30
0.0
  9
$UCSORGLEFT
 10
0.0
 20
0.0
 30
0.0
  9
$UCSORGRIGHT
 10
0.0
 20
0.0
 30
0.0
  9
$UCSORGFRONT
 10
0.0
 20
0.0
 30
0.0
  9
$UCSORGBACK
 10
0.0
 20
0.0
 30
0.0
  9
$PUCSBASE
  2

  9
$PUCSNAME
  2

  9
$PUCSORG
 10
0.0
 20
0.0
 30
0.0
  9
$PUCSXDIR
 10
1.0
 20
0.0
 30
0.0
  9
$PUCSYDIR
 10
0.0
 20
1.0
 30
0.0
  9
$PUCSORTHOREF
  2

  9
$PUCSORTHOVIEW
 70
     0
  9
$PUCSORGTOP
 10
0.0
 20
0.0
 30
0.0
  9
$PUCSORGBOTTOM
 10
0.0
 20
0.0
 30
0.0
  9
$PUCSORGLEFT
 10
0.0
 20
0.0
 30
0.0
  9
$PUCSORGRIGHT
 10
0.0
 20
0.0
 30
0.0
  9
$PUCSORGFRONT
 10
0.0
 20
0.0
 30
0.0
  9
$PUCSORGBACK
 10
0.0
 20
0.0
 30
0.0
  9
$USERI1
 70
     0
  9
$USERI2
 70
     0
  9
$USERI3
 70
     0
  9
$USERI4
 70
     0
  9
$USERI5
 70
     0
  9
$USERR1
 40
0.0
  9
$USERR2
 40
0.0
  9
$USERR3
 40
0.0
  9
$USERR4
 40
0.0
  9
$USERR5
 40
0.0
  9
$WORLDVIEW
 70
     1
  9
$SHADEDGE
 70
     3
  9
$SHADEDIF
 70
    70
  9
$TILEMODE
 70
     1
  9
$MAXACTVP
 70
    64
  9
$PINSBASE
 10
0.0
 20
0.0
 30
0.0
  9
$PLIMCHECK
 70
     0
  9
$PEXTMIN
 10
0.0
 20
0.0
 30
0.0
  9
$PEXTMAX
 10
3000.0
 20
4500.0
 30
0.0
  9
$PLIMMIN
 10
0.0
 20
0.0
  9
$PLIMMAX
 10
3000.0
 20
4500.0
  9
$UNITMODE
 70
     0
  9
$VISRETAIN
 70
     1
  9
$PLINEGEN
 70
     0
  9
$PSLTSCALE
 70
     1
  9
$TREEDEPTH
 70
  3020
  9
$CMLSTYLE
  2
Standard
  9
$CMLJUST
 70
     0
  9
$CMLSCALE
 40
20.0
  9
$PROXYGRAPHICS
 70
     1
  9
$MEASUREMENT
 70
     1
  9
$CELWEIGHT
370
    -1
  9
$ENDCAPS
280
     0
  9
$JOINSTYLE
280
     0
  9
$LWDISPLAY
290
     0
  9
$INSUNITS
 70
     4
  9
$HYPERLINKBASE
  1

  9
$STYLESHEET
  1

  9
$XEDIT
290
     1
  9
$CEPSNTYPE
380
     0
  9
$PSTYLEMODE
290
     1
  9
$FINGERPRINTGUID
  2
{938FD96A-131D-4996-8579-C4A5A8CA5AA7}
  9
$VERSIONGUID
  2
{FAEB1C32-E019-11D5-929B-00C0DF256EC4}
  9
$EXTNAMES
290
     1
  9
$PSVPSCALE
 40
0.0
  9
$OLESTARTUP
290
     0
  9
$SORTENTS
280
   127
  9
$INDEXCTL
280
     0
  9
$HIDETEXT
280
     1
  9
$XCLIPFRAME
290
     0
  9
$HALOGAP
280
     0
  9
$OBSCOLOR
 70
   257
  9
$OBSLTYPE
280
     0
  9
$INTERSECTIONDISPLAY
280
     0
  9
$INTERSECTIONCOLOR
 70
   257
  9
$DIMASSOC
280
     2
  9
$PROJECTNAME
  1

  9
$CAMERADISPLAY
290
     0
  9
$LENSLENGTH
 40
50.0
  9
$CAMERAHEIGHT
 40
0.0
  9
$STEPSPERSEC
 40
2.0
  9
$STEPSIZE
 40
6.0
  9
$3DDWFPREC
 40
2.0
  9
$PSOLWIDTH
 40
5.0
  9
$PSOLHEIGHT
 40
80.0
  9
$LOFTANG1
 40
1.5707963268
  9
$LOFTANG2
 40
1.5707963268
  9
$LOFTMAG1
 40
0.0
  9
$LOFTMAG2
 40
0.0
  9
$LOFTPARAM
 70
     7
  9
$LOFTNORMALS
280
     1
  9
$LATITUDE
 40
37.795
  9
$LONGITUDE
 40
-122.394
  9
$NORTHDIRECTION
 40
0.0
  9
$TIMEZONE
 70
 -8000
  9
$LIGHTGLYPHDISPLAY
280
     1
  9
$TILEMODELIGHTSYNCH
280
     1
  9
$CMATERIAL
347
44
  9
$SOLIDHIST
280
     0
  9
$SHOWHIST
280
     1
  9
$DWFFRAME
280
     2
  9
$DGNFRAME
280
     2
  9
$REALWORLDSCALE
290
     1
  9
$INTERFERECOLOR
 62
   256
  9
$CSHADOW
280
     0
  9
$SHADOWPLANELOCATION
 40
0.0
  0
ENDSEC
  0
SECTION
  2
CLASSES
  0
CLASS
  1
ACDBDICTIONARYWDFLT
  2
AcDbDictionaryWithDefault
  3
ObjectDBX Classes
 90
        0
 91
        4
280
     0
281
     0
  0
CLASS
  1
VISUALSTYLE
  2
AcDbVisualStyle
  3
ObjectDBX Classes
 90
     4095
 91
        4
280
     0
281
     0
  0
CLASS
  1
MATERIAL
  2
AcDbMaterial
  3
ObjectDBX Classes
 90
     1153
 91
        4
280
     0
281
     0
  0
CLASS
  1
SCALE
  2
AcDbScale
  3
ObjectDBX Classes
 90
     1153
 91
        4
280
     0
281
     0
  0
CLASS
  1
TABLESTYLE
  2
AcDbTableStyle
  3
ObjectDBX Classes
 90
     4095
 91
        4
280
     0
281
     0
  0
CLASS
  1
MLEADERSTYLE
  2
AcDbMLeaderStyle
  3
ACDB_MLEADERSTYLE_CLASS
 90
     4095
 91
        4
280
     0
281
     0
  0
CLASS
  1
SUN
  2
AcDbSun
  3
SCENEOE
 90
     1153
 91
        4
280
     0
281
     0
  0
CLASS
  1
DICTIONARYVAR
  2
AcDbDictionaryVar
  3
ObjectDBX Classes
 90
        0
 91
        4
280
     0
281
     0
  0
CLASS
  1
CELLSTYLEMAP
  2
AcDbCellStyleMap
  3
ObjectDBX Classes
 90
     1152
 91
        4
280
     0
281
     0
  0
ENDSEC
  0
SECTION
  2
TABLES
  0
TABLE
  2
VPORT
  5
8
330
0
100
AcDbSymbolTable
 70
     1
  0
VPORT
  5
29
330
8
100
AcDbSymbolTableRecord
100
AcDbViewportTableRecord
  2
*Active
 70
     0
 10
0.0
 20
0.0
 11
1.0
 21
1.0
 12
344.1869158879
 22
148.5
 13
0.0
 23
0.0
 14
10.0
 24
10.0
 15
10.0
 25
10.0
 16
0.0
 26
0.0
 36
1.0
 17
0.0
 27
0.0
 37
0.0
 40
297.0
 41
1.9729729729
 42
50.0
 43
0.0
 44
0.0
 50
0.0
 51
0.0
 71
     0
 72
   100
 73
     1
 74
     3
 75
     0
 76
     0
 77
     0
 78
     0
281
     0
 65
     1
110
0.0
120
0.0
130
0.0
111
1.0
121
0.0
131
0.0
112
0.0
122
1.0
132
0.0
 79
     0
146
0.0
348
2F
 60
     3
 61
     5
292
     1
282
     1
141
0.0
142
0.0
 63
   250
361
6D
  0
ENDTAB
  0
TABLE
  2
LTYPE
  5
5
330
0
100
AcDbSymbolTable
 70
     1
  0
LTYPE
  5
14
330
5
100
AcDbSymbolTableRecord
100
AcDbLinetypeTableRecord
  2
ByBlock
 70
     0
  3

 72
    65
 73
     0
 40
0.0
  0
LTYPE
  5
15
330
5
100
AcDbSymbolTableRecord
100
AcDbLinetypeTableRecord
  2
ByLayer
 70
     0
  3

 72
    65
 73
     0
 40
0.0
  0
LTYPE
  5
16
330
5
100
AcDbSymbolTableRecord
100
AcDbLinetypeTableRecord
  2
Continuous
 70
     0
  3
Solid line
 72
    65
 73
     0
 40
0.0
  0
ENDTAB
  0
TABLE
  2
LAYER
  5
2
330
0
100
AcDbSymbolTable
 70
     6
  0
LAYER
  5
10
330
2
100
AcDbSymbolTableRecord
100
AcDbLayerTableRecord
  2
0
 70
     0
 62
     7
  6
Continuous
370
    -3
390
F
347
46
  0
LAYER
  5
6E
330
2
100
AcDbSymbolTableRecord
100
AcDbLayerTableRecord
  2
Standard
 70
     0
 62
     7
  6
Continuous
370
    -3
390
F
347
46
  0
LAYER
  5
93
330
2
100
AcDbSymbolTableRecord
100
AcDbLayerTableRecord
  2
DV1_Standard
 70
     0
 62
     7
  6
Continuous
370
    -3
390
F
347
46
  0
LAYER
  5
CC
330
2
100
AcDbSymbolTableRecord
100
AcDbLayerTableRecord
  2
DV2_Standard
 70
     0
 62
     7
  6
Continuous
370
    -3
390
F
347
46
  0
LAYER
  5
16C
330
2
100
AcDbSymbolTableRecord
100
AcDbLayerTableRecord
  2
DV3_Standard
 70
     0
 62
     7
  6
Continuous
370
    -3
390
F
347
46
  0
LAYER
  5
265
330
2
100
AcDbSymbolTableRecord
100
AcDbLayerTableRecord
  2
Default
 70
     0
 62
     7
  6
Continuous
370
    -3
390
F
347
46
  0
ENDTAB
  0
TABLE
  2
STYLE
  5
3
330
0
100
AcDbSymbolTable
 70
     1
  0
STYLE
  5
11
330
3
100
AcDbSymbolTableRecord
100
AcDbTextStyleTableRecord
  2
Standard
 70
     0
 40
0.0
 41
1.0
 50
0.0
 71
     0
 42
10.0
  3
txt
  4

  0
ENDTAB
  0
TABLE
  2
VIEW
  5
6
330
0
100
AcDbSymbolTable
 70
     0
  0
ENDTAB
  0
TABLE
  2
UCS
  5
7
330
0
100
AcDbSymbolTable
 70
     0
  0
ENDTAB
  0
TABLE
  2
APPID
  5
9
330
0
100
AcDbSymbolTable
 70
     2
  0
APPID
  5
12
330
9
100
AcDbSymbolTableRecord
100
AcDbRegAppTableRecord
  2
ACAD
 70
     0
  0
APPID
  5
2A2
330
9
100
AcDbSymbolTableRecord
100
AcDbRegAppTableRecord
  2
ACAD_MLEADERVER
 70
     0
  0
ENDTAB
  0
TABLE
  2
DIMSTYLE
  5
A
330
0
100
AcDbSymbolTable
 70
     1
100
AcDbDimStyleTable
  0
DIMSTYLE
105
27
330
A
100
AcDbSymbolTableRecord
100
AcDbDimStyleTableRecord
  2
ISO-25
 70
     0
 41
2.5
 42
0.625
 43
3.75
 44
1.25
 73
     0
 74
     0
 77
     1
 78
     8
140
2.5
141
2.5
143
0.0393700787
147
0.625
171
     3
172
     1
178
     0
271
     2
272
     2
274
     3
278
    44
283
     0
284
     8
340
11
  0
ENDTAB
  0
TABLE
  2
BLOCK_RECORD
  5
1
330
0
100
AcDbSymbolTable
 70
     9
  0
BLOCK_RECORD
  5
1F
330
1
100
AcDbSymbolTableRecord
100
AcDbBlockTableRecord
  2
*Model_Space
340
22
 70
     0
280
     1
281
     0
  0
BLOCK_RECORD
  5
1B
330
1
100
AcDbSymbolTableRecord
100
AcDbBlockTableRecord
  2
*Paper_Space
340
1E
 70
     0
280
     1
281
     0
  0
BLOCK_RECORD
  5
6F
330
1
100
AcDbSymbolTableRecord
100
AcDbBlockTableRecord
  2
SEANNOT_GROUP
340
0
102
{BLKREFS
331
70
102
}
 70
     0
280
     1
281
     0
  0
BLOCK_RECORD
  5
75
330
1
100
AcDbSymbolTableRecord
100
AcDbBlockTableRecord
  2
SEANNOT_GROUP1
340
0
102
{BLKREFS
331
76
102
}
 70
     0
280
     1
281
     0
  0
BLOCK_RECORD
  5
7B
330
1
100
AcDbSymbolTableRecord
100
AcDbBlockTableRecord
  2
SEANNOT_GROUP2
340
0
102
{BLKREFS
331
7C
102
}
 70
     0
280
     1
281
     0
  0
BLOCK_RECORD
  5
85
330
1
100
AcDbSymbolTableRecord
100
AcDbBlockTableRecord
  2
SEANNOT_GROUP3
340
0
102
{BLKREFS
331
86
102
}
 70
     0
280
     1
281
     0
  0
BLOCK_RECORD
  5
8B
330
1
100
AcDbSymbolTableRecord
100
AcDbBlockTableRecord
  2
SEANNOT_GROUP4
340
0
102
{BLKREFS
331
8C
102
}
 70
     0
280
     1
281
     0
  0
BLOCK_RECORD
  5
91
330
1
100
AcDbSymbolTableRecord
100
AcDbBlockTableRecord
  2
SE
340
0
102
{BLKREFS
331
92
102
}
 70
     0
280
     1
281
     0
  0
BLOCK_RECORD
  5
CA
330
1
100
AcDbSymbolTableRecord
100
AcDbBlockTableRecord
  2
SE1
340
0
102
{BLKREFS
331
CB
102
}
 70
     0
280
     1
281
     0
  0
BLOCK_RECORD
  5
16A
330
1
100
AcDbSymbolTableRecord
100
AcDbBlockTableRecord
  2
SE2
340
0
102
{BLKREFS
331
16B
102
}
 70
     0
280
     1
281
     0
  0
ENDTAB
  0
ENDSEC
  0
SECTION
  2
BLOCKS
  0
BLOCK
  5
20
330
1F
100
AcDbEntity
  8
0
100
AcDbBlockBegin
  2
*Model_Space
 70
     0
 10
0.0
 20
0.0
 30
0.0
  3
*Model_Space
  1

  0
ENDBLK
  5
21
330
1F
100
AcDbEntity
  8
0
100
AcDbBlockEnd
  0
BLOCK
  5
1C
330
1B
100
AcDbEntity
 67
     1
  8
0
100
AcDbBlockBegin
  2
*Paper_Space
 70
     0
 10
0.0
 20
0.0
 30
0.0
  3
*Paper_Space
  1

  0
ENDBLK
  5
1D
330
1B
100
AcDbEntity
 67
     1
  8
0
100
AcDbBlockEnd
  0
BLOCK
  5
73
330
6F
100
AcDbEntity
  8
0
100
AcDbBlockBegin
  2
SEANNOT_GROUP
 70
     0
 10
0.0
 20
0.0
 30
0.0
  3
SEANNOT_GROUP
  1

  0
LINE
  5
71
330
6F
100
AcDbEntity
  8
Standard
 62
   136
100
AcDbLine
 10
362.5537314215
 20
448.2427148075
 30
0.0
 11
355.5537312055
 21
448.2427148075
 31
0.0
  0
LINE
  5
72
330
6F
100
AcDbEntity
  8
Standard
 62
   136
100
AcDbLine
 10
359.0537313135
 20
451.7427149155
 30
0.0
 11
359.0537313135
 21
444.7427146994
 31
0.0
  0
ENDBLK
  5
74
330
6F
100
AcDbEntity
  8
0
100
AcDbBlockEnd
  0
BLOCK
  5
79
330
75
100
AcDbEntity
  8
0
100
AcDbBlockBegin
  2
SEANNOT_GROUP1
 70
     0
 10
0.0
 20
0.0
 30
0.0
  3
SEANNOT_GROUP1
  1

  0
LINE
  5
77
330
75
100
AcDbEntity
  8
Standard
 62
   136
100
AcDbLine
 10
244.850000108
 20
254.5841662338
 30
0.0
 11
237.849999892
 21
254.5841662338
 31
0.0
  0
LINE
  5
78
330
75
100
AcDbEntity
  8
Standard
 62
   136
100
AcDbLine
 10
241.35
 20
258.0841663419
 30
0.0
 11
241.35
 21
251.0841661258
 31
0.0
  0
ENDBLK
  5
7A
330
75
100
AcDbEntity
  8
0
100
AcDbBlockEnd
  0
BLOCK
  5
7F
330
7B
100
AcDbEntity
  8
0
100
AcDbBlockBegin
  2
SEANNOT_GROUP2
 70
     0
 10
0.0
 20
0.0
 30
0.0
  3
SEANNOT_GROUP2
  1

  0
LINE
  5
7D
330
7B
100
AcDbEntity
  8
Standard
 62
   136
100
AcDbLine
 10
94.850000108
 20
254.5841662339
 30
0.0
 11
87.849999892
 21
254.5841662339
 31
0.0
  0
LINE
  5
7E
330
7B
100
AcDbEntity
  8
Standard
 62
   136
100
AcDbLine
 10
91.35
 20
258.0841663419
 30
0.0
 11
91.35
 21
251.0841661259
 31
0.0
  0
ENDBLK
  5
80
330
7B
100
AcDbEntity
  8
0
100
AcDbBlockEnd
  0
BLOCK
  5
89
330
85
100
AcDbEntity
  8
0
100
AcDbBlockBegin
  2
SEANNOT_GROUP3
 70
     0
 10
0.0
 20
0.0
 30
0.0
  3
SEANNOT_GROUP3
  1

  0
LINE
  5
87
330
85
100
AcDbEntity
  8
Standard
 62
   136
100
AcDbLine
 10
94.8033805231
 20
448.2427148075
 30
0.0
 11
87.8033803071
 21
448.2427148075
 31
0.0
  0
LINE
  5
88
330
85
100
AcDbEntity
  8
Standard
 62
   136
100
AcDbLine
 10
91.3033804151
 20
451.7427149155
 30
0.0
 11
91.3033804151
 21
444.7427146994
 31
0.0
  0
ENDBLK
  5
8A
330
85
100
AcDbEntity
  8
0
100
AcDbBlockEnd
  0
BLOCK
  5
8F
330
8B
100
AcDbEntity
  8
0
100
AcDbBlockBegin
  2
SEANNOT_GROUP4
 70
     0
 10
0.0
 20
0.0
 30
0.0
  3
SEANNOT_GROUP4
  1

  0
LINE
  5
8D
330
8B
100
AcDbEntity
  8
Standard
 62
   136
100
AcDbLine
 10
244.8033805231
 20
448.2427148075
 30
0.0
 11
237.8033803071
 21
448.2427148075
 31
0.0
  0
LINE
  5
8E
330
8B
100
AcDbEntity
  8
Standard
 62
   136
100
AcDbLine
 10
241.3033804151
 20
451.7427149155
 30
0.0
 11
241.3033804151
 21
444.7427146994
 31
0.0
  0
ENDBLK
  5
90
330
8B
100
AcDbEntity
  8
0
100
AcDbBlockEnd
  0
BLOCK
  5
C8
330
91
100
AcDbEntity
  8
0
100
AcDbBlockBegin
  2
SE
 70
     0
 10
0.0
 20
0.0
 30
0.0
  3
SE
  1

  0
SPLINE
  5
94
330
91
100
AcDbEntity
  8
DV1_Standard
 62
     7
100
AcDbSpline
210
0.0
220
0.0
230
1.0
 70
     8
 71
     5
 72
    47
 73
    41
 74
     0
 42
0.000000001
 43
0.0000000001
 40
0.0
 40
0.0
 40
0.0
 40
0.0
 40
0.0
 40
0.0
 40
0.000684268788831
 40
0.000684268788831
 40
0.000684268788831
 40
0.000684268788831
 40
0.000684268788831
 40
0.2367978202170957
 40
0.2367978202170957
 40
0.2367978202170957
 40
0.2367978202170957
 40
0.2367978202170957
 40
0.2374820890059271
 40
0.2374820890059271
 40
0.2374820890059271
 40
0.2374820890059271
 40
0.2374820890059271
 40
0.5000000000000022
 40
0.5000000000000022
 40
0.5000000000000022
 40
0.5000000000000022
 40
0.5000000000000022
 40
0.5006842687888329
 40
0.5006842687888329
 40
0.5006842687888329
 40
0.5006842687888329
 40
0.5006842687888329
 40
0.7367978202170994
 40
0.7367978202170994
 40
0.7367978202170994
 40
0.7367978202170994
 40
0.7367978202170994
 40
0.73748208900593
 40
0.73748208900593
 40
0.73748208900593
 40
0.73748208900593
 40
0.73748208900593
 40
1.0
 40
1.0
 40
1.0
 40
1.0
 40
1.0
 40
1.0
 10
226.350000000002
 20
413.2427148074797
 30
0.0
 10
226.3673380512105
 20
413.2427148074797
 30
0.0
 10
226.384676102419
 20
413.2427148074797
 30
0.0
 10
226.4020141536275
 20
413.2427148074797
 30
0.0
 10
226.4193522048361
 20
413.2427148074797
 30
0.0
 10
226.4366902560446
 20
413.2427148074797
 30
0.0
 10
232.4193522048363
 20
413.2427148074797
 30
0.0
 10
238.4020141536281
 20
413.2427148074797
 30
0.0
 10
244.3846761024198
 20
413.2427148074797
 30
0.0
 10
250.3673380512116
 20
413.2427148074797
 30
0.0
 10
256.3500000000034
 20
413.2427148074797
 30
0.0
 10
256.3686478874582
 20
413.2427148074797
 30
0.0
 10
256.387295774913
 20
413.2427148074797
 30
0.0
 10
256.4059436356839
 20
413.2427149068345
 30
0.0
 10
256.4245914429674
 20
413.2427152044518
 30
0.0
 10
256.4432391698419
 20
413.2427157987933
 30
0.0
 10
263.5973902633481
 20
413.2429438163431
 30
0.0
 10
270.7397063331746
 20
413.2868452816459
 30
0.0
 10
276.3500000000032
 20
418.9342894079905
 30
0.0
 10
276.3500000000032
 20
426.0885021077351
 30
0.0
 10
276.3500000000032
 20
433.2427148074797
 30
0.0
 10
276.3500000000032
 20
433.2600528586883
 30
0.0
 10
276.3500000000032
 20
433.2773909098968
 30
0.0
 10
276.3500000000032
 20
433.2947289611052
 30
0.0
 10
276.3500000000032
 20
433.3120670123137
 30
0.0
 10
276.3500000000032
 20
433.3294050635222
 30
0.0
 10
276.3500000000032
 20
439.312067012314
 30
0.0
 10
276.3500000000031
 20
445.2947289611058
 30
0.0
 10
276.3500000000031
 20
451.2773909098976
 30
0.0
 10
276.3500000000031
 20
457.2600528586893
 30
0.0
 10
276.3500000000031
 20
463.2427148074811
 30
0.0
 10
276.3500000000031
 20
463.2613626949359
 30
0.0
 10
276.3500000000031
 20
463.2800105823908
 30
0.0
 10
276.3499999006484
 20
463.2986584431617
 30
0.0
 10
276.3499996030312
 20
463.3173062504451
 30
0.0
 10
276.3499990086896
 20
463.3359539773197
 30
0.0
 10
276.3497709911398
 20
470.4901050708258
 30
0.0
 10
276.305869525837
 20
477.6324211406524
 30
0.0
 10
270.6584253994926
 20
483.2427148074809
 30
0.0
 10
263.5042126997479
 20
483.242714807481
 30
0.0
 10
256.3500000000034
 20
483.242714807481
 30
0.0
  0
SPLINE
  5
95
330
91
100
AcDbEntity
  8
DV1_Standard
 62
     7
100
AcDbSpline
210
0.0
220
0.0
230
1.0
 70
     8
 71
     5
 72
    12
 73
     6
 74
     0
 42
0.000000001
 43
0.0000000001
 40
0.0
 40
0.0
 40
0.0
 40
0.0
 40
0.0
 40
0.0
 40
1.0
 40
1.0
 40
1.0
 40
1.0
 40
1.0
 40
1.0
 10
226.2567608301637
 20
483.2427138161674
 30
0.0
 10
219.9644644852862
 20
483.2425132677059
 30
0.0
 10
213.681323412405
 20
483.2085280556894
 30
0.0
 10
208.441646609707
 20
479.3579200679977
 30
0.0
 10
206.8105450793275
 20
473.6865549347817
 30
0.0
 10
206.4381950759841
 20
467.523265277097
 30
0.0
  0
SPLINE
  5
96
330
91
100
AcDbEntity
  8
DV1_Standard
 62
     7
100
AcDbSpline
210
0.0
220
0.0
230
1.0
 70
     8
 71
     5
 72
    12
 73
     6
 74
     0
 42
0.000000001
 43
0.0000000001
 40
0.0
 40
0.0
 40
0.0
 40
0.0
 40
0.0
 40
0.0
 40
0.9999999999999999
 40
0.9999999999999999
 40
0.9999999999999999
 40
0.9999999999999999
 40
0.9999999999999999
 40
0.9999999999999999
 10
206.3967680594157
 20
429.7940291188079
 30
0.0
 10
206.6517087565037
 20
423.3981550604232
 30
0.0
 10
208.0292092445748
 20
417.4119995862092
 30
0.0
 10
213.3896370075405
 20
413.2427148074797
 30
0.0
 10
219.8698185037713
 20
413.2427148074797
 30
0.0
 10
226.350000000002
 20
413.2427148074797
 30
0.0
  0
SPLINE
  5
97
330
91
100
AcDbEntity
  8
DV1_Standard
 62
     7
100
AcDbSpline
210
0.0
220
0.0
230
1.0
 70
     8
 71
     5
 72
    27
 73
    21
 74
     0
 42
0.000000001
 43
0.0000000001
 40
0.0
 40
0.0
 40
0.0
 40
0.0
 40
0.0
 40
0.0
 40
0.0014418354970603
 40
0.0014418354970603
 40
0.0014418354970603
 40
0.0014418354970603
 40
0.0014418354970603
 40
0.4989610930506104
 40
0.4989610930506104
 40
0.4989610930506104
 40
0.4989610930506104
 40
0.4989610930506104
 40
0.5004029285476715
 40
0.5004029285476715
 40
0.5004029285476715
 40
0.5004029285476715
 40
0.5004029285476715
 40
1.0
 40
1.0
 40
1.0
 40
1.0
 40
1.0
 40
1.0
 10
76.35000000000213
 20
413.2427148074798
 30
0.0
 10
76.36733805121062
 20
413.2427148074798
 30
0.0
 10
76.38467610241912
 20
413.2427148074798
 30
0.0
 10
76.40201415362763
 20
413.2427148074798
 30
0.0
 10
76.41935220483623
 20
413.2427148074798
 30
0.0
 10
76.43669025604473
 20
413.2427148074798
 30
0.0
 10
82.41935220483646
 20
413.2427148074798
 30
0.0
 10
88.40201415362822
 20
413.2427148074798
 30
0.0
 10
94.38467610241997
 20
413.2427148074798
 30
0.0
 10
100.3673380512117
 20
413.2427148074798
 30
0.0
 10
106.3500000000035
 20
413.2427148074798
 30
0.0
 10
106.3686478874583
 20
413.2427148074798
 30
0.0
 10
106.3872957749131
 20
413.2427148074798
 30
0.0
 10
106.405943635684
 20
413.2427149068346
 30
0.0
 10
106.4245914429675
 20
413.2427152044519
 30
0.0
 10
106.443239169842
 20
413.2427157987934
 30
0.0
 10
112.9046903927519
 20
413.2429217385697
 30
0.0
 10
119.3564874875989
 20
413.2787532139568
 30
0.0
 10
124.678643383844
 20
417.4464037057637
 30
0.0
 10
126.0490021935474
 20
423.4164614958757
 30
0.0
 10
126.3032266795131
 20
429.7938971353994
 30
0.0
  0
SPLINE
  5
98
330
91
100
AcDbEntity
  8
DV1_Standard
 62
     7
100
AcDbSpline
210
0.0
220
0.0
230
1.0
 70
     8
 71
     5
 72
    12
 73
     6
 74
     0
 42
0.000000001
 43
0.0000000001
 40
0.0
 40
0.0
 40
0.0
 40
0.0
 40
0.0
 40
0.0
 40
1.0
 40
1.0
 40
1.0
 40
1.0
 40
1.0
 40
1.0
 10
126.2618402786119
 20
467.5226799965158
 30
0.0
 10
125.8884756212699
 20
473.7043895950503
 30
0.0
 10
124.2489742945726
 20
479.39131205635
 30
0.0
 10
118.9722358477163
 20
483.242714807481
 30
0.0
 10
112.6611179238599
 20
483.242714807481
 30
0.0
 10
106.3500000000035
 20
483.242714807481
 30
0.0
  0
SPLINE
  5
99
330
91
100
AcDbEntity
  8
DV1_Standard
 62
     7
100
AcDbSpline
210
0.0
220
0.0
230
1.0
 70
     8
 71
     5
 72
    32
 73
    26
 74
     0
 42
0.000000001
 43
0.0000000001
 40
0.0
 40
0.0
 40
0.0
 40
0.0
 40
0.0
 40
0.0
 40
0.3442776978862516
 40
0.3442776978862516
 40
0.3442776978862516
 40
0.3442776978862516
 40
0.3442776978862516
 40
0.3451750784972087
 40
0.3451750784972087
 40
0.3451750784972087
 40
0.3451750784972087
 40
0.3451750784972087
 40
0.6548249215027916
 40
0.6548249215027916
 40
0.6548249215027916
 40
0.6548249215027916
 40
0.6548249215027916
 40
0.6557223021137485
 40
0.6557223021137485
 40
0.6557223021137485
 40
0.6557223021137485
 40
0.6557223021137485
 40
1.0
 40
1.0
 40
1.0
 40
1.0
 40
1.0
 40
1.0
 10
76.25676083016381
 20
483.2427138161675
 30
0.0
 10
69.10260973665753
 20
483.2424857986177
 30
0.0
 10
61.96029366683102
 20
483.198584333315
 30
0.0
 10
56.35000000000233
 20
477.5511402069706
 30
0.0
 10
56.35000000000222
 20
470.3969275072259
 30
0.0
 10
56.35000000000222
 20
463.2427148074811
 30
0.0
 10
56.35000000000222
 20
463.2253767562727
 30
0.0
 10
56.35000000000222
 20
463.2080387050642
 30
0.0
 10
56.3500000000021
 20
463.1907006538556
 30
0.0
 10
56.3500000000021
 20
463.1733626026471
 30
0.0
 10
56.3500000000021
 20
463.1560245514386
 30
0.0
 10
56.35000000000212
 20
457.1733626026469
 30
0.0
 10
56.35000000000212
 20
451.1907006538551
 30
0.0
 10
56.35000000000222
 20
445.2080387050632
 30
0.0
 10
56.35000000000222
 20
439.2253767562715
 30
0.0
 10
56.35000000000222
 20
433.2427148074798
 30
0.0
 10
56.35000000000222
 20
433.2240669200249
 30
0.0
 10
56.35000000000222
 20
433.20541903257
 30
0.0
 10
56.35000009935702
 20
433.1867711717993
 30
0.0
 10
56.35000039697423
 20
433.1681233645158
 30
0.0
 10
56.35000099131572
 20
433.1494756376414
 30
0.0
 10
56.35022900886562
 20
425.9953245441351
 30
0.0
 10
56.39413047416833
 20
418.8530084743086
 30
0.0
 10
62.04157460051282
 20
413.2427148074798
 30
0.0
 10
69.19578730025754
 20
413.2427148074798
 30
0.0
 10
76.35000000000213
 20
413.2427148074798
 30
0.0
  0
LINE
  5
9A
330
91
100
AcDbEntity
  8
DV1_Standard
 62
     7
100
AcDbLine
 10
158.6398956318
 20
463.2234268888
 30
0.0
 11
174.0600707982
 21
463.2234268888
 31
0.0
  0
SPLINE
  5
9B
330
91
100
AcDbEntity
  8
DV1_Standard
 62
     7
100
AcDbSpline
210
0.0
220
0.0
230
1.0
 70
     8
 71
     3
 72
    35
 73
    31
 74
     0
 42
0.000000001
 43
0.0000000001
 40
0.0
 40
0.0
 40
0.0
 40
0.0
 40
0.125
 40
0.125
 40
0.125
 40
0.25
 40
0.25
 40
0.25
 40
0.3124999999999999
 40
0.3124999999999999
 40
0.3124999999999999
 40
0.3749999999999999
 40
0.3749999999999999
 40
0.3749999999999999
 40
0.4375
 40
0.4375
 40
0.4375
 40
0.5
 40
0.5
 40
0.5
 40
0.5625
 40
0.5625
 40
0.5625
 40
0.6249999999999999
 40
0.6249999999999999
 40
0.6249999999999999
 40
0.7499999999999999
 40
0.7499999999999999
 40
0.7499999999999999
 40
1.0
 40
1.0
 40
1.0
 40
1.0
 10
174.0600707982008
 20
463.223426888836
 30
0.0
 10
175.1393728060448
 20
463.2234268921674
 30
0.0
 10
176.223644457889
 20
463.2221146325127
 30
0.0
 10
177.3120959570897
 20
463.1594268201637
 30
0.0
 10
178.4005474562902
 20
463.0967390078147
 30
0.0
 10
179.4880806486509
 20
462.9731877912225
 30
0.0
 10
180.5529223150062
 20
462.7401062527297
 30
0.0
 10
181.0853431481839
 20
462.6235654834833
 30
0.0
 10
181.6128213757385
 20
462.4797089419575
 30
0.0
 10
182.1340873652747
 20
462.3014667002122
 30
0.0
 10
182.6553533548109
 20
462.1232244584671
 30
0.0
 10
183.1715940393327
 20
461.9093260958543
 30
0.0
 10
183.6645686189709
 20
461.6610874758603
 30
0.0
 10
184.1575431986091
 20
461.4128488558663
 30
0.0
 10
184.6302279085065
 20
461.1296967938697
 30
0.0
 10
185.0807967883459
 20
460.807529291252
 30
0.0
 10
185.5313656681853
 20
460.4853617886342
 30
0.0
 10
185.9613174358433
 20
460.1215218109094
 30
0.0
 10
186.3524851209485
 20
459.7294806002459
 30
0.0
 10
186.7436528060538
 20
459.3374393895825
 30
0.0
 10
187.0989744446997
 20
458.9160714198406
 30
0.0
 10
187.4201402332784
 20
458.4660558597521
 30
0.0
 10
187.7413060218572
 20
458.0160402996636
 30
0.0
 10
188.0293565285885
 20
457.5340061398763
 30
0.0
 10
188.277063067866
 20
457.0399875550043
 30
0.0
 10
188.7724761464208
 20
456.0519503852603
 30
0.0
 10
189.1151200225989
 20
455.0107058278377
 30
0.0
 10
189.3500108695253
 20
453.9336449192813
 30
0.0
 10
189.8197925633781
 20
451.7795231021684
 30
0.0
 10
189.8307111627812
 20
449.6047525619813
 30
0.0
 10
189.8307111558103
 20
447.4527953996555
 30
0.0
  0
LINE
  5
9C
330
91
100
AcDbEntity
  8
DV1_Standard
 62
     7
100
AcDbLine
 10
189.8307111558
 20
447.4527953997
 30
0.0
 11
189.8307111558
 21
432.029044764
 31
0.0
  0
SPLINE
  5
9D
330
91
100
AcDbEntity
  8
DV1_Standard
 62
     7
100
AcDbSpline
210
0.0
220
0.0
230
1.0
 70
     8
 71
     3
 72
    20
 73
    16
 74
     0
 42
0.000000001
 43
0.0000000001
 40
0.0
 40
0.0
 40
0.0
 40
0.0
 40
0.2903521638992598
 40
0.2903521638992598
 40
0.2903521638992598
 40
0.5807043277985197
 40
0.5807043277985197
 40
0.5807043277985197
 40
0.7258804097481496
 40
0.7258804097481496
 40
0.7258804097481496
 40
0.8710564916977793
 40
0.8710564916977793
 40
0.8710564916977793
 40
1.0
 40
1.0
 40
1.0
 40
1.0
 10
189.8307111558116
 20
432.0290447639865
 30
0.0
 10
189.8307111590878
 20
430.9510259766981
 30
0.0
 10
189.829171674825
 20
429.8656605935512
 30
0.0
 10
189.7670482279506
 20
428.7834516561367
 30
0.0
 10
189.7049247810762
 20
427.7012427187223
 30
0.0
 10
189.5837616332028
 20
426.6229980577639
 30
0.0
 10
189.3513788490297
 20
425.5555435981178
 30
0.0
 10
189.2351874569431
 20
425.0218163682947
 30
0.0
 10
189.0900774003521
 20
424.487774350686
 30
0.0
 10
188.9117649582241
 20
423.9651664670253
 30
0.0
 10
188.7334525160961
 20
423.4425585833644
 30
0.0
 10
188.52353131361
 20
422.9350416368339
 30
0.0
 10
188.277821221525
 20
422.4448952159763
 30
0.0
 10
188.0595847126372
 20
422.0095535382123
 30
0.0
 10
187.8131885512687
 20
421.5879388147584
 30
0.0
 10
187.5350576678003
 20
421.1818820992841
 30
0.0
  0
SPLINE
  5
9E
330
91
100
AcDbEntity
  8
DV1_Standard
 62
     7
100
AcDbSpline
210
0.0
220
0.0
230
1.0
 70
     8
 71
     3
 72
    12
 73
     8
 74
     0
 42
0.000000001
 43
0.0000000001
 40
0.0
 40
0.0
 40
0.0
 40
0.0
 40
0.1274017944594925
 40
0.1274017944594925
 40
0.4182678629729914
 40
0.4182678629729914
 40
0.9999999999999999
 40
0.9999999999999999
 40
0.9999999999999999
 40
0.9999999999999999
 10
145.1649392032015
 20
421.181904903667
 30
0.0
 10
144.8911103569025
 20
421.581978216871
 30
0.0
 10
144.6428807401033
 20
422.005287317492
 30
0.0
 10
143.9292865252017
 20
423.4264089001889
 30
0.0
 10
143.5847065512744
 20
424.4729321416232
 30
0.0
 10
142.8803267258181
 20
427.7024603518108
 30
0.0
 10
142.8692513138517
 20
429.8752049020347
 30
0.0
 10
142.869286880915
 20
432.0290447779877
 30
0.0
  0
LINE
  5
9F
330
91
100
AcDbEntity
  8
DV1_Standard
 62
     7
100
AcDbLine
 10
142.8692868809
 20
432.029044778
 30
0.0
 11
142.8692868809
 21
447.4527953951
 31
0.0
  0
SPLINE
  5
A0
330
91
100
AcDbEntity
  8
DV1_Standard
 62
     7
100
AcDbSpline
210
0.0
220
0.0
230
1.0
 70
     8
 71
     3
 72
    35
 73
    31
 74
     0
 42
0.000000001
 43
0.0000000001
 40
0.0
 40
0.0
 40
0.0
 40
0.0
 40
0.125
 40
0.125
 40
0.125
 40
0.25
 40
0.25
 40
0.25
 40
0.3125
 40
0.3125
 40
0.3125
 40
0.375
 40
0.375
 40
0.375
 40
0.4375
 40
0.4375
 40
0.4375
 40
0.5
 40
0.5
 40
0.5
 40
0.5625
 40
0.5625
 40
0.5625
 40
0.625
 40
0.625
 40
0.625
 40
0.75
 40
0.75
 40
0.75
 40
1.0
 40
1.0
 40
1.0
 40
1.0
 10
142.8692868809151
 20
447.4527953950702
 30
0.0
 10
142.8692868776462
 20
448.5309650045144
 30
0.0
 10
142.870826431843
 20
449.6164549749274
 30
0.0
 10
142.9329404085387
 20
450.6987840599486
 30
0.0
 10
142.9950543852343
 20
451.7811131449697
 30
0.0
 10
143.116196833927
 20
452.8595153380911
 30
0.0
 10
143.3485830503123
 20
453.9272001577793
 30
0.0
 10
143.464776158505
 20
454.4610425676234
 30
0.0
 10
143.6099112667866
 20
454.9952560731076
 30
0.0
 10
143.7882072994243
 20
455.5179029602104
 30
0.0
 10
143.966503332062
 20
456.0405498473132
 30
0.0
 10
144.1764107494826
 20
456.5481295073001
 30
0.0
 10
144.4221214028834
 20
457.0383646749391
 30
0.0
 10
144.6678320562842
 20
457.5285998425781
 30
0.0
 10
144.949254240794
 20
458.0014617721844
 30
0.0
 10
145.2714996729042
 20
458.4543271735319
 30
0.0
 10
145.5937451050144
 20
458.9071925748793
 30
0.0
 10
145.9553222823047
 20
459.3361167424497
 30
0.0
 10
146.3448532965828
 20
459.7268140297302
 30
0.0
 10
146.7343843108609
 20
460.1175113170107
 30
0.0
 10
147.1541658799641
 20
460.4737532673821
 30
0.0
 10
147.6039104755677
 20
460.7965749021837
 30
0.0
 10
148.0536550711713
 20
461.1193965369854
 30
0.0
 10
148.535365520502
 20
461.4088205635059
 30
0.0
 10
149.0280065574125
 20
461.657346249537
 30
0.0
 10
150.0132886312336
 20
462.1543976215993
 30
0.0
 10
151.0571834089806
 20
462.5006030364823
 30
0.0
 10
152.1341780270117
 20
462.7372775120696
 30
0.0
 10
154.288167263074
 20
463.2106264632441
 30
0.0
 10
156.4764868354992
 20
463.2234268957313
 30
0.0
 10
158.6398956318218
 20
463.223426888836
 30
0.0
  0
ARC
  5
A1
330
91
100
AcDbEntity
  8
DV1_Standard
 62
     7
100
AcDbCircle
 10
-2371.1383305517
 20
534.9281386766
 30
0.0
 40
2561.087463883826
100
AcDbArc
 50
356.4234900725
 51
357.1525643156
  0
SPLINE
  5
A2
330
91
100
AcDbEntity
  8
DV1_Standard
 62
     7
100
AcDbSpline
210
0.0
220
0.0
230
1.0
 70
     8
 71
     3
 72
    10
 73
     6
 74
     0
 42
0.000000001
 43
0.0000000001
 40
0.0
 40
0.0
 40
0.0
 40
0.0
 40
0.3551050540213909
 40
0.3551050540213909
 40
0.9999999999999999
 40
0.9999999999999999
 40
0.9999999999999999
 40
0.9999999999999999
 10
178.3312433743504
 20
346.7293770429542
 30
0.0
 10
177.458289564891
 20
346.26708548818
 30
0.0
 10
176.516692480644
 20
345.9313401609534
 30
0.0
 10
173.8191108880047
 20
345.3191578104635
 30
0.0
 10
172.0344467719403
 20
345.28498193721
 30
0.0
 10
170.2477283249779
 20
345.2842504314153
 30
0.0
  0
SPLINE
  5
A3
330
91
100
AcDbEntity
  8
DV1_Standard
 62
     7
100
AcDbSpline
210
0.0
220
0.0
230
1.0
 70
     8
 71
     3
 72
    10
 73
     6
 74
     0
 42
0.000000001
 43
0.0000000001
 40
0.0
 40
0.0
 40
0.0
 40
0.0
 40
0.6612478348082389
 40
0.6612478348082389
 40
1.0
 40
1.0
 40
1.0
 40
1.0
 10
162.4522697115179
 20
345.2842504314166
 30
0.0
 10
160.6604696655356
 20
345.2849840201264
 30
0.0
 10
158.8432433721132
 20
345.3230343379108
 30
0.0
 10
156.2192885564197
 20
345.9256323776023
 30
0.0
 10
155.3440045502229
 20
346.2326490274054
 30
0.0
 10
154.5250195397691
 20
346.6486356555277
 30
0.0
  0
ARC
  5
A4
330
91
100
AcDbEntity
  8
DV1_Standard
 62
     7
100
AcDbCircle
 10
2703.8383593336
 20
534.9281402847
 30
0.0
 40
2561.087494670722
100
AcDbArc
 50
182.8474356082
 51
183.5649539635
  0
ARC
  5
A5
330
91
100
AcDbEntity
  8
DV1_Standard
 62
     7
100
AcDbCircle
 10
574.5969442304
 20
438.2489696114
 30
0.0
 40
429.7710223673114
100
AcDbArc
 50
182.1503788349
 51
184.0758887059
  0
ARC
  5
A6
330
91
100
AcDbEntity
  8
DV1_Standard
 62
     7
100
AcDbCircle
 10
-241.9207679027
 20
438.2502799983
 30
0.0
 40
429.7948770404897
100
AcDbArc
 50
355.9241623029
 51
357.8495709168
  0
SPLINE
  5
A7
330
91
100
AcDbEntity
  8
DV1_Standard
 62
     7
100
AcDbSpline
210
0.0
220
0.0
230
1.0
 70
     8
 71
     3
 72
    16
 73
    12
 74
     0
 42
0.000000001
 43
0.0000000001
 40
0.0
 40
0.0
 40
0.0
 40
0.0
 40
0.2500000000000001
 40
0.2500000000000001
 40
0.5000000000000001
 40
0.5000000000000001
 40
0.625
 40
0.625
 40
0.7499999999999999
 40
0.7499999999999999
 40
1.0
 40
1.0
 40
1.0
 40
1.0
 10
189.0530472303143
 20
447.0988061045704
 30
0.0
 10
188.9677643770089
 20
448.9761466633261
 30
0.0
 10
188.866256209151
 20
450.8764694955833
 30
0.0
 10
188.0216223984258
 20
454.5986087342753
 30
0.0
 10
187.255419382506
 20
456.4655993362072
 30
0.0
 10
185.2670115780069
 20
458.7739149306553
 30
0.0
 10
184.4869284406458
 20
459.4410995620558
 30
0.0
 10
182.6692049834839
 20
460.5487167177787
 30
0.0
 10
181.672275175975
 20
460.9618900242347
 30
0.0
 10
178.5147273240901
 20
461.8410699169646
 30
0.0
 10
176.239741852832
 20
461.9132090796763
 30
0.0
 10
174.0600412322698
 20
461.9446972401641
 30
0.0
  0
ARC
  5
A8
330
91
100
AcDbEntity
  8
DV1_Standard
 62
     7
100
AcDbCircle
 10
166.2806445798
 20
-72.0217640591
 30
0.0
 40
534.0231275935015
100
AcDbArc
 50
89.1653126267
 51
89.9925589054
  0
ARC
  5
A9
330
91
100
AcDbEntity
  8
DV1_Standard
 62
     7
100
AcDbCircle
 10
-384.0362776559
 20
439.7466589028
 30
0.0
 40
573.4354960592541
100
AcDbArc
 50
359.1792181467
 51
359.3989942461
  0
ARC
  5
AA
330
91
100
AcDbEntity
  8
DV1_Standard
 62
     7
100
AcDbCircle
 10
19.4312089674
 20
435.6950525024
 30
0.0
 40
169.9478034674922
100
AcDbArc
 50
359.3380657727
 51
1.9499709062
  0
ARC
  5
AB
330
91
100
AcDbEntity
  8
DV1_Standard
 62
     7
100
AcDbCircle
 10
-372.1343519679
 20
421.5653540207
 30
0.0
 40
561.7679718479562
100
AcDbArc
 50
2.0313376571
 51
2.6051026391
  0
ARC
  5
AC
330
91
100
AcDbEntity
  8
DV1_Standard
 62
     7
100
AcDbCircle
 10
166.4193533258
 20
-72.0217444712
 30
0.0
 40
534.0231080055904
100
AcDbArc
 50
90.0074410809
 51
90.83468739
  0
SPLINE
  5
AD
330
91
100
AcDbEntity
  8
DV1_Standard
 62
     7
100
AcDbSpline
210
0.0
220
0.0
230
1.0
 70
     8
 71
     3
 72
    18
 73
    14
 74
     0
 42
0.000000001
 43
0.0000000001
 40
0.0
 40
0.0
 40
0.0
 40
0.0
 40
0.125
 40
0.125
 40
0.2499999999999999
 40
0.2499999999999999
 40
0.3749999999999999
 40
0.3749999999999999
 40
0.4999999999999999
 40
0.4999999999999999
 40
0.7499999999999999
 40
0.7499999999999999
 40
1.0
 40
1.0
 40
1.0
 40
1.0
 10
158.6399568035185
 20
461.9446972399655
 30
0.0
 10
157.545568755063
 20
461.9288876072966
 30
0.0
 10
156.4438806303597
 20
461.9077944276152
 30
0.0
 10
154.265320244621
 20
461.7218177244148
 30
0.0
 10
153.1728179879843
 20
461.5554838235366
 30
0.0
 10
151.0733431955607
 20
460.9781262397246
 30
0.0
 10
150.0729593320693
 20
460.5684227042163
 30
0.0
 10
148.2541897370406
 20
459.471875030263
 30
0.0
 10
147.468442316116
 20
458.8080940710458
 30
0.0
 10
145.4584986108158
 20
456.4952871718821
 30
0.0
 10
144.6967205873428
 20
454.6569156174994
 30
0.0
 10
143.8348146988817
 20
450.9032289566359
 30
0.0
 10
143.7325887458987
 20
448.9839632229208
 30
0.0
 10
143.6469508054739
 20
447.0988061045704
 30
0.0
  0
ARC
  5
AE
330
91
100
AcDbEntity
  8
DV1_Standard
 62
     7
100
AcDbCircle
 10
716.0030518155
 20
439.7375610065
 30
0.0
 40
572.7022170919442
100
AcDbArc
 50
180.6008650548
 51
180.8209225525
  0
ARC
  5
AF
330
91
100
AcDbEntity
  8
DV1_Standard
 62
     7
100
AcDbCircle
 10
315.8866682787
 20
435.6656256713
 30
0.0
 40
172.5651783325963
100
AcDbArc
 50
178.0698404261
 51
180.6421228951
  0
ARC
  5
B0
330
91
100
AcDbEntity
  8
DV1_Standard
 62
     7
100
AcDbCircle
 10
704.8343588207
 20
421.5653536638
 30
0.0
 40
561.7679806720763
100
AcDbArc
 50
177.3948973655
 51
177.9686623384
  0
SPLINE
  5
B1
330
91
100
AcDbEntity
  8
DV1_Standard
 62
     7
100
AcDbSpline
210
0.0
220
0.0
230
1.0
 70
     8
 71
     3
 72
    12
 73
     8
 74
     0
 42
0.000000001
 43
0.0000000001
 40
0.0
 40
0.0
 40
0.0
 40
0.0
 40
0.0235776442104317
 40
0.0235776442104317
 40
0.3490517628069547
 40
0.3490517628069547
 40
1.0
 40
1.0
 40
1.0
 40
1.0
 10
187.5714279019652
 20
422.1229761945125
 30
0.0
 10
187.6081861443518
 20
422.1896206204927
 30
0.0
 10
187.6441918952776
 20
422.2566072024998
 30
0.0
 10
188.1658873174454
 20
423.252936060598
 30
0.0
 10
188.5208140607944
 20
424.2613202968446
 30
0.0
 10
189.2518254400752
 20
427.3164523286233
 30
0.0
 10
189.3102616234522
 20
429.428136086286
 30
0.0
 10
189.3403804744848
 20
431.5322780981645
 30
0.0
  0
SPLINE
  5
B2
330
91
100
AcDbEntity
  8
DV1_Standard
 62
     7
100
AcDbSpline
210
0.0
220
0.0
230
1.0
 70
     8
 71
     3
 72
    12
 73
     8
 74
     0
 42
0.000000001
 43
0.0000000001
 40
0.0
 40
0.0
 40
0.0
 40
0.0
 40
0.6501265072586255
 40
0.6501265072586255
 40
0.9751897608879385
 40
0.9751897608879385
 40
1.0
 40
1.0
 40
1.0
 40
1.0
 10
143.3596175613035
 20
431.5322780981645
 30
0.0
 10
143.3896433906009
 20
429.434634705391
 30
0.0
 10
143.4437999237084
 20
427.339389984629
 30
0.0
 10
144.1786155168756
 20
424.2613777153083
 30
0.0
 10
144.5284278477735
 20
423.2663696650134
 30
0.0
 10
145.0518910421122
 20
422.2639036993644
 30
0.0
 10
145.0898285339624
 20
422.193210452714
 30
0.0
 10
145.1285720046916
 20
422.1229380969047
 30
0.0
  0
ARC
  5
B3
330
91
100
AcDbEntity
  8
DV1_Standard
 62
     7
100
AcDbCircle
 10
1602.9299966668
 20
461.6017329539
 30
0.0
 40
1457.766473870144
100
AcDbArc
 50
183.3784208838
 51
184.0796600314
  0
SPLINE
  5
B4
330
91
100
AcDbEntity
  8
DV1_Standard
 62
     7
100
AcDbSpline
210
0.0
220
0.0
230
1.0
 70
     8
 71
     3
 72
    20
 73
    16
 74
     0
 42
0.000000001
 43
0.0000000001
 40
0.0
 40
0.0
 40
0.0
 40
0.0
 40
0.1364354350161563
 40
0.232996737501861
 40
0.3230628495254537
 40
0.40830011857007
 40
0.4883831819049357
 40
0.5639885757930405
 40
0.6358911806058501
 40
0.7124872819399007
 40
0.7861823727651434
 40
0.8570383675350477
 40
0.926264868635796
 40
0.9973951935162763
 40
1.0
 40
1.0
 40
1.0
 40
1.0
 10
148.836931065193
 20
357.8893907228189
 30
0.0
 10
148.8876165828386
 20
357.2299463382384
 30
0.0
 10
148.9661869331512
 20
356.2858910875113
 30
0.0
 10
149.1418256172584
 20
354.8482036381444
 30
0.0
 10
149.3657389433623
 20
353.674264320658
 30
0.0
 10
149.6611268815952
 20
352.5843282269353
 30
0.0
 10
150.0218579913146
 20
351.5827264645976
 30
0.0
 10
150.4435328333682
 20
350.6683625182266
 30
0.0
 10
150.9397217456039
 20
349.8090969058056
 30
0.0
 10
151.5165033298924
 20
349.009819432036
 30
0.0
 10
152.1757764498493
 20
348.2831903937495
 30
0.0
 10
152.8908980118465
 20
347.6530428198615
 30
0.0
 10
153.6540558728859
 20
347.1223419291034
 30
0.0
 10
154.2200592531324
 20
346.7816748961652
 30
0.0
 10
154.5041600687221
 20
346.6550112358956
 30
0.0
 10
154.5158006236181
 20
346.649825285391
 30
0.0
  0
SPLINE
  5
B5
330
91
100
AcDbEntity
  8
DV1_Standard
 62
     7
100
AcDbSpline
210
0.0
220
0.0
230
1.0
 70
     8
 71
     3
 72
     8
 73
     4
 74
     0
 42
0.000000001
 43
0.0000000001
 40
0.0
 40
0.0
 40
0.0
 40
0.0
 40
1.0
 40
1.0
 40
1.0
 40
1.0
 10
162.4522625173667
 20
345.2777801138052
 30
0.0
 10
162.7696104939083
 20
345.277548208983
 30
0.0
 10
164.0688557456406
 20
345.277371347972
 30
0.0
 10
166.3499982725636
 20
345.2772495307721
 30
0.0
  0
LINE
  5
B6
330
91
100
AcDbEntity
  8
DV1_Standard
 62
     7
100
AcDbLine
 10
166.3500001029
 20
345.2773007894
 30
0.0
 11
170.247734545
 21
345.2779792063
 31
0.0
  0
SPLINE
  5
B7
330
91
100
AcDbEntity
  8
DV1_Standard
 62
     7
100
AcDbSpline
210
0.0
220
0.0
230
1.0
 70
     8
 71
     3
 72
    20
 73
    16
 74
     0
 42
0.000000001
 43
0.0000000001
 40
0.0
 40
0.0
 40
0.0
 40
0.0
 40
0.0055106191718692
 40
0.0836564352232021
 40
0.1586014706699312
 40
0.2308940704093614
 40
0.3009613780962537
 40
0.3727503943241368
 40
0.4471911961828207
 40
0.5251480341631662
 40
0.6074078177204036
 40
0.6946414751729615
 40
0.7873413219331381
 40
0.88497807160355
 40
1.0
 40
1.0
 40
1.0
 40
1.0
 10
178.3393080259169
 20
346.7323010621151
 30
0.0
 10
178.3633989694312
 20
346.7435826887589
 30
0.0
 10
178.6782348902476
 20
346.8912647949116
 30
0.0
 10
179.288631297491
 20
347.2782465230879
 30
0.0
 10
180.0717245950737
 20
347.8660975917016
 30
0.0
 10
180.7609881299497
 20
348.5280383619565
 30
0.0
 10
181.3642223671025
 20
349.2449877729053
 30
0.0
 10
181.8968669959512
 20
350.0270905557381
 30
0.0
 10
182.3675092796144
 20
350.8859875075438
 30
0.0
 10
182.7758949260775
 20
351.8253959733202
 30
0.0
 10
183.1197291627899
 20
352.8479149351001
 30
0.0
 10
183.3978580137949
 20
353.9577539811006
 30
0.0
 10
183.5985287324
 20
355.1442258094865
 30
0.0
 10
183.7537603772349
 20
356.4880416993019
 30
0.0
 10
183.8233296222665
 20
357.3405958328808
 30
0.0
 10
183.8656336435002
 20
357.8892392153665
 30
0.0
  0
ARC
  5
B8
330
91
100
AcDbEntity
  8
DV1_Standard
 62
     7
100
AcDbCircle
 10
-1950.7646512743
 20
505.6800430853
 30
0.0
 40
2139.715491253413
100
AcDbArc
 50
356.039469415
 51
356.5033850141
  0
SPLINE
  5
B9
330
91
100
AcDbEntity
  8
DV1_Standard
 62
     7
100
AcDbSpline
210
0.0
220
0.0
230
1.0
 70
     8
 71
     3
 72
    20
 73
    16
 74
     0
 42
0.000000001
 43
0.0000000001
 40
0.0
 40
0.0
 40
0.0
 40
0.0
 40
0.1199735261365221
 40
0.1199735261365221
 40
0.2707606249732657
 40
0.2707606249732657
 40
0.4215477238100091
 40
0.4215477238100091
 40
0.5723348226467527
 40
0.5723348226467527
 40
0.7231219214834962
 40
0.7231219214834962
 40
0.8739090203202396
 40
0.8739090203202396
 40
0.9999999999999999
 40
0.9999999999999999
 40
0.9999999999999999
 40
0.9999999999999999
 10
139.0506283112011
 20
425.7784273383989
 30
0.0
 10
139.1330505198093
 20
425.2723553099498
 30
0.0
 10
139.2327310733897
 20
424.7686576953124
 30
0.0
 10
139.5022696224922
 20
423.6414740580954
 30
0.0
 10
139.6841632228578
 20
423.0196269094612
 30
0.0
 10
140.117081146381
 20
421.8014115627706
 30
0.0
 10
140.3668595226816
 20
421.2079044901842
 30
0.0
 10
140.936659324122
 20
420.0584924191049
 30
0.0
 10
141.2569534615713
 20
419.5015896370187
 30
0.0
 10
141.9755816875694
 20
418.4253686854755
 30
0.0
 10
142.3731662672846
 20
417.908277561154
 30
0.0
 10
143.2262122938004
 20
416.9428017466769
 30
0.0
 10
143.6827794906054
 20
416.4922098999222
 30
0.0
 10
144.5752764233818
 20
415.7233660374255
 30
0.0
 10
145.0032053521309
 20
415.3950240390726
 30
0.0
 10
145.4503458820794
 20
415.0901960556131
 30
0.0
  0
SPLINE
  5
BA
330
91
100
AcDbEntity
  8
DV1_Standard
 62
     7
100
AcDbSpline
210
0.0
220
0.0
230
1.0
 70
     8
 71
     3
 72
    12
 73
     8
 74
     0
 42
0.000000001
 43
0.0000000001
 40
0.0
 40
0.0
 40
0.0
 40
0.0
 40
0.2214186920628176
 40
0.2214186920628176
 40
0.480945794708545
 40
0.480945794708545
 40
1.0
 40
1.0
 40
1.0
 40
1.0
 10
187.249642275288
 20
415.090069412987
 30
0.0
 10
188.0331510180197
 20
415.624468978455
 30
0.0
 10
188.7553511899731
 20
416.2291469593432
 30
0.0
 10
190.181315492029
 20
417.6862676101498
 30
0.0
 10
190.8690242926645
 20
418.5792024910669
 30
0.0
 10
192.5867260970407
 20
421.4226864342152
 30
0.0
 10
193.2908946676379
 20
423.5726744227341
 30
0.0
 10
193.6493737500754
 20
425.7769605060125
 30
0.0
  0
ARC
  5
BB
330
91
100
AcDbEntity
  8
DV1_Standard
 62
     7
100
AcDbCircle
 10
134.759264538
 20
425.5169508094
 30
0.0
 40
4.299322389579735
100
AcDbArc
 50
3.4867710062
 51
95.76365877
  0
ARC
  5
BC
330
91
100
AcDbEntity
  8
DV1_Standard
 62
     7
100
AcDbCircle
 10
197.9636050224
 20
425.4901878854
 30
0.0
 40
4.323751843820984
100
AcDbArc
 50
84.5701831851
 51
176.1970686806
  0
LINE
  5
BD
330
91
100
AcDbEntity
  8
DV1_Standard
 62
     7
100
AcDbLine
 10
88.2401181849
 20
429.7945384308
 30
0.0
 11
134.327504013
 21
429.7945384308
 31
0.0
  0
LINE
  5
BE
330
91
100
AcDbEntity
  8
DV1_Standard
 62
     7
100
AcDbLine
 10
198.3727460618
 20
429.7945384307
 30
0.0
 11
244.4599134361
 21
429.7945384308
 31
0.0
  0
SPLINE
  5
BF
330
91
100
AcDbEntity
  8
DV1_Standard
 62
     7
100
AcDbSpline
210
0.0
220
0.0
230
1.0
 70
     8
 71
     3
 72
    18
 73
    14
 74
     0
 42
0.000000001
 43
0.0000000001
 40
0.0
 40
0.0
 40
0.0
 40
0.0
 40
0.2500000000000002
 40
0.2500000000000002
 40
0.3750000000000004
 40
0.3750000000000004
 40
0.5000000000000007
 40
0.5000000000000007
 40
0.6250000000000009
 40
0.6250000000000009
 40
0.7500000000000011
 40
0.7500000000000011
 40
1.0
 40
1.0
 40
1.0
 40
1.0
 10
73.02547531429045
 20
445.0114662213987
 30
0.0
 10
73.02547530809704
 20
442.8698122117749
 30
0.0
 10
73.03280518531123
 20
440.718640760837
 30
0.0
 10
73.5969011583641
 20
437.5521985774845
 30
0.0
 10
73.87231343359545
 20
436.5225970324707
 30
0.0
 10
74.72955477283253
 20
434.5541445751738
 30
0.0
 10
75.30917358632692
 20
433.6419262749866
 30
0.0
 10
76.83383690774748
 20
432.1075837957068
 30
0.0
 10
77.74169809049957
 20
431.5225768571642
 30
0.0
 10
79.71167215785776
 20
430.6543988374526
 30
0.0
 10
80.74815707691349
 20
430.3738316048522
 30
0.0
 10
83.9266047407765
 20
429.8022282200782
 30
0.0
 10
86.08817246647182
 20
429.7945384248475
 30
0.0
 10
88.24011818487178
 20
429.7945384307617
 30
0.0
  0
SPLINE
  5
C0
330
91
100
AcDbEntity
  8
DV1_Standard
 62
     7
100
AcDbSpline
210
0.0
220
0.0
230
1.0
 70
     8
 71
     3
 72
    18
 73
    14
 74
     0
 42
0.000000001
 43
0.0000000001
 40
0.0
 40
0.0
 40
0.0
 40
0.0
 40
0.2500000000000012
 40
0.2500000000000012
 40
0.3750000000000009
 40
0.3750000000000009
 40
0.5000000000000008
 40
0.5000000000000008
 40
0.6250000000000006
 40
0.6250000000000006
 40
0.7500000000000003
 40
0.7500000000000003
 40
1.0
 40
1.0
 40
1.0
 40
1.0
 10
244.4599134360793
 20
429.794538430762
 30
0.0
 10
246.6031168082628
 20
429.7945384246376
 30
0.0
 10
248.7459196643105
 20
429.8006749706976
 30
0.0
 10
251.9237551093883
 20
430.3671089707712
 30
0.0
 10
252.9624990693044
 20
430.6461015741544
 30
0.0
 10
254.9350074616535
 20
431.5092598342472
 30
0.0
 10
255.8446002877894
 20
432.0913933235816
 30
0.0
 10
257.376530383209
 20
433.6220924038161
 30
0.0
 10
257.9584842803738
 20
434.5325463575123
 30
0.0
 10
258.8207345560348
 20
436.5007335903455
 30
0.0
 10
259.0978946410857
 20
437.5303265858416
 30
0.0
 10
259.6659965220045
 20
440.6969385108721
 30
0.0
 10
259.6745563121062
 20
442.8623599263632
 30
0.0
 10
259.6745563060726
 20
445.0114662220158
 30
0.0
  0
LINE
  5
C1
330
91
100
AcDbEntity
  8
DV1_Standard
 62
     7
100
AcDbLine
 10
73.0254753143
 20
452.3077148067
 30
0.0
 11
73.0254753143
 21
445.0114662214
 31
0.0
  0
LINE
  5
C2
330
91
100
AcDbEntity
  8
DV1_Standard
 62
     7
100
AcDbLine
 10
259.6745563061
 20
445.011466222
 30
0.0
 11
259.6745563061
 21
452.3077148073
 31
0.0
  0
SPLINE
  5
C3
330
91
100
AcDbEntity
  8
DV1_Standard
 62
     7
100
AcDbSpline
210
0.0
220
0.0
230
1.0
 70
     8
 71
     3
 72
    18
 73
    14
 74
     0
 42
0.000000001
 43
0.0000000001
 40
0.0
 40
0.0
 40
0.0
 40
0.0
 40
0.2499999999999988
 40
0.2499999999999988
 40
0.3749999999999989
 40
0.3749999999999989
 40
0.4999999999999991
 40
0.4999999999999991
 40
0.6249999999999992
 40
0.6249999999999992
 40
0.7499999999999994
 40
0.7499999999999994
 40
1.0
 40
1.0
 40
1.0
 40
1.0
 10
88.24013961916054
 20
467.5224534872742
 30
0.0
 10
86.09748211198185
 20
467.5226467611705
 30
0.0
 10
83.95525524828155
 20
467.5160856846637
 30
0.0
 10
80.77875363091202
 20
466.9505124057919
 30
0.0
 10
79.73921714250577
 20
466.6714754773316
 30
0.0
 10
77.76734500966663
 20
465.8091063092842
 30
0.0
 10
76.85777625063886
 20
465.2282513825284
 30
0.0
 10
75.32469307180857
 20
463.6964732030613
 30
0.0
 10
74.74262827112341
 20
462.7867733725982
 30
0.0
 10
73.87940393365979
 20
460.8181613237453
 30
0.0
 10
73.60238703490015
 20
459.7885452713545
 30
0.0
 10
73.0340242071454
 20
456.6227064360654
 30
0.0
 10
73.02547530759455
 20
454.4567909060314
 30
0.0
 10
73.02547531429012
 20
452.3077148066565
 30
0.0
  0
SPLINE
  5
C4
330
91
100
AcDbEntity
  8
DV1_Standard
 62
     7
100
AcDbSpline
210
0.0
220
0.0
230
1.0
 70
     8
 71
     3
 72
    18
 73
    14
 74
     0
 42
0.000000001
 43
0.0000000001
 40
0.0
 40
0.0
 40
0.0
 40
0.0
 40
0.2499999999999996
 40
0.2499999999999996
 40
0.3749999999999994
 40
0.3749999999999994
 40
0.4999999999999992
 40
0.4999999999999992
 40
0.624999999999999
 40
0.624999999999999
 40
0.7499999999999989
 40
0.7499999999999989
 40
1.0
 40
1.0
 40
1.0
 40
1.0
 10
259.6745563060729
 20
452.3077148073288
 30
0.0
 10
259.6745563141482
 20
454.450957317532
 30
0.0
 10
259.6685235740684
 20
456.5938157634108
 30
0.0
 10
259.1018221467331
 20
459.7726014672054
 30
0.0
 10
258.8233934858573
 20
460.8099030740243
 30
0.0
 10
257.959930293807
 20
462.7829203827287
 30
0.0
 10
257.3778013953786
 20
463.6929752012139
 30
0.0
 10
255.8484314274566
 20
465.2231491045333
 30
0.0
 10
254.9376951720762
 20
465.8058041118473
 30
0.0
 10
252.9706344989229
 20
466.6682362825799
 30
0.0
 10
251.9410848883659
 20
466.9455315429595
 30
0.0
 10
248.7736102489972
 20
467.5137683722216
 30
0.0
 10
246.6088721043847
 20
467.5226652583866
 30
0.0
 10
244.4598920866895
 20
467.5224540517744
 30
0.0
  0
LINE
  5
C5
330
91
100
AcDbEntity
  8
DV1_Standard
 62
     7
100
AcDbLine
 10
244.4599134352
 20
467.5225189398
 30
0.0
 11
88.2401181843
 21
467.5225189398
 31
0.0
  0
LINE
  5
C6
330
91
100
AcDbEntity
  8
DV1_Standard
 62
     7
100
AcDbLine
 10
76.2567608302
 20
483.2427138162
 30
0.0
 11
106.35
 21
483.2427148075
 31
0.0
  0
LINE
  5
C7
330
91
100
AcDbEntity
  8
DV1_Standard
 62
     7
100
AcDbLine
 10
226.2567608302
 20
483.2427138162
 30
0.0
 11
256.35
 21
483.2427148075
 31
0.0
  0
ENDBLK
  5
C9
330
91
100
AcDbEntity
  8
0
100
AcDbBlockEnd
  0
BLOCK
  5
168
330
CA
100
AcDbEntity
  8
0
100
AcDbBlockBegin
  2
SE1
 70
     0
 10
0.0
 20
0.0
 30
0.0
  3
SE1
  1

  0
LINE
  5
CD
330
CA
100
AcDbEntity
  8
DV2_Standard
 62
     7
100
AcDbLine
 10
412.5237313135
 20
393.3127147794
 30
0.0
 11
415.5037313135
 21
393.3127147794
 31
0.0
  0
LINE
  5
CE
330
CA
100
AcDbEntity
  8
DV2_Standard
 62
     7
100
AcDbLine
 10
415.2037313135
 20
393.0127147794
 30
0.0
 11
412.8237313135
 21
393.0127147794
 31
0.0
  0
LINE
  5
CF
330
CA
100
AcDbEntity
  8
DV2_Standard
 62
     7
100
AcDbLine
 10
415.5037313135
 20
393.3127147794
 30
0.0
 11
415.5037313135
 21
396.2427147794
 31
0.0
  0
LINE
  5
D0
330
CA
100
AcDbEntity
  8
DV2_Standard
 62
     7
100
AcDbLine
 10
412.5237313135
 20
396.2427147794
 30
0.0
 11
412.5237313135
 21
393.3127147794
 31
0.0
  0
LINE
  5
D1
330
CA
100
AcDbEntity
  8
DV2_Standard
 62
     7
100
AcDbLine
 10
412.5237313135
 20
393.3127147794
 30
0.0
 11
412.8237313135
 21
393.0127147794
 31
0.0
  0
LINE
  5
D2
330
CA
100
AcDbEntity
  8
DV2_Standard
 62
     7
100
AcDbLine
 10
415.2037313135
 20
393.0127147794
 30
0.0
 11
415.5037313135
 21
393.3127147794
 31
0.0
  0
LINE
  5
D3
330
CA
100
AcDbEntity
  8
DV2_Standard
 62
     7
100
AcDbLine
 10
359.0537313135
 20
413.2427148075
 30
0.0
 11
383.3312762481
 21
413.4545826977
 31
0.0
  0
ARC
  5
D4
330
CA
100
AcDbEntity
  8
DV2_Standard
 62
     7
100
AcDbCircle
 10
383.3705688885
 20
482.5493107119
 30
0.0
 40
0.4831377181575555
100
AcDbArc
 50
357.1207162972
 51
7.0176843343
  0
SPLINE
  5
D5
330
CA
100
AcDbEntity
  8
DV2_Standard
 62
     7
100
AcDbSpline
210
0.0
220
0.0
230
1.0
 70
     8
 71
     3
 72
    16
 73
    12
 74
     0
 42
0.000000001
 43
0.0000000001
 40
0.0
 40
0.0
 40
0.0
 40
0.0
 40
0.25
 40
0.25
 40
0.375
 40
0.375
 40
0.5
 40
0.5
 40
0.75
 40
0.75
 40
1.0
 40
1.0
 40
1.0
 40
1.0
 10
384.5104733924916
 20
434.7248480744811
 30
0.0
 10
384.5104754120981
 20
434.7248481747229
 30
0.0
 10
384.5123906810378
 20
435.0765215026097
 30
0.0
 10
384.5154728117341
 20
436.0938649116908
 30
0.0
 10
384.5164656324715
 20
436.5088327998541
 30
0.0
 10
384.5178365612537
 20
437.48895250778
 30
0.0
 10
384.5181983538862
 20
438.0593434025637
 30
0.0
 10
384.5180451936268
 20
439.9281803149543
 30
0.0
 10
384.5161543329434
 20
441.4343787714522
 30
0.0
 10
384.5122269634862
 20
444.6841373804756
 30
0.0
 10
384.5104703558195
 20
446.4577527918767
 30
0.0
 10
384.5104686307913
 20
448.2427148074806
 30
0.0
  0
SPLINE
  5
D6
330
CA
100
AcDbEntity
  8
DV2_Standard
 62
     7
100
AcDbSpline
210
0.0
220
0.0
230
1.0
 70
     8
 71
     3
 72
    16
 73
    12
 74
     0
 42
0.000000001
 43
0.0000000001
 40
0.0
 40
0.0
 40
0.0
 40
0.0
 40
0.3152411113554472
 40
0.3152411113554472
 40
0.4728616670331708
 40
0.4728616670331708
 40
0.6304822227108945
 40
0.6304822227108945
 40
0.9457233340663413
 40
0.9457233340663413
 40
1.0
 40
1.0
 40
1.0
 40
1.0
 10
384.5104686307913
 20
448.2427148074806
 30
0.0
 10
384.5104703558193
 20
450.0276809959412
 30
0.0
 10
384.5122011297833
 20
451.7790584513887
 30
0.0
 10
384.5151652069631
 20
454.2330085632028
 30
0.0
 10
384.5161567636725
 20
455.0089283079359
 30
0.0
 10
384.5176279707949
 20
456.4774779455569
 30
0.0
 10
384.5180928379455
 20
457.172891146951
 30
0.0
 10
384.5182544935399
 20
459.0430691591293
 30
0.0
 10
384.5165007328278
 20
460.0507178952773
 30
0.0
 10
384.5141079785241
 20
460.8423271861357
 30
0.0
 10
384.5137594403033
 20
460.9492311575018
 30
0.0
 10
384.5134232262253
 20
461.0465436966808
 30
0.0
  0
SPLINE
  5
D7
330
CA
100
AcDbEntity
  8
DV2_Standard
 62
     7
100
AcDbSpline
210
0.0
220
0.0
230
1.0
 70
     8
 71
     3
 72
     8
 73
     4
 74
     0
 42
0.000000001
 43
0.0000000001
 40
0.0
 40
0.0
 40
0.0
 40
0.0
 40
1.0
 40
1.0
 40
1.0
 40
1.0
 10
384.5104733924915
 20
461.7605815404799
 30
0.0
 10
384.5104744151336
 20
461.7605814897217
 30
0.0
 10
384.5109659898334
 20
461.6704133555274
 30
0.0
 10
384.5117178312734
 20
461.4933381222577
 30
0.0
  0
ARC
  5
D8
330
CA
100
AcDbEntity
  8
DV2_Standard
 62
     7
100
AcDbCircle
 10
-335.3923704119
 20
446.6839275874
 30
0.0
 40
719.9899700230086
100
AcDbArc
 50
357.3951307655
 51
359.105955525
  0
ARC
  5
D9
330
CA
100
AcDbEntity
  8
DV2_Standard
 62
     7
100
AcDbCircle
 10
-344.8029381452
 20
449.481533589
 30
0.0
 40
729.4054403905603
100
AcDbArc
 50
0.9050160237
 51
2.5967454837
  0
ARC
  5
DA
330
CA
100
AcDbEntity
  8
DV2_Standard
 62
     7
100
AcDbCircle
 10
383.2753678258
 20
482.5418287773
 30
0.0
 40
0.5737051673194838
100
AcDbArc
 50
3.6606697375
 51
20.6994523548
  0
ARC
  5
DB
330
CA
100
AcDbEntity
  8
DV2_Standard
 62
     7
100
AcDbCircle
 10
383.3486335051
 20
482.5620175869
 30
0.0
 40
0.4973537994363027
100
AcDbArc
 50
33.8788437911
 51
36.3944004731
  0
ARC
  5
DC
330
CA
100
AcDbEntity
  8
DV2_Standard
 62
     7
100
AcDbCircle
 10
383.3681427219
 20
482.5386934741
 30
0.0
 40
0.4934907559421853
100
AcDbArc
 50
35.5157775576
 51
94.2905506333
  0
LINE
  5
DD
330
CA
100
AcDbEntity
  8
DV2_Standard
 62
     7
100
AcDbLine
 10
383.3312762481
 20
483.0308478826
 30
0.0
 11
359.0537313135
 21
483.2427148075
 31
0.0
  0
SPLINE
  5
DE
330
CA
100
AcDbEntity
  8
DV2_Standard
 62
     7
100
AcDbSpline
210
0.0
220
0.0
230
1.0
 70
     8
 71
     3
 72
    32
 73
    28
 74
     0
 42
0.000000001
 43
0.0000000001
 40
0.0
 40
0.0
 40
0.0
 40
0.0
 40
0.1356259959576051
 40
0.2687488876846644
 40
0.3991778471657835
 40
0.5185824848844642
 40
0.6244056938788795
 40
0.6487570087951734
 40
0.6703734113680395
 40
0.6830590807744632
 40
0.6859205763601132
 40
0.6862972596111883
 40
0.6864423641077553
 40
0.6865642643656499
 40
0.6866710191534415
 40
0.6867742952431015
 40
0.6868868459736187
 40
0.6870187611981347
 40
0.687363001198886
 40
0.6891855824533394
 40
0.6936186655537029
 40
0.7095116393849363
 40
0.7348353647691725
 40
0.7696059688044966
 40
0.830668569091144
 40
0.9085377199428972
 40
0.9999999999999999
 40
0.9999999999999999
 40
0.9999999999999999
 40
0.9999999999999999
 10
383.3312214045536
 20
413.4546558878308
 30
0.0
 10
383.4391561638042
 20
413.4727099629917
 30
0.0
 10
383.612389078433
 20
413.497292135533
 30
0.0
 10
383.6658270420631
 20
413.5514527342194
 30
0.0
 10
383.5724493431038
 20
413.4932429531364
 30
0.0
 10
383.5292654551808
 20
413.4833969862281
 30
0.0
 10
383.5735997223392
 20
413.4949652754733
 30
0.0
 10
383.6282006345891
 20
413.5222332862816
 30
0.0
 10
383.6513454126657
 20
413.5354966253948
 30
0.0
 10
383.6748637222783
 20
413.5515737844588
 30
0.0
 10
383.693007585119
 20
413.565726692014
 30
0.0
 10
383.7026467897869
 20
413.5741511646351
 30
0.0
 10
383.7051425325436
 20
413.5763834933355
 30
0.0
 10
383.7068762822694
 20
413.5779539277797
 30
0.0
 10
383.7086633216749
 20
413.5795938584408
 30
0.0
 10
383.7104670074437
 20
413.5812715126785
 30
0.0
 10
383.7122170159706
 20
413.5829211601535
 30
0.0
 10
383.7147017374023
 20
413.5852940757111
 30
0.0
 10
383.7217331536423
 20
413.5921677908847
 30
0.0
 10
383.7310384018504
 20
413.6020110588652
 30
0.0
 10
383.7506962714183
 20
413.6244933855564
 30
0.0
 10
383.7694110730471
 20
413.6514098999696
 30
0.0
 10
383.7914386682053
 20
413.6888768657512
 30
0.0
 10
383.8133580858331
 20
413.7383579367021
 30
0.0
 10
383.8332718288434
 20
413.80136156902
 30
0.0
 10
383.8482506990351
 20
413.8794249063805
 30
0.0
 10
383.8521042037023
 20
413.9280743991019
 30
0.0
 10
383.8540178121108
 20
413.9586353384824
 30
0.0
  0
LINE
  5
DF
330
CA
100
AcDbEntity
  8
DV2_Standard
 62
     7
100
AcDbLine
 10
386.0137313135
 20
461.4627148075
 30
0.0
 11
384.5045458037
 21
461.4627148075
 31
0.0
  0
LINE
  5
E0
330
CA
100
AcDbEntity
  8
DV2_Standard
 62
     7
100
AcDbLine
 10
384.5117623539
 20
435.0227148075
 30
0.0
 11
386.0137313135
 21
435.0227148075
 31
0.0
  0
LINE
  5
E1
330
CA
100
AcDbEntity
  8
DV2_Standard
 62
     7
100
AcDbLine
 10
384.5045458037
 20
460.2927148075
 30
0.0
 11
386.0137313135
 21
460.2927148075
 31
0.0
  0
LINE
  5
E2
330
CA
100
AcDbEntity
  8
DV2_Standard
 62
     7
100
AcDbLine
 10
384.5117623539
 20
436.1927148075
 30
0.0
 11
386.0137313135
 21
436.1927148075
 31
0.0
  0
LINE
  5
E3
330
CA
100
AcDbEntity
  8
DV2_Standard
 62
     7
100
AcDbLine
 10
402.0137313135
 20
433.7427148075
 30
0.0
 11
402.0137313135
 21
462.7427148075
 31
0.0
  0
LINE
  5
E4
330
CA
100
AcDbEntity
  8
DV2_Standard
 62
     7
100
AcDbLine
 10
386.0137313135
 20
433.7427148075
 30
0.0
 11
386.0137313135
 21
462.7427148075
 31
0.0
  0
LINE
  5
E5
330
CA
100
AcDbEntity
  8
DV2_Standard
 62
     7
100
AcDbLine
 10
389.5137313135
 20
463.2427148075
 30
0.0
 11
389.5137313135
 21
461.1553735811
 31
0.0
  0
LINE
  5
E6
330
CA
100
AcDbEntity
  8
DV2_Standard
 62
     7
100
AcDbLine
 10
389.5137313135
 20
450.3300560338
 30
0.0
 11
389.5137313135
 21
446.1553735811
 31
0.0
  0
LINE
  5
E7
330
CA
100
AcDbEntity
  8
DV2_Standard
 62
     7
100
AcDbLine
 10
389.5137313135
 20
435.3300560338
 30
0.0
 11
389.5137313135
 21
433.2427148075
 31
0.0
  0
LINE
  5
E8
330
CA
100
AcDbEntity
  8
DV2_Standard
 62
     7
100
AcDbLine
 10
389.5137313135
 20
433.2427148075
 30
0.0
 11
386.7180025844
 21
433.2427148075
 31
0.0
  0
LINE
  5
E9
330
CA
100
AcDbEntity
  8
DV2_Standard
 62
     7
100
AcDbLine
 10
386.7180025844
 20
463.2427148075
 30
0.0
 11
389.5137313135
 21
463.2427148075
 31
0.0
  0
ARC
  5
EA
330
CA
100
AcDbEntity
  8
DV2_Standard
 62
     7
100
AcDbCircle
 10
393.2922908327
 20
455.7427148075
 30
0.0
 40
6.601089837288603
100
AcDbArc
 50
124.9187681795
 51
235.0812318204
  0
ARC
  5
EB
330
CA
100
AcDbEntity
  8
DV2_Standard
 62
     7
100
AcDbCircle
 10
393.2922908327
 20
440.7427148075
 30
0.0
 40
6.601089837288587
100
AcDbArc
 50
124.9187681796
 51
235.0812318205
  0
LINE
  5
EC
330
CA
100
AcDbEntity
  8
DV2_Standard
 62
     7
100
AcDbLine
 10
398.5137313135
 20
463.2427148075
 30
0.0
 11
398.5137313135
 21
461.1553735811
 31
0.0
  0
LINE
  5
ED
330
CA
100
AcDbEntity
  8
DV2_Standard
 62
     7
100
AcDbLine
 10
398.5137313135
 20
450.3300560338
 30
0.0
 11
398.5137313135
 21
446.1553735811
 31
0.0
  0
LINE
  5
EE
330
CA
100
AcDbEntity
  8
DV2_Standard
 62
     7
100
AcDbLine
 10
398.5137313135
 20
435.3300560338
 30
0.0
 11
398.5137313135
 21
433.2427148075
 31
0.0
  0
LINE
  5
EF
330
CA
100
AcDbEntity
  8
DV2_Standard
 62
     7
100
AcDbLine
 10
389.5137313135
 20
435.3300560338
 30
0.0
 11
398.5137313135
 21
435.3300560338
 31
0.0
  0
ARC
  5
F0
330
CA
100
AcDbEntity
  8
DV2_Standard
 62
     7
100
AcDbCircle
 10
394.7351717943
 20
440.7427148075
 30
0.0
 40
6.601089837288569
100
AcDbArc
 50
304.9187681796
 51
55.0812318205
  0
LINE
  5
F1
330
CA
100
AcDbEntity
  8
DV2_Standard
 62
     7
100
AcDbLine
 10
398.5137313135
 20
446.1553735811
 30
0.0
 11
389.5137313135
 21
446.1553735811
 31
0.0
  0
LINE
  5
F2
330
CA
100
AcDbEntity
  8
DV2_Standard
 62
     7
100
AcDbLine
 10
389.5137313135
 20
450.3300560338
 30
0.0
 11
398.5137313135
 21
450.3300560338
 31
0.0
  0
ARC
  5
F3
330
CA
100
AcDbEntity
  8
DV2_Standard
 62
     7
100
AcDbCircle
 10
394.7351717943
 20
455.7427148075
 30
0.0
 40
6.60108983728859
100
AcDbArc
 50
304.9187681795
 51
55.0812318204
  0
LINE
  5
F4
330
CA
100
AcDbEntity
  8
DV2_Standard
 62
     7
100
AcDbLine
 10
398.5137313135
 20
461.1553735811
 30
0.0
 11
389.5137313135
 21
461.1553735811
 31
0.0
  0
LINE
  5
F5
330
CA
100
AcDbEntity
  8
DV2_Standard
 62
     7
100
AcDbLine
 10
389.5137313135
 20
463.2427148075
 30
0.0
 11
398.5137313135
 21
463.2427148075
 31
0.0
  0
LINE
  5
F6
330
CA
100
AcDbEntity
  8
DV2_Standard
 62
     7
100
AcDbLine
 10
398.5137313135
 20
463.2427148075
 30
0.0
 11
401.3094600426
 21
463.2427148075
 31
0.0
  0
LINE
  5
F7
330
CA
100
AcDbEntity
  8
DV2_Standard
 62
     7
100
AcDbLine
 10
401.3094600426
 20
433.2427148075
 30
0.0
 11
398.5137313135
 21
433.2427148075
 31
0.0
  0
LINE
  5
F8
330
CA
100
AcDbEntity
  8
DV2_Standard
 62
     7
100
AcDbLine
 10
398.5137313135
 20
433.2427148075
 30
0.0
 11
389.5137313135
 21
433.2427148075
 31
0.0
  0
ARC
  5
F9
330
CA
100
AcDbEntity
  8
DV2_Standard
 62
     7
100
AcDbCircle
 10
395.8780301153
 20
454.8463124111
 30
0.0
 40
10.0
100
AcDbArc
 50
52.1519040322
 51
57.1065521669
  0
ARC
  5
FA
330
CA
100
AcDbEntity
  8
DV2_Standard
 62
     7
100
AcDbCircle
 10
395.8780301153
 20
441.6391172039
 30
0.0
 40
9.999999999999998
100
AcDbArc
 50
302.8950245007
 51
307.8480959678
  0
ARC
  5
FB
330
CA
100
AcDbEntity
  8
DV2_Standard
 62
     7
100
AcDbCircle
 10
392.1494325117
 20
454.8463124111
 30
0.0
 40
9.999999999999998
100
AcDbArc
 50
122.8950245007
 51
127.8480959678
  0
ARC
  5
FC
330
CA
100
AcDbEntity
  8
DV2_Standard
 62
     7
100
AcDbCircle
 10
392.1494325117
 20
441.6391172039
 30
0.0
 40
10.0
100
AcDbArc
 50
232.1519040322
 51
237.1065521669
  0
LINE
  5
FD
330
CA
100
AcDbEntity
  8
DV2_Standard
 62
     7
100
AcDbLine
 10
457.218094582
 20
462.9607100907
 30
0.0
 11
428.1137313135
 21
463.2147000211
 31
0.0
  0
LINE
  5
FE
330
CA
100
AcDbEntity
  8
DV2_Standard
 62
     7
100
AcDbLine
 10
428.1137313135
 20
416.2707294817
 30
0.0
 11
457.2180945816
 21
416.5247194121
 31
0.0
  0
LINE
  5
FF
330
CA
100
AcDbEntity
  8
DV2_Standard
 62
     7
100
AcDbLine
 10
457.7137313142
 20
462.4607291291
 30
0.0
 11
457.7137313141
 21
447.4527953972
 31
0.0
  0
LINE
  5
100
330
CA
100
AcDbEntity
  8
DV2_Standard
 62
     7
100
AcDbLine
 10
457.7137313141
 20
447.4527953972
 30
0.0
 11
457.713731314
 21
432.029044778
 31
0.0
  0
LINE
  5
101
330
CA
100
AcDbEntity
  8
DV2_Standard
 62
     7
100
AcDbLine
 10
457.713731314
 20
432.029044778
 30
0.0
 11
457.7137313138
 21
417.0247003736
 31
0.0
  0
ARC
  5
102
330
CA
100
AcDbEntity
  8
DV2_Standard
 62
     7
100
AcDbCircle
 10
457.2137313138
 20
417.0247003736
 30
0.0
 40
0.5000000000000073
100
AcDbArc
 50
270.5
 51
359.9999999994
  0
ARC
  5
103
330
CA
100
AcDbEntity
  8
DV2_Standard
 62
     7
100
AcDbCircle
 10
457.2137313142
 20
462.4607291291
 30
0.0
 40
0.4999999999999599
100
AcDbArc
 50
0.0
 51
89.5
  0
ARC
  5
104
330
CA
100
AcDbEntity
  8
DV2_Standard
 62
     7
100
AcDbCircle
 10
452.3137313142
 20
439.7427147794
 30
0.0
 40
21.60000000000001
100
AcDbArc
 50
39.6983469446
 51
74.5160560935
  0
ARC
  5
105
330
CA
100
AcDbEntity
  8
DV2_Standard
 62
     7
100
AcDbCircle
 10
452.3137313142
 20
439.7427147794
 30
0.0
 40
21.60000000000001
100
AcDbArc
 50
285.4839439054
 51
291.6144796763
  0
ARC
  5
106
330
CA
100
AcDbEntity
  8
DV2_Standard
 62
     7
100
AcDbCircle
 10
458.2137313142
 20
461.0406019986
 30
0.0
 40
0.4999999999999992
100
AcDbArc
 50
179.9999999994
 51
254.5160560935
  0
ARC
  5
107
330
CA
100
AcDbEntity
  8
DV2_Standard
 62
     7
100
AcDbCircle
 10
458.2137313138
 20
418.4448275601
 30
0.0
 40
0.5000000000000004
100
AcDbArc
 50
105.4839439054
 51
179.9999999994
  0
LINE
  5
108
330
CA
100
AcDbEntity
  8
DV2_Standard
 62
     7
100
AcDbLine
 10
403.0137313135
 20
458.7427148075
 30
0.0
 11
402.0137313135
 21
458.7427148075
 31
0.0
  0
LINE
  5
109
330
CA
100
AcDbEntity
  8
DV2_Standard
 62
     7
100
AcDbLine
 10
402.0137313135
 20
437.7427148075
 30
0.0
 11
403.0137313135
 21
437.7427148075
 31
0.0
  0
LINE
  5
10A
330
CA
100
AcDbEntity
  8
DV2_Standard
 62
     7
100
AcDbLine
 10
403.0137313135
 20
425.9706953195
 30
0.0
 11
403.0137313135
 21
426.1163375635
 31
0.0
  0
LINE
  5
10B
330
CA
100
AcDbEntity
  8
DV2_Standard
 62
     7
100
AcDbLine
 10
497.423147237
 20
357.3842376939
 30
0.0
 11
497.4228465394
 21
357.3841896245
 31
0.0
  0
LINE
  5
10C
330
CA
100
AcDbEntity
  8
DV2_Standard
 62
     7
100
AcDbLine
 10
497.4228465394
 20
357.3841896245
 30
0.0
 11
497.4231459424
 21
357.3842374893
 31
0.0
  0
SPLINE
  5
10D
330
CA
100
AcDbEntity
  8
DV2_Standard
 62
     7
100
AcDbSpline
210
0.0
220
0.0
230
1.0
 70
     8
 71
     3
 72
     9
 73
     5
 74
     0
 42
0.000000001
 43
0.0000000001
 40
0.0
 40
0.0
 40
0.0
 40
0.0
 40
0.8646301544239772
 40
1.0
 40
1.0
 40
1.0
 40
1.0
 10
489.5541227017118
 20
407.1706814737676
 30
0.0
 10
489.5532453835905
 20
407.1803232113597
 30
0.0
 10
489.5521912367392
 20
407.1916195158774
 30
0.0
 10
489.5482251244126
 20
407.199621523
 30
0.0
 10
489.5476730502585
 20
407.2006491192816
 30
0.0
  0
LINE
  5
10E
330
CA
100
AcDbEntity
  8
DV2_Standard
 62
     7
100
AcDbLine
 10
485.627630337
 20
461.2446209605
 30
0.0
 11
487.647917271
 21
447.7265654385
 31
0.0
  0
LINE
  5
10F
330
CA
100
AcDbEntity
  8
DV2_Standard
 62
     7
100
AcDbLine
 10
487.647917271
 20
447.7265654385
 30
0.0
 11
490.4370437656
 21
429.0640842947
 31
0.0
  0
LINE
  5
110
330
CA
100
AcDbEntity
  8
DV2_Standard
 62
     7
100
AcDbLine
 10
490.4370437656
 20
429.0640842947
 30
0.0
 11
493.6133092537
 21
407.8111956593
 31
0.0
  0
LINE
  5
111
330
CA
100
AcDbEntity
  8
DV2_Standard
 62
     7
100
AcDbLine
 10
493.6133092537
 20
407.8111956593
 30
0.0
 11
501.0577295607
 21
357.9994162815
 31
0.0
  0
LINE
  5
112
330
CA
100
AcDbEntity
  8
DV2_Standard
 62
     7
100
AcDbLine
 10
501.0577295607
 20
357.9994162815
 30
0.0
 11
502.8732304072
 21
345.8516164668
 31
0.0
  0
SPLINE
  5
113
330
CA
100
AcDbEntity
  8
DV2_Standard
 62
     7
100
AcDbSpline
210
0.0
220
0.0
230
1.0
 70
     8
 71
     3
 72
    10
 73
     6
 74
     0
 42
0.000000001
 43
0.0000000001
 40
0.0
 40
0.0
 40
0.0
 40
0.0
 40
0.7442095007889933
 40
0.7442095007889933
 40
1.0
 40
1.0
 40
1.0
 40
1.0
 10
502.2976550824117
 20
345.283987440559
 30
0.0
 10
502.1567387884637
 20
345.307156511557
 30
0.0
 10
502.0169234153333
 20
345.3374170563118
 30
0.0
 10
501.8308003385606
 20
345.3893373718165
 30
0.0
 10
501.7832189818222
 20
345.4036730351804
 30
0.0
 10
501.7358364214417
 20
345.4190472628619
 30
0.0
  0
ARC
  5
114
330
CA
100
AcDbEntity
  8
DV2_Standard
 62
     7
100
AcDbCircle
 10
485.12429269
 20
461.2297972596
 30
0.0
 40
0.4999999999809493
100
AcDbArc
 50
8.4999999993
 51
88.5775907462
  0
ARC
  5
115
330
CA
100
AcDbEntity
  8
DV2_Standard
 62
     7
100
AcDbCircle
 10
502.3787224039
 20
345.7777120343
 30
0.0
 40
0.500000030530687
100
AcDbArc
 50
260.7238096857
 51
8.4999678433
  0
LINE
  5
116
330
CA
100
AcDbEntity
  8
DV2_Standard
 62
     7
100
AcDbLine
 10
461.9543554577
 20
441.7289005436
 30
0.0
 11
465.2623819254
 21
447.3448150756
 31
0.0
  0
LINE
  5
117
330
CA
100
AcDbEntity
  8
DV2_Standard
 62
     7
100
AcDbLine
 10
465.2623819254
 20
447.3448150756
 30
0.0
 11
473.7174520085
 21
461.698675727
 31
0.0
  0
LINE
  5
118
330
CA
100
AcDbEntity
  8
DV2_Standard
 62
     7
100
AcDbLine
 10
474.1940219862
 20
462.0013590308
 30
0.0
 11
485.1367042774
 21
461.7296431884
 31
0.0
  0
LINE
  5
119
330
CA
100
AcDbEntity
  8
DV2_Standard
 62
     7
100
AcDbLine
 10
474.1940219862
 20
462.0013590308
 30
0.0
 11
474.1934848495
 21
462.0004445601
 31
0.0
  0
LINE
  5
11A
330
CA
100
AcDbEntity
  8
DV2_Standard
 62
     7
100
AcDbLine
 10
460.3266627558
 20
416.8160032226
 30
0.0
 11
459.9414767711
 21
431.5256625187
 31
0.0
  0
LINE
  5
11B
330
CA
100
AcDbEntity
  8
DV2_Standard
 62
     7
100
AcDbLine
 10
459.9414767711
 20
431.5256625187
 30
0.0
 11
459.8839329897
 21
433.7231708746
 31
0.0
  0
ARC
  5
11C
330
CA
100
AcDbEntity
  8
DV2_Standard
 62
     7
100
AcDbCircle
 10
474.8787928643
 20
434.1158250992
 30
0.0
 40
15.0
100
AcDbArc
 50
149.5
 51
181.5
  0
ARC
  5
11D
330
CA
100
AcDbEntity
  8
DV2_Standard
 62
     7
100
AcDbCircle
 10
460.8279497048
 20
416.773358497
 30
0.0
 40
0.4999988617350737
100
AcDbArc
 50
181.4997823799
 51
274.4225472097
  0
ARC
  5
11E
330
CA
100
AcDbEntity
  8
DV2_Standard
 62
     7
100
AcDbCircle
 10
474.1816103987
 20
461.501513102
 30
0.0
 40
0.4999999999783536
100
AcDbArc
 50
88.5775907391
 51
149.5
  0
LINE
  5
11F
330
CA
100
AcDbEntity
  8
DV2_Standard
 62
     7
100
AcDbLine
 10
489.5409159552
 20
407.240031592
 30
0.0
 11
497.4228465383
 21
357.384189622
 31
0.0
  0
LINE
  5
120
330
CA
100
AcDbEntity
  8
DV2_Standard
 62
     7
100
AcDbLine
 10
485.1373210797
 20
461.7287341514
 30
0.0
 11
474.193471452
 21
462.0004560474
 31
0.0
  0
SPLINE
  5
121
330
CA
100
AcDbEntity
  8
DV2_Standard
 62
     7
100
AcDbSpline
210
0.0
220
0.0
230
1.0
 70
     8
 71
     3
 72
    27
 73
    23
 74
     0
 42
0.000000001
 43
0.0000000001
 40
0.0
 40
0.0
 40
0.0
 40
0.0
 40
0.1418106433728026
 40
0.2593069738632586
 40
0.3526791783588085
 40
0.4073128377790406
 40
0.454998839774042
 40
0.4991029811417477
 40
0.5409432804878578
 40
0.5859468322387429
 40
0.6342909552143691
 40
0.6798273527427551
 40
0.72424070020843
 40
0.7684007456907092
 40
0.7793561488717281
 40
0.7903951469229792
 40
0.8022119733987283
 40
0.815378014818389
 40
0.847240616877584
 40
0.8880862389676166
 40
0.9388489779891104
 40
1.0
 40
1.0
 40
1.0
 40
1.0
 10
497.4121836597045
 20
357.4665772089261
 30
0.0
 10
497.5411900996811
 20
356.6523998782911
 30
0.0
 10
497.7402338469459
 20
355.4009847740896
 30
0.0
 10
498.0340084610301
 20
353.5192233614902
 30
0.0
 10
498.259138501651
 20
352.1329759222531
 30
0.0
 10
498.4467761439381
 20
351.1098735326489
 30
0.0
 10
498.6020476941854
 20
350.3560245556605
 30
0.0
 10
498.7568978675038
 20
349.6930480197099
 30
0.0
 10
498.91992581291
 20
349.0829768944005
 30
0.0
 10
499.0885118270172
 20
348.5437611984282
 30
0.0
 10
499.2590633868547
 20
348.0698216396451
 30
0.0
 10
499.5192350636155
 20
347.4733200482746
 30
0.0
 10
499.8575498769322
 20
346.8791807285402
 30
0.0
 10
500.1783520140434
 20
346.4643921603594
 30
0.0
 10
500.4256891949477
 20
346.2112229058459
 30
0.0
 10
500.5534792252453
 20
346.0924791443944
 30
0.0
 10
500.6807565611727
 20
345.9852424354036
 30
0.0
 10
500.8604267590457
 20
345.847995851347
 30
0.0
 10
501.0795831687695
 20
345.7072282545312
 30
0.0
 10
501.3173321768672
 20
345.5817370328948
 30
0.0
 10
501.550167232966
 20
345.4820406890032
 30
0.0
 10
501.6682078816153
 20
345.44115251524
 30
0.0
 10
501.7420615938437
 20
345.4170080132038
 30
0.0
  0
ARC
  5
122
330
CA
100
AcDbEntity
  8
DV2_Standard
 62
     7
100
AcDbCircle
 10
462.3742129429
 20
403.5267390392
 30
0.0
 40
27.42064805868083
100
AcDbArc
 50
7.6993920772
 51
14.6183522825
  0
SPLINE
  5
123
330
CA
100
AcDbEntity
  8
DV2_Standard
 62
     7
100
AcDbSpline
210
0.0
220
0.0
230
1.0
 70
     8
 71
     3
 72
    18
 73
    14
 74
     0
 42
0.000000001
 43
0.0000000001
 40
0.0
 40
0.0
 40
0.0
 40
0.0
 40
0.022420303274352
 40
0.0973304817189791
 40
0.1749948705400086
 40
0.2552701945627024
 40
0.3382553474707441
 40
0.4243474044871951
 40
0.514247097805774
 40
0.6088903204492726
 40
0.7092949355094708
 40
0.8535031367103378
 40
0.9999999999999999
 40
0.9999999999999999
 40
0.9999999999999999
 40
0.9999999999999999
 10
479.9628481387685
 20
417.6123929296064
 30
0.0
 10
480.0736704357739
 20
417.6136310448348
 30
0.0
 10
480.4849244306036
 20
417.6175122519558
 30
0.0
 10
481.2911735573722
 20
417.5268337650132
 30
0.0
 10
482.314741522809
 20
417.3495601234455
 30
0.0
 10
483.3589101448494
 20
417.0444564133874
 30
0.0
 10
484.3903373957915
 20
416.6003034990048
 30
0.0
 10
485.3886208544736
 20
415.9936893080437
 30
0.0
 10
486.3254669913705
 20
415.2106813931219
 30
0.0
 10
487.17289717364
 20
414.2442157204516
 30
0.0
 10
487.9956306088722
 20
412.9524363330246
 30
0.0
 10
488.6839628678011
 20
411.3345636096427
 30
0.0
 10
489.0151036836479
 20
410.0425787857875
 30
0.0
 10
489.1507798901085
 20
409.4119059670135
 30
0.0
  0
SPLINE
  5
124
330
CA
100
AcDbEntity
  8
DV2_Standard
 62
     7
100
AcDbSpline
210
0.0
220
0.0
230
1.0
 70
     8
 71
     3
 72
     8
 73
     4
 74
     0
 42
0.000000001
 43
0.0000000001
 40
0.0
 40
0.0
 40
0.0
 40
0.0
 40
1.0
 40
1.0
 40
1.0
 40
1.0
 10
489.2004467476924
 20
409.1753511037326
 30
0.0
 10
489.3322994686238
 20
408.5318545990348
 30
0.0
 10
489.4343170900569
 20
407.9062080419938
 30
0.0
 10
489.5456632867368
 20
407.1694058968899
 30
0.0
  0
LINE
  5
125
330
CA
100
AcDbEntity
  8
DV2_Standard
 62
     7
100
AcDbLine
 10
460.8665123427
 20
416.2748487593
 30
0.0
 11
479.9628481388
 21
417.6123929296
 31
0.0
  0
LINE
  5
126
330
CA
100
AcDbEntity
  8
DV2_Standard
 62
     7
100
AcDbLine
 10
422.7637313135
 20
396.2427147794
 30
0.0
 11
405.2637313135
 21
396.2427147794
 31
0.0
  0
LINE
  5
127
330
CA
100
AcDbEntity
  8
DV2_Standard
 62
     7
100
AcDbLine
 10
404.7637313135
 20
397.7470591741
 30
0.0
 11
404.7637313135
 21
396.7427147794
 31
0.0
  0
LINE
  5
128
330
CA
100
AcDbEntity
  8
DV2_Standard
 62
     7
100
AcDbLine
 10
423.2637313135
 20
396.7427147794
 30
0.0
 11
423.2637313135
 21
397.7470591741
 31
0.0
  0
ARC
  5
129
330
CA
100
AcDbEntity
  8
DV2_Standard
 62
     7
100
AcDbCircle
 10
422.7637313135
 20
396.7427147794
 30
0.0
 40
0.5000000000000004
100
AcDbArc
 50
270.0
 51
0.0
  0
ARC
  5
12A
330
CA
100
AcDbEntity
  8
DV2_Standard
 62
     7
100
AcDbCircle
 10
405.2637313135
 20
396.7427147794
 30
0.0
 40
0.5000000000000004
100
AcDbArc
 50
180.0
 51
270.0
  0
ARC
  5
12B
330
CA
100
AcDbEntity
  8
DV2_Standard
 62
     7
100
AcDbCircle
 10
422.7637313135
 20
397.7470591741
 30
0.0
 40
0.5000000000000004
100
AcDbArc
 50
0.0
 51
82.4415834298
  0
ARC
  5
12C
330
CA
100
AcDbEntity
  8
DV2_Standard
 62
     7
100
AcDbCircle
 10
405.2637313135
 20
397.7470591741
 30
0.0
 40
0.5000000000000014
100
AcDbArc
 50
97.5584165702
 51
180.0
  0
LINE
  5
12D
330
CA
100
AcDbEntity
  8
DV2_Standard
 62
     7
100
AcDbLine
 10
389.5137313136
 20
464.4927148075
 30
0.0
 11
389.5137313136
 21
464.3580958642
 31
0.0
  0
LINE
  5
12E
330
CA
100
AcDbEntity
  8
DV2_Standard
 62
     7
100
AcDbLine
 10
389.5137313136
 20
432.1273337507
 30
0.0
 11
389.5137313136
 21
431.9927148075
 31
0.0
  0
SPLINE
  5
12F
330
CA
100
AcDbEntity
  8
DV2_Standard
 62
     7
100
AcDbSpline
210
0.0
220
0.0
230
1.0
 70
     8
 71
     3
 72
     8
 73
     4
 74
     0
 42
0.000000001
 43
0.0000000001
 40
0.0
 40
0.0
 40
0.0
 40
0.0
 40
1.0
 40
1.0
 40
1.0
 40
1.0
 10
389.5137313135546
 20
432.1273337507139
 30
0.0
 10
388.7063696154463
 20
432.4141094148359
 30
0.0
 10
388.0905465767845
 20
432.803564319244
 30
0.0
 10
387.6451918424909
 20
433.2373898136493
 30
0.0
  0
SPLINE
  5
130
330
CA
100
AcDbEntity
  8
DV2_Standard
 62
     7
100
AcDbSpline
210
0.0
220
0.0
230
1.0
 70
     8
 71
     3
 72
     8
 73
     4
 74
     0
 42
0.000000001
 43
0.0000000001
 40
0.0
 40
0.0
 40
0.0
 40
0.0
 40
1.0
 40
1.0
 40
1.0
 40
1.0
 10
387.6440673407532
 20
463.2468920095532
 30
0.0
 10
388.0913533885115
 20
463.6828145737908
 30
0.0
 10
388.7091719788605
 20
464.0723156023492
 30
0.0
 10
389.5137313135544
 20
464.3580958642471
 30
0.0
  0
LINE
  5
131
330
CA
100
AcDbEntity
  8
DV2_Standard
 62
     7
100
AcDbLine
 10
398.5137313136
 20
464.4927148075
 30
0.0
 11
398.5137313136
 21
464.3580958642
 31
0.0
  0
LINE
  5
132
330
CA
100
AcDbEntity
  8
DV2_Standard
 62
     7
100
AcDbLine
 10
398.5137313136
 20
432.1273337507
 30
0.0
 11
398.5137313136
 21
431.9927148075
 31
0.0
  0
SPLINE
  5
133
330
CA
100
AcDbEntity
  8
DV2_Standard
 62
     7
100
AcDbSpline
210
0.0
220
0.0
230
1.0
 70
     8
 71
     3
 72
     8
 73
     4
 74
     0
 42
0.000000001
 43
0.0000000001
 40
0.0
 40
0.0
 40
0.0
 40
0.0
 40
1.0
 40
1.0
 40
1.0
 40
1.0
 10
400.3833952863551
 20
463.2468920095532
 30
0.0
 10
399.936109238597
 20
463.6828145737908
 30
0.0
 10
399.3182906482482
 20
464.0723156023492
 30
0.0
 10
398.5137313135544
 20
464.3580958642472
 30
0.0
  0
LINE
  5
134
330
CA
100
AcDbEntity
  8
DV2_Standard
 62
     7
100
AcDbLine
 10
398.5137313136
 20
464.3580958642
 30
0.0
 11
389.5137313136
 21
464.3580958642
 31
0.0
  0
LINE
  5
135
330
CA
100
AcDbEntity
  8
DV2_Standard
 62
     7
100
AcDbLine
 10
389.5137313136
 20
432.1273337507
 30
0.0
 11
398.5137313136
 21
432.1273337507
 31
0.0
  0
SPLINE
  5
136
330
CA
100
AcDbEntity
  8
DV2_Standard
 62
     7
100
AcDbSpline
210
0.0
220
0.0
230
1.0
 70
     8
 71
     3
 72
     8
 73
     4
 74
     0
 42
0.000000001
 43
0.0000000001
 40
0.0
 40
0.0
 40
0.0
 40
0.0
 40
1.0
 40
1.0
 40
1.0
 40
1.0
 10
398.5137313135546
 20
432.127333750714
 30
0.0
 10
399.3210930116627
 20
432.414109414836
 30
0.0
 10
399.9369160503243
 20
432.8035643192441
 30
0.0
 10
400.3822707846177
 20
433.2373898136494
 30
0.0
  0
ARC
  5
137
330
CA
100
AcDbEntity
  8
DV2_Standard
 62
     7
100
AcDbCircle
 10
395.8780301153
 20
454.8463124111
 30
0.0
 40
10.0
100
AcDbArc
 50
57.1065521672
 51
74.7179936136
  0
ARC
  5
138
330
CA
100
AcDbEntity
  8
DV2_Standard
 62
     7
100
AcDbCircle
 10
395.8780301153
 20
441.6391172039
 30
0.0
 40
10.0
100
AcDbArc
 50
285.2820063864
 51
302.8950245005
  0
ARC
  5
139
330
CA
100
AcDbEntity
  8
DV2_Standard
 62
     7
100
AcDbCircle
 10
392.1494325118
 20
454.8463124111
 30
0.0
 40
10.0
100
AcDbArc
 50
105.2820063864
 51
122.895024501
  0
ARC
  5
13A
330
CA
100
AcDbEntity
  8
DV2_Standard
 62
     7
100
AcDbCircle
 10
392.1494325118
 20
441.6391172039
 30
0.0
 40
9.999999999999998
100
AcDbArc
 50
237.0184621567
 51
254.7179936136
  0
LINE
  5
13B
330
CA
100
AcDbEntity
  8
DV2_Standard
 62
     7
100
AcDbLine
 10
389.5137313136
 20
431.9927148075
 30
0.0
 11
398.5137313136
 21
431.9927148075
 31
0.0
  0
LINE
  5
13C
330
CA
100
AcDbEntity
  8
DV2_Standard
 62
     7
100
AcDbLine
 10
398.5137313136
 20
464.4927148075
 30
0.0
 11
389.5137313136
 21
464.4927148075
 31
0.0
  0
LINE
  5
13D
330
CA
100
AcDbEntity
  8
DV2_Standard
 62
     7
100
AcDbLine
 10
424.5024813135
 20
407.1427148074
 30
0.0
 11
403.5249813135
 21
407.1427148074
 31
0.0
  0
LINE
  5
13E
330
CA
100
AcDbEntity
  8
DV2_Standard
 62
     7
100
AcDbLine
 10
423.2912313135
 20
398.2427148074
 30
0.0
 11
404.7362313135
 21
398.2427148074
 31
0.0
  0
LINE
  5
13F
330
CA
100
AcDbEntity
  8
DV2_Standard
 62
     7
100
AcDbLine
 10
424.4912313135
 20
399.4427148074
 30
0.0
 11
403.5362313135
 21
399.4427148074
 31
0.0
  0
LINE
  5
140
330
CA
100
AcDbEntity
  8
DV2_Standard
 62
     7
100
AcDbLine
 10
423.8351961622
 20
412.2557321126
 30
0.0
 11
427.6180945812
 21
412.288744967
 31
0.0
  0
ARC
  5
141
330
CA
100
AcDbEntity
  8
DV2_Standard
 62
     7
100
AcDbCircle
 10
416.5989941847
 20
113.9281626503
 30
0.0
 40
298.415316832698
100
AcDbArc
 50
91.4404537237
 51
92.3894879107
  0
ARC
  5
142
330
CA
100
AcDbEntity
  8
DV2_Standard
 62
     7
100
AcDbCircle
 10
416.5989941847
 20
113.9281626503
 30
0.0
 40
298.415316832698
100
AcDbArc
 50
89.4809153735
 51
91.4404537237
  0
ARC
  5
143
330
CA
100
AcDbEntity
  8
DV2_Standard
 62
     7
100
AcDbCircle
 10
416.5989941847
 20
113.9281626503
 30
0.0
 40
298.415316832698
100
AcDbArc
 50
88.6105120893
 51
89.4809153735
  0
LINE
  5
144
330
CA
100
AcDbEntity
  8
DV2_Standard
 62
     7
100
AcDbLine
 10
428.1137313135
 20
425.8926076418
 30
0.0
 11
428.1137313135
 21
412.7887259285
 31
0.0
  0
LINE
  5
145
330
CA
100
AcDbEntity
  8
DV2_Standard
 62
     7
100
AcDbLine
 10
428.1137313135
 20
430.504836906
 30
0.0
 11
428.1137313135
 21
425.8926076418
 31
0.0
  0
LINE
  5
146
330
CA
100
AcDbEntity
  8
DV2_Standard
 62
     7
100
AcDbLine
 10
428.1137313135
 20
445.0114662214
 30
0.0
 11
428.1137313135
 21
430.5048369061
 31
0.0
  0
LINE
  5
147
330
CA
100
AcDbEntity
  8
DV2_Standard
 62
     7
100
AcDbLine
 10
428.1137313135
 20
452.3077148089
 30
0.0
 11
428.1137313135
 21
445.0114662214
 31
0.0
  0
LINE
  5
148
330
CA
100
AcDbEntity
  8
DV2_Standard
 62
     7
100
AcDbLine
 10
428.1137313135
 20
466.8121558409
 30
0.0
 11
428.1137313135
 21
452.3077148089
 31
0.0
  0
ARC
  5
149
330
CA
100
AcDbEntity
  8
DV2_Standard
 62
     7
100
AcDbCircle
 10
427.6137313135
 20
412.7887259285
 30
0.0
 40
0.5
100
AcDbArc
 50
270.5
 51
0.0
  0
ARC
  5
14A
330
CA
100
AcDbEntity
  8
DV2_Standard
 62
     7
100
AcDbCircle
 10
427.6137313135
 20
430.5048369061
 30
0.0
 40
0.5000000000002011
100
AcDbArc
 50
270.5
 51
0.0
  0
ARC
  5
14B
330
CA
100
AcDbEntity
  8
DV2_Standard
 62
     7
100
AcDbCircle
 10
427.6138451696
 20
466.8122673195
 30
0.0
 40
0.4998861565958014
100
AcDbArc
 50
359.9870627011
 51
89.5128678216
  0
ARC
  5
14C
330
CA
100
AcDbEntity
  8
DV2_Standard
 62
     7
100
AcDbCircle
 10
403.1946080455
 20
412.282014126
 30
0.0
 40
0.3406052356465806
100
AcDbArc
 50
256.2639112066
 51
256.598627617
  0
LINE
  5
14D
330
CA
100
AcDbEntity
  8
DV2_Standard
 62
     7
100
AcDbLine
 10
403.0137313135
 20
452.3077148067
 30
0.0
 11
403.0137313135
 21
467.0224756801
 31
0.0
  0
LINE
  5
14E
330
CA
100
AcDbEntity
  8
DV2_Standard
 62
     7
100
AcDbLine
 10
403.0137313135
 20
445.01146622
 30
0.0
 11
403.0137313135
 21
452.3077148067
 31
0.0
  0
LINE
  5
14F
330
CA
100
AcDbEntity
  8
DV2_Standard
 62
     7
100
AcDbLine
 10
403.0137313135
 20
430.2945193923
 30
0.0
 11
403.0137313135
 21
445.01146622
 31
0.0
  0
LINE
  5
150
330
CA
100
AcDbEntity
  8
DV2_Standard
 62
     7
100
AcDbLine
 10
403.0137313135
 20
425.8587987895
 30
0.0
 11
403.0137313135
 21
430.2945193923
 31
0.0
  0
LINE
  5
151
330
CA
100
AcDbEntity
  8
DV2_Standard
 62
     7
100
AcDbLine
 10
403.0137313135
 20
412.5784084147
 30
0.0
 11
403.0137313135
 21
425.8587987895
 31
0.0
  0
LINE
  5
152
330
CA
100
AcDbEntity
  8
DV2_Standard
 62
     7
100
AcDbLine
 10
403.0137313135
 20
412.2511502889
 30
0.0
 11
403.0137313135
 21
412.3925306279
 31
0.0
  0
LINE
  5
153
330
CA
100
AcDbEntity
  8
DV2_Standard
 62
     7
100
AcDbLine
 10
403.5180945812
 20
412.0784274532
 30
0.0
 11
404.157360322
 21
412.0840062408
 31
0.0
  0
ARC
  5
154
330
CA
100
AcDbEntity
  8
DV2_Standard
 62
     7
100
AcDbCircle
 10
403.5138418919
 20
467.0223609732
 30
0.0
 40
0.5001105909121085
100
AcDbArc
 50
89.5128450102
 51
179.9872196722
  0
ARC
  5
155
330
CA
100
AcDbEntity
  8
DV2_Standard
 62
     7
100
AcDbCircle
 10
403.5137313135
 20
430.2945193923
 30
0.0
 40
0.4999999999999998
100
AcDbArc
 50
180.0
 51
270.5
  0
ARC
  5
156
330
CA
100
AcDbEntity
  8
DV2_Standard
 62
     7
100
AcDbCircle
 10
403.5137313135
 20
412.5784084147
 30
0.0
 40
0.5000000000000014
100
AcDbArc
 50
180.0
 51
270.5
  0
LINE
  5
157
330
CA
100
AcDbEntity
  8
DV2_Standard
 62
     7
100
AcDbLine
 10
403.5362313135
 20
407.1427148074
 30
0.0
 11
403.5362313135
 21
399.4427148074
 31
0.0
  0
LINE
  5
158
330
CA
100
AcDbEntity
  8
DV2_Standard
 62
     7
100
AcDbLine
 10
424.4912313135
 20
399.4427148074
 30
0.0
 11
424.4912313135
 21
407.1427148074
 31
0.0
  0
LINE
  5
159
330
CA
100
AcDbEntity
  8
DV2_Standard
 62
     7
100
AcDbLine
 10
403.5137313135
 20
410.7335704935
 30
0.0
 11
403.5137313135
 21
407.1427148074
 31
0.0
  0
LINE
  5
15A
330
CA
100
AcDbEntity
  8
DV2_Standard
 62
     7
100
AcDbLine
 10
424.5137313135
 20
407.1427148074
 30
0.0
 11
424.5137313135
 21
410.279031178
 31
0.0
  0
SPLINE
  5
15B
330
CA
100
AcDbEntity
  8
DV2_Standard
 62
     7
100
AcDbSpline
210
0.0
220
0.0
230
1.0
 70
     8
 71
     3
 72
    24
 73
    20
 74
     0
 42
0.000000001
 43
0.0000000001
 40
0.0
 40
0.0
 40
0.0
 40
0.0
 40
0.0350851816658375
 40
0.0817082149411349
 40
0.1357958089333023
 40
0.2011030804997226
 40
0.2627393773918932
 40
0.3354537770316539
 40
0.4207908105575592
 40
0.5150368050831026
 40
0.6014175124764117
 40
0.6818549975584552
 40
0.7509492279189077
 40
0.808594286715191
 40
0.8564339889863443
 40
0.9049511552521601
 40
0.9439300745823337
 40
0.9765717926998423
 40
1.0
 40
1.0
 40
1.0
 40
1.0
 10
403.5608176073409
 20
429.7949122904672
 30
0.0
 10
403.8692052063319
 20
429.7976043367778
 30
0.0
 10
404.4767404898815
 20
429.8029081893257
 30
0.0
 10
405.5866849566484
 20
429.8126167804624
 30
0.0
 10
406.9086362041988
 20
429.8241956798451
 30
0.0
 10
408.3634623823558
 20
429.8369447328258
 30
0.0
 10
409.9651332418148
 20
429.8509746188125
 30
0.0
 10
411.7290999960301
 20
429.8664134195143
 30
0.0
 10
413.7548465881694
 20
429.8841236253762
 30
0.0
 10
415.8905439905324
 20
429.9027758316744
 30
0.0
 10
417.9868709879136
 20
429.9210666551783
 30
0.0
 10
419.8812215203893
 20
429.9375789747732
 30
0.0
 10
421.544566472648
 20
429.952059819207
 30
0.0
 10
422.9461126256938
 20
429.9642463600852
 30
0.0
 10
424.1810374892624
 20
429.9749739126746
 30
0.0
 10
425.2679025012013
 20
429.9844101258559
 30
0.0
 10
426.2228471681704
 20
429.9927049056953
 30
0.0
 10
426.9976535068107
 20
429.9994453891514
 30
0.0
 10
427.4130602993952
 20
430.0030685926905
 30
0.0
 10
427.6180955119174
 20
430.004857072689
 30
0.0
  0
SPLINE
  5
15C
330
CA
100
AcDbEntity
  8
DV2_Standard
 62
     7
100
AcDbSpline
210
0.0
220
0.0
230
1.0
 70
     8
 71
     3
 72
    11
 73
     7
 74
     0
 42
0.000000001
 43
0.0000000001
 40
0.0
 40
0.0
 40
0.0
 40
0.0
 40
0.2471632366316075
 40
0.5000261190469572
 40
0.7529211622945079
 40
1.0
 40
1.0
 40
1.0
 40
1.0
 10
427.6181128167161
 20
467.3120726041541
 30
0.0
 10
425.4364954896973
 20
467.3310682629946
 30
0.0
 10
421.708516068382
 20
467.3635528961186
 30
0.0
 10
415.5674491776013
 20
467.4169071664789
 30
0.0
 10
409.4293705443466
 20
467.4707602958554
 30
0.0
 10
405.7002104894156
 20
467.5033240150076
 30
0.0
 10
403.5181093937316
 20
467.5223929045848
 30
0.0
  0
SPLINE
  5
15D
330
CA
100
AcDbEntity
  8
DV2_Standard
 62
     7
100
AcDbSpline
210
0.0
220
0.0
230
1.0
 70
     8
 71
     3
 72
    11
 73
     7
 74
     0
 42
0.000000001
 43
0.0000000001
 40
0.0
 40
0.0
 40
0.0
 40
0.0
 40
0.2470936948420833
 40
0.5000159842238598
 40
0.7529560329665563
 40
1.0
 40
1.0
 40
1.0
 40
1.0
 10
427.618108710219
 20
467.3120759303579
 30
0.0
 10
425.4360425182531
 20
467.3310956919838
 30
0.0
 10
421.7067893533047
 20
467.363613735725
 30
0.0
 10
415.5677342222182
 20
467.4170690357485
 30
0.0
 10
409.4303769191646
 20
467.4707740810731
 30
0.0
 10
405.7004492172912
 20
467.5033366948706
 30
0.0
 10
403.5181108930544
 20
467.5223959537028
 30
0.0
  0
LINE
  5
15E
330
CA
100
AcDbEntity
  8
DV2_Standard
 62
     7
100
AcDbLine
 10
403.5362313135
 20
399.4427148074
 30
0.0
 11
404.7362313135
 21
398.2427148074
 31
0.0
  0
LINE
  5
15F
330
CA
100
AcDbEntity
  8
DV2_Standard
 62
     7
100
AcDbLine
 10
423.2912313135
 20
398.2427148074
 30
0.0
 11
424.4912313135
 21
399.4427148074
 31
0.0
  0
ARC
  5
160
330
CA
100
AcDbEntity
  8
DV2_Standard
 62
     7
100
AcDbCircle
 10
401.5950290961
 20
410.7912565472
 30
0.0
 40
1.910363636893665
100
AcDbArc
 50
358.3018613968
 51
37.217252436
  0
ARC
  5
161
330
CA
100
AcDbEntity
  8
DV2_Standard
 62
     7
100
AcDbCircle
 10
426.5137313135
 20
410.279031178
 30
0.0
 40
1.999999999999999
100
AcDbArc
 50
90.5
 51
180.1971913812
  0
ARC
  5
162
330
CA
100
AcDbEntity
  8
DV2_Standard
 62
     7
100
AcDbCircle
 10
403.5137312959
 20
412.2511516572
 30
0.0
 40
0.4999999818901976
100
AcDbArc
 50
179.9996857693
 51
218.3154363327
  0
LINE
  5
163
330
CA
100
AcDbEntity
  8
DV2_Standard
 62
     7
100
AcDbLine
 10
403.5362313135
 20
407.1427148075
 30
0.0
 11
404.6982313135
 21
407.1427148075
 31
0.0
  0
LINE
  5
164
330
CA
100
AcDbEntity
  8
DV2_Standard
 62
     7
100
AcDbLine
 10
404.6982313135
 20
398.2807148074
 30
0.0
 11
404.6982313135
 21
407.1427148075
 31
0.0
  0
LINE
  5
165
330
CA
100
AcDbEntity
  8
DV2_Standard
 62
     7
100
AcDbLine
 10
423.3292313135
 20
398.2807148074
 30
0.0
 11
423.3292313135
 21
407.1427148075
 31
0.0
  0
LINE
  5
166
330
CA
100
AcDbEntity
  8
DV2_Standard
 62
     7
100
AcDbLine
 10
424.4912313135
 20
407.1427148075
 30
0.0
 11
423.3292313135
 21
407.1427148075
 31
0.0
  0
LINE
  5
167
330
CA
100
AcDbEntity
  8
DV2_Standard
 62
     7
100
AcDbLine
 10
359.0537313135
 20
483.2427148075
 30
0.0
 11
359.0537313135
 21
413.2427148075
 31
0.0
  0
ENDBLK
  5
169
330
CA
100
AcDbEntity
  8
0
100
AcDbBlockEnd
  0
BLOCK
  5
263
330
16A
100
AcDbEntity
  8
0
100
AcDbBlockBegin
  2
SE2
 70
     0
 10
0.0
 20
0.0
 30
0.0
  3
SE2
  1

  0
ARC
  5
16D
330
16A
100
AcDbEntity
  8
DV3_Standard
 62
     7
100
AcDbCircle
 10
241.3504383863
 20
985.620212683
 30
0.0
 40
756.6135582322005
100
AcDbArc
 50
267.4032304143
 51
268.9762500104
  0
ARC
  5
16E
330
16A
100
AcDbEntity
  8
DV3_Standard
 62
     7
100
AcDbCircle
 10
241.3495615982
 20
985.6202126603
 30
0.0
 40
756.6135582095619
100
AcDbArc
 50
271.0237499908
 51
272.5968374241
  0
SPLINE
  5
16F
330
16A
100
AcDbEntity
  8
DV3_Standard
 62
     7
100
AcDbSpline
210
0.0
220
0.0
230
1.0
 70
     8
 71
     3
 72
    16
 73
    12
 74
     0
 42
0.000000001
 43
0.0000000001
 40
0.0
 40
0.0
 40
0.0
 40
0.0
 40
0.25
 40
0.25
 40
0.375
 40
0.375
 40
0.5
 40
0.5
 40
0.75
 40
0.75
 40
1.0
 40
1.0
 40
1.0
 40
1.0
 10
227.8321319032447
 20
229.1274289165668
 30
0.0
 10
227.8321318665188
 20
229.1274271915388
 30
0.0
 10
228.1837442686907
 20
229.1256964175749
 30
0.0
 10
229.2010363349724
 20
229.122732340395
 30
0.0
 10
229.6159971189433
 20
229.1217407836856
 30
0.0
 10
230.5961362841379
 20
229.1202695765632
 30
0.0
 10
231.1665593810551
 20
229.1198047094126
 30
0.0
 10
233.0354981887482
 20
229.1196430538182
 30
0.0
 10
234.541702920659
 20
229.1213968145304
 30
0.0
 10
237.791435630649
 20
229.1254794030945
 30
0.0
 10
239.5650376235696
 20
229.1274221352666
 30
0.0
 10
241.3499999999988
 20
229.1274241548667
 30
0.0
  0
SPLINE
  5
170
330
16A
100
AcDbEntity
  8
DV3_Standard
 62
     7
100
AcDbSpline
210
0.0
220
0.0
230
1.0
 70
     8
 71
     3
 72
    16
 73
    12
 74
     0
 42
0.000000001
 43
0.0000000001
 40
0.0
 40
0.0
 40
0.0
 40
0.0
 40
0.2500000000000004
 40
0.2500000000000004
 40
0.3750000000000006
 40
0.3750000000000006
 40
0.5000000000000008
 40
0.5000000000000008
 40
0.7500000000000006
 40
0.7500000000000006
 40
1.0
 40
1.0
 40
1.0
 40
1.0
 10
241.3499999999988
 20
229.1274241548667
 30
0.0
 10
243.1349680515924
 20
229.1274221352596
 30
0.0
 10
244.8863295622843
 20
229.1255068663194
 30
0.0
 10
247.3402590267995
 20
229.1224247356223
 30
0.0
 10
248.1161774951031
 20
229.1214319148847
 30
0.0
 10
249.5847433783385
 20
229.1200609861021
 30
0.0
 10
250.2801782106892
 20
229.1196991934693
 30
0.0
 10
252.1504552505964
 20
229.1198523537281
 30
0.0
 10
253.1581352022142
 20
229.1217432144113
 30
0.0
 10
254.5087336735096
 20
229.125670583868
 30
0.0
 10
254.8678681334789
 20
229.1274271915345
 30
0.0
 10
254.8678680967479
 20
229.1274289168463
 30
0.0
  0
LINE
  5
171
330
16A
100
AcDbEntity
  8
DV3_Standard
 62
     7
100
AcDbLine
 10
276.1381330751
 20
230.3066212993
 30
0.0
 11
276.35
 21
254.5841662338
 31
0.0
  0
ARC
  5
172
330
16A
100
AcDbEntity
  8
DV3_Standard
 62
     7
100
AcDbCircle
 10
207.044434556
 20
230.2667790162
 30
0.0
 40
0.4841778675505557
100
AcDbArc
 50
175.2756993617
 51
238.5483387976
  0
ARC
  5
173
330
16A
100
AcDbEntity
  8
DV3_Standard
 62
     7
100
AcDbCircle
 10
207.061551024
 20
230.3784489015
 30
0.0
 40
0.5912423561993728
100
AcDbArc
 50
249.3016830463
 51
267.2588334082
  0
ARC
  5
174
330
16A
100
AcDbEntity
  8
DV3_Standard
 62
     7
100
AcDbCircle
 10
206.9973241436
 20
230.2234330521
 30
0.0
 40
0.4237225733227291
100
AcDbArc
 50
235.2794850822
 51
236.5484089508
  0
LINE
  5
175
330
16A
100
AcDbEntity
  8
DV3_Standard
 62
     7
100
AcDbLine
 10
206.35
 20
254.5841662339
 30
0.0
 11
206.5618669249
 21
230.3066212993
 31
0.0
  0
SPLINE
  5
176
330
16A
100
AcDbEntity
  8
DV3_Standard
 62
     7
100
AcDbSpline
210
0.0
220
0.0
230
1.0
 70
     8
 71
     3
 72
    33
 73
    29
 74
     0
 42
0.000000001
 43
0.0000000001
 40
0.0
 40
0.0
 40
0.0
 40
0.0
 40
0.0557816847642039
 40
0.1590886261677803
 40
0.2473645748910695
 40
0.3207315078571918
 40
0.3791503639159349
 40
0.4225226826667506
 40
0.4451277640150076
 40
0.4592040705530746
 40
0.4630560340085666
 40
0.4642016068104074
 40
0.4645892840756242
 40
0.4648667708628185
 40
0.4649737847852779
 40
0.4650691093947473
 40
0.4651639239628619
 40
0.4652695758255768
 40
0.4655429203809443
 40
0.4659258389958236
 40
0.4687137413247623
 40
0.4806643288332496
 40
0.5009335206203401
 40
0.5520037579678957
 40
0.655148110276503
 40
0.784732347493771
 40
0.9403615374451586
 40
1.0
 40
1.0
 40
1.0
 40
1.0
 10
275.6667593359664
 20
229.7867249523642
 30
0.0
 10
275.6786079389622
 20
229.7875440278439
 30
0.0
 10
275.7073804875426
 20
229.7896656725659
 30
0.0
 10
275.7591209286726
 20
229.7984040522597
 30
0.0
 10
275.8155416299764
 20
229.812096693806
 30
0.0
 10
275.865962508495
 20
229.828938354157
 30
0.0
 10
275.9096792277207
 20
229.8481488080881
 30
0.0
 10
275.944248129452
 20
229.8673799066289
 30
0.0
 10
275.9718011474803
 20
229.8866735447903
 30
0.0
 10
275.9894439687475
 20
229.9009244558389
 30
0.0
 10
276.0030988932947
 20
229.9136879184059
 30
0.0
 10
276.0094914126026
 20
229.9201106419935
 30
0.0
 10
276.0127376977047
 20
229.9234905116811
 30
0.0
 10
276.0146425913288
 20
229.9255113295004
 30
0.0
 10
276.0162188660175
 20
229.9272121368334
 30
0.0
 10
276.0173270216017
 20
229.9284199433766
 30
0.0
 10
276.0184268739714
 20
229.929630885041
 30
0.0
 10
276.0199612281741
 20
229.9313372771298
 30
0.0
 10
276.0217621002677
 20
229.9333739156096
 30
0.0
 10
276.0273772386157
 20
229.939846248939
 30
0.0
 10
276.0370759087332
 20
229.9519851776789
 30
0.0
 10
276.0478476425424
 20
229.9670158375155
 30
0.0
 10
276.0618759095859
 20
229.9892726145961
 30
0.0
 10
276.0840318889942
 20
230.0312212827756
 30
0.0
 10
276.104384578052
 20
230.0852853192
 30
0.0
 10
276.1207256089697
 20
230.1445930815873
 30
0.0
 10
276.129439765978
 20
230.1902605180927
 30
0.0
 10
276.1315001752456
 20
230.2107421387429
 30
0.0
 10
276.1321212933793
 20
230.2173329057189
 30
0.0
  0
LINE
  5
177
330
16A
100
AcDbEntity
  8
DV3_Standard
 62
     7
100
AcDbLine
 10
254.57
 20
228.749684978
 30
0.0
 11
253.624918328
 21
229.1219625489
 31
0.0
  0
LINE
  5
178
330
16A
100
AcDbEntity
  8
DV3_Standard
 62
     7
100
AcDbLine
 10
228.13
 20
228.749684978
 30
0.0
 11
229.0751069
 21
229.1219724865
 31
0.0
  0
LINE
  5
179
330
16A
100
AcDbEntity
  8
DV3_Standard
 62
     7
100
AcDbLine
 10
254.57
 20
227.6241662338
 30
0.0
 11
254.57
 21
228.749684978
 31
0.0
  0
LINE
  5
17A
330
16A
100
AcDbEntity
  8
DV3_Standard
 62
     7
100
AcDbLine
 10
228.13
 20
228.749684978
 30
0.0
 11
228.13
 21
227.6241662339
 31
0.0
  0
LINE
  5
17B
330
16A
100
AcDbEntity
  8
DV3_Standard
 62
     7
100
AcDbLine
 10
253.4
 20
229.2105602345
 30
0.0
 11
253.4
 21
227.6241662338
 31
0.0
  0
LINE
  5
17C
330
16A
100
AcDbEntity
  8
DV3_Standard
 62
     7
100
AcDbLine
 10
229.3
 20
229.2105602345
 30
0.0
 11
229.3
 21
227.6241662339
 31
0.0
  0
ARC
  5
17D
330
16A
100
AcDbEntity
  8
DV3_Standard
 62
     7
100
AcDbCircle
 10
91.3504383863
 20
985.620212683
 30
0.0
 40
756.6135582322005
100
AcDbArc
 50
267.4032304143
 51
268.9762500104
  0
ARC
  5
17E
330
16A
100
AcDbEntity
  8
DV3_Standard
 62
     7
100
AcDbCircle
 10
91.3495615982
 20
985.6202126604
 30
0.0
 40
756.6135582095619
100
AcDbArc
 50
271.0237499908
 51
272.5968374241
  0
SPLINE
  5
17F
330
16A
100
AcDbEntity
  8
DV3_Standard
 62
     7
100
AcDbSpline
210
0.0
220
0.0
230
1.0
 70
     8
 71
     3
 72
    16
 73
    12
 74
     0
 42
0.000000001
 43
0.0000000001
 40
0.0
 40
0.0
 40
0.0
 40
0.0
 40
0.25
 40
0.25
 40
0.375
 40
0.375
 40
0.5
 40
0.5
 40
0.75
 40
0.75
 40
1.0
 40
1.0
 40
1.0
 40
1.0
 10
77.83213190324479
 20
229.1274289166128
 30
0.0
 10
77.83213186651886
 20
229.1274271915848
 30
0.0
 10
78.1837442686908
 20
229.1256964176209
 30
0.0
 10
79.20103633497247
 20
229.122732340441
 30
0.0
 10
79.61599711894341
 20
229.1217407837317
 30
0.0
 10
80.59613628413796
 20
229.1202695766092
 30
0.0
 10
81.1665593810552
 20
229.1198047094586
 30
0.0
 10
83.03549818874832
 20
229.1196430538642
 30
0.0
 10
84.54170292065902
 20
229.1213968145763
 30
0.0
 10
87.7914356306491
 20
229.1254794031405
 30
0.0
 10
89.56503762356971
 20
229.1274221353126
 30
0.0
 10
91.34999999999893
 20
229.1274241549127
 30
0.0
  0
SPLINE
  5
180
330
16A
100
AcDbEntity
  8
DV3_Standard
 62
     7
100
AcDbSpline
210
0.0
220
0.0
230
1.0
 70
     8
 71
     3
 72
    16
 73
    12
 74
     0
 42
0.000000001
 43
0.0000000001
 40
0.0
 40
0.0
 40
0.0
 40
0.0
 40
0.2500000000000004
 40
0.2500000000000004
 40
0.3750000000000006
 40
0.3750000000000006
 40
0.5000000000000008
 40
0.5000000000000008
 40
0.7500000000000006
 40
0.7500000000000006
 40
1.0
 40
1.0
 40
1.0
 40
1.0
 10
91.34999999999893
 20
229.1274241549127
 30
0.0
 10
93.13496805159251
 20
229.1274221353056
 30
0.0
 10
94.88632956228442
 20
229.1255068663654
 30
0.0
 10
97.34025902679952
 20
229.1224247356683
 30
0.0
 10
98.11617749510319
 20
229.1214319149306
 30
0.0
 10
99.58474337833854
 20
229.120060986148
 30
0.0
 10
100.2801782106893
 20
229.1196991935153
 30
0.0
 10
102.1504552505965
 20
229.1198523537741
 30
0.0
 10
103.1581352022143
 20
229.1217432144572
 30
0.0
 10
104.5087336735097
 20
229.1256705839139
 30
0.0
 10
104.867868133479
 20
229.1274271915805
 30
0.0
 10
104.867868096748
 20
229.1274289168922
 30
0.0
  0
LINE
  5
181
330
16A
100
AcDbEntity
  8
DV3_Standard
 62
     7
100
AcDbLine
 10
126.1381330751
 20
230.3066212993
 30
0.0
 11
126.35
 21
254.5841662339
 31
0.0
  0
ARC
  5
182
330
16A
100
AcDbEntity
  8
DV3_Standard
 62
     7
100
AcDbCircle
 10
57.044434556
 20
230.2667790163
 30
0.0
 40
0.4841778675504407
100
AcDbArc
 50
175.2756993617
 51
238.5483387976
  0
ARC
  5
183
330
16A
100
AcDbEntity
  8
DV3_Standard
 62
     7
100
AcDbCircle
 10
57.061551024
 20
230.3784489015
 30
0.0
 40
0.5912423562012551
100
AcDbArc
 50
249.3016830463
 51
267.2588334082
  0
ARC
  5
184
330
16A
100
AcDbEntity
  8
DV3_Standard
 62
     7
100
AcDbCircle
 10
56.9973241436
 20
230.2234330522
 30
0.0
 40
0.4237225733231904
100
AcDbArc
 50
219.10113309
 51
250.1498767521
  0
LINE
  5
185
330
16A
100
AcDbEntity
  8
DV3_Standard
 62
     7
100
AcDbLine
 10
56.35
 20
254.5841662339
 30
0.0
 11
56.5618669249
 21
230.3066212993
 31
0.0
  0
SPLINE
  5
186
330
16A
100
AcDbEntity
  8
DV3_Standard
 62
     7
100
AcDbSpline
210
0.0
220
0.0
230
1.0
 70
     8
 71
     3
 72
    33
 73
    29
 74
     0
 42
0.000000001
 43
0.0000000001
 40
0.0
 40
0.0
 40
0.0
 40
0.0
 40
0.0557816847642039
 40
0.1590886261677803
 40
0.2473645748910698
 40
0.3207315078571921
 40
0.3791503639159351
 40
0.4225226826667507
 40
0.4451277640150078
 40
0.4592040705530747
 40
0.4630560340085668
 40
0.4642016068104076
 40
0.4645892840756244
 40
0.4648667708628188
 40
0.4649737847852785
 40
0.4650691093947475
 40
0.4651639239628622
 40
0.4652695758255772
 40
0.4655429203809446
 40
0.465925838995824
 40
0.4687137413247625
 40
0.4806643288332499
 40
0.5009335206203405
 40
0.552003757967896
 40
0.6551481102765034
 40
0.7847323474937711
 40
0.9403615374451587
 40
1.0
 40
1.0
 40
1.0
 40
1.0
 10
125.6667593359665
 20
229.7867249524101
 30
0.0
 10
125.6786079389622
 20
229.7875440278898
 30
0.0
 10
125.7073804875426
 20
229.7896656726118
 30
0.0
 10
125.7591209286728
 20
229.7984040523056
 30
0.0
 10
125.8155416299765
 20
229.8120966938519
 30
0.0
 10
125.8659625084951
 20
229.8289383542028
 30
0.0
 10
125.9096792277207
 20
229.8481488081339
 30
0.0
 10
125.9442481294521
 20
229.8673799066749
 30
0.0
 10
125.9718011474802
 20
229.8866735448361
 30
0.0
 10
125.9894439687475
 20
229.9009244558848
 30
0.0
 10
126.0030988932949
 20
229.9136879184518
 30
0.0
 10
126.0094914126025
 20
229.9201106420394
 30
0.0
 10
126.0127376977048
 20
229.923490511727
 30
0.0
 10
126.0146425913285
 20
229.9255113295462
 30
0.0
 10
126.0162188660177
 20
229.9272121368793
 30
0.0
 10
126.0173270216016
 20
229.9284199434225
 30
0.0
 10
126.0184268739716
 20
229.9296308850868
 30
0.0
 10
126.0199612281742
 20
229.9313372771756
 30
0.0
 10
126.0217621002678
 20
229.9333739156554
 30
0.0
 10
126.027377238616
 20
229.939846248985
 30
0.0
 10
126.0370759087328
 20
229.9519851777245
 30
0.0
 10
126.0478476425427
 20
229.9670158375616
 30
0.0
 10
126.0618759095857
 20
229.9892726146417
 30
0.0
 10
126.0840318889945
 20
230.0312212828217
 30
0.0
 10
126.104384578052
 20
230.0852853192458
 30
0.0
 10
126.1207256089698
 20
230.1445930816332
 30
0.0
 10
126.1294397659781
 20
230.1902605181386
 30
0.0
 10
126.1315001752457
 20
230.2107421387888
 30
0.0
 10
126.1321212933794
 20
230.2173329057648
 30
0.0
  0
LINE
  5
187
330
16A
100
AcDbEntity
  8
DV3_Standard
 62
     7
100
AcDbLine
 10
104.57
 20
228.749684978
 30
0.0
 11
103.624918328
 21
229.1219625489
 31
0.0
  0
LINE
  5
188
330
16A
100
AcDbEntity
  8
DV3_Standard
 62
     7
100
AcDbLine
 10
78.13
 20
228.749684978
 30
0.0
 11
79.0751069
 21
229.1219724865
 31
0.0
  0
LINE
  5
189
330
16A
100
AcDbEntity
  8
DV3_Standard
 62
     7
100
AcDbLine
 10
104.57
 20
227.6241662339
 30
0.0
 11
104.57
 21
228.749684978
 31
0.0
  0
LINE
  5
18A
330
16A
100
AcDbEntity
  8
DV3_Standard
 62
     7
100
AcDbLine
 10
78.13
 20
228.749684978
 30
0.0
 11
78.13
 21
227.6241662339
 31
0.0
  0
LINE
  5
18B
330
16A
100
AcDbEntity
  8
DV3_Standard
 62
     7
100
AcDbLine
 10
103.4
 20
229.2105602345
 30
0.0
 11
103.4
 21
227.6241662339
 31
0.0
  0
LINE
  5
18C
330
16A
100
AcDbEntity
  8
DV3_Standard
 62
     7
100
AcDbLine
 10
79.3
 20
229.2105602345
 30
0.0
 11
79.3
 21
227.6241662339
 31
0.0
  0
LINE
  5
18D
330
16A
100
AcDbEntity
  8
DV3_Standard
 62
     7
100
AcDbLine
 10
170.4149990184
 20
144.4070589763
 30
0.0
 11
170.4149990184
 21
144.5655174004
 31
0.0
  0
LINE
  5
18E
330
16A
100
AcDbEntity
  8
DV3_Standard
 62
     7
100
AcDbLine
 10
162.2849990184
 20
144.5655174004
 30
0.0
 11
162.2849990184
 21
144.4070589763
 31
0.0
  0
LINE
  5
18F
330
16A
100
AcDbEntity
  8
DV3_Standard
 62
     7
100
AcDbLine
 10
162.2849990184
 20
144.1865490916
 30
0.0
 11
162.2849990184
 21
144.0583777212
 31
0.0
  0
LINE
  5
190
330
16A
100
AcDbEntity
  8
DV3_Standard
 62
     7
100
AcDbLine
 10
162.2849990184
 20
144.0583777212
 30
0.0
 11
162.7499990184
 21
144.0583777212
 31
0.0
  0
LINE
  5
191
330
16A
100
AcDbEntity
  8
DV3_Standard
 62
     7
100
AcDbLine
 10
163.5499990184
 20
144.0583777212
 30
0.0
 11
166.1999990184
 21
144.0583777212
 31
0.0
  0
LINE
  5
192
330
16A
100
AcDbEntity
  8
DV3_Standard
 62
     7
100
AcDbLine
 10
166.4999990184
 20
144.0583777212
 30
0.0
 11
169.1499990184
 21
144.0583777212
 31
0.0
  0
LINE
  5
193
330
16A
100
AcDbEntity
  8
DV3_Standard
 62
     7
100
AcDbLine
 10
169.9499990184
 20
144.0583777212
 30
0.0
 11
170.4149990184
 21
144.0583777212
 31
0.0
  0
LINE
  5
194
330
16A
100
AcDbEntity
  8
DV3_Standard
 62
     7
100
AcDbLine
 10
170.4149990184
 20
144.0583777212
 30
0.0
 11
170.4149990184
 21
144.1865490916
 31
0.0
  0
LINE
  5
195
330
16A
100
AcDbEntity
  8
DV3_Standard
 62
     7
100
AcDbLine
 10
169.1499990184
 20
144.0583777212
 30
0.0
 11
169.9499990184
 21
144.0583777212
 31
0.0
  0
LINE
  5
196
330
16A
100
AcDbEntity
  8
DV3_Standard
 62
     7
100
AcDbLine
 10
166.1999990184
 20
144.0583777212
 30
0.0
 11
166.4999990184
 21
144.0583777212
 31
0.0
  0
LINE
  5
197
330
16A
100
AcDbEntity
  8
DV3_Standard
 62
     7
100
AcDbLine
 10
162.7499990184
 20
144.0583777212
 30
0.0
 11
163.5499990184
 21
144.0583777212
 31
0.0
  0
LINE
  5
198
330
16A
100
AcDbEntity
  8
DV3_Standard
 62
     7
100
AcDbLine
 10
170.4149990184
 20
144.4070589763
 30
0.0
 11
170.4149990184
 21
144.1865490916
 31
0.0
  0
ARC
  5
199
330
16A
100
AcDbEntity
  8
DV3_Standard
 62
     7
100
AcDbCircle
 10
160.0531681747
 20
143.4568073307
 30
0.0
 40
2.348103905827212
100
AcDbArc
 50
14.8233785945
 51
18.1061925932
  0
ARC
  5
19A
330
16A
100
AcDbEntity
  8
DV3_Standard
 62
     7
100
AcDbCircle
 10
160.0618906504
 20
143.705670737
 30
0.0
 40
2.33112768378682
100
AcDbArc
 50
10.6163666119
 51
17.5104280396
  0
LINE
  5
19B
330
16A
100
AcDbEntity
  8
DV3_Standard
 62
     7
100
AcDbLine
 10
162.2849990184
 20
144.4070589763
 30
0.0
 11
162.2849990184
 21
144.1865490916
 31
0.0
  0
LINE
  5
19C
330
16A
100
AcDbEntity
  8
DV3_Standard
 62
     7
100
AcDbLine
 10
161.4399990184
 20
144.5655174004
 30
0.0
 11
161.4399990184
 21
144.2968040339
 31
0.0
  0
LINE
  5
19D
330
16A
100
AcDbEntity
  8
DV3_Standard
 62
     7
100
AcDbLine
 10
166.4999990184
 20
143.8254641555
 30
0.0
 11
169.5499990184
 21
143.8254641555
 31
0.0
  0
LINE
  5
19E
330
16A
100
AcDbEntity
  8
DV3_Standard
 62
     7
100
AcDbLine
 10
166.1999990184
 20
143.8254641555
 30
0.0
 11
166.1999990184
 21
143.8077752014
 31
0.0
  0
LINE
  5
19F
330
16A
100
AcDbEntity
  8
DV3_Standard
 62
     7
100
AcDbLine
 10
162.3999990184
 20
143.8254641555
 30
0.0
 11
162.8499990184
 21
143.8254641555
 31
0.0
  0
LINE
  5
1A0
330
16A
100
AcDbEntity
  8
DV3_Standard
 62
     7
100
AcDbLine
 10
162.3999990184
 20
143.8254641555
 30
0.0
 11
162.3999990184
 21
143.8077752014
 31
0.0
  0
LINE
  5
1A1
330
16A
100
AcDbEntity
  8
DV3_Standard
 62
     7
100
AcDbLine
 10
163.1499990184
 20
143.8254641555
 30
0.0
 11
166.1999990184
 21
143.8254641555
 31
0.0
  0
LINE
  5
1A2
330
16A
100
AcDbEntity
  8
DV3_Standard
 62
     7
100
AcDbLine
 10
162.8499990184
 20
143.8254641555
 30
0.0
 11
162.8499990184
 21
143.8077752014
 31
0.0
  0
LINE
  5
1A3
330
16A
100
AcDbEntity
  8
DV3_Standard
 62
     7
100
AcDbLine
 10
170.5999990184
 20
143.8257794272
 30
0.0
 11
170.5999990184
 21
143.8077752014
 31
0.0
  0
LINE
  5
1A4
330
16A
100
AcDbEntity
  8
DV3_Standard
 62
     7
100
AcDbLine
 10
169.8499990184
 20
143.8254641555
 30
0.0
 11
170.2999990184
 21
143.8254641555
 31
0.0
  0
LINE
  5
1A5
330
16A
100
AcDbEntity
  8
DV3_Standard
 62
     7
100
AcDbLine
 10
169.5499990184
 20
143.8254641555
 30
0.0
 11
169.5499990184
 21
143.8077752014
 31
0.0
  0
LINE
  5
1A6
330
16A
100
AcDbEntity
  8
DV3_Standard
 62
     7
100
AcDbLine
 10
171.2599990184
 20
144.0900760171
 30
0.0
 11
171.2599990184
 21
144.2141128272
 31
0.0
  0
LINE
  5
1A7
330
16A
100
AcDbEntity
  8
DV3_Standard
 62
     7
100
AcDbLine
 10
171.2599990184
 20
144.0900760171
 30
0.0
 11
171.3241737529
 21
144.0900760171
 31
0.0
  0
LINE
  5
1A8
330
16A
100
AcDbEntity
  8
DV3_Standard
 62
     7
100
AcDbLine
 10
171.2599990184
 20
144.2968040339
 30
0.0
 11
171.2599990184
 21
144.5655174004
 31
0.0
  0
LINE
  5
1A9
330
16A
100
AcDbEntity
  8
DV3_Standard
 62
     7
100
AcDbLine
 10
171.2599990184
 20
144.2141128272
 30
0.0
 11
171.3241737529
 21
144.2141128272
 31
0.0
  0
LINE
  5
1AA
330
16A
100
AcDbEntity
  8
DV3_Standard
 62
     7
100
AcDbLine
 10
161.44114281
 20
144.0073848103
 30
0.0
 11
161.3758242838
 21
144.0073848103
 31
0.0
  0
LINE
  5
1AB
330
16A
100
AcDbEntity
  8
DV3_Standard
 62
     7
100
AcDbLine
 10
161.4399990184
 20
144.2141128272
 30
0.0
 11
161.4399990184
 21
144.0900760171
 31
0.0
  0
LINE
  5
1AC
330
16A
100
AcDbEntity
  8
DV3_Standard
 62
     7
100
AcDbLine
 10
161.4399990184
 20
144.2968040339
 30
0.0
 11
161.3758242838
 21
144.2968040339
 31
0.0
  0
ELLIPSE
  5
1AD
330
16A
100
AcDbEntity
  8
DV3_Standard
 62
     7
100
AcDbEllipse
 10
170.5599990184
 20
144.0184103046
 30
0.0
 11
0.7000000000000001
 21
-9.714451465470118E-14
 31
0.0
210
0.0
220
0.0
230
1.0
 40
0.2756373558
 41
4.76956298146538
 42
6.226011306098966
  0
LINE
  5
1AE
330
16A
100
AcDbEntity
  8
DV3_Standard
 62
     7
100
AcDbLine
 10
171.2588552267
 20
144.0073848103
 30
0.0
 11
171.2588552267
 21
143.5411143895
 31
0.0
  0
ELLIPSE
  5
1AF
330
16A
100
AcDbEntity
  8
DV3_Standard
 62
     7
100
AcDbEllipse
 10
162.1399990184
 20
144.0184103046
 30
0.0
 11
-0.700000000000001
 21
1.040834085586084E-13
 31
0.0
210
0.0
220
0.0
230
1.0
 40
0.2756373558
 41
0.0571740010814343
 42
1.513622325714286
  0
LINE
  5
1B0
330
16A
100
AcDbEntity
  8
DV3_Standard
 62
     7
100
AcDbLine
 10
161.275820476
 20
144.0349485459
 30
0.0
 11
161.275820476
 21
144.0625122815
 31
0.0
  0
LINE
  5
1B1
330
16A
100
AcDbEntity
  8
DV3_Standard
 62
     7
100
AcDbLine
 10
161.2802539281
 20
143.5466052085
 30
0.0
 11
161.275820476
 21
144.0349485459
 31
0.0
  0
ELLIPSE
  5
1B2
330
16A
100
AcDbEntity
  8
DV3_Standard
 62
     7
100
AcDbEllipse
 10
161.3758242838
 20
144.0349485459
 30
0.0
 11
-0.1000038078385734
 21
1.387778780781446E-14
 31
0.0
210
0.0
220
0.0
230
1.0
 40
0.2756268604
 41
0.0
 42
1.570796326794935
  0
LINE
  5
1B3
330
16A
100
AcDbEntity
  8
DV3_Standard
 62
     7
100
AcDbLine
 10
161.44114281
 20
143.5404761822
 30
0.0
 11
161.44114281
 21
144.0073848103
 31
0.0
  0
LINE
  5
1B4
330
16A
100
AcDbEntity
  8
DV3_Standard
 62
     7
100
AcDbLine
 10
162.1999990184
 20
143.7802104162
 30
0.0
 11
162.2999990184
 21
143.7802104162
 31
0.0
  0
LINE
  5
1B5
330
16A
100
AcDbEntity
  8
DV3_Standard
 62
     7
100
AcDbLine
 10
162.0999990184
 20
143.8077752014
 30
0.0
 11
162.0999990184
 21
143.8257794272
 31
0.0
  0
LINE
  5
1B6
330
16A
100
AcDbEntity
  8
DV3_Standard
 62
     7
100
AcDbLine
 10
162.0999990184
 20
143.5153772008
 30
0.0
 11
162.0999990184
 21
143.8077752014
 31
0.0
  0
ELLIPSE
  5
1B7
330
16A
100
AcDbEntity
  8
DV3_Standard
 62
     7
100
AcDbEllipse
 10
162.1999990184
 20
143.8077752014
 30
0.0
 11
-0.1000000000000003
 21
1.387778780781446E-14
 31
0.0
210
0.0
220
0.0
230
1.0
 40
0.2756478516
 41
0.0
 42
1.570796326794935
  0
ELLIPSE
  5
1B8
330
16A
100
AcDbEntity
  8
DV3_Standard
 62
     7
100
AcDbEllipse
 10
162.2999990184
 20
143.8077752014
 30
0.0
 11
-0.1000000000000003
 21
1.387778780781446E-14
 31
0.0
210
0.0
220
0.0
230
1.0
 40
0.2756478516
 41
1.570796326794935
 42
3.141592653589793
  0
LINE
  5
1B9
330
16A
100
AcDbEntity
  8
DV3_Standard
 62
     7
100
AcDbLine
 10
162.3999990184
 20
143.8077752014
 30
0.0
 11
162.3999990184
 21
143.5039487672
 31
0.0
  0
LINE
  5
1BA
330
16A
100
AcDbEntity
  8
DV3_Standard
 62
     7
100
AcDbLine
 10
162.8499990184
 20
143.4868061168
 30
0.0
 11
162.8499990184
 21
143.8077752014
 31
0.0
  0
LINE
  5
1BB
330
16A
100
AcDbEntity
  8
DV3_Standard
 62
     7
100
AcDbLine
 10
162.9499990184
 20
143.7802104162
 30
0.0
 11
163.0499990184
 21
143.7802104162
 31
0.0
  0
ELLIPSE
  5
1BC
330
16A
100
AcDbEntity
  8
DV3_Standard
 62
     7
100
AcDbEllipse
 10
162.9499990184
 20
143.8077752014
 30
0.0
 11
-0.09999999999999939
 21
1.387778780781446E-14
 31
0.0
210
0.0
220
0.0
230
1.0
 40
0.2756478516
 41
0.0
 42
1.570796326794935
  0
LINE
  5
1BD
330
16A
100
AcDbEntity
  8
DV3_Standard
 62
     7
100
AcDbLine
 10
163.1499990184
 20
143.8077752014
 30
0.0
 11
163.1499990184
 21
143.8254641555
 31
0.0
  0
LINE
  5
1BE
330
16A
100
AcDbEntity
  8
DV3_Standard
 62
     7
100
AcDbLine
 10
163.1499990184
 20
143.8077752014
 30
0.0
 11
163.1499990184
 21
143.4753776833
 31
0.0
  0
ELLIPSE
  5
1BF
330
16A
100
AcDbEntity
  8
DV3_Standard
 62
     7
100
AcDbEllipse
 10
163.0499990184
 20
143.8077752014
 30
0.0
 11
-0.09999999999999983
 21
1.387778780781446E-14
 31
0.0
210
0.0
220
0.0
230
1.0
 40
0.2756478516
 41
1.570796326794935
 42
3.141592653589793
  0
LINE
  5
1C0
330
16A
100
AcDbEntity
  8
DV3_Standard
 62
     7
100
AcDbLine
 10
166.1999990184
 20
143.429596641
 30
0.0
 11
166.1999990184
 21
143.8077752014
 31
0.0
  0
ELLIPSE
  5
1C1
330
16A
100
AcDbEntity
  8
DV3_Standard
 62
     7
100
AcDbEllipse
 10
166.2999990184
 20
143.8077752014
 30
0.0
 11
-0.1
 21
1.387778780781446E-14
 31
0.0
210
0.0
220
0.0
230
1.0
 40
0.2756478516
 41
0.0
 42
1.570796326794651
  0
LINE
  5
1C2
330
16A
100
AcDbEntity
  8
DV3_Standard
 62
     7
100
AcDbLine
 10
166.4999990184
 20
143.8077752014
 30
0.0
 11
166.4999990184
 21
143.8254641555
 31
0.0
  0
LINE
  5
1C3
330
16A
100
AcDbEntity
  8
DV3_Standard
 62
     7
100
AcDbLine
 10
166.4999990184
 20
143.8077752014
 30
0.0
 11
166.4999990184
 21
143.4310957693
 31
0.0
  0
LINE
  5
1C4
330
16A
100
AcDbEntity
  8
DV3_Standard
 62
     7
100
AcDbLine
 10
166.3999990184
 20
143.7802104162
 30
0.0
 11
166.2999990184
 21
143.7802104162
 31
0.0
  0
ELLIPSE
  5
1C5
330
16A
100
AcDbEntity
  8
DV3_Standard
 62
     7
100
AcDbEllipse
 10
166.3999990184
 20
143.8077752014
 30
0.0
 11
-0.1000000000000001
 21
1.387778780781446E-14
 31
0.0
210
0.0
220
0.0
230
1.0
 40
0.2756478516
 41
1.570796326794935
 42
3.141592653589793
  0
LINE
  5
1C6
330
16A
100
AcDbEntity
  8
DV3_Standard
 62
     7
100
AcDbLine
 10
169.5499990184
 20
143.4602120264
 30
0.0
 11
169.5499990184
 21
143.8077752014
 31
0.0
  0
ELLIPSE
  5
1C7
330
16A
100
AcDbEntity
  8
DV3_Standard
 62
     7
100
AcDbEllipse
 10
169.6499990184
 20
143.8077752014
 30
0.0
 11
-0.09999999999999983
 21
1.387778780781446E-14
 31
0.0
210
0.0
220
0.0
230
1.0
 40
0.2756478516
 41
0.0
 42
1.570796326794935
  0
LINE
  5
1C8
330
16A
100
AcDbEntity
  8
DV3_Standard
 62
     7
100
AcDbLine
 10
169.8499990184
 20
143.8077752014
 30
0.0
 11
169.8499990184
 21
143.8254641555
 31
0.0
  0
LINE
  5
1C9
330
16A
100
AcDbEntity
  8
DV3_Standard
 62
     7
100
AcDbLine
 10
169.8499990184
 20
143.8077752014
 30
0.0
 11
169.8499990184
 21
143.4744149236
 31
0.0
  0
LINE
  5
1CA
330
16A
100
AcDbEntity
  8
DV3_Standard
 62
     7
100
AcDbLine
 10
169.7499990184
 20
143.7802104162
 30
0.0
 11
169.6499990184
 21
143.7802104162
 31
0.0
  0
ELLIPSE
  5
1CB
330
16A
100
AcDbEntity
  8
DV3_Standard
 62
     7
100
AcDbEllipse
 10
169.7499990184
 20
143.8077752014
 30
0.0
 11
-0.09999999999999983
 21
1.387778780781446E-14
 31
0.0
210
0.0
220
0.0
230
1.0
 40
0.2756478516
 41
1.570796326794935
 42
3.141592653589793
  0
LINE
  5
1CC
330
16A
100
AcDbEntity
  8
DV3_Standard
 62
     7
100
AcDbLine
 10
170.2999990184
 20
143.8077752014
 30
0.0
 11
170.2999990184
 21
143.8254641555
 31
0.0
  0
LINE
  5
1CD
330
16A
100
AcDbEntity
  8
DV3_Standard
 62
     7
100
AcDbLine
 10
170.2999990184
 20
143.4957192692
 30
0.0
 11
170.2999990184
 21
143.8077752014
 31
0.0
  0
ELLIPSE
  5
1CE
330
16A
100
AcDbEntity
  8
DV3_Standard
 62
     7
100
AcDbEllipse
 10
170.3999990184
 20
143.8077752014
 30
0.0
 11
-0.1000000000000003
 21
1.387778780781446E-14
 31
0.0
210
0.0
220
0.0
230
1.0
 40
0.2756478516
 41
0.0
 42
1.570796326794935
  0
LINE
  5
1CF
330
16A
100
AcDbEntity
  8
DV3_Standard
 62
     7
100
AcDbLine
 10
170.4999990184
 20
143.7802104162
 30
0.0
 11
170.3999990184
 21
143.7802104162
 31
0.0
  0
ELLIPSE
  5
1D0
330
16A
100
AcDbEntity
  8
DV3_Standard
 62
     7
100
AcDbEllipse
 10
170.4999990184
 20
143.8077752014
 30
0.0
 11
-0.09999999999999939
 21
1.387778780781446E-14
 31
0.0
210
0.0
220
0.0
230
1.0
 40
0.2756478516
 41
1.570796326794935
 42
3.141592653589793
  0
LINE
  5
1D1
330
16A
100
AcDbEntity
  8
DV3_Standard
 62
     7
100
AcDbLine
 10
170.5999990184
 20
143.8077752014
 30
0.0
 11
170.5999990184
 21
143.5099221664
 31
0.0
  0
LINE
  5
1D2
330
16A
100
AcDbEntity
  8
DV3_Standard
 62
     7
100
AcDbLine
 10
171.4241775607
 20
144.0349485459
 30
0.0
 11
171.4241775607
 21
144.0625122815
 31
0.0
  0
LINE
  5
1D3
330
16A
100
AcDbEntity
  8
DV3_Standard
 62
     7
100
AcDbLine
 10
171.4241775607
 20
144.0349485459
 30
0.0
 11
171.4197634192
 21
143.5487322645
 31
0.0
  0
LINE
  5
1D4
330
16A
100
AcDbEntity
  8
DV3_Standard
 62
     7
100
AcDbLine
 10
171.3241737529
 20
144.0073848103
 30
0.0
 11
171.2588552267
 21
144.0073848103
 31
0.0
  0
ELLIPSE
  5
1D5
330
16A
100
AcDbEntity
  8
DV3_Standard
 62
     7
100
AcDbEllipse
 10
171.3241737529
 20
144.0349485459
 30
0.0
 11
-0.1000038078385742
 21
1.387778780781446E-14
 31
0.0
210
0.0
220
0.0
230
1.0
 40
0.2756268604
 41
1.570796326794651
 42
3.141592653589793
  0
ELLIPSE
  5
1D6
330
16A
100
AcDbEntity
  8
DV3_Standard
 62
     7
100
AcDbEllipse
 10
171.3241737529
 20
144.0625122815
 30
0.0
 11
0.1000038078385734
 21
-1.387778780781446E-14
 31
0.0
210
0.0
220
0.0
230
1.0
 40
0.2756268604
 41
0.0
 42
1.570796326794935
  0
LINE
  5
1D7
330
16A
100
AcDbEntity
  8
DV3_Standard
 62
     7
100
AcDbLine
 10
171.4241775607
 20
144.2416765628
 30
0.0
 11
171.4241775607
 21
144.2692402984
 31
0.0
  0
ELLIPSE
  5
1D8
330
16A
100
AcDbEntity
  8
DV3_Standard
 62
     7
100
AcDbEllipse
 10
171.3241737529
 20
144.2416765628
 30
0.0
 11
-0.1000038078385734
 21
1.387778780781446E-14
 31
0.0
210
0.0
220
0.0
230
1.0
 40
0.2756268604
 41
1.570796326794651
 42
3.141592653589793
  0
LINE
  5
1D9
330
16A
100
AcDbEntity
  8
DV3_Standard
 62
     7
100
AcDbLine
 10
171.4241775607
 20
144.2416765628
 30
0.0
 11
171.4225953452
 21
144.0673960267
 31
0.0
  0
LINE
  5
1DA
330
16A
100
AcDbEntity
  8
DV3_Standard
 62
     7
100
AcDbLine
 10
171.3241737529
 20
144.2968040339
 30
0.0
 11
171.2599990184
 21
144.2968040339
 31
0.0
  0
ELLIPSE
  5
1DB
330
16A
100
AcDbEntity
  8
DV3_Standard
 62
     7
100
AcDbEllipse
 10
171.3241737529
 20
144.2692402984
 30
0.0
 11
0.1000038078385734
 21
-1.387778780781446E-14
 31
0.0
210
0.0
220
0.0
230
1.0
 40
0.2756268604
 41
0.0
 42
1.570796326794935
  0
LINE
  5
1DC
330
16A
100
AcDbEntity
  8
DV3_Standard
 62
     7
100
AcDbLine
 10
171.4187345644
 20
144.5655174004
 30
0.0
 11
171.41614307
 21
144.2800651245
 31
0.0
  0
LINE
  5
1DD
330
16A
100
AcDbEntity
  8
DV3_Standard
 62
     7
100
AcDbLine
 10
161.2838549667
 20
144.2800651245
 30
0.0
 11
161.2812634723
 21
144.5655174004
 31
0.0
  0
ELLIPSE
  5
1DE
330
16A
100
AcDbEntity
  8
DV3_Standard
 62
     7
100
AcDbEllipse
 10
161.3758242838
 20
144.2692402984
 30
0.0
 11
0.1000038078385734
 21
-1.387778780781446E-14
 31
0.0
210
0.0
220
0.0
230
1.0
 40
0.2756268604
 41
1.570796326794651
 42
3.141592653589793
  0
LINE
  5
1DF
330
16A
100
AcDbEntity
  8
DV3_Standard
 62
     7
100
AcDbLine
 10
161.3758242838
 20
144.2141128272
 30
0.0
 11
161.4399990184
 21
144.2141128272
 31
0.0
  0
LINE
  5
1E0
330
16A
100
AcDbEntity
  8
DV3_Standard
 62
     7
100
AcDbLine
 10
161.275820476
 20
144.2416765628
 30
0.0
 11
161.275820476
 21
144.2692402984
 31
0.0
  0
LINE
  5
1E1
330
16A
100
AcDbEntity
  8
DV3_Standard
 62
     7
100
AcDbLine
 10
161.2774026915
 20
144.0673960267
 30
0.0
 11
161.275820476
 21
144.2416765628
 31
0.0
  0
ELLIPSE
  5
1E2
330
16A
100
AcDbEntity
  8
DV3_Standard
 62
     7
100
AcDbEllipse
 10
161.3758242838
 20
144.2416765628
 30
0.0
 11
-0.1000038078385734
 21
1.387778780781446E-14
 31
0.0
210
0.0
220
0.0
230
1.0
 40
0.2756268604
 41
0.0
 42
1.570796326794935
  0
LINE
  5
1E3
330
16A
100
AcDbEntity
  8
DV3_Standard
 62
     7
100
AcDbLine
 10
161.3758242838
 20
144.0900760171
 30
0.0
 11
161.4399990184
 21
144.0900760171
 31
0.0
  0
ELLIPSE
  5
1E4
330
16A
100
AcDbEntity
  8
DV3_Standard
 62
     7
100
AcDbEllipse
 10
161.3758242838
 20
144.0625122815
 30
0.0
 11
0.1000038078385734
 21
-1.387778780781446E-14
 31
0.0
210
0.0
220
0.0
230
1.0
 40
0.2756268604
 41
1.570796326794935
 42
3.141592653589793
  0
LINE
  5
1E5
330
16A
100
AcDbEntity
  8
DV3_Standard
 62
     7
100
AcDbLine
 10
162.3499990184
 20
144.0583777212
 30
0.0
 11
162.3499990184
 21
144.5655174004
 31
0.0
  0
LINE
  5
1E6
330
16A
100
AcDbEntity
  8
DV3_Standard
 62
     7
100
AcDbLine
 10
170.3499990184
 20
144.0583777212
 30
0.0
 11
170.3499990184
 21
144.5655174004
 31
0.0
  0
LINE
  5
1E7
330
16A
100
AcDbEntity
  8
DV3_Standard
 62
     7
100
AcDbLine
 10
101.2153810568
 20
215.1241662339
 30
0.0
 11
97.6
 21
215.1241662339
 31
0.0
  0
LINE
  5
1E8
330
16A
100
AcDbEntity
  8
DV3_Standard
 62
     7
100
AcDbLine
 10
76.85
 20
211.6241662339
 30
0.0
 11
105.85
 21
211.6241662339
 31
0.0
  0
LINE
  5
1E9
330
16A
100
AcDbEntity
  8
DV3_Standard
 62
     7
100
AcDbLine
 10
76.85
 20
227.6241662339
 30
0.0
 11
105.85
 21
227.6241662339
 31
0.0
  0
LINE
  5
1EA
330
16A
100
AcDbEntity
  8
DV3_Standard
 62
     7
100
AcDbLine
 10
101.2153810568
 20
224.1241662339
 30
0.0
 11
97.6
 21
224.1241662339
 31
0.0
  0
LINE
  5
1EB
330
16A
100
AcDbEntity
  8
DV3_Standard
 62
     7
100
AcDbLine
 10
85.1
 20
224.1241662339
 30
0.0
 11
81.4846189432
 21
224.1241662339
 31
0.0
  0
LINE
  5
1EC
330
16A
100
AcDbEntity
  8
DV3_Standard
 62
     7
100
AcDbLine
 10
75.2346189432
 20
224.1241662339
 30
0.0
 11
75.1
 21
224.1241662339
 31
0.0
  0
LINE
  5
1ED
330
16A
100
AcDbEntity
  8
DV3_Standard
 62
     7
100
AcDbLine
 10
107.4653810568
 20
224.1241662339
 30
0.0
 11
107.6
 21
224.1241662339
 31
0.0
  0
SPLINE
  5
1EE
330
16A
100
AcDbEntity
  8
DV3_Standard
 62
     7
100
AcDbSpline
210
0.0
220
0.0
230
1.0
 70
     8
 71
     3
 72
    14
 73
    10
 74
     0
 42
0.000000001
 43
0.0000000001
 40
0.0
 40
0.0
 40
0.0
 40
0.0
 40
0.25
 40
0.25
 40
0.5
 40
0.5
 40
0.75
 40
0.75
 40
1.0
 40
1.0
 40
1.0
 40
1.0
 10
101.2153810567648
 20
224.1241662338939
 30
0.0
 10
101.5626989053922
 20
225.101972802347
 30
0.0
 10
102.0606262179757
 20
225.7988312965278
 30
0.0
 10
103.1505342825441
 20
226.7055132483973
 30
0.0
 10
103.7444084639491
 20
226.9194603487163
 30
0.0
 10
104.932813567338
 20
226.920327501758
 30
0.0
 10
105.518367349735
 20
226.7130089434888
 30
0.0
 10
106.6186490928414
 20
225.8024104475653
 30
0.0
 10
107.1184458190151
 20
225.1008956350494
 30
0.0
 10
107.4653810567648
 20
224.1241662338929
 30
0.0
  0
SPLINE
  5
1EF
330
16A
100
AcDbEntity
  8
DV3_Standard
 62
     7
100
AcDbSpline
210
0.0
220
0.0
230
1.0
 70
     8
 71
     3
 72
    14
 73
    10
 74
     0
 42
0.000000001
 43
0.0000000001
 40
0.0
 40
0.0
 40
0.0
 40
0.0
 40
0.25
 40
0.25
 40
0.5
 40
0.5
 40
0.75
 40
0.75
 40
1.0
 40
1.0
 40
1.0
 40
1.0
 10
85.09999999999822
 20
224.1241662338963
 30
0.0
 10
85.7930883525105
 20
225.0997946766659
 30
0.0
 10
86.80064852034145
 20
225.8057733653131
 30
0.0
 10
88.99129397271537
 20
226.7114871297091
 30
0.0
 10
90.17550827620475
 20
226.9217895263989
 30
0.0
 10
92.55559628502924
 20
226.9179746882615
 30
0.0
 10
93.7386198945728
 20
226.7026754457116
 30
0.0
 10
95.91062293441514
 20
225.797489131073
 30
0.0
 10
96.91212564764834
 20
225.0924551696009
 30
0.0
 10
97.59999999999818
 20
224.1241662338944
 30
0.0
  0
SPLINE
  5
1F0
330
16A
100
AcDbEntity
  8
DV3_Standard
 62
     7
100
AcDbSpline
210
0.0
220
0.0
230
1.0
 70
     8
 71
     3
 72
    14
 73
    10
 74
     0
 42
0.000000001
 43
0.0000000001
 40
0.0
 40
0.0
 40
0.0
 40
0.0
 40
0.2500000000000001
 40
0.2500000000000001
 40
0.5
 40
0.5
 40
0.75
 40
0.75
 40
1.0
 40
1.0
 40
1.0
 40
1.0
 10
75.23461894323162
 20
224.1241662338977
 30
0.0
 10
75.58193679185904
 20
225.1019728023508
 30
0.0
 10
76.07986410444254
 20
225.7988312965316
 30
0.0
 10
77.16977216901093
 20
226.7055132484011
 30
0.0
 10
77.76364635041597
 20
226.9194603487202
 30
0.0
 10
78.95205145380487
 20
226.9203275017618
 30
0.0
 10
79.53760523620188
 20
226.7130089434927
 30
0.0
 10
80.63788697930822
 20
225.8024104475692
 30
0.0
 10
81.13768370548195
 20
225.1008956350533
 30
0.0
 10
81.48461894323161
 20
224.1241662338969
 30
0.0
  0
LINE
  5
1F1
330
16A
100
AcDbEntity
  8
DV3_Standard
 62
     7
100
AcDbLine
 10
85.1
 20
215.1241662339
 30
0.0
 11
81.4846189432
 21
215.1241662339
 31
0.0
  0
LINE
  5
1F2
330
16A
100
AcDbEntity
  8
DV3_Standard
 62
     7
100
AcDbLine
 10
75.2346189432
 20
215.1241662339
 30
0.0
 11
75.1
 21
215.1241662339
 31
0.0
  0
LINE
  5
1F3
330
16A
100
AcDbEntity
  8
DV3_Standard
 62
     7
100
AcDbLine
 10
107.4653810568
 20
215.1241662339
 30
0.0
 11
107.6
 21
215.1241662339
 31
0.0
  0
LINE
  5
1F4
330
16A
100
AcDbEntity
  8
DV3_Standard
 62
     7
100
AcDbLine
 10
75.2346189432
 20
224.1241662339
 30
0.0
 11
75.2346189432
 21
215.1241662339
 31
0.0
  0
SPLINE
  5
1F5
330
16A
100
AcDbEntity
  8
DV3_Standard
 62
     7
100
AcDbSpline
210
0.0
220
0.0
230
1.0
 70
     8
 71
     3
 72
    14
 73
    10
 74
     0
 42
0.000000001
 43
0.0000000001
 40
0.0
 40
0.0
 40
0.0
 40
0.0
 40
0.25
 40
0.25
 40
0.5
 40
0.5
 40
0.75
 40
0.75
 40
1.0
 40
1.0
 40
1.0
 40
1.0
 10
75.23461894323027
 20
215.1241662338977
 30
0.0
 10
75.58193679185742
 20
214.1463596654446
 30
0.0
 10
76.0798641044407
 20
213.4495011712636
 30
0.0
 10
77.16977216900882
 20
212.5428192193938
 30
0.0
 10
77.7636463504138
 20
212.3288721190746
 30
0.0
 10
78.95205145380268
 20
212.3280049660326
 30
0.0
 10
79.53760523619977
 20
212.5353235243016
 30
0.0
 10
80.63788697930636
 20
213.4459220202247
 30
0.0
 10
81.13768370548031
 20
214.1474368327405
 30
0.0
 10
81.48461894323026
 20
215.1241662338969
 30
0.0
  0
LINE
  5
1F6
330
16A
100
AcDbEntity
  8
DV3_Standard
 62
     7
100
AcDbLine
 10
81.4846189432
 20
215.1241662339
 30
0.0
 11
81.4846189432
 21
224.1241662339
 31
0.0
  0
LINE
  5
1F7
330
16A
100
AcDbEntity
  8
DV3_Standard
 62
     7
100
AcDbLine
 10
85.1
 20
224.1241662339
 30
0.0
 11
85.1
 21
215.1241662339
 31
0.0
  0
SPLINE
  5
1F8
330
16A
100
AcDbEntity
  8
DV3_Standard
 62
     7
100
AcDbSpline
210
0.0
220
0.0
230
1.0
 70
     8
 71
     3
 72
    14
 73
    10
 74
     0
 42
0.000000001
 43
0.0000000001
 40
0.0
 40
0.0
 40
0.0
 40
0.0
 40
0.25
 40
0.25
 40
0.5
 40
0.5
 40
0.75
 40
0.75
 40
1.0
 40
1.0
 40
1.0
 40
1.0
 10
85.09999999999687
 20
215.1241662338963
 30
0.0
 10
85.79308835250886
 20
214.1485377911265
 30
0.0
 10
86.8006485203396
 20
213.442559102479
 30
0.0
 10
88.99129397271324
 20
212.5368453380824
 30
0.0
 10
90.17550827620258
 20
212.3265429413923
 30
0.0
 10
92.55559628502706
 20
212.3303577795289
 30
0.0
 10
93.73861989457069
 20
212.5456570220785
 30
0.0
 10
95.91062293441331
 20
213.4508433367164
 30
0.0
 10
96.9121256476467
 20
214.1558772981882
 30
0.0
 10
97.59999999999683
 20
215.1241662338945
 30
0.0
  0
LINE
  5
1F9
330
16A
100
AcDbEntity
  8
DV3_Standard
 62
     7
100
AcDbLine
 10
97.6
 20
215.1241662339
 30
0.0
 11
97.6
 21
224.1241662339
 31
0.0
  0
LINE
  5
1FA
330
16A
100
AcDbEntity
  8
DV3_Standard
 62
     7
100
AcDbLine
 10
101.2153810568
 20
224.1241662339
 30
0.0
 11
101.2153810568
 21
215.1241662339
 31
0.0
  0
SPLINE
  5
1FB
330
16A
100
AcDbEntity
  8
DV3_Standard
 62
     7
100
AcDbSpline
210
0.0
220
0.0
230
1.0
 70
     8
 71
     3
 72
    14
 73
    10
 74
     0
 42
0.000000001
 43
0.0000000001
 40
0.0
 40
0.0
 40
0.0
 40
0.0
 40
0.25
 40
0.25
 40
0.5
 40
0.5
 40
0.75
 40
0.75
 40
1.0
 40
1.0
 40
1.0
 40
1.0
 10
101.2153810567634
 20
215.1241662338939
 30
0.0
 10
101.5626989053905
 20
214.1463596654407
 30
0.0
 10
102.0606262179738
 20
213.4495011712598
 30
0.0
 10
103.150534282542
 20
212.5428192193899
 30
0.0
 10
103.7444084639469
 20
212.3288721190707
 30
0.0
 10
104.9328135673359
 20
212.3280049660287
 30
0.0
 10
105.5183673497329
 20
212.5353235242977
 30
0.0
 10
106.6186490928395
 20
213.4459220202208
 30
0.0
 10
107.1184458190135
 20
214.1474368327366
 30
0.0
 10
107.4653810567634
 20
215.1241662338929
 30
0.0
  0
LINE
  5
1FC
330
16A
100
AcDbEntity
  8
DV3_Standard
 62
     7
100
AcDbLine
 10
107.4653810568
 20
215.1241662339
 30
0.0
 11
107.4653810568
 21
224.1241662339
 31
0.0
  0
ARC
  5
1FD
330
16A
100
AcDbEntity
  8
DV3_Standard
 62
     7
100
AcDbCircle
 10
97.9535976036
 20
217.7598674321
 30
0.0
 40
9.999999999999996
100
AcDbArc
 50
322.1519040322
 51
344.7179936136
  0
ARC
  5
1FE
330
16A
100
AcDbEntity
  8
DV3_Standard
 62
     7
100
AcDbCircle
 10
84.7464023964
 20
217.7598674321
 30
0.0
 40
10.0
100
AcDbArc
 50
195.2820063864
 51
217.8480959677
  0
ARC
  5
1FF
330
16A
100
AcDbEntity
  8
DV3_Standard
 62
     7
100
AcDbCircle
 10
97.9535976036
 20
221.4884650357
 30
0.0
 40
9.999999999999993
100
AcDbArc
 50
15.2820063864
 51
37.8480959677
  0
ARC
  5
200
330
16A
100
AcDbEntity
  8
DV3_Standard
 62
     7
100
AcDbCircle
 10
84.7464023964
 20
221.4884650357
 30
0.0
 40
9.999999999999996
100
AcDbArc
 50
142.1519040322
 51
164.7179936136
  0
LINE
  5
201
330
16A
100
AcDbEntity
  8
DV3_Standard
 62
     7
100
AcDbLine
 10
107.6
 20
215.1241662339
 30
0.0
 11
107.6
 21
224.1241662339
 31
0.0
  0
LINE
  5
202
330
16A
100
AcDbEntity
  8
DV3_Standard
 62
     7
100
AcDbLine
 10
75.1
 20
224.1241662339
 30
0.0
 11
75.1
 21
215.1241662339
 31
0.0
  0
LINE
  5
203
330
16A
100
AcDbEntity
  8
DV3_Standard
 62
     7
100
AcDbLine
 10
189.821984288
 20
185.5241662339
 30
0.0
 11
189.5679943576
 21
156.4198029655
 31
0.0
  0
LINE
  5
204
330
16A
100
AcDbEntity
  8
DV3_Standard
 62
     7
100
AcDbLine
 10
142.8780137487
 20
185.5241662339
 30
0.0
 11
143.1320036791
 21
156.4198029655
 31
0.0
  0
LINE
  5
205
330
16A
100
AcDbEntity
  8
DV3_Standard
 62
     7
100
AcDbLine
 10
189.0680133961
 20
155.9241662333
 30
0.0
 11
174.0600708004
 21
155.9241662332
 31
0.0
  0
LINE
  5
206
330
16A
100
AcDbEntity
  8
DV3_Standard
 62
     7
100
AcDbLine
 10
174.0600708004
 20
155.9241662332
 30
0.0
 11
158.6398956318
 21
155.9241662332
 31
0.0
  0
LINE
  5
207
330
16A
100
AcDbEntity
  8
DV3_Standard
 62
     7
100
AcDbLine
 10
158.6398956318
 20
155.9241662332
 30
0.0
 11
143.6319846406
 21
155.9241662333
 31
0.0
  0
ARC
  5
208
330
16A
100
AcDbEntity
  8
DV3_Standard
 62
     7
100
AcDbCircle
 10
189.0680133961
 20
156.4241662333
 30
0.0
 40
0.5000000000000536
100
AcDbArc
 50
270.0
 51
359.5
  0
ARC
  5
209
330
16A
100
AcDbEntity
  8
DV3_Standard
 62
     7
100
AcDbCircle
 10
143.6319846406
 20
156.4241662333
 30
0.0
 40
0.4999999999999494
100
AcDbArc
 50
180.5
 51
270.0
  0
LINE
  5
20A
330
16A
100
AcDbEntity
  8
DV3_Standard
 62
     7
100
AcDbLine
 10
179.9774598713
 20
144.5655174004
 30
0.0
 11
152.7225381654
 21
144.5655174004
 31
0.0
  0
ARC
  5
20B
330
16A
100
AcDbEntity
  8
DV3_Standard
 62
     7
100
AcDbCircle
 10
166.3499990184
 20
161.3241662332
 30
0.0
 40
21.60000000000001
100
AcDbArc
 50
195.483943906
 51
230.8833745462
  0
ARC
  5
20C
330
16A
100
AcDbEntity
  8
DV3_Standard
 62
     7
100
AcDbCircle
 10
166.3499990184
 20
161.3241662332
 30
0.0
 40
21.60000000000001
100
AcDbArc
 50
309.1166254538
 51
344.516056094
  0
ARC
  5
20D
330
16A
100
AcDbEntity
  8
DV3_Standard
 62
     7
100
AcDbCircle
 10
187.6478862376
 20
155.4241662334
 30
0.0
 40
0.5000000000000017
100
AcDbArc
 50
90.0
 51
164.516056094
  0
ARC
  5
20E
330
16A
100
AcDbEntity
  8
DV3_Standard
 62
     7
100
AcDbCircle
 10
145.0521117992
 20
155.4241662334
 30
0.0
 40
0.5000000000000004
100
AcDbArc
 50
15.483943906
 51
90.0
  0
LINE
  5
20F
330
16A
100
AcDbEntity
  8
DV3_Standard
 62
     7
100
AcDbLine
 10
101.85
 20
210.6241662339
 30
0.0
 11
101.85
 21
211.6241662339
 31
0.0
  0
LINE
  5
210
330
16A
100
AcDbEntity
  8
DV3_Standard
 62
     7
100
AcDbLine
 10
80.85
 20
211.6241662339
 30
0.0
 11
80.85
 21
210.6241662339
 31
0.0
  0
SPLINE
  5
211
330
16A
100
AcDbEntity
  8
DV3_Standard
 62
     7
100
AcDbSpline
210
0.0
220
0.0
230
1.0
 70
     8
 71
     3
 72
    12
 73
     8
 74
     0
 42
0.000000001
 43
0.0000000001
 40
0.0
 40
0.0
 40
0.0
 40
0.0
 40
0.2123676764688857
 40
0.2123676764688857
 40
0.6061838382344428
 40
0.6061838382344428
 40
1.0
 40
1.0
 40
1.0
 40
1.0
 10
151.0048417053754
 20
111.499547255172
 30
0.0
 10
151.4542381823161
 20
111.3783187783227
 30
0.0
 10
152.0173613817579
 20
111.2664036318695
 30
0.0
 10
153.9767586542772
 20
110.9931864036422
 30
0.0
 10
155.5943984833216
 20
110.8820515288937
 30
0.0
 10
158.9563816959971
 20
110.7696428345233
 30
0.0
 10
160.7149997697447
 20
110.7647820348501
 30
0.0
 10
162.4524833122839
 20
110.7646671401779
 30
0.0
  0
SPLINE
  5
212
330
16A
100
AcDbEntity
  8
DV3_Standard
 62
     7
100
AcDbSpline
210
0.0
220
0.0
230
1.0
 70
     8
 71
     3
 72
    12
 73
     8
 74
     0
 42
0.000000001
 43
0.0000000001
 40
0.0
 40
0.0
 40
0.0
 40
0.0
 40
0.3891702058432289
 40
0.3891702058432289
 40
0.7783404116864578
 40
0.7783404116864578
 40
1.0
 40
1.0
 40
1.0
 40
1.0
 10
170.2475161178107
 20
110.7646671402698
 30
0.0
 10
171.9745425836761
 20
110.7647813459645
 30
0.0
 10
173.7001640651607
 20
110.769053204401
 30
0.0
 10
177.067349554702
 20
110.8799301474556
 30
0.0
 10
178.6972866040809
 20
110.9907736030928
 30
0.0
 10
180.7019782002038
 20
111.2684296342503
 30
0.0
 10
181.2910027030965
 20
111.3869760561893
 30
0.0
 10
181.7538504465982
 20
111.5154870378306
 30
0.0
  0
ARC
  5
213
330
16A
100
AcDbEntity
  8
DV3_Standard
 62
     7
100
AcDbCircle
 10
156.0771371071
 20
125.7910204134
 30
0.0
 40
11.3512779010419
100
AcDbArc
 50
176.6257169769
 51
190.7718729138
  0
ARC
  5
214
330
16A
100
AcDbEntity
  8
DV3_Standard
 62
     7
100
AcDbCircle
 10
176.6232435456
 20
125.7910191144
 30
0.0
 40
11.35089602399376
100
AcDbArc
 50
349.2283392731
 51
3.3744032441
  0
ELLIPSE
  5
215
330
16A
100
AcDbEntity
  8
DV3_Standard
 62
     7
100
AcDbEllipse
 10
145.4251116813
 20
123.6953617332
 30
0.0
 11
0.4917920497585944
 21
0.09022516164709783
 31
0.0
210
0.0
220
0.0
230
1.0
 40
0.9886524254
 41
3.010479797715455
 42
3.20351379811052
  0
ARC
  5
216
330
16A
100
AcDbEntity
  8
DV3_Standard
 62
     7
100
AcDbCircle
 10
166.3499676917
 20
252.7428043475
 30
0.0
 40
109.336082531202
100
AcDbArc
 50
264.7837449154
 51
273.3258352657
  0
ARC
  5
217
330
16A
100
AcDbEntity
  8
DV3_Standard
 62
     7
100
AcDbCircle
 10
183.8348063822
 20
150.296558083
 30
0.0
 40
3.544169676108898
100
AcDbArc
 50
341.7667032678
 51
358.9289126096
  0
ARC
  5
218
330
16A
100
AcDbEntity
  8
DV3_Standard
 62
     7
100
AcDbCircle
 10
148.8701688313
 20
150.2990731623
 30
0.0
 40
3.549713027779393
100
AcDbArc
 50
181.0597809706
 51
198.105368069
  0
ELLIPSE
  5
219
330
16A
100
AcDbEntity
  8
DV3_Standard
 62
     7
100
AcDbEllipse
 10
145.2006110278
 20
149.1793412062
 30
0.0
 11
-0.2845337331037444
 21
-0.09508183173485146
 31
0.0
210
0.0
220
0.0
230
1.0
 40
0.8494978525
 41
2.830782548711221
 42
3.130590658773313
  0
ELLIPSE
  5
21A
330
16A
100
AcDbEntity
  8
DV3_Standard
 62
     7
100
AcDbEllipse
 10
187.4965657149
 20
149.1709315455
 30
0.0
 11
0.2843299702601151
 21
-0.09568943521560958
 31
0.0
210
0.0
220
0.0
230
1.0
 40
0.8493283848
 41
3.152972672699743
 42
3.454515677671985
  0
LINE
  5
21B
330
16A
100
AcDbEntity
  8
DV3_Standard
 62
     7
100
AcDbLine
 10
173.3643038182
 20
143.6826858629
 30
0.0
 11
173.3562740372
 21
144.5655174004
 31
0.0
  0
LINE
  5
21C
330
16A
100
AcDbEntity
  8
DV3_Standard
 62
     7
100
AcDbLine
 10
159.3437240119
 20
144.5655187589
 30
0.0
 11
159.33531108
 21
143.6405618206
 31
0.0
  0
LINE
  5
21D
330
16A
100
AcDbEntity
  8
DV3_Standard
 62
     7
100
AcDbLine
 10
161.0149990184
 20
143.5567100356
 30
0.0
 11
161.0149990184
 21
144.5655174004
 31
0.0
  0
LINE
  5
21E
330
16A
100
AcDbEntity
  8
DV3_Standard
 62
     7
100
AcDbLine
 10
171.6849990184
 20
144.5655174004
 30
0.0
 11
171.6849990184
 21
143.5612893109
 31
0.0
  0
LINE
  5
21F
330
16A
100
AcDbEntity
  8
DV3_Standard
 62
     7
100
AcDbLine
 10
187.9592228881
 20
125.2043969343
 30
0.0
 11
189.3722004891
 21
153.3029391126
 31
0.0
  0
LINE
  5
220
330
16A
100
AcDbEntity
  8
DV3_Standard
 62
     7
100
AcDbLine
 10
189.3553156008
 20
152.5420984045
 30
0.0
 11
189.3558438371
 21
152.5524421063
 31
0.0
  0
LINE
  5
221
330
16A
100
AcDbEntity
  8
DV3_Standard
 62
     7
100
AcDbLine
 10
143.3327449815
 20
153.3345813325
 30
0.0
 11
144.7407752031
 21
125.2043958934
 31
0.0
  0
ARC
  5
222
330
16A
100
AcDbEntity
  8
DV3_Standard
 62
     7
100
AcDbCircle
 10
179.1796541392
 20
131.7995958781
 30
0.0
 40
35.153944047778
100
AcDbArc
 50
193.9124321701
 51
198.9967504804
  0
ARC
  5
223
330
16A
100
AcDbEntity
  8
DV3_Standard
 62
     7
100
AcDbCircle
 10
212.7050293228
 20
142.5259437414
 30
0.0
 40
70.35451061009529
100
AcDbArc
 50
198.3644724934
 51
204.9315855817
  0
SPLINE
  5
224
330
16A
100
AcDbEntity
  8
DV3_Standard
 62
     7
100
AcDbSpline
210
0.0
220
0.0
230
1.0
 70
     8
 71
     3
 72
    14
 73
    10
 74
     0
 42
0.000000001
 43
0.0000000001
 40
0.0
 40
0.0
 40
0.0
 40
0.0
 40
0.148056302693078
 40
0.3198445662676488
 40
0.4777066634201034
 40
0.6320833924713632
 40
0.7958250261647349
 40
0.945431273301735
 40
1.0
 40
1.0
 40
1.0
 40
1.0
 10
148.8953023334741
 20
112.8420093689562
 30
0.0
 10
148.9304079082885
 20
112.7691801201924
 30
0.0
 10
148.9986573326333
 20
112.6347245185829
 30
0.0
 10
149.1602252191965
 20
112.4090718562441
 30
0.0
 10
149.4141695189049
 20
112.1511918931355
 30
0.0
 10
149.7439780157168
 20
111.9362703171721
 30
0.0
 10
150.1455331429792
 20
111.7488435882611
 30
0.0
 10
150.5344517518805
 20
111.6070273580513
 30
0.0
 10
150.7834106748988
 20
111.5416949953489
 30
0.0
 10
150.8616843180646
 20
111.5213031093849
 30
0.0
  0
SPLINE
  5
225
330
16A
100
AcDbEntity
  8
DV3_Standard
 62
     7
100
AcDbSpline
210
0.0
220
0.0
230
1.0
 70
     8
 71
     3
 72
     8
 73
     4
 74
     0
 42
0.000000001
 43
0.0000000001
 40
0.0
 40
0.0
 40
0.0
 40
0.0
 40
1.0
 40
1.0
 40
1.0
 40
1.0
 10
162.4524504243523
 20
110.7591852809464
 30
0.0
 10
162.7697529459189
 20
110.7591506265236
 30
0.0
 10
164.0689356396638
 20
110.7591241963371
 30
0.0
 10
166.3499985055871
 20
110.7591059903867
 30
0.0
  0
LINE
  5
226
330
16A
100
AcDbEntity
  8
DV3_Standard
 62
     7
100
AcDbLine
 10
166.349999769
 20
110.7591136521
 30
0.0
 11
170.2475483439
 21
110.7592150361
 31
0.0
  0
SPLINE
  5
227
330
16A
100
AcDbEntity
  8
DV3_Standard
 62
     7
100
AcDbSpline
210
0.0
220
0.0
230
1.0
 70
     8
 71
     3
 72
    14
 73
    10
 74
     0
 42
0.000000001
 43
0.0000000001
 40
0.0
 40
0.0
 40
0.0
 40
0.0
 40
0.0646414404939855
 40
0.2187487186526632
 40
0.3856791287279626
 40
0.568222385581012
 40
0.7301365812947341
 40
0.894846144142503
 40
1.0
 40
1.0
 40
1.0
 40
1.0
 10
181.9225337033321
 20
111.5449851643366
 30
0.0
 10
182.0101999931424
 20
111.5689630580458
 30
0.0
 10
182.2618509057431
 20
111.6383410714433
 30
0.0
 10
182.6450009104685
 20
111.7863355940259
 30
0.0
 10
183.0473402054686
 20
111.9852902970776
 30
0.0
 10
183.3788558845956
 20
112.2293964040188
 30
0.0
 10
183.5907051041293
 20
112.4784037535571
 30
0.0
 10
183.7318564908551
 20
112.6833105937447
 30
0.0
 10
183.7836132376977
 20
112.7919609277419
 30
0.0
 10
183.8067591468513
 20
112.8417166995917
 30
0.0
  0
ARC
  5
228
330
16A
100
AcDbEntity
  8
DV3_Standard
 62
     7
100
AcDbCircle
 10
162.9302848274
 20
129.8596826419
 30
0.0
 40
25.60942053953081
100
AcDbArc
 50
338.2461274402
 51
345.8417493343
  0
ARC
  5
229
330
16A
100
AcDbEntity
  8
DV3_Standard
 62
     7
100
AcDbCircle
 10
120.5462157091
 20
142.2315016591
 30
0.0
 40
69.73444031648708
100
AcDbArc
 50
335.0974327796
 51
341.7218799693
  0
LINE
  5
22A
330
16A
100
AcDbEntity
  8
DV3_Standard
 62
     7
100
AcDbLine
 10
146.118097384
 20
153.7591046831
 30
0.0
 11
143.8209889228
 21
153.7531314002
 31
0.0
  0
LINE
  5
22B
330
16A
100
AcDbEntity
  8
DV3_Standard
 62
     7
100
AcDbLine
 10
188.8698113647
 20
153.7591046831
 30
0.0
 11
186.5819006527
 21
153.7591046831
 31
0.0
  0
SPLINE
  5
22C
330
16A
100
AcDbEntity
  8
DV3_Standard
 62
     7
100
AcDbSpline
210
0.0
220
0.0
230
1.0
 70
     8
 71
     3
 72
    15
 73
    11
 74
     0
 42
0.000000001
 43
0.0000000001
 40
0.0
 40
0.0
 40
0.0
 40
0.0
 40
0.0297784992416495
 40
0.2502995123792316
 40
0.4235109465631084
 40
0.5718453291897015
 40
0.7034572219884497
 40
0.8302542083768586
 40
0.9942358936646802
 40
1.0
 40
1.0
 40
1.0
 40
1.0
 10
143.8305929560446
 20
153.7515881883832
 30
0.0
 10
143.8209889227943
 20
153.7531314002401
 30
0.0
 10
143.7514130672168
 20
153.7640922807874
 30
0.0
 10
143.6199285381503
 20
153.719130662445
 30
0.0
 10
143.4884918003123
 20
153.6318815613675
 30
0.0
 10
143.4069042826309
 20
153.532955499101
 30
0.0
 10
143.3629666137055
 20
153.4459670174808
 30
0.0
 10
143.3416104221937
 20
153.3799847035459
 30
0.0
 10
143.3340807028695
 20
153.3448973370547
 30
0.0
 10
143.3327947798063
 20
153.3349707989613
 30
0.0
 10
143.3327449814938
 20
153.3345813324784
 30
0.0
  0
ARC
  5
22D
330
16A
100
AcDbEntity
  8
DV3_Standard
 62
     7
100
AcDbCircle
 10
188.875710232
 20
153.2563426269
 30
0.0
 40
0.4986720443296581
100
AcDbArc
 50
5.361604758
 51
90.2659941958
  0
ARC
  5
22E
330
16A
100
AcDbEntity
  8
DV3_Standard
 62
     7
100
AcDbCircle
 10
111.2818602826
 20
152.4481999285
 30
0.0
 40
34.04002588434619
100
AcDbArc
 50
359.851702249
 51
2.2070455489
  0
SPLINE
  5
22F
330
16A
100
AcDbEntity
  8
DV3_Standard
 62
     7
100
AcDbSpline
210
0.0
220
0.0
230
1.0
 70
     8
 71
     3
 72
    21
 73
    17
 74
     0
 42
0.000000001
 43
0.0000000001
 40
0.0
 40
0.0
 40
0.0
 40
0.0
 40
0.0090422962187329
 40
0.0862192945606368
 40
0.1646918974483809
 40
0.244217120761859
 40
0.3244229252768479
 40
0.4048339317716714
 40
0.4848052756691962
 40
0.5639077469708217
 40
0.642286070026345
 40
0.724130617169419
 40
0.8071059116886933
 40
0.8913388604395702
 40
0.9769082721974671
 40
1.0
 40
1.0
 40
1.0
 40
1.0
 10
155.0942056651937
 20
144.048344694341
 30
0.0
 10
155.0449894028064
 20
144.052602123677
 30
0.0
 10
154.6416241488785
 20
144.0876727751768
 30
0.0
 10
153.8223197614418
 20
144.2153483461269
 30
0.0
 10
152.7301834888498
 20
144.4269740925803
 30
0.0
 10
151.6609800016674
 20
144.7018171670944
 30
0.0
 10
150.6447858759682
 20
145.0278926316764
 30
0.0
 10
149.6950462275045
 20
145.4029547062218
 30
0.0
 10
148.8282260603818
 20
145.8201375241219
 30
0.0
 10
148.0587687638003
 20
146.2732773783591
 30
0.0
 10
147.3753780101684
 20
146.7643456130568
 30
0.0
 10
146.7770297555204
 20
147.2896687498145
 30
0.0
 10
146.2658412850776
 20
147.8516741475818
 30
0.0
 10
145.8655039093804
 20
148.4329549068256
 30
0.0
 10
145.6146137115451
 20
148.9010618885247
 30
0.0
 10
145.5424170087445
 20
149.1445922743633
 30
0.0
 10
145.5247251917905
 20
149.2051021752766
 30
0.0
  0
SPLINE
  5
230
330
16A
100
AcDbEntity
  8
DV3_Standard
 62
     7
100
AcDbSpline
210
0.0
220
0.0
230
1.0
 70
     8
 71
     3
 72
    20
 73
    16
 74
     0
 42
0.000000001
 43
0.0000000001
 40
0.0
 40
0.0
 40
0.0
 40
0.0
 40
0.0213169949417857
 40
0.1096292745615006
 40
0.1966741831544348
 40
0.2824382481399201
 40
0.3670576194957842
 40
0.4506965162356305
 40
0.5326028865108281
 40
0.6115053369535867
 40
0.6913358803503541
 40
0.771728861361076
 40
0.8522382625275096
 40
0.9323294411774242
 40
1.0
 40
1.0
 40
1.0
 40
1.0
 10
187.16691548482
 20
149.1791269488463
 30
0.0
 10
187.1504918271394
 20
149.1234685084413
 30
0.0
 10
187.0772667808224
 20
148.8784407003136
 30
0.0
 10
186.8178130988422
 20
148.4028206399208
 30
0.0
 10
186.3988206827545
 20
147.8054155247314
 30
0.0
 10
185.8614716876153
 20
147.2284460515163
 30
0.0
 10
185.2250132665239
 20
146.6849756675796
 30
0.0
 10
184.4963431943492
 20
146.1789967588393
 30
0.0
 10
183.6853979061606
 20
145.722628041076
 30
0.0
 10
182.7992210506416
 20
145.3142225616517
 30
0.0
 10
181.8441020081931
 20
144.952559771907
 30
0.0
 10
180.8137994538616
 20
144.6360957761181
 30
0.0
 10
179.7329065484801
 20
144.3738566228481
 30
0.0
 10
178.6372210436614
 20
144.1692986639104
 30
0.0
 10
177.9679476170574
 20
144.0897735577228
 30
0.0
 10
177.604971145543
 20
144.0478481757119
 30
0.0
  0
LINE
  5
231
330
16A
100
AcDbEntity
  8
DV3_Standard
 62
     7
100
AcDbLine
 10
156.4370878508
 20
143.9060203015
 30
0.0
 11
155.0901631332
 21
144.0375856517
 31
0.0
  0
ARC
  5
232
330
16A
100
AcDbEntity
  8
DV3_Standard
 62
     7
100
AcDbCircle
 10
166.838161403
 20
246.9850631485
 30
0.0
 40
103.5137750290492
100
AcDbArc
 50
273.2336924744
 51
275.9738992955
  0
LINE
  5
233
330
16A
100
AcDbEntity
  8
DV3_Standard
 62
     7
100
AcDbLine
 10
226.85
 20
211.6241662339
 30
0.0
 11
255.85
 21
211.6241662338
 31
0.0
  0
LINE
  5
234
330
16A
100
AcDbEntity
  8
DV3_Standard
 62
     7
100
AcDbLine
 10
226.85
 20
227.6241662339
 30
0.0
 11
255.85
 21
227.6241662338
 31
0.0
  0
LINE
  5
235
330
16A
100
AcDbEntity
  8
DV3_Standard
 62
     7
100
AcDbLine
 10
256.35
 20
224.1241662338
 30
0.0
 11
254.2626587737
 21
224.1241662338
 31
0.0
  0
LINE
  5
236
330
16A
100
AcDbEntity
  8
DV3_Standard
 62
     7
100
AcDbLine
 10
243.4373412263
 20
224.1241662338
 30
0.0
 11
239.2626587737
 21
224.1241662338
 31
0.0
  0
LINE
  5
237
330
16A
100
AcDbEntity
  8
DV3_Standard
 62
     7
100
AcDbLine
 10
228.4373412263
 20
224.1241662339
 30
0.0
 11
226.35
 21
224.1241662339
 31
0.0
  0
LINE
  5
238
330
16A
100
AcDbEntity
  8
DV3_Standard
 62
     7
100
AcDbLine
 10
226.35
 20
224.1241662339
 30
0.0
 11
226.35
 21
226.919894963
 31
0.0
  0
LINE
  5
239
330
16A
100
AcDbEntity
  8
DV3_Standard
 62
     7
100
AcDbLine
 10
256.35
 20
226.919894963
 30
0.0
 11
256.35
 21
224.1241662338
 31
0.0
  0
ARC
  5
23A
330
16A
100
AcDbEntity
  8
DV3_Standard
 62
     7
100
AcDbCircle
 10
248.85
 20
220.3456067147
 30
0.0
 40
6.601089837288594
100
AcDbArc
 50
34.9187681795
 51
145.0812318204
  0
ARC
  5
23B
330
16A
100
AcDbEntity
  8
DV3_Standard
 62
     7
100
AcDbCircle
 10
233.85
 20
220.3456067147
 30
0.0
 40
6.601089837288583
100
AcDbArc
 50
34.9187681795
 51
145.0812318204
  0
LINE
  5
23C
330
16A
100
AcDbEntity
  8
DV3_Standard
 62
     7
100
AcDbLine
 10
256.35
 20
215.1241662338
 30
0.0
 11
254.2626587736
 21
215.1241662338
 31
0.0
  0
LINE
  5
23D
330
16A
100
AcDbEntity
  8
DV3_Standard
 62
     7
100
AcDbLine
 10
243.4373412263
 20
215.1241662338
 30
0.0
 11
239.2626587736
 21
215.1241662338
 31
0.0
  0
LINE
  5
23E
330
16A
100
AcDbEntity
  8
DV3_Standard
 62
     7
100
AcDbLine
 10
228.4373412263
 20
215.1241662339
 30
0.0
 11
226.35
 21
215.1241662339
 31
0.0
  0
LINE
  5
23F
330
16A
100
AcDbEntity
  8
DV3_Standard
 62
     7
100
AcDbLine
 10
228.4373412263
 20
224.1241662339
 30
0.0
 11
228.4373412263
 21
215.1241662339
 31
0.0
  0
ARC
  5
240
330
16A
100
AcDbEntity
  8
DV3_Standard
 62
     7
100
AcDbCircle
 10
233.85
 20
218.902725753
 30
0.0
 40
6.601089837288568
100
AcDbArc
 50
214.9187681795
 51
325.0812318204
  0
LINE
  5
241
330
16A
100
AcDbEntity
  8
DV3_Standard
 62
     7
100
AcDbLine
 10
239.2626587736
 20
215.1241662338
 30
0.0
 11
239.2626587737
 21
224.1241662338
 31
0.0
  0
LINE
  5
242
330
16A
100
AcDbEntity
  8
DV3_Standard
 62
     7
100
AcDbLine
 10
243.4373412263
 20
224.1241662338
 30
0.0
 11
243.4373412263
 21
215.1241662338
 31
0.0
  0
ARC
  5
243
330
16A
100
AcDbEntity
  8
DV3_Standard
 62
     7
100
AcDbCircle
 10
248.85
 20
218.902725753
 30
0.0
 40
6.601089837288585
100
AcDbArc
 50
214.9187681795
 51
325.0812318204
  0
LINE
  5
244
330
16A
100
AcDbEntity
  8
DV3_Standard
 62
     7
100
AcDbLine
 10
254.2626587736
 20
215.1241662338
 30
0.0
 11
254.2626587737
 21
224.1241662338
 31
0.0
  0
LINE
  5
245
330
16A
100
AcDbEntity
  8
DV3_Standard
 62
     7
100
AcDbLine
 10
256.35
 20
224.1241662338
 30
0.0
 11
256.35
 21
215.1241662338
 31
0.0
  0
LINE
  5
246
330
16A
100
AcDbEntity
  8
DV3_Standard
 62
     7
100
AcDbLine
 10
256.35
 20
215.1241662338
 30
0.0
 11
256.35
 21
212.3284375047
 31
0.0
  0
LINE
  5
247
330
16A
100
AcDbEntity
  8
DV3_Standard
 62
     7
100
AcDbLine
 10
226.35
 20
212.3284375047
 30
0.0
 11
226.35
 21
215.1241662339
 31
0.0
  0
LINE
  5
248
330
16A
100
AcDbEntity
  8
DV3_Standard
 62
     7
100
AcDbLine
 10
226.35
 20
215.1241662339
 30
0.0
 11
226.35
 21
224.1241662339
 31
0.0
  0
ARC
  5
249
330
16A
100
AcDbEntity
  8
DV3_Standard
 62
     7
100
AcDbCircle
 10
247.9535976036
 20
217.7598674321
 30
0.0
 40
10.0
100
AcDbArc
 50
322.1519040322
 51
327.0986541097
  0
ARC
  5
24A
330
16A
100
AcDbEntity
  8
DV3_Standard
 62
     7
100
AcDbCircle
 10
234.7464023964
 20
217.7598674321
 30
0.0
 40
9.999999999999991
100
AcDbArc
 50
212.8922755334
 51
217.8480959677
  0
ARC
  5
24B
330
16A
100
AcDbEntity
  8
DV3_Standard
 62
     7
100
AcDbCircle
 10
247.9535976036
 20
221.4884650356
 30
0.0
 40
9.999999999999995
100
AcDbArc
 50
32.8922755334
 51
37.8480959677
  0
ARC
  5
24C
330
16A
100
AcDbEntity
  8
DV3_Standard
 62
     7
100
AcDbCircle
 10
234.7464023964
 20
221.4884650356
 30
0.0
 40
10.0
100
AcDbArc
 50
142.1519040322
 51
147.0986541097
  0
LINE
  5
24D
330
16A
100
AcDbEntity
  8
DV3_Standard
 62
     7
100
AcDbLine
 10
251.85
 20
210.6241662338
 30
0.0
 11
251.85
 21
211.6241662338
 31
0.0
  0
LINE
  5
24E
330
16A
100
AcDbEntity
  8
DV3_Standard
 62
     7
100
AcDbLine
 10
230.85
 20
211.6241662339
 30
0.0
 11
230.85
 21
210.6241662339
 31
0.0
  0
LINE
  5
24F
330
16A
100
AcDbEntity
  8
DV3_Standard
 62
     7
100
AcDbLine
 10
88.2401181768
 20
185.5241662339
 30
0.0
 11
73.7357737896
 21
185.5241662339
 31
0.0
  0
LINE
  5
250
330
16A
100
AcDbEntity
  8
DV3_Standard
 62
     7
100
AcDbLine
 10
244.4599728495
 20
185.5241662339
 30
0.0
 11
88.2401181843
 21
185.5241662339
 31
0.0
  0
LINE
  5
251
330
16A
100
AcDbEntity
  8
DV3_Standard
 62
     7
100
AcDbLine
 10
258.9642578308
 20
185.5241662339
 30
0.0
 11
244.4599728495
 21
185.5241662339
 31
0.0
  0
ARC
  5
252
330
16A
100
AcDbEntity
  8
DV3_Standard
 62
     7
100
AcDbCircle
 10
73.7357737896
 20
186.0241662339
 30
0.0
 40
0.5000000000000286
100
AcDbArc
 50
180.5
 51
270.0
  0
ARC
  5
253
330
16A
100
AcDbEntity
  8
DV3_Standard
 62
     7
100
AcDbCircle
 10
258.9642578308
 20
186.0241662339
 30
0.0
 40
0.5
100
AcDbArc
 50
270.0
 51
359.5
  0
LINE
  5
254
330
16A
100
AcDbEntity
  8
DV3_Standard
 62
     7
100
AcDbLine
 10
88.2401006779
 20
210.6241662339
 30
0.0
 11
244.4599349776
 21
210.6241662339
 31
0.0
  0
LINE
  5
255
330
16A
100
AcDbEntity
  8
DV3_Standard
 62
     7
100
AcDbLine
 10
244.4599349776
 20
210.6241662339
 30
0.0
 11
259.1745753445
 21
210.6241662339
 31
0.0
  0
LINE
  5
256
330
16A
100
AcDbEntity
  8
DV3_Standard
 62
     7
100
AcDbLine
 10
73.5254562758
 20
210.6241662339
 30
0.0
 11
88.2401006779
 21
210.6241662339
 31
0.0
  0
ARC
  5
257
330
16A
100
AcDbEntity
  8
DV3_Standard
 62
     7
100
AcDbCircle
 10
73.5254562758
 20
210.1241662339
 30
0.0
 40
0.499999999999987
100
AcDbArc
 50
90.0
 51
180.5
  0
ARC
  5
258
330
16A
100
AcDbEntity
  8
DV3_Standard
 62
     7
100
AcDbCircle
 10
259.1745753445
 20
210.1241662339
 30
0.0
 40
0.5000000000000004
100
AcDbArc
 50
359.5
 51
90.0
  0
LINE
  5
259
330
16A
100
AcDbEntity
  8
DV3_Standard
 62
     7
100
AcDbLine
 10
73.22960981
 20
186.7289531307
 30
0.0
 11
73.2357937899
 21
186.0198022355
 31
0.0
  0
SPLINE
  5
25A
330
16A
100
AcDbEntity
  8
DV3_Standard
 62
     7
100
AcDbSpline
210
0.0
220
0.0
230
1.0
 70
     8
 71
     3
 72
    11
 73
     7
 74
     0
 42
0.000000001
 43
0.0000000001
 40
0.0
 40
0.0
 40
0.0
 40
0.0
 40
0.2347659114945335
 40
0.5022655933164547
 40
0.7697943632117045
 40
1.0
 40
1.0
 40
1.0
 40
1.0
 10
73.03077624443192
 20
209.5131697128809
 30
0.0
 10
73.04789412848886
 20
207.5536520678583
 30
0.0
 10
73.07885773264586
 20
204.0078552860136
 30
0.0
 10
73.13080455138413
 20
198.0694615659916
 30
0.0
 10
73.18216954250784
 20
192.1669333252727
 30
0.0
 10
73.21284417624526
 20
188.6512251191548
 30
0.0
 10
73.22960980997196
 20
186.7289531306963
 30
0.0
  0
LINE
  5
25B
330
16A
100
AcDbEntity
  8
DV3_Standard
 62
     7
100
AcDbLine
 10
73.0254766547
 20
210.1198020437
 30
0.0
 11
73.0307762444
 21
209.5131697129
 31
0.0
  0
LINE
  5
25C
330
16A
100
AcDbEntity
  8
DV3_Standard
 62
     7
100
AcDbLine
 10
259.6696241409
 20
209.5555267749
 30
0.0
 11
259.6745547066
 21
210.1198020422
 31
0.0
  0
SPLINE
  5
25D
330
16A
100
AcDbEntity
  8
DV3_Standard
 62
     7
100
AcDbSpline
210
0.0
220
0.0
230
1.0
 70
     8
 71
     3
 72
    11
 73
     7
 74
     0
 42
0.000000001
 43
0.0000000001
 40
0.0
 40
0.0
 40
0.0
 40
0.0
 40
0.2375502196521697
 40
0.5018475360232404
 40
0.7661874303699832
 40
1.0
 40
1.0
 40
1.0
 40
1.0
 10
259.4684194594661
 20
186.4999866240893
 30
0.0
 10
259.4858907808963
 20
188.5054930099852
 30
0.0
 10
259.5171233938104
 20
192.0882836201172
 30
0.0
 10
259.5691167839425
 20
198.0704464722349
 30
0.0
 10
259.621304943063
 20
204.021611341663
 30
0.0
 10
259.6523705973616
 20
207.5803319578917
 30
0.0
 10
259.66962414093
 20
209.5555267748834
 30
0.0
  0
LINE
  5
25E
330
16A
100
AcDbEntity
  8
DV3_Standard
 62
     7
100
AcDbLine
 10
259.4642365044
 20
186.0198015476
 30
0.0
 11
259.4684194595
 21
186.4999866241
 31
0.0
  0
LINE
  5
25F
330
16A
100
AcDbEntity
  8
DV3_Standard
 62
     7
100
AcDbLine
 10
56.35
 20
254.5841662339
 30
0.0
 11
126.35
 21
254.5841662339
 31
0.0
  0
LINE
  5
260
330
16A
100
AcDbEntity
  8
DV3_Standard
 62
     7
100
AcDbLine
 10
206.35
 20
254.5841662339
 30
0.0
 11
276.35
 21
254.5841662338
 31
0.0
  0
LINE
  5
261
330
16A
100
AcDbEntity
  8
DV3_Standard
 62
     7
100
AcDbLine
 10
145.321063012
 20
150.2334190453
 30
0.0
 11
145.3218233336
 21
152.513604032
 31
0.0
  0
LINE
  5
262
330
16A
100
AcDbEntity
  8
DV3_Standard
 62
     7
100
AcDbLine
 10
187.3783567935
 20
150.2303072285
 30
0.0
 11
187.3783567935
 21
153.7591046831
 31
0.0
  0
ENDBLK
  5
264
330
16A
100
AcDbEntity
  8
0
100
AcDbBlockEnd
  0
ENDSEC
  0
SECTION
  2
ENTITIES
  0
INSERT
  5
70
330
1F
100
AcDbEntity
  8
Standard
100
AcDbBlockReference
  2
SEANNOT_GROUP
 10
0.0
 20
0.0
 30
0.0
  0
INSERT
  5
76
330
1F
100
AcDbEntity
  8
Standard
100
AcDbBlockReference
  2
SEANNOT_GROUP1
 10
0.0
 20
0.0
 30
0.0
  0
INSERT
  5
7C
330
1F
100
AcDbEntity
  8
Standard
100
AcDbBlockReference
  2
SEANNOT_GROUP2
 10
0.0
 20
0.0
 30
0.0
  0
LINE
  5
81
330
1F
100
AcDbEntity
  8
Standard
 62
     7
100
AcDbLine
 10
91.3033804151
 20
450.7318305228
 30
0.0
 11
91.3033804151
 21
445.7535990921
 31
0.0
  0
LINE
  5
82
330
1F
100
AcDbEntity
  8
Standard
 62
     7
100
AcDbLine
 10
93.7924961304
 20
448.2427148075
 30
0.0
 11
88.8142646997
 21
448.2427148075
 31
0.0
  0
LINE
  5
83
330
1F
100
AcDbEntity
  8
Standard
 62
     7
100
AcDbLine
 10
241.3033804151
 20
450.802188909
 30
0.0
 11
241.3033804151
 21
445.683240706
 31
0.0
  0
LINE
  5
84
330
1F
100
AcDbEntity
  8
Standard
 62
     7
100
AcDbLine
 10
243.8628545166
 20
448.2427148075
 30
0.0
 11
238.7439063136
 21
448.2427148075
 31
0.0
  0
INSERT
  5
86
330
1F
100
AcDbEntity
  8
Standard
100
AcDbBlockReference
  2
SEANNOT_GROUP3
 10
0.0
 20
0.0
 30
0.0
  0
INSERT
  5
8C
330
1F
100
AcDbEntity
  8
Standard
100
AcDbBlockReference
  2
SEANNOT_GROUP4
 10
0.0
 20
0.0
 30
0.0
  0
INSERT
  5
92
330
1F
100
AcDbEntity
  8
Standard
100
AcDbBlockReference
  2
SE
 10
0.0
 20
0.0
 30
0.0
  0
INSERT
  5
CB
330
1F
100
AcDbEntity
  8
Standard
100
AcDbBlockReference
  2
SE1
 10
0.0
 20
0.0
 30
0.0
  0
INSERT
  5
16B
330
1F
100
AcDbEntity
  8
Standard
100
AcDbBlockReference
  2
SE2
 10
0.0
 20
0.0
 30
0.0
  0
MTEXT
  5
266
330
1F
100
AcDbEntity
  8
Default
100
AcDbMText
 10
5.9362635081
 20
63.4225120485
 30
0.0
 40
10.0
 41
113.8626497168
 46
65.4545454545
 71
     1
 72
     1
  1
{\fArial Narrow|b0||i0||c0|p34;\C7;\H10.;\W1.;Grohe AG\P}{\fArial Narrow|b0||i0||c0|p34;\C7;\H10.;\W1.;\P}{\fArial Narrow|b0||i0||c0|p34;\C7;\H10.;\W1.;ecn:\P}{\fArial Narrow|b0||i0||c0|p34;\C7;\H10.;\W1.;unit: mm}
 73
     1
 44
1.0
1001
ACAD
1000
ACAD_MTEXT_DEFINED_HEIGHT_BEGIN
1070
    46
1040
65.4545454545
1000
ACAD_MTEXT_DEFINED_HEIGHT_END
  0
LINE
  5
267
330
1F
100
AcDbEntity
  8
Default
 62
     7
100
AcDbLine
 10
0.0
 20
0.0
 30
0.0
 11
100.0
 21
0.0
 31
0.0
  0
LINE
  5
268
330
1F
100
AcDbEntity
  8
Default
 62
     7
100
AcDbLine
 10
0.0
 20
0.0
 30
0.0
 11
0.0
 21
100.0
 31
0.0
  0
MTEXT
  5
269
330
1F
100
AcDbEntity
  8
Default
100
AcDbMText
 10
24.3923665681
 20
-8.2375342018
 30
0.0
 40
10.0
 41
35.00001
 46
16.3636363636
 71
     1
 72
     1
  1
{\fArial Narrow|b0||i0||c0|p34;\C7;\H10.;\W0.82;100 mm}
 73
     1
 44
1.0
1001
ACAD
1000
ACAD_MTEXT_DEFINED_HEIGHT_BEGIN
1070
    46
1040
16.3636363636
1000
ACAD_MTEXT_DEFINED_HEIGHT_END
  0
MTEXT
  5
26A
330
1F
100
AcDbEntity
  8
Default
100
AcDbMText
 10
-17.6150308803
 20
24.6231930421
 30
0.0
 40
10.0
 41
35.00001
 46
16.3636363636
 71
     1
 72
     1
  1
{\fArial Narrow|b0||i0||c0|p34;\C7;\H10.;\W0.82;100 mm}
 11
6.123233995736766E-17
 21
1.0
 31
0.0
 73
     1
 44
1.0
1001
ACAD
1000
ACAD_MTEXT_DEFINED_HEIGHT_BEGIN
1070
    46
1040
16.3636363636
1000
ACAD_MTEXT_DEFINED_HEIGHT_END
  0
MTEXT
  5
26B
330
1F
100
AcDbEntity
  8
Default
100
AcDbMText
 10
28.4878128572
 20
24.8634936442
 30
0.0
 40
10.0
 41
86.691737001
 46
16.3636363636
 71
     4
 72
     1
  1
{\fArial Narrow|b0||i0||c0|p34;\C7;\H10.;\W1.;257392}
 73
     1
 44
1.0
1001
ACAD
1000
ACAD_MTEXT_DEFINED_HEIGHT_BEGIN
1070
    46
1040
16.3636363636
1000
ACAD_MTEXT_DEFINED_HEIGHT_END
  0
MTEXT
  5
26C
330
1F
100
AcDbEntity
  8
Default
100
AcDbMText
 10
5.9012241913
 20
42.7402200078
 30
0.0
 40
10.0
 41
136.4542564297
 46
17.9861568805
 71
     4
 72
     1
  1
{\fArial Narrow|b0||i0||c0|p34;\C7;\H10.;\W1.;1018240000}
 73
     1
 44
1.0
1001
ACAD
1000
ACAD_MTEXT_DEFINED_HEIGHT_BEGIN
1070
    46
1040
17.9861568805
1000
ACAD_MTEXT_DEFINED_HEIGHT_END
  0
ENDSEC
  0
SECTION
  2
OBJECTS
  0
DICTIONARY
  5
C
330
0
100
AcDbDictionary
281
     1
  3
ACAD_DETAILVIEWSTYLE
350
2A8
  3
ACAD_GROUP
350
D
  3
ACAD_LAYOUT
350
1A
  3
ACAD_MATERIAL
350
43
  3
ACAD_MLEADERSTYLE
350
6B
  3
ACAD_MLINESTYLE
350
17
  3
ACAD_PLOTSETTINGS
350
19
  3
ACAD_PLOTSTYLENAME
350
E
  3
ACAD_SCALELIST
350
47
  3
ACAD_SECTIONVIEWSTYLE
350
2A9
  3
ACAD_TABLESTYLE
350
69
  3
ACAD_VISUALSTYLE
350
2A
  3
ACDB_RECOMPOSE_DATA
350
2A5
  3
AcDbVariableDictionary
350
26D
  0
SUN
  5
6D
330
29
100
AcDbSun
 90
        1
290
     0
 63
     7
421
 16777215
 40
1.0
291
     1
 91
  2455826
 92
 54000000
292
     0
 70
     2
 71
   256
280
     1
  0
DICTIONARY
  5
2A8
102
{ACAD_REACTORS
330
C
102
}
330
C
100
AcDbDictionary
281
     1
  0
DICTIONARY
  5
D
102
{ACAD_REACTORS
330
C
102
}
330
C
100
AcDbDictionary
281
     1
  0
DICTIONARY
  5
1A
102
{ACAD_REACTORS
330
C
102
}
330
C
100
AcDbDictionary
281
     1
  3
Layout1
350
1E
  3
Model
350
22
  0
DICTIONARY
  5
43
102
{ACAD_REACTORS
330
C
102
}
330
C
100
AcDbDictionary
281
     1
  3
ByBlock
350
45
  3
ByLayer
350
44
  3
Global
350
46
  0
DICTIONARY
  5
6B
102
{ACAD_REACTORS
330
C
102
}
330
C
100
AcDbDictionary
281
     1
  3
Standard
350
6C
  0
DICTIONARY
  5
17
102
{ACAD_REACTORS
330
C
102
}
330
C
100
AcDbDictionary
281
     1
  3
Standard
350
18
  0
DICTIONARY
  5
19
102
{ACAD_REACTORS
330
C
102
}
330
C
100
AcDbDictionary
281
     1
  0
ACDBDICTIONARYWDFLT
  5
E
102
{ACAD_REACTORS
330
C
102
}
330
C
100
AcDbDictionary
281
     1
  3
Normal
350
F
100
AcDbDictionaryWithDefault
340
F
  0
DICTIONARY
  5
47
102
{ACAD_REACTORS
330
C
102
}
330
C
100
AcDbDictionary
281
     1
  3
A0
350
48
  3
A1
350
49
  3
A2
350
4A
  3
A3
350
4B
  3
A4
350
4C
  3
A5
350
4D
  3
A6
350
4E
  3
A7
350
4F
  3
A8
350
50
  3
A9
350
51
  3
B0
350
52
  3
B1
350
53
  3
B2
350
54
  3
B3
350
55
  3
B4
350
56
  3
B5
350
57
  3
B6
350
58
  3
B7
350
59
  3
B8
350
5A
  3
B9
350
5B
  3
C0
350
5C
  3
C1
350
5D
  3
C2
350
5E
  3
C3
350
5F
  3
C4
350
60
  3
C5
350
61
  3
C6
350
62
  3
C7
350
63
  3
C8
350
64
  3
C9
350
65
  3
D0
350
66
  3
D1
350
67
  3
D2
350
68
  0
DICTIONARY
  5
2A9
102
{ACAD_REACTORS
330
C
102
}
330
C
100
AcDbDictionary
281
     1
  0
DICTIONARY
  5
69
102
{ACAD_REACTORS
330
C
102
}
330
C
100
AcDbDictionary
281
     1
  3
Standard
350
6A
  0
DICTIONARY
  5
2A
102
{ACAD_REACTORS
330
C
102
}
330
C
100
AcDbDictionary
281
     1
  3
2dWireframe
350
2F
  3
Basic
350
32
  3
Brighten
350
36
  3
ColorChange
350
3A
  3
Conceptual
350
34
  3
Dim
350
35
  3
EdgeColorOff
350
3D
  3
Facepattern
350
39
  3
Flat
350
2B
  3
FlatWithEdges
350
2C
  3
Gouraud
350
2D
  3
GouraudWithEdges
350
2E
  3
Hidden
350
31
  3
JitterOff
350
3B
  3
Linepattern
350
38
  3
OverhangOff
350
3C
  3
Realistic
350
33
  3
Shaded
350
42
  3
Shaded with edges
350
41
  3
Shades of Gray
350
3E
  3
Sketchy
350
3F
  3
Thicken
350
37
  3
Wireframe
350
30
  3
X-Ray
350
40
  0
XRECORD
  5
2A5
102
{ACAD_REACTORS
330
C
102
}
330
C
100
AcDbXrecord
280
     1
 90
        1
330
6A
  0
DICTIONARY
  5
26D
102
{ACAD_REACTORS
330
C
102
}
330
C
100
AcDbDictionary
281
     1
  3
CANNOSCALE
350
26E
  3
CENTEREXE
350
2AA
  3
CENTERLTYPEFILE
350
2AB
  3
CMLEADERSTYLE
350
2A7
  3
CTABLESTYLE
350
2A6
  3
XCLIPFRAME
350
26F
  0
LAYOUT
  5
1E
102
{ACAD_REACTORS
330
1A
102
}
330
1A
100
AcDbPlotSettings
  1

  2
none_device
  4

  6

 40
0.0
 41
0.0
 42
0.0
 43
0.0
 44
0.0
 45
0.0
 46
0.0
 47
0.0
 48
0.0
 49
0.0
140
0.0
141
0.0
142
1.0
143
1.0
 70
   688
 72
     1
 73
     0
 74
     5
  7

 75
    16
 76
     0
 77
     2
 78
   300
147
1.0
148
0.0
149
0.0
100
AcDbLayout
  1
Layout1
 70
     1
 71
     1
 10
0.0
 20
0.0
 11
3000.0
 21
4500.0
 12
0.0
 22
0.0
 32
0.0
 14
0.0
 24
0.0
 34
0.0
 15
3000.0
 25
4500.0
 35
0.0
146
0.0
 13
0.0
 23
0.0
 33
0.0
 16
1.0
 26
0.0
 36
0.0
 17
0.0
 27
1.0
 37
0.0
 76
     0
330
1B
  0
LAYOUT
  5
22
102
{ACAD_REACTORS
330
1A
102
}
330
1A
100
AcDbPlotSettings
  1

  2
none_device
  4
Letter_(8.50_x_11.00_Inches)
  6

 40
6.35
 41
6.35
 42
6.35000508
 43
6.35000508
 44
215.9
 45
279.4
 46
0.0
 47
0.0
 48
0.0
 49
0.0
140
0.0
141
0.0
142
1.0
143
1.0
 70
  1712
 72
     1
 73
     0
 74
     0
  7

 75
     0
 76
     0
 77
     2
 78
   300
147
1.0
148
0.0
149
0.0
100
AcDbLayout
  1
Model
 70
     1
 71
     0
 10
0.0
 20
0.0
 11
3000.0
 21
4500.0
 12
0.0
 22
0.0
 32
0.0
 14
0.0
 24
0.0
 34
0.0
 15
3000.0
 25
4500.0
 35
0.0
146
0.0
 13
0.0
 23
0.0
 33
0.0
 16
1.0
 26
0.0
 36
0.0
 17
0.0
 27
1.0
 37
0.0
 76
     0
330
1F
331
29
  0
MATERIAL
  5
45
102
{ACAD_REACTORS
330
43
102
}
330
43
100
AcDbMaterial
  1
ByBlock
 72
     1
 94
      127
  0
MATERIAL
  5
44
102
{ACAD_REACTORS
330
43
102
}
330
43
100
AcDbMaterial
  1
ByLayer
 72
     1
 94
      127
  0
MATERIAL
  5
46
102
{ACAD_REACTORS
330
43
102
}
330
43
100
AcDbMaterial
  1
Global
 72
     1
 94
      127
  0
MLEADERSTYLE
  5
6C
102
{ACAD_REACTORS
330
6B
102
}
102
{ACAD_XDICTIONARY
360
2A3
102
}
330
6B
100
AcDbMLeaderStyle
170
     2
171
     1
172
     0
 90
        2
 40
0.0
 41
0.0
173
     1
 91
-1056964608
340
14
 92
       -2
290
     1
 42
2.0
291
     1
 43
8.0
  3
Standard
341
0
 44
4.0
300

342
11
174
     1
178
     6
175
     1
176
     0
 93
-1056964608
 45
4.0
292
     0
297
     0
 46
4.0
343
0
 94
-1056964608
 47
1.0
 49
1.0
140
1.0
293
     1
141
0.0
294
     1
177
     0
142
1.0
295
     0
296
     0
143
3.75
1001
ACAD_MLEADERVER
1070
     2
  0
MLINESTYLE
  5
18
102
{ACAD_REACTORS
330
17
102
}
330
17
100
AcDbMlineStyle
  2
Standard
 70
     0
  3

 62
   256
 51
90.0
 52
90.0
 71
     2
 49
0.5
 62
   256
  6
BYLAYER
 49
-0.5
 62
   256
  6
BYLAYER
  0
ACDBPLACEHOLDER
  5
F
102
{ACAD_REACTORS
330
E
102
}
330
E
  0
SCALE
  5
48
102
{ACAD_REACTORS
330
47
102
}
330
47
100
AcDbScale
 70
     0
300
1:1
140
1.0
141
1.0
290
     1
  0
SCALE
  5
49
102
{ACAD_REACTORS
330
47
102
}
330
47
100
AcDbScale
 70
     0
300
1:2
140
1.0
141
2.0
290
     0
  0
SCALE
  5
4A
102
{ACAD_REACTORS
330
47
102
}
330
47
100
AcDbScale
 70
     0
300
1:4
140
1.0
141
4.0
290
     0
  0
SCALE
  5
4B
102
{ACAD_REACTORS
330
47
102
}
330
47
100
AcDbScale
 70
     0
300
1:5
140
1.0
141
5.0
290
     0
  0
SCALE
  5
4C
102
{ACAD_REACTORS
330
47
102
}
330
47
100
AcDbScale
 70
     0
300
1:8
140
1.0
141
8.0
290
     0
  0
SCALE
  5
4D
102
{ACAD_REACTORS
330
47
102
}
330
47
100
AcDbScale
 70
     0
300
1:10
140
1.0
141
10.0
290
     0
  0
SCALE
  5
4E
102
{ACAD_REACTORS
330
47
102
}
330
47
100
AcDbScale
 70
     0
300
1:16
140
1.0
141
16.0
290
     0
  0
SCALE
  5
4F
102
{ACAD_REACTORS
330
47
102
}
330
47
100
AcDbScale
 70
     0
300
1:20
140
1.0
141
20.0
290
     0
  0
SCALE
  5
50
102
{ACAD_REACTORS
330
47
102
}
330
47
100
AcDbScale
 70
     0
300
1:30
140
1.0
141
30.0
290
     0
  0
SCALE
  5
51
102
{ACAD_REACTORS
330
47
102
}
330
47
100
AcDbScale
 70
     0
300
1:40
140
1.0
141
40.0
290
     0
  0
SCALE
  5
52
102
{ACAD_REACTORS
330
47
102
}
330
47
100
AcDbScale
 70
     0
300
1:50
140
1.0
141
50.0
290
     0
  0
SCALE
  5
53
102
{ACAD_REACTORS
330
47
102
}
330
47
100
AcDbScale
 70
     0
300
1:100
140
1.0
141
100.0
290
     0
  0
SCALE
  5
54
102
{ACAD_REACTORS
330
47
102
}
330
47
100
AcDbScale
 70
     0
300
2:1
140
2.0
141
1.0
290
     0
  0
SCALE
  5
55
102
{ACAD_REACTORS
330
47
102
}
330
47
100
AcDbScale
 70
     0
300
4:1
140
4.0
141
1.0
290
     0
  0
SCALE
  5
56
102
{ACAD_REACTORS
330
47
102
}
330
47
100
AcDbScale
 70
     0
300
8:1
140
8.0
141
1.0
290
     0
  0
SCALE
  5
57
102
{ACAD_REACTORS
330
47
102
}
330
47
100
AcDbScale
 70
     0
300
10:1
140
10.0
141
1.0
290
     0
  0
SCALE
  5
58
102
{ACAD_REACTORS
330
47
102
}
330
47
100
AcDbScale
 70
     0
300
100:1
140
100.0
141
1.0
290
     0
  0
SCALE
  5
59
102
{ACAD_REACTORS
330
47
102
}
330
47
100
AcDbScale
 70
     0
300
1/128" = 1'-0"
140
0.0078125
141
12.0
290
     0
  0
SCALE
  5
5A
102
{ACAD_REACTORS
330
47
102
}
330
47
100
AcDbScale
 70
     0
300
1/64" = 1'-0"
140
0.015625
141
12.0
290
     0
  0
SCALE
  5
5B
102
{ACAD_REACTORS
330
47
102
}
330
47
100
AcDbScale
 70
     0
300
1/32" = 1'-0"
140
0.03125
141
12.0
290
     0
  0
SCALE
  5
5C
102
{ACAD_REACTORS
330
47
102
}
330
47
100
AcDbScale
 70
     0
300
1/16" = 1'-0"
140
0.0625
141
12.0
290
     0
  0
SCALE
  5
5D
102
{ACAD_REACTORS
330
47
102
}
330
47
100
AcDbScale
 70
     0
300
3/32" = 1'-0"
140
0.09375
141
12.0
290
     0
  0
SCALE
  5
5E
102
{ACAD_REACTORS
330
47
102
}
330
47
100
AcDbScale
 70
     0
300
1/8" = 1'-0"
140
0.125
141
12.0
290
     0
  0
SCALE
  5
5F
102
{ACAD_REACTORS
330
47
102
}
330
47
100
AcDbScale
 70
     0
300
3/16" = 1'-0"
140
0.1875
141
12.0
290
     0
  0
SCALE
  5
60
102
{ACAD_REACTORS
330
47
102
}
330
47
100
AcDbScale
 70
     0
300
1/4" = 1'-0"
140
0.25
141
12.0
290
     0
  0
SCALE
  5
61
102
{ACAD_REACTORS
330
47
102
}
330
47
100
AcDbScale
 70
     0
300
3/8" = 1'-0"
140
0.375
141
12.0
290
     0
  0
SCALE
  5
62
102
{ACAD_REACTORS
330
47
102
}
330
47
100
AcDbScale
 70
     0
300
1/2" = 1'-0"
140
0.5
141
12.0
290
     0
  0
SCALE
  5
63
102
{ACAD_REACTORS
330
47
102
}
330
47
100
AcDbScale
 70
     0
300
3/4" = 1'-0"
140
0.75
141
12.0
290
     0
  0
SCALE
  5
64
102
{ACAD_REACTORS
330
47
102
}
330
47
100
AcDbScale
 70
     0
300
1" = 1'-0"
140
1.0
141
12.0
290
     0
  0
SCALE
  5
65
102
{ACAD_REACTORS
330
47
102
}
330
47
100
AcDbScale
 70
     0
300
1-1/2" = 1'-0"
140
1.5
141
12.0
290
     0
  0
SCALE
  5
66
102
{ACAD_REACTORS
330
47
102
}
330
47
100
AcDbScale
 70
     0
300
3" = 1'-0"
140
3.0
141
12.0
290
     0
  0
SCALE
  5
67
102
{ACAD_REACTORS
330
47
102
}
330
47
100
AcDbScale
 70
     0
300
6" = 1'-0"
140
6.0
141
12.0
290
     0
  0
SCALE
  5
68
102
{ACAD_REACTORS
330
47
102
}
330
47
100
AcDbScale
 70
     0
300
1'-0" = 1'-0"
140
12.0
141
12.0
290
     0
  0
TABLESTYLE
  5
6A
102
{ACAD_REACTORS
330
69
102
}
102
{ACAD_XDICTIONARY
360
2A0
102
}
330
69
100
AcDbTableStyle
  3
Standard
 70
     0
 71
     0
 40
0.06
 41
0.06
280
     0
281
     0
  7
Standard
140
4.5
170
     2
 62
     0
 63
   257
283
     0
 90
        4
 91
        0
  1

274
    -2
284
     1
 64
     0
275
    -2
285
     1
 65
     0
276
    -2
286
     1
 66
     0
277
    -2
287
     1
 67
     0
278
    -2
288
     1
 68
     0
279
    -2
289
     1
 69
     0
  7
Standard
140
6.0
170
     5
 62
     0
 63
   257
283
     0
 90
        4
 91
        0
  1

274
    -2
284
     1
 64
     0
275
    -2
285
     1
 65
     0
276
    -2
286
     1
 66
     0
277
    -2
287
     1
 67
     0
278
    -2
288
     1
 68
     0
279
    -2
289
     1
 69
     0
  7
Standard
140
4.5
170
     5
 62
     0
 63
   257
283
     0
 90
        4
 91
        0
  1

274
    -2
284
     1
 64
     0
275
    -2
285
     1
 65
     0
276
    -2
286
     1
 66
     0
277
    -2
287
     1
 67
     0
278
    -2
288
     1
 68
     0
279
    -2
289
     1
 69
     0
  0
VISUALSTYLE
  5
2F
102
{ACAD_REACTORS
330
2A
102
}
102
{ACAD_XDICTIONARY
360
278
102
}
330
2A
100
AcDbVisualStyle
  2
2dWireframe
 70
     4
 71
     0
 72
     2
 73
     0
 90
        0
 40
0.6
 41
30.0
 62
     5
 63
     7
421
 16777215
 74
     1
 91
        4
 64
     7
 65
   257
 75
     1
175
     1
 42
1.0
 92
        0
 66
   257
 43
1.0
 76
     1
 77
     6
 78
     2
 67
     7
 79
     5
170
     0
171
     0
290
     0
174
     0
 93
        1
 44
0.0
173
     0
291
     0
 45
0.0
  0
VISUALSTYLE
  5
32
102
{ACAD_REACTORS
330
2A
102
}
102
{ACAD_XDICTIONARY
360
27E
102
}
330
2A
100
AcDbVisualStyle
  2
Basic
 70
     7
 71
     1
 72
     0
 73
     1
 90
        0
 40
0.6
 41
30.0
 62
     5
 63
     7
421
 16777215
 74
     0
 91
        4
 64
     7
 65
   257
 75
     1
175
     1
 42
1.0
 92
        8
 66
     7
 43
1.0
 76
     1
 77
     6
 78
     2
 67
     7
 79
     5
170
     0
171
     0
290
     0
174
     0
 93
        1
 44
0.0
173
     0
291
     1
 45
0.0
  0
VISUALSTYLE
  5
36
102
{ACAD_REACTORS
330
2A
102
}
102
{ACAD_XDICTIONARY
360
286
102
}
330
2A
100
AcDbVisualStyle
  2
Brighten
 70
    12
 71
     2
 72
     2
 73
     0
 90
        0
 40
0.6
 41
30.0
 62
     5
 63
     7
421
 16777215
 74
     1
 91
        4
 64
     7
 65
   257
 75
     1
175
     1
 42
1.0
 92
        8
 66
     7
 43
1.0
 76
     1
 77
     6
 78
     2
 67
     7
 79
     5
170
     0
171
     0
290
     0
174
     0
 93
        1
 44
50.0
173
     0
291
     1
 45
0.0
  0
VISUALSTYLE
  5
3A
102
{ACAD_REACTORS
330
2A
102
}
102
{ACAD_XDICTIONARY
360
28E
102
}
330
2A
100
AcDbVisualStyle
  2
ColorChange
 70
    16
 71
     2
 72
     2
 73
     3
 90
        0
 40
0.6
 41
30.0
 62
     5
 63
     8
421
  8421504
 74
     1
 91
        4
 64
     7
 65
   257
 75
     1
175
     1
 42
1.0
 92
        8
 66
     8
424
  8421504
 43
1.0
 76
     1
 77
     6
 78
     2
 67
     7
 79
     5
170
     0
171
     0
290
     0
174
     0
 93
        1
 44
0.0
173
     0
291
     1
 45
0.0
  0
VISUALSTYLE
  5
34
102
{ACAD_REACTORS
330
2A
102
}
102
{ACAD_XDICTIONARY
360
282
102
}
330
2A
100
AcDbVisualStyle
  2
Conceptual
 70
     9
 71
     3
 72
     2
 73
     0
 90
        0
 40
0.6
 41
30.0
 62
     5
 63
     7
421
 16777215
 74
     2
 91
        2
 64
     7
 65
   257
 75
     1
175
     1
 42
179.0
 92
        8
 66
     7
 43
1.0
 76
     1
 77
     6
 78
     2
 67
     7
 79
     3
170
     0
171
     0
290
     0
174
     0
 93
        1
 44
0.0
173
     0
291
     0
 45
0.0
  0
VISUALSTYLE
  5
35
102
{ACAD_REACTORS
330
2A
102
}
102
{ACAD_XDICTIONARY
360
284
102
}
330
2A
100
AcDbVisualStyle
  2
Dim
 70
    11
 71
     2
 72
     2
 73
     0
 90
        0
 40
0.6
 41
30.0
 62
     5
 63
     7
421
 16777215
 74
     1
 91
        4
 64
     7
 65
   257
 75
     1
175
     1
 42
1.0
 92
        8
 66
     7
 43
1.0
 76
     1
 77
     6
 78
     2
 67
     7
 79
     5
170
     0
171
     0
290
     0
174
     0
 93
        1
 44
-50.0
173
     0
291
     1
 45
0.0
  0
VISUALSTYLE
  5
3D
102
{ACAD_REACTORS
330
2A
102
}
102
{ACAD_XDICTIONARY
360
294
102
}
330
2A
100
AcDbVisualStyle
  2
EdgeColorOff
 70
    22
 71
     2
 72
     2
 73
     0
 90
        0
 40
0.6
 41
30.0
 62
     5
 63
     7
421
 16777215
 74
     1
 91
        4
 64
     7
 65
   257
 75
     1
175
     1
 42
1.0
 92
        8
 66
     7
 43
1.0
 76
     1
 77
     6
 78
     2
 67
     7
 79
     5
170
     0
171
     0
290
     0
174
     0
 93
        1
 44
0.0
173
     0
291
     1
 45
0.0
  0
VISUALSTYLE
  5
39
102
{ACAD_REACTORS
330
2A
102
}
102
{ACAD_XDICTIONARY
360
28C
102
}
330
2A
100
AcDbVisualStyle
  2
Facepattern
 70
    15
 71
     2
 72
     2
 73
     0
 90
        0
 40
0.6
 41
30.0
 62
     5
 63
     7
421
 16777215
 74
     1
 91
        4
 64
     7
 65
   257
 75
     1
175
     1
 42
1.0
 92
        8
 66
     7
 43
1.0
 76
     1
 77
     6
 78
     2
 67
     7
 79
     5
170
     0
171
     0
290
     0
174
     0
 93
        1
 44
0.0
173
     0
291
     1
 45
0.0
  0
VISUALSTYLE
  5
2B
102
{ACAD_REACTORS
330
2A
102
}
102
{ACAD_XDICTIONARY
360
270
102
}
330
2A
100
AcDbVisualStyle
  2
Flat
 70
     0
 71
     2
 72
     1
 73
     1
 90
        2
 40
0.6
 41
30.0
 62
     5
 63
     7
421
 16777215
 74
     0
 91
        0
 64
     7
 65
   257
 75
     1
175
     1
 42
1.0
 92
        8
 66
     7
 43
1.0
 76
     1
 77
     6
 78
     2
 67
     7
 79
     5
170
     0
171
     0
290
     0
174
     0
 93
       13
 44
0.0
173
     0
291
     1
 45
0.0
  0
VISUALSTYLE
  5
2C
102
{ACAD_REACTORS
330
2A
102
}
102
{ACAD_XDICTIONARY
360
272
102
}
330
2A
100
AcDbVisualStyle
  2
FlatWithEdges
 70
     1
 71
     2
 72
     1
 73
     1
 90
        2
 40
0.6
 41
30.0
 62
     5
 63
     7
421
 16777215
 74
     1
 91
        0
 64
     7
 65
   257
 75
     1
175
     1
 42
1.0
 92
        0
 66
   257
 43
1.0
 76
     1
 77
     6
 78
     2
 67
     7
 79
     5
170
     0
171
     0
290
     0
174
     0
 93
       13
 44
0.0
173
     0
291
     1
 45
0.0
  0
VISUALSTYLE
  5
2D
102
{ACAD_REACTORS
330
2A
102
}
102
{ACAD_XDICTIONARY
360
274
102
}
330
2A
100
AcDbVisualStyle
  2
Gouraud
 70
     2
 71
     2
 72
     2
 73
     1
 90
        2
 40
0.6
 41
30.0
 62
     5
 63
     7
421
 16777215
 74
     0
 91
        0
 64
     7
 65
   257
 75
     1
175
     1
 42
1.0
 92
        0
 66
     7
 43
1.0
 76
     1
 77
     6
 78
     2
 67
     7
 79
     5
170
     0
171
     0
290
     0
174
     0
 93
       13
 44
0.0
173
     0
291
     1
 45
0.0
  0
VISUALSTYLE
  5
2E
102
{ACAD_REACTORS
330
2A
102
}
102
{ACAD_XDICTIONARY
360
276
102
}
330
2A
100
AcDbVisualStyle
  2
GouraudWithEdges
 70
     3
 71
     2
 72
     2
 73
     1
 90
        2
 40
0.6
 41
30.0
 62
     5
 63
     7
421
 16777215
 74
     1
 91
        0
 64
     7
 65
   257
 75
     1
175
     1
 42
1.0
 92
        0
 66
   257
 43
1.0
 76
     1
 77
     6
 78
     2
 67
     7
 79
     5
170
     0
171
     0
290
     0
174
     0
 93
       13
 44
0.0
173
     0
291
     1
 45
0.0
  0
VISUALSTYLE
  5
31
102
{ACAD_REACTORS
330
2A
102
}
102
{ACAD_XDICTIONARY
360
27C
102
}
330
2A
100
AcDbVisualStyle
  2
Hidden
 70
     6
 71
     1
 72
     2
 73
     2
 90
        0
 40
0.6
 41
30.0
 62
     5
 63
     7
421
 16777215
 74
     2
 91
        2
 64
     7
 65
   257
 75
     2
175
     1
 42
40.0
 92
        0
 66
   257
 43
1.0
 76
     1
 77
     6
 78
     2
 67
     7
 79
     3
170
     0
171
     0
290
     0
174
     0
 93
        1
 44
0.0
173
     0
291
     0
 45
0.0
  0
VISUALSTYLE
  5
3B
102
{ACAD_REACTORS
330
2A
102
}
102
{ACAD_XDICTIONARY
360
290
102
}
330
2A
100
AcDbVisualStyle
  2
JitterOff
 70
    20
 71
     2
 72
     2
 73
     0
 90
        0
 40
0.6
 41
30.0
 62
     5
 63
     7
421
 16777215
 74
     1
 91
        4
 64
     7
 65
   257
 75
     1
175
     1
 42
1.0
 92
       10
 66
     7
 43
1.0
 76
     1
 77
     6
 78
     2
 67
     7
 79
     5
170
     0
171
     0
290
     0
174
     0
 93
        1
 44
0.0
173
     0
291
     1
 45
0.0
  0
VISUALSTYLE
  5
38
102
{ACAD_REACTORS
330
2A
102
}
102
{ACAD_XDICTIONARY
360
28A
102
}
330
2A
100
AcDbVisualStyle
  2
Linepattern
 70
    14
 71
     2
 72
     2
 73
     0
 90
        0
 40
0.6
 41
30.0
 62
     5
 63
     7
421
 16777215
 74
     1
 91
        4
 64
     7
 65
   257
 75
     7
175
     7
 42
1.0
 92
        8
 66
     7
 43
1.0
 76
     1
 77
     6
 78
     2
 67
     7
 79
     5
170
     0
171
     0
290
     0
174
     0
 93
        1
 44
0.0
173
     0
291
     1
 45
0.0
  0
VISUALSTYLE
  5
3C
102
{ACAD_REACTORS
330
2A
102
}
102
{ACAD_XDICTIONARY
360
292
102
}
330
2A
100
AcDbVisualStyle
  2
OverhangOff
 70
    21
 71
     2
 72
     2
 73
     0
 90
        0
 40
0.6
 41
30.0
 62
     5
 63
     7
421
 16777215
 74
     1
 91
        4
 64
     7
 65
   257
 75
     1
175
     1
 42
1.0
 92
        9
 66
     7
 43
1.0
 76
     1
 77
     6
 78
     2
 67
     7
 79
     5
170
     0
171
     0
290
     0
174
     0
 93
        1
 44
0.0
173
     0
291
     1
 45
0.0
  0
VISUALSTYLE
  5
33
102
{ACAD_REACTORS
330
2A
102
}
102
{ACAD_XDICTIONARY
360
280
102
}
330
2A
100
AcDbVisualStyle
  2
Realistic
 70
     8
 71
     2
 72
     3
 73
     0
 90
        2
 40
0.6
 41
30.0
 62
     5
 63
     7
421
 16777215
 74
     0
 91
        0
 64
     7
 65
   257
 75
     1
175
     1
 42
1.0
 92
        8
 66
   257
 43
1.0
 76
     1
 77
     6
 78
     2
 67
     7
 79
     3
170
     0
171
     0
290
     0
174
     0
 93
       13
 44
0.0
173
     0
291
     0
 45
0.0
  0
VISUALSTYLE
  5
42
102
{ACAD_REACTORS
330
2A
102
}
102
{ACAD_XDICTIONARY
360
29E
102
}
330
2A
100
AcDbVisualStyle
  2
Shaded
 70
    27
 71
     2
 72
     2
 73
     1
 90
        2
 40
0.6
 41
30.0
 62
     5
 63
     7
421
 16777215
 74
     0
 91
        4
 64
     7
 65
   257
 75
     1
175
     1
 42
1.0
 92
        8
 66
   257
 43
1.0
 76
     1
 77
     6
 78
     2
 67
     8
425
  7895160
 79
     3
170
     0
171
     0
290
     0
174
     0
 93
        5
 44
0.0
173
     0
291
     0
 45
0.0
  0
VISUALSTYLE
  5
41
102
{ACAD_REACTORS
330
2A
102
}
102
{ACAD_XDICTIONARY
360
29C
102
}
330
2A
100
AcDbVisualStyle
  2
Shaded with edges
 70
    26
 71
     2
 72
     2
 73
     1
 90
        2
 40
0.6
 41
30.0
 62
     5
 63
     7
421
 16777215
 74
     1
 91
       10
 64
     7
 65
   257
 75
     2
175
     1
 42
1.0
 92
        8
 66
   257
 43
1.0
 76
     1
 77
     6
 78
     2
 67
     7
 79
     3
170
     0
171
     0
290
     0
174
     0
 93
        5
 44
0.0
173
     0
291
     0
 45
0.0
  0
VISUALSTYLE
  5
3E
102
{ACAD_REACTORS
330
2A
102
}
102
{ACAD_XDICTIONARY
360
296
102
}
330
2A
100
AcDbVisualStyle
  2
Shades of Gray
 70
    23
 71
     2
 72
     2
 73
     3
 90
        0
 40
0.6
 41
30.0
 62
     5
 63
     7
421
 16777215
 74
     2
 91
        2
 64
     7
 65
     7
 75
     1
175
     1
 42
40.0
 92
        8
 66
     7
 43
1.0
 76
     1
 77
     6
 78
     2
 67
     7
 79
     3
170
     0
171
     0
290
     0
174
     0
 93
        1
 44
0.0
173
     0
291
     0
 45
0.0
  0
VISUALSTYLE
  5
3F
102
{ACAD_REACTORS
330
2A
102
}
102
{ACAD_XDICTIONARY
360
298
102
}
330
2A
100
AcDbVisualStyle
  2
Sketchy
 70
    24
 71
     1
 72
     2
 73
     2
 90
        0
 40
0.6
 41
30.0
 62
     5
 63
     7
421
 16777215
 74
     2
 91
        2
 64
     7
 65
     7
 75
     1
175
     1
 42
40.0
 92
       11
 66
     7
 43
1.0
 76
     1
 77
     6
 78
     2
 67
     7
 79
     6
170
     0
171
     0
290
     0
174
     0
 93
        1
 44
0.0
173
     0
291
     0
 45
0.0
  0
VISUALSTYLE
  5
37
102
{ACAD_REACTORS
330
2A
102
}
102
{ACAD_XDICTIONARY
360
288
102
}
330
2A
100
AcDbVisualStyle
  2
Thicken
 70
    13
 71
     2
 72
     2
 73
     0
 90
        0
 40
0.6
 41
30.0
 62
     5
 63
     7
421
 16777215
 74
     1
 91
        4
 64
     7
 65
   257
 75
     1
175
     1
 42
1.0
 92
       12
 66
     7
 43
1.0
 76
     1
 77
     6
 78
     2
 67
     7
 79
     5
170
     0
171
     0
290
     0
174
     0
 93
        1
 44
0.0
173
     0
291
     1
 45
0.0
  0
VISUALSTYLE
  5
30
102
{ACAD_REACTORS
330
2A
102
}
102
{ACAD_XDICTIONARY
360
27A
102
}
330
2A
100
AcDbVisualStyle
  2
Wireframe
 70
     5
 71
     0
 72
     2
 73
     0
 90
        0
 40
0.6
 41
30.0
 62
     5
 63
     7
421
 16777215
 74
     1
 91
        4
 64
     7
 65
   257
 75
     1
175
     1
 42
1.0
 92
        0
 66
   257
 43
1.0
 76
     1
 77
     6
 78
     2
 67
     7
 79
     3
170
     0
171
     0
290
     0
174
     0
 93
        1
 44
0.0
173
     0
291
     0
 45
0.0
  0
VISUALSTYLE
  5
40
102
{ACAD_REACTORS
330
2A
102
}
102
{ACAD_XDICTIONARY
360
29A
102
}
330
2A
100
AcDbVisualStyle
  2
X-Ray
 70
    25
 71
     2
 72
     2
 73
     1
 90
        1
 40
0.5
 41
30.0
 62
     5
 63
     7
421
 16777215
 74
     1
 91
        0
 64
     7
 65
   257
 75
     1
175
     1
 42
1.0
 92
        8
 66
     7
 43
1.0
 76
     1
 77
     6
 78
     2
 67
     7
 79
     3
170
     0
171
     0
290
     0
174
     0
 93
       13
 44
0.0
173
     0
291
     0
 45
0.0
  0
DICTIONARYVAR
  5
26E
102
{ACAD_REACTORS
330
26D
102
}
330
26D
100
DictionaryVariables
280
     0
  1
1:1
  0
DICTIONARYVAR
  5
2AA
102
{ACAD_REACTORS
330
26D
102
}
330
26D
100
DictionaryVariables
280
     0
  1
3.500000
  0
DICTIONARYVAR
  5
2AB
102
{ACAD_REACTORS
330
26D
102
}
330
26D
100
DictionaryVariables
280
     0
  1
acadiso.lin
  0
DICTIONARYVAR
  5
2A7
102
{ACAD_REACTORS
330
26D
102
}
330
26D
100
DictionaryVariables
280
     0
  1
Standard
  0
DICTIONARYVAR
  5
2A6
102
{ACAD_REACTORS
330
26D
102
}
330
26D
100
DictionaryVariables
280
     0
  1
Standard
  0
DICTIONARYVAR
  5
26F
102
{ACAD_REACTORS
330
26D
102
}
330
26D
100
DictionaryVariables
280
     0
  1
2
  0
DICTIONARY
  5
2A3
330
6C
100
AcDbDictionary
280
     1
281
     1
  3
ACAD_XREC_ROUNDTRIP
360
2A4
  0
DICTIONARY
  5
2A0
330
6A
100
AcDbDictionary
280
     1
281
     1
  3
ACAD_ROUNDTRIP_2008_TABLESTYLE_CELLSTYLEMAP
360
2A1
  0
DICTIONARY
  5
278
330
2F
100
AcDbDictionary
280
     1
281
     1
  3
ACAD_XREC_ROUNDTRIP
360
279
  0
DICTIONARY
  5
27E
330
32
100
AcDbDictionary
280
     1
281
     1
  3
ACAD_XREC_ROUNDTRIP
360
27F
  0
DICTIONARY
  5
286
330
36
100
AcDbDictionary
280
     1
281
     1
  3
ACAD_XREC_ROUNDTRIP
360
287
  0
DICTIONARY
  5
28E
330
3A
100
AcDbDictionary
280
     1
281
     1
  3
ACAD_XREC_ROUNDTRIP
360
28F
  0
DICTIONARY
  5
282
330
34
100
AcDbDictionary
280
     1
281
     1
  3
ACAD_XREC_ROUNDTRIP
360
283
  0
DICTIONARY
  5
284
330
35
100
AcDbDictionary
280
     1
281
     1
  3
ACAD_XREC_ROUNDTRIP
360
285
  0
DICTIONARY
  5
294
330
3D
100
AcDbDictionary
280
     1
281
     1
  3
ACAD_XREC_ROUNDTRIP
360
295
  0
DICTIONARY
  5
28C
330
39
100
AcDbDictionary
280
     1
281
     1
  3
ACAD_XREC_ROUNDTRIP
360
28D
  0
DICTIONARY
  5
270
330
2B
100
AcDbDictionary
280
     1
281
     1
  3
ACAD_XREC_ROUNDTRIP
360
271
  0
DICTIONARY
  5
272
330
2C
100
AcDbDictionary
280
     1
281
     1
  3
ACAD_XREC_ROUNDTRIP
360
273
  0
DICTIONARY
  5
274
330
2D
100
AcDbDictionary
280
     1
281
     1
  3
ACAD_XREC_ROUNDTRIP
360
275
  0
DICTIONARY
  5
276
330
2E
100
AcDbDictionary
280
     1
281
     1
  3
ACAD_XREC_ROUNDTRIP
360
277
  0
DICTIONARY
  5
27C
330
31
100
AcDbDictionary
280
     1
281
     1
  3
ACAD_XREC_ROUNDTRIP
360
27D
  0
DICTIONARY
  5
290
330
3B
100
AcDbDictionary
280
     1
281
     1
  3
ACAD_XREC_ROUNDTRIP
360
291
  0
DICTIONARY
  5
28A
330
38
100
AcDbDictionary
280
     1
281
     1
  3
ACAD_XREC_ROUNDTRIP
360
28B
  0
DICTIONARY
  5
292
330
3C
100
AcDbDictionary
280
     1
281
     1
  3
ACAD_XREC_ROUNDTRIP
360
293
  0
DICTIONARY
  5
280
330
33
100
AcDbDictionary
280
     1
281
     1
  3
ACAD_XREC_ROUNDTRIP
360
281
  0
DICTIONARY
  5
29E
330
42
100
AcDbDictionary
280
     1
281
     1
  3
ACAD_XREC_ROUNDTRIP
360
29F
  0
DICTIONARY
  5
29C
330
41
100
AcDbDictionary
280
     1
281
     1
  3
ACAD_XREC_ROUNDTRIP
360
29D
  0
DICTIONARY
  5
296
330
3E
100
AcDbDictionary
280
     1
281
     1
  3
ACAD_XREC_ROUNDTRIP
360
297
  0
DICTIONARY
  5
298
330
3F
100
AcDbDictionary
280
     1
281
     1
  3
ACAD_XREC_ROUNDTRIP
360
299
  0
DICTIONARY
  5
288
330
37
100
AcDbDictionary
280
     1
281
     1
  3
ACAD_XREC_ROUNDTRIP
360
289
  0
DICTIONARY
  5
27A
330
30
100
AcDbDictionary
280
     1
281
     1
  3
ACAD_XREC_ROUNDTRIP
360
27B
  0
DICTIONARY
  5
29A
330
40
100
AcDbDictionary
280
     1
281
     1
  3
ACAD_XREC_ROUNDTRIP
360
29B
  0
XRECORD
  5
2A4
102
{ACAD_REACTORS
330
2A3
102
}
330
2A3
100
AcDbXrecord
280
     1
102
ACAD_ROUNDTRIP_2010_MLEADER_STYLE
  0
CELLSTYLEMAP
  5
2A1
102
{ACAD_REACTORS
330
2A0
102
}
330
2A0
100
AcDbCellStyleMap
 90
        3
300
CELLSTYLE
  1
TABLEFORMAT_BEGIN
 90
        5
170
     1
 91
        0
 92
    32768
 62
   257
 93
        1
300
CONTENTFORMAT
  1
CONTENTFORMAT_BEGIN
 90
        0
 91
        0
 92
        4
 93
        0
300

 40
0.0
140
1.0
 94
        5
 62
     0
340
11
144
6.0
309
CONTENTFORMAT_END
171
     1
301
MARGIN
  1
CELLMARGIN_BEGIN
 40
1.5
 40
1.5
 40
1.5
 40
1.5
 40
1.5
 40
1.5
309
CELLMARGIN_END
 94
        6
 95
        1
302
GRIDFORMAT
  1
GRIDFORMAT_BEGIN
 90
        0
 91
        1
 62
     0
 92
       -2
340
14
 93
        0
 40
0.045
309
GRIDFORMAT_END
 95
        2
302
GRIDFORMAT
  1
GRIDFORMAT_BEGIN
 90
        0
 91
        1
 62
     0
 92
       -2
340
14
 93
        0
 40
0.045
309
GRIDFORMAT_END
 95
        4
302
GRIDFORMAT
  1
GRIDFORMAT_BEGIN
 90
        0
 91
        1
 62
     0
 92
       -2
340
14
 93
        0
 40
0.045
309
GRIDFORMAT_END
 95
        8
302
GRIDFORMAT
  1
GRIDFORMAT_BEGIN
 90
        0
 91
        1
 62
     0
 92
       -2
340
14
 93
        0
 40
0.045
309
GRIDFORMAT_END
 95
       16
302
GRIDFORMAT
  1
GRIDFORMAT_BEGIN
 90
        0
 91
        1
 62
     0
 92
       -2
340
14
 93
        0
 40
0.045
309
GRIDFORMAT_END
 95
       32
302
GRIDFORMAT
  1
GRIDFORMAT_BEGIN
 90
        0
 91
        1
 62
     0
 92
       -2
340
14
 93
        0
 40
0.045
309
GRIDFORMAT_END
309
TABLEFORMAT_END
  1
CELLSTYLE_BEGIN
 90
        1
 91
        1
300
_TITLE
309
CELLSTYLE_END
300
CELLSTYLE
  1
TABLEFORMAT_BEGIN
 90
        5
170
     1
 91
        0
 92
        0
 62
   257
 93
        1
300
CONTENTFORMAT
  1
CONTENTFORMAT_BEGIN
 90
        0
 91
        0
 92
        4
 93
        0
300

 40
0.0
140
1.0
 94
        5
 62
     0
340
11
144
4.5
309
CONTENTFORMAT_END
171
     1
301
MARGIN
  1
CELLMARGIN_BEGIN
 40
1.5
 40
1.5
 40
1.5
 40
1.5
 40
1.5
 40
1.5
309
CELLMARGIN_END
 94
        6
 95
        1
302
GRIDFORMAT
  1
GRIDFORMAT_BEGIN
 90
        0
 91
        1
 62
     0
 92
       -2
340
14
 93
        0
 40
0.045
309
GRIDFORMAT_END
 95
        2
302
GRIDFORMAT
  1
GRIDFORMAT_BEGIN
 90
        0
 91
        1
 62
     0
 92
       -2
340
14
 93
        0
 40
0.045
309
GRIDFORMAT_END
 95
        4
302
GRIDFORMAT
  1
GRIDFORMAT_BEGIN
 90
        0
 91
        1
 62
     0
 92
       -2
340
14
 93
        0
 40
0.045
309
GRIDFORMAT_END
 95
        8
302
GRIDFORMAT
  1
GRIDFORMAT_BEGIN
 90
        0
 91
        1
 62
     0
 92
       -2
340
14
 93
        0
 40
0.045
309
GRIDFORMAT_END
 95
       16
302
GRIDFORMAT
  1
GRIDFORMAT_BEGIN
 90
        0
 91
        1
 62
     0
 92
       -2
340
14
 93
        0
 40
0.045
309
GRIDFORMAT_END
 95
       32
302
GRIDFORMAT
  1
GRIDFORMAT_BEGIN
 90
        0
 91
        1
 62
     0
 92
       -2
340
14
 93
        0
 40
0.045
309
GRIDFORMAT_END
309
TABLEFORMAT_END
  1
CELLSTYLE_BEGIN
 90
        2
 91
        1
300
_HEADER
309
CELLSTYLE_END
300
CELLSTYLE
  1
TABLEFORMAT_BEGIN
 90
        5
170
     1
 91
        0
 92
        0
 62
   257
 93
        1
300
CONTENTFORMAT
  1
CONTENTFORMAT_BEGIN
 90
        0
 91
        0
 92
        4
 93
        0
300

 40
0.0
140
1.0
 94
        2
 62
     0
340
11
144
4.5
309
CONTENTFORMAT_END
171
     1
301
MARGIN
  1
CELLMARGIN_BEGIN
 40
1.5
 40
1.5
 40
1.5
 40
1.5
 40
1.5
 40
1.5
309
CELLMARGIN_END
 94
        6
 95
        1
302
GRIDFORMAT
  1
GRIDFORMAT_BEGIN
 90
        0
 91
        1
 62
     0
 92
       -2
340
14
 93
        0
 40
0.045
309
GRIDFORMAT_END
 95
        2
302
GRIDFORMAT
  1
GRIDFORMAT_BEGIN
 90
        0
 91
        1
 62
     0
 92
       -2
340
14
 93
        0
 40
0.045
309
GRIDFORMAT_END
 95
        4
302
GRIDFORMAT
  1
GRIDFORMAT_BEGIN
 90
        0
 91
        1
 62
     0
 92
       -2
340
14
 93
        0
 40
0.045
309
GRIDFORMAT_END
 95
        8
302
GRIDFORMAT
  1
GRIDFORMAT_BEGIN
 90
        0
 91
        1
 62
     0
 92
       -2
340
14
 93
        0
 40
0.045
309
GRIDFORMAT_END
 95
       16
302
GRIDFORMAT
  1
GRIDFORMAT_BEGIN
 90
        0
 91
        1
 62
     0
 92
       -2
340
14
 93
        0
 40
0.045
309
GRIDFORMAT_END
 95
       32
302
GRIDFORMAT
  1
GRIDFORMAT_BEGIN
 90
        0
 91
        1
 62
     0
 92
       -2
340
14
 93
        0
 40
0.045
309
GRIDFORMAT_END
309
TABLEFORMAT_END
  1
CELLSTYLE_BEGIN
 90
        3
 91
        2
300
_DATA
309
CELLSTYLE_END
  0
XRECORD
  5
279
102
{ACAD_REACTORS
330
278
102
}
330
278
100
AcDbXrecord
280
     1
102
RTVSPropertyOp0
 70
     1
102
RTVSPropertyOp1
 70
     1
102
RTVSPropertyOp2
 70
     1
102
RTVSPropertyOp3
 70
     1
102
RTVSPropertyOp4
 70
     1
102
RTVSPropertyOp5
 70
     1
102
RTVSPropertyOp6
 70
     1
102
RTVSPropertyOp7
 70
     1
102
RTVSPropertyOp8
 70
     1
102
RTVSPropertyOp9
 70
     1
102
RTVSPropertyOp10
 70
     1
102
RTVSPropertyOp11
 70
     1
102
RTVSPropertyOp12
 70
     1
102
RTVSPropertyOp13
 70
     1
102
RTVSPropertyOp14
 70
     1
102
RTVSPropertyOp15
 70
     1
102
RTVSPropertyOp16
 70
     1
102
RTVSPropertyOp17
 70
     1
102
RTVSPropertyOp18
 70
     1
102
RTVSPropertyOp19
 70
     1
102
RTVSPropertyOp20
 70
     1
102
RTVSPropertyOp21
 70
     1
102
RTVSPropertyOp22
 70
     1
102
RTVSPropertyOp23
 70
     1
102
RTVSPropertyOp24
 70
     1
102
RTVSPropertyOp25
 70
     1
102
RTVSPropertyOp26
 70
     1
102
RTVSPropertyOp27
 70
     1
102
RTVSPropertyOp28
 70
     1
102
RTVSPropertyOp29
 70
     1
102
RTVSPropertyOp30
 70
     1
102
RTVSPropertyOp31
 70
     1
102
RTVSPropertyOp32
 70
     1
102
RTVSPropertyOp33
 70
     1
102
RTVSPropertyOp34
 70
     1
102
RTVSPropertyOp35
 70
     1
102
RTVSPropertyOp36
 70
     1
102
RTVSPropertyOp37
 70
     1
102
RTVSPropertyOp38
 70
     1
102
RTVSPropertyOp39
 70
     1
102
RTVSPropertyOp40
 70
     1
102
RTVSPropertyOp41
 70
     1
102
RTVSPropertyOp42
 70
     1
102
RTVSPropertyOp43
 70
     1
102
RTVSPropertyOp44
 70
     1
102
RTVSPropertyOp45
 70
     1
102
RTVSPropertyOp46
 70
     1
102
RTVSPropertyOp47
 70
     1
102
RTVSPropertyOp48
 70
     1
102
RTVSPropertyOp49
 70
     1
102
RTVSPropertyOp50
 70
     1
102
RTVSPropertyOp51
 70
     0
102
RTVSPropertyOp52
 70
     0
102
RTVSPropertyOp53
 70
     1
102
RTVSPropertyOp54
 70
     1
102
RTVSPropertyOp55
 70
     1
102
RTVSPropertyOp56
 70
     1
102
RTVSPropertyOp57
 70
     1
102
RTVSPost2010Prop28
280
     1
102
RTVSPost2010PropOp28
 70
     1
102
RTVSPost2010Prop29
280
     1
102
RTVSPost2010PropOp29
 70
     1
102
RTVSPost2010Prop30
280
     0
102
RTVSPost2010PropOp30
 70
     1
102
RTVSPost2010Prop31
280
     0
102
RTVSPost2010PropOp31
 70
     1
102
RTVSPost2010Prop32
280
     0
102
RTVSPost2010PropOp32
 70
     1
102
RTVSPost2010Prop33
280
     0
102
RTVSPost2010PropOp33
 70
     1
102
RTVSPost2010Prop34
280
     0
102
RTVSPost2010PropOp34
 70
     1
102
RTVSPost2010Prop35
280
     0
102
RTVSPost2010PropOp35
 70
     1
102
RTVSPost2010Prop36
280
     0
102
RTVSPost2010PropOp36
 70
     1
102
RTVSPost2010Prop37
 90
       50
102
RTVSPost2010PropOp37
 70
     1
102
RTVSPost2010Prop38
140
0.0
102
RTVSPost2010PropOp38
 70
     1
102
RTVSPost2010Prop39
140
1.0
102
RTVSPost2010PropOp39
 70
     1
102
RTVSPost2010Prop40
 90
        0
102
RTVSPost2010PropOp40
 70
     1
102
RTVSPost2010Prop41ColorIndex
 90
       18
102
RTVSPost2010Prop41ColorRGB
 90
        0
102
RTVSPost2010PropOp41
 70
     1
102
RTVSPost2010Prop42
 90
       50
102
RTVSPost2010PropOp42
 70
     1
102
RTVSPost2010Prop43
 90
        3
102
RTVSPost2010PropOp43
 70
     1
102
RTVSPost2010Prop44ColorIndex
 90
        5
102
RTVSPost2010Prop44ColorRGB
 90
      255
102
RTVSPost2010PropOp44
 70
     1
102
RTVSPost2010Prop45
280
     0
102
RTVSPost2010PropOp45
 70
     1
102
RTVSPost2010Prop46
 90
       50
102
RTVSPost2010PropOp46
 70
     1
102
RTVSPost2010Prop47
 90
       50
102
RTVSPost2010PropOp47
 70
     1
102
RTVSPost2010Prop48
 90
       50
102
RTVSPost2010PropOp48
 70
     1
102
RTVSPost2010Prop49
280
     0
102
RTVSPost2010PropOp49
 70
     1
102
RTVSPost2010Prop50
 90
       50
102
RTVSPost2010PropOp50
 70
     1
102
RTVSPost2010Prop51ColorIndex
 90
      256
102
RTVSPost2010Prop51ColorRGB
 90
-16777216
102
RTVSPost2010PropOp51
 70
     0
102
RTVSPost2010Prop52
140
1.0
102
RTVSPost2010PropOp52
 70
     0
102
RTVSPost2010Prop53
 90
        2
102
RTVSPost2010PropOp53
 70
     1
102
RTVSPost2010Prop54
  1
strokes_ogs.tif
102
RTVSPost2010PropOp54
 70
     1
102
RTVSPost2010Prop55
280
     0
102
RTVSPost2010PropOp55
 70
     1
102
RTVSPost2010Prop56
140
1.0
102
RTVSPost2010PropOp56
 70
     1
102
RTVSPost2010Prop57
140
1.0
102
RTVSPost2010PropOp57
 70
     1
  0
XRECORD
  5
27F
102
{ACAD_REACTORS
330
27E
102
}
330
27E
100
AcDbXrecord
280
     1
102
RTVSPropertyOp0
 70
     1
102
RTVSPropertyOp1
 70
     1
102
RTVSPropertyOp2
 70
     1
102
RTVSPropertyOp3
 70
     1
102
RTVSPropertyOp4
 70
     1
102
RTVSPropertyOp5
 70
     1
102
RTVSPropertyOp6
 70
     1
102
RTVSPropertyOp7
 70
     1
102
RTVSPropertyOp8
 70
     1
102
RTVSPropertyOp9
 70
     1
102
RTVSPropertyOp10
 70
     1
102
RTVSPropertyOp11
 70
     1
102
RTVSPropertyOp12
 70
     1
102
RTVSPropertyOp13
 70
     1
102
RTVSPropertyOp14
 70
     1
102
RTVSPropertyOp15
 70
     1
102
RTVSPropertyOp16
 70
     1
102
RTVSPropertyOp17
 70
     1
102
RTVSPropertyOp18
 70
     1
102
RTVSPropertyOp19
 70
     1
102
RTVSPropertyOp20
 70
     1
102
RTVSPropertyOp21
 70
     1
102
RTVSPropertyOp22
 70
     1
102
RTVSPropertyOp23
 70
     1
102
RTVSPropertyOp24
 70
     1
102
RTVSPropertyOp25
 70
     1
102
RTVSPropertyOp26
 70
     1
102
RTVSPropertyOp27
 70
     1
102
RTVSPropertyOp28
 70
     1
102
RTVSPropertyOp29
 70
     1
102
RTVSPropertyOp30
 70
     1
102
RTVSPropertyOp31
 70
     1
102
RTVSPropertyOp32
 70
     1
102
RTVSPropertyOp33
 70
     1
102
RTVSPropertyOp34
 70
     1
102
RTVSPropertyOp35
 70
     1
102
RTVSPropertyOp36
 70
     1
102
RTVSPropertyOp37
 70
     1
102
RTVSPropertyOp38
 70
     1
102
RTVSPropertyOp39
 70
     1
102
RTVSPropertyOp40
 70
     1
102
RTVSPropertyOp41
 70
     1
102
RTVSPropertyOp42
 70
     1
102
RTVSPropertyOp43
 70
     1
102
RTVSPropertyOp44
 70
     1
102
RTVSPropertyOp45
 70
     1
102
RTVSPropertyOp46
 70
     1
102
RTVSPropertyOp47
 70
     1
102
RTVSPropertyOp48
 70
     1
102
RTVSPropertyOp49
 70
     1
102
RTVSPropertyOp50
 70
     1
102
RTVSPropertyOp51
 70
     0
102
RTVSPropertyOp52
 70
     0
102
RTVSPropertyOp53
 70
     1
102
RTVSPropertyOp54
 70
     1
102
RTVSPropertyOp55
 70
     1
102
RTVSPropertyOp56
 70
     1
102
RTVSPropertyOp57
 70
     1
102
RTVSPost2010Prop28
280
     0
102
RTVSPost2010PropOp28
 70
     1
102
RTVSPost2010Prop29
280
     1
102
RTVSPost2010PropOp29
 70
     1
102
RTVSPost2010Prop30
280
     1
102
RTVSPost2010PropOp30
 70
     1
102
RTVSPost2010Prop31
280
     0
102
RTVSPost2010PropOp31
 70
     1
102
RTVSPost2010Prop32
280
     0
102
RTVSPost2010PropOp32
 70
     1
102
RTVSPost2010Prop33
280
     0
102
RTVSPost2010PropOp33
 70
     1
102
RTVSPost2010Prop34
280
     0
102
RTVSPost2010PropOp34
 70
     1
102
RTVSPost2010Prop35
280
     0
102
RTVSPost2010PropOp35
 70
     1
102
RTVSPost2010Prop36
280
     0
102
RTVSPost2010PropOp36
 70
     1
102
RTVSPost2010Prop37
 90
       50
102
RTVSPost2010PropOp37
 70
     1
102
RTVSPost2010Prop38
140
0.0
102
RTVSPost2010PropOp38
 70
     1
102
RTVSPost2010Prop39
140
1.0
102
RTVSPost2010PropOp39
 70
     1
102
RTVSPost2010Prop40
 90
        0
102
RTVSPost2010PropOp40
 70
     1
102
RTVSPost2010Prop41ColorIndex
 90
       18
102
RTVSPost2010Prop41ColorRGB
 90
        0
102
RTVSPost2010PropOp41
 70
     1
102
RTVSPost2010Prop42
 90
       50
102
RTVSPost2010PropOp42
 70
     1
102
RTVSPost2010Prop43
 90
        3
102
RTVSPost2010PropOp43
 70
     1
102
RTVSPost2010Prop44ColorIndex
 90
        5
102
RTVSPost2010Prop44ColorRGB
 90
      255
102
RTVSPost2010PropOp44
 70
     1
102
RTVSPost2010Prop45
280
     0
102
RTVSPost2010PropOp45
 70
     1
102
RTVSPost2010Prop46
 90
       50
102
RTVSPost2010PropOp46
 70
     1
102
RTVSPost2010Prop47
 90
       50
102
RTVSPost2010PropOp47
 70
     1
102
RTVSPost2010Prop48
 90
       50
102
RTVSPost2010PropOp48
 70
     1
102
RTVSPost2010Prop49
280
     0
102
RTVSPost2010PropOp49
 70
     1
102
RTVSPost2010Prop50
 90
       50
102
RTVSPost2010PropOp50
 70
     1
102
RTVSPost2010Prop51ColorIndex
 90
      256
102
RTVSPost2010Prop51ColorRGB
 90
-16777216
102
RTVSPost2010PropOp51
 70
     0
102
RTVSPost2010Prop52
140
1.0
102
RTVSPost2010PropOp52
 70
     0
102
RTVSPost2010Prop53
 90
        2
102
RTVSPost2010PropOp53
 70
     1
102
RTVSPost2010Prop54
  1
strokes_ogs.tif
102
RTVSPost2010PropOp54
 70
     1
102
RTVSPost2010Prop55
280
     0
102
RTVSPost2010PropOp55
 70
     1
102
RTVSPost2010Prop56
140
1.0
102
RTVSPost2010PropOp56
 70
     1
102
RTVSPost2010Prop57
140
1.0
102
RTVSPost2010PropOp57
 70
     1
  0
XRECORD
  5
287
102
{ACAD_REACTORS
330
286
102
}
330
286
100
AcDbXrecord
280
     1
102
RTVSPropertyOp0
 70
     1
102
RTVSPropertyOp1
 70
     1
102
RTVSPropertyOp2
 70
     1
102
RTVSPropertyOp3
 70
     1
102
RTVSPropertyOp4
 70
     1
102
RTVSPropertyOp5
 70
     1
102
RTVSPropertyOp6
 70
     1
102
RTVSPropertyOp7
 70
     1
102
RTVSPropertyOp8
 70
     1
102
RTVSPropertyOp9
 70
     1
102
RTVSPropertyOp10
 70
     1
102
RTVSPropertyOp11
 70
     1
102
RTVSPropertyOp12
 70
     1
102
RTVSPropertyOp13
 70
     1
102
RTVSPropertyOp14
 70
     1
102
RTVSPropertyOp15
 70
     1
102
RTVSPropertyOp16
 70
     1
102
RTVSPropertyOp17
 70
     1
102
RTVSPropertyOp18
 70
     1
102
RTVSPropertyOp19
 70
     1
102
RTVSPropertyOp20
 70
     1
102
RTVSPropertyOp21
 70
     1
102
RTVSPropertyOp22
 70
     1
102
RTVSPropertyOp23
 70
     1
102
RTVSPropertyOp24
 70
     1
102
RTVSPropertyOp25
 70
     1
102
RTVSPropertyOp26
 70
     1
102
RTVSPropertyOp27
 70
     1
102
RTVSPropertyOp28
 70
     1
102
RTVSPropertyOp29
 70
     1
102
RTVSPropertyOp30
 70
     1
102
RTVSPropertyOp31
 70
     1
102
RTVSPropertyOp32
 70
     1
102
RTVSPropertyOp33
 70
     1
102
RTVSPropertyOp34
 70
     1
102
RTVSPropertyOp35
 70
     1
102
RTVSPropertyOp36
 70
     1
102
RTVSPropertyOp37
 70
     1
102
RTVSPropertyOp38
 70
     1
102
RTVSPropertyOp39
 70
     1
102
RTVSPropertyOp40
 70
     1
102
RTVSPropertyOp41
 70
     1
102
RTVSPropertyOp42
 70
     1
102
RTVSPropertyOp43
 70
     1
102
RTVSPropertyOp44
 70
     1
102
RTVSPropertyOp45
 70
     1
102
RTVSPropertyOp46
 70
     1
102
RTVSPropertyOp47
 70
     1
102
RTVSPropertyOp48
 70
     1
102
RTVSPropertyOp49
 70
     1
102
RTVSPropertyOp50
 70
     1
102
RTVSPropertyOp51
 70
     0
102
RTVSPropertyOp52
 70
     0
102
RTVSPropertyOp53
 70
     1
102
RTVSPropertyOp54
 70
     1
102
RTVSPropertyOp55
 70
     1
102
RTVSPropertyOp56
 70
     1
102
RTVSPropertyOp57
 70
     1
102
RTVSPost2010Prop28
280
     0
102
RTVSPost2010PropOp28
 70
     1
102
RTVSPost2010Prop29
280
     1
102
RTVSPost2010PropOp29
 70
     1
102
RTVSPost2010Prop30
280
     1
102
RTVSPost2010PropOp30
 70
     1
102
RTVSPost2010Prop31
280
     0
102
RTVSPost2010PropOp31
 70
     1
102
RTVSPost2010Prop32
280
     0
102
RTVSPost2010PropOp32
 70
     1
102
RTVSPost2010Prop33
280
     0
102
RTVSPost2010PropOp33
 70
     1
102
RTVSPost2010Prop34
280
     0
102
RTVSPost2010PropOp34
 70
     1
102
RTVSPost2010Prop35
280
     0
102
RTVSPost2010PropOp35
 70
     1
102
RTVSPost2010Prop36
280
     0
102
RTVSPost2010PropOp36
 70
     1
102
RTVSPost2010Prop37
 90
       50
102
RTVSPost2010PropOp37
 70
     1
102
RTVSPost2010Prop38
140
0.0
102
RTVSPost2010PropOp38
 70
     1
102
RTVSPost2010Prop39
140
1.0
102
RTVSPost2010PropOp39
 70
     1
102
RTVSPost2010Prop40
 90
        0
102
RTVSPost2010PropOp40
 70
     1
102
RTVSPost2010Prop41ColorIndex
 90
       18
102
RTVSPost2010Prop41ColorRGB
 90
        0
102
RTVSPost2010PropOp41
 70
     1
102
RTVSPost2010Prop42
 90
       50
102
RTVSPost2010PropOp42
 70
     1
102
RTVSPost2010Prop43
 90
        3
102
RTVSPost2010PropOp43
 70
     1
102
RTVSPost2010Prop44ColorIndex
 90
        5
102
RTVSPost2010Prop44ColorRGB
 90
      255
102
RTVSPost2010PropOp44
 70
     1
102
RTVSPost2010Prop45
280
     0
102
RTVSPost2010PropOp45
 70
     1
102
RTVSPost2010Prop46
 90
       50
102
RTVSPost2010PropOp46
 70
     1
102
RTVSPost2010Prop47
 90
       50
102
RTVSPost2010PropOp47
 70
     1
102
RTVSPost2010Prop48
 90
       50
102
RTVSPost2010PropOp48
 70
     1
102
RTVSPost2010Prop49
280
     0
102
RTVSPost2010PropOp49
 70
     1
102
RTVSPost2010Prop50
 90
       50
102
RTVSPost2010PropOp50
 70
     1
102
RTVSPost2010Prop51ColorIndex
 90
      256
102
RTVSPost2010Prop51ColorRGB
 90
-16777216
102
RTVSPost2010PropOp51
 70
     0
102
RTVSPost2010Prop52
140
1.0
102
RTVSPost2010PropOp52
 70
     0
102
RTVSPost2010Prop53
 90
        2
102
RTVSPost2010PropOp53
 70
     1
102
RTVSPost2010Prop54
  1
strokes_ogs.tif
102
RTVSPost2010PropOp54
 70
     1
102
RTVSPost2010Prop55
280
     0
102
RTVSPost2010PropOp55
 70
     1
102
RTVSPost2010Prop56
140
1.0
102
RTVSPost2010PropOp56
 70
     1
102
RTVSPost2010Prop57
140
1.0
102
RTVSPost2010PropOp57
 70
     1
  0
XRECORD
  5
28F
102
{ACAD_REACTORS
330
28E
102
}
330
28E
100
AcDbXrecord
280
     1
102
RTVSPropertyOp0
 70
     1
102
RTVSPropertyOp1
 70
     1
102
RTVSPropertyOp2
 70
     1
102
RTVSPropertyOp3
 70
     1
102
RTVSPropertyOp4
 70
     1
102
RTVSPropertyOp5
 70
     1
102
RTVSPropertyOp6
 70
     1
102
RTVSPropertyOp7
 70
     1
102
RTVSPropertyOp8
 70
     1
102
RTVSPropertyOp9
 70
     1
102
RTVSPropertyOp10
 70
     1
102
RTVSPropertyOp11
 70
     1
102
RTVSPropertyOp12
 70
     1
102
RTVSPropertyOp13
 70
     1
102
RTVSPropertyOp14
 70
     1
102
RTVSPropertyOp15
 70
     1
102
RTVSPropertyOp16
 70
     1
102
RTVSPropertyOp17
 70
     1
102
RTVSPropertyOp18
 70
     1
102
RTVSPropertyOp19
 70
     1
102
RTVSPropertyOp20
 70
     1
102
RTVSPropertyOp21
 70
     1
102
RTVSPropertyOp22
 70
     1
102
RTVSPropertyOp23
 70
     1
102
RTVSPropertyOp24
 70
     1
102
RTVSPropertyOp25
 70
     1
102
RTVSPropertyOp26
 70
     1
102
RTVSPropertyOp27
 70
     1
102
RTVSPropertyOp28
 70
     1
102
RTVSPropertyOp29
 70
     1
102
RTVSPropertyOp30
 70
     1
102
RTVSPropertyOp31
 70
     1
102
RTVSPropertyOp32
 70
     1
102
RTVSPropertyOp33
 70
     1
102
RTVSPropertyOp34
 70
     1
102
RTVSPropertyOp35
 70
     1
102
RTVSPropertyOp36
 70
     1
102
RTVSPropertyOp37
 70
     1
102
RTVSPropertyOp38
 70
     1
102
RTVSPropertyOp39
 70
     1
102
RTVSPropertyOp40
 70
     1
102
RTVSPropertyOp41
 70
     1
102
RTVSPropertyOp42
 70
     1
102
RTVSPropertyOp43
 70
     1
102
RTVSPropertyOp44
 70
     1
102
RTVSPropertyOp45
 70
     1
102
RTVSPropertyOp46
 70
     1
102
RTVSPropertyOp47
 70
     1
102
RTVSPropertyOp48
 70
     1
102
RTVSPropertyOp49
 70
     1
102
RTVSPropertyOp50
 70
     1
102
RTVSPropertyOp51
 70
     0
102
RTVSPropertyOp52
 70
     0
102
RTVSPropertyOp53
 70
     1
102
RTVSPropertyOp54
 70
     1
102
RTVSPropertyOp55
 70
     1
102
RTVSPropertyOp56
 70
     1
102
RTVSPropertyOp57
 70
     1
102
RTVSPost2010Prop28
280
     0
102
RTVSPost2010PropOp28
 70
     1
102
RTVSPost2010Prop29
280
     1
102
RTVSPost2010PropOp29
 70
     1
102
RTVSPost2010Prop30
280
     1
102
RTVSPost2010PropOp30
 70
     1
102
RTVSPost2010Prop31
280
     0
102
RTVSPost2010PropOp31
 70
     1
102
RTVSPost2010Prop32
280
     0
102
RTVSPost2010PropOp32
 70
     1
102
RTVSPost2010Prop33
280
     0
102
RTVSPost2010PropOp33
 70
     1
102
RTVSPost2010Prop34
280
     0
102
RTVSPost2010PropOp34
 70
     1
102
RTVSPost2010Prop35
280
     0
102
RTVSPost2010PropOp35
 70
     1
102
RTVSPost2010Prop36
280
     0
102
RTVSPost2010PropOp36
 70
     1
102
RTVSPost2010Prop37
 90
       50
102
RTVSPost2010PropOp37
 70
     1
102
RTVSPost2010Prop38
140
0.0
102
RTVSPost2010PropOp38
 70
     1
102
RTVSPost2010Prop39
140
1.0
102
RTVSPost2010PropOp39
 70
     1
102
RTVSPost2010Prop40
 90
        0
102
RTVSPost2010PropOp40
 70
     1
102
RTVSPost2010Prop41ColorIndex
 90
       18
102
RTVSPost2010Prop41ColorRGB
 90
        0
102
RTVSPost2010PropOp41
 70
     1
102
RTVSPost2010Prop42
 90
       50
102
RTVSPost2010PropOp42
 70
     1
102
RTVSPost2010Prop43
 90
        3
102
RTVSPost2010PropOp43
 70
     1
102
RTVSPost2010Prop44ColorIndex
 90
        5
102
RTVSPost2010Prop44ColorRGB
 90
      255
102
RTVSPost2010PropOp44
 70
     1
102
RTVSPost2010Prop45
280
     0
102
RTVSPost2010PropOp45
 70
     1
102
RTVSPost2010Prop46
 90
       50
102
RTVSPost2010PropOp46
 70
     1
102
RTVSPost2010Prop47
 90
       50
102
RTVSPost2010PropOp47
 70
     1
102
RTVSPost2010Prop48
 90
       50
102
RTVSPost2010PropOp48
 70
     1
102
RTVSPost2010Prop49
280
     0
102
RTVSPost2010PropOp49
 70
     1
102
RTVSPost2010Prop50
 90
       50
102
RTVSPost2010PropOp50
 70
     1
102
RTVSPost2010Prop51ColorIndex
 90
      256
102
RTVSPost2010Prop51ColorRGB
 90
-16777216
102
RTVSPost2010PropOp51
 70
     0
102
RTVSPost2010Prop52
140
1.0
102
RTVSPost2010PropOp52
 70
     0
102
RTVSPost2010Prop53
 90
        2
102
RTVSPost2010PropOp53
 70
     1
102
RTVSPost2010Prop54
  1
strokes_ogs.tif
102
RTVSPost2010PropOp54
 70
     1
102
RTVSPost2010Prop55
280
     0
102
RTVSPost2010PropOp55
 70
     1
102
RTVSPost2010Prop56
140
1.0
102
RTVSPost2010PropOp56
 70
     1
102
RTVSPost2010Prop57
140
1.0
102
RTVSPost2010PropOp57
 70
     1
  0
XRECORD
  5
283
102
{ACAD_REACTORS
330
282
102
}
330
282
100
AcDbXrecord
280
     1
102
RTVSPropertyOp0
 70
     1
102
RTVSPropertyOp1
 70
     1
102
RTVSPropertyOp2
 70
     1
102
RTVSPropertyOp3
 70
     1
102
RTVSPropertyOp4
 70
     1
102
RTVSPropertyOp5
 70
     1
102
RTVSPropertyOp6
 70
     1
102
RTVSPropertyOp7
 70
     1
102
RTVSPropertyOp8
 70
     1
102
RTVSPropertyOp9
 70
     1
102
RTVSPropertyOp10
 70
     1
102
RTVSPropertyOp11
 70
     1
102
RTVSPropertyOp12
 70
     1
102
RTVSPropertyOp13
 70
     1
102
RTVSPropertyOp14
 70
     1
102
RTVSPropertyOp15
 70
     1
102
RTVSPropertyOp16
 70
     1
102
RTVSPropertyOp17
 70
     1
102
RTVSPropertyOp18
 70
     1
102
RTVSPropertyOp19
 70
     1
102
RTVSPropertyOp20
 70
     1
102
RTVSPropertyOp21
 70
     1
102
RTVSPropertyOp22
 70
     1
102
RTVSPropertyOp23
 70
     1
102
RTVSPropertyOp24
 70
     1
102
RTVSPropertyOp25
 70
     1
102
RTVSPropertyOp26
 70
     1
102
RTVSPropertyOp27
 70
     1
102
RTVSPropertyOp28
 70
     1
102
RTVSPropertyOp29
 70
     1
102
RTVSPropertyOp30
 70
     1
102
RTVSPropertyOp31
 70
     1
102
RTVSPropertyOp32
 70
     1
102
RTVSPropertyOp33
 70
     1
102
RTVSPropertyOp34
 70
     1
102
RTVSPropertyOp35
 70
     1
102
RTVSPropertyOp36
 70
     1
102
RTVSPropertyOp37
 70
     1
102
RTVSPropertyOp38
 70
     1
102
RTVSPropertyOp39
 70
     1
102
RTVSPropertyOp40
 70
     1
102
RTVSPropertyOp41
 70
     1
102
RTVSPropertyOp42
 70
     1
102
RTVSPropertyOp43
 70
     1
102
RTVSPropertyOp44
 70
     1
102
RTVSPropertyOp45
 70
     1
102
RTVSPropertyOp46
 70
     1
102
RTVSPropertyOp47
 70
     1
102
RTVSPropertyOp48
 70
     1
102
RTVSPropertyOp49
 70
     1
102
RTVSPropertyOp50
 70
     1
102
RTVSPropertyOp51
 70
     0
102
RTVSPropertyOp52
 70
     0
102
RTVSPropertyOp53
 70
     1
102
RTVSPropertyOp54
 70
     1
102
RTVSPropertyOp55
 70
     1
102
RTVSPropertyOp56
 70
     1
102
RTVSPropertyOp57
 70
     1
102
RTVSPost2010Prop28
280
     0
102
RTVSPost2010PropOp28
 70
     1
102
RTVSPost2010Prop29
280
     1
102
RTVSPost2010PropOp29
 70
     1
102
RTVSPost2010Prop30
280
     1
102
RTVSPost2010PropOp30
 70
     1
102
RTVSPost2010Prop31
280
     0
102
RTVSPost2010PropOp31
 70
     1
102
RTVSPost2010Prop32
280
     0
102
RTVSPost2010PropOp32
 70
     1
102
RTVSPost2010Prop33
280
     0
102
RTVSPost2010PropOp33
 70
     1
102
RTVSPost2010Prop34
280
     0
102
RTVSPost2010PropOp34
 70
     1
102
RTVSPost2010Prop35
280
     0
102
RTVSPost2010PropOp35
 70
     1
102
RTVSPost2010Prop36
280
     0
102
RTVSPost2010PropOp36
 70
     1
102
RTVSPost2010Prop37
 90
       50
102
RTVSPost2010PropOp37
 70
     1
102
RTVSPost2010Prop38
140
0.0
102
RTVSPost2010PropOp38
 70
     1
102
RTVSPost2010Prop39
140
1.0
102
RTVSPost2010PropOp39
 70
     1
102
RTVSPost2010Prop40
 90
        0
102
RTVSPost2010PropOp40
 70
     1
102
RTVSPost2010Prop41ColorIndex
 90
       18
102
RTVSPost2010Prop41ColorRGB
 90
        0
102
RTVSPost2010PropOp41
 70
     1
102
RTVSPost2010Prop42
 90
       50
102
RTVSPost2010PropOp42
 70
     1
102
RTVSPost2010Prop43
 90
        3
102
RTVSPost2010PropOp43
 70
     1
102
RTVSPost2010Prop44ColorIndex
 90
        5
102
RTVSPost2010Prop44ColorRGB
 90
      255
102
RTVSPost2010PropOp44
 70
     1
102
RTVSPost2010Prop45
280
     0
102
RTVSPost2010PropOp45
 70
     1
102
RTVSPost2010Prop46
 90
       50
102
RTVSPost2010PropOp46
 70
     1
102
RTVSPost2010Prop47
 90
       50
102
RTVSPost2010PropOp47
 70
     1
102
RTVSPost2010Prop48
 90
       50
102
RTVSPost2010PropOp48
 70
     1
102
RTVSPost2010Prop49
280
     0
102
RTVSPost2010PropOp49
 70
     1
102
RTVSPost2010Prop50
 90
       50
102
RTVSPost2010PropOp50
 70
     1
102
RTVSPost2010Prop51ColorIndex
 90
      256
102
RTVSPost2010Prop51ColorRGB
 90
-16777216
102
RTVSPost2010PropOp51
 70
     0
102
RTVSPost2010Prop52
140
1.0
102
RTVSPost2010PropOp52
 70
     0
102
RTVSPost2010Prop53
 90
        2
102
RTVSPost2010PropOp53
 70
     1
102
RTVSPost2010Prop54
  1
strokes_ogs.tif
102
RTVSPost2010PropOp54
 70
     1
102
RTVSPost2010Prop55
280
     0
102
RTVSPost2010PropOp55
 70
     1
102
RTVSPost2010Prop56
140
1.0
102
RTVSPost2010PropOp56
 70
     1
102
RTVSPost2010Prop57
140
1.0
102
RTVSPost2010PropOp57
 70
     1
  0
XRECORD
  5
285
102
{ACAD_REACTORS
330
284
102
}
330
284
100
AcDbXrecord
280
     1
102
RTVSPropertyOp0
 70
     1
102
RTVSPropertyOp1
 70
     1
102
RTVSPropertyOp2
 70
     1
102
RTVSPropertyOp3
 70
     1
102
RTVSPropertyOp4
 70
     1
102
RTVSPropertyOp5
 70
     1
102
RTVSPropertyOp6
 70
     1
102
RTVSPropertyOp7
 70
     1
102
RTVSPropertyOp8
 70
     1
102
RTVSPropertyOp9
 70
     1
102
RTVSPropertyOp10
 70
     1
102
RTVSPropertyOp11
 70
     1
102
RTVSPropertyOp12
 70
     1
102
RTVSPropertyOp13
 70
     1
102
RTVSPropertyOp14
 70
     1
102
RTVSPropertyOp15
 70
     1
102
RTVSPropertyOp16
 70
     1
102
RTVSPropertyOp17
 70
     1
102
RTVSPropertyOp18
 70
     1
102
RTVSPropertyOp19
 70
     1
102
RTVSPropertyOp20
 70
     1
102
RTVSPropertyOp21
 70
     1
102
RTVSPropertyOp22
 70
     1
102
RTVSPropertyOp23
 70
     1
102
RTVSPropertyOp24
 70
     1
102
RTVSPropertyOp25
 70
     1
102
RTVSPropertyOp26
 70
     1
102
RTVSPropertyOp27
 70
     1
102
RTVSPropertyOp28
 70
     1
102
RTVSPropertyOp29
 70
     1
102
RTVSPropertyOp30
 70
     1
102
RTVSPropertyOp31
 70
     1
102
RTVSPropertyOp32
 70
     1
102
RTVSPropertyOp33
 70
     1
102
RTVSPropertyOp34
 70
     1
102
RTVSPropertyOp35
 70
     1
102
RTVSPropertyOp36
 70
     1
102
RTVSPropertyOp37
 70
     1
102
RTVSPropertyOp38
 70
     1
102
RTVSPropertyOp39
 70
     1
102
RTVSPropertyOp40
 70
     1
102
RTVSPropertyOp41
 70
     1
102
RTVSPropertyOp42
 70
     1
102
RTVSPropertyOp43
 70
     1
102
RTVSPropertyOp44
 70
     1
102
RTVSPropertyOp45
 70
     1
102
RTVSPropertyOp46
 70
     1
102
RTVSPropertyOp47
 70
     1
102
RTVSPropertyOp48
 70
     1
102
RTVSPropertyOp49
 70
     1
102
RTVSPropertyOp50
 70
     1
102
RTVSPropertyOp51
 70
     0
102
RTVSPropertyOp52
 70
     0
102
RTVSPropertyOp53
 70
     1
102
RTVSPropertyOp54
 70
     1
102
RTVSPropertyOp55
 70
     1
102
RTVSPropertyOp56
 70
     1
102
RTVSPropertyOp57
 70
     1
102
RTVSPost2010Prop28
280
     0
102
RTVSPost2010PropOp28
 70
     1
102
RTVSPost2010Prop29
280
     1
102
RTVSPost2010PropOp29
 70
     1
102
RTVSPost2010Prop30
280
     1
102
RTVSPost2010PropOp30
 70
     1
102
RTVSPost2010Prop31
280
     0
102
RTVSPost2010PropOp31
 70
     1
102
RTVSPost2010Prop32
280
     0
102
RTVSPost2010PropOp32
 70
     1
102
RTVSPost2010Prop33
280
     0
102
RTVSPost2010PropOp33
 70
     1
102
RTVSPost2010Prop34
280
     0
102
RTVSPost2010PropOp34
 70
     1
102
RTVSPost2010Prop35
280
     0
102
RTVSPost2010PropOp35
 70
     1
102
RTVSPost2010Prop36
280
     0
102
RTVSPost2010PropOp36
 70
     1
102
RTVSPost2010Prop37
 90
       50
102
RTVSPost2010PropOp37
 70
     1
102
RTVSPost2010Prop38
140
0.0
102
RTVSPost2010PropOp38
 70
     1
102
RTVSPost2010Prop39
140
1.0
102
RTVSPost2010PropOp39
 70
     1
102
RTVSPost2010Prop40
 90
        0
102
RTVSPost2010PropOp40
 70
     1
102
RTVSPost2010Prop41ColorIndex
 90
       18
102
RTVSPost2010Prop41ColorRGB
 90
        0
102
RTVSPost2010PropOp41
 70
     1
102
RTVSPost2010Prop42
 90
       50
102
RTVSPost2010PropOp42
 70
     1
102
RTVSPost2010Prop43
 90
        3
102
RTVSPost2010PropOp43
 70
     1
102
RTVSPost2010Prop44ColorIndex
 90
        5
102
RTVSPost2010Prop44ColorRGB
 90
      255
102
RTVSPost2010PropOp44
 70
     1
102
RTVSPost2010Prop45
280
     0
102
RTVSPost2010PropOp45
 70
     1
102
RTVSPost2010Prop46
 90
       50
102
RTVSPost2010PropOp46
 70
     1
102
RTVSPost2010Prop47
 90
       50
102
RTVSPost2010PropOp47
 70
     1
102
RTVSPost2010Prop48
 90
       50
102
RTVSPost2010PropOp48
 70
     1
102
RTVSPost2010Prop49
280
     0
102
RTVSPost2010PropOp49
 70
     1
102
RTVSPost2010Prop50
 90
       50
102
RTVSPost2010PropOp50
 70
     1
102
RTVSPost2010Prop51ColorIndex
 90
      256
102
RTVSPost2010Prop51ColorRGB
 90
-16777216
102
RTVSPost2010PropOp51
 70
     0
102
RTVSPost2010Prop52
140
1.0
102
RTVSPost2010PropOp52
 70
     0
102
RTVSPost2010Prop53
 90
        2
102
RTVSPost2010PropOp53
 70
     1
102
RTVSPost2010Prop54
  1
strokes_ogs.tif
102
RTVSPost2010PropOp54
 70
     1
102
RTVSPost2010Prop55
280
     0
102
RTVSPost2010PropOp55
 70
     1
102
RTVSPost2010Prop56
140
1.0
102
RTVSPost2010PropOp56
 70
     1
102
RTVSPost2010Prop57
140
1.0
102
RTVSPost2010PropOp57
 70
     1
  0
XRECORD
  5
295
102
{ACAD_REACTORS
330
294
102
}
330
294
100
AcDbXrecord
280
     1
102
RTVSPropertyOp0
 70
     0
102
RTVSPropertyOp1
 70
     0
102
RTVSPropertyOp2
 70
     0
102
RTVSPropertyOp3
 70
     0
102
RTVSPropertyOp4
 70
     0
102
RTVSPropertyOp5
 70
     0
102
RTVSPropertyOp6
 70
     0
102
RTVSPropertyOp7
 70
     0
102
RTVSPropertyOp8
 70
     0
102
RTVSPropertyOp9
 70
     0
102
RTVSPropertyOp10
 70
     0
102
RTVSPropertyOp11
 70
     0
102
RTVSPropertyOp12
 70
     0
102
RTVSPropertyOp13
 70
     0
102
RTVSPropertyOp14
 70
     2
102
RTVSPropertyOp15
 70
     0
102
RTVSPropertyOp16
 70
     0
102
RTVSPropertyOp17
 70
     0
102
RTVSPropertyOp18
 70
     0
102
RTVSPropertyOp19
 70
     0
102
RTVSPropertyOp20
 70
     0
102
RTVSPropertyOp21
 70
     0
102
RTVSPropertyOp22
 70
     0
102
RTVSPropertyOp23
 70
     0
102
RTVSPropertyOp24
 70
     0
102
RTVSPropertyOp25
 70
     0
102
RTVSPropertyOp26
 70
     0
102
RTVSPropertyOp27
 70
     0
102
RTVSPropertyOp28
 70
     0
102
RTVSPropertyOp29
 70
     0
102
RTVSPropertyOp30
 70
     0
102
RTVSPropertyOp31
 70
     0
102
RTVSPropertyOp32
 70
     0
102
RTVSPropertyOp33
 70
     0
102
RTVSPropertyOp34
 70
     0
102
RTVSPropertyOp35
 70
     0
102
RTVSPropertyOp36
 70
     0
102
RTVSPropertyOp37
 70
     0
102
RTVSPropertyOp38
 70
     0
102
RTVSPropertyOp39
 70
     0
102
RTVSPropertyOp40
 70
     0
102
RTVSPropertyOp41
 70
     0
102
RTVSPropertyOp42
 70
     0
102
RTVSPropertyOp43
 70
     0
102
RTVSPropertyOp44
 70
     0
102
RTVSPropertyOp45
 70
     0
102
RTVSPropertyOp46
 70
     0
102
RTVSPropertyOp47
 70
     0
102
RTVSPropertyOp48
 70
     0
102
RTVSPropertyOp49
 70
     0
102
RTVSPropertyOp50
 70
     0
102
RTVSPropertyOp51
 70
     0
102
RTVSPropertyOp52
 70
     0
102
RTVSPropertyOp53
 70
     0
102
RTVSPropertyOp54
 70
     0
102
RTVSPropertyOp55
 70
     0
102
RTVSPropertyOp56
 70
     0
102
RTVSPropertyOp57
 70
     0
102
RTVSPost2010Prop28
280
     0
102
RTVSPost2010PropOp28
 70
     0
102
RTVSPost2010Prop29
280
     1
102
RTVSPost2010PropOp29
 70
     0
102
RTVSPost2010Prop30
280
     1
102
RTVSPost2010PropOp30
 70
     0
102
RTVSPost2010Prop31
280
     0
102
RTVSPost2010PropOp31
 70
     0
102
RTVSPost2010Prop32
280
     0
102
RTVSPost2010PropOp32
 70
     0
102
RTVSPost2010Prop33
280
     0
102
RTVSPost2010PropOp33
 70
     0
102
RTVSPost2010Prop34
280
     0
102
RTVSPost2010PropOp34
 70
     0
102
RTVSPost2010Prop35
280
     0
102
RTVSPost2010PropOp35
 70
     0
102
RTVSPost2010Prop36
280
     0
102
RTVSPost2010PropOp36
 70
     0
102
RTVSPost2010Prop37
 90
       50
102
RTVSPost2010PropOp37
 70
     0
102
RTVSPost2010Prop38
140
0.0
102
RTVSPost2010PropOp38
 70
     0
102
RTVSPost2010Prop39
140
1.0
102
RTVSPost2010PropOp39
 70
     0
102
RTVSPost2010Prop40
 90
        0
102
RTVSPost2010PropOp40
 70
     0
102
RTVSPost2010Prop41ColorIndex
 90
       18
102
RTVSPost2010Prop41ColorRGB
 90
        0
102
RTVSPost2010PropOp41
 70
     0
102
RTVSPost2010Prop42
 90
       50
102
RTVSPost2010PropOp42
 70
     0
102
RTVSPost2010Prop43
 90
        3
102
RTVSPost2010PropOp43
 70
     0
102
RTVSPost2010Prop44ColorIndex
 90
        5
102
RTVSPost2010Prop44ColorRGB
 90
      255
102
RTVSPost2010PropOp44
 70
     0
102
RTVSPost2010Prop45
280
     0
102
RTVSPost2010PropOp45
 70
     0
102
RTVSPost2010Prop46
 90
       50
102
RTVSPost2010PropOp46
 70
     0
102
RTVSPost2010Prop47
 90
       50
102
RTVSPost2010PropOp47
 70
     0
102
RTVSPost2010Prop48
 90
       50
102
RTVSPost2010PropOp48
 70
     0
102
RTVSPost2010Prop49
280
     0
102
RTVSPost2010PropOp49
 70
     0
102
RTVSPost2010Prop50
 90
       50
102
RTVSPost2010PropOp50
 70
     0
102
RTVSPost2010Prop51ColorIndex
 90
      256
102
RTVSPost2010Prop51ColorRGB
 90
-16777216
102
RTVSPost2010PropOp51
 70
     0
102
RTVSPost2010Prop52
140
1.0
102
RTVSPost2010PropOp52
 70
     0
102
RTVSPost2010Prop53
 90
        2
102
RTVSPost2010PropOp53
 70
     0
102
RTVSPost2010Prop54
  1
strokes_ogs.tif
102
RTVSPost2010PropOp54
 70
     0
102
RTVSPost2010Prop55
280
     0
102
RTVSPost2010PropOp55
 70
     0
102
RTVSPost2010Prop56
140
1.0
102
RTVSPost2010PropOp56
 70
     0
102
RTVSPost2010Prop57
140
1.0
102
RTVSPost2010PropOp57
 70
     0
  0
XRECORD
  5
28D
102
{ACAD_REACTORS
330
28C
102
}
330
28C
100
AcDbXrecord
280
     1
102
RTVSPropertyOp0
 70
     1
102
RTVSPropertyOp1
 70
     1
102
RTVSPropertyOp2
 70
     1
102
RTVSPropertyOp3
 70
     1
102
RTVSPropertyOp4
 70
     1
102
RTVSPropertyOp5
 70
     1
102
RTVSPropertyOp6
 70
     1
102
RTVSPropertyOp7
 70
     1
102
RTVSPropertyOp8
 70
     1
102
RTVSPropertyOp9
 70
     1
102
RTVSPropertyOp10
 70
     1
102
RTVSPropertyOp11
 70
     1
102
RTVSPropertyOp12
 70
     1
102
RTVSPropertyOp13
 70
     1
102
RTVSPropertyOp14
 70
     1
102
RTVSPropertyOp15
 70
     1
102
RTVSPropertyOp16
 70
     1
102
RTVSPropertyOp17
 70
     1
102
RTVSPropertyOp18
 70
     1
102
RTVSPropertyOp19
 70
     1
102
RTVSPropertyOp20
 70
     1
102
RTVSPropertyOp21
 70
     1
102
RTVSPropertyOp22
 70
     1
102
RTVSPropertyOp23
 70
     1
102
RTVSPropertyOp24
 70
     1
102
RTVSPropertyOp25
 70
     1
102
RTVSPropertyOp26
 70
     1
102
RTVSPropertyOp27
 70
     1
102
RTVSPropertyOp28
 70
     1
102
RTVSPropertyOp29
 70
     1
102
RTVSPropertyOp30
 70
     1
102
RTVSPropertyOp31
 70
     1
102
RTVSPropertyOp32
 70
     1
102
RTVSPropertyOp33
 70
     1
102
RTVSPropertyOp34
 70
     1
102
RTVSPropertyOp35
 70
     1
102
RTVSPropertyOp36
 70
     1
102
RTVSPropertyOp37
 70
     1
102
RTVSPropertyOp38
 70
     1
102
RTVSPropertyOp39
 70
     1
102
RTVSPropertyOp40
 70
     1
102
RTVSPropertyOp41
 70
     1
102
RTVSPropertyOp42
 70
     1
102
RTVSPropertyOp43
 70
     1
102
RTVSPropertyOp44
 70
     1
102
RTVSPropertyOp45
 70
     1
102
RTVSPropertyOp46
 70
     1
102
RTVSPropertyOp47
 70
     1
102
RTVSPropertyOp48
 70
     1
102
RTVSPropertyOp49
 70
     1
102
RTVSPropertyOp50
 70
     1
102
RTVSPropertyOp51
 70
     0
102
RTVSPropertyOp52
 70
     0
102
RTVSPropertyOp53
 70
     1
102
RTVSPropertyOp54
 70
     1
102
RTVSPropertyOp55
 70
     1
102
RTVSPropertyOp56
 70
     1
102
RTVSPropertyOp57
 70
     1
102
RTVSPost2010Prop28
280
     0
102
RTVSPost2010PropOp28
 70
     1
102
RTVSPost2010Prop29
280
     1
102
RTVSPost2010PropOp29
 70
     1
102
RTVSPost2010Prop30
280
     1
102
RTVSPost2010PropOp30
 70
     1
102
RTVSPost2010Prop31
280
     0
102
RTVSPost2010PropOp31
 70
     1
102
RTVSPost2010Prop32
280
     0
102
RTVSPost2010PropOp32
 70
     1
102
RTVSPost2010Prop33
280
     0
102
RTVSPost2010PropOp33
 70
     1
102
RTVSPost2010Prop34
280
     0
102
RTVSPost2010PropOp34
 70
     1
102
RTVSPost2010Prop35
280
     0
102
RTVSPost2010PropOp35
 70
     1
102
RTVSPost2010Prop36
280
     0
102
RTVSPost2010PropOp36
 70
     1
102
RTVSPost2010Prop37
 90
       50
102
RTVSPost2010PropOp37
 70
     1
102
RTVSPost2010Prop38
140
0.0
102
RTVSPost2010PropOp38
 70
     1
102
RTVSPost2010Prop39
140
1.0
102
RTVSPost2010PropOp39
 70
     1
102
RTVSPost2010Prop40
 90
        0
102
RTVSPost2010PropOp40
 70
     1
102
RTVSPost2010Prop41ColorIndex
 90
       18
102
RTVSPost2010Prop41ColorRGB
 90
        0
102
RTVSPost2010PropOp41
 70
     1
102
RTVSPost2010Prop42
 90
       50
102
RTVSPost2010PropOp42
 70
     1
102
RTVSPost2010Prop43
 90
        3
102
RTVSPost2010PropOp43
 70
     1
102
RTVSPost2010Prop44ColorIndex
 90
        5
102
RTVSPost2010Prop44ColorRGB
 90
      255
102
RTVSPost2010PropOp44
 70
     1
102
RTVSPost2010Prop45
280
     0
102
RTVSPost2010PropOp45
 70
     1
102
RTVSPost2010Prop46
 90
       50
102
RTVSPost2010PropOp46
 70
     1
102
RTVSPost2010Prop47
 90
       50
102
RTVSPost2010PropOp47
 70
     1
102
RTVSPost2010Prop48
 90
       50
102
RTVSPost2010PropOp48
 70
     1
102
RTVSPost2010Prop49
280
     0
102
RTVSPost2010PropOp49
 70
     1
102
RTVSPost2010Prop50
 90
       50
102
RTVSPost2010PropOp50
 70
     1
102
RTVSPost2010Prop51ColorIndex
 90
      256
102
RTVSPost2010Prop51ColorRGB
 90
-16777216
102
RTVSPost2010PropOp51
 70
     0
102
RTVSPost2010Prop52
140
1.0
102
RTVSPost2010PropOp52
 70
     0
102
RTVSPost2010Prop53
 90
        2
102
RTVSPost2010PropOp53
 70
     1
102
RTVSPost2010Prop54
  1
strokes_ogs.tif
102
RTVSPost2010PropOp54
 70
     1
102
RTVSPost2010Prop55
280
     0
102
RTVSPost2010PropOp55
 70
     1
102
RTVSPost2010Prop56
140
1.0
102
RTVSPost2010PropOp56
 70
     1
102
RTVSPost2010Prop57
140
1.0
102
RTVSPost2010PropOp57
 70
     1
  0
XRECORD
  5
271
102
{ACAD_REACTORS
330
270
102
}
330
270
100
AcDbXrecord
280
     1
102
RTVSPropertyOp0
 70
     1
102
RTVSPropertyOp1
 70
     1
102
RTVSPropertyOp2
 70
     1
102
RTVSPropertyOp3
 70
     1
102
RTVSPropertyOp4
 70
     1
102
RTVSPropertyOp5
 70
     1
102
RTVSPropertyOp6
 70
     1
102
RTVSPropertyOp7
 70
     1
102
RTVSPropertyOp8
 70
     1
102
RTVSPropertyOp9
 70
     1
102
RTVSPropertyOp10
 70
     1
102
RTVSPropertyOp11
 70
     1
102
RTVSPropertyOp12
 70
     1
102
RTVSPropertyOp13
 70
     1
102
RTVSPropertyOp14
 70
     1
102
RTVSPropertyOp15
 70
     1
102
RTVSPropertyOp16
 70
     1
102
RTVSPropertyOp17
 70
     1
102
RTVSPropertyOp18
 70
     1
102
RTVSPropertyOp19
 70
     1
102
RTVSPropertyOp20
 70
     1
102
RTVSPropertyOp21
 70
     1
102
RTVSPropertyOp22
 70
     1
102
RTVSPropertyOp23
 70
     1
102
RTVSPropertyOp24
 70
     1
102
RTVSPropertyOp25
 70
     1
102
RTVSPropertyOp26
 70
     1
102
RTVSPropertyOp27
 70
     1
102
RTVSPropertyOp28
 70
     1
102
RTVSPropertyOp29
 70
     1
102
RTVSPropertyOp30
 70
     1
102
RTVSPropertyOp31
 70
     1
102
RTVSPropertyOp32
 70
     1
102
RTVSPropertyOp33
 70
     1
102
RTVSPropertyOp34
 70
     1
102
RTVSPropertyOp35
 70
     1
102
RTVSPropertyOp36
 70
     1
102
RTVSPropertyOp37
 70
     1
102
RTVSPropertyOp38
 70
     1
102
RTVSPropertyOp39
 70
     1
102
RTVSPropertyOp40
 70
     1
102
RTVSPropertyOp41
 70
     1
102
RTVSPropertyOp42
 70
     1
102
RTVSPropertyOp43
 70
     1
102
RTVSPropertyOp44
 70
     1
102
RTVSPropertyOp45
 70
     1
102
RTVSPropertyOp46
 70
     1
102
RTVSPropertyOp47
 70
     1
102
RTVSPropertyOp48
 70
     1
102
RTVSPropertyOp49
 70
     1
102
RTVSPropertyOp50
 70
     1
102
RTVSPropertyOp51
 70
     0
102
RTVSPropertyOp52
 70
     0
102
RTVSPropertyOp53
 70
     1
102
RTVSPropertyOp54
 70
     1
102
RTVSPropertyOp55
 70
     1
102
RTVSPropertyOp56
 70
     1
102
RTVSPropertyOp57
 70
     1
102
RTVSPost2010Prop28
280
     0
102
RTVSPost2010PropOp28
 70
     1
102
RTVSPost2010Prop29
280
     1
102
RTVSPost2010PropOp29
 70
     1
102
RTVSPost2010Prop30
280
     1
102
RTVSPost2010PropOp30
 70
     1
102
RTVSPost2010Prop31
280
     0
102
RTVSPost2010PropOp31
 70
     1
102
RTVSPost2010Prop32
280
     0
102
RTVSPost2010PropOp32
 70
     1
102
RTVSPost2010Prop33
280
     0
102
RTVSPost2010PropOp33
 70
     1
102
RTVSPost2010Prop34
280
     0
102
RTVSPost2010PropOp34
 70
     1
102
RTVSPost2010Prop35
280
     0
102
RTVSPost2010PropOp35
 70
     1
102
RTVSPost2010Prop36
280
     0
102
RTVSPost2010PropOp36
 70
     1
102
RTVSPost2010Prop37
 90
       50
102
RTVSPost2010PropOp37
 70
     1
102
RTVSPost2010Prop38
140
0.0
102
RTVSPost2010PropOp38
 70
     1
102
RTVSPost2010Prop39
140
1.0
102
RTVSPost2010PropOp39
 70
     1
102
RTVSPost2010Prop40
 90
        0
102
RTVSPost2010PropOp40
 70
     1
102
RTVSPost2010Prop41ColorIndex
 90
       18
102
RTVSPost2010Prop41ColorRGB
 90
        0
102
RTVSPost2010PropOp41
 70
     1
102
RTVSPost2010Prop42
 90
       50
102
RTVSPost2010PropOp42
 70
     1
102
RTVSPost2010Prop43
 90
        3
102
RTVSPost2010PropOp43
 70
     1
102
RTVSPost2010Prop44ColorIndex
 90
        5
102
RTVSPost2010Prop44ColorRGB
 90
      255
102
RTVSPost2010PropOp44
 70
     1
102
RTVSPost2010Prop45
280
     0
102
RTVSPost2010PropOp45
 70
     1
102
RTVSPost2010Prop46
 90
       50
102
RTVSPost2010PropOp46
 70
     1
102
RTVSPost2010Prop47
 90
       50
102
RTVSPost2010PropOp47
 70
     1
102
RTVSPost2010Prop48
 90
       50
102
RTVSPost2010PropOp48
 70
     1
102
RTVSPost2010Prop49
280
     0
102
RTVSPost2010PropOp49
 70
     1
102
RTVSPost2010Prop50
 90
       50
102
RTVSPost2010PropOp50
 70
     1
102
RTVSPost2010Prop51ColorIndex
 90
      256
102
RTVSPost2010Prop51ColorRGB
 90
-16777216
102
RTVSPost2010PropOp51
 70
     0
102
RTVSPost2010Prop52
140
1.0
102
RTVSPost2010PropOp52
 70
     0
102
RTVSPost2010Prop53
 90
        2
102
RTVSPost2010PropOp53
 70
     1
102
RTVSPost2010Prop54
  1
strokes_ogs.tif
102
RTVSPost2010PropOp54
 70
     1
102
RTVSPost2010Prop55
280
     0
102
RTVSPost2010PropOp55
 70
     1
102
RTVSPost2010Prop56
140
1.0
102
RTVSPost2010PropOp56
 70
     1
102
RTVSPost2010Prop57
140
1.0
102
RTVSPost2010PropOp57
 70
     1
  0
XRECORD
  5
273
102
{ACAD_REACTORS
330
272
102
}
330
272
100
AcDbXrecord
280
     1
102
RTVSPropertyOp0
 70
     1
102
RTVSPropertyOp1
 70
     1
102
RTVSPropertyOp2
 70
     1
102
RTVSPropertyOp3
 70
     1
102
RTVSPropertyOp4
 70
     1
102
RTVSPropertyOp5
 70
     1
102
RTVSPropertyOp6
 70
     1
102
RTVSPropertyOp7
 70
     1
102
RTVSPropertyOp8
 70
     1
102
RTVSPropertyOp9
 70
     1
102
RTVSPropertyOp10
 70
     1
102
RTVSPropertyOp11
 70
     1
102
RTVSPropertyOp12
 70
     1
102
RTVSPropertyOp13
 70
     1
102
RTVSPropertyOp14
 70
     1
102
RTVSPropertyOp15
 70
     1
102
RTVSPropertyOp16
 70
     1
102
RTVSPropertyOp17
 70
     1
102
RTVSPropertyOp18
 70
     1
102
RTVSPropertyOp19
 70
     1
102
RTVSPropertyOp20
 70
     1
102
RTVSPropertyOp21
 70
     1
102
RTVSPropertyOp22
 70
     1
102
RTVSPropertyOp23
 70
     1
102
RTVSPropertyOp24
 70
     1
102
RTVSPropertyOp25
 70
     1
102
RTVSPropertyOp26
 70
     1
102
RTVSPropertyOp27
 70
     1
102
RTVSPropertyOp28
 70
     1
102
RTVSPropertyOp29
 70
     1
102
RTVSPropertyOp30
 70
     1
102
RTVSPropertyOp31
 70
     1
102
RTVSPropertyOp32
 70
     1
102
RTVSPropertyOp33
 70
     1
102
RTVSPropertyOp34
 70
     1
102
RTVSPropertyOp35
 70
     1
102
RTVSPropertyOp36
 70
     1
102
RTVSPropertyOp37
 70
     1
102
RTVSPropertyOp38
 70
     1
102
RTVSPropertyOp39
 70
     1
102
RTVSPropertyOp40
 70
     1
102
RTVSPropertyOp41
 70
     1
102
RTVSPropertyOp42
 70
     1
102
RTVSPropertyOp43
 70
     1
102
RTVSPropertyOp44
 70
     1
102
RTVSPropertyOp45
 70
     1
102
RTVSPropertyOp46
 70
     1
102
RTVSPropertyOp47
 70
     1
102
RTVSPropertyOp48
 70
     1
102
RTVSPropertyOp49
 70
     1
102
RTVSPropertyOp50
 70
     1
102
RTVSPropertyOp51
 70
     0
102
RTVSPropertyOp52
 70
     0
102
RTVSPropertyOp53
 70
     1
102
RTVSPropertyOp54
 70
     1
102
RTVSPropertyOp55
 70
     1
102
RTVSPropertyOp56
 70
     1
102
RTVSPropertyOp57
 70
     1
102
RTVSPost2010Prop28
280
     0
102
RTVSPost2010PropOp28
 70
     1
102
RTVSPost2010Prop29
280
     1
102
RTVSPost2010PropOp29
 70
     1
102
RTVSPost2010Prop30
280
     1
102
RTVSPost2010PropOp30
 70
     1
102
RTVSPost2010Prop31
280
     0
102
RTVSPost2010PropOp31
 70
     1
102
RTVSPost2010Prop32
280
     0
102
RTVSPost2010PropOp32
 70
     1
102
RTVSPost2010Prop33
280
     0
102
RTVSPost2010PropOp33
 70
     1
102
RTVSPost2010Prop34
280
     0
102
RTVSPost2010PropOp34
 70
     1
102
RTVSPost2010Prop35
280
     0
102
RTVSPost2010PropOp35
 70
     1
102
RTVSPost2010Prop36
280
     0
102
RTVSPost2010PropOp36
 70
     1
102
RTVSPost2010Prop37
 90
       50
102
RTVSPost2010PropOp37
 70
     1
102
RTVSPost2010Prop38
140
0.0
102
RTVSPost2010PropOp38
 70
     1
102
RTVSPost2010Prop39
140
1.0
102
RTVSPost2010PropOp39
 70
     1
102
RTVSPost2010Prop40
 90
        0
102
RTVSPost2010PropOp40
 70
     1
102
RTVSPost2010Prop41ColorIndex
 90
       18
102
RTVSPost2010Prop41ColorRGB
 90
        0
102
RTVSPost2010PropOp41
 70
     1
102
RTVSPost2010Prop42
 90
       50
102
RTVSPost2010PropOp42
 70
     1
102
RTVSPost2010Prop43
 90
        3
102
RTVSPost2010PropOp43
 70
     1
102
RTVSPost2010Prop44ColorIndex
 90
        5
102
RTVSPost2010Prop44ColorRGB
 90
      255
102
RTVSPost2010PropOp44
 70
     1
102
RTVSPost2010Prop45
280
     0
102
RTVSPost2010PropOp45
 70
     1
102
RTVSPost2010Prop46
 90
       50
102
RTVSPost2010PropOp46
 70
     1
102
RTVSPost2010Prop47
 90
       50
102
RTVSPost2010PropOp47
 70
     1
102
RTVSPost2010Prop48
 90
       50
102
RTVSPost2010PropOp48
 70
     1
102
RTVSPost2010Prop49
280
     0
102
RTVSPost2010PropOp49
 70
     1
102
RTVSPost2010Prop50
 90
       50
102
RTVSPost2010PropOp50
 70
     1
102
RTVSPost2010Prop51ColorIndex
 90
      256
102
RTVSPost2010Prop51ColorRGB
 90
-16777216
102
RTVSPost2010PropOp51
 70
     0
102
RTVSPost2010Prop52
140
1.0
102
RTVSPost2010PropOp52
 70
     0
102
RTVSPost2010Prop53
 90
        2
102
RTVSPost2010PropOp53
 70
     1
102
RTVSPost2010Prop54
  1
strokes_ogs.tif
102
RTVSPost2010PropOp54
 70
     1
102
RTVSPost2010Prop55
280
     0
102
RTVSPost2010PropOp55
 70
     1
102
RTVSPost2010Prop56
140
1.0
102
RTVSPost2010PropOp56
 70
     1
102
RTVSPost2010Prop57
140
1.0
102
RTVSPost2010PropOp57
 70
     1
  0
XRECORD
  5
275
102
{ACAD_REACTORS
330
274
102
}
330
274
100
AcDbXrecord
280
     1
102
RTVSPropertyOp0
 70
     1
102
RTVSPropertyOp1
 70
     1
102
RTVSPropertyOp2
 70
     1
102
RTVSPropertyOp3
 70
     1
102
RTVSPropertyOp4
 70
     1
102
RTVSPropertyOp5
 70
     1
102
RTVSPropertyOp6
 70
     1
102
RTVSPropertyOp7
 70
     1
102
RTVSPropertyOp8
 70
     1
102
RTVSPropertyOp9
 70
     1
102
RTVSPropertyOp10
 70
     1
102
RTVSPropertyOp11
 70
     1
102
RTVSPropertyOp12
 70
     1
102
RTVSPropertyOp13
 70
     1
102
RTVSPropertyOp14
 70
     1
102
RTVSPropertyOp15
 70
     1
102
RTVSPropertyOp16
 70
     1
102
RTVSPropertyOp17
 70
     1
102
RTVSPropertyOp18
 70
     1
102
RTVSPropertyOp19
 70
     1
102
RTVSPropertyOp20
 70
     1
102
RTVSPropertyOp21
 70
     1
102
RTVSPropertyOp22
 70
     1
102
RTVSPropertyOp23
 70
     1
102
RTVSPropertyOp24
 70
     1
102
RTVSPropertyOp25
 70
     1
102
RTVSPropertyOp26
 70
     1
102
RTVSPropertyOp27
 70
     1
102
RTVSPropertyOp28
 70
     1
102
RTVSPropertyOp29
 70
     1
102
RTVSPropertyOp30
 70
     1
102
RTVSPropertyOp31
 70
     1
102
RTVSPropertyOp32
 70
     1
102
RTVSPropertyOp33
 70
     1
102
RTVSPropertyOp34
 70
     1
102
RTVSPropertyOp35
 70
     1
102
RTVSPropertyOp36
 70
     1
102
RTVSPropertyOp37
 70
     1
102
RTVSPropertyOp38
 70
     1
102
RTVSPropertyOp39
 70
     1
102
RTVSPropertyOp40
 70
     1
102
RTVSPropertyOp41
 70
     1
102
RTVSPropertyOp42
 70
     1
102
RTVSPropertyOp43
 70
     1
102
RTVSPropertyOp44
 70
     1
102
RTVSPropertyOp45
 70
     1
102
RTVSPropertyOp46
 70
     1
102
RTVSPropertyOp47
 70
     1
102
RTVSPropertyOp48
 70
     1
102
RTVSPropertyOp49
 70
     1
102
RTVSPropertyOp50
 70
     1
102
RTVSPropertyOp51
 70
     0
102
RTVSPropertyOp52
 70
     0
102
RTVSPropertyOp53
 70
     1
102
RTVSPropertyOp54
 70
     1
102
RTVSPropertyOp55
 70
     1
102
RTVSPropertyOp56
 70
     1
102
RTVSPropertyOp57
 70
     1
102
RTVSPost2010Prop28
280
     0
102
RTVSPost2010PropOp28
 70
     1
102
RTVSPost2010Prop29
280
     1
102
RTVSPost2010PropOp29
 70
     1
102
RTVSPost2010Prop30
280
     1
102
RTVSPost2010PropOp30
 70
     1
102
RTVSPost2010Prop31
280
     0
102
RTVSPost2010PropOp31
 70
     1
102
RTVSPost2010Prop32
280
     0
102
RTVSPost2010PropOp32
 70
     1
102
RTVSPost2010Prop33
280
     0
102
RTVSPost2010PropOp33
 70
     1
102
RTVSPost2010Prop34
280
     0
102
RTVSPost2010PropOp34
 70
     1
102
RTVSPost2010Prop35
280
     0
102
RTVSPost2010PropOp35
 70
     1
102
RTVSPost2010Prop36
280
     0
102
RTVSPost2010PropOp36
 70
     1
102
RTVSPost2010Prop37
 90
       50
102
RTVSPost2010PropOp37
 70
     1
102
RTVSPost2010Prop38
140
0.0
102
RTVSPost2010PropOp38
 70
     1
102
RTVSPost2010Prop39
140
1.0
102
RTVSPost2010PropOp39
 70
     1
102
RTVSPost2010Prop40
 90
        0
102
RTVSPost2010PropOp40
 70
     1
102
RTVSPost2010Prop41ColorIndex
 90
       18
102
RTVSPost2010Prop41ColorRGB
 90
        0
102
RTVSPost2010PropOp41
 70
     1
102
RTVSPost2010Prop42
 90
       50
102
RTVSPost2010PropOp42
 70
     1
102
RTVSPost2010Prop43
 90
        3
102
RTVSPost2010PropOp43
 70
     1
102
RTVSPost2010Prop44ColorIndex
 90
        5
102
RTVSPost2010Prop44ColorRGB
 90
      255
102
RTVSPost2010PropOp44
 70
     1
102
RTVSPost2010Prop45
280
     0
102
RTVSPost2010PropOp45
 70
     1
102
RTVSPost2010Prop46
 90
       50
102
RTVSPost2010PropOp46
 70
     1
102
RTVSPost2010Prop47
 90
       50
102
RTVSPost2010PropOp47
 70
     1
102
RTVSPost2010Prop48
 90
       50
102
RTVSPost2010PropOp48
 70
     1
102
RTVSPost2010Prop49
280
     0
102
RTVSPost2010PropOp49
 70
     1
102
RTVSPost2010Prop50
 90
       50
102
RTVSPost2010PropOp50
 70
     1
102
RTVSPost2010Prop51ColorIndex
 90
      256
102
RTVSPost2010Prop51ColorRGB
 90
-16777216
102
RTVSPost2010PropOp51
 70
     0
102
RTVSPost2010Prop52
140
1.0
102
RTVSPost2010PropOp52
 70
     0
102
RTVSPost2010Prop53
 90
        2
102
RTVSPost2010PropOp53
 70
     1
102
RTVSPost2010Prop54
  1
strokes_ogs.tif
102
RTVSPost2010PropOp54
 70
     1
102
RTVSPost2010Prop55
280
     0
102
RTVSPost2010PropOp55
 70
     1
102
RTVSPost2010Prop56
140
1.0
102
RTVSPost2010PropOp56
 70
     1
102
RTVSPost2010Prop57
140
1.0
102
RTVSPost2010PropOp57
 70
     1
  0
XRECORD
  5
277
102
{ACAD_REACTORS
330
276
102
}
330
276
100
AcDbXrecord
280
     1
102
RTVSPropertyOp0
 70
     1
102
RTVSPropertyOp1
 70
     1
102
RTVSPropertyOp2
 70
     1
102
RTVSPropertyOp3
 70
     1
102
RTVSPropertyOp4
 70
     1
102
RTVSPropertyOp5
 70
     1
102
RTVSPropertyOp6
 70
     1
102
RTVSPropertyOp7
 70
     1
102
RTVSPropertyOp8
 70
     1
102
RTVSPropertyOp9
 70
     1
102
RTVSPropertyOp10
 70
     1
102
RTVSPropertyOp11
 70
     1
102
RTVSPropertyOp12
 70
     1
102
RTVSPropertyOp13
 70
     1
102
RTVSPropertyOp14
 70
     1
102
RTVSPropertyOp15
 70
     1
102
RTVSPropertyOp16
 70
     1
102
RTVSPropertyOp17
 70
     1
102
RTVSPropertyOp18
 70
     1
102
RTVSPropertyOp19
 70
     1
102
RTVSPropertyOp20
 70
     1
102
RTVSPropertyOp21
 70
     1
102
RTVSPropertyOp22
 70
     1
102
RTVSPropertyOp23
 70
     1
102
RTVSPropertyOp24
 70
     1
102
RTVSPropertyOp25
 70
     1
102
RTVSPropertyOp26
 70
     1
102
RTVSPropertyOp27
 70
     1
102
RTVSPropertyOp28
 70
     1
102
RTVSPropertyOp29
 70
     1
102
RTVSPropertyOp30
 70
     1
102
RTVSPropertyOp31
 70
     1
102
RTVSPropertyOp32
 70
     1
102
RTVSPropertyOp33
 70
     1
102
RTVSPropertyOp34
 70
     1
102
RTVSPropertyOp35
 70
     1
102
RTVSPropertyOp36
 70
     1
102
RTVSPropertyOp37
 70
     1
102
RTVSPropertyOp38
 70
     1
102
RTVSPropertyOp39
 70
     1
102
RTVSPropertyOp40
 70
     1
102
RTVSPropertyOp41
 70
     1
102
RTVSPropertyOp42
 70
     1
102
RTVSPropertyOp43
 70
     1
102
RTVSPropertyOp44
 70
     1
102
RTVSPropertyOp45
 70
     1
102
RTVSPropertyOp46
 70
     1
102
RTVSPropertyOp47
 70
     1
102
RTVSPropertyOp48
 70
     1
102
RTVSPropertyOp49
 70
     1
102
RTVSPropertyOp50
 70
     1
102
RTVSPropertyOp51
 70
     0
102
RTVSPropertyOp52
 70
     0
102
RTVSPropertyOp53
 70
     1
102
RTVSPropertyOp54
 70
     1
102
RTVSPropertyOp55
 70
     1
102
RTVSPropertyOp56
 70
     1
102
RTVSPropertyOp57
 70
     1
102
RTVSPost2010Prop28
280
     0
102
RTVSPost2010PropOp28
 70
     1
102
RTVSPost2010Prop29
280
     1
102
RTVSPost2010PropOp29
 70
     1
102
RTVSPost2010Prop30
280
     1
102
RTVSPost2010PropOp30
 70
     1
102
RTVSPost2010Prop31
280
     0
102
RTVSPost2010PropOp31
 70
     1
102
RTVSPost2010Prop32
280
     0
102
RTVSPost2010PropOp32
 70
     1
102
RTVSPost2010Prop33
280
     0
102
RTVSPost2010PropOp33
 70
     1
102
RTVSPost2010Prop34
280
     0
102
RTVSPost2010PropOp34
 70
     1
102
RTVSPost2010Prop35
280
     0
102
RTVSPost2010PropOp35
 70
     1
102
RTVSPost2010Prop36
280
     0
102
RTVSPost2010PropOp36
 70
     1
102
RTVSPost2010Prop37
 90
       50
102
RTVSPost2010PropOp37
 70
     1
102
RTVSPost2010Prop38
140
0.0
102
RTVSPost2010PropOp38
 70
     1
102
RTVSPost2010Prop39
140
1.0
102
RTVSPost2010PropOp39
 70
     1
102
RTVSPost2010Prop40
 90
        0
102
RTVSPost2010PropOp40
 70
     1
102
RTVSPost2010Prop41ColorIndex
 90
       18
102
RTVSPost2010Prop41ColorRGB
 90
        0
102
RTVSPost2010PropOp41
 70
     1
102
RTVSPost2010Prop42
 90
       50
102
RTVSPost2010PropOp42
 70
     1
102
RTVSPost2010Prop43
 90
        3
102
RTVSPost2010PropOp43
 70
     1
102
RTVSPost2010Prop44ColorIndex
 90
        5
102
RTVSPost2010Prop44ColorRGB
 90
      255
102
RTVSPost2010PropOp44
 70
     1
102
RTVSPost2010Prop45
280
     0
102
RTVSPost2010PropOp45
 70
     1
102
RTVSPost2010Prop46
 90
       50
102
RTVSPost2010PropOp46
 70
     1
102
RTVSPost2010Prop47
 90
       50
102
RTVSPost2010PropOp47
 70
     1
102
RTVSPost2010Prop48
 90
       50
102
RTVSPost2010PropOp48
 70
     1
102
RTVSPost2010Prop49
280
     0
102
RTVSPost2010PropOp49
 70
     1
102
RTVSPost2010Prop50
 90
       50
102
RTVSPost2010PropOp50
 70
     1
102
RTVSPost2010Prop51ColorIndex
 90
      256
102
RTVSPost2010Prop51ColorRGB
 90
-16777216
102
RTVSPost2010PropOp51
 70
     0
102
RTVSPost2010Prop52
140
1.0
102
RTVSPost2010PropOp52
 70
     0
102
RTVSPost2010Prop53
 90
        2
102
RTVSPost2010PropOp53
 70
     1
102
RTVSPost2010Prop54
  1
strokes_ogs.tif
102
RTVSPost2010PropOp54
 70
     1
102
RTVSPost2010Prop55
280
     0
102
RTVSPost2010PropOp55
 70
     1
102
RTVSPost2010Prop56
140
1.0
102
RTVSPost2010PropOp56
 70
     1
102
RTVSPost2010Prop57
140
1.0
102
RTVSPost2010PropOp57
 70
     1
  0
XRECORD
  5
27D
102
{ACAD_REACTORS
330
27C
102
}
330
27C
100
AcDbXrecord
280
     1
102
RTVSPropertyOp0
 70
     1
102
RTVSPropertyOp1
 70
     1
102
RTVSPropertyOp2
 70
     1
102
RTVSPropertyOp3
 70
     1
102
RTVSPropertyOp4
 70
     1
102
RTVSPropertyOp5
 70
     1
102
RTVSPropertyOp6
 70
     1
102
RTVSPropertyOp7
 70
     1
102
RTVSPropertyOp8
 70
     1
102
RTVSPropertyOp9
 70
     1
102
RTVSPropertyOp10
 70
     1
102
RTVSPropertyOp11
 70
     1
102
RTVSPropertyOp12
 70
     1
102
RTVSPropertyOp13
 70
     1
102
RTVSPropertyOp14
 70
     1
102
RTVSPropertyOp15
 70
     1
102
RTVSPropertyOp16
 70
     1
102
RTVSPropertyOp17
 70
     1
102
RTVSPropertyOp18
 70
     1
102
RTVSPropertyOp19
 70
     1
102
RTVSPropertyOp20
 70
     1
102
RTVSPropertyOp21
 70
     1
102
RTVSPropertyOp22
 70
     1
102
RTVSPropertyOp23
 70
     1
102
RTVSPropertyOp24
 70
     1
102
RTVSPropertyOp25
 70
     1
102
RTVSPropertyOp26
 70
     1
102
RTVSPropertyOp27
 70
     1
102
RTVSPropertyOp28
 70
     1
102
RTVSPropertyOp29
 70
     1
102
RTVSPropertyOp30
 70
     1
102
RTVSPropertyOp31
 70
     1
102
RTVSPropertyOp32
 70
     1
102
RTVSPropertyOp33
 70
     1
102
RTVSPropertyOp34
 70
     1
102
RTVSPropertyOp35
 70
     1
102
RTVSPropertyOp36
 70
     1
102
RTVSPropertyOp37
 70
     1
102
RTVSPropertyOp38
 70
     1
102
RTVSPropertyOp39
 70
     1
102
RTVSPropertyOp40
 70
     1
102
RTVSPropertyOp41
 70
     1
102
RTVSPropertyOp42
 70
     1
102
RTVSPropertyOp43
 70
     1
102
RTVSPropertyOp44
 70
     1
102
RTVSPropertyOp45
 70
     1
102
RTVSPropertyOp46
 70
     1
102
RTVSPropertyOp47
 70
     1
102
RTVSPropertyOp48
 70
     1
102
RTVSPropertyOp49
 70
     1
102
RTVSPropertyOp50
 70
     1
102
RTVSPropertyOp51
 70
     0
102
RTVSPropertyOp52
 70
     0
102
RTVSPropertyOp53
 70
     1
102
RTVSPropertyOp54
 70
     1
102
RTVSPropertyOp55
 70
     1
102
RTVSPropertyOp56
 70
     1
102
RTVSPropertyOp57
 70
     1
102
RTVSPost2010Prop28
280
     0
102
RTVSPost2010PropOp28
 70
     1
102
RTVSPost2010Prop29
280
     1
102
RTVSPost2010PropOp29
 70
     1
102
RTVSPost2010Prop30
280
     1
102
RTVSPost2010PropOp30
 70
     1
102
RTVSPost2010Prop31
280
     0
102
RTVSPost2010PropOp31
 70
     1
102
RTVSPost2010Prop32
280
     0
102
RTVSPost2010PropOp32
 70
     1
102
RTVSPost2010Prop33
280
     0
102
RTVSPost2010PropOp33
 70
     1
102
RTVSPost2010Prop34
280
     0
102
RTVSPost2010PropOp34
 70
     1
102
RTVSPost2010Prop35
280
     0
102
RTVSPost2010PropOp35
 70
     1
102
RTVSPost2010Prop36
280
     0
102
RTVSPost2010PropOp36
 70
     1
102
RTVSPost2010Prop37
 90
       50
102
RTVSPost2010PropOp37
 70
     1
102
RTVSPost2010Prop38
140
0.0
102
RTVSPost2010PropOp38
 70
     1
102
RTVSPost2010Prop39
140
1.0
102
RTVSPost2010PropOp39
 70
     1
102
RTVSPost2010Prop40
 90
        0
102
RTVSPost2010PropOp40
 70
     1
102
RTVSPost2010Prop41ColorIndex
 90
       18
102
RTVSPost2010Prop41ColorRGB
 90
        0
102
RTVSPost2010PropOp41
 70
     1
102
RTVSPost2010Prop42
 90
       50
102
RTVSPost2010PropOp42
 70
     1
102
RTVSPost2010Prop43
 90
        3
102
RTVSPost2010PropOp43
 70
     1
102
RTVSPost2010Prop44ColorIndex
 90
        5
102
RTVSPost2010Prop44ColorRGB
 90
      255
102
RTVSPost2010PropOp44
 70
     1
102
RTVSPost2010Prop45
280
     0
102
RTVSPost2010PropOp45
 70
     1
102
RTVSPost2010Prop46
 90
       50
102
RTVSPost2010PropOp46
 70
     1
102
RTVSPost2010Prop47
 90
       50
102
RTVSPost2010PropOp47
 70
     1
102
RTVSPost2010Prop48
 90
       50
102
RTVSPost2010PropOp48
 70
     1
102
RTVSPost2010Prop49
280
     0
102
RTVSPost2010PropOp49
 70
     1
102
RTVSPost2010Prop50
 90
       50
102
RTVSPost2010PropOp50
 70
     1
102
RTVSPost2010Prop51ColorIndex
 90
      256
102
RTVSPost2010Prop51ColorRGB
 90
-16777216
102
RTVSPost2010PropOp51
 70
     0
102
RTVSPost2010Prop52
140
1.0
102
RTVSPost2010PropOp52
 70
     0
102
RTVSPost2010Prop53
 90
        2
102
RTVSPost2010PropOp53
 70
     1
102
RTVSPost2010Prop54
  1
strokes_ogs.tif
102
RTVSPost2010PropOp54
 70
     1
102
RTVSPost2010Prop55
280
     0
102
RTVSPost2010PropOp55
 70
     1
102
RTVSPost2010Prop56
140
1.0
102
RTVSPost2010PropOp56
 70
     1
102
RTVSPost2010Prop57
140
1.0
102
RTVSPost2010PropOp57
 70
     1
  0
XRECORD
  5
291
102
{ACAD_REACTORS
330
290
102
}
330
290
100
AcDbXrecord
280
     1
102
RTVSPropertyOp0
 70
     0
102
RTVSPropertyOp1
 70
     0
102
RTVSPropertyOp2
 70
     0
102
RTVSPropertyOp3
 70
     0
102
RTVSPropertyOp4
 70
     0
102
RTVSPropertyOp5
 70
     0
102
RTVSPropertyOp6
 70
     0
102
RTVSPropertyOp7
 70
     0
102
RTVSPropertyOp8
 70
     0
102
RTVSPropertyOp9
 70
     0
102
RTVSPropertyOp10
 70
     0
102
RTVSPropertyOp11
 70
     0
102
RTVSPropertyOp12
 70
     0
102
RTVSPropertyOp13
 70
     0
102
RTVSPropertyOp14
 70
     2
102
RTVSPropertyOp15
 70
     0
102
RTVSPropertyOp16
 70
     0
102
RTVSPropertyOp17
 70
     0
102
RTVSPropertyOp18
 70
     0
102
RTVSPropertyOp19
 70
     0
102
RTVSPropertyOp20
 70
     0
102
RTVSPropertyOp21
 70
     0
102
RTVSPropertyOp22
 70
     0
102
RTVSPropertyOp23
 70
     0
102
RTVSPropertyOp24
 70
     0
102
RTVSPropertyOp25
 70
     0
102
RTVSPropertyOp26
 70
     0
102
RTVSPropertyOp27
 70
     0
102
RTVSPropertyOp28
 70
     0
102
RTVSPropertyOp29
 70
     0
102
RTVSPropertyOp30
 70
     0
102
RTVSPropertyOp31
 70
     0
102
RTVSPropertyOp32
 70
     0
102
RTVSPropertyOp33
 70
     0
102
RTVSPropertyOp34
 70
     0
102
RTVSPropertyOp35
 70
     0
102
RTVSPropertyOp36
 70
     0
102
RTVSPropertyOp37
 70
     0
102
RTVSPropertyOp38
 70
     0
102
RTVSPropertyOp39
 70
     0
102
RTVSPropertyOp40
 70
     0
102
RTVSPropertyOp41
 70
     0
102
RTVSPropertyOp42
 70
     0
102
RTVSPropertyOp43
 70
     0
102
RTVSPropertyOp44
 70
     0
102
RTVSPropertyOp45
 70
     0
102
RTVSPropertyOp46
 70
     0
102
RTVSPropertyOp47
 70
     0
102
RTVSPropertyOp48
 70
     0
102
RTVSPropertyOp49
 70
     0
102
RTVSPropertyOp50
 70
     0
102
RTVSPropertyOp51
 70
     0
102
RTVSPropertyOp52
 70
     0
102
RTVSPropertyOp53
 70
     0
102
RTVSPropertyOp54
 70
     0
102
RTVSPropertyOp55
 70
     0
102
RTVSPropertyOp56
 70
     0
102
RTVSPropertyOp57
 70
     0
102
RTVSPost2010Prop28
280
     0
102
RTVSPost2010PropOp28
 70
     0
102
RTVSPost2010Prop29
280
     1
102
RTVSPost2010PropOp29
 70
     0
102
RTVSPost2010Prop30
280
     1
102
RTVSPost2010PropOp30
 70
     0
102
RTVSPost2010Prop31
280
     0
102
RTVSPost2010PropOp31
 70
     0
102
RTVSPost2010Prop32
280
     0
102
RTVSPost2010PropOp32
 70
     0
102
RTVSPost2010Prop33
280
     0
102
RTVSPost2010PropOp33
 70
     0
102
RTVSPost2010Prop34
280
     0
102
RTVSPost2010PropOp34
 70
     0
102
RTVSPost2010Prop35
280
     0
102
RTVSPost2010PropOp35
 70
     0
102
RTVSPost2010Prop36
280
     0
102
RTVSPost2010PropOp36
 70
     0
102
RTVSPost2010Prop37
 90
       50
102
RTVSPost2010PropOp37
 70
     0
102
RTVSPost2010Prop38
140
0.0
102
RTVSPost2010PropOp38
 70
     0
102
RTVSPost2010Prop39
140
1.0
102
RTVSPost2010PropOp39
 70
     0
102
RTVSPost2010Prop40
 90
        0
102
RTVSPost2010PropOp40
 70
     0
102
RTVSPost2010Prop41ColorIndex
 90
       18
102
RTVSPost2010Prop41ColorRGB
 90
        0
102
RTVSPost2010PropOp41
 70
     0
102
RTVSPost2010Prop42
 90
       50
102
RTVSPost2010PropOp42
 70
     0
102
RTVSPost2010Prop43
 90
        3
102
RTVSPost2010PropOp43
 70
     0
102
RTVSPost2010Prop44ColorIndex
 90
        5
102
RTVSPost2010Prop44ColorRGB
 90
      255
102
RTVSPost2010PropOp44
 70
     0
102
RTVSPost2010Prop45
280
     0
102
RTVSPost2010PropOp45
 70
     0
102
RTVSPost2010Prop46
 90
       50
102
RTVSPost2010PropOp46
 70
     0
102
RTVSPost2010Prop47
 90
       50
102
RTVSPost2010PropOp47
 70
     0
102
RTVSPost2010Prop48
 90
       50
102
RTVSPost2010PropOp48
 70
     0
102
RTVSPost2010Prop49
280
     0
102
RTVSPost2010PropOp49
 70
     0
102
RTVSPost2010Prop50
 90
       50
102
RTVSPost2010PropOp50
 70
     0
102
RTVSPost2010Prop51ColorIndex
 90
      256
102
RTVSPost2010Prop51ColorRGB
 90
-16777216
102
RTVSPost2010PropOp51
 70
     0
102
RTVSPost2010Prop52
140
1.0
102
RTVSPost2010PropOp52
 70
     0
102
RTVSPost2010Prop53
 90
        2
102
RTVSPost2010PropOp53
 70
     0
102
RTVSPost2010Prop54
  1
strokes_ogs.tif
102
RTVSPost2010PropOp54
 70
     0
102
RTVSPost2010Prop55
280
     0
102
RTVSPost2010PropOp55
 70
     0
102
RTVSPost2010Prop56
140
1.0
102
RTVSPost2010PropOp56
 70
     0
102
RTVSPost2010Prop57
140
1.0
102
RTVSPost2010PropOp57
 70
     0
  0
XRECORD
  5
28B
102
{ACAD_REACTORS
330
28A
102
}
330
28A
100
AcDbXrecord
280
     1
102
RTVSPropertyOp0
 70
     1
102
RTVSPropertyOp1
 70
     1
102
RTVSPropertyOp2
 70
     1
102
RTVSPropertyOp3
 70
     1
102
RTVSPropertyOp4
 70
     1
102
RTVSPropertyOp5
 70
     1
102
RTVSPropertyOp6
 70
     1
102
RTVSPropertyOp7
 70
     1
102
RTVSPropertyOp8
 70
     1
102
RTVSPropertyOp9
 70
     1
102
RTVSPropertyOp10
 70
     1
102
RTVSPropertyOp11
 70
     1
102
RTVSPropertyOp12
 70
     1
102
RTVSPropertyOp13
 70
     1
102
RTVSPropertyOp14
 70
     1
102
RTVSPropertyOp15
 70
     1
102
RTVSPropertyOp16
 70
     1
102
RTVSPropertyOp17
 70
     1
102
RTVSPropertyOp18
 70
     1
102
RTVSPropertyOp19
 70
     1
102
RTVSPropertyOp20
 70
     1
102
RTVSPropertyOp21
 70
     1
102
RTVSPropertyOp22
 70
     1
102
RTVSPropertyOp23
 70
     1
102
RTVSPropertyOp24
 70
     1
102
RTVSPropertyOp25
 70
     1
102
RTVSPropertyOp26
 70
     1
102
RTVSPropertyOp27
 70
     1
102
RTVSPropertyOp28
 70
     1
102
RTVSPropertyOp29
 70
     1
102
RTVSPropertyOp30
 70
     1
102
RTVSPropertyOp31
 70
     1
102
RTVSPropertyOp32
 70
     1
102
RTVSPropertyOp33
 70
     1
102
RTVSPropertyOp34
 70
     1
102
RTVSPropertyOp35
 70
     1
102
RTVSPropertyOp36
 70
     1
102
RTVSPropertyOp37
 70
     1
102
RTVSPropertyOp38
 70
     1
102
RTVSPropertyOp39
 70
     1
102
RTVSPropertyOp40
 70
     1
102
RTVSPropertyOp41
 70
     1
102
RTVSPropertyOp42
 70
     1
102
RTVSPropertyOp43
 70
     1
102
RTVSPropertyOp44
 70
     1
102
RTVSPropertyOp45
 70
     1
102
RTVSPropertyOp46
 70
     1
102
RTVSPropertyOp47
 70
     1
102
RTVSPropertyOp48
 70
     1
102
RTVSPropertyOp49
 70
     1
102
RTVSPropertyOp50
 70
     1
102
RTVSPropertyOp51
 70
     0
102
RTVSPropertyOp52
 70
     0
102
RTVSPropertyOp53
 70
     1
102
RTVSPropertyOp54
 70
     1
102
RTVSPropertyOp55
 70
     1
102
RTVSPropertyOp56
 70
     1
102
RTVSPropertyOp57
 70
     1
102
RTVSPost2010Prop28
280
     0
102
RTVSPost2010PropOp28
 70
     1
102
RTVSPost2010Prop29
280
     1
102
RTVSPost2010PropOp29
 70
     1
102
RTVSPost2010Prop30
280
     1
102
RTVSPost2010PropOp30
 70
     1
102
RTVSPost2010Prop31
280
     0
102
RTVSPost2010PropOp31
 70
     1
102
RTVSPost2010Prop32
280
     0
102
RTVSPost2010PropOp32
 70
     1
102
RTVSPost2010Prop33
280
     0
102
RTVSPost2010PropOp33
 70
     1
102
RTVSPost2010Prop34
280
     0
102
RTVSPost2010PropOp34
 70
     1
102
RTVSPost2010Prop35
280
     0
102
RTVSPost2010PropOp35
 70
     1
102
RTVSPost2010Prop36
280
     0
102
RTVSPost2010PropOp36
 70
     1
102
RTVSPost2010Prop37
 90
       50
102
RTVSPost2010PropOp37
 70
     1
102
RTVSPost2010Prop38
140
0.0
102
RTVSPost2010PropOp38
 70
     1
102
RTVSPost2010Prop39
140
1.0
102
RTVSPost2010PropOp39
 70
     1
102
RTVSPost2010Prop40
 90
        0
102
RTVSPost2010PropOp40
 70
     1
102
RTVSPost2010Prop41ColorIndex
 90
       18
102
RTVSPost2010Prop41ColorRGB
 90
        0
102
RTVSPost2010PropOp41
 70
     1
102
RTVSPost2010Prop42
 90
       50
102
RTVSPost2010PropOp42
 70
     1
102
RTVSPost2010Prop43
 90
        3
102
RTVSPost2010PropOp43
 70
     1
102
RTVSPost2010Prop44ColorIndex
 90
        5
102
RTVSPost2010Prop44ColorRGB
 90
      255
102
RTVSPost2010PropOp44
 70
     1
102
RTVSPost2010Prop45
280
     0
102
RTVSPost2010PropOp45
 70
     1
102
RTVSPost2010Prop46
 90
       50
102
RTVSPost2010PropOp46
 70
     1
102
RTVSPost2010Prop47
 90
       50
102
RTVSPost2010PropOp47
 70
     1
102
RTVSPost2010Prop48
 90
       50
102
RTVSPost2010PropOp48
 70
     1
102
RTVSPost2010Prop49
280
     0
102
RTVSPost2010PropOp49
 70
     1
102
RTVSPost2010Prop50
 90
       50
102
RTVSPost2010PropOp50
 70
     1
102
RTVSPost2010Prop51ColorIndex
 90
      256
102
RTVSPost2010Prop51ColorRGB
 90
-16777216
102
RTVSPost2010PropOp51
 70
     0
102
RTVSPost2010Prop52
140
1.0
102
RTVSPost2010PropOp52
 70
     0
102
RTVSPost2010Prop53
 90
        2
102
RTVSPost2010PropOp53
 70
     1
102
RTVSPost2010Prop54
  1
strokes_ogs.tif
102
RTVSPost2010PropOp54
 70
     1
102
RTVSPost2010Prop55
280
     0
102
RTVSPost2010PropOp55
 70
     1
102
RTVSPost2010Prop56
140
1.0
102
RTVSPost2010PropOp56
 70
     1
102
RTVSPost2010Prop57
140
1.0
102
RTVSPost2010PropOp57
 70
     1
  0
XRECORD
  5
293
102
{ACAD_REACTORS
330
292
102
}
330
292
100
AcDbXrecord
280
     1
102
RTVSPropertyOp0
 70
     0
102
RTVSPropertyOp1
 70
     0
102
RTVSPropertyOp2
 70
     0
102
RTVSPropertyOp3
 70
     0
102
RTVSPropertyOp4
 70
     0
102
RTVSPropertyOp5
 70
     0
102
RTVSPropertyOp6
 70
     0
102
RTVSPropertyOp7
 70
     0
102
RTVSPropertyOp8
 70
     0
102
RTVSPropertyOp9
 70
     0
102
RTVSPropertyOp10
 70
     0
102
RTVSPropertyOp11
 70
     0
102
RTVSPropertyOp12
 70
     0
102
RTVSPropertyOp13
 70
     0
102
RTVSPropertyOp14
 70
     2
102
RTVSPropertyOp15
 70
     0
102
RTVSPropertyOp16
 70
     0
102
RTVSPropertyOp17
 70
     0
102
RTVSPropertyOp18
 70
     0
102
RTVSPropertyOp19
 70
     0
102
RTVSPropertyOp20
 70
     0
102
RTVSPropertyOp21
 70
     0
102
RTVSPropertyOp22
 70
     0
102
RTVSPropertyOp23
 70
     0
102
RTVSPropertyOp24
 70
     0
102
RTVSPropertyOp25
 70
     0
102
RTVSPropertyOp26
 70
     0
102
RTVSPropertyOp27
 70
     0
102
RTVSPropertyOp28
 70
     0
102
RTVSPropertyOp29
 70
     0
102
RTVSPropertyOp30
 70
     0
102
RTVSPropertyOp31
 70
     0
102
RTVSPropertyOp32
 70
     0
102
RTVSPropertyOp33
 70
     0
102
RTVSPropertyOp34
 70
     0
102
RTVSPropertyOp35
 70
     0
102
RTVSPropertyOp36
 70
     0
102
RTVSPropertyOp37
 70
     0
102
RTVSPropertyOp38
 70
     0
102
RTVSPropertyOp39
 70
     0
102
RTVSPropertyOp40
 70
     0
102
RTVSPropertyOp41
 70
     0
102
RTVSPropertyOp42
 70
     0
102
RTVSPropertyOp43
 70
     0
102
RTVSPropertyOp44
 70
     0
102
RTVSPropertyOp45
 70
     0
102
RTVSPropertyOp46
 70
     0
102
RTVSPropertyOp47
 70
     0
102
RTVSPropertyOp48
 70
     0
102
RTVSPropertyOp49
 70
     0
102
RTVSPropertyOp50
 70
     0
102
RTVSPropertyOp51
 70
     0
102
RTVSPropertyOp52
 70
     0
102
RTVSPropertyOp53
 70
     0
102
RTVSPropertyOp54
 70
     0
102
RTVSPropertyOp55
 70
     0
102
RTVSPropertyOp56
 70
     0
102
RTVSPropertyOp57
 70
     0
102
RTVSPost2010Prop28
280
     0
102
RTVSPost2010PropOp28
 70
     0
102
RTVSPost2010Prop29
280
     1
102
RTVSPost2010PropOp29
 70
     0
102
RTVSPost2010Prop30
280
     1
102
RTVSPost2010PropOp30
 70
     0
102
RTVSPost2010Prop31
280
     0
102
RTVSPost2010PropOp31
 70
     0
102
RTVSPost2010Prop32
280
     0
102
RTVSPost2010PropOp32
 70
     0
102
RTVSPost2010Prop33
280
     0
102
RTVSPost2010PropOp33
 70
     0
102
RTVSPost2010Prop34
280
     0
102
RTVSPost2010PropOp34
 70
     0
102
RTVSPost2010Prop35
280
     0
102
RTVSPost2010PropOp35
 70
     0
102
RTVSPost2010Prop36
280
     0
102
RTVSPost2010PropOp36
 70
     0
102
RTVSPost2010Prop37
 90
       50
102
RTVSPost2010PropOp37
 70
     0
102
RTVSPost2010Prop38
140
0.0
102
RTVSPost2010PropOp38
 70
     0
102
RTVSPost2010Prop39
140
1.0
102
RTVSPost2010PropOp39
 70
     0
102
RTVSPost2010Prop40
 90
        0
102
RTVSPost2010PropOp40
 70
     0
102
RTVSPost2010Prop41ColorIndex
 90
       18
102
RTVSPost2010Prop41ColorRGB
 90
        0
102
RTVSPost2010PropOp41
 70
     0
102
RTVSPost2010Prop42
 90
       50
102
RTVSPost2010PropOp42
 70
     0
102
RTVSPost2010Prop43
 90
        3
102
RTVSPost2010PropOp43
 70
     0
102
RTVSPost2010Prop44ColorIndex
 90
        5
102
RTVSPost2010Prop44ColorRGB
 90
      255
102
RTVSPost2010PropOp44
 70
     0
102
RTVSPost2010Prop45
280
     0
102
RTVSPost2010PropOp45
 70
     0
102
RTVSPost2010Prop46
 90
       50
102
RTVSPost2010PropOp46
 70
     0
102
RTVSPost2010Prop47
 90
       50
102
RTVSPost2010PropOp47
 70
     0
102
RTVSPost2010Prop48
 90
       50
102
RTVSPost2010PropOp48
 70
     0
102
RTVSPost2010Prop49
280
     0
102
RTVSPost2010PropOp49
 70
     0
102
RTVSPost2010Prop50
 90
       50
102
RTVSPost2010PropOp50
 70
     0
102
RTVSPost2010Prop51ColorIndex
 90
      256
102
RTVSPost2010Prop51ColorRGB
 90
-16777216
102
RTVSPost2010PropOp51
 70
     0
102
RTVSPost2010Prop52
140
1.0
102
RTVSPost2010PropOp52
 70
     0
102
RTVSPost2010Prop53
 90
        2
102
RTVSPost2010PropOp53
 70
     0
102
RTVSPost2010Prop54
  1
strokes_ogs.tif
102
RTVSPost2010PropOp54
 70
     0
102
RTVSPost2010Prop55
280
     0
102
RTVSPost2010PropOp55
 70
     0
102
RTVSPost2010Prop56
140
1.0
102
RTVSPost2010PropOp56
 70
     0
102
RTVSPost2010Prop57
140
1.0
102
RTVSPost2010PropOp57
 70
     0
  0
XRECORD
  5
281
102
{ACAD_REACTORS
330
280
102
}
330
280
100
AcDbXrecord
280
     1
102
RTVSPropertyOp0
 70
     1
102
RTVSPropertyOp1
 70
     1
102
RTVSPropertyOp2
 70
     1
102
RTVSPropertyOp3
 70
     1
102
RTVSPropertyOp4
 70
     1
102
RTVSPropertyOp5
 70
     1
102
RTVSPropertyOp6
 70
     1
102
RTVSPropertyOp7
 70
     1
102
RTVSPropertyOp8
 70
     1
102
RTVSPropertyOp9
 70
     1
102
RTVSPropertyOp10
 70
     1
102
RTVSPropertyOp11
 70
     1
102
RTVSPropertyOp12
 70
     1
102
RTVSPropertyOp13
 70
     1
102
RTVSPropertyOp14
 70
     1
102
RTVSPropertyOp15
 70
     1
102
RTVSPropertyOp16
 70
     1
102
RTVSPropertyOp17
 70
     1
102
RTVSPropertyOp18
 70
     1
102
RTVSPropertyOp19
 70
     1
102
RTVSPropertyOp20
 70
     1
102
RTVSPropertyOp21
 70
     1
102
RTVSPropertyOp22
 70
     1
102
RTVSPropertyOp23
 70
     1
102
RTVSPropertyOp24
 70
     1
102
RTVSPropertyOp25
 70
     1
102
RTVSPropertyOp26
 70
     1
102
RTVSPropertyOp27
 70
     1
102
RTVSPropertyOp28
 70
     1
102
RTVSPropertyOp29
 70
     1
102
RTVSPropertyOp30
 70
     1
102
RTVSPropertyOp31
 70
     1
102
RTVSPropertyOp32
 70
     1
102
RTVSPropertyOp33
 70
     1
102
RTVSPropertyOp34
 70
     1
102
RTVSPropertyOp35
 70
     1
102
RTVSPropertyOp36
 70
     1
102
RTVSPropertyOp37
 70
     1
102
RTVSPropertyOp38
 70
     1
102
RTVSPropertyOp39
 70
     1
102
RTVSPropertyOp40
 70
     1
102
RTVSPropertyOp41
 70
     1
102
RTVSPropertyOp42
 70
     1
102
RTVSPropertyOp43
 70
     1
102
RTVSPropertyOp44
 70
     1
102
RTVSPropertyOp45
 70
     1
102
RTVSPropertyOp46
 70
     1
102
RTVSPropertyOp47
 70
     1
102
RTVSPropertyOp48
 70
     1
102
RTVSPropertyOp49
 70
     1
102
RTVSPropertyOp50
 70
     1
102
RTVSPropertyOp51
 70
     0
102
RTVSPropertyOp52
 70
     0
102
RTVSPropertyOp53
 70
     1
102
RTVSPropertyOp54
 70
     1
102
RTVSPropertyOp55
 70
     1
102
RTVSPropertyOp56
 70
     1
102
RTVSPropertyOp57
 70
     1
102
RTVSPost2010Prop28
280
     0
102
RTVSPost2010PropOp28
 70
     1
102
RTVSPost2010Prop29
280
     1
102
RTVSPost2010PropOp29
 70
     1
102
RTVSPost2010Prop30
280
     1
102
RTVSPost2010PropOp30
 70
     1
102
RTVSPost2010Prop31
280
     0
102
RTVSPost2010PropOp31
 70
     1
102
RTVSPost2010Prop32
280
     0
102
RTVSPost2010PropOp32
 70
     1
102
RTVSPost2010Prop33
280
     0
102
RTVSPost2010PropOp33
 70
     1
102
RTVSPost2010Prop34
280
     0
102
RTVSPost2010PropOp34
 70
     1
102
RTVSPost2010Prop35
280
     0
102
RTVSPost2010PropOp35
 70
     1
102
RTVSPost2010Prop36
280
     0
102
RTVSPost2010PropOp36
 70
     1
102
RTVSPost2010Prop37
 90
       50
102
RTVSPost2010PropOp37
 70
     1
102
RTVSPost2010Prop38
140
0.0
102
RTVSPost2010PropOp38
 70
     1
102
RTVSPost2010Prop39
140
1.0
102
RTVSPost2010PropOp39
 70
     1
102
RTVSPost2010Prop40
 90
        0
102
RTVSPost2010PropOp40
 70
     1
102
RTVSPost2010Prop41ColorIndex
 90
       18
102
RTVSPost2010Prop41ColorRGB
 90
        0
102
RTVSPost2010PropOp41
 70
     1
102
RTVSPost2010Prop42
 90
       50
102
RTVSPost2010PropOp42
 70
     1
102
RTVSPost2010Prop43
 90
        3
102
RTVSPost2010PropOp43
 70
     1
102
RTVSPost2010Prop44ColorIndex
 90
        5
102
RTVSPost2010Prop44ColorRGB
 90
      255
102
RTVSPost2010PropOp44
 70
     1
102
RTVSPost2010Prop45
280
     0
102
RTVSPost2010PropOp45
 70
     1
102
RTVSPost2010Prop46
 90
       50
102
RTVSPost2010PropOp46
 70
     1
102
RTVSPost2010Prop47
 90
       50
102
RTVSPost2010PropOp47
 70
     1
102
RTVSPost2010Prop48
 90
       50
102
RTVSPost2010PropOp48
 70
     1
102
RTVSPost2010Prop49
280
     0
102
RTVSPost2010PropOp49
 70
     1
102
RTVSPost2010Prop50
 90
       50
102
RTVSPost2010PropOp50
 70
     1
102
RTVSPost2010Prop51ColorIndex
 90
      256
102
RTVSPost2010Prop51ColorRGB
 90
-16777216
102
RTVSPost2010PropOp51
 70
     0
102
RTVSPost2010Prop52
140
1.0
102
RTVSPost2010PropOp52
 70
     0
102
RTVSPost2010Prop53
 90
        2
102
RTVSPost2010PropOp53
 70
     1
102
RTVSPost2010Prop54
  1
strokes_ogs.tif
102
RTVSPost2010PropOp54
 70
     1
102
RTVSPost2010Prop55
280
     0
102
RTVSPost2010PropOp55
 70
     1
102
RTVSPost2010Prop56
140
1.0
102
RTVSPost2010PropOp56
 70
     1
102
RTVSPost2010Prop57
140
1.0
102
RTVSPost2010PropOp57
 70
     1
  0
XRECORD
  5
29F
102
{ACAD_REACTORS
330
29E
102
}
330
29E
100
AcDbXrecord
280
     1
102
RTVSPropertyOp0
 70
     1
102
RTVSPropertyOp1
 70
     1
102
RTVSPropertyOp2
 70
     1
102
RTVSPropertyOp3
 70
     1
102
RTVSPropertyOp4
 70
     1
102
RTVSPropertyOp5
 70
     1
102
RTVSPropertyOp6
 70
     1
102
RTVSPropertyOp7
 70
     1
102
RTVSPropertyOp8
 70
     1
102
RTVSPropertyOp9
 70
     1
102
RTVSPropertyOp10
 70
     1
102
RTVSPropertyOp11
 70
     1
102
RTVSPropertyOp12
 70
     1
102
RTVSPropertyOp13
 70
     1
102
RTVSPropertyOp14
 70
     1
102
RTVSPropertyOp15
 70
     1
102
RTVSPropertyOp16
 70
     1
102
RTVSPropertyOp17
 70
     1
102
RTVSPropertyOp18
 70
     1
102
RTVSPropertyOp19
 70
     1
102
RTVSPropertyOp20
 70
     1
102
RTVSPropertyOp21
 70
     1
102
RTVSPropertyOp22
 70
     1
102
RTVSPropertyOp23
 70
     1
102
RTVSPropertyOp24
 70
     1
102
RTVSPropertyOp25
 70
     1
102
RTVSPropertyOp26
 70
     1
102
RTVSPropertyOp27
 70
     1
102
RTVSPropertyOp28
 70
     1
102
RTVSPropertyOp29
 70
     1
102
RTVSPropertyOp30
 70
     1
102
RTVSPropertyOp31
 70
     1
102
RTVSPropertyOp32
 70
     1
102
RTVSPropertyOp33
 70
     1
102
RTVSPropertyOp34
 70
     1
102
RTVSPropertyOp35
 70
     1
102
RTVSPropertyOp36
 70
     1
102
RTVSPropertyOp37
 70
     1
102
RTVSPropertyOp38
 70
     1
102
RTVSPropertyOp39
 70
     1
102
RTVSPropertyOp40
 70
     1
102
RTVSPropertyOp41
 70
     1
102
RTVSPropertyOp42
 70
     1
102
RTVSPropertyOp43
 70
     1
102
RTVSPropertyOp44
 70
     1
102
RTVSPropertyOp45
 70
     1
102
RTVSPropertyOp46
 70
     1
102
RTVSPropertyOp47
 70
     1
102
RTVSPropertyOp48
 70
     1
102
RTVSPropertyOp49
 70
     1
102
RTVSPropertyOp50
 70
     1
102
RTVSPropertyOp51
 70
     0
102
RTVSPropertyOp52
 70
     0
102
RTVSPropertyOp53
 70
     1
102
RTVSPropertyOp54
 70
     1
102
RTVSPropertyOp55
 70
     1
102
RTVSPropertyOp56
 70
     1
102
RTVSPropertyOp57
 70
     1
102
RTVSPost2010Prop28
280
     0
102
RTVSPost2010PropOp28
 70
     1
102
RTVSPost2010Prop29
280
     1
102
RTVSPost2010PropOp29
 70
     1
102
RTVSPost2010Prop30
280
     1
102
RTVSPost2010PropOp30
 70
     1
102
RTVSPost2010Prop31
280
     0
102
RTVSPost2010PropOp31
 70
     1
102
RTVSPost2010Prop32
280
     0
102
RTVSPost2010PropOp32
 70
     1
102
RTVSPost2010Prop33
280
     0
102
RTVSPost2010PropOp33
 70
     1
102
RTVSPost2010Prop34
280
     0
102
RTVSPost2010PropOp34
 70
     1
102
RTVSPost2010Prop35
280
     0
102
RTVSPost2010PropOp35
 70
     1
102
RTVSPost2010Prop36
280
     0
102
RTVSPost2010PropOp36
 70
     1
102
RTVSPost2010Prop37
 90
       50
102
RTVSPost2010PropOp37
 70
     1
102
RTVSPost2010Prop38
140
0.0
102
RTVSPost2010PropOp38
 70
     1
102
RTVSPost2010Prop39
140
1.0
102
RTVSPost2010PropOp39
 70
     1
102
RTVSPost2010Prop40
 90
        0
102
RTVSPost2010PropOp40
 70
     1
102
RTVSPost2010Prop41ColorIndex
 90
       18
102
RTVSPost2010Prop41ColorRGB
 90
        0
102
RTVSPost2010PropOp41
 70
     1
102
RTVSPost2010Prop42
 90
       50
102
RTVSPost2010PropOp42
 70
     1
102
RTVSPost2010Prop43
 90
        3
102
RTVSPost2010PropOp43
 70
     1
102
RTVSPost2010Prop44ColorIndex
 90
        5
102
RTVSPost2010Prop44ColorRGB
 90
      255
102
RTVSPost2010PropOp44
 70
     1
102
RTVSPost2010Prop45
280
     0
102
RTVSPost2010PropOp45
 70
     1
102
RTVSPost2010Prop46
 90
       50
102
RTVSPost2010PropOp46
 70
     1
102
RTVSPost2010Prop47
 90
       50
102
RTVSPost2010PropOp47
 70
     1
102
RTVSPost2010Prop48
 90
       50
102
RTVSPost2010PropOp48
 70
     1
102
RTVSPost2010Prop49
280
     0
102
RTVSPost2010PropOp49
 70
     1
102
RTVSPost2010Prop50
 90
       50
102
RTVSPost2010PropOp50
 70
     1
102
RTVSPost2010Prop51ColorIndex
 90
      256
102
RTVSPost2010Prop51ColorRGB
 90
-16777216
102
RTVSPost2010PropOp51
 70
     0
102
RTVSPost2010Prop52
140
1.0
102
RTVSPost2010PropOp52
 70
     0
102
RTVSPost2010Prop53
 90
        2
102
RTVSPost2010PropOp53
 70
     1
102
RTVSPost2010Prop54
  1
strokes_ogs.tif
102
RTVSPost2010PropOp54
 70
     1
102
RTVSPost2010Prop55
280
     0
102
RTVSPost2010PropOp55
 70
     1
102
RTVSPost2010Prop56
140
1.0
102
RTVSPost2010PropOp56
 70
     1
102
RTVSPost2010Prop57
140
1.0
102
RTVSPost2010PropOp57
 70
     1
  0
XRECORD
  5
29D
102
{ACAD_REACTORS
330
29C
102
}
330
29C
100
AcDbXrecord
280
     1
102
RTVSPropertyOp0
 70
     1
102
RTVSPropertyOp1
 70
     1
102
RTVSPropertyOp2
 70
     1
102
RTVSPropertyOp3
 70
     1
102
RTVSPropertyOp4
 70
     1
102
RTVSPropertyOp5
 70
     1
102
RTVSPropertyOp6
 70
     1
102
RTVSPropertyOp7
 70
     1
102
RTVSPropertyOp8
 70
     1
102
RTVSPropertyOp9
 70
     1
102
RTVSPropertyOp10
 70
     1
102
RTVSPropertyOp11
 70
     1
102
RTVSPropertyOp12
 70
     1
102
RTVSPropertyOp13
 70
     1
102
RTVSPropertyOp14
 70
     1
102
RTVSPropertyOp15
 70
     1
102
RTVSPropertyOp16
 70
     1
102
RTVSPropertyOp17
 70
     1
102
RTVSPropertyOp18
 70
     1
102
RTVSPropertyOp19
 70
     1
102
RTVSPropertyOp20
 70
     1
102
RTVSPropertyOp21
 70
     1
102
RTVSPropertyOp22
 70
     1
102
RTVSPropertyOp23
 70
     1
102
RTVSPropertyOp24
 70
     1
102
RTVSPropertyOp25
 70
     1
102
RTVSPropertyOp26
 70
     1
102
RTVSPropertyOp27
 70
     1
102
RTVSPropertyOp28
 70
     1
102
RTVSPropertyOp29
 70
     1
102
RTVSPropertyOp30
 70
     1
102
RTVSPropertyOp31
 70
     1
102
RTVSPropertyOp32
 70
     1
102
RTVSPropertyOp33
 70
     1
102
RTVSPropertyOp34
 70
     1
102
RTVSPropertyOp35
 70
     1
102
RTVSPropertyOp36
 70
     1
102
RTVSPropertyOp37
 70
     1
102
RTVSPropertyOp38
 70
     1
102
RTVSPropertyOp39
 70
     1
102
RTVSPropertyOp40
 70
     1
102
RTVSPropertyOp41
 70
     1
102
RTVSPropertyOp42
 70
     1
102
RTVSPropertyOp43
 70
     1
102
RTVSPropertyOp44
 70
     1
102
RTVSPropertyOp45
 70
     1
102
RTVSPropertyOp46
 70
     1
102
RTVSPropertyOp47
 70
     1
102
RTVSPropertyOp48
 70
     1
102
RTVSPropertyOp49
 70
     1
102
RTVSPropertyOp50
 70
     1
102
RTVSPropertyOp51
 70
     0
102
RTVSPropertyOp52
 70
     0
102
RTVSPropertyOp53
 70
     1
102
RTVSPropertyOp54
 70
     1
102
RTVSPropertyOp55
 70
     1
102
RTVSPropertyOp56
 70
     1
102
RTVSPropertyOp57
 70
     1
102
RTVSPost2010Prop28
280
     0
102
RTVSPost2010PropOp28
 70
     1
102
RTVSPost2010Prop29
280
     1
102
RTVSPost2010PropOp29
 70
     1
102
RTVSPost2010Prop30
280
     1
102
RTVSPost2010PropOp30
 70
     1
102
RTVSPost2010Prop31
280
     0
102
RTVSPost2010PropOp31
 70
     1
102
RTVSPost2010Prop32
280
     0
102
RTVSPost2010PropOp32
 70
     1
102
RTVSPost2010Prop33
280
     0
102
RTVSPost2010PropOp33
 70
     1
102
RTVSPost2010Prop34
280
     0
102
RTVSPost2010PropOp34
 70
     1
102
RTVSPost2010Prop35
280
     0
102
RTVSPost2010PropOp35
 70
     1
102
RTVSPost2010Prop36
280
     0
102
RTVSPost2010PropOp36
 70
     1
102
RTVSPost2010Prop37
 90
       50
102
RTVSPost2010PropOp37
 70
     1
102
RTVSPost2010Prop38
140
0.0
102
RTVSPost2010PropOp38
 70
     1
102
RTVSPost2010Prop39
140
1.0
102
RTVSPost2010PropOp39
 70
     1
102
RTVSPost2010Prop40
 90
        0
102
RTVSPost2010PropOp40
 70
     1
102
RTVSPost2010Prop41ColorIndex
 90
       18
102
RTVSPost2010Prop41ColorRGB
 90
        0
102
RTVSPost2010PropOp41
 70
     1
102
RTVSPost2010Prop42
 90
       50
102
RTVSPost2010PropOp42
 70
     1
102
RTVSPost2010Prop43
 90
        3
102
RTVSPost2010PropOp43
 70
     1
102
RTVSPost2010Prop44ColorIndex
 90
        5
102
RTVSPost2010Prop44ColorRGB
 90
      255
102
RTVSPost2010PropOp44
 70
     1
102
RTVSPost2010Prop45
280
     0
102
RTVSPost2010PropOp45
 70
     1
102
RTVSPost2010Prop46
 90
       50
102
RTVSPost2010PropOp46
 70
     1
102
RTVSPost2010Prop47
 90
       50
102
RTVSPost2010PropOp47
 70
     1
102
RTVSPost2010Prop48
 90
       50
102
RTVSPost2010PropOp48
 70
     1
102
RTVSPost2010Prop49
280
     0
102
RTVSPost2010PropOp49
 70
     1
102
RTVSPost2010Prop50
 90
       50
102
RTVSPost2010PropOp50
 70
     1
102
RTVSPost2010Prop51ColorIndex
 90
      256
102
RTVSPost2010Prop51ColorRGB
 90
-16777216
102
RTVSPost2010PropOp51
 70
     0
102
RTVSPost2010Prop52
140
1.0
102
RTVSPost2010PropOp52
 70
     0
102
RTVSPost2010Prop53
 90
        2
102
RTVSPost2010PropOp53
 70
     1
102
RTVSPost2010Prop54
  1
strokes_ogs.tif
102
RTVSPost2010PropOp54
 70
     1
102
RTVSPost2010Prop55
280
     0
102
RTVSPost2010PropOp55
 70
     1
102
RTVSPost2010Prop56
140
1.0
102
RTVSPost2010PropOp56
 70
     1
102
RTVSPost2010Prop57
140
1.0
102
RTVSPost2010PropOp57
 70
     1
  0
XRECORD
  5
297
102
{ACAD_REACTORS
330
296
102
}
330
296
100
AcDbXrecord
280
     1
102
RTVSPropertyOp0
 70
     1
102
RTVSPropertyOp1
 70
     1
102
RTVSPropertyOp2
 70
     1
102
RTVSPropertyOp3
 70
     1
102
RTVSPropertyOp4
 70
     1
102
RTVSPropertyOp5
 70
     1
102
RTVSPropertyOp6
 70
     1
102
RTVSPropertyOp7
 70
     1
102
RTVSPropertyOp8
 70
     1
102
RTVSPropertyOp9
 70
     1
102
RTVSPropertyOp10
 70
     1
102
RTVSPropertyOp11
 70
     1
102
RTVSPropertyOp12
 70
     1
102
RTVSPropertyOp13
 70
     1
102
RTVSPropertyOp14
 70
     1
102
RTVSPropertyOp15
 70
     1
102
RTVSPropertyOp16
 70
     1
102
RTVSPropertyOp17
 70
     1
102
RTVSPropertyOp18
 70
     1
102
RTVSPropertyOp19
 70
     1
102
RTVSPropertyOp20
 70
     1
102
RTVSPropertyOp21
 70
     1
102
RTVSPropertyOp22
 70
     1
102
RTVSPropertyOp23
 70
     1
102
RTVSPropertyOp24
 70
     1
102
RTVSPropertyOp25
 70
     1
102
RTVSPropertyOp26
 70
     1
102
RTVSPropertyOp27
 70
     1
102
RTVSPropertyOp28
 70
     1
102
RTVSPropertyOp29
 70
     1
102
RTVSPropertyOp30
 70
     1
102
RTVSPropertyOp31
 70
     1
102
RTVSPropertyOp32
 70
     1
102
RTVSPropertyOp33
 70
     1
102
RTVSPropertyOp34
 70
     1
102
RTVSPropertyOp35
 70
     1
102
RTVSPropertyOp36
 70
     1
102
RTVSPropertyOp37
 70
     1
102
RTVSPropertyOp38
 70
     1
102
RTVSPropertyOp39
 70
     1
102
RTVSPropertyOp40
 70
     1
102
RTVSPropertyOp41
 70
     1
102
RTVSPropertyOp42
 70
     1
102
RTVSPropertyOp43
 70
     1
102
RTVSPropertyOp44
 70
     1
102
RTVSPropertyOp45
 70
     1
102
RTVSPropertyOp46
 70
     1
102
RTVSPropertyOp47
 70
     1
102
RTVSPropertyOp48
 70
     1
102
RTVSPropertyOp49
 70
     1
102
RTVSPropertyOp50
 70
     1
102
RTVSPropertyOp51
 70
     0
102
RTVSPropertyOp52
 70
     0
102
RTVSPropertyOp53
 70
     1
102
RTVSPropertyOp54
 70
     1
102
RTVSPropertyOp55
 70
     1
102
RTVSPropertyOp56
 70
     1
102
RTVSPropertyOp57
 70
     1
102
RTVSPost2010Prop28
280
     0
102
RTVSPost2010PropOp28
 70
     1
102
RTVSPost2010Prop29
280
     1
102
RTVSPost2010PropOp29
 70
     1
102
RTVSPost2010Prop30
280
     1
102
RTVSPost2010PropOp30
 70
     1
102
RTVSPost2010Prop31
280
     0
102
RTVSPost2010PropOp31
 70
     1
102
RTVSPost2010Prop32
280
     0
102
RTVSPost2010PropOp32
 70
     1
102
RTVSPost2010Prop33
280
     0
102
RTVSPost2010PropOp33
 70
     1
102
RTVSPost2010Prop34
280
     0
102
RTVSPost2010PropOp34
 70
     1
102
RTVSPost2010Prop35
280
     0
102
RTVSPost2010PropOp35
 70
     1
102
RTVSPost2010Prop36
280
     0
102
RTVSPost2010PropOp36
 70
     1
102
RTVSPost2010Prop37
 90
       50
102
RTVSPost2010PropOp37
 70
     1
102
RTVSPost2010Prop38
140
0.0
102
RTVSPost2010PropOp38
 70
     1
102
RTVSPost2010Prop39
140
1.0
102
RTVSPost2010PropOp39
 70
     1
102
RTVSPost2010Prop40
 90
        0
102
RTVSPost2010PropOp40
 70
     1
102
RTVSPost2010Prop41ColorIndex
 90
       18
102
RTVSPost2010Prop41ColorRGB
 90
        0
102
RTVSPost2010PropOp41
 70
     1
102
RTVSPost2010Prop42
 90
       50
102
RTVSPost2010PropOp42
 70
     1
102
RTVSPost2010Prop43
 90
        3
102
RTVSPost2010PropOp43
 70
     1
102
RTVSPost2010Prop44ColorIndex
 90
        5
102
RTVSPost2010Prop44ColorRGB
 90
      255
102
RTVSPost2010PropOp44
 70
     1
102
RTVSPost2010Prop45
280
     0
102
RTVSPost2010PropOp45
 70
     1
102
RTVSPost2010Prop46
 90
       50
102
RTVSPost2010PropOp46
 70
     1
102
RTVSPost2010Prop47
 90
       50
102
RTVSPost2010PropOp47
 70
     1
102
RTVSPost2010Prop48
 90
       50
102
RTVSPost2010PropOp48
 70
     1
102
RTVSPost2010Prop49
280
     0
102
RTVSPost2010PropOp49
 70
     1
102
RTVSPost2010Prop50
 90
       50
102
RTVSPost2010PropOp50
 70
     1
102
RTVSPost2010Prop51ColorIndex
 90
      256
102
RTVSPost2010Prop51ColorRGB
 90
-16777216
102
RTVSPost2010PropOp51
 70
     0
102
RTVSPost2010Prop52
140
1.0
102
RTVSPost2010PropOp52
 70
     0
102
RTVSPost2010Prop53
 90
        2
102
RTVSPost2010PropOp53
 70
     1
102
RTVSPost2010Prop54
  1
strokes_ogs.tif
102
RTVSPost2010PropOp54
 70
     1
102
RTVSPost2010Prop55
280
     0
102
RTVSPost2010PropOp55
 70
     1
102
RTVSPost2010Prop56
140
1.0
102
RTVSPost2010PropOp56
 70
     1
102
RTVSPost2010Prop57
140
1.0
102
RTVSPost2010PropOp57
 70
     1
  0
XRECORD
  5
299
102
{ACAD_REACTORS
330
298
102
}
330
298
100
AcDbXrecord
280
     1
102
RTVSPropertyOp0
 70
     1
102
RTVSPropertyOp1
 70
     1
102
RTVSPropertyOp2
 70
     1
102
RTVSPropertyOp3
 70
     1
102
RTVSPropertyOp4
 70
     1
102
RTVSPropertyOp5
 70
     1
102
RTVSPropertyOp6
 70
     1
102
RTVSPropertyOp7
 70
     1
102
RTVSPropertyOp8
 70
     1
102
RTVSPropertyOp9
 70
     1
102
RTVSPropertyOp10
 70
     1
102
RTVSPropertyOp11
 70
     1
102
RTVSPropertyOp12
 70
     1
102
RTVSPropertyOp13
 70
     1
102
RTVSPropertyOp14
 70
     1
102
RTVSPropertyOp15
 70
     1
102
RTVSPropertyOp16
 70
     1
102
RTVSPropertyOp17
 70
     1
102
RTVSPropertyOp18
 70
     1
102
RTVSPropertyOp19
 70
     1
102
RTVSPropertyOp20
 70
     1
102
RTVSPropertyOp21
 70
     1
102
RTVSPropertyOp22
 70
     1
102
RTVSPropertyOp23
 70
     1
102
RTVSPropertyOp24
 70
     1
102
RTVSPropertyOp25
 70
     1
102
RTVSPropertyOp26
 70
     1
102
RTVSPropertyOp27
 70
     1
102
RTVSPropertyOp28
 70
     1
102
RTVSPropertyOp29
 70
     1
102
RTVSPropertyOp30
 70
     1
102
RTVSPropertyOp31
 70
     1
102
RTVSPropertyOp32
 70
     1
102
RTVSPropertyOp33
 70
     1
102
RTVSPropertyOp34
 70
     1
102
RTVSPropertyOp35
 70
     1
102
RTVSPropertyOp36
 70
     1
102
RTVSPropertyOp37
 70
     1
102
RTVSPropertyOp38
 70
     1
102
RTVSPropertyOp39
 70
     1
102
RTVSPropertyOp40
 70
     1
102
RTVSPropertyOp41
 70
     1
102
RTVSPropertyOp42
 70
     1
102
RTVSPropertyOp43
 70
     1
102
RTVSPropertyOp44
 70
     1
102
RTVSPropertyOp45
 70
     1
102
RTVSPropertyOp46
 70
     1
102
RTVSPropertyOp47
 70
     1
102
RTVSPropertyOp48
 70
     1
102
RTVSPropertyOp49
 70
     1
102
RTVSPropertyOp50
 70
     1
102
RTVSPropertyOp51
 70
     0
102
RTVSPropertyOp52
 70
     0
102
RTVSPropertyOp53
 70
     1
102
RTVSPropertyOp54
 70
     1
102
RTVSPropertyOp55
 70
     1
102
RTVSPropertyOp56
 70
     1
102
RTVSPropertyOp57
 70
     1
102
RTVSPost2010Prop28
280
     0
102
RTVSPost2010PropOp28
 70
     1
102
RTVSPost2010Prop29
280
     1
102
RTVSPost2010PropOp29
 70
     1
102
RTVSPost2010Prop30
280
     1
102
RTVSPost2010PropOp30
 70
     1
102
RTVSPost2010Prop31
280
     0
102
RTVSPost2010PropOp31
 70
     1
102
RTVSPost2010Prop32
280
     0
102
RTVSPost2010PropOp32
 70
     1
102
RTVSPost2010Prop33
280
     0
102
RTVSPost2010PropOp33
 70
     1
102
RTVSPost2010Prop34
280
     0
102
RTVSPost2010PropOp34
 70
     1
102
RTVSPost2010Prop35
280
     0
102
RTVSPost2010PropOp35
 70
     1
102
RTVSPost2010Prop36
280
     0
102
RTVSPost2010PropOp36
 70
     1
102
RTVSPost2010Prop37
 90
       50
102
RTVSPost2010PropOp37
 70
     1
102
RTVSPost2010Prop38
140
0.0
102
RTVSPost2010PropOp38
 70
     1
102
RTVSPost2010Prop39
140
1.0
102
RTVSPost2010PropOp39
 70
     1
102
RTVSPost2010Prop40
 90
        0
102
RTVSPost2010PropOp40
 70
     1
102
RTVSPost2010Prop41ColorIndex
 90
       18
102
RTVSPost2010Prop41ColorRGB
 90
        0
102
RTVSPost2010PropOp41
 70
     1
102
RTVSPost2010Prop42
 90
       50
102
RTVSPost2010PropOp42
 70
     1
102
RTVSPost2010Prop43
 90
        3
102
RTVSPost2010PropOp43
 70
     1
102
RTVSPost2010Prop44ColorIndex
 90
        5
102
RTVSPost2010Prop44ColorRGB
 90
      255
102
RTVSPost2010PropOp44
 70
     1
102
RTVSPost2010Prop45
280
     0
102
RTVSPost2010PropOp45
 70
     1
102
RTVSPost2010Prop46
 90
       50
102
RTVSPost2010PropOp46
 70
     1
102
RTVSPost2010Prop47
 90
       50
102
RTVSPost2010PropOp47
 70
     1
102
RTVSPost2010Prop48
 90
       50
102
RTVSPost2010PropOp48
 70
     1
102
RTVSPost2010Prop49
280
     0
102
RTVSPost2010PropOp49
 70
     1
102
RTVSPost2010Prop50
 90
       50
102
RTVSPost2010PropOp50
 70
     1
102
RTVSPost2010Prop51ColorIndex
 90
      256
102
RTVSPost2010Prop51ColorRGB
 90
-16777216
102
RTVSPost2010PropOp51
 70
     0
102
RTVSPost2010Prop52
140
1.0
102
RTVSPost2010PropOp52
 70
     0
102
RTVSPost2010Prop53
 90
        2
102
RTVSPost2010PropOp53
 70
     1
102
RTVSPost2010Prop54
  1
strokes_ogs.tif
102
RTVSPost2010PropOp54
 70
     1
102
RTVSPost2010Prop55
280
     0
102
RTVSPost2010PropOp55
 70
     1
102
RTVSPost2010Prop56
140
1.0
102
RTVSPost2010PropOp56
 70
     1
102
RTVSPost2010Prop57
140
1.0
102
RTVSPost2010PropOp57
 70
     1
  0
XRECORD
  5
289
102
{ACAD_REACTORS
330
288
102
}
330
288
100
AcDbXrecord
280
     1
102
RTVSPropertyOp0
 70
     1
102
RTVSPropertyOp1
 70
     1
102
RTVSPropertyOp2
 70
     1
102
RTVSPropertyOp3
 70
     1
102
RTVSPropertyOp4
 70
     1
102
RTVSPropertyOp5
 70
     1
102
RTVSPropertyOp6
 70
     1
102
RTVSPropertyOp7
 70
     1
102
RTVSPropertyOp8
 70
     1
102
RTVSPropertyOp9
 70
     1
102
RTVSPropertyOp10
 70
     1
102
RTVSPropertyOp11
 70
     1
102
RTVSPropertyOp12
 70
     1
102
RTVSPropertyOp13
 70
     1
102
RTVSPropertyOp14
 70
     1
102
RTVSPropertyOp15
 70
     1
102
RTVSPropertyOp16
 70
     1
102
RTVSPropertyOp17
 70
     1
102
RTVSPropertyOp18
 70
     1
102
RTVSPropertyOp19
 70
     1
102
RTVSPropertyOp20
 70
     1
102
RTVSPropertyOp21
 70
     1
102
RTVSPropertyOp22
 70
     1
102
RTVSPropertyOp23
 70
     1
102
RTVSPropertyOp24
 70
     1
102
RTVSPropertyOp25
 70
     1
102
RTVSPropertyOp26
 70
     1
102
RTVSPropertyOp27
 70
     1
102
RTVSPropertyOp28
 70
     1
102
RTVSPropertyOp29
 70
     1
102
RTVSPropertyOp30
 70
     1
102
RTVSPropertyOp31
 70
     1
102
RTVSPropertyOp32
 70
     1
102
RTVSPropertyOp33
 70
     1
102
RTVSPropertyOp34
 70
     1
102
RTVSPropertyOp35
 70
     1
102
RTVSPropertyOp36
 70
     1
102
RTVSPropertyOp37
 70
     1
102
RTVSPropertyOp38
 70
     1
102
RTVSPropertyOp39
 70
     1
102
RTVSPropertyOp40
 70
     1
102
RTVSPropertyOp41
 70
     1
102
RTVSPropertyOp42
 70
     1
102
RTVSPropertyOp43
 70
     1
102
RTVSPropertyOp44
 70
     1
102
RTVSPropertyOp45
 70
     1
102
RTVSPropertyOp46
 70
     1
102
RTVSPropertyOp47
 70
     1
102
RTVSPropertyOp48
 70
     1
102
RTVSPropertyOp49
 70
     1
102
RTVSPropertyOp50
 70
     1
102
RTVSPropertyOp51
 70
     0
102
RTVSPropertyOp52
 70
     0
102
RTVSPropertyOp53
 70
     1
102
RTVSPropertyOp54
 70
     1
102
RTVSPropertyOp55
 70
     1
102
RTVSPropertyOp56
 70
     1
102
RTVSPropertyOp57
 70
     1
102
RTVSPost2010Prop28
280
     0
102
RTVSPost2010PropOp28
 70
     1
102
RTVSPost2010Prop29
280
     1
102
RTVSPost2010PropOp29
 70
     1
102
RTVSPost2010Prop30
280
     1
102
RTVSPost2010PropOp30
 70
     1
102
RTVSPost2010Prop31
280
     0
102
RTVSPost2010PropOp31
 70
     1
102
RTVSPost2010Prop32
280
     0
102
RTVSPost2010PropOp32
 70
     1
102
RTVSPost2010Prop33
280
     0
102
RTVSPost2010PropOp33
 70
     1
102
RTVSPost2010Prop34
280
     0
102
RTVSPost2010PropOp34
 70
     1
102
RTVSPost2010Prop35
280
     0
102
RTVSPost2010PropOp35
 70
     1
102
RTVSPost2010Prop36
280
     0
102
RTVSPost2010PropOp36
 70
     1
102
RTVSPost2010Prop37
 90
       50
102
RTVSPost2010PropOp37
 70
     1
102
RTVSPost2010Prop38
140
0.0
102
RTVSPost2010PropOp38
 70
     1
102
RTVSPost2010Prop39
140
1.0
102
RTVSPost2010PropOp39
 70
     1
102
RTVSPost2010Prop40
 90
        0
102
RTVSPost2010PropOp40
 70
     1
102
RTVSPost2010Prop41ColorIndex
 90
       18
102
RTVSPost2010Prop41ColorRGB
 90
        0
102
RTVSPost2010PropOp41
 70
     1
102
RTVSPost2010Prop42
 90
       50
102
RTVSPost2010PropOp42
 70
     1
102
RTVSPost2010Prop43
 90
        3
102
RTVSPost2010PropOp43
 70
     1
102
RTVSPost2010Prop44ColorIndex
 90
        5
102
RTVSPost2010Prop44ColorRGB
 90
      255
102
RTVSPost2010PropOp44
 70
     1
102
RTVSPost2010Prop45
280
     0
102
RTVSPost2010PropOp45
 70
     1
102
RTVSPost2010Prop46
 90
       50
102
RTVSPost2010PropOp46
 70
     1
102
RTVSPost2010Prop47
 90
       50
102
RTVSPost2010PropOp47
 70
     1
102
RTVSPost2010Prop48
 90
       50
102
RTVSPost2010PropOp48
 70
     1
102
RTVSPost2010Prop49
280
     0
102
RTVSPost2010PropOp49
 70
     1
102
RTVSPost2010Prop50
 90
       50
102
RTVSPost2010PropOp50
 70
     1
102
RTVSPost2010Prop51ColorIndex
 90
      256
102
RTVSPost2010Prop51ColorRGB
 90
-16777216
102
RTVSPost2010PropOp51
 70
     0
102
RTVSPost2010Prop52
140
1.0
102
RTVSPost2010PropOp52
 70
     0
102
RTVSPost2010Prop53
 90
        2
102
RTVSPost2010PropOp53
 70
     1
102
RTVSPost2010Prop54
  1
strokes_ogs.tif
102
RTVSPost2010PropOp54
 70
     1
102
RTVSPost2010Prop55
280
     0
102
RTVSPost2010PropOp55
 70
     1
102
RTVSPost2010Prop56
140
1.0
102
RTVSPost2010PropOp56
 70
     1
102
RTVSPost2010Prop57
140
1.0
102
RTVSPost2010PropOp57
 70
     1
  0
XRECORD
  5
27B
102
{ACAD_REACTORS
330
27A
102
}
330
27A
100
AcDbXrecord
280
     1
102
RTVSPropertyOp0
 70
     1
102
RTVSPropertyOp1
 70
     1
102
RTVSPropertyOp2
 70
     1
102
RTVSPropertyOp3
 70
     1
102
RTVSPropertyOp4
 70
     1
102
RTVSPropertyOp5
 70
     1
102
RTVSPropertyOp6
 70
     1
102
RTVSPropertyOp7
 70
     1
102
RTVSPropertyOp8
 70
     1
102
RTVSPropertyOp9
 70
     1
102
RTVSPropertyOp10
 70
     1
102
RTVSPropertyOp11
 70
     1
102
RTVSPropertyOp12
 70
     1
102
RTVSPropertyOp13
 70
     1
102
RTVSPropertyOp14
 70
     1
102
RTVSPropertyOp15
 70
     1
102
RTVSPropertyOp16
 70
     1
102
RTVSPropertyOp17
 70
     1
102
RTVSPropertyOp18
 70
     1
102
RTVSPropertyOp19
 70
     1
102
RTVSPropertyOp20
 70
     1
102
RTVSPropertyOp21
 70
     1
102
RTVSPropertyOp22
 70
     1
102
RTVSPropertyOp23
 70
     1
102
RTVSPropertyOp24
 70
     1
102
RTVSPropertyOp25
 70
     1
102
RTVSPropertyOp26
 70
     1
102
RTVSPropertyOp27
 70
     1
102
RTVSPropertyOp28
 70
     1
102
RTVSPropertyOp29
 70
     1
102
RTVSPropertyOp30
 70
     1
102
RTVSPropertyOp31
 70
     1
102
RTVSPropertyOp32
 70
     1
102
RTVSPropertyOp33
 70
     1
102
RTVSPropertyOp34
 70
     1
102
RTVSPropertyOp35
 70
     1
102
RTVSPropertyOp36
 70
     1
102
RTVSPropertyOp37
 70
     1
102
RTVSPropertyOp38
 70
     1
102
RTVSPropertyOp39
 70
     1
102
RTVSPropertyOp40
 70
     1
102
RTVSPropertyOp41
 70
     1
102
RTVSPropertyOp42
 70
     1
102
RTVSPropertyOp43
 70
     1
102
RTVSPropertyOp44
 70
     1
102
RTVSPropertyOp45
 70
     1
102
RTVSPropertyOp46
 70
     1
102
RTVSPropertyOp47
 70
     1
102
RTVSPropertyOp48
 70
     1
102
RTVSPropertyOp49
 70
     1
102
RTVSPropertyOp50
 70
     1
102
RTVSPropertyOp51
 70
     0
102
RTVSPropertyOp52
 70
     0
102
RTVSPropertyOp53
 70
     1
102
RTVSPropertyOp54
 70
     1
102
RTVSPropertyOp55
 70
     1
102
RTVSPropertyOp56
 70
     1
102
RTVSPropertyOp57
 70
     1
102
RTVSPost2010Prop28
280
     0
102
RTVSPost2010PropOp28
 70
     1
102
RTVSPost2010Prop29
280
     1
102
RTVSPost2010PropOp29
 70
     1
102
RTVSPost2010Prop30
280
     1
102
RTVSPost2010PropOp30
 70
     1
102
RTVSPost2010Prop31
280
     0
102
RTVSPost2010PropOp31
 70
     1
102
RTVSPost2010Prop32
280
     0
102
RTVSPost2010PropOp32
 70
     1
102
RTVSPost2010Prop33
280
     0
102
RTVSPost2010PropOp33
 70
     1
102
RTVSPost2010Prop34
280
     0
102
RTVSPost2010PropOp34
 70
     1
102
RTVSPost2010Prop35
280
     0
102
RTVSPost2010PropOp35
 70
     1
102
RTVSPost2010Prop36
280
     0
102
RTVSPost2010PropOp36
 70
     1
102
RTVSPost2010Prop37
 90
       50
102
RTVSPost2010PropOp37
 70
     1
102
RTVSPost2010Prop38
140
0.0
102
RTVSPost2010PropOp38
 70
     1
102
RTVSPost2010Prop39
140
1.0
102
RTVSPost2010PropOp39
 70
     1
102
RTVSPost2010Prop40
 90
        0
102
RTVSPost2010PropOp40
 70
     1
102
RTVSPost2010Prop41ColorIndex
 90
       18
102
RTVSPost2010Prop41ColorRGB
 90
        0
102
RTVSPost2010PropOp41
 70
     1
102
RTVSPost2010Prop42
 90
       50
102
RTVSPost2010PropOp42
 70
     1
102
RTVSPost2010Prop43
 90
        3
102
RTVSPost2010PropOp43
 70
     1
102
RTVSPost2010Prop44ColorIndex
 90
        5
102
RTVSPost2010Prop44ColorRGB
 90
      255
102
RTVSPost2010PropOp44
 70
     1
102
RTVSPost2010Prop45
280
     0
102
RTVSPost2010PropOp45
 70
     1
102
RTVSPost2010Prop46
 90
       50
102
RTVSPost2010PropOp46
 70
     1
102
RTVSPost2010Prop47
 90
       50
102
RTVSPost2010PropOp47
 70
     1
102
RTVSPost2010Prop48
 90
       50
102
RTVSPost2010PropOp48
 70
     1
102
RTVSPost2010Prop49
280
     0
102
RTVSPost2010PropOp49
 70
     1
102
RTVSPost2010Prop50
 90
       50
102
RTVSPost2010PropOp50
 70
     1
102
RTVSPost2010Prop51ColorIndex
 90
      256
102
RTVSPost2010Prop51ColorRGB
 90
-16777216
102
RTVSPost2010PropOp51
 70
     0
102
RTVSPost2010Prop52
140
1.0
102
RTVSPost2010PropOp52
 70
     0
102
RTVSPost2010Prop53
 90
        2
102
RTVSPost2010PropOp53
 70
     1
102
RTVSPost2010Prop54
  1
strokes_ogs.tif
102
RTVSPost2010PropOp54
 70
     1
102
RTVSPost2010Prop55
280
     0
102
RTVSPost2010PropOp55
 70
     1
102
RTVSPost2010Prop56
140
1.0
102
RTVSPost2010PropOp56
 70
     1
102
RTVSPost2010Prop57
140
1.0
102
RTVSPost2010PropOp57
 70
     1
  0
XRECORD
  5
29B
102
{ACAD_REACTORS
330
29A
102
}
330
29A
100
AcDbXrecord
280
     1
102
RTVSPropertyOp0
 70
     1
102
RTVSPropertyOp1
 70
     1
102
RTVSPropertyOp2
 70
     1
102
RTVSPropertyOp3
 70
     1
102
RTVSPropertyOp4
 70
     1
102
RTVSPropertyOp5
 70
     1
102
RTVSPropertyOp6
 70
     1
102
RTVSPropertyOp7
 70
     1
102
RTVSPropertyOp8
 70
     1
102
RTVSPropertyOp9
 70
     1
102
RTVSPropertyOp10
 70
     1
102
RTVSPropertyOp11
 70
     1
102
RTVSPropertyOp12
 70
     1
102
RTVSPropertyOp13
 70
     1
102
RTVSPropertyOp14
 70
     1
102
RTVSPropertyOp15
 70
     1
102
RTVSPropertyOp16
 70
     1
102
RTVSPropertyOp17
 70
     1
102
RTVSPropertyOp18
 70
     1
102
RTVSPropertyOp19
 70
     1
102
RTVSPropertyOp20
 70
     1
102
RTVSPropertyOp21
 70
     1
102
RTVSPropertyOp22
 70
     1
102
RTVSPropertyOp23
 70
     1
102
RTVSPropertyOp24
 70
     1
102
RTVSPropertyOp25
 70
     1
102
RTVSPropertyOp26
 70
     1
102
RTVSPropertyOp27
 70
     1
102
RTVSPropertyOp28
 70
     1
102
RTVSPropertyOp29
 70
     1
102
RTVSPropertyOp30
 70
     1
102
RTVSPropertyOp31
 70
     1
102
RTVSPropertyOp32
 70
     1
102
RTVSPropertyOp33
 70
     1
102
RTVSPropertyOp34
 70
     1
102
RTVSPropertyOp35
 70
     1
102
RTVSPropertyOp36
 70
     1
102
RTVSPropertyOp37
 70
     1
102
RTVSPropertyOp38
 70
     1
102
RTVSPropertyOp39
 70
     1
102
RTVSPropertyOp40
 70
     1
102
RTVSPropertyOp41
 70
     1
102
RTVSPropertyOp42
 70
     1
102
RTVSPropertyOp43
 70
     1
102
RTVSPropertyOp44
 70
     1
102
RTVSPropertyOp45
 70
     1
102
RTVSPropertyOp46
 70
     1
102
RTVSPropertyOp47
 70
     1
102
RTVSPropertyOp48
 70
     1
102
RTVSPropertyOp49
 70
     1
102
RTVSPropertyOp50
 70
     1
102
RTVSPropertyOp51
 70
     0
102
RTVSPropertyOp52
 70
     0
102
RTVSPropertyOp53
 70
     1
102
RTVSPropertyOp54
 70
     1
102
RTVSPropertyOp55
 70
     1
102
RTVSPropertyOp56
 70
     1
102
RTVSPropertyOp57
 70
     1
102
RTVSPost2010Prop28
280
     0
102
RTVSPost2010PropOp28
 70
     1
102
RTVSPost2010Prop29
280
     1
102
RTVSPost2010PropOp29
 70
     1
102
RTVSPost2010Prop30
280
     1
102
RTVSPost2010PropOp30
 70
     1
102
RTVSPost2010Prop31
280
     0
102
RTVSPost2010PropOp31
 70
     1
102
RTVSPost2010Prop32
280
     0
102
RTVSPost2010PropOp32
 70
     1
102
RTVSPost2010Prop33
280
     0
102
RTVSPost2010PropOp33
 70
     1
102
RTVSPost2010Prop34
280
     0
102
RTVSPost2010PropOp34
 70
     1
102
RTVSPost2010Prop35
280
     0
102
RTVSPost2010PropOp35
 70
     1
102
RTVSPost2010Prop36
280
     0
102
RTVSPost2010PropOp36
 70
     1
102
RTVSPost2010Prop37
 90
       50
102
RTVSPost2010PropOp37
 70
     1
102
RTVSPost2010Prop38
140
0.0
102
RTVSPost2010PropOp38
 70
     1
102
RTVSPost2010Prop39
140
1.0
102
RTVSPost2010PropOp39
 70
     1
102
RTVSPost2010Prop40
 90
        0
102
RTVSPost2010PropOp40
 70
     1
102
RTVSPost2010Prop41ColorIndex
 90
       18
102
RTVSPost2010Prop41ColorRGB
 90
        0
102
RTVSPost2010PropOp41
 70
     1
102
RTVSPost2010Prop42
 90
       50
102
RTVSPost2010PropOp42
 70
     1
102
RTVSPost2010Prop43
 90
        3
102
RTVSPost2010PropOp43
 70
     1
102
RTVSPost2010Prop44ColorIndex
 90
        5
102
RTVSPost2010Prop44ColorRGB
 90
      255
102
RTVSPost2010PropOp44
 70
     1
102
RTVSPost2010Prop45
280
     0
102
RTVSPost2010PropOp45
 70
     1
102
RTVSPost2010Prop46
 90
       50
102
RTVSPost2010PropOp46
 70
     1
102
RTVSPost2010Prop47
 90
       50
102
RTVSPost2010PropOp47
 70
     1
102
RTVSPost2010Prop48
 90
       50
102
RTVSPost2010PropOp48
 70
     1
102
RTVSPost2010Prop49
280
     0
102
RTVSPost2010PropOp49
 70
     1
102
RTVSPost2010Prop50
 90
       50
102
RTVSPost2010PropOp50
 70
     1
102
RTVSPost2010Prop51ColorIndex
 90
      256
102
RTVSPost2010Prop51ColorRGB
 90
-16777216
102
RTVSPost2010PropOp51
 70
     0
102
RTVSPost2010Prop52
140
1.0
102
RTVSPost2010PropOp52
 70
     0
102
RTVSPost2010Prop53
 90
        2
102
RTVSPost2010PropOp53
 70
     1
102
RTVSPost2010Prop54
  1
strokes_ogs.tif
102
RTVSPost2010PropOp54
 70
     1
102
RTVSPost2010Prop55
280
     0
102
RTVSPost2010PropOp55
 70
     1
102
RTVSPost2010Prop56
140
1.0
102
RTVSPost2010PropOp56
 70
     1
102
RTVSPost2010Prop57
140
1.0
102
RTVSPost2010PropOp57
 70
     1
  0
ENDSEC
  0
EOF
