  0
SECTION
  2
HEADER
  9
$ACADVER
  1
AC1015
  9
$ACADMAINTVER
 70
     6
  9
$DWGCODEPAGE
  3
ANSI_1252
  9
$INSBASE
 10
0.0
 20
0.0
 30
0.0
  9
$EXTMIN
 10
0.0
 20
0.0
 30
0.0
  9
$EXTMAX
 10
3000.0
 20
4500.0
 30
0.0
  9
$LIMMIN
 10
0.0
 20
0.0
  9
$LIMMAX
 10
3000.0
 20
4500.0
  9
$ORTHOMODE
 70
     0
  9
$REGENMODE
 70
     1
  9
$FILLMODE
 70
     1
  9
$QTEXTMODE
 70
     0
  9
$MIRRTEXT
 70
     1
  9
$LTSCALE
 40
1.0
  9
$ATTMODE
 70
     1
  9
$TEXTSIZE
 40
2.5
  9
$TRACEWID
 40
1.0
  9
$TEXTSTYLE
  7
Standard
  9
$CLAYER
  8
0
  9
$CELTYPE
  6
ByLayer
  9
$CECOLOR
 62
   256
  9
$CELTSCALE
 40
1.0
  9
$DISPSILH
 70
     0
  9
$DIMSCALE
 40
1.0
  9
$DIMASZ
 40
2.5
  9
$DIMEXO
 40
0.625
  9
$DIMDLI
 40
3.75
  9
$DIMRND
 40
0.0
  9
$DIMDLE
 40
0.0
  9
$DIMEXE
 40
1.25
  9
$DIMTP
 40
0.0
  9
$DIMTM
 40
0.0
  9
$DIMTXT
 40
2.5
  9
$DIMCEN
 40
2.5
  9
$DIMTSZ
 40
0.0
  9
$DIMTOL
 70
     0
  9
$DIMLIM
 70
     0
  9
$DIMTIH
 70
     0
  9
$DIMTOH
 70
     0
  9
$DIMSE1
 70
     0
  9
$DIMSE2
 70
     0
  9
$DIMTAD
 70
     1
  9
$DIMZIN
 70
     8
  9
$DIMBLK
  1

  9
$DIMASO
 70
     1
  9
$DIMSHO
 70
     1
  9
$DIMPOST
  1

  9
$DIMAPOST
  1

  9
$DIMALT
 70
     0
  9
$DIMALTD
 70
     3
  9
$DIMALTF
 40
0.0393700787
  9
$DIMLFAC
 40
1.0
  9
$DIMTOFL
 70
     1
  9
$DIMTVP
 40
0.0
  9
$DIMTIX
 70
     0
  9
$DIMSOXD
 70
     0
  9
$DIMSAH
 70
     0
  9
$DIMBLK1
  1

  9
$DIMBLK2
  1

  9
$DIMSTYLE
  2
ISO-25
  9
$DIMCLRD
 70
     0
  9
$DIMCLRE
 70
     0
  9
$DIMCLRT
 70
     0
  9
$DIMTFAC
 40
1.0
  9
$DIMGAP
 40
0.625
  9
$DIMJUST
 70
     0
  9
$DIMSD1
 70
     0
  9
$DIMSD2
 70
     0
  9
$DIMTOLJ
 70
     0
  9
$DIMTZIN
 70
     8
  9
$DIMALTZ
 70
     0
  9
$DIMALTTZ
 70
     0
  9
$DIMUPT
 70
     0
  9
$DIMDEC
 70
     2
  9
$DIMTDEC
 70
     2
  9
$DIMALTU
 70
     2
  9
$DIMALTTD
 70
     3
  9
$DIMTXSTY
  7
Standard
  9
$DIMAUNIT
 70
     0
  9
$DIMADEC
 70
     0
  9
$DIMALTRND
 40
0.0
  9
$DIMAZIN
 70
     0
  9
$DIMDSEP
 70
    44
  9
$DIMATFIT
 70
     3
  9
$DIMFRAC
 70
     0
  9
$DIMLDRBLK
  1

  9
$DIMLUNIT
 70
     2
  9
$DIMLWD
 70
    -2
  9
$DIMLWE
 70
    -2
  9
$DIMTMOVE
 70
     0
  9
$LUNITS
 70
     2
  9
$LUPREC
 70
     4
  9
$SKETCHINC
 40
1.0
  9
$FILLETRAD
 40
10.0
  9
$AUNITS
 70
     0
  9
$AUPREC
 70
     0
  9
$MENU
  1
.
  9
$ELEVATION
 40
0.0
  9
$PELEVATION
 40
0.0
  9
$THICKNESS
 40
0.0
  9
$LIMCHECK
 70
     0
  9
$CHAMFERA
 40
10.0
  9
$CHAMFERB
 40
10.0
  9
$CHAMFERC
 40
20.0
  9
$CHAMFERD
 40
0.0
  9
$SKPOLY
 70
     0
  9
$TDCREATE
 40
2456336.584287454
  9
$TDUCREATE
 40
2456336.542620787
  9
$TDUPDATE
 40
2456336.584287465
  9
$TDUUPDATE
 40
2456336.542620799
  9
$TDINDWG
 40
0.0000000116
  9
$TDUSRTIMER
 40
0.0000000116
  9
$USRTIMER
 70
     1
  9
$ANGBASE
 50
0.0
  9
$ANGDIR
 70
     0
  9
$PDMODE
 70
     0
  9
$PDSIZE
 40
0.0
  9
$PLINEWID
 40
0.0
  9
$SPLFRAME
 70
     0
  9
$SPLINETYPE
 70
     6
  9
$SPLINESEGS
 70
     8
  9
$HANDSEED
  5
268
  9
$SURFTAB1
 70
     6
  9
$SURFTAB2
 70
     6
  9
$SURFTYPE
 70
     6
  9
$SURFU
 70
     6
  9
$SURFV
 70
     6
  9
$UCSBASE
  2

  9
$UCSNAME
  2

  9
$UCSORG
 10
0.0
 20
0.0
 30
0.0
  9
$UCSXDIR
 10
1.0
 20
0.0
 30
0.0
  9
$UCSYDIR
 10
0.0
 20
1.0
 30
0.0
  9
$UCSORTHOREF
  2

  9
$UCSORTHOVIEW
 70
     0
  9
$UCSORGTOP
 10
0.0
 20
0.0
 30
0.0
  9
$UCSORGBOTTOM
 10
0.0
 20
0.0
 30
0.0
  9
$UCSORGLEFT
 10
0.0
 20
0.0
 30
0.0
  9
$UCSORGRIGHT
 10
0.0
 20
0.0
 30
0.0
  9
$UCSORGFRONT
 10
0.0
 20
0.0
 30
0.0
  9
$UCSORGBACK
 10
0.0
 20
0.0
 30
0.0
  9
$PUCSBASE
  2

  9
$PUCSNAME
  2

  9
$PUCSORG
 10
0.0
 20
0.0
 30
0.0
  9
$PUCSXDIR
 10
1.0
 20
0.0
 30
0.0
  9
$PUCSYDIR
 10
0.0
 20
1.0
 30
0.0
  9
$PUCSORTHOREF
  2

  9
$PUCSORTHOVIEW
 70
     0
  9
$PUCSORGTOP
 10
0.0
 20
0.0
 30
0.0
  9
$PUCSORGBOTTOM
 10
0.0
 20
0.0
 30
0.0
  9
$PUCSORGLEFT
 10
0.0
 20
0.0
 30
0.0
  9
$PUCSORGRIGHT
 10
0.0
 20
0.0
 30
0.0
  9
$PUCSORGFRONT
 10
0.0
 20
0.0
 30
0.0
  9
$PUCSORGBACK
 10
0.0
 20
0.0
 30
0.0
  9
$USERI1
 70
     0
  9
$USERI2
 70
     0
  9
$USERI3
 70
     0
  9
$USERI4
 70
     0
  9
$USERI5
 70
     0
  9
$USERR1
 40
0.0
  9
$USERR2
 40
0.0
  9
$USERR3
 40
0.0
  9
$USERR4
 40
0.0
  9
$USERR5
 40
0.0
  9
$WORLDVIEW
 70
     1
  9
$SHADEDGE
 70
     3
  9
$SHADEDIF
 70
    70
  9
$TILEMODE
 70
     1
  9
$MAXACTVP
 70
    64
  9
$PINSBASE
 10
0.0
 20
0.0
 30
0.0
  9
$PLIMCHECK
 70
     0
  9
$PEXTMIN
 10
0.0
 20
0.0
 30
0.0
  9
$PEXTMAX
 10
3000.0
 20
4500.0
 30
0.0
  9
$PLIMMIN
 10
0.0
 20
0.0
  9
$PLIMMAX
 10
3000.0
 20
4500.0
  9
$UNITMODE
 70
     0
  9
$VISRETAIN
 70
     1
  9
$PLINEGEN
 70
     0
  9
$PSLTSCALE
 70
     1
  9
$TREEDEPTH
 70
  3020
  9
$CMLSTYLE
  2
Standard
  9
$CMLJUST
 70
     0
  9
$CMLSCALE
 40
20.0
  9
$PROXYGRAPHICS
 70
     1
  9
$MEASUREMENT
 70
     1
  9
$CELWEIGHT
370
    -1
  9
$ENDCAPS
280
     0
  9
$JOINSTYLE
280
     0
  9
$LWDISPLAY
290
     0
  9
$INSUNITS
 70
     4
  9
$HYPERLINKBASE
  1

  9
$STYLESHEET
  1

  9
$XEDIT
290
     1
  9
$CEPSNTYPE
380
     0
  9
$PSTYLEMODE
290
     1
  9
$FINGERPRINTGUID
  2
{BEB4DF65-A46B-4CA7-B444-EB2A4F32E815}
  9
$VERSIONGUID
  2
{FAEB1C32-E019-11D5-929B-00C0DF256EC4}
  9
$EXTNAMES
290
     1
  9
$PSVPSCALE
 40
0.0
  9
$OLESTARTUP
290
     0
  0
ENDSEC
  0
SECTION
  2
CLASSES
  0
CLASS
  1
ACDBDICTIONARYWDFLT
  2
AcDbDictionaryWithDefault
  3
ObjectDBX Classes
 90
        0
280
     0
281
     0
  0
CLASS
  1
VISUALSTYLE
  2
AcDbVisualStyle
  3
ObjectDBX Classes
 90
     4095
280
     0
281
     0
  0
CLASS
  1
SCALE
  2
AcDbScale
  3
ObjectDBX Classes
 90
     1153
280
     0
281
     0
  0
CLASS
  1
DICTIONARYVAR
  2
AcDbDictionaryVar
  3
ObjectDBX Classes
 90
        0
280
     0
281
     0
  0
CLASS
  1
ACDBPLACEHOLDER
  2
AcDbPlaceHolder
  3
ObjectDBX Classes
 90
        0
280
     0
281
     0
  0
CLASS
  1
LAYOUT
  2
AcDbLayout
  3
ObjectDBX Classes
 90
        0
280
     0
281
     0
  0
ENDSEC
  0
SECTION
  2
TABLES
  0
TABLE
  2
VPORT
  5
8
330
0
100
AcDbSymbolTable
 70
     1
  0
VPORT
  5
29
330
8
100
AcDbSymbolTableRecord
100
AcDbViewportTableRecord
  2
*Active
 70
     0
 10
0.0
 20
0.0
 11
1.0
 21
1.0
 12
344.1869158879
 22
148.5
 13
0.0
 23
0.0
 14
10.0
 24
10.0
 15
10.0
 25
10.0
 16
0.0
 26
0.0
 36
1.0
 17
0.0
 27
0.0
 37
0.0
 40
297.0
 41
1.9729729729
 42
50.0
 43
0.0
 44
0.0
 50
0.0
 51
0.0
 71
     0
 72
   100
 73
     1
 74
     3
 75
     0
 76
     0
 77
     0
 78
     0
281
     0
 65
     1
110
0.0
120
0.0
130
0.0
111
1.0
121
0.0
131
0.0
112
0.0
122
1.0
132
0.0
 79
     0
146
0.0
  0
ENDTAB
  0
TABLE
  2
LTYPE
  5
5
330
0
100
AcDbSymbolTable
 70
     2
  0
LTYPE
  5
14
330
5
100
AcDbSymbolTableRecord
100
AcDbLinetypeTableRecord
  2
ByBlock
 70
     0
  3

 72
    65
 73
     0
 40
0.0
  0
LTYPE
  5
15
330
5
100
AcDbSymbolTableRecord
100
AcDbLinetypeTableRecord
  2
ByLayer
 70
     0
  3

 72
    65
 73
     0
 40
0.0
  0
LTYPE
  5
16
330
5
100
AcDbSymbolTableRecord
100
AcDbLinetypeTableRecord
  2
Continuous
 70
     0
  3
Solid line
 72
    65
 73
     0
 40
0.0
  0
LTYPE
  5
60
330
5
100
AcDbSymbolTableRecord
100
AcDbLinetypeTableRecord
  2
CENTER2
 70
     0
  3
Center (.5x) ___ _ ___ _ ___ _ ___ _ ___ _ ___
 72
    65
 73
     4
 40
28.575
 49
19.05
 74
     4
 75
     0
340
0
 46
0.0
 50
0.0
 44
0.0
 45
0.0
 49
-3.175
 74
     4
 75
     0
340
0
 46
0.0
 50
0.0
 44
0.0
 45
0.0
 49
3.175
 74
     4
 75
     0
340
0
 46
0.0
 50
0.0
 44
0.0
 45
0.0
 49
-3.175
 74
     4
 75
     0
340
0
 46
0.0
 50
0.0
 44
0.0
 45
0.0
  0
ENDTAB
  0
TABLE
  2
LAYER
  5
2
330
0
100
AcDbSymbolTable
 70
    12
  0
LAYER
  5
10
330
2
100
AcDbSymbolTableRecord
100
AcDbLayerTableRecord
  2
0
 70
     0
 62
     7
  6
Continuous
370
    -3
390
F
  0
LAYER
  5
5D
330
2
100
AcDbSymbolTableRecord
100
AcDbLayerTableRecord
  2
Default
 70
     0
 62
     7
  6
Continuous
370
    -3
390
F
  0
LAYER
  5
77
330
2
100
AcDbSymbolTableRecord
100
AcDbLayerTableRecord
  2
$DDT_AUDIT_GENERATED_(77)
 70
     0
 62
     7
  6
Continuous
370
    -3
390
F
  0
LAYER
  5
BB
330
2
100
AcDbSymbolTableRecord
100
AcDbLayerTableRecord
  2
$DDT_AUDIT_GENERATED_(BB)
 70
     0
 62
     7
  6
Continuous
370
    -3
390
F
  0
LAYER
  5
BE
330
2
100
AcDbSymbolTableRecord
100
AcDbLayerTableRecord
  2
$DDT_AUDIT_GENERATED_(BE)
 70
     0
 62
     7
  6
Continuous
370
    -3
390
F
  0
LAYER
  5
C1
330
2
100
AcDbSymbolTableRecord
100
AcDbLayerTableRecord
  2
$DDT_AUDIT_GENERATED_(C1)
 70
     0
 62
     7
  6
Continuous
370
    -3
390
F
  0
LAYER
  5
DE
330
2
100
AcDbSymbolTableRecord
100
AcDbLayerTableRecord
  2
$DDT_AUDIT_GENERATED_(DE)
 70
     0
 62
     7
  6
Continuous
370
    -3
390
F
  0
LAYER
  5
19C
330
2
100
AcDbSymbolTableRecord
100
AcDbLayerTableRecord
  2
$DDT_AUDIT_GENERATED_(19C)
 70
     0
 62
     7
  6
Continuous
370
    -3
390
F
  0
LAYER
  5
1DF
330
2
100
AcDbSymbolTableRecord
100
AcDbLayerTableRecord
  2
$DDT_AUDIT_GENERATED_(1DF)
 70
     0
 62
     7
  6
Continuous
370
    -3
390
F
  0
LAYER
  5
227
330
2
100
AcDbSymbolTableRecord
100
AcDbLayerTableRecord
  2
$DDT_AUDIT_GENERATED_(227)
 70
     0
 62
     7
  6
Continuous
370
    -3
390
F
  0
LAYER
  5
22D
330
2
100
AcDbSymbolTableRecord
100
AcDbLayerTableRecord
  2
DV2_Default
 70
     0
 62
     7
  6
Continuous
370
    -3
390
F
  0
LAYER
  5
23E
330
2
100
AcDbSymbolTableRecord
100
AcDbLayerTableRecord
  2
$DDT_AUDIT_GENERATED_(23E)
 70
     0
 62
     7
  6
Continuous
370
    -3
390
F
  0
ENDTAB
  0
TABLE
  2
STYLE
  5
3
330
0
100
AcDbSymbolTable
 70
     2
  0
STYLE
  5
11
330
3
100
AcDbSymbolTableRecord
100
AcDbTextStyleTableRecord
  2
Standard
 70
     0
 40
0.0
 41
1.0
 50
0.0
 71
     0
 42
2.5
  3
txt
  4

  0
STYLE
  5
257
330
3
100
AcDbSymbolTableRecord
100
AcDbTextStyleTableRecord
  2
SEACAD_seiso_ttf
 70
     0
 40
0.0
 41
1.0
 50
0.0
 71
     0
 42
0.2
  3
seiso.ttf
  4

  0
ENDTAB
  0
TABLE
  2
VIEW
  5
6
330
0
100
AcDbSymbolTable
 70
     0
  0
ENDTAB
  0
TABLE
  2
UCS
  5
7
330
0
100
AcDbSymbolTable
 70
     0
  0
ENDTAB
  0
TABLE
  2
APPID
  5
9
330
0
100
AcDbSymbolTable
 70
     1
  0
APPID
  5
12
330
9
100
AcDbSymbolTableRecord
100
AcDbRegAppTableRecord
  2
ACAD
 70
     0
  0
ENDTAB
  0
TABLE
  2
DIMSTYLE
  5
A
330
0
100
AcDbSymbolTable
 70
     1
100
AcDbDimStyleTable
  0
DIMSTYLE
105
27
330
A
100
AcDbSymbolTableRecord
100
AcDbDimStyleTableRecord
  2
ISO-25
 70
     0
 41
2.5
 42
0.625
 43
3.75
 44
1.25
 73
     0
 74
     0
 77
     1
 78
     8
140
2.5
141
2.5
143
0.0393700787
147
0.625
171
     3
172
     1
271
     2
272
     2
274
     3
278
    44
283
     0
284
     8
340
11
  0
ENDTAB
  0
TABLE
  2
BLOCK_RECORD
  5
1
330
0
100
AcDbSymbolTable
 70
     7
  0
BLOCK_RECORD
  5
1F
330
1
100
AcDbSymbolTableRecord
100
AcDbBlockTableRecord
  2
*Model_Space
340
22
  0
BLOCK_RECORD
  5
1B
330
1
100
AcDbSymbolTableRecord
100
AcDbBlockTableRecord
  2
*Paper_Space
340
1E
  0
BLOCK_RECORD
  5
5E
330
1
100
AcDbSymbolTableRecord
100
AcDbBlockTableRecord
  2
SEANNOT_GROUP
340
0
102
{BLKREFS
331
5F
102
}
  0
BLOCK_RECORD
  5
65
330
1
100
AcDbSymbolTableRecord
100
AcDbBlockTableRecord
  2
SEANNOT_GROUP1
340
0
102
{BLKREFS
331
66
102
}
  0
BLOCK_RECORD
  5
6B
330
1
100
AcDbSymbolTableRecord
100
AcDbBlockTableRecord
  2
SEANNOT_GROUP2
340
0
102
{BLKREFS
331
6C
102
}
  0
BLOCK_RECORD
  5
75
330
1
100
AcDbSymbolTableRecord
100
AcDbBlockTableRecord
  2
SE
340
0
102
{BLKREFS
331
76
102
}
  0
BLOCK_RECORD
  5
1E4
330
1
100
AcDbSymbolTableRecord
100
AcDbBlockTableRecord
  2
SE1
340
0
102
{BLKREFS
331
1E5
102
}
  0
BLOCK_RECORD
  5
232
330
1
100
AcDbSymbolTableRecord
100
AcDbBlockTableRecord
  2
SE2
340
0
102
{BLKREFS
331
233
102
}
  0
ENDTAB
  0
ENDSEC
  0
SECTION
  2
BLOCKS
  0
BLOCK
  5
20
330
1F
100
AcDbEntity
  8
0
100
AcDbBlockBegin
  2
*Model_Space
 70
     0
 10
0.0
 20
0.0
 30
0.0
  3
*Model_Space
  1

  0
ENDBLK
  5
21
330
1F
100
AcDbEntity
  8
0
100
AcDbBlockEnd
  0
BLOCK
  5
1C
330
1B
100
AcDbEntity
 67
     1
  8
0
100
AcDbBlockBegin
  2
*Paper_Space
 70
     0
 10
0.0
 20
0.0
 30
0.0
  3
*Paper_Space
  1

  0
ENDBLK
  5
1D
330
1B
100
AcDbEntity
 67
     1
  8
0
100
AcDbBlockEnd
  0
BLOCK
  5
63
330
5E
100
AcDbEntity
  8
0
100
AcDbBlockBegin
  2
SEANNOT_GROUP
 70
     0
 10
0.0
 20
0.0
 30
0.0
  3
SEANNOT_GROUP
  1

  0
LINE
  5
61
330
5E
100
AcDbEntity
  8
Default
  6
CENTER2
 62
     7
100
AcDbLine
 10
126.2495018562
 20
224.0744728109
 30
0.0
 11
86.2495027502
 21
224.0744728109
 31
0.0
  0
LINE
  5
62
330
5E
100
AcDbEntity
  8
Default
  6
CENTER2
 62
     7
100
AcDbLine
 10
106.2495023032
 20
244.0744723639
 30
0.0
 11
106.2495023032
 21
204.074473258
 31
0.0
  0
ENDBLK
  5
64
330
5E
100
AcDbEntity
  8
0
100
AcDbBlockEnd
  0
BLOCK
  5
69
330
65
100
AcDbEntity
  8
0
100
AcDbBlockBegin
  2
SEANNOT_GROUP1
 70
     0
 10
0.0
 20
0.0
 30
0.0
  3
SEANNOT_GROUP1
  1

  0
LINE
  5
67
330
65
100
AcDbEntity
  8
Default
  6
CENTER2
 62
     7
100
AcDbLine
 10
238.458992581
 20
224.0744728108
 30
0.0
 11
198.4589934751
 21
224.0744728108
 31
0.0
  0
LINE
  5
68
330
65
100
AcDbEntity
  8
Default
  6
CENTER2
 62
     7
100
AcDbLine
 10
218.458993028
 20
244.0744723637
 30
0.0
 11
218.458993028
 21
204.0744732578
 31
0.0
  0
ENDBLK
  5
6A
330
65
100
AcDbEntity
  8
0
100
AcDbBlockEnd
  0
BLOCK
  5
73
330
6B
100
AcDbEntity
  8
0
100
AcDbBlockBegin
  2
SEANNOT_GROUP2
 70
     0
 10
0.0
 20
0.0
 30
0.0
  3
SEANNOT_GROUP2
  1

  0
LINE
  5
6D
330
6B
100
AcDbEntity
  8
Default
  6
CENTER2
 62
     7
100
AcDbLine
 10
126.2899160669
 20
143.3185807162
 30
0.0
 11
86.289916961
 21
143.3185807162
 31
0.0
  0
LINE
  5
6E
330
6B
100
AcDbEntity
  8
Default
  6
CENTER2
 62
     7
100
AcDbLine
 10
106.2899165139
 20
163.3185802692
 30
0.0
 11
106.2899165139
 21
123.3185811633
 31
0.0
  0
LINE
  5
6F
330
6B
100
AcDbEntity
  8
Default
  6
CENTER2
 62
     7
100
AcDbLine
 10
131.2899159551
 20
143.3185807162
 30
0.0
 11
134.7366322868
 21
143.3185807162
 31
0.0
  0
LINE
  5
70
330
6B
100
AcDbEntity
  8
Default
  6
CENTER2
 62
     7
100
AcDbLine
 10
106.2899165139
 20
168.3185801574
 30
0.0
 11
106.2899165139
 21
171.7652964891
 31
0.0
  0
LINE
  5
71
330
6B
100
AcDbEntity
  8
Default
  6
CENTER2
 62
     7
100
AcDbLine
 10
81.2899170727
 20
143.3185807162
 30
0.0
 11
77.8432007411
 21
143.3185807162
 31
0.0
  0
LINE
  5
72
330
6B
100
AcDbEntity
  8
Default
  6
CENTER2
 62
     7
100
AcDbLine
 10
106.2899165139
 20
118.318581275
 30
0.0
 11
106.2899165139
 21
114.8718649434
 31
0.0
  0
ENDBLK
  5
74
330
6B
100
AcDbEntity
  8
0
100
AcDbBlockEnd
  0
BLOCK
  5
1E2
330
75
100
AcDbEntity
  8
0
100
AcDbBlockBegin
  2
SE
 70
     0
 10
0.0
 20
0.0
 30
0.0
  3
SE
  1

  0
LINE
  5
78
330
75
100
AcDbEntity
  8
$DDT_AUDIT_GENERATED_(77)
  6
Continuous
 62
     7
100
AcDbLine
 10
131.2456012375
 20
314.0791706005
 30
0.0
 11
131.2456012375
 21
224.0744728108
 31
0.0
  0
ELLIPSE
  5
79
330
75
100
AcDbEntity
  8
$DDT_AUDIT_GENERATED_(77)
  6
Continuous
 62
     7
100
AcDbEllipse
 10
81.753748887
 20
323.5744728121
 30
0.0
 11
0.3537285797375264
 21
-0.3536225539037957
 31
0.0
210
0.0
220
0.0
230
1.0
 40
0.9993091709
 41
2.35639013271488
 42
2.671897963738955
  0
ARC
  5
7A
330
75
100
AcDbEntity
  8
$DDT_AUDIT_GENERATED_(77)
  6
Continuous
 62
     7
100
AcDbCircle
 10
130.7456012533
 20
323.5744984917
 30
0.0
 40
0.4999743204067708
100
AcDbArc
 50
71.9237356303
 51
90.0
  0
LINE
  5
7B
330
75
100
AcDbEntity
  8
$DDT_AUDIT_GENERATED_(77)
  6
Continuous
 62
     7
100
AcDbLine
 10
82.6460223672
 20
314.0791706025
 30
0.0
 11
81.2586123399
 21
314.0791706005
 31
0.0
  0
LINE
  5
7C
330
75
100
AcDbEntity
  8
$DDT_AUDIT_GENERATED_(77)
  6
Continuous
 62
     7
100
AcDbLine
 10
81.2586123399
 20
314.0791706005
 30
0.0
 11
81.2520469035
 21
314.0791706005
 31
0.0
  0
SPLINE
  5
7D
330
75
100
AcDbEntity
  8
$DDT_AUDIT_GENERATED_(77)
  6
Continuous
 62
     7
100
AcDbSpline
210
0.0
220
0.0
230
1.0
 70
     8
 71
     3
 72
    24
 73
    20
 74
     0
 42
0.0000000002204928
 43
0.0000000001
 40
0.0
 40
0.0
 40
0.0
 40
0.0
 40
0.0201451760622891
 40
0.04042529546944
 40
0.0609493000352605
 40
0.0818223492314022
 40
0.1031445398493846
 40
0.1250099593470764
 40
0.184478428753331
 40
0.249934283401572
 40
0.3093684045571971
 40
0.3749242443971772
 40
0.4998811000095312
 40
0.6248947006140004
 40
0.6561541422238946
 40
0.6874139049141472
 40
0.7499314193615089
 40
0.8802689285489875
 40
1.0
 40
1.0
 40
1.0
 40
1.0
 10
106.2495023032277
 20
279.0743898290336
 30
0.0
 10
105.9241924131053
 20
279.0817352718759
 30
0.0
 10
105.2713935303023
 20
279.0964753613314
 30
0.0
 10
104.2944992378148
 20
279.2153196744527
 30
0.0
 10
103.3203875645272
 20
279.4048474569354
 30
0.0
 10
102.3510078467158
 20
279.6720585209902
 30
0.0
 10
101.3882177431897
 20
280.0149731031922
 30
0.0
 10
99.89698398971373
 20
280.6698075833598
 30
0.0
 10
97.91258135595662
 20
281.8617835713562
 30
0.0
 10
95.72503225829732
 20
283.6999445924772
 30
0.0
 10
93.74814568170834
 20
285.8389270540431
 30
0.0
 10
91.47243944723455
 20
288.8663772528072
 30
0.0
 10
89.11826817724699
 20
292.987475458793
 30
0.0
 10
87.46359336152277
 20
296.8416260960349
 30
0.0
 10
86.51036804545218
 20
299.4643007784041
 30
0.0
 10
85.90857123370493
 20
301.2224871308833
 30
0.0
 10
84.89900829661163
 20
304.3771692336646
 30
0.0
 10
83.67159274171983
 20
308.7863768434301
 30
0.0
 10
82.97807416635725
 20
312.3655079092732
 30
0.0
 10
82.64602236722438
 20
314.0791706024546
 30
0.0
  0
SPLINE
  5
7E
330
75
100
AcDbEntity
  8
$DDT_AUDIT_GENERATED_(77)
  6
Continuous
 62
     7
100
AcDbSpline
210
0.0
220
0.0
230
1.0
 70
     8
 71
     3
 72
    23
 73
    19
 74
     0
 42
0.0000000002204452
 43
0.0000000001
 40
0.0
 40
0.0
 40
0.0
 40
0.0
 40
0.0586739368940803
 40
0.1199415643517019
 40
0.1837689743278198
 40
0.2501186653410289
 40
0.3126334793871873
 40
0.3438931750564925
 40
0.3751552668729729
 40
0.5001942496265888
 40
0.6251415995778776
 40
0.6906683630450542
 40
0.7501592435917773
 40
0.8156307267381878
 40
0.8750816261050982
 40
0.9182517632069281
 40
0.9596180170963199
 40
1.0
 40
1.0
 40
1.0
 40
1.0
 10
129.8529824811548
 20
314.0791706024546
 30
0.0
 10
129.6977744977185
 20
313.2378018106612
 30
0.0
 10
129.3804975377167
 20
311.5178713879494
 30
0.0
 10
128.7931033083777
 20
308.9037348655091
 30
0.0
 10
128.101103149545
 20
306.1924231213173
 30
0.0
 10
127.3129581357227
 20
303.4761167033959
 30
0.0
 10
126.5902078806373
 20
301.2226980320906
 30
0.0
 10
125.9886395560034
 20
299.464617921522
 30
0.0
 10
125.0357255825493
 20
296.841382006978
 30
0.0
 10
123.3807502245442
 20
292.9876179617697
 30
0.0
 10
121.0266740977744
 20
288.8671983059076
 30
0.0
 10
118.7513289009123
 20
285.8394727696545
 30
0.0
 10
116.7740645807175
 20
283.700261418868
 30
0.0
 10
114.5858197867516
 20
281.8620397101952
 30
0.0
 10
112.3146848252548
 20
280.4955341955774
 30
0.0
 10
110.1821513261059
 20
279.6475304084611
 30
0.0
 10
108.2232536329443
 20
279.1644886022901
 30
0.0
 10
106.9021171323064
 20
279.1041807123246
 30
0.0
 10
106.2495023032277
 20
279.0743898290336
 30
0.0
  0
LINE
  5
7F
330
75
100
AcDbEntity
  8
$DDT_AUDIT_GENERATED_(77)
  6
Continuous
 62
     7
100
AcDbLine
 10
131.2469577029
 20
314.0791706005
 30
0.0
 11
131.2403922665
 21
314.0791706005
 31
0.0
  0
LINE
  5
80
330
75
100
AcDbEntity
  8
$DDT_AUDIT_GENERATED_(77)
  6
Continuous
 62
     7
100
AcDbLine
 10
131.2403922665
 20
314.0791706005
 30
0.0
 11
129.8529824812
 21
314.0791706025
 31
0.0
  0
LINE
  5
81
330
75
100
AcDbEntity
  8
$DDT_AUDIT_GENERATED_(77)
  6
Continuous
 62
     7
100
AcDbLine
 10
90.8750250213
 20
224.0744728111
 30
0.0
 11
121.6239795851
 21
224.0744728108
 31
0.0
  0
LINE
  5
82
330
75
100
AcDbEntity
  8
$DDT_AUDIT_GENERATED_(77)
  6
Continuous
 62
     7
100
AcDbLine
 10
131.2469576869
 20
323.5744728122
 30
0.0
 11
131.230638581
 21
323.5744728122
 31
0.0
  0
ELLIPSE
  5
83
330
75
100
AcDbEntity
  8
$DDT_AUDIT_GENERATED_(77)
  6
Continuous
 62
     7
100
AcDbEllipse
 10
130.7456140155
 20
323.5744728121
 30
0.0
 11
0.0
 21
0.4999987816108456
 31
0.0
210
0.0
220
0.0
230
1.0
 40
1.0
 41
-0.3119176187136841
 42
0.0000001510666721
  0
LINE
  5
84
330
75
100
AcDbEntity
  8
$DDT_AUDIT_GENERATED_(77)
  6
Continuous
 62
     7
100
AcDbLine
 10
129.3832882178
 20
324.0744728121
 30
0.0
 11
130.7462503443
 21
324.0744728121
 31
0.0
  0
LINE
  5
85
330
75
100
AcDbEntity
  8
$DDT_AUDIT_GENERATED_(77)
  6
Continuous
 62
     7
100
AcDbLine
 10
124.8857950047
 20
324.0744728121
 30
0.0
 11
129.3832882178
 21
324.0744728121
 31
0.0
  0
LINE
  5
86
330
75
100
AcDbEntity
  8
$DDT_AUDIT_GENERATED_(77)
  6
Continuous
 62
     7
100
AcDbLine
 10
87.6588416541
 20
324.0744728121
 30
0.0
 11
124.8401629523
 21
324.0744728121
 31
0.0
  0
LINE
  5
87
330
75
100
AcDbEntity
  8
$DDT_AUDIT_GENERATED_(77)
  6
Continuous
 62
     7
100
AcDbLine
 10
83.1157166258
 20
324.0744728121
 30
0.0
 11
87.6133998841
 21
324.0744728121
 31
0.0
  0
LINE
  5
88
330
75
100
AcDbEntity
  8
$DDT_AUDIT_GENERATED_(77)
  6
Continuous
 62
     7
100
AcDbLine
 10
81.7524843971
 20
324.0744728121
 30
0.0
 11
83.1157166258
 21
324.0744728121
 31
0.0
  0
ELLIPSE
  5
89
330
75
100
AcDbEntity
  8
$DDT_AUDIT_GENERATED_(77)
  6
Continuous
 62
     7
100
AcDbEllipse
 10
81.7533905909
 20
323.5744728121
 30
0.0
 11
-0.001486444622271488
 21
-0.4999977905907199
 31
0.0
210
0.0
220
0.0
230
0.9999999999999997
 40
0.9999745947
 41
3.144565471666196
 42
3.456546679272496
  0
LINE
  5
8A
330
75
100
AcDbEntity
  8
$DDT_AUDIT_GENERATED_(77)
  6
Continuous
 62
     7
100
AcDbLine
 10
81.2683967452
 20
323.5744728114
 30
0.0
 11
81.2520469195
 21
323.5744728114
 31
0.0
  0
SPLINE
  5
8B
330
75
100
AcDbEntity
  8
$DDT_AUDIT_GENERATED_(77)
  6
Continuous
 62
     7
100
AcDbSpline
210
0.0
220
0.0
230
1.0
 70
    12
 71
     6
 72
    14
 73
     7
 74
     0
 42
0.0000000002677756
 43
0.0000000001
 40
0.0
 40
0.0
 40
0.0
 40
0.0
 40
0.0
 40
0.0
 40
0.0
 40
0.5182029655187378
 40
0.5182029655187378
 40
0.5182029655187378
 40
0.5182029655187378
 40
0.5182029655187378
 40
0.5182029655187378
 40
0.5182029655187378
 10
106.2495023032277
 20
279.0743898290336
 30
0.0
 41
1.0
 10
106.2495023049572
 20
282.8280850191169
 30
0.0
 41
1.0
 10
106.249502306625
 20
286.4429969611679
 30
0.0
 41
1.0
 10
106.2495023082506
 20
289.9635825728278
 30
0.0
 41
1.0
 10
106.2495023097686
 20
293.2490971667231
 30
0.0
 41
1.0
 10
106.2495023110892
 20
296.1070293222276
 30
0.0
 41
1.0
 10
106.2494995172859
 20
298.4265240382435
 30
0.0
 41
1.0
  0
ARC
  5
8C
330
75
100
AcDbEntity
  8
$DDT_AUDIT_GENERATED_(77)
  6
Continuous
 62
     7
100
AcDbCircle
 10
83.6440420811
 20
288.314512744
 30
0.0
 40
25.76734208274306
100
AcDbArc
 50
81.7430153982
 51
89.1729800338
  0
ARC
  5
8D
330
75
100
AcDbEntity
  8
$DDT_AUDIT_GENERATED_(77)
  6
Continuous
 62
     7
100
AcDbCircle
 10
128.8536966089
 20
288.3375557624
 30
0.0
 40
25.74431046868063
100
AcDbArc
 50
90.8291456467
 51
98.2605975815
  0
ARC
  5
8E
330
75
100
AcDbEntity
  8
$DDT_AUDIT_GENERATED_(77)
  6
Continuous
 62
     7
100
AcDbCircle
 10
128.8536966089
 20
288.3375557624
 30
0.0
 40
25.74431046868063
100
AcDbArc
 50
98.260636568
 51
98.2614217822
  0
LINE
  5
8F
330
75
100
AcDbEntity
  8
$DDT_AUDIT_GENERATED_(77)
  6
Continuous
 62
     7
100
AcDbLine
 10
81.2534276795
 20
224.0744728108
 30
0.0
 11
81.2534552321
 21
224.0744728108
 31
0.0
  0
LINE
  5
90
330
75
100
AcDbEntity
  8
$DDT_AUDIT_GENERATED_(77)
  6
Continuous
 62
     7
100
AcDbLine
 10
90.8750250213
 20
224.0744728111
 30
0.0
 11
81.2585541892
 21
224.0744728108
 31
0.0
  0
LINE
  5
91
330
75
100
AcDbEntity
  8
$DDT_AUDIT_GENERATED_(77)
  6
Continuous
 62
     7
100
AcDbLine
 10
131.2404504224
 20
224.0744728108
 30
0.0
 11
121.6239795851
 21
224.0744728108
 31
0.0
  0
LINE
  5
92
330
75
100
AcDbEntity
  8
$DDT_AUDIT_GENERATED_(77)
  6
Continuous
 62
     7
100
AcDbLine
 10
131.2455498753
 20
224.0744728108
 30
0.0
 11
131.2455771684
 21
224.0744728106
 31
0.0
  0
ELLIPSE
  5
93
330
75
100
AcDbEntity
  8
$DDT_AUDIT_GENERATED_(77)
  6
Continuous
 62
     7
100
AcDbEllipse
 10
129.3832882178
 20
323.5744728121
 30
0.0
 11
0.0
 21
0.4696942633754304
 31
0.0
210
0.0
220
0.0
230
1.0
 40
1.0
 41
-1.570796326794897
 42
0.0
  0
LINE
  5
94
330
75
100
AcDbEntity
  8
$DDT_AUDIT_GENERATED_(77)
  6
Continuous
 62
     7
100
AcDbLine
 10
125.3401379124
 20
323.5744728121
 30
0.0
 11
125.3503775773
 21
323.5744728121
 31
0.0
  0
SPLINE
  5
95
330
75
100
AcDbEntity
  8
$DDT_AUDIT_GENERATED_(77)
  6
Continuous
 62
     7
100
AcDbSpline
210
0.0
220
0.0
230
1.0
 70
    12
 71
     2
 72
     6
 73
     3
 74
     0
 42
0.00000001
 43
0.0000000001
 40
0.0
 40
0.0
 40
0.0
 40
1.0
 40
1.0
 40
1.0
 10
124.8401629523252
 20
324.0744728121146
 30
0.0
 41
1.0
 10
125.3401629523252
 20
324.0744728121147
 30
0.0
 41
0.707106781186548
 10
125.3401629523252
 20
323.5744728121146
 30
0.0
 41
1.0
  0
SPLINE
  5
96
330
75
100
AcDbEntity
  8
$DDT_AUDIT_GENERATED_(77)
  6
Continuous
 62
     7
100
AcDbSpline
210
0.0
220
0.0
230
1.0
 70
    12
 71
     2
 72
     6
 73
     3
 74
     0
 42
0.00000001
 43
0.0000000001
 40
0.0
 40
0.0
 40
0.0
 40
1.0
 40
1.0
 40
1.0
 10
87.65884165410041
 20
324.0744728121146
 30
0.0
 41
1.0
 10
87.15884165410031
 20
324.0744728121147
 30
0.0
 41
0.70710678118641
 10
87.15884165410037
 20
323.5744728121145
 30
0.0
 41
1.0
  0
ELLIPSE
  5
97
330
75
100
AcDbEntity
  8
$DDT_AUDIT_GENERATED_(77)
  6
Continuous
 62
     7
100
AcDbEllipse
 10
83.1157166258
 20
323.5744728121
 30
0.0
 11
0.0
 21
0.5
 31
0.0
210
0.0
220
0.0
230
1.0
 40
1.0
 41
0.0
 42
1.570796326794897
  0
ARC
  5
98
330
75
100
AcDbEntity
  8
$DDT_AUDIT_GENERATED_(77)
  6
Continuous
 62
     7
100
AcDbCircle
 10
84.2100531187
 20
327.9335758608
 30
0.0
 40
13.85576475463825
100
AcDbArc
 50
269.1973708324
 51
282.2876826526
  0
ARC
  5
99
330
75
100
AcDbEntity
  8
$DDT_AUDIT_GENERATED_(77)
  6
Continuous
 62
     7
100
AcDbCircle
 10
128.2422060257
 20
327.5337839005
 30
0.0
 40
13.45673496116747
100
AcDbArc
 50
257.7555142056
 51
271.017446752
  0
ARC
  5
9A
330
75
100
AcDbEntity
  8
$DDT_AUDIT_GENERATED_(77)
  6
Continuous
 62
     7
100
AcDbCircle
 10
128.2422060257
 20
327.5337839005
 30
0.0
 40
13.45673496116747
100
AcDbArc
 50
257.5459453222
 51
257.5994753317
  0
ARC
  5
9B
330
75
100
AcDbEntity
  8
$DDT_AUDIT_GENERATED_(77)
  6
Continuous
 62
     7
100
AcDbCircle
 10
128.2422060257
 20
327.5337839005
 30
0.0
 40
13.45673496116747
100
AcDbArc
 50
257.5429033241
 51
257.5445003612
  0
LINE
  5
9C
330
75
100
AcDbEntity
  8
$DDT_AUDIT_GENERATED_(77)
  6
Continuous
 62
     7
100
AcDbLine
 10
129.8529824812
 20
314.0791706025
 30
0.0
 11
129.8529824812
 21
323.5744728121
 31
0.0
  0
LINE
  5
9D
330
75
100
AcDbEntity
  8
$DDT_AUDIT_GENERATED_(77)
  6
Continuous
 62
     7
100
AcDbLine
 10
128.4811554182
 20
314.0791706024
 30
0.0
 11
129.8529824812
 21
314.0791706025
 31
0.0
  0
LINE
  5
9E
330
75
100
AcDbEntity
  8
$DDT_AUDIT_GENERATED_(77)
  6
Continuous
 62
     7
100
AcDbLine
 10
125.3401629523
 20
323.5744728121
 30
0.0
 11
125.3401629523
 21
314.3952465998
 31
0.0
  0
ARC
  5
9F
330
75
100
AcDbEntity
  8
$DDT_AUDIT_GENERATED_(77)
  6
Continuous
 62
     7
100
AcDbCircle
 10
117.4034168454
 20
-328.8304413516
 30
0.0
 40
643.2746352058505
100
AcDbArc
 50
89.2930646352
 51
90.9935304038
  0
ARC
  5
A0
330
75
100
AcDbEntity
  8
$DDT_AUDIT_GENERATED_(77)
  6
Continuous
 62
     7
100
AcDbCircle
 10
95.1026289822
 20
-325.972355427
 30
0.0
 40
640.416853031343
100
AcDbArc
 50
89.0026927102
 51
90.7107201465
  0
LINE
  5
A1
330
75
100
AcDbEntity
  8
$DDT_AUDIT_GENERATED_(77)
  6
Continuous
 62
     7
100
AcDbLine
 10
87.1588416541
 20
323.5744728121
 30
0.0
 11
87.1588416541
 21
314.3952279895
 31
0.0
  0
LINE
  5
A2
330
75
100
AcDbEntity
  8
$DDT_AUDIT_GENERATED_(77)
  6
Continuous
 62
     7
100
AcDbLine
 10
82.6460223672
 20
323.5744728121
 30
0.0
 11
82.6460223672
 21
314.0791706025
 31
0.0
  0
LINE
  5
A3
330
75
100
AcDbEntity
  8
$DDT_AUDIT_GENERATED_(77)
  6
Continuous
 62
     7
100
AcDbLine
 10
82.6460223672
 20
314.0791706025
 30
0.0
 11
84.0159606864
 21
314.0791706024
 31
0.0
  0
ARC
  5
A4
330
75
100
AcDbEntity
  8
$DDT_AUDIT_GENERATED_(77)
  6
Continuous
 62
     7
100
AcDbCircle
 10
118.0025018824
 20
2365.826880305
 30
0.0
 40
2052.024632502731
100
AcDbArc
 50
269.6718337989
 51
270.1996955005
  0
ELLIPSE
  5
A5
330
75
100
AcDbEntity
  8
$DDT_AUDIT_GENERATED_(77)
  6
Continuous
 62
     7
100
AcDbEllipse
 10
106.2498570224
 20
314.3474835989
 30
0.0
 11
1.360415598990073E-5
 21
-1.000000005065504
 31
0.0
210
0.0
220
0.0
230
1.0
 40
0.000505712
 41
4.712388990877391
 42
5.249408538433281
  0
SPLINE
  5
A6
330
75
100
AcDbEntity
  8
$DDT_AUDIT_GENERATED_(77)
  6
Continuous
 62
     7
100
AcDbSpline
210
0.0
220
0.0
230
1.0
 70
    12
 71
     2
 72
     6
 73
     3
 74
     0
 42
0.0000000156276215
 43
0.0000000001
 40
0.0
 40
0.0
 40
0.0
 40
1.0
 40
1.0
 40
1.0
 10
125.1544991124375
 20
313.8147114001669
 30
0.0
 41
0.9999929499150044
 10
125.3401576598548
 20
314.07529544828
 30
0.0
 41
0.9524330644166581
 10
125.3401628789241
 20
314.3952300590374
 30
0.0
 41
0.9999974181071112
  0
ARC
  5
A7
330
75
100
AcDbEntity
  8
$DDT_AUDIT_GENERATED_(77)
  6
Continuous
 62
     7
100
AcDbCircle
 10
94.6291328307
 20
2250.7818276086
 30
0.0
 40
1936.980777818934
100
AcDbArc
 50
269.7845226678
 51
270.3437297647
  0
SPLINE
  5
A8
330
75
100
AcDbEntity
  8
$DDT_AUDIT_GENERATED_(77)
  6
Continuous
 62
     7
100
AcDbSpline
210
0.0
220
0.0
230
1.0
 70
    12
 71
     2
 72
     6
 73
     3
 74
     0
 42
0.0000000156274417
 43
0.0000000001
 40
0.0
 40
0.0
 40
0.0
 40
1.0
 40
1.0
 40
1.0
 10
87.15884165412672
 20
314.3952279885546
 30
0.0
 41
0.9999945134006569
 10
87.15885290127385
 20
314.0752817202879
 30
0.0
 41
0.9524337555853633
 10
87.34457417406372
 20
313.8147476495456
 30
0.0
 41
0.9999944720456274
  0
SPLINE
  5
A9
330
75
100
AcDbEntity
  8
$DDT_AUDIT_GENERATED_(77)
  6
Continuous
 62
     7
100
AcDbSpline
210
0.0
220
0.0
230
1.0
 70
     8
 71
     3
 72
    15
 73
    11
 74
     0
 42
0.0000000048504347
 43
0.0000000001
 40
0.0
 40
0.0
 40
0.0
 40
0.0
 40
0.123626225659051
 40
0.2476131355558135
 40
0.3719975591779598
 40
0.4967980085312688
 40
0.6220167117821542
 40
0.7476415405395755
 40
0.8736478178518977
 40
1.0
 40
1.0
 40
1.0
 40
1.0
 10
106.2494294553758
 20
313.8359062297189
 30
0.0
 10
106.2493586942636
 20
313.7454596397369
 30
0.0
 10
106.2493647989276
 20
313.5643025818454
 30
0.0
 10
106.249371668884
 20
313.2978692799662
 30
0.0
 10
106.2493769676709
 20
313.0347712503324
 30
0.0
 10
106.2493805915083
 20
312.7753740688206
 30
0.0
 10
106.2493826653306
 20
312.5195061630187
 30
0.0
 10
106.2493832178658
 20
312.2672824042577
 30
0.0
 10
106.2493824395007
 20
312.0183182196486
 30
0.0
 10
106.2493807969037
 20
311.855670713492
 30
0.0
 10
106.249524953951
 20
311.774235501989
 30
0.0
  0
SPLINE
  5
AA
330
75
100
AcDbEntity
  8
$DDT_AUDIT_GENERATED_(77)
  6
Continuous
 62
     7
100
AcDbSpline
210
0.0
220
0.0
230
1.0
 70
    12
 71
     6
 72
    15
 73
     8
 74
     0
 42
0.0000000008632399
 43
0.0000000001
 40
0.1132908710323079
 40
0.1132908710323079
 40
0.1132908710323079
 40
0.1132908710323079
 40
0.1132908710323079
 40
0.1132908710323079
 40
0.1132908710323079
 40
0.1611921167067468
 40
0.3344437579953833
 40
0.3344437579953833
 40
0.3344437579953833
 40
0.3344437579953833
 40
0.3344437579953833
 40
0.3344437579953833
 40
0.3344437579953833
 10
118.1925752696872
 20
307.3826875883239
 30
0.0
 41
1.0
 10
118.2724080934139
 20
307.4305718056387
 30
0.0
 41
1.0
 10
118.6398682359082
 20
307.6533969275356
 30
0.0
 41
1.0
 10
119.0020014752332
 20
307.8841991343775
 30
0.0
 41
1.0
 10
119.3580267427456
 20
308.1224487821767
 30
0.0
 41
1.0
 10
119.7072383494066
 20
308.3675118577908
 30
0.0
 41
1.0
 10
120.0490204429729
 20
308.6186924041737
 30
0.0
 41
1.0
 10
120.311955320552
 20
308.818876022351
 30
0.0
 41
1.0
  0
SPLINE
  5
AB
330
75
100
AcDbEntity
  8
$DDT_AUDIT_GENERATED_(77)
  6
Continuous
 62
     7
100
AcDbSpline
210
0.0
220
0.0
230
1.0
 70
    12
 71
     6
 72
    15
 73
     8
 74
     0
 42
0.0000000009101742
 43
0.0000000001
 40
0.3344437579953833
 40
0.3344437579953833
 40
0.3344437579953833
 40
0.3344437579953833
 40
0.3344437579953833
 40
0.3344437579953833
 40
0.3344437579953833
 40
0.6511979335832899
 40
0.7040569733109298
 40
0.7040569733109298
 40
0.7040569733109298
 40
0.7040569733109298
 40
0.7040569733109298
 40
0.7040569733109298
 40
0.7040569733109298
 10
120.3119553205521
 20
308.8188760223509
 30
0.0
 41
1.0
 10
120.7926764251916
 20
309.1848696514461
 30
0.0
 41
1.0
 10
121.3348267532257
 20
309.6252329615098
 30
0.0
 41
1.0
 10
121.8528995193321
 20
310.0782279036486
 30
0.0
 41
1.0
 10
122.3450574122695
 20
310.5402881904773
 30
0.0
 41
1.0
 10
122.8103954613441
 20
311.0080542098934
 30
0.0
 41
1.0
 10
123.2490900584113
 20
311.4788335655646
 30
0.0
 41
1.0
 10
123.311284594448
 20
311.5462146242208
 30
0.0
 41
1.0
  0
SPLINE
  5
AC
330
75
100
AcDbEntity
  8
$DDT_AUDIT_GENERATED_(77)
  6
Continuous
 62
     7
100
AcDbSpline
210
0.0
220
0.0
230
1.0
 70
    12
 71
     6
 72
    14
 73
     7
 74
     0
 42
0.0000000009765874
 43
0.0000000001
 40
0.7040569733109298
 40
0.7040569733109298
 40
0.7040569733109298
 40
0.7040569733109298
 40
0.7040569733109298
 40
0.7040569733109298
 40
0.7040569733109298
 40
0.7985572543327337
 40
0.7985572543327337
 40
0.7985572543327337
 40
0.7985572543327337
 40
0.7985572543327337
 40
0.7985572543327337
 40
0.7985572543327337
 10
123.311284594448
 20
311.5462146242208
 30
0.0
 41
1.0
 10
123.4224746796968
 20
311.6666770656757
 30
0.0
 41
1.0
 10
123.5319262033977
 20
311.7873123239449
 30
0.0
 41
1.0
 10
123.6396446929495
 20
311.9080772032825
 30
0.0
 41
1.0
 10
123.7456402870507
 20
312.0289317304577
 30
0.0
 41
1.0
 10
123.8499277187796
 20
312.1498398188065
 30
0.0
 41
1.0
 10
123.952525977359
 20
312.270770219943
 30
0.0
 41
1.0
  0
SPLINE
  5
AD
330
75
100
AcDbEntity
  8
$DDT_AUDIT_GENERATED_(77)
  6
Continuous
 62
     7
100
AcDbSpline
210
0.0
220
0.0
230
1.0
 70
    12
 71
     6
 72
    14
 73
     7
 74
     0
 42
0.000000001008191
 43
0.0000000001
 40
0.7985572543327337
 40
0.7985572543327337
 40
0.7985572543327337
 40
0.7985572543327337
 40
0.7985572543327337
 40
0.7985572543327337
 40
0.7985572543327337
 40
0.8824108872295209
 40
0.8824108872295209
 40
0.8824108872295209
 40
0.8824108872295209
 40
0.8824108872295209
 40
0.8824108872295209
 40
0.8824108872295209
 10
123.952525977359
 20
312.270770219943
 30
0.0
 41
1.0
 10
124.0435652485414
 20
312.3780762866903
 30
0.0
 41
1.0
 10
124.1332745194356
 20
312.4853999218049
 30
0.0
 41
1.0
 10
124.2216670570662
 20
312.5927192932656
 30
0.0
 41
1.0
 10
124.3087587670454
 20
312.7000155685318
 30
0.0
 41
1.0
 10
124.3945680075089
 20
312.8072734380816
 30
0.0
 41
1.0
 10
124.4791152462088
 20
312.9144817793661
 30
0.0
 41
1.0
  0
SPLINE
  5
AE
330
75
100
AcDbEntity
  8
$DDT_AUDIT_GENERATED_(77)
  6
Continuous
 62
     7
100
AcDbSpline
210
0.0
220
0.0
230
1.0
 70
    12
 71
     6
 72
    14
 73
     7
 74
     0
 42
0.0000000010405274
 43
0.0000000001
 40
0.8824108872295209
 40
0.8824108872295209
 40
0.8824108872295209
 40
0.8824108872295209
 40
0.8824108872295209
 40
0.8824108872295209
 40
0.8824108872295209
 40
0.976125434293227
 40
0.976125434293227
 40
0.976125434293227
 40
0.976125434293227
 40
0.976125434293227
 40
0.976125434293227
 40
0.976125434293227
 10
124.4791152462088
 20
312.9144817793661
 30
0.0
 41
1.0
 10
124.5736049648594
 20
313.0342974724715
 30
0.0
 41
1.0
 10
124.6665184149357
 20
313.15405130366
 30
0.0
 41
1.0
 10
124.7578841674438
 20
313.2737277469274
 30
0.0
 41
1.0
 10
124.847734084512
 20
313.3933178081861
 30
0.0
 41
1.0
 10
124.9361027215277
 20
313.5128201828788
 30
0.0
 41
1.0
 10
125.0230264236595
 20
313.6322426871958
 30
0.0
 41
1.0
  0
SPLINE
  5
AF
330
75
100
AcDbEntity
  8
$DDT_AUDIT_GENERATED_(77)
  6
Continuous
 62
     7
100
AcDbSpline
210
0.0
220
0.0
230
1.0
 70
    12
 71
     6
 72
    14
 73
     7
 74
     0
 42
0.000000001061559
 43
0.0000000001
 40
0.976125434293227
 40
0.976125434293227
 40
0.976125434293227
 40
0.976125434293227
 40
0.976125434293227
 40
0.976125434293227
 40
0.976125434293227
 40
1.0
 40
1.0
 40
1.0
 40
1.0
 40
1.0
 40
1.0
 40
1.0
 10
125.0230264236595
 20
313.6322426871958
 30
0.0
 41
1.0
 10
125.0451709647478
 20
313.6626665703123
 30
0.0
 41
1.0
 10
125.0672217269185
 20
313.6930852696953
 30
0.0
 41
1.0
 10
125.089179311113
 20
313.7234989145799
 30
0.0
 41
1.0
 10
125.1110443258118
 20
313.75390767262
 30
0.0
 41
1.0
 10
125.1328173860645
 20
313.7843117514244
 30
0.0
 41
1.0
 10
125.1544991124375
 20
313.8147114001669
 30
0.0
 41
1.0
  0
SPLINE
  5
B0
330
75
100
AcDbEntity
  8
$DDT_AUDIT_GENERATED_(77)
  6
Continuous
 62
     7
100
AcDbSpline
210
0.0
220
0.0
230
1.0
 70
    12
 71
     6
 72
    14
 73
     7
 74
     0
 42
0.0000000010115634
 43
0.0000000001
 40
0.0
 40
0.0
 40
0.0
 40
0.0
 40
0.0
 40
0.0
 40
0.0
 40
0.2959452619910655
 40
0.2959452619910655
 40
0.2959452619910655
 40
0.2959452619910655
 40
0.2959452619910655
 40
0.2959452619910655
 40
0.2959452619910655
 10
87.34457417406372
 20
313.8147476495456
 30
0.0
 41
1.0
 10
87.61328117444553
 20
313.437885155183
 30
0.0
 41
1.0
 10
87.89606731931731
 20
313.0603737715205
 30
0.0
 41
1.0
 10
88.19407607458825
 20
312.6817119309271
 30
0.0
 41
1.0
 10
88.50835332179999
 20
312.302402294563
 30
0.0
 41
1.0
 10
88.83951146353137
 20
311.9234609602405
 30
0.0
 41
1.0
 10
89.18772012808753
 20
311.5462144997907
 30
0.0
 41
1.0
  0
SPLINE
  5
B1
330
75
100
AcDbEntity
  8
$DDT_AUDIT_GENERATED_(77)
  6
Continuous
 62
     7
100
AcDbSpline
210
0.0
220
0.0
230
1.0
 70
    12
 71
     6
 72
    15
 73
     8
 74
     0
 42
0.0000000009101842
 43
0.0000000001
 40
0.2959452619910655
 40
0.2959452619910655
 40
0.2959452619910655
 40
0.2959452619910655
 40
0.2959452619910655
 40
0.2959452619910655
 40
0.2959452619910655
 40
0.3488048672471979
 40
0.6655625166857972
 40
0.6655625166857972
 40
0.6655625166857972
 40
0.6655625166857972
 40
0.6655625166857972
 40
0.6655625166857972
 40
0.6655625166857972
 10
89.18772012808753
 20
311.5462144997907
 30
0.0
 41
1.0
 10
89.24991464484167
 20
311.4788334616572
 30
0.0
 41
1.0
 10
89.68860921089595
 20
311.008054144846
 30
0.0
 41
1.0
 10
90.15394722466519
 20
310.5402881641315
 30
0.0
 41
1.0
 10
90.64610507786959
 20
310.0782279152496
 30
0.0
 41
1.0
 10
91.16417780003793
 20
309.6252330094707
 30
0.0
 41
1.0
 10
91.70632808044802
 20
309.1848697332989
 30
0.0
 41
1.0
 10
92.18704916100437
 20
308.818876117419
 30
0.0
 41
1.0
  0
SPLINE
  5
B2
330
75
100
AcDbEntity
  8
$DDT_AUDIT_GENERATED_(77)
  6
Continuous
 62
     7
100
AcDbSpline
210
0.0
220
0.0
230
1.0
 70
    12
 71
     6
 72
    15
 73
     8
 74
     0
 42
0.0000000008632494
 43
0.0000000001
 40
0.6655625166857972
 40
0.6655625166857972
 40
0.6655625166857972
 40
0.6655625166857972
 40
0.6655625166857972
 40
0.6655625166857972
 40
0.6655625166857972
 40
0.838816079033452
 40
0.8867178130327379
 40
0.8867178130327379
 40
0.8867178130327379
 40
0.8867178130327379
 40
0.8867178130327379
 40
0.8867178130327379
 40
0.8867178130327379
 10
92.18704916100437
 20
308.8188761174189
 30
0.0
 41
1.0
 10
92.44998405728742
 20
308.6186924822011
 30
0.0
 41
1.0
 10
92.79176610963275
 20
308.3675119632335
 30
0.0
 41
1.0
 10
93.14097767348302
 20
308.1224489134903
 30
0.0
 41
1.0
 10
93.49700289681913
 20
307.8841992897857
 30
0.0
 41
1.0
 10
93.85913609086677
 20
307.653397105061
 30
0.0
 41
1.0
 10
94.22659618727917
 20
307.4305720031593
 30
0.0
 41
1.0
 10
94.30642899978233
 20
307.3826878651521
 30
0.0
 41
1.0
  0
SPLINE
  5
B3
330
75
100
AcDbEntity
  8
$DDT_AUDIT_GENERATED_(77)
  6
Continuous
 62
     7
100
AcDbSpline
210
0.0
220
0.0
230
1.0
 70
     8
 71
     3
 72
    20
 73
    16
 74
     0
 42
0.0000000006077287
 43
0.0000000001
 40
0.1300551659449362
 40
0.1300551659449362
 40
0.1300551659449362
 40
0.1300551659449362
 40
0.25
 40
0.25
 40
0.375
 40
0.375
 40
0.5
 40
0.5
 40
0.625
 40
0.625
 40
0.75
 40
0.75
 40
0.875
 40
0.875
 40
1.0
 40
1.0
 40
1.0
 40
1.0
 10
118.1910510941667
 20
307.6392402113902
 30
0.0
 10
118.4161765753461
 20
307.9374148569298
 30
0.0
 10
118.5193281897109
 20
308.2518480870669
 30
0.0
 10
118.472277260441
 20
308.877680082179
 30
0.0
 10
118.3101086685819
 20
309.1966435895765
 30
0.0
 10
117.7275199990087
 20
309.7877268420315
 30
0.0
 10
117.3085734322047
 20
310.0633162771901
 30
0.0
 10
116.2220547530673
 20
310.5676210569093
 30
0.0
 10
115.5734157209606
 20
310.7886707032776
 30
0.0
 10
114.0686363315029
 20
311.1748677674517
 30
0.0
 10
113.2155513728093
 20
311.337834890361
 30
0.0
 10
111.3923546626005
 20
311.58417439827
 30
0.0
 10
110.3974760568076
 20
311.667506127778
 30
0.0
 10
108.365593824954
 20
311.755781954046
 30
0.0
 10
107.3160780095675
 20
311.7742507518122
 30
0.0
 10
106.249524953951
 20
311.774235501989
 30
0.0
  0
SPLINE
  5
B4
330
75
100
AcDbEntity
  8
$DDT_AUDIT_GENERATED_(77)
  6
Continuous
 62
     7
100
AcDbSpline
210
0.0
220
0.0
230
1.0
 70
     8
 71
     3
 72
    16
 73
    12
 74
     0
 42
0.0000000006035887
 43
0.0000000001
 40
0.0
 40
0.0
 40
0.0
 40
0.0
 40
0.1249999999999998
 40
0.1249999999999998
 40
0.2499999999999996
 40
0.2499999999999996
 40
0.4999999999999999
 40
0.4999999999999999
 40
0.7500000000000002
 40
0.7500000000000002
 40
0.8695503059419931
 40
0.8695503059419931
 40
0.8695503059419931
 40
0.8695503059419931
 10
106.249524953951
 20
311.774235501989
 30
0.0
 10
105.1853323794064
 20
311.7742540159512
 30
0.0
 10
104.1435548879672
 20
311.7560833668591
 30
0.0
 10
102.1033189065295
 20
311.6677223990825
 30
0.0
 10
101.1140698536935
 20
311.5849416348885
 30
0.0
 10
98.37725996016577
 20
311.2158634323894
 30
0.0
 10
96.81685478515783
 20
310.818211777718
 30
0.0
 10
94.65057372297521
 20
309.8127475942505
 30
0.0
 10
94.05242446969572
 20
309.2001267141576
 30
0.0
 10
93.97923665470793
 20
308.2551967427568
 30
0.0
 10
94.0818138799444
 20
307.9408544086696
 30
0.0
 10
94.30413717733057
 20
307.6443157942464
 30
0.0
  0
LINE
  5
B5
330
75
100
AcDbEntity
  8
$DDT_AUDIT_GENERATED_(77)
  6
Continuous
 62
     7
100
AcDbLine
 10
81.2586124743
 20
314.0791706006
 30
0.0
 11
81.2586124743
 21
224.0744728098
 31
0.0
  0
LINE
  5
B6
330
75
100
AcDbEntity
  8
$DDT_AUDIT_GENERATED_(77)
  6
Continuous
 62
     7
100
AcDbLine
 10
131.2403921321
 20
224.0744728098
 30
0.0
 11
131.2403921321
 21
314.0791706006
 31
0.0
  0
SPLINE
  5
B7
330
75
100
AcDbEntity
  8
$DDT_AUDIT_GENERATED_(77)
  6
Continuous
 62
     7
100
AcDbSpline
210
0.0
220
0.0
230
1.0
 70
     8
 71
     3
 72
    20
 73
    16
 74
     0
 42
0.0000000010531524
 43
0.0000000001
 40
0.0
 40
0.0
 40
0.0
 40
0.0
 40
0.0479282434495127
 40
0.1253731316475429
 40
0.2203866456910827
 40
0.3306673630206203
 40
0.4482080320909436
 40
0.5647745743084036
 40
0.6729838256168
 40
0.7664954772343601
 40
0.8444223095704341
 40
0.9079623972531141
 40
0.9583197962068701
 40
0.996702120845094
 40
1.0
 40
1.0
 40
1.0
 40
1.0
 10
131.2463918137759
 20
314.0791706049686
 30
0.0
 10
131.2463722203304
 20
314.2460251739195
 30
0.0
 10
131.2463292873489
 20
314.6161250744129
 30
0.0
 10
131.246294635856
 20
315.3298335125118
 30
0.0
 10
131.2462783798682
 20
316.2186553198086
 30
0.0
 10
131.2462826078358
 20
317.2425985119869
 30
0.0
 10
131.246287591973
 20
318.3320995396818
 30
0.0
 10
131.2462814065773
 20
319.4158464900785
 30
0.0
 10
131.2462797053137
 20
320.4232302315539
 30
0.0
 10
131.2462992812121
 20
321.3086606393949
 30
0.0
 10
131.2463426163486
 20
322.0517655150239
 30
0.0
 10
131.2464033837127
 20
322.6607318328147
 30
0.0
 10
131.2464851737069
 20
323.1377404771808
 30
0.0
 10
131.2465480139144
 20
323.4384646678254
 30
0.0
 10
131.2465946540399
 20
323.5630207273064
 30
0.0
 10
131.2465989454684
 20
323.5744728139593
 30
0.0
  0
SPLINE
  5
B8
330
75
100
AcDbEntity
  8
$DDT_AUDIT_GENERATED_(77)
  6
Continuous
 62
     7
100
AcDbSpline
210
0.0
220
0.0
230
1.0
 70
     8
 71
     3
 72
    20
 73
    16
 74
     0
 42
0.0000000010531524
 43
0.0000000001
 40
0.0
 40
0.0
 40
0.0
 40
0.0
 40
0.0479282321214404
 40
0.1253731218792382
 40
0.2203866381235186
 40
0.3306673586955005
 40
0.4482080316447657
 40
0.5647745777485583
 40
0.6729838323461265
 40
0.7664954863475507
 40
0.844422320426636
 40
0.9079624092664322
 40
0.9583198088406182
 40
0.9967021336122637
 40
1.0
 40
1.0
 40
1.0
 40
1.0
 10
81.25261279267394
 20
323.5744728075437
 30
0.0
 10
81.25263238611541
 20
323.4076182780353
 30
0.0
 10
81.25267531909508
 20
323.0375184052395
 30
0.0
 10
81.2527099705875
 20
322.3238099902453
 30
0.0
 10
81.25272622657815
 20
321.4349881615066
 30
0.0
 10
81.25272199861064
 20
320.4110449395981
 30
0.0
 10
81.25271701447326
 20
319.3215438771676
 30
0.0
 10
81.25272319986911
 20
318.2377968917796
 30
0.0
 10
81.25272490113228
 20
317.2304131201003
 30
0.0
 10
81.25270532523187
 20
316.344982688736
 30
0.0
 10
81.25266199009212
 20
315.601877796604
 30
0.0
 10
81.2526012227258
 20
314.9929114671483
 30
0.0
 10
81.25251943272444
 20
314.5159028181495
 30
0.0
 10
81.25245659252866
 20
314.2151786641867
 30
0.0
 10
81.25240995241617
 20
314.0906226408595
 30
0.0
 10
81.25240566100419
 20
314.0791705985415
 30
0.0
  0
ARC
  5
B9
330
75
100
AcDbEntity
  8
$DDT_AUDIT_GENERATED_(77)
  6
Continuous
 62
     7
100
AcDbCircle
 10
130.7661103785
 20
323.604282364
 30
0.0
 40
0.4654789330306769
100
AcDbArc
 50
356.3282309857
 51
73.5469428779
  0
ARC
  5
BA
330
75
100
AcDbEntity
  8
$DDT_AUDIT_GENERATED_(77)
  6
Continuous
 62
     7
100
AcDbCircle
 10
81.7328550713
 20
323.6043390168
 30
0.0
 40
0.4654128637288054
100
AcDbArc
 50
106.453947783
 51
183.6792797236
  0
LINE
  5
BC
330
75
100
AcDbEntity
  8
$DDT_AUDIT_GENERATED_(BB)
  6
Continuous
 62
     7
100
AcDbLine
 10
128.5830118997
 20
224.0744728108
 30
0.0
 11
108.4056154745
 21
224.0744728108
 31
0.0
  0
LINE
  5
BD
330
75
100
AcDbEntity
  8
$DDT_AUDIT_GENERATED_(BB)
  6
Continuous
 62
     7
100
AcDbLine
 10
106.2036598679
 20
224.0744728108
 30
0.0
 11
83.9163681629
 21
224.0744728108
 31
0.0
  0
ELLIPSE
  5
BF
330
75
100
AcDbEntity
  8
$DDT_AUDIT_GENERATED_(BE)
  6
Continuous
 62
     7
100
AcDbEllipse
 10
106.2495023032
 20
341.3709990972
 30
0.0
 11
0.0
 21
3.449999999999989
 31
0.0
210
0.0
220
0.0
230
1.0
 40
1.0
 41
-1.570796326794897
 42
0.0
  0
ELLIPSE
  5
C0
330
75
100
AcDbEntity
  8
$DDT_AUDIT_GENERATED_(BE)
  6
Continuous
 62
     7
100
AcDbEllipse
 10
106.2495023032
 20
341.3709990972
 30
0.0
 11
0.0
 21
3.833216195733996
 31
0.0
210
0.0
220
0.0
230
1.0
 40
1.0
 41
0.0
 42
1.570796326794897
  0
ELLIPSE
  5
C2
330
75
100
AcDbEntity
  8
$DDT_AUDIT_GENERATED_(C1)
  6
Continuous
 62
     7
100
AcDbEllipse
 10
106.2495023032
 20
303.1539253849
 30
0.0
 11
11.93499999999996
 21
-1.387778780781446E-14
 31
0.0
210
0.0
220
0.0
230
1.0
 40
0.3746065934
 41
3.014269570785032
 42
3.265331251553289
  0
ELLIPSE
  5
C3
330
75
100
AcDbEntity
  8
$DDT_AUDIT_GENERATED_(C1)
  6
Continuous
 62
     7
100
AcDbEllipse
 10
106.2495023032
 20
303.1539253849
 30
0.0
 11
11.93499999999996
 21
-1.387778780781446E-14
 31
0.0
210
0.0
220
0.0
230
1.0
 40
0.3746065934
 41
1.974622415955678
 42
3.014269570785032
  0
ELLIPSE
  5
C4
330
75
100
AcDbEntity
  8
$DDT_AUDIT_GENERATED_(C1)
  6
Continuous
 62
     7
100
AcDbEllipse
 10
106.2495023032
 20
303.0334806691
 30
0.0
 11
11.85999999999212
 21
3.941291737419306E-12
 31
0.0
210
0.0
220
0.0
230
1.0
 40
0.3746065934
 41
3.563036754016687
 42
3.916701664304127
  0
ELLIPSE
  5
C5
330
75
100
AcDbEntity
  8
$DDT_AUDIT_GENERATED_(C1)
  6
Continuous
 62
     7
100
AcDbEllipse
 10
106.2495023032
 20
303.0334806691
 30
0.0
 11
11.85999999999212
 21
3.941291737419306E-12
 31
0.0
210
0.0
220
0.0
230
1.0
 40
0.3746065934
 41
1.959557265099163
 42
3.563036754016687
  0
ELLIPSE
  5
C6
330
75
100
AcDbEntity
  8
$DDT_AUDIT_GENERATED_(C1)
  6
Continuous
 62
     7
100
AcDbEllipse
 10
106.2495023032
 20
302.4579196001
 30
0.0
 11
10.78480762113533
 21
0.0
 31
0.0
210
0.0
220
0.0
230
1.0
 40
0.3746065934
 41
5.903351754377576
 42
6.283185307179586
  0
ELLIPSE
  5
C7
330
75
100
AcDbEntity
  8
$DDT_AUDIT_GENERATED_(C1)
  6
Continuous
 62
     7
100
AcDbEllipse
 10
106.2495023032
 20
302.4579196001
 30
0.0
 11
10.78480762113533
 21
0.0
 31
0.0
210
0.0
220
0.0
230
1.0
 40
0.3746065934
 41
3.543600438397609
 42
5.903351754377576
  0
ELLIPSE
  5
C8
330
75
100
AcDbEntity
  8
$DDT_AUDIT_GENERATED_(C1)
  6
Continuous
 62
     7
100
AcDbEllipse
 10
106.2495023032
 20
302.4579196001
 30
0.0
 11
10.78480762113533
 21
0.0
 31
0.0
210
0.0
220
0.0
230
1.0
 40
0.3746065934
 41
0.0
 42
3.543600438397609
  0
ELLIPSE
  5
C9
330
75
100
AcDbEntity
  8
$DDT_AUDIT_GENERATED_(C1)
  6
Continuous
 62
     7
100
AcDbEllipse
 10
106.2495023032
 20
302.4392867378
 30
0.0
 11
-10.70980762113534
 21
1.387778780781446E-14
 31
0.0
210
0.0
220
0.0
230
1.0
 40
0.3746065934
 41
5.192779823257597
 42
6.283185307179586
  0
ELLIPSE
  5
CA
330
75
100
AcDbEntity
  8
$DDT_AUDIT_GENERATED_(C1)
  6
Continuous
 62
     7
100
AcDbEllipse
 10
106.2495023032
 20
302.4392867378
 30
0.0
 11
-10.70980762113534
 21
1.387778780781446E-14
 31
0.0
210
0.0
220
0.0
230
1.0
 40
0.3746065934
 41
4.12703890765315
 42
5.192779823257597
  0
ELLIPSE
  5
CB
330
75
100
AcDbEntity
  8
$DDT_AUDIT_GENERATED_(C1)
  6
Continuous
 62
     7
100
AcDbEllipse
 10
106.2495023032
 20
302.4392867378
 30
0.0
 11
-10.70980762113534
 21
1.387778780781446E-14
 31
0.0
210
0.0
220
0.0
230
1.0
 40
0.3746065934
 41
0.0000000000000035
 42
4.12703890765315
  0
ELLIPSE
  5
CC
330
75
100
AcDbEntity
  8
$DDT_AUDIT_GENERATED_(C1)
  6
Continuous
 62
     7
100
AcDbEllipse
 10
106.2495023032
 20
302.4392867378
 30
0.0
 11
10.075
 21
-1.387778780781446E-14
 31
0.0
210
0.0
220
0.0
230
1.0
 40
0.3746065934
 41
0.0
 42
6.283185307179586
  0
ELLIPSE
  5
CD
330
75
100
AcDbEntity
  8
$DDT_AUDIT_GENERATED_(C1)
  6
Continuous
 62
     7
100
AcDbEllipse
 10
106.2495023032
 20
303.1539253849
 30
0.0
 11
-11.93500000000003
 21
0.0
 31
0.0
210
0.0
220
0.0
230
1.0
 40
0.3746065934
 41
3.26533125155376
 42
4.308562891223907
  0
ELLIPSE
  5
CE
330
75
100
AcDbEntity
  8
$DDT_AUDIT_GENERATED_(C1)
  6
Continuous
 62
     7
100
AcDbEllipse
 10
106.2495023032
 20
303.1539253849
 30
0.0
 11
-11.93500000000003
 21
0.0
 31
0.0
210
0.0
220
0.0
230
1.0
 40
0.3746065934
 41
3.014269570785015
 42
3.26533125155376
  0
ELLIPSE
  5
CF
330
75
100
AcDbEntity
  8
$DDT_AUDIT_GENERATED_(C1)
  6
Continuous
 62
     7
100
AcDbEllipse
 10
106.2495023032
 20
300.0875598031
 30
0.0
 11
11.93499999999998
 21
2.775557561562891E-13
 31
0.0
210
0.0
220
0.0
230
1.0
 40
0.9099164414
 41
1.16697023763409
 42
1.974622415955659
  0
LINE
  5
D0
330
75
100
AcDbEntity
  8
$DDT_AUDIT_GENERATED_(C1)
  6
Continuous
 62
     7
100
AcDbLine
 10
101.5597688353
 20
310.0738927479
 30
0.0
 11
101.5597688353
 21
307.2652327476
 31
0.0
  0
LINE
  5
D1
330
75
100
AcDbEntity
  8
$DDT_AUDIT_GENERATED_(C1)
  6
Continuous
 62
     7
100
AcDbLine
 10
110.9392357711
 20
307.2652327476
 30
0.0
 11
110.9392357711
 21
310.0738927479
 31
0.0
  0
ELLIPSE
  5
D2
330
75
100
AcDbEntity
  8
$DDT_AUDIT_GENERATED_(C1)
  6
Continuous
 62
     7
100
AcDbEllipse
 10
106.2495023032
 20
303.0334806691
 30
0.0
 11
-11.86000000000003
 21
-1.387778780781446E-14
 31
0.0
210
0.0
220
0.0
230
1.0
 40
0.3746065934
 41
2.726841082404132
 42
4.323628042078679
  0
ELLIPSE
  5
D3
330
75
100
AcDbEntity
  8
$DDT_AUDIT_GENERATED_(C1)
  6
Continuous
 62
     7
100
AcDbEllipse
 10
106.2495023032
 20
303.0334806691
 30
0.0
 11
-11.86000000000003
 21
-1.387778780781446E-14
 31
0.0
210
0.0
220
0.0
230
1.0
 40
0.3746065934
 41
-3.91670166430493
 42
-3.556344224775454
  0
SPLINE
  5
D4
330
75
100
AcDbEntity
  8
$DDT_AUDIT_GENERATED_(C1)
  6
Continuous
 62
     7
100
AcDbSpline
210
0.0
220
0.0
230
1.0
 70
     8
 71
     3
 72
    12
 73
     8
 74
     0
 42
0.0000000408031824
 43
0.0000000001
 40
0.0
 40
0.0
 40
0.0
 40
0.0
 40
0.5
 40
0.5
 40
0.75
 40
0.75
 40
1.0
 40
1.0
 40
1.0
 40
1.0
 10
110.7449416588269
 20
307.1447880318053
 30
0.0
 10
110.785105507669
 20
307.1529374763973
 30
0.0
 10
110.8252540885017
 20
307.1640907411925
 30
0.0
 10
110.8801981541928
 20
307.1902966306826
 30
0.0
 10
110.897975576359
 20
307.2007530160053
 30
0.0
 10
110.927507859424
 20
307.2280119513323
 30
0.0
 10
110.9392357711195
 20
307.2457952398732
 30
0.0
 10
110.9392357711195
 20
307.2652327476104
 30
0.0
  0
SPLINE
  5
D5
330
75
100
AcDbEntity
  8
$DDT_AUDIT_GENERATED_(C1)
  6
Continuous
 62
     7
100
AcDbSpline
210
0.0
220
0.0
230
1.0
 70
     8
 71
     3
 72
    12
 73
     8
 74
     0
 42
0.0000000408078338
 43
0.0000000001
 40
0.0
 40
0.0
 40
0.0
 40
0.0
 40
0.25
 40
0.25
 40
0.5
 40
0.5
 40
1.0
 40
1.0
 40
1.0
 40
1.0
 10
101.559768835307
 20
307.2652327476104
 30
0.0
 10
101.559768835307
 20
307.2459510688512
 30
0.0
 10
101.5713814130671
 20
307.2281990627209
 30
0.0
 10
101.6005876961937
 20
307.2010812399673
 30
0.0
 10
101.6184221464361
 20
307.1905045877794
 30
0.0
 10
101.6736043304938
 20
307.1641117533198
 30
0.0
 10
101.7137947720383
 20
307.1529586448059
 30
0.0
 10
101.7540629476204
 20
307.1447880317963
 30
0.0
  0
ARC
  5
D6
330
75
100
AcDbEntity
  8
$DDT_AUDIT_GENERATED_(C1)
  6
Continuous
 62
     7
100
AcDbCircle
 10
106.2495023032
 20
328.3520318216
 30
0.0
 40
21.67847236687465
100
AcDbArc
 50
258.0317968912
 51
281.9682031089
  0
LINE
  5
D7
330
75
100
AcDbEntity
  8
$DDT_AUDIT_GENERATED_(C1)
  6
Continuous
 62
     7
100
AcDbLine
 10
110.9392357711
 20
310.0738927479
 30
0.0
 11
101.5597688353
 21
310.0738927479
 31
0.0
  0
LINE
  5
D8
330
75
100
AcDbEntity
  8
$DDT_AUDIT_GENERATED_(C1)
  6
Continuous
 62
     7
100
AcDbLine
 10
94.3145023032
 20
309.2966049045
 30
0.0
 11
94.3145023032
 21
303.1539253849
 31
0.0
  0
LINE
  5
D9
330
75
100
AcDbEntity
  8
$DDT_AUDIT_GENERATED_(C1)
  6
Continuous
 62
     7
100
AcDbLine
 10
118.1845023032
 20
303.1539253849
 30
0.0
 11
118.1845023032
 21
309.2897101848
 31
0.0
  0
ARC
  5
DA
330
75
100
AcDbEntity
  8
$DDT_AUDIT_GENERATED_(C1)
  6
Continuous
 62
     7
100
AcDbCircle
 10
97.2433378638
 20
303.6301784174
 30
0.0
 40
3.024214514993686
100
AcDbArc
 50
200.6847446549
 51
232.4212832452
  0
LINE
  5
DB
330
75
100
AcDbEntity
  8
$DDT_AUDIT_GENERATED_(C1)
  6
Continuous
 62
     7
100
AcDbLine
 10
97.7773735295
 20
299.9244121732
 30
0.0
 11
98.5454315641
 21
299.630710021
 31
0.0
  0
LINE
  5
DC
330
75
100
AcDbEntity
  8
$DDT_AUDIT_GENERATED_(C1)
  6
Continuous
 62
     7
100
AcDbLine
 10
113.9535730423
 20
299.630710021
 30
0.0
 11
114.7216310769
 21
299.9244121732
 31
0.0
  0
ARC
  5
DD
330
75
100
AcDbEntity
  8
$DDT_AUDIT_GENERATED_(C1)
  6
Continuous
 62
     7
100
AcDbCircle
 10
115.354482672
 20
303.5626882713
 30
0.0
 40
2.905285036606938
100
AcDbArc
 50
307.6384259968
 51
339.5030089787
  0
ELLIPSE
  5
DF
330
75
100
AcDbEntity
  8
$DDT_AUDIT_GENERATED_(DE)
  6
Continuous
 62
     7
100
AcDbEllipse
 10
106.2495023032
 20
302.1147723887
 30
0.0
 11
9.000000000000002
 21
0.0
 31
0.0
210
0.0
220
0.0
230
1.0
 40
0.3746065934
 41
0.0
 42
6.283185307179586
  0
ELLIPSE
  5
E0
330
75
100
AcDbEntity
  8
$DDT_AUDIT_GENERATED_(DE)
  6
Continuous
 62
     7
100
AcDbEllipse
 10
106.2495023032
 20
304.9765013452
 30
0.0
 11
9.38647410379474
 21
9.714451465470120E-14
 31
0.0
210
0.0
220
0.0
230
1.0
 40
0.3746065934
 41
-0.2879555481429268
 42
-0.2582613766035387
  0
ELLIPSE
  5
E1
330
75
100
AcDbEntity
  8
$DDT_AUDIT_GENERATED_(DE)
  6
Continuous
 62
     7
100
AcDbEllipse
 10
106.2495023032
 20
304.9765013452
 30
0.0
 11
-9.386474103794075
 21
1.942890293094024E-13
 31
0.0
210
0.0
220
0.0
230
1.0
 40
0.3746065934
 41
0.258261376603559
 42
0.2879555481429533
  0
ELLIPSE
  5
E2
330
75
100
AcDbEntity
  8
$DDT_AUDIT_GENERATED_(DE)
  6
Continuous
 62
     7
100
AcDbEllipse
 10
106.2495023032
 20
302.1147723887
 30
0.0
 11
-5.250000000000001
 21
1.387778780781446E-14
 31
0.0
210
0.0
220
0.0
230
1.0
 40
0.3746065934
 41
0.0
 42
6.283185307179586
  0
ELLIPSE
  5
E3
330
75
100
AcDbEntity
  8
$DDT_AUDIT_GENERATED_(DE)
  6
Continuous
 62
     7
100
AcDbEllipse
 10
106.2495023032
 20
302.1147723887
 30
0.0
 11
-6.25
 21
1.387778780781446E-14
 31
0.0
210
0.0
220
0.0
230
1.0
 40
0.3746065934
 41
0.0
 42
6.283185307179586
  0
ELLIPSE
  5
E4
330
75
100
AcDbEntity
  8
$DDT_AUDIT_GENERATED_(DE)
  6
Continuous
 62
     7
100
AcDbEllipse
 10
106.2495023032
 20
302.1147723887
 30
0.0
 11
-2.750000000000002
 21
0.0
 31
0.0
210
0.0
220
0.0
230
1.0
 40
0.3746065934
 41
0.0
 42
6.283185307179586
  0
ELLIPSE
  5
E5
330
75
100
AcDbEntity
  8
$DDT_AUDIT_GENERATED_(DE)
  6
Continuous
 62
     7
100
AcDbEllipse
 10
106.2495023032
 20
302.1147723887
 30
0.0
 11
-2.15
 21
0.0
 31
0.0
210
0.0
220
0.0
230
1.0
 40
0.3746065934
 41
0.0
 42
6.283185307179586
  0
ELLIPSE
  5
E6
330
75
100
AcDbEntity
  8
$DDT_AUDIT_GENERATED_(DE)
  6
Continuous
 62
     7
100
AcDbEllipse
 10
106.2495023032
 20
302.3002091596
 30
0.0
 11
-0.5196299438963558
 21
0.0
 31
0.0
210
0.0
220
0.0
230
1.0
 40
0.3746065934
 41
0.0
 42
6.283185307179586
  0
ELLIPSE
  5
E7
330
75
100
AcDbEntity
  8
$DDT_AUDIT_GENERATED_(DE)
  6
Continuous
 62
     7
100
AcDbEllipse
 10
106.2495023032
 20
302.1147723887
 30
0.0
 11
-8.700000000000003
 21
1.387778780781446E-14
 31
0.0
210
0.0
220
0.0
230
1.0
 40
0.3746065934
 41
0.0
 42
6.283185307179586
  0
ARC
  5
E8
330
75
100
AcDbEntity
  8
$DDT_AUDIT_GENERATED_(DE)
  6
Continuous
 62
     7
100
AcDbCircle
 10
98.9428138575
 20
302.3002091596
 30
0.0
 40
1.193311429590592
100
AcDbArc
 50
178.2010644444
 51
181.7989355556
  0
ARC
  5
E9
330
75
100
AcDbEntity
  8
$DDT_AUDIT_GENERATED_(DE)
  6
Continuous
 62
     7
100
AcDbCircle
 10
100.8772532071
 20
302.3002091596
 30
0.0
 40
0.8777505904344023
100
AcDbArc
 50
177.5539865225
 51
180.0
  0
ELLIPSE
  5
EA
330
75
100
AcDbEntity
  8
$DDT_AUDIT_GENERATED_(DE)
  6
Continuous
 62
     7
100
AcDbEllipse
 10
106.2495023032
 20
302.3002091596
 30
0.0
 11
-8.500000000029253
 21
-2.123301534595612E-12
 31
0.0
210
0.0
220
0.0
230
1.0
 40
0.3746065934
 41
0.0117649772878949
 42
0.2500344105105355
  0
LINE
  5
EB
330
75
100
AcDbEntity
  8
$DDT_AUDIT_GENERATED_(DE)
  6
Continuous
 62
     7
100
AcDbLine
 10
100.0003023544
 20
302.3376698189
 30
0.0
 11
100.0003023544
 21
302.8886938143
 31
0.0
  0
LINE
  5
EC
330
75
100
AcDbEntity
  8
$DDT_AUDIT_GENERATED_(DE)
  6
Continuous
 62
     7
100
AcDbLine
 10
100.0003023544
 20
302.3376698189
 30
0.0
 11
97.7500905589
 21
302.3376698189
 31
0.0
  0
LINE
  5
ED
330
75
100
AcDbEntity
  8
$DDT_AUDIT_GENERATED_(DE)
  6
Continuous
 62
     7
100
AcDbLine
 10
99.9995023032
 20
302.2627485002
 30
0.0
 11
97.7500905589
 21
302.2627485002
 31
0.0
  0
LINE
  5
EE
330
75
100
AcDbEntity
  8
$DDT_AUDIT_GENERATED_(DE)
  6
Continuous
 62
     7
100
AcDbLine
 10
105.7939638541
 20
302.6231515516
 30
0.0
 11
105.7939638541
 21
302.9018907068
 31
0.0
  0
ELLIPSE
  5
EF
330
75
100
AcDbEntity
  8
$DDT_AUDIT_GENERATED_(DE)
  6
Continuous
 62
     7
100
AcDbEllipse
 10
106.2495023032
 20
302.5294999032
 30
0.0
 11
0.5196299438963539
 21
6.938893903907228E-14
 31
0.0
210
0.0
220
0.0
230
1.0
 40
0.3746065934
 41
2.639670372565452
 42
3.141592653589729
  0
LINE
  5
F0
330
75
100
AcDbEntity
  8
$DDT_AUDIT_GENERATED_(DE)
  6
Continuous
 62
     7
100
AcDbLine
 10
104.2777322734
 20
302.4358482549
 30
0.0
 11
105.7298723593
 21
302.4358482549
 31
0.0
  0
LINE
  5
F1
330
75
100
AcDbEntity
  8
$DDT_AUDIT_GENERATED_(DE)
  6
Continuous
 62
     7
100
AcDbLine
 10
104.5819365418
 20
302.6231515516
 30
0.0
 11
105.7939638541
 21
302.6231515516
 31
0.0
  0
ELLIPSE
  5
F2
330
75
100
AcDbEntity
  8
$DDT_AUDIT_GENERATED_(DE)
  6
Continuous
 62
     7
100
AcDbEllipse
 10
106.2495023032
 20
302.5294999032
 30
0.0
 11
0.5196299438963597
 21
-1.387778780781446E-14
 31
0.0
210
0.0
220
0.0
230
1.0
 40
0.3746065934
 41
0.5452752701723976
 42
1.549119832220922
  0
LINE
  5
F3
330
75
100
AcDbEntity
  8
$DDT_AUDIT_GENERATED_(DE)
  6
Continuous
 62
     7
100
AcDbLine
 10
106.2607651768
 20
302.7241109764
 30
0.0
 11
106.2607651768
 21
302.9201655133
 31
0.0
  0
LINE
  5
F4
330
75
100
AcDbEntity
  8
$DDT_AUDIT_GENERATED_(DE)
  6
Continuous
 62
     7
100
AcDbLine
 10
106.5507035094
 20
302.9122338835
 30
0.0
 11
106.2607651768
 21
302.7241109764
 31
0.0
  0
LINE
  5
F5
330
75
100
AcDbEntity
  8
$DDT_AUDIT_GENERATED_(DE)
  6
Continuous
 62
     7
100
AcDbLine
 10
107.0508514094
 20
302.8621420795
 30
0.0
 11
106.6937778787
 21
302.6304593281
 31
0.0
  0
LINE
  5
F6
330
75
100
AcDbEntity
  8
$DDT_AUDIT_GENERATED_(DE)
  6
Continuous
 62
     7
100
AcDbLine
 10
107.5337164794
 20
301.8835566884
 30
0.0
 11
106.7691322471
 21
302.3796477269
 31
0.0
  0
LINE
  5
F7
330
75
100
AcDbEntity
  8
$DDT_AUDIT_GENERATED_(DE)
  6
Continuous
 62
     7
100
AcDbLine
 10
107.5337164794
 20
302.7607156035
 30
0.0
 11
107.5337164794
 21
301.8835566884
 31
0.0
  0
LINE
  5
F8
330
75
100
AcDbEntity
  8
$DDT_AUDIT_GENERATED_(DE)
  6
Continuous
 62
     7
100
AcDbLine
 10
107.1007037775
 20
301.78990504
 30
0.0
 11
106.5563356662
 21
302.1431115676
 31
0.0
  0
ELLIPSE
  5
F9
330
75
100
AcDbEntity
  8
$DDT_AUDIT_GENERATED_(DE)
  6
Continuous
 62
     7
100
AcDbEllipse
 10
106.2495023032
 20
302.5294999032
 30
0.0
 11
2.149999999991797
 21
2.414735078559715E-12
 31
0.0
210
0.0
220
0.0
230
1.0
 40
0.3746065934
 41
-1.163740259648029
 42
-0.9306548427486492
  0
ELLIPSE
  5
FA
330
75
100
AcDbEntity
  8
$DDT_AUDIT_GENERATED_(DE)
  6
Continuous
 62
     7
100
AcDbEllipse
 10
106.2495018805
 20
302.300209202
 30
0.0
 11
-8.499999577081747
 21
-4.765181305099730E-8
 31
0.0
210
0.0
220
0.0
230
1.0
 40
0.3746066018
 41
-0.2735643739258569
 42
-0.2500344187440833
  0
ELLIPSE
  5
FB
330
75
100
AcDbEntity
  8
$DDT_AUDIT_GENERATED_(DE)
  6
Continuous
 62
     7
100
AcDbEllipse
 10
106.2495023032
 20
302.3002091596
 30
0.0
 11
-8.500000000026485
 21
1.401656568589260E-12
 31
0.0
210
0.0
220
0.0
230
1.0
 40
0.3746065934
 41
6.033150896668976
 42
6.271420329891757
  0
ELLIPSE
  5
FC
330
75
100
AcDbEntity
  8
$DDT_AUDIT_GENERATED_(DE)
  6
Continuous
 62
     7
100
AcDbEllipse
 10
106.249502372
 20
302.3002091527
 30
0.0
 11
-6.25000006879812
 21
7.721684402994811E-9
 31
0.0
210
0.0
220
0.0
230
1.0
 40
0.3746065916
 41
-0.2778000685664175
 42
-0.2457987032579574
  0
LINE
  5
FD
330
75
100
AcDbEntity
  8
$DDT_AUDIT_GENERATED_(DE)
  6
Continuous
 62
     7
100
AcDbLine
 10
100.2391205835
 20
302.9422865637
 30
0.0
 11
100.2391205835
 21
303.5568739716
 31
0.0
  0
LINE
  5
FE
330
75
100
AcDbEntity
  8
$DDT_AUDIT_GENERATED_(DE)
  6
Continuous
 62
     7
100
AcDbLine
 10
100.2391205835
 20
302.9422865637
 30
0.0
 11
98.0655828956
 21
303.1604565702
 31
0.0
  0
LINE
  5
FF
330
75
100
AcDbEntity
  8
$DDT_AUDIT_GENERATED_(DE)
  6
Continuous
 62
     7
100
AcDbLine
 10
100.1873567745
 20
302.869918127
 30
0.0
 11
98.0138190866
 21
303.0880881335
 31
0.0
  0
ELLIPSE
  5
100
330
75
100
AcDbEntity
  8
$DDT_AUDIT_GENERATED_(DE)
  6
Continuous
 62
     7
100
AcDbEllipse
 10
106.2495023032
 20
302.3002091596
 30
0.0
 11
-8.50000000002429
 21
4.218847493575595E-12
 31
0.0
210
0.0
220
0.0
230
1.0
 40
0.3746065934
 41
-0.3894296234151886
 42
-0.2735643650866901
  0
ELLIPSE
  5
101
330
75
100
AcDbEntity
  8
$DDT_AUDIT_GENERATED_(DE)
  6
Continuous
 62
     7
100
AcDbEllipse
 10
106.2495023533
 20
302.3002091488
 30
0.0
 11
-6.250000050632845
 21
1.089603407500306E-8
 31
0.0
210
0.0
220
0.0
230
1.0
 40
0.3746065925
 41
-0.5395994556115475
 42
-0.5075980902690223
  0
LINE
  5
102
330
75
100
AcDbEntity
  8
$DDT_AUDIT_GENERATED_(DE)
  6
Continuous
 62
     7
100
AcDbLine
 10
100.8875363942
 20
303.5031467944
 30
0.0
 11
100.8875363942
 21
304.2558595703
 31
0.0
  0
LINE
  5
103
330
75
100
AcDbEntity
  8
$DDT_AUDIT_GENERATED_(DE)
  6
Continuous
 62
     7
100
AcDbLine
 10
100.8875363942
 20
303.5031467944
 30
0.0
 11
98.9933551765
 21
303.9128188261
 31
0.0
  0
LINE
  5
104
330
75
100
AcDbEntity
  8
$DDT_AUDIT_GENERATED_(DE)
  6
Continuous
 62
     7
100
AcDbLine
 10
100.7875363942
 20
303.4382630291
 30
0.0
 11
98.8848094465
 21
303.8497833246
 31
0.0
  0
ELLIPSE
  5
105
330
75
100
AcDbEntity
  8
$DDT_AUDIT_GENERATED_(DE)
  6
Continuous
 62
     7
100
AcDbEllipse
 10
106.249502344
 20
302.3002091443
 30
0.0
 11
-6.250000043224882
 21
1.255467951821743E-8
 31
0.0
210
0.0
220
0.0
230
1.0
 40
0.3746065934
 41
-0.8013988430105199
 42
-0.7693974776674164
  0
LINE
  5
106
330
75
100
AcDbEntity
  8
$DDT_AUDIT_GENERATED_(DE)
  6
Continuous
 62
     7
100
AcDbLine
 10
101.9013613205
 20
303.9820288133
 30
0.0
 11
101.9013613205
 21
304.93761813
 31
0.0
  0
LINE
  5
107
330
75
100
AcDbEntity
  8
$DDT_AUDIT_GENERATED_(DE)
  6
Continuous
 62
     7
100
AcDbLine
 10
101.9013613205
 20
303.9820288133
 30
0.0
 11
100.4241285456
 21
304.5354099508
 31
0.0
  0
LINE
  5
108
330
75
100
AcDbEntity
  8
$DDT_AUDIT_GENERATED_(DE)
  6
Continuous
 62
     7
100
AcDbLine
 10
101.7599399643
 20
303.9290514408
 30
0.0
 11
100.2770123464
 21
304.484565904
 31
0.0
  0
ELLIPSE
  5
109
330
75
100
AcDbEntity
  8
$DDT_AUDIT_GENERATED_(DE)
  6
Continuous
 62
     7
100
AcDbEllipse
 10
106.249502332
 20
302.3002091409
 30
0.0
 11
-6.250000035968654
 21
1.086149226114941E-8
 31
0.0
210
0.0
220
0.0
230
1.0
 40
0.3746065943
 41
-1.063198231222579
 42
-1.031196865879264
  0
LINE
  5
10A
330
75
100
AcDbEntity
  8
$DDT_AUDIT_GENERATED_(DE)
  6
Continuous
 62
     7
100
AcDbLine
 10
103.2115048692
 20
304.3462976021
 30
0.0
 11
103.2115048692
 21
305.1686909609
 31
0.0
  0
LINE
  5
10B
330
75
100
AcDbEntity
  8
$DDT_AUDIT_GENERATED_(DE)
  6
Continuous
 62
     7
100
AcDbLine
 10
103.2115048692
 20
304.3462976021
 30
0.0
 11
102.2039252187
 21
305.0000532174
 31
0.0
  0
LINE
  5
10C
330
75
100
AcDbEntity
  8
$DDT_AUDIT_GENERATED_(DE)
  6
Continuous
 62
     7
100
AcDbLine
 10
103.0382997884
 20
304.3088369428
 30
0.0
 11
102.0278738702
 21
304.9644393237
 31
0.0
  0
ELLIPSE
  5
10D
330
75
100
AcDbEntity
  8
$DDT_AUDIT_GENERATED_(DE)
  6
Continuous
 62
     7
100
AcDbEllipse
 10
106.24950232
 20
302.3002091362
 30
0.0
 11
-6.250000034531703
 21
7.061906615035695E-9
 31
0.0
210
0.0
220
0.0
230
1.0
 40
0.3746065951
 41
-1.324997619935459
 42
-1.292996254610506
  0
LINE
  5
10E
330
75
100
AcDbEntity
  8
$DDT_AUDIT_GENERATED_(DE)
  6
Continuous
 62
     7
100
AcDbLine
 10
104.7286829224
 20
304.5711288449
 30
0.0
 11
104.7286829224
 21
305.32366892
 31
0.0
  0
LINE
  5
10F
330
75
100
AcDbEntity
  8
$DDT_AUDIT_GENERATED_(DE)
  6
Continuous
 62
     7
100
AcDbLine
 10
104.7286829224
 20
304.5711288449
 30
0.0
 11
104.2188977271
 21
305.2838344652
 31
0.0
  0
LINE
  5
110
330
75
100
AcDbEntity
  8
$DDT_AUDIT_GENERATED_(DE)
  6
Continuous
 62
     7
100
AcDbLine
 10
104.5354977572
 20
304.5517377807
 30
0.0
 11
104.0249501327
 21
305.2655093157
 31
0.0
  0
ARC
  5
111
330
75
100
AcDbEntity
  8
$DDT_AUDIT_GENERATED_(DE)
  6
Continuous
 62
     7
100
AcDbCircle
 10
106.2495023032
 20
287.9591666085
 30
0.0
 40
16.68233377644204
100
AcDbArc
 50
89.6565461199
 51
90.3434538801
  0
LINE
  5
112
330
75
100
AcDbEntity
  8
$DDT_AUDIT_GENERATED_(DE)
  6
Continuous
 62
     7
100
AcDbLine
 10
106.3495023032
 20
304.641200664
 30
0.0
 11
106.3495023032
 21
305.3736344531
 31
0.0
  0
LINE
  5
113
330
75
100
AcDbEntity
  8
$DDT_AUDIT_GENERATED_(DE)
  6
Continuous
 62
     7
100
AcDbLine
 10
106.1495023032
 20
304.641200664
 30
0.0
 11
106.1495023032
 21
305.3736344531
 31
0.0
  0
ELLIPSE
  5
114
330
75
100
AcDbEntity
  8
$DDT_AUDIT_GENERATED_(DE)
  6
Continuous
 62
     7
100
AcDbEllipse
 10
106.2495022872
 20
302.3002091372
 30
0.0
 11
6.250000033000688
 21
6.730213608641122E-9
 31
0.0
210
0.0
220
0.0
230
1.0
 40
0.374606595
 41
1.292996254692179
 42
1.324997620024397
  0
LINE
  5
115
330
75
100
AcDbEntity
  8
$DDT_AUDIT_GENERATED_(DE)
  6
Continuous
 62
     7
100
AcDbLine
 10
107.9635068492
 20
304.5517377807
 30
0.0
 11
108.4740544737
 21
305.2655093157
 31
0.0
  0
LINE
  5
116
330
75
100
AcDbEntity
  8
$DDT_AUDIT_GENERATED_(DE)
  6
Continuous
 62
     7
100
AcDbLine
 10
107.770321684
 20
304.5711288449
 30
0.0
 11
108.2801068794
 21
305.2838344652
 31
0.0
  0
LINE
  5
117
330
75
100
AcDbEntity
  8
$DDT_AUDIT_GENERATED_(DE)
  6
Continuous
 62
     7
100
AcDbLine
 10
107.770321684
 20
304.5711288449
 30
0.0
 11
107.770321684
 21
305.32366892
 31
0.0
  0
ELLIPSE
  5
118
330
75
100
AcDbEntity
  8
$DDT_AUDIT_GENERATED_(DE)
  6
Continuous
 62
     7
100
AcDbEllipse
 10
106.2495022744
 20
302.3002091409
 30
0.0
 11
6.250000036057083
 21
1.088458490006161E-8
 31
0.0
210
0.0
220
0.0
230
1.0
 40
0.3746065943
 41
1.031196865874713
 42
1.063198231217606
  0
LINE
  5
119
330
75
100
AcDbEntity
  8
$DDT_AUDIT_GENERATED_(DE)
  6
Continuous
 62
     7
100
AcDbLine
 10
109.460704818
 20
304.3088369428
 30
0.0
 11
110.4711307363
 21
304.9644393237
 31
0.0
  0
LINE
  5
11A
330
75
100
AcDbEntity
  8
$DDT_AUDIT_GENERATED_(DE)
  6
Continuous
 62
     7
100
AcDbLine
 10
109.2874997372
 20
304.3462976021
 30
0.0
 11
110.2950793878
 21
305.0000532174
 31
0.0
  0
LINE
  5
11B
330
75
100
AcDbEntity
  8
$DDT_AUDIT_GENERATED_(DE)
  6
Continuous
 62
     7
100
AcDbLine
 10
109.2874997372
 20
304.3462976021
 30
0.0
 11
109.2874997372
 21
305.1686909609
 31
0.0
  0
ELLIPSE
  5
11C
330
75
100
AcDbEntity
  8
$DDT_AUDIT_GENERATED_(DE)
  6
Continuous
 62
     7
100
AcDbEllipse
 10
106.2495022624
 20
302.3002091443
 30
0.0
 11
6.250000043261438
 21
1.256471315880248E-8
 31
0.0
210
0.0
220
0.0
230
1.0
 40
0.3746065934
 41
0.7693974776656378
 42
0.8013988430086068
  0
LINE
  5
11D
330
75
100
AcDbEntity
  8
$DDT_AUDIT_GENERATED_(DE)
  6
Continuous
 62
     7
100
AcDbLine
 10
110.7390646421
 20
303.9290514408
 30
0.0
 11
112.22199226
 21
304.484565904
 31
0.0
  0
LINE
  5
11E
330
75
100
AcDbEntity
  8
$DDT_AUDIT_GENERATED_(DE)
  6
Continuous
 62
     7
100
AcDbLine
 10
110.5976432859
 20
303.9820288133
 30
0.0
 11
112.0748760608
 21
304.5354099508
 31
0.0
  0
LINE
  5
11F
330
75
100
AcDbEntity
  8
$DDT_AUDIT_GENERATED_(DE)
  6
Continuous
 62
     7
100
AcDbLine
 10
110.5976432859
 20
303.9820288133
 30
0.0
 11
110.5976432859
 21
304.93761813
 31
0.0
  0
ELLIPSE
  5
120
330
75
100
AcDbEntity
  8
$DDT_AUDIT_GENERATED_(DE)
  6
Continuous
 62
     7
100
AcDbEllipse
 10
106.2495023449
 20
302.3002091686
 30
0.0
 11
6.249999957869529
 21
-9.055839411686861E-9
 31
0.0
210
0.0
220
0.0
230
1.0
 40
0.3746065941
 41
0.5075980950022062
 42
0.5395994606161219
  0
LINE
  5
121
330
75
100
AcDbEntity
  8
$DDT_AUDIT_GENERATED_(DE)
  6
Continuous
 62
     7
100
AcDbLine
 10
111.7114682122
 20
303.4382630291
 30
0.0
 11
113.6141951599
 21
303.8497833246
 31
0.0
  0
LINE
  5
122
330
75
100
AcDbEntity
  8
$DDT_AUDIT_GENERATED_(DE)
  6
Continuous
 62
     7
100
AcDbLine
 10
111.6114682122
 20
303.5031467944
 30
0.0
 11
113.5056494299
 21
303.9128188261
 31
0.0
  0
LINE
  5
123
330
75
100
AcDbEntity
  8
$DDT_AUDIT_GENERATED_(DE)
  6
Continuous
 62
     7
100
AcDbLine
 10
111.6114682122
 20
303.5031467944
 30
0.0
 11
111.6114682122
 21
304.2558595703
 31
0.0
  0
ELLIPSE
  5
124
330
75
100
AcDbEntity
  8
$DDT_AUDIT_GENERATED_(DE)
  6
Continuous
 62
     7
100
AcDbEllipse
 10
106.2495027259
 20
302.300209202
 30
0.0
 11
8.499999577078254
 21
-4.765200734002661E-8
 31
0.0
210
0.0
220
0.0
230
1.0
 40
0.3746066018
 41
0.2500344187434898
 42
0.2735643739253353
  0
ELLIPSE
  5
125
330
75
100
AcDbEntity
  8
$DDT_AUDIT_GENERATED_(DE)
  6
Continuous
 62
     7
100
AcDbEllipse
 10
106.2495023032
 20
302.3002091596
 30
0.0
 11
8.500000000027637
 21
4.773959005888173E-12
 31
0.0
210
0.0
220
0.0
230
1.0
 40
0.3746065934
 41
0.273564365086614
 42
0.3894296234150757
  0
ELLIPSE
  5
126
330
75
100
AcDbEntity
  8
$DDT_AUDIT_GENERATED_(DE)
  6
Continuous
 62
     7
100
AcDbEllipse
 10
106.2495022475
 20
302.300209154
 30
0.0
 11
6.250000055747255
 21
6.250319706246898E-9
 31
0.0
210
0.0
220
0.0
230
1.0
 40
0.3746065919
 41
0.2457987035993119
 42
0.2778000689423005
  0
LINE
  5
127
330
75
100
AcDbEntity
  8
$DDT_AUDIT_GENERATED_(DE)
  6
Continuous
 62
     7
100
AcDbLine
 10
112.3116478319
 20
302.869918127
 30
0.0
 11
114.4851855199
 21
303.0880881335
 31
0.0
  0
LINE
  5
128
330
75
100
AcDbEntity
  8
$DDT_AUDIT_GENERATED_(DE)
  6
Continuous
 62
     7
100
AcDbLine
 10
112.2598840229
 20
302.9422865637
 30
0.0
 11
114.4334217108
 21
303.1604565702
 31
0.0
  0
LINE
  5
129
330
75
100
AcDbEntity
  8
$DDT_AUDIT_GENERATED_(DE)
  6
Continuous
 62
     7
100
AcDbLine
 10
112.2598840229
 20
302.9422865637
 30
0.0
 11
112.2598840229
 21
303.5568739716
 31
0.0
  0
ARC
  5
12A
330
75
100
AcDbEntity
  8
$DDT_AUDIT_GENERATED_(DE)
  6
Continuous
 62
     7
100
AcDbCircle
 10
113.556190749
 20
302.3002091596
 30
0.0
 40
1.193311429590596
100
AcDbArc
 50
358.2010644444
 51
1.7989355556
  0
ELLIPSE
  5
12B
330
75
100
AcDbEntity
  8
$DDT_AUDIT_GENERATED_(DE)
  6
Continuous
 62
     7
100
AcDbEllipse
 10
106.2495023032
 20
302.3002091596
 30
0.0
 11
8.500000000029138
 21
1.554312234475219E-12
 31
0.0
210
0.0
220
0.0
230
1.0
 40
0.3746065934
 41
0.0117649772879138
 42
0.2500344105105547
  0
ARC
  5
12C
330
75
100
AcDbEntity
  8
$DDT_AUDIT_GENERATED_(DE)
  6
Continuous
 62
     7
100
AcDbCircle
 10
111.6217513993
 20
302.3002091596
 30
0.0
 40
0.8777505904339266
100
AcDbArc
 50
0.0
 51
2.4460134775
  0
LINE
  5
12D
330
75
100
AcDbEntity
  8
$DDT_AUDIT_GENERATED_(DE)
  6
Continuous
 62
     7
100
AcDbLine
 10
112.4995023032
 20
302.2627485002
 30
0.0
 11
114.7489140476
 21
302.2627485002
 31
0.0
  0
LINE
  5
12E
330
75
100
AcDbEntity
  8
$DDT_AUDIT_GENERATED_(DE)
  6
Continuous
 62
     7
100
AcDbLine
 10
112.498702252
 20
302.3376698189
 30
0.0
 11
114.7489140476
 21
302.3376698189
 31
0.0
  0
LINE
  5
12F
330
75
100
AcDbEntity
  8
$DDT_AUDIT_GENERATED_(DE)
  6
Continuous
 62
     7
100
AcDbLine
 10
112.498702252
 20
302.3376698189
 30
0.0
 11
112.498702252
 21
302.8886938143
 31
0.0
  0
ELLIPSE
  5
130
330
75
100
AcDbEntity
  8
$DDT_AUDIT_GENERATED_(DE)
  6
Continuous
 62
     7
100
AcDbEllipse
 10
106.249502726
 20
302.3002091172
 30
0.0
 11
8.499999576950291
 21
4.766657901722482E-8
 31
0.0
210
0.0
220
0.0
230
1.0
 40
0.3746066018
 41
-0.2735643739286342
 42
-0.2500344187466617
  0
ELLIPSE
  5
131
330
75
100
AcDbEntity
  8
$DDT_AUDIT_GENERATED_(DE)
  6
Continuous
 62
     7
100
AcDbEllipse
 10
106.2495023032
 20
302.3002091596
 30
0.0
 11
8.50000000003412
 21
-1.276756478318930E-12
 31
0.0
210
0.0
220
0.0
230
1.0
 40
0.3746065934
 41
6.033150896669082
 42
6.271420329891578
  0
LINE
  5
132
330
75
100
AcDbEntity
  8
$DDT_AUDIT_GENERATED_(DE)
  6
Continuous
 62
     7
100
AcDbLine
 10
114.4851855199
 20
301.5123301856
 30
0.0
 11
114.4851855199
 21
302.2627485002
 31
0.0
  0
LINE
  5
133
330
75
100
AcDbEntity
  8
$DDT_AUDIT_GENERATED_(DE)
  6
Continuous
 62
     7
100
AcDbLine
 10
112.3733510284
 20
301.6467424442
 30
0.0
 11
114.4334217108
 21
301.439961749
 31
0.0
  0
LINE
  5
134
330
75
100
AcDbEntity
  8
$DDT_AUDIT_GENERATED_(DE)
  6
Continuous
 62
     7
100
AcDbLine
 10
112.4102900357
 20
301.7205989282
 30
0.0
 11
114.4851855199
 21
301.5123301856
 31
0.0
  0
ELLIPSE
  5
135
330
75
100
AcDbEntity
  8
$DDT_AUDIT_GENERATED_(DE)
  6
Continuous
 62
     7
100
AcDbEllipse
 10
106.2495027121
 20
302.3002090711
 30
0.0
 11
8.499999586861721
 21
8.913365878715496E-8
 31
0.0
210
0.0
220
0.0
230
1.0
 40
0.3746065986
 41
-0.5353637691686242
 42
-0.5118338139389378
  0
ELLIPSE
  5
136
330
75
100
AcDbEntity
  8
$DDT_AUDIT_GENERATED_(DE)
  6
Continuous
 62
     7
100
AcDbEllipse
 10
106.2495023032
 20
302.3002091596
 30
0.0
 11
8.500000000027585
 21
-4.773959005888173E-12
 31
0.0
210
0.0
220
0.0
230
1.0
 40
0.3746065934
 41
-0.5118337983091674
 42
-0.2735643650866111
  0
LINE
  5
137
330
75
100
AcDbEntity
  8
$DDT_AUDIT_GENERATED_(DE)
  6
Continuous
 62
     7
100
AcDbLine
 10
113.660208791
 20
300.7406832024
 30
0.0
 11
113.660208791
 21
301.5175734089
 31
0.0
  0
LINE
  5
138
330
75
100
AcDbEntity
  8
$DDT_AUDIT_GENERATED_(DE)
  6
Continuous
 62
     7
100
AcDbLine
 10
111.819019325
 20
301.0523825325
 30
0.0
 11
113.560208791
 21
300.6757994371
 31
0.0
  0
LINE
  5
139
330
75
100
AcDbEntity
  8
$DDT_AUDIT_GENERATED_(DE)
  6
Continuous
 62
     7
100
AcDbLine
 10
111.9071093225
 20
301.1198421838
 30
0.0
 11
113.660208791
 21
300.7406832024
 31
0.0
  0
ELLIPSE
  5
13A
330
75
100
AcDbEntity
  8
$DDT_AUDIT_GENERATED_(DE)
  6
Continuous
 62
     7
100
AcDbEllipse
 10
106.249502613
 20
302.3002090436
 30
0.0
 11
8.499999671409352
 21
9.542697188003046E-8
 31
0.0
210
0.0
220
0.0
230
1.0
 40
0.3746065934
 41
-0.7971631580847003
 42
-0.773633202902194
  0
ELLIPSE
  5
13B
330
75
100
AcDbEntity
  8
$DDT_AUDIT_GENERATED_(DE)
  6
Continuous
 62
     7
100
AcDbEllipse
 10
106.2495023032
 20
302.3002091596
 30
0.0
 11
8.500000000000629
 21
5.551115123125783E-14
 31
0.0
210
0.0
220
0.0
230
1.0
 40
0.3746065934
 41
-0.7736331861093388
 42
-0.5353637528863802
  0
LINE
  5
13C
330
75
100
AcDbEntity
  8
$DDT_AUDIT_GENERATED_(DE)
  6
Continuous
 62
     7
100
AcDbLine
 10
112.3302046619
 20
300.0753153359
 30
0.0
 11
112.3302046619
 21
300.9418237678
 31
0.0
  0
LINE
  5
13D
330
75
100
AcDbEntity
  8
$DDT_AUDIT_GENERATED_(DE)
  6
Continuous
 62
     7
100
AcDbLine
 10
110.8421798904
 20
300.5267844815
 30
0.0
 11
112.1887833056
 21
300.0223379634
 31
0.0
  0
LINE
  5
13E
330
75
100
AcDbEntity
  8
$DDT_AUDIT_GENERATED_(DE)
  6
Continuous
 62
     7
100
AcDbLine
 10
110.9756674963
 20
300.5827338892
 30
0.0
 11
112.3302046619
 21
300.0753153359
 31
0.0
  0
ELLIPSE
  5
13F
330
75
100
AcDbEntity
  8
$DDT_AUDIT_GENERATED_(DE)
  6
Continuous
 62
     7
100
AcDbEllipse
 10
106.24950253
 20
302.3002090124
 30
0.0
 11
8.499999716607437
 21
8.560263609069807E-8
 31
0.0
210
0.0
220
0.0
230
1.0
 40
0.3746065884
 41
-1.058962544124881
 42
-1.03543258892113
  0
ELLIPSE
  5
140
330
75
100
AcDbEntity
  8
$DDT_AUDIT_GENERATED_(DE)
  6
Continuous
 62
     7
100
AcDbEllipse
 10
106.2495023032
 20
302.3002091596
 30
0.0
 11
8.500000000035499
 21
-1.111610803405938E-11
 31
0.0
210
0.0
220
0.0
230
1.0
 40
0.3746065934
 41
-1.035432573906183
 42
-0.7971631406839474
  0
LINE
  5
141
330
75
100
AcDbEntity
  8
$DDT_AUDIT_GENERATED_(DE)
  6
Continuous
 62
     7
100
AcDbLine
 10
110.5858107158
 20
299.5615703067
 30
0.0
 11
110.5858107158
 21
300.4286710933
 31
0.0
  0
LINE
  5
142
330
75
100
AcDbEntity
  8
$DDT_AUDIT_GENERATED_(DE)
  6
Continuous
 62
     7
100
AcDbLine
 10
109.5013780983
 20
300.1153483833
 30
0.0
 11
110.412605635
 21
299.5241096474
 31
0.0
  0
LINE
  5
143
330
75
100
AcDbEntity
  8
$DDT_AUDIT_GENERATED_(DE)
  6
Continuous
 62
     7
100
AcDbLine
 10
109.6706194221
 20
300.1553808774
 30
0.0
 11
110.5858107158
 21
299.5615703067
 31
0.0
  0
ELLIPSE
  5
144
330
75
100
AcDbEntity
  8
$DDT_AUDIT_GENERATED_(DE)
  6
Continuous
 62
     7
100
AcDbEllipse
 10
106.2495024235
 20
302.3002089914
 30
0.0
 11
8.499999752035764
 21
5.063569008534330E-8
 31
0.0
210
0.0
220
0.0
230
1.0
 40
0.3746065845
 41
-1.320761925674796
 42
-1.297231970455298
  0
ELLIPSE
  5
145
330
75
100
AcDbEntity
  8
$DDT_AUDIT_GENERATED_(DE)
  6
Continuous
 62
     7
100
AcDbEllipse
 10
106.2495023032
 20
302.3002091596
 30
0.0
 11
8.499999999987473
 21
3.455569164145800E-12
 31
0.0
210
0.0
220
0.0
230
1.0
 40
0.3746065934
 41
-1.297231961708429
 42
-1.058962528485154
  0
LINE
  5
146
330
75
100
AcDbEntity
  8
$DDT_AUDIT_GENERATED_(DE)
  6
Continuous
 62
     7
100
AcDbLine
 10
108.5459045174
 20
299.2344589895
 30
0.0
 11
108.5459045174
 21
299.937246518
 31
0.0
  0
LINE
  5
147
330
75
100
AcDbEntity
  8
$DDT_AUDIT_GENERATED_(DE)
  6
Continuous
 62
     7
100
AcDbLine
 10
107.8942667226
 20
299.856008009
 30
0.0
 11
108.3527193522
 21
299.2150679253
 31
0.0
  0
LINE
  5
148
330
75
100
AcDbEntity
  8
$DDT_AUDIT_GENERATED_(DE)
  6
Continuous
 62
     7
100
AcDbLine
 10
108.0863904128
 20
299.8768830693
 30
0.0
 11
108.5459045174
 21
299.2344589895
 31
0.0
  0
ARC
  5
149
330
75
100
AcDbEntity
  8
$DDT_AUDIT_GENERATED_(DE)
  6
Continuous
 62
     7
100
AcDbCircle
 10
106.2495023032
 20
321.8051740323
 30
0.0
 40
22.68912092336221
100
AcDbArc
 50
269.7474738435
 51
270.2525261565
  0
ELLIPSE
  5
14A
330
75
100
AcDbEntity
  8
$DDT_AUDIT_GENERATED_(DE)
  6
Continuous
 62
     7
100
AcDbEllipse
 10
106.2495023032
 20
302.3002091596
 30
0.0
 11
8.499999999992763
 21
7.771561172376096E-13
 31
0.0
210
0.0
220
0.0
230
1.0
 40
0.3746065934
 41
4.724153957672558
 42
4.962423390895728
  0
LINE
  5
14B
330
75
100
AcDbEntity
  8
$DDT_AUDIT_GENERATED_(DE)
  6
Continuous
 62
     7
100
AcDbLine
 10
106.1495023032
 20
299.7737808843
 30
0.0
 11
106.1495023032
 21
299.11627348
 31
0.0
  0
LINE
  5
14C
330
75
100
AcDbEntity
  8
$DDT_AUDIT_GENERATED_(DE)
  6
Continuous
 62
     7
100
AcDbLine
 10
106.3495023032
 20
299.7737808843
 30
0.0
 11
106.3495023032
 21
299.11627348
 31
0.0
  0
ELLIPSE
  5
14D
330
75
100
AcDbEntity
  8
$DDT_AUDIT_GENERATED_(DE)
  6
Continuous
 62
     7
100
AcDbEllipse
 10
106.2495021879
 20
302.3002089983
 30
0.0
 11
-8.499999762173534
 21
4.855349455823443E-8
 31
0.0
210
0.0
220
0.0
230
1.0
 40
0.3746065849
 41
1.297231970089013
 42
1.320761925282202
  0
ELLIPSE
  5
14E
330
75
100
AcDbEntity
  8
$DDT_AUDIT_GENERATED_(DE)
  6
Continuous
 62
     7
100
AcDbEllipse
 10
106.2495023032
 20
302.3002091596
 30
0.0
 11
-8.500000000006704
 21
-9.992007221626411E-13
 31
0.0
210
0.0
220
0.0
230
1.0
 40
0.3746065934
 41
1.32076191628377
 42
1.559031349506557
  0
LINE
  5
14F
330
75
100
AcDbEntity
  8
$DDT_AUDIT_GENERATED_(DE)
  6
Continuous
 62
     7
100
AcDbLine
 10
103.953100089
 20
299.2344589895
 30
0.0
 11
103.953100089
 21
299.937246518
 31
0.0
  0
LINE
  5
150
330
75
100
AcDbEntity
  8
$DDT_AUDIT_GENERATED_(DE)
  6
Continuous
 62
     7
100
AcDbLine
 10
104.4126141936
 20
299.8768830693
 30
0.0
 11
103.953100089
 21
299.2344589895
 31
0.0
  0
LINE
  5
151
330
75
100
AcDbEntity
  8
$DDT_AUDIT_GENERATED_(DE)
  6
Continuous
 62
     7
100
AcDbLine
 10
104.6047378838
 20
299.856008009
 30
0.0
 11
104.1462852542
 21
299.2150679253
 31
0.0
  0
ELLIPSE
  5
152
330
75
100
AcDbEntity
  8
$DDT_AUDIT_GENERATED_(DE)
  6
Continuous
 62
     7
100
AcDbEllipse
 10
106.2495020676
 20
302.3002090067
 30
0.0
 11
-8.499999705491156
 21
8.892610259270128E-8
 31
0.0
210
0.0
220
0.0
230
1.0
 40
0.3746065882
 41
1.035432589505636
 42
1.058962544734049
  0
ELLIPSE
  5
153
330
75
100
AcDbEntity
  8
$DDT_AUDIT_GENERATED_(DE)
  6
Continuous
 62
     7
100
AcDbEllipse
 10
106.2495023032
 20
302.3002091596
 30
0.0
 11
-8.499999999981261
 21
5.176414852314792E-12
 31
0.0
210
0.0
220
0.0
230
1.0
 40
0.3746065934
 41
1.0589625284854
 42
1.297231961708826
  0
LINE
  5
154
330
75
100
AcDbEntity
  8
$DDT_AUDIT_GENERATED_(DE)
  6
Continuous
 62
     7
100
AcDbLine
 10
101.9131938907
 20
299.5615703067
 30
0.0
 11
101.9131938907
 21
300.4286710933
 31
0.0
  0
LINE
  5
155
330
75
100
AcDbEntity
  8
$DDT_AUDIT_GENERATED_(DE)
  6
Continuous
 62
     7
100
AcDbLine
 10
102.8283851843
 20
300.1553808774
 30
0.0
 11
101.9131938907
 21
299.5615703067
 31
0.0
  0
LINE
  5
156
330
75
100
AcDbEntity
  8
$DDT_AUDIT_GENERATED_(DE)
  6
Continuous
 62
     7
100
AcDbLine
 10
102.9976265082
 20
300.1153483833
 30
0.0
 11
102.0863989714
 21
299.5241096474
 31
0.0
  0
ELLIPSE
  5
157
330
75
100
AcDbEntity
  8
$DDT_AUDIT_GENERATED_(DE)
  6
Continuous
 62
     7
100
AcDbEllipse
 10
106.2495019694
 20
302.3002090345
 30
0.0
 11
-8.49999964590295
 21
1.029122065343557E-7
 31
0.0
210
0.0
220
0.0
230
1.0
 40
0.3746065934
 41
0.7736332042058116
 42
0.797163159435479
  0
ELLIPSE
  5
158
330
75
100
AcDbEntity
  8
$DDT_AUDIT_GENERATED_(DE)
  6
Continuous
 62
     7
100
AcDbEllipse
 10
106.2495023032
 20
302.3002091596
 30
0.0
 11
-8.500000000020421
 21
-6.078471059822733E-12
 31
0.0
210
0.0
220
0.0
230
1.0
 40
0.3746065934
 41
0.79716314068462
 42
1.03543257390717
  0
LINE
  5
159
330
75
100
AcDbEntity
  8
$DDT_AUDIT_GENERATED_(DE)
  6
Continuous
 62
     7
100
AcDbLine
 10
100.1687999446
 20
300.0753153359
 30
0.0
 11
100.1687999446
 21
300.9418237678
 31
0.0
  0
LINE
  5
15A
330
75
100
AcDbEntity
  8
$DDT_AUDIT_GENERATED_(DE)
  6
Continuous
 62
     7
100
AcDbLine
 10
101.5233371101
 20
300.5827338892
 30
0.0
 11
100.1687999446
 21
300.0753153359
 31
0.0
  0
LINE
  5
15B
330
75
100
AcDbEntity
  8
$DDT_AUDIT_GENERATED_(DE)
  6
Continuous
 62
     7
100
AcDbLine
 10
101.656824716
 20
300.5267844815
 30
0.0
 11
100.3102213008
 21
300.0223379634
 31
0.0
  0
ELLIPSE
  5
15C
330
75
100
AcDbEntity
  8
$DDT_AUDIT_GENERATED_(DE)
  6
Continuous
 62
     7
100
AcDbEllipse
 10
106.2495018952
 20
302.3002090713
 30
0.0
 11
-8.499999587746501
 21
8.894315839391709E-8
 31
0.0
210
0.0
220
0.0
230
1.0
 40
0.3746065986
 41
0.5118338139059719
 42
0.5353637691342552
  0
ELLIPSE
  5
15D
330
75
100
AcDbEntity
  8
$DDT_AUDIT_GENERATED_(DE)
  6
Continuous
 62
     7
100
AcDbEllipse
 10
106.2495023032
 20
302.3002091596
 30
0.0
 11
-8.500000000026217
 21
-6.619704784327496E-12
 31
0.0
210
0.0
220
0.0
230
1.0
 40
0.3746065934
 41
0.5353637528854034
 42
0.773633186107916
  0
LINE
  5
15E
330
75
100
AcDbEntity
  8
$DDT_AUDIT_GENERATED_(DE)
  6
Continuous
 62
     7
100
AcDbLine
 10
98.8387958154
 20
300.7406832024
 30
0.0
 11
98.8387958154
 21
301.5175734089
 31
0.0
  0
LINE
  5
15F
330
75
100
AcDbEntity
  8
$DDT_AUDIT_GENERATED_(DE)
  6
Continuous
 62
     7
100
AcDbLine
 10
100.5918952839
 20
301.1198421838
 30
0.0
 11
98.8387958154
 21
300.7406832024
 31
0.0
  0
LINE
  5
160
330
75
100
AcDbEntity
  8
$DDT_AUDIT_GENERATED_(DE)
  6
Continuous
 62
     7
100
AcDbLine
 10
100.6799852814
 20
301.0523825325
 30
0.0
 11
98.9387958154
 21
300.6757994371
 31
0.0
  0
ELLIPSE
  5
161
330
75
100
AcDbEntity
  8
$DDT_AUDIT_GENERATED_(DE)
  6
Continuous
 62
     7
100
AcDbEllipse
 10
106.2495017814
 20
302.3002091073
 30
0.0
 11
-8.499999477922673
 21
5.877319464442365E-8
 31
0.0
210
0.0
220
0.0
230
1.0
 40
0.3746066037
 41
0.2500344206726139
 42
0.2735643759963616
  0
ELLIPSE
  5
162
330
75
100
AcDbEntity
  8
$DDT_AUDIT_GENERATED_(DE)
  6
Continuous
 62
     7
100
AcDbEllipse
 10
106.2495023032
 20
302.3002091596
 30
0.0
 11
-8.499999999993609
 21
9.159339953157541E-13
 31
0.0
210
0.0
220
0.0
230
1.0
 40
0.3746065934
 41
0.273564365087387
 42
0.5118337983104437
  0
LINE
  5
163
330
75
100
AcDbEntity
  8
$DDT_AUDIT_GENERATED_(DE)
  6
Continuous
 62
     7
100
AcDbLine
 10
98.0138190866
 20
301.5123301856
 30
0.0
 11
98.0138190866
 21
302.2627485002
 31
0.0
  0
LINE
  5
164
330
75
100
AcDbEntity
  8
$DDT_AUDIT_GENERATED_(DE)
  6
Continuous
 62
     7
100
AcDbLine
 10
100.0887145707
 20
301.7205989282
 30
0.0
 11
98.0138190866
 21
301.5123301856
 31
0.0
  0
LINE
  5
165
330
75
100
AcDbEntity
  8
$DDT_AUDIT_GENERATED_(DE)
  6
Continuous
 62
     7
100
AcDbLine
 10
100.125653578
 20
301.6467424442
 30
0.0
 11
98.0655828956
 21
301.439961749
 31
0.0
  0
LINE
  5
166
330
75
100
AcDbEntity
  8
$DDT_AUDIT_GENERATED_(DE)
  6
Continuous
 62
     7
100
AcDbLine
 10
103.5050761337
 20
302.818073778
 30
0.0
 11
103.5050761337
 21
302.3657653134
 31
0.0
  0
ELLIPSE
  5
167
330
75
100
AcDbEntity
  8
$DDT_AUDIT_GENERATED_(DE)
  6
Continuous
 62
     7
100
AcDbEllipse
 10
106.2495023032
 20
302.3002091596
 30
0.0
 11
2.749999999995181
 21
1.998401444325282E-12
 31
0.0
210
0.0
220
0.0
230
1.0
 40
0.3746065934
 41
3.07791326133248
 42
3.141592653589453
  0
LINE
  5
168
330
75
100
AcDbEntity
  8
$DDT_AUDIT_GENERATED_(DE)
  6
Continuous
 62
     7
100
AcDbLine
 10
103.5050761337
 20
302.3657653134
 30
0.0
 11
101.0424324244
 21
302.3657653134
 31
0.0
  0
LINE
  5
169
330
75
100
AcDbEntity
  8
$DDT_AUDIT_GENERATED_(DE)
  6
Continuous
 62
     7
100
AcDbLine
 10
103.4995023032
 20
302.2346530057
 30
0.0
 11
101.0092648198
 21
302.2346530057
 31
0.0
  0
LINE
  5
16A
330
75
100
AcDbEntity
  8
$DDT_AUDIT_GENERATED_(DE)
  6
Continuous
 62
     7
100
AcDbLine
 10
103.9602595216
 20
303.6544437646
 30
0.0
 11
103.9602595216
 21
302.8710225233
 31
0.0
  0
ELLIPSE
  5
16B
330
75
100
AcDbEntity
  8
$DDT_AUDIT_GENERATED_(DE)
  6
Continuous
 62
     7
100
AcDbEllipse
 10
106.2495023032
 20
302.3002091596
 30
0.0
 11
-2.749999999995008
 21
9.714451465470120E-13
 31
0.0
210
0.0
220
0.0
230
1.0
 40
0.3746065934
 41
-0.5872781678556827
 42
-0.4599193833415098
  0
LINE
  5
16C
330
75
100
AcDbEntity
  8
$DDT_AUDIT_GENERATED_(DE)
  6
Continuous
 62
     7
100
AcDbLine
 10
103.9602595216
 20
302.8710225233
 30
0.0
 11
102.0348771681
 21
303.2874427122
 31
0.0
  0
LINE
  5
16D
330
75
100
AcDbEntity
  8
$DDT_AUDIT_GENERATED_(DE)
  6
Continuous
 62
     7
100
AcDbLine
 10
103.7852595216
 20
302.7574759341
 30
0.0
 11
101.8350293732
 21
303.1792701846
 31
0.0
  0
LINE
  5
16E
330
75
100
AcDbEntity
  8
$DDT_AUDIT_GENERATED_(DE)
  6
Continuous
 62
     7
100
AcDbLine
 10
105.0288436641
 20
304.0275597458
 30
0.0
 11
105.0288436641
 21
303.2233307533
 31
0.0
  0
ELLIPSE
  5
16F
330
75
100
AcDbEntity
  8
$DDT_AUDIT_GENERATED_(DE)
  6
Continuous
 62
     7
100
AcDbEllipse
 10
106.2495023032
 20
302.3002091596
 30
0.0
 11
-2.749999999994942
 21
-1.040834085586084E-12
 31
0.0
210
0.0
220
0.0
230
1.0
 40
0.3746065934
 41
-1.110876943454439
 42
-0.9835181589402078
  0
LINE
  5
170
330
75
100
AcDbEntity
  8
$DDT_AUDIT_GENERATED_(DE)
  6
Continuous
 62
     7
100
AcDbLine
 10
105.0288436641
 20
303.2233307533
 30
0.0
 11
103.9989200139
 21
303.891583997
 31
0.0
  0
LINE
  5
171
330
75
100
AcDbEntity
  8
$DDT_AUDIT_GENERATED_(DE)
  6
Continuous
 62
     7
100
AcDbLine
 10
104.7257347728
 20
303.1577745995
 30
0.0
 11
103.6875470362
 21
303.8313898935
 31
0.0
  0
ARC
  5
172
330
75
100
AcDbEntity
  8
$DDT_AUDIT_GENERATED_(DE)
  6
Continuous
 62
     7
100
AcDbCircle
 10
106.2495023032
 20
296.0021337582
 30
0.0
 40
7.328245355509062
100
AcDbArc
 50
88.6316349744
 51
91.3683650256
  0
LINE
  5
173
330
75
100
AcDbEntity
  8
$DDT_AUDIT_GENERATED_(DE)
  6
Continuous
 62
     7
100
AcDbLine
 10
106.4245023032
 20
303.3282892978
 30
0.0
 11
106.4245023032
 21
304.0803640979
 31
0.0
  0
LINE
  5
174
330
75
100
AcDbEntity
  8
$DDT_AUDIT_GENERATED_(DE)
  6
Continuous
 62
     7
100
AcDbLine
 10
106.0745023032
 20
303.3282892978
 30
0.0
 11
106.0745023032
 21
304.0803640979
 31
0.0
  0
ELLIPSE
  5
175
330
75
100
AcDbEntity
  8
$DDT_AUDIT_GENERATED_(DE)
  6
Continuous
 62
     7
100
AcDbEllipse
 10
106.2495023032
 20
302.3002091596
 30
0.0
 11
2.750000000044044
 21
1.382227665658320E-11
 31
0.0
210
0.0
220
0.0
230
1.0
 40
0.3746065934
 41
0.9835181589328977
 42
1.110876943445308
  0
LINE
  5
176
330
75
100
AcDbEntity
  8
$DDT_AUDIT_GENERATED_(DE)
  6
Continuous
 62
     7
100
AcDbLine
 10
107.4701609423
 20
304.0275597458
 30
0.0
 11
107.4701609423
 21
303.2233307533
 31
0.0
  0
LINE
  5
177
330
75
100
AcDbEntity
  8
$DDT_AUDIT_GENERATED_(DE)
  6
Continuous
 62
     7
100
AcDbLine
 10
107.7732698336
 20
303.1577745995
 30
0.0
 11
108.8114575702
 21
303.8313898935
 31
0.0
  0
LINE
  5
178
330
75
100
AcDbEntity
  8
$DDT_AUDIT_GENERATED_(DE)
  6
Continuous
 62
     7
100
AcDbLine
 10
107.4701609423
 20
303.2233307533
 30
0.0
 11
108.5000845925
 21
303.891583997
 31
0.0
  0
ELLIPSE
  5
179
330
75
100
AcDbEntity
  8
$DDT_AUDIT_GENERATED_(DE)
  6
Continuous
 62
     7
100
AcDbEllipse
 10
106.2495023032
 20
302.3002091596
 30
0.0
 11
2.750000000005769
 21
1.665334536937735E-12
 31
0.0
210
0.0
220
0.0
230
1.0
 40
0.3746065934
 41
0.4599193833406068
 42
0.5872781678544818
  0
LINE
  5
17A
330
75
100
AcDbEntity
  8
$DDT_AUDIT_GENERATED_(DE)
  6
Continuous
 62
     7
100
AcDbLine
 10
108.5387450848
 20
303.6544437646
 30
0.0
 11
108.5387450848
 21
302.8710225233
 31
0.0
  0
LINE
  5
17B
330
75
100
AcDbEntity
  8
$DDT_AUDIT_GENERATED_(DE)
  6
Continuous
 62
     7
100
AcDbLine
 10
108.7137450848
 20
302.7574759341
 30
0.0
 11
110.6639752332
 21
303.1792701846
 31
0.0
  0
LINE
  5
17C
330
75
100
AcDbEntity
  8
$DDT_AUDIT_GENERATED_(DE)
  6
Continuous
 62
     7
100
AcDbLine
 10
108.5387450848
 20
302.8710225233
 30
0.0
 11
110.4641274383
 21
303.2874427122
 31
0.0
  0
ELLIPSE
  5
17D
330
75
100
AcDbEntity
  8
$DDT_AUDIT_GENERATED_(DE)
  6
Continuous
 62
     7
100
AcDbEllipse
 10
106.2495023032
 20
302.3002091596
 30
0.0
 11
-2.749999999995843
 21
0.0
 31
0.0
210
0.0
220
0.0
230
1.0
 40
0.3746065934
 41
3.141592653589793
 42
3.20527204584679
  0
LINE
  5
17E
330
75
100
AcDbEntity
  8
$DDT_AUDIT_GENERATED_(DE)
  6
Continuous
 62
     7
100
AcDbLine
 10
108.9939284727
 20
302.818073778
 30
0.0
 11
108.9939284727
 21
302.3657653134
 31
0.0
  0
LINE
  5
17F
330
75
100
AcDbEntity
  8
$DDT_AUDIT_GENERATED_(DE)
  6
Continuous
 62
     7
100
AcDbLine
 10
108.9995023032
 20
302.2346530057
 30
0.0
 11
111.4897397866
 21
302.2346530057
 31
0.0
  0
LINE
  5
180
330
75
100
AcDbEntity
  8
$DDT_AUDIT_GENERATED_(DE)
  6
Continuous
 62
     7
100
AcDbLine
 10
108.9939284727
 20
302.3657653134
 30
0.0
 11
111.456572182
 21
302.3657653134
 31
0.0
  0
ELLIPSE
  5
181
330
75
100
AcDbEntity
  8
$DDT_AUDIT_GENERATED_(DE)
  6
Continuous
 62
     7
100
AcDbEllipse
 10
106.249502304
 20
302.3002091594
 30
0.0
 11
5.249999999193236
 21
1.752625822248888E-10
 31
0.0
210
0.0
220
0.0
230
1.0
 40
0.3746065934
 41
-0.5569382849129747
 42
-0.4902592663845162
  0
LINE
  5
182
330
75
100
AcDbEntity
  8
$DDT_AUDIT_GENERATED_(DE)
  6
Continuous
 62
     7
100
AcDbLine
 10
108.747764855
 20
301.6841891635
 30
0.0
 11
110.7061090636
 21
301.2606400104
 31
0.0
  0
LINE
  5
183
330
75
100
AcDbEntity
  8
$DDT_AUDIT_GENERATED_(DE)
  6
Continuous
 62
     7
100
AcDbLine
 10
108.8748262875
 20
301.8081038686
 30
0.0
 11
110.8811090636
 21
301.3741865996
 31
0.0
  0
LINE
  5
184
330
75
100
AcDbEntity
  8
$DDT_AUDIT_GENERATED_(DE)
  6
Continuous
 62
     7
100
AcDbLine
 10
110.8811090636
 20
302.2346530057
 30
0.0
 11
110.8811090636
 21
301.3741865996
 31
0.0
  0
ELLIPSE
  5
185
330
75
100
AcDbEntity
  8
$DDT_AUDIT_GENERATED_(DE)
  6
Continuous
 62
     7
100
AcDbEllipse
 10
106.2495023043
 20
302.3002091589
 30
0.0
 11
5.249999998621551
 21
4.166250677783978E-10
 31
0.0
210
0.0
220
0.0
230
1.0
 40
0.3746065934
 41
-1.080537060585394
 42
-1.013858042048778
  0
LINE
  5
186
330
75
100
AcDbEntity
  8
$DDT_AUDIT_GENERATED_(DE)
  6
Continuous
 62
     7
100
AcDbLine
 10
107.6868186282
 20
301.2365119015
 30
0.0
 11
108.7214891189
 21
300.565178729
 31
0.0
  0
LINE
  5
187
330
75
100
AcDbEntity
  8
$DDT_AUDIT_GENERATED_(DE)
  6
Continuous
 62
     7
100
AcDbLine
 10
107.9740801338
 20
301.3123504359
 30
0.0
 11
109.0245980102
 21
300.6307348829
 31
0.0
  0
LINE
  5
188
330
75
100
AcDbEntity
  8
$DDT_AUDIT_GENERATED_(DE)
  6
Continuous
 62
     7
100
AcDbLine
 10
109.0245980102
 20
301.6243159053
 30
0.0
 11
109.0245980102
 21
300.6307348829
 31
0.0
  0
ARC
  5
189
330
75
100
AcDbEntity
  8
$DDT_AUDIT_GENERATED_(DE)
  6
Continuous
 62
     7
100
AcDbCircle
 10
106.2495023032
 20
314.3415319439
 30
0.0
 40
14.00800766098236
100
AcDbArc
 50
269.2841935491
 51
270.7158064509
  0
LINE
  5
18A
330
75
100
AcDbEntity
  8
$DDT_AUDIT_GENERATED_(DE)
  6
Continuous
 62
     7
100
AcDbLine
 10
106.0745023032
 20
301.0866922504
 30
0.0
 11
106.0745023032
 21
300.3346174504
 31
0.0
  0
LINE
  5
18B
330
75
100
AcDbEntity
  8
$DDT_AUDIT_GENERATED_(DE)
  6
Continuous
 62
     7
100
AcDbLine
 10
106.4245023032
 20
301.0866922504
 30
0.0
 11
106.4245023032
 21
300.3346174504
 31
0.0
  0
ELLIPSE
  5
18C
330
75
100
AcDbEntity
  8
$DDT_AUDIT_GENERATED_(DE)
  6
Continuous
 62
     7
100
AcDbEllipse
 10
106.2495023021
 20
302.3002091588
 30
0.0
 11
-5.249999998571779
 21
4.323347235768438E-10
 31
0.0
210
0.0
220
0.0
230
1.0
 40
0.3746065934
 41
1.013858042053545
 42
1.080537060590657
  0
LINE
  5
18D
330
75
100
AcDbEntity
  8
$DDT_AUDIT_GENERATED_(DE)
  6
Continuous
 62
     7
100
AcDbLine
 10
104.5249244727
 20
301.3123504359
 30
0.0
 11
103.4744065962
 21
300.6307348829
 31
0.0
  0
LINE
  5
18E
330
75
100
AcDbEntity
  8
$DDT_AUDIT_GENERATED_(DE)
  6
Continuous
 62
     7
100
AcDbLine
 10
104.8121859782
 20
301.2365119015
 30
0.0
 11
103.7775154875
 21
300.565178729
 31
0.0
  0
LINE
  5
18F
330
75
100
AcDbEntity
  8
$DDT_AUDIT_GENERATED_(DE)
  6
Continuous
 62
     7
100
AcDbLine
 10
103.4744065962
 20
301.6243159053
 30
0.0
 11
103.4744065962
 21
300.6307348829
 31
0.0
  0
ELLIPSE
  5
190
330
75
100
AcDbEntity
  8
$DDT_AUDIT_GENERATED_(DE)
  6
Continuous
 62
     7
100
AcDbEllipse
 10
106.2495023013
 20
302.3002091592
 30
0.0
 11
-5.249999998025437
 21
4.272970866026071E-10
 31
0.0
210
0.0
220
0.0
230
1.0
 40
0.3746065935
 41
0.4902592664535018
 42
0.5569382849904122
  0
LINE
  5
191
330
75
100
AcDbEntity
  8
$DDT_AUDIT_GENERATED_(DE)
  6
Continuous
 62
     7
100
AcDbLine
 10
103.624178319
 20
301.8081038686
 30
0.0
 11
101.6178955428
 21
301.3741865996
 31
0.0
  0
LINE
  5
192
330
75
100
AcDbEntity
  8
$DDT_AUDIT_GENERATED_(DE)
  6
Continuous
 62
     7
100
AcDbLine
 10
103.7512397514
 20
301.6841891635
 30
0.0
 11
101.7928955428
 21
301.2606400104
 31
0.0
  0
LINE
  5
193
330
75
100
AcDbEntity
  8
$DDT_AUDIT_GENERATED_(DE)
  6
Continuous
 62
     7
100
AcDbLine
 10
101.6178955428
 20
302.2346530057
 30
0.0
 11
101.6178955428
 21
301.3741865996
 31
0.0
  0
LINE
  5
194
330
75
100
AcDbEntity
  8
$DDT_AUDIT_GENERATED_(DE)
  6
Continuous
 62
     7
100
AcDbLine
 10
97.2495023032
 20
304.1356229083
 30
0.0
 11
97.2495023032
 21
302.1147723887
 31
0.0
  0
LINE
  5
195
330
75
100
AcDbEntity
  8
$DDT_AUDIT_GENERATED_(DE)
  6
Continuous
 62
     7
100
AcDbLine
 10
115.2495023032
 20
302.1147723887
 30
0.0
 11
115.2495023032
 21
304.1356229083
 31
0.0
  0
LINE
  5
196
330
75
100
AcDbEntity
  8
$DDT_AUDIT_GENERATED_(DE)
  6
Continuous
 62
     7
100
AcDbLine
 10
99.9995023032
 20
302.3002091596
 30
0.0
 11
99.9995023032
 21
302.1147723887
 31
0.0
  0
LINE
  5
197
330
75
100
AcDbEntity
  8
$DDT_AUDIT_GENERATED_(DE)
  6
Continuous
 62
     7
100
AcDbLine
 10
112.4995023032
 20
302.1147723887
 30
0.0
 11
112.4995023032
 21
302.3002091596
 31
0.0
  0
LINE
  5
198
330
75
100
AcDbEntity
  8
$DDT_AUDIT_GENERATED_(DE)
  6
Continuous
 62
     7
100
AcDbLine
 10
103.4995023032
 20
302.3002091596
 30
0.0
 11
103.4995023032
 21
302.1147723887
 31
0.0
  0
LINE
  5
199
330
75
100
AcDbEntity
  8
$DDT_AUDIT_GENERATED_(DE)
  6
Continuous
 62
     7
100
AcDbLine
 10
108.9995023032
 20
302.1147723887
 30
0.0
 11
108.9995023032
 21
302.3002091596
 31
0.0
  0
LINE
  5
19A
330
75
100
AcDbEntity
  8
$DDT_AUDIT_GENERATED_(DE)
  6
Continuous
 62
     7
100
AcDbLine
 10
105.7298723593
 20
302.5294999032
 30
0.0
 11
105.7298723593
 21
302.3002091596
 31
0.0
  0
LINE
  5
19B
330
75
100
AcDbEntity
  8
$DDT_AUDIT_GENERATED_(DE)
  6
Continuous
 62
     7
100
AcDbLine
 10
106.7691322471
 20
302.3002091596
 30
0.0
 11
106.7691322471
 21
302.6793520796
 31
0.0
  0
SPLINE
  5
19D
330
75
100
AcDbEntity
  8
$DDT_AUDIT_GENERATED_(19C)
  6
Continuous
 62
     7
100
AcDbSpline
210
0.0
220
0.0
230
1.0
 70
     8
 71
     3
 72
    20
 73
    16
 74
     0
 42
0.0000000004573911
 43
0.0000000001
 40
0.0
 40
0.0
 40
0.0
 40
0.0
 40
0.0001600668072858
 40
0.0138849894415225
 40
0.13833215623315
 40
0.2007896339993117
 40
0.2632471132104691
 40
0.3259080714604258
 40
0.3885690342629677
 40
0.5140822695437696
 40
0.6397244135229835
 40
0.7652064737264271
 40
0.8244940508775548
 40
0.8832568419750123
 40
0.9325315194621033
 40
0.9325315194621033
 40
0.9325315194621033
 40
0.9325315194621033
 10
106.2494867333493
 20
352.4079096922191
 30
0.0
 10
106.2478027239036
 20
352.4079044454308
 30
0.0
 10
106.1017231550782
 20
352.407902533353
 30
0.0
 10
104.6466426767849
 20
352.4128695940641
 30
0.0
 10
102.5332451159502
 20
352.4926264271336
 30
0.0
 10
100.0226200396406
 20
352.7081310986173
 30
0.0
 10
98.20635668834603
 20
352.9261081488219
 30
0.0
 10
96.48298920708575
 20
353.1974472759225
 30
0.0
 10
94.33162259658152
 20
353.6253232081576
 30
0.0
 10
91.95877920465914
 20
354.2753010193964
 30
0.0
 10
89.73605992740782
 20
355.1981621550738
 30
0.0
 10
88.4757797950519
 20
356.0440953875413
 30
0.0
 10
87.81124759523036
 20
356.7344162330351
 30
0.0
 10
87.51711611800297
 20
357.2188381732855
 30
0.0
 10
87.43011578149851
 20
357.5353268299779
 30
0.0
 10
87.41632611347524
 20
357.6797524693392
 30
0.0
  0
SPLINE
  5
19E
330
75
100
AcDbEntity
  8
$DDT_AUDIT_GENERATED_(19C)
  6
Continuous
 62
     7
100
AcDbSpline
210
0.0
220
0.0
230
1.0
 70
     8
 71
     3
 72
     9
 73
     5
 74
     0
 42
0.0000000011304598
 43
0.0000000001
 40
0.9325315194621033
 40
0.9325315194621033
 40
0.9325315194621033
 40
0.9325315194621033
 40
0.9417948193239954
 40
0.9773339353960612
 40
0.9773339353960612
 40
0.9773339353960612
 40
0.9773339353960612
 10
87.41632611347524
 20
357.6797524693392
 30
0.0
 10
87.41373375089854
 20
357.7069034944373
 30
0.0
 10
87.4056210854273
 20
357.8382342481384
 30
0.0
 10
87.41960888925219
 20
357.9695223702863
 30
0.0
 10
87.43611993741968
 20
358.0736550538068
 30
0.0
  0
SPLINE
  5
19F
330
75
100
AcDbEntity
  8
$DDT_AUDIT_GENERATED_(19C)
  6
Continuous
 62
     7
100
AcDbSpline
210
0.0
220
0.0
230
1.0
 70
     8
 71
     3
 72
    21
 73
    17
 74
     0
 42
0.0000000004763714
 43
0.0000000001
 40
0.0
 40
0.0
 40
0.0
 40
0.0
 40
0.0136883436636745
 40
0.1374401390181952
 40
0.1998591329962439
 40
0.2624839749058832
 40
0.3879938374110881
 40
0.513659118659273
 40
0.5765156541207195
 40
0.6392895553982808
 40
0.7643545029525758
 40
0.826785089067244
 40
0.8892156742772815
 40
0.9515397113175273
 40
0.9757670668247229
 40
1.0
 40
1.0
 40
1.0
 40
1.0
 10
125.0268880202221
 20
358.2728871439296
 30
0.0
 10
125.0373155825347
 20
358.2328769561011
 30
0.0
 10
125.142015292189
 20
357.8311478734158
 30
0.0
 10
124.9939993327482
 20
357.2412526234531
 30
0.0
 10
124.4833942592021
 20
356.5258054308321
 30
0.0
 10
123.7233451036129
 20
355.8215563100409
 30
0.0
 10
122.3178971146726
 20
354.9827458492923
 30
0.0
 10
120.3437011411429
 20
354.2366677283696
 30
0.0
 10
118.4657733331066
 20
353.7168415344761
 30
0.0
 10
116.4109167834389
 20
353.2549395985929
 30
0.0
 10
114.1072796059065
 20
352.8866931888796
 30
0.0
 10
111.6426051823297
 20
352.629198880653
 30
0.0
 10
109.7315639750389
 20
352.4929344682136
 30
0.0
 10
108.176860697768
 20
352.43212546348
 30
0.0
 10
107.0139984390148
 20
352.4105808444348
 30
0.0
 10
106.5043435237095
 20
352.4087966615789
 30
0.0
 10
106.2494867333493
 20
352.4079096922191
 30
0.0
  0
ARC
  5
1A0
330
75
100
AcDbEntity
  8
$DDT_AUDIT_GENERATED_(19C)
  6
Continuous
 62
     7
100
AcDbCircle
 10
106.2836941604
 20
713.5268143026
 30
0.0
 40
353.0059332257031
100
AcDbArc
 50
269.9944503921
 51
272.9537134636
  0
LINE
  5
1A1
330
75
100
AcDbEntity
  8
$DDT_AUDIT_GENERATED_(19C)
  6
Continuous
 62
     7
100
AcDbLine
 10
106.2494867333
 20
352.4079096922
 30
0.0
 11
106.2495023838
 21
360.5208827328
 31
0.0
  0
SPLINE
  5
1A2
330
75
100
AcDbEntity
  8
$DDT_AUDIT_GENERATED_(19C)
  6
Continuous
 62
     7
100
AcDbSpline
210
0.0
220
0.0
230
1.0
 70
     8
 71
     3
 72
    16
 73
    12
 74
     0
 42
0.0000000001876131
 43
0.0000000001
 40
0.37333993921109
 40
0.37333993921109
 40
0.37333993921109
 40
0.37333993921109
 40
0.3749999999999998
 40
0.3749999999999998
 40
0.4999999999999997
 40
0.4999999999999997
 40
0.5624999999999997
 40
0.5624999999999997
 40
0.6249999999999996
 40
0.6249999999999996
 40
0.6736473870601533
 40
0.6736473870601533
 40
0.6736473870601533
 40
0.6736473870601533
 10
99.40911842664906
 20
374.6585593838217
 30
0.0
 10
99.43726086056996
 20
374.6602196561956
 30
0.0
 10
99.46543093765663
 20
374.6618689516901
 30
0.0
 10
101.6168402422667
 20
374.7868680175152
 30
0.0
 10
103.9388124938406
 20
374.850565697326
 30
0.0
 10
107.3896578756255
 20
374.8508739038095
 30
0.0
 10
108.5578348954757
 20
374.8351148665762
 30
0.0
 10
110.8217253617416
 20
374.7726964423663
 30
0.0
 10
111.9215815039563
 20
374.726418004981
 30
0.0
 10
113.8203337489699
 20
374.6164632209299
 30
0.0
 10
114.6313207562773
 20
374.5586305833315
 30
0.0
 10
115.4012426413525
 20
374.4925000988031
 30
0.0
  0
LINE
  5
1A3
330
75
100
AcDbEntity
  8
$DDT_AUDIT_GENERATED_(19C)
  6
Continuous
 62
     7
100
AcDbLine
 10
130.7354056069
 20
329.1208936253
 30
0.0
 11
125.0370937673
 21
358.2207689071
 31
0.0
  0
SPLINE
  5
1A4
330
75
100
AcDbEntity
  8
$DDT_AUDIT_GENERATED_(19C)
  6
Continuous
 62
     7
100
AcDbSpline
210
0.0
220
0.0
230
1.0
 70
     8
 71
     3
 72
    12
 73
     8
 74
     0
 42
0.0000000151019633
 43
0.0000000001
 40
0.0
 40
0.0
 40
0.0
 40
0.0
 40
0.4999999999999991
 40
0.4999999999999991
 40
0.7499999999999996
 40
0.7499999999999996
 40
1.0
 40
1.0
 40
1.0
 40
1.0
 10
130.5552336685822
 20
326.9453141403745
 30
0.0
 10
130.6436390810235
 20
326.9352524401216
 30
0.0
 10
130.7124853474971
 20
326.9704466578238
 30
0.0
 10
130.7876995454039
 20
327.0928441350633
 30
0.0
 10
130.8081279688143
 20
327.1457872861732
 30
0.0
 10
130.8389071633659
 20
327.2742858844902
 30
0.0
 10
130.8493648485676
 20
327.3497627218692
 30
0.0
 10
130.8551458004086
 20
327.436700346102
 30
0.0
  0
ARC
  5
1A5
330
75
100
AcDbEntity
  8
$DDT_AUDIT_GENERATED_(19C)
  6
Continuous
 62
     7
100
AcDbCircle
 10
124.7189743593
 20
327.8467934219
 30
0.0
 40
6.149859858973079
100
AcDbArc
 50
356.1764899501
 51
3.2312550874
  0
ARC
  5
1A6
330
75
100
AcDbEntity
  8
$DDT_AUDIT_GENERATED_(19C)
  6
Continuous
 62
     7
100
AcDbCircle
 10
124.7189743593
 20
327.8467934219
 30
0.0
 40
6.149859858973079
100
AcDbArc
 50
3.2312550874
 51
11.9568796414
  0
SPLINE
  5
1A7
330
75
100
AcDbEntity
  8
$DDT_AUDIT_GENERATED_(19C)
  6
Continuous
 62
     7
100
AcDbSpline
210
0.0
220
0.0
230
1.0
 70
     8
 71
     3
 72
    12
 73
     8
 74
     0
 42
0.0000000152887449
 43
0.0000000001
 40
0.0
 40
0.0
 40
0.0
 40
0.0
 40
0.5
 40
0.5
 40
0.75
 40
0.75
 40
1.0
 40
1.0
 40
1.0
 40
1.0
 10
81.64135098982416
 20
327.4365111541712
 30
0.0
 10
81.65269356996718
 20
327.262587148266
 30
0.0
 10
81.68253782674499
 20
327.1358364497403
 30
0.0
 10
81.75716416871606
 20
327.0124137032934
 30
0.0
 10
81.78726964307018
 20
326.9824757329446
 30
0.0
 10
81.85687443733342
 20
326.9463591104878
 30
0.0
 10
81.89635723292959
 20
326.939962957894
 30
0.0
 10
81.94053597621495
 20
326.9449900785087
 30
0.0
  0
ARC
  5
1A8
330
75
100
AcDbEntity
  8
$DDT_AUDIT_GENERATED_(19C)
  6
Continuous
 62
     7
100
AcDbCircle
 10
87.8095475182
 20
327.8354672626
 30
0.0
 40
6.181085211296224
100
AcDbArc
 50
167.9970971942
 51
176.8317938667
  0
ARC
  5
1A9
330
75
100
AcDbEntity
  8
$DDT_AUDIT_GENERATED_(19C)
  6
Continuous
 62
     7
100
AcDbCircle
 10
87.8095475182
 20
327.8354672626
 30
0.0
 40
6.181085211296224
100
AcDbArc
 50
176.8317938667
 51
183.7007097851
  0
LINE
  5
1AA
330
75
100
AcDbEntity
  8
$DDT_AUDIT_GENERATED_(19C)
  6
Continuous
 62
     7
100
AcDbLine
 10
82.2274916102
 20
326.5860320104
 30
0.0
 11
82.6472393139
 21
326.5860320104
 31
0.0
  0
SPLINE
  5
1AB
330
75
100
AcDbEntity
  8
$DDT_AUDIT_GENERATED_(19C)
  6
Continuous
 62
     7
100
AcDbSpline
210
0.0
220
0.0
230
1.0
 70
     8
 71
     3
 72
     8
 73
     4
 74
     0
 42
0.0000000194033023
 43
0.0000000001
 40
0.0
 40
0.0
 40
0.0
 40
0.0
 40
0.0485265133990411
 40
0.0485265133990411
 40
0.0485265133990411
 40
0.0485265133990411
 10
82.22749161020681
 20
326.5860320104409
 30
0.0
 10
82.2189980806837
 20
326.5850049785439
 30
0.0
 10
82.21068930120644
 20
326.5844341212215
 30
0.0
 10
82.20256445541871
 20
326.5843201906678
 30
0.0
  0
ARC
  5
1AC
330
75
100
AcDbEntity
  8
$DDT_AUDIT_GENERATED_(19C)
  6
Continuous
 62
     7
100
AcDbCircle
 10
106.2479228032
 20
-239.5345471553
 30
0.0
 40
566.6299420870816
100
AcDbArc
 50
87.5704039492
 51
92.4295960508
  0
ELLIPSE
  5
1AD
330
75
100
AcDbEntity
  8
$DDT_AUDIT_GENERATED_(19C)
  6
Continuous
 62
     7
100
AcDbEllipse
 10
130.2683539962
 20
326.8859292079
 30
0.0
 11
-0.03384757334517693
 21
-0.2980844541042721
 31
0.0
210
0.0
220
0.0
230
1.0
 40
0.97410795
 41
0.1160447548747354
 42
1.880290343400185
  0
ELLIPSE
  5
1AE
330
75
100
AcDbEntity
  8
$DDT_AUDIT_GENERATED_(19C)
  6
Continuous
 62
     7
100
AcDbEllipse
 10
130.5634359155
 20
327.3781271358
 30
0.0
 11
-0.2994021216969345
 21
0.01893065036850938
 31
0.0
210
0.0
220
0.0
230
0.9999999999999999
 40
0.8945784204
 41
3.152827149404098
 42
3.432067076137826
  0
ELLIPSE
  5
1AF
330
75
100
AcDbEntity
  8
$DDT_AUDIT_GENERATED_(19C)
  6
Continuous
 62
     7
100
AcDbEllipse
 10
81.9331345869
 20
327.3781271358
 30
0.0
 11
0.2994253383567895
 21
0.01855981546035335
 31
0.0
210
0.0
220
0.0
230
1.0
 40
0.8945922741
 41
2.853223523738287
 42
3.12496489169984
  0
ELLIPSE
  5
1B0
330
75
100
AcDbEntity
  8
$DDT_AUDIT_GENERATED_(19C)
  6
Continuous
 62
     7
100
AcDbEllipse
 10
82.2274916102
 20
326.8859292079
 30
0.0
 11
0.03388108925544628
 21
-0.2980806464547292
 31
0.0
210
0.0
220
0.0
230
1.0
 40
0.974157183
 41
4.403882093937544
 42
6.167031022444526
  0
LINE
  5
1B1
330
75
100
AcDbEntity
  8
$DDT_AUDIT_GENERATED_(19C)
  6
Continuous
 62
     7
100
AcDbLine
 10
87.6784373745
 20
369.1950518756
 30
0.0
 11
88.0959791691
 21
371.8139422757
 31
0.0
  0
ARC
  5
1B2
330
75
100
AcDbEntity
  8
$DDT_AUDIT_GENERATED_(19C)
  6
Continuous
 62
     7
100
AcDbCircle
 10
106.208703558
 20
713.2639849423
 30
0.0
 40
352.7431045688805
100
AcDbArc
 50
267.0452126006
 51
270.0066269206
  0
SPLINE
  5
1B3
330
75
100
AcDbEntity
  8
$DDT_AUDIT_GENERATED_(19C)
  6
Continuous
 62
     7
100
AcDbSpline
210
0.0
220
0.0
230
1.0
 70
     8
 71
     3
 72
    10
 73
     6
 74
     0
 42
0.0000000035442018
 43
0.0000000001
 40
0.0
 40
0.0
 40
0.0
 40
0.0
 40
0.5000000000000001
 40
0.5000000000000001
 40
0.9500742968899694
 40
0.9500742968899694
 40
0.9500742968899694
 40
0.9500742968899694
 10
88.02553278656919
 20
360.9898443619605
 30
0.0
 10
88.01404103378968
 20
360.5243021546462
 30
0.0
 10
87.8827043824475
 20
359.9642567427586
 30
0.0
 10
87.58364745249614
 20
359.0671491762551
 30
0.0
 10
87.48578070803869
 20
358.7297935127374
 30
0.0
 10
87.47312581654948
 20
358.3872120917063
 30
0.0
  0
LINE
  5
1B4
330
75
100
AcDbEntity
  8
$DDT_AUDIT_GENERATED_(19C)
  6
Continuous
 62
     7
100
AcDbLine
 10
124.8231072488
 20
369.1950524287
 30
0.0
 11
124.4055692999
 21
371.813941583
 31
0.0
  0
SPLINE
  5
1B5
330
75
100
AcDbEntity
  8
$DDT_AUDIT_GENERATED_(19C)
  6
Continuous
 62
     7
100
AcDbSpline
210
0.0
220
0.0
230
1.0
 70
     8
 71
     3
 72
    16
 73
    12
 74
     0
 42
0.0000000035890069
 43
0.0000000001
 40
0.0
 40
0.0
 40
0.0
 40
0.0
 40
0.1250000000000001
 40
0.1250000000000001
 40
0.2500000000000001
 40
0.2500000000000001
 40
0.5000000000000001
 40
0.5000000000000001
 40
0.7500000000000001
 40
0.7500000000000001
 40
1.0
 40
1.0
 40
1.0
 40
1.0
 10
125.0268880202221
 20
358.2728871439296
 30
0.0
 10
125.0287803521145
 20
358.3685785271936
 30
0.0
 10
125.0253547952875
 20
358.457872092229
 30
0.0
 10
125.0014345140267
 20
358.6394852085918
 30
0.0
 10
124.9814486352857
 20
358.7326065348911
 30
0.0
 10
124.9051076999169
 20
359.0293657323294
 30
0.0
 10
124.8323909777587
 20
359.2496675147068
 30
0.0
 10
124.6846473905018
 20
359.7298145751599
 30
0.0
 10
124.6114144622559
 20
359.9898583363902
 30
0.0
 10
124.5091028637723
 20
360.5047940149816
 30
0.0
 10
124.4795481406801
 20
360.7570994051479
 30
0.0
 10
124.4738053508674
 20
360.9898534780452
 30
0.0
  0
ARC
  5
1B6
330
75
100
AcDbEntity
  8
$DDT_AUDIT_GENERATED_(19C)
  6
Continuous
 62
     7
100
AcDbCircle
 10
106.250772008
 20
483.9025162046
 30
0.0
 40
116.7080505067322
100
AcDbArc
 50
261.050391657
 51
278.9496072002
  0
LINE
  5
1B7
330
75
100
AcDbEntity
  8
$DDT_AUDIT_GENERATED_(19C)
  6
Continuous
 62
     7
100
AcDbLine
 10
88.0951004567
 20
368.6277727907
 30
0.0
 11
88.0949986491
 21
368.6153228605
 31
0.0
  0
LINE
  5
1B8
330
75
100
AcDbEntity
  8
$DDT_AUDIT_GENERATED_(19C)
  6
Continuous
 62
     7
100
AcDbLine
 10
124.4065430675
 20
368.6153224984
 30
0.0
 11
124.4064443631
 21
368.6277726019
 31
0.0
  0
SPLINE
  5
1B9
330
75
100
AcDbEntity
  8
$DDT_AUDIT_GENERATED_(19C)
  6
Continuous
 62
     7
100
AcDbSpline
210
0.0
220
0.0
230
1.0
 70
     8
 71
     3
 72
     8
 73
     4
 74
     0
 42
0.0000000011996824
 43
0.0000000001
 40
0.0
 40
0.0
 40
0.0
 40
0.0
 40
0.0026710987834116
 40
0.0026710987834116
 40
0.0026710987834116
 40
0.0026710987834116
 10
87.67843737450873
 20
369.1950518755526
 30
0.0
 10
87.67846566540277
 20
369.2024850851099
 30
0.0
 10
87.67871217297197
 20
369.2099003585809
 30
0.0
 10
87.67917667061714
 20
369.2172982062952
 30
0.0
  0
SPLINE
  5
1BA
330
75
100
AcDbEntity
  8
$DDT_AUDIT_GENERATED_(19C)
  6
Continuous
 62
     7
100
AcDbSpline
210
0.0
220
0.0
230
1.0
 70
     8
 71
     3
 72
    32
 73
    28
 74
     0
 42
0.0000000002598711
 43
0.0000000001
 40
0.0026710987834116
 40
0.0026710987834116
 40
0.0026710987834116
 40
0.0026710987834116
 40
0.1250000000000001
 40
0.1250000000000001
 40
0.1875000000000001
 40
0.1875000000000001
 40
0.2500000000000001
 40
0.2500000000000001
 40
0.3750000000000001
 40
0.3750000000000001
 40
0.5000000000000001
 40
0.5000000000000001
 40
0.5625000000000001
 40
0.5625000000000001
 40
0.6250000000000002
 40
0.6250000000000002
 40
0.6875000000000002
 40
0.6875000000000002
 40
0.7500000000000002
 40
0.7500000000000002
 40
0.8125000000000003
 40
0.8125000000000003
 40
0.8750000000000002
 40
0.8750000000000002
 40
0.9375000000000002
 40
0.9375000000000002
 40
0.9973725316305245
 40
0.9973725316305245
 40
0.9973725316305245
 40
0.9973725316305245
 10
87.67917667061714
 20
369.2172982062952
 30
0.0
 10
87.7004493719129
 20
369.5560990727673
 30
0.0
 10
88.17893128647457
 20
369.8583514104118
 30
0.0
 10
89.5597971525678
 20
370.3338722631138
 30
0.0
 10
90.13139154389452
 20
370.4916503985169
 30
0.0
 10
91.48076739917744
 20
370.7939973570959
 30
0.0
 10
92.26570308903656
 20
370.9389573763937
 30
0.0
 10
94.83666628178683
 20
371.3272919237273
 30
0.0
 10
96.90768110136345
 20
371.5334100647931
 30
0.0
 10
101.3746246331436
 20
371.8051357876656
 30
0.0
 10
103.8174284081272
 20
371.874959576134
 30
0.0
 10
107.4491120637792
 20
371.8753049488
 30
0.0
 10
108.6786984060812
 20
371.8580011943333
 30
0.0
 10
111.0597563364293
 20
371.7894560755524
 30
0.0
 10
112.2169526856433
 20
371.7386006922173
 30
0.0
 10
114.4643897445751
 20
371.6023463067593
 30
0.0
 10
115.5518927847064
 20
371.5165141016589
 30
0.0
 10
117.5644475634455
 20
371.3160081087389
 30
0.0
 10
118.5025576545653
 20
371.20058899461
 30
0.0
 10
120.2373678453644
 20
370.9389103661367
 30
0.0
 10
121.0086374210701
 20
370.7963329870065
 30
0.0
 10
122.3562108623533
 20
370.4951588758341
 30
0.0
 10
122.9389713521569
 20
370.3347114536599
 30
0.0
 10
123.8742196696243
 20
370.0128819388869
 30
0.0
 10
124.2261106830804
 20
369.8533622998451
 30
0.0
 10
124.6910623635722
 20
369.539462412691
 30
0.0
 10
124.8120427287671
 20
369.3827361873972
 30
0.0
 10
124.8223851926444
 20
369.2169337716981
 30
0.0
  0
SPLINE
  5
1BB
330
75
100
AcDbEntity
  8
$DDT_AUDIT_GENERATED_(19C)
  6
Continuous
 62
     7
100
AcDbSpline
210
0.0
220
0.0
230
1.0
 70
     8
 71
     3
 72
     8
 73
     4
 74
     0
 42
0.0000000011997841
 43
0.0000000001
 40
0.9973725316305245
 40
0.9973725316305245
 40
0.9973725316305245
 40
0.9973725316305245
 40
1.0
 40
1.0
 40
1.0
 40
1.0
 10
124.8223851926444
 20
369.2169337716981
 30
0.0
 10
124.8228390651625
 20
369.2096576370338
 30
0.0
 10
124.8230798670076
 20
369.2023640230973
 30
0.0
 10
124.8231072488038
 20
369.1950524287172
 30
0.0
  0
ARC
  5
1BC
330
75
100
AcDbEntity
  8
$DDT_AUDIT_GENERATED_(19C)
  6
Continuous
 62
     7
100
AcDbCircle
 10
124.401296055
 20
361.4797611862
 30
0.0
 40
0.4952445462001694
100
AcDbArc
 50
278.4190010717
 51
0.5688091812
  0
ARC
  5
1BD
330
75
100
AcDbEntity
  8
$DDT_AUDIT_GENERATED_(19C)
  6
Continuous
 62
     7
100
AcDbCircle
 10
124.3339448301
 20
369.105303065
 30
0.0
 40
0.4953296375714208
100
AcDbArc
 50
278.4279443293
 51
0.3384401945
  0
ARC
  5
1BE
330
75
100
AcDbEntity
  8
$DDT_AUDIT_GENERATED_(19C)
  6
Continuous
 62
     7
100
AcDbCircle
 10
124.3338453478
 20
369.1177538831
 30
0.0
 40
0.4953304684425252
100
AcDbArc
 50
278.4280212558
 51
0.7419116245
  0
ARC
  5
1BF
330
75
100
AcDbEntity
  8
$DDT_AUDIT_GENERATED_(19C)
  6
Continuous
 62
     7
100
AcDbCircle
 10
124.3338453478
 20
369.1177538831
 30
0.0
 40
0.4953304684425252
100
AcDbArc
 50
0.7419116245
 51
8.9779585556
  0
ARC
  5
1C0
330
75
100
AcDbEntity
  8
$DDT_AUDIT_GENERATED_(19C)
  6
Continuous
 62
     7
100
AcDbCircle
 10
88.1676994399
 20
369.1177541166
 30
0.0
 40
0.4953305079816663
100
AcDbArc
 50
179.4703409177
 51
261.5719831986
  0
ARC
  5
1C1
330
75
100
AcDbEntity
  8
$DDT_AUDIT_GENERATED_(19C)
  6
Continuous
 62
     7
100
AcDbCircle
 10
88.1676994399
 20
369.1177541166
 30
0.0
 40
0.4953305079816663
100
AcDbArc
 50
171.022134292
 51
179.4703409177
  0
ARC
  5
1C2
330
75
100
AcDbEntity
  8
$DDT_AUDIT_GENERATED_(19C)
  6
Continuous
 62
     7
100
AcDbCircle
 10
88.16760011
 20
369.1053061418
 30
0.0
 40
0.4953327953423258
100
AcDbArc
 50
179.6527530597
 51
261.5717328435
  0
ARC
  5
1C3
330
75
100
AcDbEntity
  8
$DDT_AUDIT_GENERATED_(19C)
  6
Continuous
 62
     7
100
AcDbCircle
 10
88.0980213853
 20
361.4797538572
 30
0.0
 40
0.4952432841320414
100
AcDbArc
 50
179.3897856192
 51
261.5833978939
  0
LINE
  5
1C4
330
75
100
AcDbEntity
  8
$DDT_AUDIT_GENERATED_(19C)
  6
Continuous
 62
     7
100
AcDbLine
 10
129.8517652925
 20
326.5860320104
 30
0.0
 11
130.2683539962
 21
326.5860320104
 31
0.0
  0
SPLINE
  5
1C5
330
75
100
AcDbEntity
  8
$DDT_AUDIT_GENERATED_(19C)
  6
Continuous
 62
     7
100
AcDbSpline
210
0.0
220
0.0
230
1.0
 70
     8
 71
     3
 72
     8
 73
     4
 74
     0
 42
0.0000000182125633
 43
0.0000000001
 40
0.0
 40
0.0
 40
0.0
 40
0.0
 40
0.0537467401351158
 40
0.0537467401351158
 40
0.0537467401351158
 40
0.0537467401351158
 10
129.8517652924812
 20
326.5860320104409
 30
0.0
 10
129.8619167090709
 20
326.5849004188989
 30
0.0
 10
129.8717272944154
 20
326.5843217602533
 30
0.0
 10
129.8811961439109
 20
326.5842989956057
 30
0.0
  0
SPLINE
  5
1C6
330
75
100
AcDbEntity
  8
$DDT_AUDIT_GENERATED_(19C)
  6
Continuous
 62
     7
100
AcDbSpline
210
0.0
220
0.0
230
1.0
 70
     8
 71
     3
 72
     8
 73
     4
 74
     0
 42
0.0000000182013523
 43
0.0000000001
 40
0.9460807431694787
 40
0.9460807431694787
 40
0.9460807431694787
 40
0.9460807431694787
 40
1.0
 40
1.0
 40
1.0
 40
1.0
 10
82.61769533131495
 20
326.5843148459318
 30
0.0
 10
82.627203167505
 20
326.5843229818963
 30
0.0
 10
82.63705138188867
 20
326.5848963484726
 30
0.0
 10
82.64723931394494
 20
326.5860320104409
 30
0.0
  0
ELLIPSE
  5
1C7
330
75
100
AcDbEntity
  8
$DDT_AUDIT_GENERATED_(19C)
  6
Continuous
 62
     7
100
AcDbEllipse
 10
106.2495023032
 20
326.4348996725
 30
0.0
 11
-24.2981480775799
 21
-1.387778780781446E-14
 31
0.0
210
0.0
220
0.0
230
1.0
 40
0.0261769483
 41
3.381497574825141
 42
6.043280385944243
  0
SPLINE
  5
1C8
330
75
100
AcDbEntity
  8
$DDT_AUDIT_GENERATED_(19C)
  6
Continuous
 62
     7
100
AcDbSpline
210
0.0
220
0.0
230
1.0
 70
     8
 71
     3
 72
    10
 73
     6
 74
     0
 42
0.0000000004464215
 43
0.0000000001
 40
0.2436403762717917
 40
0.2436403762717917
 40
0.2436403762717917
 40
0.2436403762717917
 40
0.2499999999999998
 40
0.2499999999999998
 40
0.3530003080602021
 40
0.3530003080602021
 40
0.3530003080602021
 40
0.3530003080602021
 10
102.9995159499032
 20
341.3673683798248
 30
0.0
 10
102.9995140480046
 20
341.3198027028168
 30
0.0
 10
103.0002153353543
 20
341.2723031722801
 30
0.0
 10
103.0242276685437
 20
340.4571653052813
 30
0.0
 10
103.2184378681348
 20
339.7048680548018
 30
0.0
 10
103.5917067771913
 20
339.0403490274547
 30
0.0
  0
SPLINE
  5
1C9
330
75
100
AcDbEntity
  8
$DDT_AUDIT_GENERATED_(19C)
  6
Continuous
 62
     7
100
AcDbSpline
210
0.0
220
0.0
230
1.0
 70
     8
 71
     3
 72
    18
 73
    14
 74
     0
 42
0.0000000004361839
 43
0.0000000001
 40
0.3530003080602021
 40
0.3530003080602021
 40
0.3530003080602021
 40
0.3530003080602021
 40
0.3749999999999998
 40
0.3749999999999998
 40
0.4374999999999997
 40
0.4374999999999997
 40
0.4999999999999997
 40
0.4999999999999997
 40
0.5624999999999997
 40
0.5624999999999997
 40
0.6249999999999996
 40
0.6249999999999996
 40
0.6487708016273374
 40
0.6487708016273374
 40
0.6487708016273374
 40
0.6487708016273374
 10
103.5917067771913
 20
339.0403490274547
 30
0.0
 10
103.6714327621384
 20
338.8984153365261
 30
0.0
 10
103.7593274217892
 20
338.7604860961655
 30
0.0
 10
104.1285811416129
 20
338.2487952349067
 30
0.0
 10
104.4696596267847
 20
337.9138860186505
 30
0.0
 10
105.2855470513715
 20
337.4243308716852
 30
0.0
 10
105.7614456274848
 20
337.2776724397291
 30
0.0
 10
106.7277014859027
 20
337.2758292127398
 30
0.0
 10
107.2104558946373
 20
337.4232812632537
 30
0.0
 10
108.0262297654739
 20
337.9114887000476
 30
0.0
 10
108.3674205743793
 20
338.2457441712145
 30
0.0
 10
108.7446001710375
 20
338.7670969080122
 30
0.0
 10
108.8390075996436
 20
338.9166880457693
 30
0.0
 10
108.9239434364376
 20
339.0711497053734
 30
0.0
  0
SPLINE
  5
1CA
330
75
100
AcDbEntity
  8
$DDT_AUDIT_GENERATED_(19C)
  6
Continuous
 62
     7
100
AcDbSpline
210
0.0
220
0.0
230
1.0
 70
     8
 71
     3
 72
    10
 73
     6
 74
     0
 42
0.0000000004455246
 43
0.0000000001
 40
0.6487708016273374
 40
0.6487708016273374
 40
0.6487708016273374
 40
0.6487708016273374
 40
0.7499999999999997
 40
0.7499999999999997
 40
0.7562200043674155
 40
0.7562200043674155
 40
0.7562200043674155
 40
0.7562200043674155
 10
108.9239434364376
 20
339.0711497053734
 30
0.0
 10
109.2856471268118
 20
339.7289327379426
 30
0.0
 10
109.4755809763213
 20
340.4750439817753
 30
0.0
 10
109.4987901914632
 20
341.2731545286436
 30
0.0
 10
109.4994618954937
 20
341.3194699295505
 30
0.0
 10
109.4994555090669
 20
341.3658687678987
 30
0.0
  0
ARC
  5
1CB
330
75
100
AcDbEntity
  8
$DDT_AUDIT_GENERATED_(19C)
  6
Continuous
 62
     7
100
AcDbCircle
 10
127.3734388079
 20
358.4520478802
 30
0.0
 40
2.348026356588009
100
AcDbArc
 50
180.3966418719
 51
192.3431801365
  0
ARC
  5
1CC
330
75
100
AcDbEntity
  8
$DDT_AUDIT_GENERATED_(19C)
  6
Continuous
 62
     7
100
AcDbCircle
 10
85.6408100472
 20
358.4810798275
 30
0.0
 40
1.83312644090994
100
AcDbArc
 50
347.1800555011
 51
359.8156342046
  0
LINE
  5
1CD
330
75
100
AcDbEntity
  8
$DDT_AUDIT_GENERATED_(19C)
  6
Continuous
 62
     7
100
AcDbLine
 10
124.7882265183
 20
369.3548323591
 30
0.0
 11
124.3709424708
 21
371.9788629952
 31
0.0
  0
LINE
  5
1CE
330
75
100
AcDbEntity
  8
$DDT_AUDIT_GENERATED_(19C)
  6
Continuous
 62
     7
100
AcDbLine
 10
88.1302997558
 20
371.9769324308
 30
0.0
 11
87.7134246226
 21
369.3554631472
 31
0.0
  0
SPLINE
  5
1CF
330
75
100
AcDbEntity
  8
$DDT_AUDIT_GENERATED_(19C)
  6
Continuous
 62
     7
100
AcDbSpline
210
0.0
220
0.0
230
1.0
 70
     8
 71
     3
 72
    35
 73
    31
 74
     0
 42
0.0000000008300382
 43
0.0000000001
 40
0.0
 40
0.0
 40
0.0
 40
0.0
 40
0.01680758535083
 40
0.0581188192452469
 40
0.0992258073717704
 40
0.140098017348353
 40
0.1808086333293303
 40
0.2216440916105855
 40
0.262766763391637
 40
0.3041515129707282
 40
0.345768952455135
 40
0.3875863881027488
 40
0.4295701282533049
 40
0.4716884058842425
 40
0.5139150874542076
 40
0.5562344524975814
 40
0.5986475157758658
 40
0.6411806035538633
 40
0.6838969396459923
 40
0.7268984048300561
 40
0.7699473463174464
 40
0.8142851459389512
 40
0.8595225314541076
 40
0.8972660133112377
 40
0.9301906296917355
 40
0.9596488751958243
 40
0.979189853138911
 40
0.9888870717452254
 40
0.9984858545899227
 40
1.0
 40
1.0
 40
1.0
 40
1.0
 10
99.39246184904974
 20
374.658767845413
 30
0.0
 10
99.27346923552385
 20
374.6520176668701
 30
0.0
 10
98.92314772734679
 20
374.6320505232675
 30
0.0
 10
98.28437948728086
 20
374.5889442837864
 30
0.0
 10
97.53290059413922
 20
374.5326798266947
 30
0.0
 10
96.79919075655386
 20
374.47056330146
 30
0.0
 10
96.09084506728868
 20
374.4033381718734
 30
0.0
 10
95.40401468078679
 20
374.3306495873972
 30
0.0
 10
94.73847875791492
 20
374.2524170712219
 30
0.0
 10
94.09518974010925
 20
374.1686251839277
 30
0.0
 10
93.47630182597587
 20
374.0794048788059
 30
0.0
 10
92.88386485161205
 20
373.9848916833895
 30
0.0
 10
92.3198501543303
 20
373.88522423068
 30
0.0
 10
91.78608276757322
 20
373.7805271414574
 30
0.0
 10
91.28419130610077
 20
373.6708872381975
 30
0.0
 10
90.81555641345908
 20
373.556319473061
 30
0.0
 10
90.38122314900265
 20
373.4366972158223
 30
0.0
 10
89.98192779246678
 20
373.3116950773095
 30
0.0
 10
89.61769832895425
 20
373.1804816122855
 30
0.0
 10
89.2901506907903
 20
373.0424273318121
 30
0.0
 10
88.9959424331703
 20
372.8954888652141
 30
0.0
 10
88.73388540668292
 20
372.7365742097189
 30
0.0
 10
88.51707404005177
 20
372.569811562557
 30
0.0
 10
88.34882683787085
 20
372.400191975242
 30
0.0
 10
88.22662022437223
 20
372.2285298048213
 30
0.0
 10
88.15160013019116
 20
372.0792286900316
 30
0.0
 10
88.11135566934084
 20
371.9361459902994
 30
0.0
 10
88.101994553979
 20
371.8835148819946
 30
0.0
 10
88.09527601902631
 20
371.8516733578611
 30
0.0
 10
88.09391112174892
 20
371.8374172807456
 30
0.0
 10
88.09369205943179
 20
371.8351502295683
 30
0.0
  0
SPLINE
  5
1D0
330
75
100
AcDbEntity
  8
$DDT_AUDIT_GENERATED_(19C)
  6
Continuous
 62
     7
100
AcDbSpline
210
0.0
220
0.0
230
1.0
 70
     8
 71
     3
 72
    30
 73
    26
 74
     0
 42
0.0000000010289508
 43
0.0000000001
 40
0.0
 40
0.0
 40
0.0
 40
0.0
 40
0.0062521839521122
 40
0.0454868349116776
 40
0.0871217920067807
 40
0.1274693113514853
 40
0.1679976216350364
 40
0.2136478599282431
 40
0.2639657711180246
 40
0.3156845427666017
 40
0.3667159853434342
 40
0.4169862290000045
 40
0.4666537501954524
 40
0.5158404337028821
 40
0.5646091065169966
 40
0.6129803469258538
 40
0.6609493572651185
 40
0.7084983131296744
 40
0.7556049563166246
 40
0.8022589545887422
 40
0.8489611467307172
 40
0.8957858585413118
 40
0.9429040357032711
 40
0.9902705288425652
 40
1.0
 40
1.0
 40
1.0
 40
1.0
 10
124.4105449821295
 20
371.8418747397709
 30
0.0
 10
124.4094024321919
 20
371.851751725283
 30
0.0
 10
124.4020724246828
 20
371.9133874003114
 30
0.0
 10
124.3573516944865
 20
372.05852768201
 30
0.0
 10
124.2657862572471
 20
372.2474837991486
 30
0.0
 10
124.1269315994872
 20
372.4306352432462
 30
0.0
 10
123.958337958379
 20
372.5912521516172
 30
0.0
 10
123.7495376260153
 20
372.7463374846884
 30
0.0
 10
123.4909914615275
 20
372.8995588442574
 30
0.0
 10
123.1853492346488
 20
373.0483921119092
 30
0.0
 10
122.8406892181693
 20
373.1899516520482
 30
0.0
 10
122.4620469132325
 20
373.3239672783576
 30
0.0
 10
122.05031931067
 20
373.4514265596683
 30
0.0
 10
121.6059970568319
 20
373.5729869365204
 30
0.0
 10
121.1298533127257
 20
373.6889310136158
 30
0.0
 10
120.6230184511029
 20
373.7992970812776
 30
0.0
 10
120.0869251345637
 20
373.9039827775528
 30
0.0
 10
119.5232305751827
 20
374.0028098577327
 30
0.0
 10
118.9337133213298
 20
374.0955855460635
 30
0.0
 10
118.3179381682246
 20
374.1823961733121
 30
0.0
 10
117.6758826800701
 20
374.2639775117641
 30
0.0
 10
117.0038484713588
 20
374.3410250403991
 30
0.0
 10
116.3100702937394
 20
374.412175162883
 30
0.0
 10
115.7647364495199
 20
374.4638176715323
 30
0.0
 10
115.4814238529926
 20
374.4870849775066
 30
0.0
 10
115.4250553564018
 20
374.4917055400743
 30
0.0
  0
LINE
  5
1D1
330
75
100
AcDbEntity
  8
$DDT_AUDIT_GENERATED_(19C)
  6
Continuous
 62
     7
100
AcDbLine
 10
129.8768483599
 20
326.5843186353
 30
0.0
 11
130.2923446522
 21
326.5843186353
 31
0.0
  0
SPLINE
  5
1D2
330
75
100
AcDbEntity
  8
$DDT_AUDIT_GENERATED_(19C)
  6
Continuous
 62
     7
100
AcDbSpline
210
0.0
220
0.0
230
1.0
 70
     8
 71
     3
 72
    15
 73
    11
 74
     0
 42
0.0000000091945611
 43
0.0000000001
 40
0.0
 40
0.0
 40
0.0
 40
0.0
 40
0.0116637873394792
 40
0.1320955369634666
 40
0.261122835073219
 40
0.3851427730099376
 40
0.5116542164123179
 40
0.6516367919666882
 40
0.8180634566551132
 40
1.0
 40
1.0
 40
1.0
 40
1.0
 10
130.286915752052
 20
326.5862927207966
 30
0.0
 10
130.2913340767712
 20
326.5857228094598
 30
0.0
 10
130.334354273114
 20
326.5802824824671
 30
0.0
 10
130.4363504914861
 20
326.598871063468
 30
0.0
 10
130.5657858765322
 20
326.6556075023572
 30
0.0
 10
130.6727753337396
 20
326.7501315766154
 30
0.0
 10
130.7503314252301
 20
326.8646677128839
 30
0.0
 10
130.8055793918288
 20
326.9994112568907
 30
0.0
 10
130.8444634270385
 20
327.1636865099782
 30
0.0
 10
130.855101127921
 20
327.2861052846309
 30
0.0
 10
130.8608295177849
 20
327.3622588584694
 30
0.0
  0
ARC
  5
1D3
330
75
100
AcDbEntity
  8
$DDT_AUDIT_GENERATED_(19C)
  6
Continuous
 62
     7
100
AcDbCircle
 10
125.486728485
 20
327.7274562611
 30
0.0
 40
5.390017619211267
100
AcDbArc
 50
356.0914149763
 51
4.521610623
  0
ARC
  5
1D4
330
75
100
AcDbEntity
  8
$DDT_AUDIT_GENERATED_(19C)
  6
Continuous
 62
     7
100
AcDbCircle
 10
86.7650998602
 20
327.7349584789
 30
0.0
 40
5.144650338608798
100
AcDbArc
 50
175.5254651441
 51
184.1774204663
  0
SPLINE
  5
1D5
330
75
100
AcDbEntity
  8
$DDT_AUDIT_GENERATED_(19C)
  6
Continuous
 62
     7
100
AcDbSpline
210
0.0
220
0.0
230
1.0
 70
     8
 71
     3
 72
    15
 73
    11
 74
     0
 42
0.0000000091912539
 43
0.0000000001
 40
0.0
 40
0.0
 40
0.0
 40
0.0
 40
0.1250638795100325
 40
0.3318166828791593
 40
0.4848033463774656
 40
0.6156907848994652
 40
0.7367020041958336
 40
0.866398950161819
 40
0.9904254656348467
 40
1.0
 40
1.0
 40
1.0
 40
1.0
 10
81.63687428651858
 20
327.3640695653395
 30
0.0
 10
81.6397225527857
 20
327.3101609831626
 30
0.0
 10
81.64715308793451
 20
327.1891104961679
 30
0.0
 10
81.68192263212518
 20
327.0237160459016
 30
0.0
 10
81.74173658874977
 20
326.8710866284753
 30
0.0
 10
81.82117289714607
 20
326.7524313484146
 30
0.0
 10
81.92832018481828
 20
326.6570974923921
 30
0.0
 10
82.05761275665574
 20
326.5993633000111
 30
0.0
 10
82.16039975152616
 20
326.5804918686096
 30
0.0
 10
82.20390195657393
 20
326.5857968170958
 30
0.0
 10
82.20752522737106
 20
326.586246321065
 30
0.0
  0
ARC
  5
1D6
330
75
100
AcDbEntity
  8
$DDT_AUDIT_GENERATED_(19C)
  6
Continuous
 62
     7
100
AcDbCircle
 10
203.469861531
 20
363.2203473005
 30
0.0
 40
78.59170355290881
100
AcDbArc
 50
181.2663018768
 51
183.5092147959
  0
ARC
  5
1D7
330
75
100
AcDbEntity
  8
$DDT_AUDIT_GENERATED_(19C)
  6
Continuous
 62
     7
100
AcDbCircle
 10
1977.6554050959
 20
381.8162088391
 30
0.0
 40
1852.86909859168
100
AcDbArc
 50
180.3929806904
 51
180.6287275733
  0
LINE
  5
1D8
330
75
100
AcDbEntity
  8
$DDT_AUDIT_GENERATED_(19C)
  6
Continuous
 62
     7
100
AcDbLine
 10
124.8292656116
 20
369.1111750437
 30
0.0
 11
124.8291574313
 21
369.1237434541
 31
0.0
  0
LINE
  5
1D9
330
75
100
AcDbEntity
  8
$DDT_AUDIT_GENERATED_(19C)
  6
Continuous
 62
     7
100
AcDbLine
 10
87.6722220197
 20
369.1219320561
 30
0.0
 11
87.6720962219
 21
369.1091977776
 31
0.0
  0
ARC
  5
1DA
330
75
100
AcDbEntity
  8
$DDT_AUDIT_GENERATED_(19C)
  6
Continuous
 62
     7
100
AcDbCircle
 10
-724.1816682514
 20
372.9603465071
 30
0.0
 40
811.8626505401298
100
AcDbArc
 50
359.1901018485
 51
359.7281208875
  0
ARC
  5
1DB
330
75
100
AcDbEntity
  8
$DDT_AUDIT_GENERATED_(19C)
  6
Continuous
 62
     7
100
AcDbCircle
 10
1.5184320578
 20
363.5725382983
 30
0.0
 40
86.10936188532496
100
AcDbArc
 50
356.5781776978
 51
358.6106932822
  0
LINE
  5
1DC
330
75
100
AcDbEntity
  8
$DDT_AUDIT_GENERATED_(19C)
  6
Continuous
 62
     7
100
AcDbLine
 10
82.2031383858
 20
326.5843186353
 30
0.0
 11
82.6204764493
 21
326.5843186353
 31
0.0
  0
SPLINE
  5
1DD
330
75
100
AcDbEntity
  8
$DDT_AUDIT_GENERATED_(19C)
  6
Continuous
 62
     7
100
AcDbSpline
210
0.0
220
0.0
230
1.0
 70
     8
 71
     3
 72
     8
 73
     4
 74
     0
 42
0.0000000003293466
 43
0.0000000001
 40
0.0
 40
0.0
 40
0.0
 40
0.0
 40
1.0
 40
1.0
 40
1.0
 40
1.0
 10
87.4183517823946
 20
357.6818971197018
 30
0.0
 10
85.46571668166517
 20
347.6265713796852
 30
0.0
 10
83.53579991220062
 20
337.6912275125514
 30
0.0
 10
81.62860147400094
 20
327.8758655183004
 30
0.0
  0
SPLINE
  5
1DE
330
75
100
AcDbEntity
  8
$DDT_AUDIT_GENERATED_(19C)
  6
Continuous
 62
     7
100
AcDbSpline
210
0.0
220
0.0
230
1.0
 70
     8
 71
     3
 72
     8
 73
     4
 74
     0
 42
0.0000000003292987
 43
0.0000000001
 40
0.0
 40
0.0
 40
0.0
 40
0.0
 40
1.0
 40
1.0
 40
1.0
 40
1.0
 10
130.8684650094407
 20
327.8760382391141
 30
0.0
 10
128.9585372811666
 20
337.6904381496464
 30
0.0
 10
127.0231037478389
 20
347.6262083679379
 30
0.0
 10
125.0621644094576
 20
357.6833488939888
 30
0.0
  0
ARC
  5
1E0
330
75
100
AcDbEntity
  8
$DDT_AUDIT_GENERATED_(1DF)
  6
Continuous
 62
     7
100
AcDbCircle
 10
106.2495023032
 20
317.6744728121
 30
0.0
 40
24.5
100
AcDbArc
 50
158.4964529342
 51
164.8572685595
  0
ARC
  5
1E1
330
75
100
AcDbEntity
  8
$DDT_AUDIT_GENERATED_(1DF)
  6
Continuous
 62
     7
100
AcDbCircle
 10
106.2495023032
 20
317.6744728121
 30
0.0
 40
24.5
100
AcDbArc
 50
15.1427314405
 51
21.5035470658
  0
ENDBLK
  5
1E3
330
75
100
AcDbEntity
  8
0
100
AcDbBlockEnd
  0
BLOCK
  5
230
330
1E4
100
AcDbEntity
  8
0
100
AcDbBlockBegin
  2
SE1
 70
     0
 10
0.0
 20
0.0
 30
0.0
  3
SE1
  1

  0
LINE
  5
1E6
330
1E4
100
AcDbEntity
  8
$DDT_AUDIT_GENERATED_(77)
  6
Continuous
 62
     7
100
AcDbLine
 10
218.458993028
 20
224.0744728108
 30
0.0
 11
218.4589929494
 21
323.5744728121
 31
0.0
  0
LINE
  5
1E7
330
1E4
100
AcDbEntity
  8
$DDT_AUDIT_GENERATED_(77)
  6
Continuous
 62
     7
100
AcDbLine
 10
193.9589929201
 20
324.0744728121
 30
0.0
 11
218.4591186516
 21
324.0744728121
 31
0.0
  0
LINE
  5
1E8
330
1E4
100
AcDbEntity
  8
$DDT_AUDIT_GENERATED_(77)
  6
Continuous
 62
     7
100
AcDbLine
 10
238.3250486024
 20
224.0744728111
 30
0.0
 11
243.4557457898
 21
224.0744728101
 31
0.0
  0
LINE
  5
1E9
330
1E4
100
AcDbEntity
  8
$DDT_AUDIT_GENERATED_(77)
  6
Continuous
 62
     7
100
AcDbLine
 10
302.7456631828
 20
324.0744728121
 30
0.0
 11
321.336320687
 21
324.0744728121
 31
0.0
  0
LINE
  5
1EA
330
1E4
100
AcDbEntity
  8
$DDT_AUDIT_GENERATED_(77)
  6
Continuous
 62
     7
100
AcDbLine
 10
226.9031719512
 20
324.0744728121
 30
0.0
 11
302.7456631828
 21
324.0744728121
 31
0.0
  0
LINE
  5
1EB
330
1E4
100
AcDbEntity
  8
$DDT_AUDIT_GENERATED_(77)
  6
Continuous
 62
     7
100
AcDbLine
 10
219.462556943
 20
324.0744728121
 30
0.0
 11
226.9031719512
 21
324.0744728121
 31
0.0
  0
LINE
  5
1EC
330
1E4
100
AcDbEntity
  8
$DDT_AUDIT_GENERATED_(77)
  6
Continuous
 62
     7
100
AcDbLine
 10
218.4591186516
 20
324.0744728121
 30
0.0
 11
219.462556943
 21
324.0744728121
 31
0.0
  0
SPLINE
  5
1ED
330
1E4
100
AcDbEntity
  8
$DDT_AUDIT_GENERATED_(77)
  6
Continuous
 62
     7
100
AcDbSpline
210
0.0
220
0.0
230
1.0
 70
    12
 71
     6
 72
    14
 73
     7
 74
     0
 42
0.0000000001394158
 43
0.0000000001
 40
0.0
 40
0.0
 40
0.0
 40
0.0
 40
0.0
 40
0.0
 40
0.0
 40
1.0
 40
1.0
 40
1.0
 40
1.0
 40
1.0
 40
1.0
 40
1.0
 10
243.4557419631571
 20
279.0743898290336
 30
0.0
 41
1.0
 10
243.4557443518673
 20
286.3180673836878
 30
0.0
 41
1.0
 10
243.455793146546
 20
293.0449273806984
 30
0.0
 41
1.0
 10
248.3640967337713
 20
299.5744468705425
 30
0.0
 41
1.0
 10
255.547335542906
 20
303.6578063434064
 30
0.0
 41
1.0
 10
261.3285979660387
 20
304.0487254667397
 30
0.0
 41
1.0
 10
296.8601364356913
 20
304.0736936345918
 30
0.0
 41
1.0
  0
LINE
  5
1EE
330
1E4
100
AcDbEntity
  8
$DDT_AUDIT_GENERATED_(77)
  6
Continuous
 62
     7
100
AcDbLine
 10
200.3411141181
 20
224.0744728108
 30
0.0
 11
193.4589929198
 21
224.0744728108
 31
0.0
  0
LINE
  5
1EF
330
1E4
100
AcDbEntity
  8
$DDT_AUDIT_GENERATED_(77)
  6
Continuous
 62
     7
100
AcDbLine
 10
214.5402600091
 20
224.0744728108
 30
0.0
 11
200.3411141181
 21
224.0744728108
 31
0.0
  0
LINE
  5
1F0
330
1E4
100
AcDbEntity
  8
$DDT_AUDIT_GENERATED_(77)
  6
Continuous
 62
     7
100
AcDbLine
 10
218.4589929578
 20
224.0744728108
 30
0.0
 11
214.5402600091
 21
224.0744728108
 31
0.0
  0
LINE
  5
1F1
330
1E4
100
AcDbEntity
  8
$DDT_AUDIT_GENERATED_(77)
  6
Continuous
 62
     7
100
AcDbLine
 10
219.4591196321
 20
224.0744728108
 30
0.0
 11
218.4589927466
 21
224.0744728108
 31
0.0
  0
LINE
  5
1F2
330
1E4
100
AcDbEntity
  8
$DDT_AUDIT_GENERATED_(77)
  6
Continuous
 62
     7
100
AcDbLine
 10
238.3250486024
 20
224.0744728111
 30
0.0
 11
219.4591829907
 21
224.0744728108
 31
0.0
  0
ARC
  5
1F3
330
1E4
100
AcDbEntity
  8
$DDT_AUDIT_GENERATED_(77)
  6
Continuous
 62
     7
100
AcDbCircle
 10
320.8363238395
 20
314.3474835814
 30
0.0
 40
0.9999999918325342
100
AcDbArc
 50
329.2310461653
 51
0.0
  0
ARC
  5
1F4
330
1E4
100
AcDbEntity
  8
$DDT_AUDIT_GENERATED_(77)
  6
Continuous
 62
     7
100
AcDbCircle
 10
309.8807817776
 20
320.9680882186
 30
0.0
 40
13.80061699238615
100
AcDbArc
 50
318.226206599
 51
328.882042284
  0
ARC
  5
1F5
330
1E4
100
AcDbEntity
  8
$DDT_AUDIT_GENERATED_(77)
  6
Continuous
 62
     7
100
AcDbCircle
 10
309.8561088234
 20
283.1817240729
 30
0.0
 40
24.60426163227075
100
AcDbArc
 50
106.7976445833
 51
121.8839203868
  0
ARC
  5
1F6
330
1E4
100
AcDbEntity
  8
$DDT_AUDIT_GENERATED_(77)
  6
Continuous
 62
     7
100
AcDbCircle
 10
355.3580400916
 20
157.4040514329
 30
0.0
 40
158.329212699676
100
AcDbArc
 50
102.8398681898
 51
109.4082743945
  0
ARC
  5
1F7
330
1E4
100
AcDbEntity
  8
$DDT_AUDIT_GENERATED_(77)
  6
Continuous
 62
     7
100
AcDbCircle
 10
-127.2209371068
 20
259.9948242394
 30
0.0
 40
320.8465770295502
100
AcDbArc
 50
358.1532569292
 51
1.8466590859
  0
ARC
  5
1F8
330
1E4
100
AcDbEntity
  8
$DDT_AUDIT_GENERATED_(77)
  6
Continuous
 62
     7
100
AcDbCircle
 10
193.9589929199
 20
323.574472812
 30
0.0
 40
0.5000000001089224
100
AcDbArc
 50
89.9999999841
 51
179.9999999875
  0
LINE
  5
1F9
330
1E4
100
AcDbEntity
  8
$DDT_AUDIT_GENERATED_(77)
  6
Continuous
 62
     7
100
AcDbLine
 10
243.4557457898
 20
224.0744728096
 30
0.0
 11
243.4557457897
 21
279.0743898157
 31
0.0
  0
ARC
  5
1FA
330
1E4
100
AcDbEntity
  8
$DDT_AUDIT_GENERATED_(77)
  6
Continuous
 62
     7
100
AcDbCircle
 10
321.3362233995
 20
323.574472585
 30
0.0
 40
0.5000002271438484
100
AcDbArc
 50
0.000026031
 51
90.0000712279
  0
LINE
  5
1FB
330
1E4
100
AcDbEntity
  8
$DDT_AUDIT_GENERATED_(77)
  6
Continuous
 62
     7
100
AcDbLine
 10
321.8363238319
 20
314.2921216467
 30
0.0
 11
321.8363238319
 21
323.5744728121
 31
0.0
  0
LINE
  5
1FC
330
1E4
100
AcDbEntity
  8
$DDT_AUDIT_GENERATED_(77)
  6
Continuous
 62
     7
100
AcDbLine
 10
193.4589929198
 20
249.655169225
 30
0.0
 11
193.4589929198
 21
224.0744728108
 31
0.0
  0
LINE
  5
1FD
330
1E4
100
AcDbEntity
  8
$DDT_AUDIT_GENERATED_(77)
  6
Continuous
 62
     7
100
AcDbLine
 10
193.4589929198
 20
323.5744728121
 30
0.0
 11
193.4589929198
 21
270.3267180963
 31
0.0
  0
LINE
  5
1FE
330
1E4
100
AcDbEntity
  8
$DDT_AUDIT_GENERATED_(BB)
  6
Continuous
 62
     7
100
AcDbLine
 10
240.7055654456
 20
224.0744728108
 30
0.0
 11
218.578537767
 21
224.0744728108
 31
0.0
  0
LINE
  5
1FF
330
1E4
100
AcDbEntity
  8
$DDT_AUDIT_GENERATED_(C1)
  6
Continuous
 62
     7
100
AcDbLine
 10
320.6624909944
 20
306.4512512869
 30
0.0
 11
300.8025695707
 21
298.4273221887
 31
0.0
  0
LINE
  5
200
330
1E4
100
AcDbEntity
  8
$DDT_AUDIT_GENERATED_(C1)
  6
Continuous
 62
     7
100
AcDbLine
 10
299.1331824237
 20
301.8512780224
 30
0.0
 11
298.0354578745
 21
302.0055531468
 31
0.0
  0
LINE
  5
201
330
1E4
100
AcDbEntity
  8
$DDT_AUDIT_GENERATED_(C1)
  6
Continuous
 62
     7
100
AcDbLine
 10
299.1331824237
 20
301.8512780224
 30
0.0
 11
300.2679547233
 21
299.0426180221
 31
0.0
  0
LINE
  5
202
330
1E4
100
AcDbEntity
  8
$DDT_AUDIT_GENERATED_(C1)
  6
Continuous
 62
     7
100
AcDbLine
 10
300.2679547233
 20
299.0426180221
 30
0.0
 11
300.3166175472
 21
298.9221733063
 31
0.0
  0
LINE
  5
203
330
1E4
100
AcDbEntity
  8
$DDT_AUDIT_GENERATED_(C1)
  6
Continuous
 62
     7
100
AcDbLine
 10
300.5080245898
 20
298.4484242517
 30
0.0
 11
300.3166175472
 21
298.9221733063
 31
0.0
  0
LINE
  5
204
330
1E4
100
AcDbEntity
  8
$DDT_AUDIT_GENERATED_(C1)
  6
Continuous
 62
     7
100
AcDbLine
 10
319.4848680315
 20
310.0738927479
 30
0.0
 11
320.167336483
 21
310.9474125316
 31
0.0
  0
LINE
  5
205
330
1E4
100
AcDbEntity
  8
$DDT_AUDIT_GENERATED_(C1)
  6
Continuous
 62
     7
100
AcDbLine
 10
319.4848680315
 20
310.0738927479
 30
0.0
 11
320.619640331
 21
307.2652327476
 31
0.0
  0
LINE
  5
206
330
1E4
100
AcDbEntity
  8
$DDT_AUDIT_GENERATED_(C1)
  6
Continuous
 62
     7
100
AcDbLine
 10
320.619640331
 20
307.2652327476
 30
0.0
 11
320.668303155
 21
307.1447880318
 31
0.0
  0
LINE
  5
207
330
1E4
100
AcDbEntity
  8
$DDT_AUDIT_GENERATED_(C1)
  6
Continuous
 62
     7
100
AcDbLine
 10
320.8597101975
 20
306.6710389772
 30
0.0
 11
320.668303155
 21
307.1447880318
 31
0.0
  0
LINE
  5
208
330
1E4
100
AcDbEntity
  8
$DDT_AUDIT_GENERATED_(C1)
  6
Continuous
 62
     7
100
AcDbLine
 10
297.1339176019
 20
304.2369436234
 30
0.0
 11
298.0354578745
 21
302.0055531468
 31
0.0
  0
LINE
  5
209
330
1E4
100
AcDbEntity
  8
$DDT_AUDIT_GENERATED_(C1)
  6
Continuous
 62
     7
100
AcDbLine
 10
320.167336483
 20
310.9474125316
 30
0.0
 11
319.8527746404
 21
311.7259804128
 31
0.0
  0
LINE
  5
20A
330
1E4
100
AcDbEntity
  8
$DDT_AUDIT_GENERATED_(C1)
  6
Continuous
 62
     7
100
AcDbLine
 10
300.5080246548
 20
298.4484240908
 30
0.0
 11
300.7255026166
 21
298.4178595565
 31
0.0
  0
LINE
  5
20B
330
1E4
100
AcDbEntity
  8
$DDT_AUDIT_GENERATED_(C1)
  6
Continuous
 62
     7
100
AcDbLine
 10
320.7245016184
 20
306.4979796437
 30
0.0
 11
320.8597102625
 21
306.6710388163
 31
0.0
  0
ARC
  5
20C
330
1E4
100
AcDbEntity
  8
$DDT_AUDIT_GENERATED_(C1)
  6
Continuous
 62
     7
100
AcDbCircle
 10
300.7463785817
 20
298.5663997669
 30
0.0
 40
0.1500000000000076
100
AcDbArc
 50
262.0
 51
292.0
  0
ARC
  5
20D
330
1E4
100
AcDbEntity
  8
$DDT_AUDIT_GENERATED_(C1)
  6
Continuous
 62
     7
100
AcDbCircle
 10
320.6063000054
 20
306.590328865
 30
0.0
 40
0.150000000000014
100
AcDbArc
 50
292.0
 51
322.0
  0
LINE
  5
20E
330
1E4
100
AcDbEntity
  8
$DDT_AUDIT_GENERATED_(DE)
  6
Continuous
 62
     7
100
AcDbLine
 10
319.2082972814
 20
305.4862317294
 30
0.0
 11
302.5189878992
 21
298.7433130479
 31
0.0
  0
LINE
  5
20F
330
1E4
100
AcDbEntity
  8
$DDT_AUDIT_GENERATED_(DE)
  6
Continuous
 62
     7
100
AcDbLine
 10
302.3878755915
 20
299.067827397
 30
0.0
 11
302.5189878992
 21
298.7433130479
 31
0.0
  0
LINE
  5
210
330
1E4
100
AcDbEntity
  8
$DDT_AUDIT_GENERATED_(DE)
  6
Continuous
 62
     7
100
AcDbLine
 10
319.2082972814
 20
305.4862317294
 30
0.0
 11
319.0771849737
 21
305.8107460785
 31
0.0
  0
SPLINE
  5
211
330
1E4
100
AcDbEntity
  8
$DDT_AUDIT_GENERATED_(19C)
  6
Continuous
 62
     7
100
AcDbSpline
210
0.0
220
0.0
230
1.0
 70
     8
 71
     5
 72
    12
 73
     6
 74
     0
 42
0.0000000008023714
 43
0.0000000001
 40
0.0
 40
0.0
 40
0.0
 40
0.0
 40
0.0
 40
0.0
 40
1.0
 40
1.0
 40
1.0
 40
1.0
 40
1.0
 40
1.0
 10
238.1494785287269
 20
352.4079096922191
 30
0.0
 10
237.5610198411255
 20
355.0041200839282
 30
0.0
 10
237.0219345018078
 20
357.3824857040384
 30
0.0
 10
238.8311932800463
 20
359.8889469793917
 30
0.0
 10
241.1961022995192
 20
360.2427545695369
 30
0.0
 10
243.055239951439
 20
360.5208827328071
 30
0.0
  0
ARC
  5
212
330
1E4
100
AcDbEntity
  8
$DDT_AUDIT_GENERATED_(19C)
  6
Continuous
 62
     7
100
AcDbCircle
 10
224.2843845397
 20
331.5843186353
 30
0.0
 40
4.999999999999987
100
AcDbArc
 50
243.5
 51
271.5
  0
LINE
  5
213
330
1E4
100
AcDbEntity
  8
$DDT_AUDIT_GENERATED_(19C)
  6
Continuous
 62
     7
100
AcDbLine
 10
196.6669104891
 20
339.766881334
 30
0.0
 11
218.6734435827
 21
328.7948286765
 31
0.0
  0
LINE
  5
214
330
1E4
100
AcDbEntity
  8
$DDT_AUDIT_GENERATED_(19C)
  6
Continuous
 62
     7
100
AcDbLine
 10
222.0533954742
 20
327.1096468273
 30
0.0
 11
218.6734432516
 21
328.7948288416
 31
0.0
  0
LINE
  5
215
330
1E4
100
AcDbEntity
  8
$DDT_AUDIT_GENERATED_(19C)
  6
Continuous
 62
     7
100
AcDbLine
 10
243.5212454245
 20
327.0863396032
 30
0.0
 11
224.4152692813
 21
326.5860320104
 31
0.0
  0
ARC
  5
216
330
1E4
100
AcDbEntity
  8
$DDT_AUDIT_GENERATED_(19C)
  6
Continuous
 62
     7
100
AcDbCircle
 10
273.0561382756
 20
348.6243419644
 30
0.0
 40
33.47782758015428
100
AcDbArc
 50
185.4740593466
 51
200.0681171175
  0
LINE
  5
217
330
1E4
100
AcDbEntity
  8
$DDT_AUDIT_GENERATED_(19C)
  6
Continuous
 62
     7
100
AcDbLine
 10
199.8826346546
 20
358.7813278483
 30
0.0
 11
196.504503963
 21
340.0829036877
 31
0.0
  0
ARC
  5
218
330
1E4
100
AcDbEntity
  8
$DDT_AUDIT_GENERATED_(19C)
  6
Continuous
 62
     7
100
AcDbCircle
 10
253.323103831
 20
110.5250936283
 30
0.0
 40
254.2455600188721
100
AcDbArc
 50
98.027406483
 51
102.0264029967
  0
SPLINE
  5
219
330
1E4
100
AcDbEntity
  8
$DDT_AUDIT_GENERATED_(19C)
  6
Continuous
 62
     7
100
AcDbSpline
210
0.0
220
0.0
230
1.0
 70
     8
 71
     3
 72
     8
 73
     4
 74
     0
 42
0.000000000221657
 43
0.0000000001
 40
0.0
 40
0.0
 40
0.0
 40
0.0
 40
1.0
 40
1.0
 40
1.0
 40
1.0
 10
243.0552830870666
 20
360.5207713437413
 30
0.0
 10
254.0691090299099
 20
362.1685653613933
 30
0.0
 10
268.9419118530243
 20
364.3931470419009
 30
0.0
 10
287.6736915564098
 20
367.1945163852641
 30
0.0
  0
LINE
  5
21A
330
1E4
100
AcDbEntity
  8
$DDT_AUDIT_GENERATED_(19C)
  6
Continuous
 62
     7
100
AcDbLine
 10
287.6639828779
 20
372.716041735
 30
0.0
 11
217.8185324491
 21
362.2794612172
 31
0.0
  0
LINE
  5
21B
330
1E4
100
AcDbEntity
  8
$DDT_AUDIT_GENERATED_(19C)
  6
Continuous
 62
     7
100
AcDbLine
 10
306.0346778527
 20
371.8753877232
 30
0.0
 11
305.6297909585
 21
374.4310194218
 31
0.0
  0
ARC
  5
21C
330
1E4
100
AcDbEntity
  8
$DDT_AUDIT_GENERATED_(19C)
  6
Continuous
 62
     7
100
AcDbCircle
 10
273.7912340863
 20
469.1882445326
 30
0.0
 40
102.9341701775215
100
AcDbArc
 50
277.7509487329
 51
288.0496005917
  0
ARC
  5
21D
330
1E4
100
AcDbEntity
  8
$DDT_AUDIT_GENERATED_(19C)
  6
Continuous
 62
     7
100
AcDbCircle
 10
326.8823605439
 20
124.2620493348
 30
0.0
 40
251.530190249302
100
AcDbArc
 50
94.9932929598
 51
98.9701087633
  0
ARC
  5
21E
330
1E4
100
AcDbEntity
  8
$DDT_AUDIT_GENERATED_(19C)
  6
Continuous
 62
     7
100
AcDbCircle
 10
305.1405118175
 20
374.3652791265
 30
0.0
 40
0.4855390867145217
100
AcDbArc
 50
7.6496522989
 51
83.2339178119
  0
ARC
  5
21F
330
1E4
100
AcDbEntity
  8
$DDT_AUDIT_GENERATED_(19C)
  6
Continuous
 62
     7
100
AcDbCircle
 10
200.3737630067
 20
358.6874184222
 30
0.0
 40
0.4999999982557419
100
AcDbArc
 50
99.1993020143
 51
169.3270005495
  0
ARC
  5
220
330
1E4
100
AcDbEntity
  8
$DDT_AUDIT_GENERATED_(19C)
  6
Continuous
 62
     7
100
AcDbCircle
 10
243.5133889087
 20
327.3862367295
 30
0.0
 40
0.2999999532183723
100
AcDbArc
 50
271.4985973268
 51
13.5226641682
  0
ARC
  5
221
330
1E4
100
AcDbEntity
  8
$DDT_AUDIT_GENERATED_(19C)
  6
Continuous
 62
     7
100
AcDbCircle
 10
196.8007717533
 20
340.0353606805
 30
0.0
 40
0.2999999959089896
100
AcDbArc
 50
170.458864783
 51
243.5016723194
  0
ARC
  5
222
330
1E4
100
AcDbEntity
  8
$DDT_AUDIT_GENERATED_(19C)
  6
Continuous
 62
     7
100
AcDbCircle
 10
305.5408681855
 20
371.796951401
 30
0.0
 40
0.4999999970269903
100
AcDbArc
 50
286.7147419371
 51
9.2949210173
  0
LINE
  5
223
330
1E4
100
AcDbEntity
  8
$DDT_AUDIT_GENERATED_(19C)
  6
Continuous
 62
     7
100
AcDbLine
 10
239.7308858491
 20
345.4311457536
 30
0.0
 11
238.1494704727
 21
352.4079753523
 31
0.0
  0
LINE
  5
224
330
1E4
100
AcDbEntity
  8
$DDT_AUDIT_GENERATED_(19C)
  6
Continuous
 62
     7
100
AcDbLine
 10
243.805004793
 20
327.4568148961
 30
0.0
 11
241.6026985123
 21
337.1730444
 31
0.0
  0
ARC
  5
225
330
1E4
100
AcDbEntity
  8
$DDT_AUDIT_GENERATED_(1DF)
  6
Continuous
 62
     7
100
AcDbCircle
 10
218.4589929198
 20
317.6744728121
 30
0.0
 40
24.5
100
AcDbArc
 50
15.1427314405
 51
22.4849115756
  0
ARC
  5
226
330
1E4
100
AcDbEntity
  8
$DDT_AUDIT_GENERATED_(1DF)
  6
Continuous
 62
     7
100
AcDbCircle
 10
218.4589929198
 20
317.6744728121
 30
0.0
 40
24.5
100
AcDbArc
 50
129.2635061756
 51
164.8572685595
  0
LINE
  5
228
330
1E4
100
AcDbEntity
  8
$DDT_AUDIT_GENERATED_(227)
  6
Continuous
 62
     7
100
AcDbLine
 10
185.6220231528
 20
278.7506832549
 30
0.0
 11
174.2516507368
 21
278.7506832549
 31
0.0
  0
LINE
  5
229
330
1E4
100
AcDbEntity
  8
$DDT_AUDIT_GENERATED_(227)
  6
Continuous
 62
     7
100
AcDbLine
 10
174.2516507368
 20
274.7506832549
 30
0.0
 11
185.6220231528
 21
274.7506832549
 31
0.0
  0
ARC
  5
22A
330
1E4
100
AcDbEntity
  8
$DDT_AUDIT_GENERATED_(227)
  6
Continuous
 62
     7
100
AcDbCircle
 10
185.6220231528
 20
273.7506832549
 30
0.0
 40
1.000000000000001
100
AcDbArc
 50
18.0
 51
90.0
  0
ARC
  5
22B
330
1E4
100
AcDbEntity
  8
$DDT_AUDIT_GENERATED_(227)
  6
Continuous
 62
     7
100
AcDbCircle
 10
185.6220231528
 20
273.7506832549
 30
0.0
 40
5.000000000000004
100
AcDbArc
 50
18.0
 51
90.0
  0
ARC
  5
22C
330
1E4
100
AcDbEntity
  8
$DDT_AUDIT_GENERATED_(227)
  6
Continuous
 62
     7
100
AcDbCircle
 10
174.2516507368
 20
276.7506832549
 30
0.0
 40
2.000000000000002
100
AcDbArc
 50
90.0
 51
270.0
  0
LINE
  5
22E
330
1E4
100
AcDbEntity
  8
DV2_Default
  6
Continuous
 62
     7
100
AcDbLine
 10
190.3773057342
 20
275.2957682267
 30
0.0
 11
193.606944445
 21
263.4584077179
 31
0.0
  0
LINE
  5
22F
330
1E4
100
AcDbEntity
  8
DV2_Default
  6
Continuous
 62
     7
100
AcDbLine
 10
186.5730796691
 20
274.0597002492
 30
0.0
 11
193.5407651536
 21
252.6153693414
 31
0.0
  0
ENDBLK
  5
231
330
1E4
100
AcDbEntity
  8
0
100
AcDbBlockEnd
  0
BLOCK
  5
255
330
232
100
AcDbEntity
  8
0
100
AcDbBlockBegin
  2
SE2
 70
     0
 10
0.0
 20
0.0
 30
0.0
  3
SE2
  1

  0
SPLINE
  5
234
330
232
100
AcDbEntity
  8
$DDT_AUDIT_GENERATED_(77)
  6
Continuous
 62
     7
100
AcDbSpline
210
0.0
220
0.0
230
1.0
 70
    12
 71
     6
 72
    22
 73
    15
 74
     0
 42
0.000000000123742
 43
0.0000000001
 40
0.0
 40
0.0
 40
0.0
 40
0.0
 40
0.0
 40
0.0
 40
0.0
 40
0.2783843883585438
 40
0.4999998048736058
 40
0.4999998048736058
 40
0.4999998048736058
 40
0.4999998048736058
 40
0.4999998048736058
 40
0.7216152213886684
 40
0.9432306379037287
 40
1.0
 40
1.0
 40
1.0
 40
1.0
 40
1.0
 40
1.0
 40
1.0
 10
81.25374890280362
 20
143.2872382929474
 30
0.0
 41
1.0
 10
81.25421979998507
 20
146.4717687407768
 30
0.0
 41
1.0
 10
82.12964264838207
 20
152.2967447733037
 30
0.0
 41
1.0
 10
84.68131144976549
 20
158.0474271750195
 30
0.0
 41
1.0
 10
89.02392134506363
 20
163.1676007088941
 30
0.0
 41
1.0
 10
95.21372288770635
 20
166.9204958126459
 30
0.0
 41
1.0
 10
102.6991095520422
 20
168.2872382745584
 30
0.0
 41
1.0
 10
109.7998950543852
 20
168.2872382745584
 30
0.0
 41
1.0
 10
116.4354059774822
 20
167.0756730018794
 30
0.0
 41
1.0
 10
122.7723105941078
 20
163.5936941504293
 30
0.0
 41
1.0
 10
127.3246490727491
 20
158.6287536259196
 30
0.0
 41
1.0
 10
130.0796570672025
 20
152.9496523850912
 30
0.0
 41
1.0
 10
131.1453943848496
 20
147.1331066402534
 30
0.0
 41
1.0
 10
131.2454379376565
 20
143.9366362087168
 30
0.0
 41
1.0
 10
131.2455755566141
 20
143.2872383993233
 30
0.0
 41
1.0
  0
LINE
  5
235
330
232
100
AcDbEntity
  8
$DDT_AUDIT_GENERATED_(77)
  6
Continuous
 62
     7
100
AcDbLine
 10
131.2455498757
 20
143.2872385242
 30
0.0
 11
131.2456015396
 21
142.2872382767
 31
0.0
  0
LINE
  5
236
330
232
100
AcDbEntity
  8
$DDT_AUDIT_GENERATED_(77)
  6
Continuous
 62
     7
100
AcDbLine
 10
81.2534030668
 20
142.2872382769
 30
0.0
 11
81.2534552317
 21
143.2872385264
 31
0.0
  0
SPLINE
  5
237
330
232
100
AcDbEntity
  8
$DDT_AUDIT_GENERATED_(77)
  6
Continuous
 62
     7
100
AcDbSpline
210
0.0
220
0.0
230
1.0
 70
    12
 71
     5
 72
    12
 73
     6
 74
     0
 42
0.0000000012796184
 43
0.0000000001
 40
0.0
 40
0.0
 40
0.0
 40
0.0
 40
0.0
 40
0.0
 40
1.0
 40
1.0
 40
1.0
 40
1.0
 40
1.0
 40
1.0
 10
131.2456013130549
 20
142.2872382750892
 30
0.0
 41
1.0
 10
131.2493259892452
 20
141.7647028067284
 30
0.0
 41
1.0
 10
131.2643641404872
 20
140.6459101649734
 30
0.0
 41
1.0
 10
131.1191696454862
 20
138.9769912461384
 30
0.0
 41
1.0
 10
130.6745953531202
 20
136.9227734300074
 30
0.0
 41
1.0
 10
129.8529824811662
 20
134.6716326518444
 30
0.0
 41
1.0
  0
SPLINE
  5
238
330
232
100
AcDbEntity
  8
$DDT_AUDIT_GENERATED_(77)
  6
Continuous
 62
     7
100
AcDbSpline
210
0.0
220
0.0
230
1.0
 70
     8
 71
     3
 72
    15
 73
    11
 74
     0
 42
0.0000000001306902
 43
0.0000000001
 40
0.0847479695808278
 40
0.0847479695808278
 40
0.0847479695808278
 40
0.0847479695808278
 40
0.0933471283137812
 40
0.124133252518368
 40
0.1861753650833538
 40
0.2487867832839529
 40
0.3740016632837573
 40
0.4991985490142564
 40
0.749597033411441
 40
1.0
 40
1.0
 40
1.0
 40
1.0
 10
85.63581900811643
 20
128.8725517336612
 30
0.0
 10
85.70574843041031
 20
128.6646829874911
 30
0.0
 10
86.00982773556466
 20
127.7071559650494
 30
0.0
 10
86.59575557569893
 20
125.1825387318741
 30
0.0
 10
87.02229888970923
 20
121.2336533298849
 30
0.0
 10
87.36927535197664
 20
114.8721424162489
 30
0.0
 10
87.52963709678266
 20
106.8895235640406
 30
0.0
 10
87.63910839949679
 20
94.11981493800312
 30
0.0
 10
87.65826829123351
 20
78.15632768501088
 30
0.0
 10
87.65865053200442
 20
65.38585933479666
 30
0.0
 10
87.65884165410043
 20
59.00056801160891
 30
0.0
  0
SPLINE
  5
239
330
232
100
AcDbEntity
  8
$DDT_AUDIT_GENERATED_(77)
  6
Continuous
 62
     7
100
AcDbSpline
210
0.0
220
0.0
230
1.0
 70
    12
 71
     5
 72
    12
 73
     6
 74
     0
 42
0.0000000012796183
 43
0.0000000001
 40
0.0
 40
0.0
 40
0.0
 40
0.0
 40
0.0
 40
0.0
 40
1.0
 40
1.0
 40
1.0
 40
1.0
 40
1.0
 40
1.0
 10
82.64602236721296
 20
134.6716319889148
 30
0.0
 41
1.0
 10
81.82440935804323
 20
136.9227729460574
 30
0.0
 41
1.0
 10
81.37983498659472
 20
138.9769909512544
 30
0.0
 41
1.0
 10
81.23464046416723
 20
140.6459100331854
 30
0.0
 41
1.0
 10
81.24967861696122
 20
141.7647027759524
 30
0.0
 41
1.0
 10
81.25340329337183
 20
142.2872382751368
 30
0.0
 41
1.0
  0
SPLINE
  5
23A
330
232
100
AcDbEntity
  8
$DDT_AUDIT_GENERATED_(77)
  6
Continuous
 62
     7
100
AcDbSpline
210
0.0
220
0.0
230
1.0
 70
    12
 71
     3
 72
    21
 73
    17
 74
     0
 42
0.0000000001309949
 43
0.0000000001
 40
0.0
 40
0.0
 40
0.0
 40
0.0
 40
0.2499999999999997
 40
0.5000000000000007
 40
0.6249999999999998
 40
0.6875000000000001
 40
0.7500000000000003
 40
0.8125000000000007
 40
0.84375
 40
0.8749999999999994
 40
0.8749999999999994
 40
0.9062500000000003
 40
0.9374999999999998
 40
0.9374999999999998
 40
0.9687500000000006
 40
1.0
 40
1.0
 40
1.0
 40
1.0
 10
125.3401629523252
 20
59.00056801160842
 30
0.0
 41
1.0
 10
125.340162952325
 20
65.37452309491663
 30
0.0
 41
1.0
 10
125.3390447912026
 20
78.12235651605901
 30
0.0
 41
1.0
 10
125.3612450281607
 20
94.0559824037673
 30
0.0
 41
1.0
 10
125.4525584594333
 20
105.205862732444
 30
0.0
 41
1.0
 10
125.5674256991936
 20
111.5725900161264
 30
0.0
 41
1.0
 10
125.711414329147
 20
116.3433300510673
 30
0.0
 41
1.0
 10
125.9235184927997
 20
120.3072158384248
 30
0.0
 41
1.0
 10
126.2230319605232
 20
123.453534840188
 30
0.0
 41
1.0
 10
126.4479846635007
 20
125.0133255233648
 30
0.0
 41
1.0
 10
126.7347294853088
 20
126.5545512513786
 30
0.0
 41
1.0
 10
127.0837264780158
 20
128.0700124777616
 30
0.0
 41
1.0
 10
127.6169795823922
 20
129.52483687109
 30
0.0
 41
1.0
 10
128.2326275200027
 20
130.9698659208814
 30
0.0
 41
1.0
 10
128.9219849678005
 20
132.4035326823438
 30
0.0
 41
1.0
 10
129.5723747128564
 20
133.9027941739248
 30
0.0
 41
1.0
 10
129.8529824811662
 20
134.6716326518444
 30
0.0
 41
1.0
  0
SPLINE
  5
23B
330
232
100
AcDbEntity
  8
$DDT_AUDIT_GENERATED_(77)
  6
Continuous
 62
     7
100
AcDbSpline
210
0.0
220
0.0
230
1.0
 70
    12
 71
     3
 72
    44
 73
    40
 74
     0
 42
0.0000000001659061
 43
0.0000000001
 40
0.0
 40
0.0
 40
0.0
 40
0.0
 40
0.0312499999999999
 40
0.0312499999999999
 40
0.0625
 40
0.09375
 40
0.09375
 40
0.1250000000000001
 40
0.1250000000000001
 40
0.1875000000000007
 40
0.2187499999999994
 40
0.2187499999999994
 40
0.2499999999999999
 40
0.2499999999999999
 40
0.3125000000000008
 40
0.3437499999999995
 40
0.3437499999999995
 40
0.4062500000000003
 40
0.4375000000000008
 40
0.4375000000000008
 40
0.4999999999999999
 40
0.5312500000000003
 40
0.5625000000000009
 40
0.5625000000000009
 40
0.6406250000000001
 40
0.6562500000000004
 40
0.6562500000000004
 40
0.6874999999999991
 40
0.75
 40
0.7656250000000001
 40
0.7812500000000004
 40
0.8125000000000009
 40
0.8593749999999998
 40
0.875
 40
0.875
 40
0.9374999999999991
 40
0.9687499999999996
 40
0.9687499999999996
 40
1.0
 40
1.0
 40
1.0
 40
1.0
 10
87.15884165410037
 20
59.00056801160881
 30
0.0
 41
1.0
 10
87.15884165410031
 20
58.38649587576991
 30
0.0
 41
1.0
 10
87.16441966204141
 20
57.75945097715952
 30
0.0
 41
1.0
 10
87.24652224658303
 20
56.51253332118411
 30
0.0
 41
1.0
 10
87.39322063663963
 20
55.27121394257012
 30
0.0
 41
1.0
 10
87.67976044545351
 20
54.0528885143052
 30
0.0
 41
1.0
 10
88.03408293442222
 20
52.84591128444561
 30
0.0
 41
1.0
 10
88.24702033959811
 20
52.2447211907734
 30
0.0
 41
1.0
 10
88.97091570033791
 20
50.49890687326452
 30
0.0
 41
1.0
 10
89.86428303559151
 20
48.85375162550672
 30
0.0
 41
1.0
 10
90.99389738293252
 20
47.34664081439152
 30
0.0
 41
1.0
 10
91.80193896526231
 20
46.37382677119312
 30
0.0
 41
1.0
 10
92.22772197333121
 20
45.91003314299051
 30
0.0
 41
1.0
 10
93.56304876990701
 20
44.5900638443082
 30
0.0
 41
1.0
 10
95.01696616390223
 20
43.40789794902092
 30
0.0
 41
1.0
 10
96.65362333094428
 20
42.43687780696041
 30
0.0
 41
1.0
 10
98.31845102284505
 20
41.55803104267641
 30
0.0
 41
1.0
 10
100.0514757309825
 20
40.85131207130842
 30
0.0
 41
1.0
 10
101.8863156230579
 20
40.39494548708741
 30
0.0
 41
1.0
 10
103.7436951382026
 20
40.03057369659242
 30
0.0
 41
1.0
 10
105.6088572136416
 20
39.85091075352343
 30
0.0
 41
1.0
 10
108.1110707289742
 20
39.96832525588542
 30
0.0
 41
1.0
 10
109.3665509237287
 20
40.15088970646641
 30
0.0
 41
1.0
 10
111.5191615827873
 20
40.57177262651941
 30
0.0
 41
1.0
 10
113.2988964245749
 20
41.14949287384842
 30
0.0
 41
1.0
 10
115.0000776999761
 20
41.99089436372941
 30
0.0
 41
1.0
 10
115.8369340509865
 20
42.43194467718542
 30
0.0
 41
1.0
 10
117.4550659025176
 20
43.38981843088742
 30
0.0
 41
1.0
 10
119.1540982827651
 20
44.76429477998813
 30
0.0
 41
1.0
 10
120.4734278593162
 20
46.12997448311842
 30
0.0
 41
1.0
 10
121.3005049062413
 20
47.07582911567621
 30
0.0
 41
1.0
 10
122.4272208369199
 20
48.57247825551822
 30
0.0
 41
1.0
 10
123.3651315426973
 20
50.19876662403562
 30
0.0
 41
1.0
 10
123.8837778735652
 20
51.35743242953991
 30
0.0
 41
1.0
 10
124.4891285715115
 20
52.81387471510221
 30
0.0
 41
1.0
 10
125.0231941474941
 20
54.61176704249952
 30
0.0
 41
1.0
 10
125.2502149146276
 20
56.48730152771032
 30
0.0
 41
1.0
 10
125.3345355769869
 20
57.74974772392652
 30
0.0
 41
1.0
 10
125.3401629523252
 20
58.38396211490463
 30
0.0
 41
1.0
 10
125.3401629523252
 20
59.00056801160842
 30
0.0
 41
1.0
  0
SPLINE
  5
23C
330
232
100
AcDbEntity
  8
$DDT_AUDIT_GENERATED_(77)
  6
Continuous
 62
     7
100
AcDbSpline
210
0.0
220
0.0
230
1.0
 70
    12
 71
     3
 72
    19
 73
    15
 74
     0
 42
0.0000000001309887
 43
0.0000000001
 40
0.0
 40
0.0
 40
0.0
 40
0.0
 40
0.0312500000000036
 40
0.0625000000000073
 40
0.0937500000000109
 40
0.1250000000000019
 40
0.1562500000000055
 40
0.1875000000000092
 40
0.2500000000000034
 40
0.3125000000000107
 40
0.3750000000000048
 40
0.5000000000000068
 40
0.7500000000000101
 40
1.0
 40
1.0
 40
1.0
 40
1.0
 10
82.64602236721296
 20
134.6716319889148
 30
0.0
 41
1.0
 10
82.92798287226601
 20
133.8870496513211
 30
0.0
 41
1.0
 10
83.59420078028923
 20
132.3664446564948
 30
0.0
 41
1.0
 10
84.65005381574791
 20
130.1753329180567
 30
0.0
 41
1.0
 10
85.44046200386663
 20
127.982978647805
 30
0.0
 41
1.0
 10
85.95059988990413
 20
125.721853295558
 30
0.0
 41
1.0
 10
86.28102968720883
 20
123.4055978466802
 30
0.0
 41
1.0
 10
86.57755455764843
 20
120.2739914110903
 30
0.0
 41
1.0
 10
86.78889960609872
 20
116.3095000069081
 30
0.0
 41
1.0
 10
86.93229297528242
 20
111.5409910837006
 30
0.0
 41
1.0
 10
87.04675106907781
 20
105.1775013469298
 30
0.0
 41
1.0
 10
87.13779561837393
 20
94.0346897415629
 30
0.0
 41
1.0
 10
87.15995662416081
 20
78.11083088823261
 30
0.0
 41
1.0
 10
87.15884165410081
 20
65.37067718729132
 30
0.0
 41
1.0
 10
87.15884165410037
 20
59.00056801160881
 30
0.0
 41
1.0
  0
LINE
  5
23D
330
232
100
AcDbEntity
  8
$DDT_AUDIT_GENERATED_(77)
  6
Continuous
 62
     7
100
AcDbLine
 10
82.6808907315
 20
134.6843581141
 30
0.0
 11
82.6460223672
 21
134.6716319889
 31
0.0
  0
ARC
  5
23F
330
232
100
AcDbEntity
  8
$DDT_AUDIT_GENERATED_(23E)
  6
Continuous
 62
     7
100
AcDbCircle
 10
106.2495023032
 20
140.7872382746
 30
0.0
 40
25.0
100
AcDbArc
 50
325.0967203881
 51
360.0
  0
ARC
  5
240
330
232
100
AcDbEntity
  8
$DDT_AUDIT_GENERATED_(23E)
  6
Continuous
 62
     7
100
AcDbCircle
 10
106.2495023032
 20
140.7872382746
 30
0.0
 40
25.0
100
AcDbArc
 50
180.0
 51
214.86311731
  0
ARC
  5
241
330
232
100
AcDbEntity
  8
$DDT_AUDIT_GENERATED_(19C)
  6
Continuous
 62
     7
100
AcDbCircle
 10
119.489616008
 20
139.9023803643
 30
0.0
 40
11.3767136917605
100
AcDbArc
 50
346.6324361159
 51
358.2105858981
  0
ARC
  5
242
330
232
100
AcDbEntity
  8
$DDT_AUDIT_GENERATED_(19C)
  6
Continuous
 62
     7
100
AcDbCircle
 10
106.2483040812
 20
142.8848527073
 30
0.0
 40
24.94550341297394
100
AcDbArc
 50
193.0005227171
 51
221.5960902738
  0
ARC
  5
243
330
232
100
AcDbEntity
  8
$DDT_AUDIT_GENERATED_(19C)
  6
Continuous
 62
     7
100
AcDbCircle
 10
106.2483040812
 20
142.8848527073
 30
0.0
 40
24.94550341297394
100
AcDbArc
 50
318.397932532
 51
346.9988514054
  0
ARC
  5
244
330
232
100
AcDbEntity
  8
$DDT_AUDIT_GENERATED_(19C)
  6
Continuous
 62
     7
100
AcDbCircle
 10
103.0345631602
 20
140.3298278667
 30
0.0
 40
27.84055011694703
100
AcDbArc
 50
358.3938990814
 51
5.4414695591
  0
ARC
  5
245
330
232
100
AcDbEntity
  8
$DDT_AUDIT_GENERATED_(19C)
  6
Continuous
 62
     7
100
AcDbCircle
 10
106.2490502263
 20
140.6672603867
 30
0.0
 40
24.60085051184663
100
AcDbArc
 50
5.3741839815
 51
174.6256788191
  0
ARC
  5
246
330
232
100
AcDbEntity
  8
$DDT_AUDIT_GENERATED_(19C)
  6
Continuous
 62
     7
100
AcDbCircle
 10
108.3466166799
 20
140.3356092335
 30
0.0
 40
26.7246472728255
100
AcDbArc
 50
174.3436297906
 51
181.6848142489
  0
ARC
  5
247
330
232
100
AcDbEntity
  8
$DDT_AUDIT_GENERATED_(19C)
  6
Continuous
 62
     7
100
AcDbCircle
 10
93.052959881
 20
139.9010485261
 30
0.0
 40
11.42258169224574
100
AcDbArc
 50
181.7749311731
 51
193.3067131021
  0
ARC
  5
248
330
232
100
AcDbEntity
  8
$DDT_AUDIT_GENERATED_(19C)
  6
Continuous
 62
     7
100
AcDbCircle
 10
35276.2491261048
 20
51.3745471615
 30
0.0
 40
35151.42679899967
100
AcDbArc
 50
179.8797332793
 51
179.9628806324
  0
LINE
  5
249
330
232
100
AcDbEntity
  8
$DDT_AUDIT_GENERATED_(19C)
  6
Continuous
 62
     7
100
AcDbLine
 10
124.8293471986
 20
74.064387886
 30
0.0
 11
124.8294683399
 21
74.1476541887
 31
0.0
  0
ARC
  5
24A
330
232
100
AcDbEntity
  8
$DDT_AUDIT_GENERATED_(19C)
  6
Continuous
 62
     7
100
AcDbCircle
 10
106.2510383951
 20
74.3124654098
 30
0.0
 40
18.58497828803501
100
AcDbArc
 50
180.7662751481
 51
359.2339610487
  0
LINE
  5
24B
330
232
100
AcDbEntity
  8
$DDT_AUDIT_GENERATED_(19C)
  6
Continuous
 62
     7
100
AcDbLine
 10
87.6721901844
 20
74.1477431115
 30
0.0
 11
87.6723050326
 21
74.0644834965
 31
0.0
  0
SPLINE
  5
24C
330
232
100
AcDbEntity
  8
$DDT_AUDIT_GENERATED_(19C)
  6
Continuous
 62
     7
100
AcDbSpline
210
0.0
220
0.0
230
1.0
 70
     8
 71
     3
 72
     8
 73
     4
 74
     0
 42
0.0000000001960341
 43
0.0000000001
 40
0.0
 40
0.0
 40
0.0
 40
0.0
 40
1.0
 40
1.0
 40
1.0
 40
1.0
 10
87.60154827976596
 20
125.1590658570325
 30
0.0
 10
87.63378416777644
 20
105.3048099114244
 30
0.0
 10
87.65713413618745
 20
88.3009783649719
 30
0.0
 10
87.67159818499898
 20
74.14757121767492
 30
0.0
  0
ARC
  5
24D
330
232
100
AcDbEntity
  8
$DDT_AUDIT_GENERATED_(1DF)
  6
Continuous
 62
     7
100
AcDbCircle
 10
106.2495023032
 20
143.2872382746
 30
0.0
 40
23.64931288642442
100
AcDbArc
 50
17.486523972
 51
162.8188805238
  0
LINE
  5
24E
330
232
100
AcDbEntity
  8
$DDT_AUDIT_GENERATED_(227)
  6
Continuous
 62
     7
100
AcDbLine
 10
108.2495023032
 20
176.1242080416
 30
0.0
 11
108.2495023032
 21
187.4945804576
 31
0.0
  0
LINE
  5
24F
330
232
100
AcDbEntity
  8
$DDT_AUDIT_GENERATED_(227)
  6
Continuous
 62
     7
100
AcDbLine
 10
104.2495023032
 20
187.4945804576
 30
0.0
 11
104.2495023032
 21
176.1242080416
 31
0.0
  0
LINE
  5
250
330
232
100
AcDbEntity
  8
$DDT_AUDIT_GENERATED_(227)
  6
Continuous
 62
     7
100
AcDbLine
 10
104.2495023032
 20
176.1242080416
 30
0.0
 11
104.2495023032
 21
173.2710384927
 31
0.0
  0
LINE
  5
251
330
232
100
AcDbEntity
  8
$DDT_AUDIT_GENERATED_(227)
  6
Continuous
 62
     7
100
AcDbLine
 10
108.2495023032
 20
173.2710384927
 30
0.0
 11
108.2495023032
 21
176.1242080416
 31
0.0
  0
LINE
  5
252
330
232
100
AcDbEntity
  8
$DDT_AUDIT_GENERATED_(227)
  6
Continuous
 62
     7
100
AcDbLine
 10
108.2495023032
 20
168.2057650854
 30
0.0
 11
108.2495023032
 21
173.2710384927
 31
0.0
  0
LINE
  5
253
330
232
100
AcDbEntity
  8
$DDT_AUDIT_GENERATED_(227)
  6
Continuous
 62
     7
100
AcDbLine
 10
104.2495023032
 20
173.2710384927
 30
0.0
 11
104.2495023032
 21
168.2057637107
 31
0.0
  0
ARC
  5
254
330
232
100
AcDbEntity
  8
$DDT_AUDIT_GENERATED_(227)
  6
Continuous
 62
     7
100
AcDbCircle
 10
106.2495023032
 20
187.4945804576
 30
0.0
 40
2.000000000000002
100
AcDbArc
 50
0.0
 51
180.0
  0
ENDBLK
  5
256
330
232
100
AcDbEntity
  8
0
100
AcDbBlockEnd
  0
ENDSEC
  0
SECTION
  2
ENTITIES
  0
INSERT
  5
5F
330
1F
100
AcDbEntity
  8
Default
100
AcDbBlockReference
  2
SEANNOT_GROUP
 10
0.0
 20
0.0
 30
0.0
  0
INSERT
  5
66
330
1F
100
AcDbEntity
  8
Default
100
AcDbBlockReference
  2
SEANNOT_GROUP1
 10
0.0
 20
0.0
 30
0.0
  0
INSERT
  5
6C
330
1F
100
AcDbEntity
  8
Default
100
AcDbBlockReference
  2
SEANNOT_GROUP2
 10
0.0
 20
0.0
 30
0.0
  0
INSERT
  5
76
330
1F
100
AcDbEntity
  8
Default
100
AcDbBlockReference
  2
SE
 10
0.0
 20
0.0
 30
0.0
  0
INSERT
  5
1E5
330
1F
100
AcDbEntity
  8
Default
100
AcDbBlockReference
  2
SE1
 10
0.0
 20
0.0
 30
0.0
  0
INSERT
  5
233
330
1F
100
AcDbEntity
  8
Default
100
AcDbBlockReference
  2
SE2
 10
0.0
 20
0.0
 30
0.0
  0
TEXT
  5
258
330
1F
100
AcDbEntity
  8
Default
  6
Continuous
 62
     7
100
AcDbText
 10
5.9362635081
 20
53.4225120485
 30
0.0
 40
10.0
  1
Grohe AG^J
  7
SEACAD_seiso_ttf
 11
5.9362635081
 21
63.4225120485
 31
0.0
100
AcDbText
 73
     3
  0
TEXT
  5
259
330
1F
100
AcDbEntity
  8
Default
  6
Continuous
 62
     7
100
AcDbText
 10
5.9362635081
 20
37.0588756849
 30
0.0
 40
10.0
  1
 
  7
SEACAD_seiso_ttf
 11
5.9362635081
 21
47.0588756849
 31
0.0
100
AcDbText
 73
     3
  0
TEXT
  5
25A
330
1F
100
AcDbEntity
  8
Default
  6
Continuous
 62
     7
100
AcDbText
 10
5.9362635081
 20
20.6952393213
 30
0.0
 40
10.0
  1
ecn:
  7
SEACAD_seiso_ttf
 11
5.9362635081
 21
30.6952393213
 31
0.0
100
AcDbText
 73
     3
  0
TEXT
  5
25B
330
1F
100
AcDbEntity
  8
Default
  6
Continuous
 62
     7
100
AcDbText
 10
5.9362635081
 20
4.3316029576
 30
0.0
 40
10.0
  1
unit: mm
  7
SEACAD_seiso_ttf
 11
5.9362635081
 21
14.3316029576
 31
0.0
100
AcDbText
 73
     3
  0
LINE
  5
25C
330
1F
100
AcDbEntity
  8
Default
  6
Continuous
 62
     7
100
AcDbLine
 10
0.0
 20
0.0
 30
0.0
 11
100.0
 21
0.0
 31
0.0
  0
LINE
  5
25D
330
1F
100
AcDbEntity
  8
Default
  6
Continuous
 62
     7
100
AcDbLine
 10
0.0
 20
0.0
 30
0.0
 11
0.0
 21
100.0
 31
0.0
  0
TEXT
  5
25E
330
1F
100
AcDbEntity
  8
Default
  6
Continuous
 62
     7
100
AcDbText
 10
24.3923665681
 20
-18.2375342018
 30
0.0
 40
10.0
  1
100 mm
  7
SEACAD_seiso_ttf
 11
24.3923665681
 21
-8.2375342018
 31
0.0
100
AcDbText
 73
     3
  0
TEXT
  5
25F
330
1F
100
AcDbEntity
  8
Default
  6
Continuous
 62
     7
100
AcDbText
 10
-7.6150308803
 20
24.6231930421
 30
0.0
 40
10.0
  1
100 mm
 50
90.0
  7
SEACAD_seiso_ttf
 11
-17.6150308803
 21
24.6231930421
 31
0.0
100
AcDbText
 73
     3
  0
TEXT
  5
260
330
1F
100
AcDbEntity
  8
Default
  6
Continuous
 62
     7
100
AcDbText
 10
28.4878128572
 20
20.0907663715
 30
0.0
 40
10.0
  1
227738
  7
SEACAD_seiso_ttf
 11
28.4878128572
 21
30.0907663715
 31
0.0
100
AcDbText
 73
     3
  0
TEXT
  5
261
330
1F
100
AcDbEntity
  8
Default
  6
Continuous
 62
     7
100
AcDbText
 10
5.9012241913
 20
36.7242780188
 30
0.0
 40
10.0
  1
2337700E
  7
SEACAD_seiso_ttf
 11
5.9012241913
 21
46.7242780188
 31
0.0
100
AcDbText
 73
     3
  0
ENDSEC
  0
SECTION
  2
OBJECTS
  0
DICTIONARY
  5
C
330
0
100
AcDbDictionary
281
     1
  3
ACAD_GROUP
350
D
  3
ACAD_LAYOUT
350
1A
  3
ACAD_MLEADERSTYLE
350
265
  3
ACAD_MLINESTYLE
350
17
  3
ACAD_PLOTSETTINGS
350
19
  3
ACAD_PLOTSTYLENAME
350
E
  3
ACAD_SCALELIST
350
3B
  3
ACAD_TABLESTYLE
350
264
  3
ACAD_VISUALSTYLE
350
2A
  3
AcDbVariableDictionary
350
262
  0
DICTIONARY
  5
D
102
{ACAD_REACTORS
330
C
102
}
330
C
100
AcDbDictionary
281
     1
  0
DICTIONARY
  5
1A
102
{ACAD_REACTORS
330
C
102
}
330
C
100
AcDbDictionary
281
     1
  3
Layout1
350
1E
  3
Model
350
22
  0
DICTIONARY
  5
265
102
{ACAD_REACTORS
330
C
102
}
330
C
100
AcDbDictionary
281
     1
  0
DICTIONARY
  5
17
102
{ACAD_REACTORS
330
C
102
}
330
C
100
AcDbDictionary
281
     1
  3
Standard
350
18
  0
DICTIONARY
  5
19
102
{ACAD_REACTORS
330
C
102
}
330
C
100
AcDbDictionary
281
     1
  0
ACDBDICTIONARYWDFLT
  5
E
102
{ACAD_REACTORS
330
C
102
}
330
C
100
AcDbDictionary
281
     1
  3
Normal
350
F
100
AcDbDictionaryWithDefault
340
F
  0
DICTIONARY
  5
3B
102
{ACAD_REACTORS
330
C
102
}
330
C
100
AcDbDictionary
281
     1
  3
A0
350
3C
  3
A1
350
3D
  3
A2
350
3E
  3
A3
350
3F
  3
A4
350
40
  3
A5
350
41
  3
A6
350
42
  3
A7
350
43
  3
A8
350
44
  3
A9
350
45
  3
B0
350
46
  3
B1
350
47
  3
B2
350
48
  3
B3
350
49
  3
B4
350
4A
  3
B5
350
4B
  3
B6
350
4C
  3
B7
350
4D
  3
B8
350
4E
  3
B9
350
4F
  3
C0
350
50
  3
C1
350
51
  3
C2
350
52
  3
C3
350
53
  3
C4
350
54
  3
C5
350
55
  3
C6
350
56
  3
C7
350
57
  3
C8
350
58
  3
C9
350
59
  3
D0
350
5A
  3
D1
350
5B
  3
D2
350
5C
  0
DICTIONARY
  5
264
102
{ACAD_REACTORS
330
C
102
}
330
C
100
AcDbDictionary
281
     1
  0
DICTIONARY
  5
2A
102
{ACAD_REACTORS
330
C
102
}
330
C
100
AcDbDictionary
281
     1
  3
2dWireframe
350
2F
  3
3D Hidden
350
31
  3
3dWireframe
350
30
  3
Basic
350
32
  3
Brighten
350
36
  3
ColorChange
350
3A
  3
Conceptual
350
34
  3
Dim
350
35
  3
Facepattern
350
39
  3
Flat
350
2B
  3
FlatWithEdges
350
2C
  3
Gouraud
350
2D
  3
GouraudWithEdges
350
2E
  3
Linepattern
350
38
  3
Realistic
350
33
  3
Thicken
350
37
  0
DICTIONARY
  5
262
102
{ACAD_REACTORS
330
C
102
}
330
C
100
AcDbDictionary
281
     1
  3
CANNOSCALE
350
263
  3
PSOLHEIGHT
350
267
  3
PSOLWIDTH
350
266
  0
LAYOUT
  5
1E
102
{ACAD_REACTORS
330
1A
102
}
330
1A
100
AcDbPlotSettings
  1

  2
none_device
  4

  6

 40
0.0
 41
0.0
 42
0.0
 43
0.0
 44
0.0
 45
0.0
 46
0.0
 47
0.0
 48
0.0
 49
0.0
140
0.0
141
0.0
142
1.0
143
1.0
 70
   688
 72
     0
 73
     0
 74
     5
  7

 75
    16
147
1.0
148
0.0
149
0.0
100
AcDbLayout
  1
Layout1
 70
     1
 71
     1
 10
0.0
 20
0.0
 11
3000.0
 21
4500.0
 12
0.0
 22
0.0
 32
0.0
 14
0.0
 24
0.0
 34
0.0
 15
3000.0
 25
4500.0
 35
0.0
146
0.0
 13
0.0
 23
0.0
 33
0.0
 16
1.0
 26
0.0
 36
0.0
 17
0.0
 27
1.0
 37
0.0
 76
     0
330
1B
  0
LAYOUT
  5
22
102
{ACAD_REACTORS
330
1A
102
}
330
1A
100
AcDbPlotSettings
  1

  2
none_device
  4

  6

 40
0.0
 41
0.0
 42
0.0
 43
0.0
 44
0.0
 45
0.0
 46
0.0
 47
0.0
 48
0.0
 49
0.0
140
0.0
141
0.0
142
1.0
143
1.0
 70
  1712
 72
     0
 73
     0
 74
     0
  7

 75
     0
147
1.0
148
0.0
149
0.0
100
AcDbLayout
  1
Model
 70
     1
 71
     0
 10
0.0
 20
0.0
 11
3000.0
 21
4500.0
 12
0.0
 22
0.0
 32
0.0
 14
0.0
 24
0.0
 34
0.0
 15
3000.0
 25
4500.0
 35
0.0
146
0.0
 13
0.0
 23
0.0
 33
0.0
 16
1.0
 26
0.0
 36
0.0
 17
0.0
 27
1.0
 37
0.0
 76
     0
330
1F
331
29
  0
MLINESTYLE
  5
18
102
{ACAD_REACTORS
330
17
102
}
330
17
100
AcDbMlineStyle
  2
Standard
 70
     0
  3

 62
   256
 51
90.0
 52
90.0
 71
     2
 49
0.5
 62
   256
  6
BYLAYER
 49
-0.5
 62
   256
  6
BYLAYER
  0
ACDBPLACEHOLDER
  5
F
102
{ACAD_REACTORS
330
E
102
}
330
E
  0
SCALE
  5
3C
102
{ACAD_REACTORS
330
3B
102
}
330
3B
100
AcDbScale
 70
     0
300
1:1
140
1.0
141
1.0
290
     1
  0
SCALE
  5
3D
102
{ACAD_REACTORS
330
3B
102
}
330
3B
100
AcDbScale
 70
     0
300
1:2
140
1.0
141
2.0
290
     0
  0
SCALE
  5
3E
102
{ACAD_REACTORS
330
3B
102
}
330
3B
100
AcDbScale
 70
     0
300
1:4
140
1.0
141
4.0
290
     0
  0
SCALE
  5
3F
102
{ACAD_REACTORS
330
3B
102
}
330
3B
100
AcDbScale
 70
     0
300
1:5
140
1.0
141
5.0
290
     0
  0
SCALE
  5
40
102
{ACAD_REACTORS
330
3B
102
}
330
3B
100
AcDbScale
 70
     0
300
1:8
140
1.0
141
8.0
290
     0
  0
SCALE
  5
41
102
{ACAD_REACTORS
330
3B
102
}
330
3B
100
AcDbScale
 70
     0
300
1:10
140
1.0
141
10.0
290
     0
  0
SCALE
  5
42
102
{ACAD_REACTORS
330
3B
102
}
330
3B
100
AcDbScale
 70
     0
300
1:16
140
1.0
141
16.0
290
     0
  0
SCALE
  5
43
102
{ACAD_REACTORS
330
3B
102
}
330
3B
100
AcDbScale
 70
     0
300
1:20
140
1.0
141
20.0
290
     0
  0
SCALE
  5
44
102
{ACAD_REACTORS
330
3B
102
}
330
3B
100
AcDbScale
 70
     0
300
1:30
140
1.0
141
30.0
290
     0
  0
SCALE
  5
45
102
{ACAD_REACTORS
330
3B
102
}
330
3B
100
AcDbScale
 70
     0
300
1:40
140
1.0
141
40.0
290
     0
  0
SCALE
  5
46
102
{ACAD_REACTORS
330
3B
102
}
330
3B
100
AcDbScale
 70
     0
300
1:50
140
1.0
141
50.0
290
     0
  0
SCALE
  5
47
102
{ACAD_REACTORS
330
3B
102
}
330
3B
100
AcDbScale
 70
     0
300
1:100
140
1.0
141
100.0
290
     0
  0
SCALE
  5
48
102
{ACAD_REACTORS
330
3B
102
}
330
3B
100
AcDbScale
 70
     0
300
2:1
140
2.0
141
1.0
290
     0
  0
SCALE
  5
49
102
{ACAD_REACTORS
330
3B
102
}
330
3B
100
AcDbScale
 70
     0
300
4:1
140
4.0
141
1.0
290
     0
  0
SCALE
  5
4A
102
{ACAD_REACTORS
330
3B
102
}
330
3B
100
AcDbScale
 70
     0
300
8:1
140
8.0
141
1.0
290
     0
  0
SCALE
  5
4B
102
{ACAD_REACTORS
330
3B
102
}
330
3B
100
AcDbScale
 70
     0
300
10:1
140
10.0
141
1.0
290
     0
  0
SCALE
  5
4C
102
{ACAD_REACTORS
330
3B
102
}
330
3B
100
AcDbScale
 70
     0
300
100:1
140
100.0
141
1.0
290
     0
  0
SCALE
  5
4D
102
{ACAD_REACTORS
330
3B
102
}
330
3B
100
AcDbScale
 70
     0
300
1/128" = 1'-0"
140
0.0078125
141
12.0
290
     0
  0
SCALE
  5
4E
102
{ACAD_REACTORS
330
3B
102
}
330
3B
100
AcDbScale
 70
     0
300
1/64" = 1'-0"
140
0.015625
141
12.0
290
     0
  0
SCALE
  5
4F
102
{ACAD_REACTORS
330
3B
102
}
330
3B
100
AcDbScale
 70
     0
300
1/32" = 1'-0"
140
0.03125
141
12.0
290
     0
  0
SCALE
  5
50
102
{ACAD_REACTORS
330
3B
102
}
330
3B
100
AcDbScale
 70
     0
300
1/16" = 1'-0"
140
0.0625
141
12.0
290
     0
  0
SCALE
  5
51
102
{ACAD_REACTORS
330
3B
102
}
330
3B
100
AcDbScale
 70
     0
300
3/32" = 1'-0"
140
0.09375
141
12.0
290
     0
  0
SCALE
  5
52
102
{ACAD_REACTORS
330
3B
102
}
330
3B
100
AcDbScale
 70
     0
300
1/8" = 1'-0"
140
0.125
141
12.0
290
     0
  0
SCALE
  5
53
102
{ACAD_REACTORS
330
3B
102
}
330
3B
100
AcDbScale
 70
     0
300
3/16" = 1'-0"
140
0.1875
141
12.0
290
     0
  0
SCALE
  5
54
102
{ACAD_REACTORS
330
3B
102
}
330
3B
100
AcDbScale
 70
     0
300
1/4" = 1'-0"
140
0.25
141
12.0
290
     0
  0
SCALE
  5
55
102
{ACAD_REACTORS
330
3B
102
}
330
3B
100
AcDbScale
 70
     0
300
3/8" = 1'-0"
140
0.375
141
12.0
290
     0
  0
SCALE
  5
56
102
{ACAD_REACTORS
330
3B
102
}
330
3B
100
AcDbScale
 70
     0
300
1/2" = 1'-0"
140
0.5
141
12.0
290
     0
  0
SCALE
  5
57
102
{ACAD_REACTORS
330
3B
102
}
330
3B
100
AcDbScale
 70
     0
300
3/4" = 1'-0"
140
0.75
141
12.0
290
     0
  0
SCALE
  5
58
102
{ACAD_REACTORS
330
3B
102
}
330
3B
100
AcDbScale
 70
     0
300
1" = 1'-0"
140
1.0
141
12.0
290
     0
  0
SCALE
  5
59
102
{ACAD_REACTORS
330
3B
102
}
330
3B
100
AcDbScale
 70
     0
300
1-1/2" = 1'-0"
140
1.5
141
12.0
290
     0
  0
SCALE
  5
5A
102
{ACAD_REACTORS
330
3B
102
}
330
3B
100
AcDbScale
 70
     0
300
3" = 1'-0"
140
3.0
141
12.0
290
     0
  0
SCALE
  5
5B
102
{ACAD_REACTORS
330
3B
102
}
330
3B
100
AcDbScale
 70
     0
300
6" = 1'-0"
140
6.0
141
12.0
290
     0
  0
SCALE
  5
5C
102
{ACAD_REACTORS
330
3B
102
}
330
3B
100
AcDbScale
 70
     0
300
1'-0" = 1'-0"
140
12.0
141
12.0
290
     0
  0
VISUALSTYLE
  5
2F
102
{ACAD_REACTORS
330
2A
102
}
330
2A
100
AcDbVisualStyle
  2
2dWireframe
 70
     4
 71
     0
 72
     2
 73
     0
 90
        0
 40
-0.6
 41
-30.0
 62
     5
 63
     7
 74
     1
 91
        4
 64
     7
 65
   257
 75
     1
175
     1
 42
1.0
 92
        0
 66
   257
 43
1.0
 76
     1
 77
     6
 78
     2
 67
     7
 79
     5
170
     0
171
     0
290
     0
174
     0
 93
        1
 44
0.0
173
     0
291
     0
 45
0.0
1001
ACAD
1000
AcDbSavedByObjectVersion
1070
     0
  0
VISUALSTYLE
  5
31
102
{ACAD_REACTORS
330
2A
102
}
330
2A
100
AcDbVisualStyle
  2
3D Hidden
 70
     6
 71
     1
 72
     2
 73
     2
 90
        0
 40
-0.6
 41
-30.0
 62
     5
 63
     7
 74
     2
 91
        2
 64
     7
 65
   257
 75
     2
175
     1
 42
40.0
 92
        0
 66
   257
 43
1.0
 76
     1
 77
     6
 78
     2
 67
     7
 79
     3
170
     0
171
     0
290
     0
174
     0
 93
        1
 44
0.0
173
     0
291
     0
 45
0.0
1001
ACAD
1000
AcDbSavedByObjectVersion
1070
     0
  0
VISUALSTYLE
  5
30
102
{ACAD_REACTORS
330
2A
102
}
330
2A
100
AcDbVisualStyle
  2
3dWireframe
 70
     5
 71
     0
 72
     2
 73
     0
 90
        0
 40
-0.6
 41
-30.0
 62
     5
 63
     7
 74
     1
 91
        4
 64
     7
 65
   257
 75
     1
175
     1
 42
1.0
 92
        0
 66
   257
 43
1.0
 76
     1
 77
     6
 78
     2
 67
     7
 79
     5
170
     0
171
     0
290
     0
174
     0
 93
        1
 44
0.0
173
     0
291
     0
 45
0.0
1001
ACAD
1000
AcDbSavedByObjectVersion
1070
     0
  0
VISUALSTYLE
  5
32
102
{ACAD_REACTORS
330
2A
102
}
330
2A
100
AcDbVisualStyle
  2
Basic
 70
     7
 71
     1
 72
     0
 73
     1
 90
        0
 40
-0.6
 41
-30.0
 62
     5
 63
     7
 74
     0
 91
        4
 64
     7
 65
   257
 75
     1
175
     1
 42
1.0
 92
        8
 66
     7
 43
1.0
 76
     1
 77
     6
 78
     2
 67
     7
 79
     5
170
     0
171
     0
290
     0
174
     0
 93
        1
 44
0.0
173
     0
291
     1
 45
0.0
1001
ACAD
1000
AcDbSavedByObjectVersion
1070
     0
  0
VISUALSTYLE
  5
36
102
{ACAD_REACTORS
330
2A
102
}
330
2A
100
AcDbVisualStyle
  2
Brighten
 70
    12
 71
     2
 72
     2
 73
     0
 90
        0
 40
-0.6
 41
-30.0
 62
     5
 63
     7
 74
     1
 91
        4
 64
     7
 65
   257
 75
     1
175
     1
 42
1.0
 92
        8
 66
     7
 43
1.0
 76
     1
 77
     6
 78
     2
 67
     7
 79
     5
170
     0
171
     0
290
     0
174
     0
 93
        1
 44
50.0
173
     0
291
     1
 45
0.0
1001
ACAD
1000
AcDbSavedByObjectVersion
1070
     0
  0
VISUALSTYLE
  5
3A
102
{ACAD_REACTORS
330
2A
102
}
330
2A
100
AcDbVisualStyle
  2
ColorChange
 70
    16
 71
     2
 72
     2
 73
     3
 90
        0
 40
-0.6
 41
-30.0
 62
     5
 63
     8
 74
     1
 91
        4
 64
     7
 65
   257
 75
     1
175
     1
 42
1.0
 92
        8
 66
     8
 43
1.0
 76
     1
 77
     6
 78
     2
 67
     7
 79
     5
170
     0
171
     0
290
     0
174
     0
 93
        1
 44
0.0
173
     0
291
     1
 45
0.0
1001
ACAD
1000
AcDbSavedByObjectVersion
1070
     0
  0
VISUALSTYLE
  5
34
102
{ACAD_REACTORS
330
2A
102
}
330
2A
100
AcDbVisualStyle
  2
Conceptual
 70
     9
 71
     3
 72
     2
 73
     0
 90
        0
 40
-0.6
 41
-30.0
 62
     5
 63
     7
 74
     2
 91
        2
 64
     7
 65
   257
 75
     1
175
     1
 42
40.0
 92
        8
 66
     7
 43
1.0
 76
     1
 77
     6
 78
     2
 67
     7
 79
     3
170
     0
171
     0
290
     0
174
     0
 93
        1
 44
0.0
173
     0
291
     0
 45
0.0
1001
ACAD
1000
AcDbSavedByObjectVersion
1070
     0
  0
VISUALSTYLE
  5
35
102
{ACAD_REACTORS
330
2A
102
}
330
2A
100
AcDbVisualStyle
  2
Dim
 70
    11
 71
     2
 72
     2
 73
     0
 90
        0
 40
-0.6
 41
-30.0
 62
     5
 63
     7
 74
     1
 91
        4
 64
     7
 65
   257
 75
     1
175
     1
 42
1.0
 92
        8
 66
     7
 43
1.0
 76
     1
 77
     6
 78
     2
 67
     7
 79
     5
170
     0
171
     0
290
     0
174
     0
 93
        1
 44
-50.0
173
     0
291
     1
 45
0.0
1001
ACAD
1000
AcDbSavedByObjectVersion
1070
     0
  0
VISUALSTYLE
  5
39
102
{ACAD_REACTORS
330
2A
102
}
330
2A
100
AcDbVisualStyle
  2
Facepattern
 70
    15
 71
     2
 72
     2
 73
     0
 90
        0
 40
-0.6
 41
-30.0
 62
     5
 63
     7
 74
     1
 91
        4
 64
     7
 65
   257
 75
     1
175
     1
 42
1.0
 92
        8
 66
     7
 43
1.0
 76
     1
 77
     6
 78
     2
 67
     7
 79
     5
170
     0
171
     0
290
     0
174
     0
 93
        1
 44
0.0
173
     0
291
     1
 45
0.0
1001
ACAD
1000
AcDbSavedByObjectVersion
1070
     0
  0
VISUALSTYLE
  5
2B
102
{ACAD_REACTORS
330
2A
102
}
330
2A
100
AcDbVisualStyle
  2
Flat
 70
     0
 71
     2
 72
     1
 73
     1
 90
        2
 40
-0.6
 41
30.0
 62
     5
 63
     7
 74
     0
 91
        4
 64
     7
 65
   257
 75
     1
175
     1
 42
1.0
 92
        8
 66
     7
 43
1.0
 76
     1
 77
     6
 78
     2
 67
     7
 79
     5
170
     0
171
     0
290
     0
174
     0
 93
       13
 44
0.0
173
     0
291
     1
 45
0.0
1001
ACAD
1000
AcDbSavedByObjectVersion
1070
     0
  0
VISUALSTYLE
  5
2C
102
{ACAD_REACTORS
330
2A
102
}
330
2A
100
AcDbVisualStyle
  2
FlatWithEdges
 70
     1
 71
     2
 72
     1
 73
     1
 90
        2
 40
-0.6
 41
30.0
 62
     5
 63
     7
 74
     1
 91
        4
 64
     7
 65
   257
 75
     1
175
     1
 42
1.0
 92
        0
 66
   257
 43
1.0
 76
     1
 77
     6
 78
     2
 67
     7
 79
     5
170
     0
171
     0
290
     0
174
     0
 93
       13
 44
0.0
173
     0
291
     1
 45
0.0
1001
ACAD
1000
AcDbSavedByObjectVersion
1070
     0
  0
VISUALSTYLE
  5
2D
102
{ACAD_REACTORS
330
2A
102
}
330
2A
100
AcDbVisualStyle
  2
Gouraud
 70
     2
 71
     2
 72
     2
 73
     1
 90
        2
 40
-0.6
 41
30.0
 62
     5
 63
     7
 74
     0
 91
        4
 64
     7
 65
   257
 75
     1
175
     1
 42
1.0
 92
        0
 66
     7
 43
1.0
 76
     1
 77
     6
 78
     2
 67
     7
 79
     5
170
     0
171
     0
290
     0
174
     0
 93
       13
 44
0.0
173
     0
291
     1
 45
0.0
1001
ACAD
1000
AcDbSavedByObjectVersion
1070
     0
  0
VISUALSTYLE
  5
2E
102
{ACAD_REACTORS
330
2A
102
}
330
2A
100
AcDbVisualStyle
  2
GouraudWithEdges
 70
     3
 71
     2
 72
     2
 73
     1
 90
        2
 40
-0.6
 41
30.0
 62
     5
 63
     7
 74
     1
 91
        4
 64
     7
 65
   257
 75
     1
175
     1
 42
1.0
 92
        0
 66
   257
 43
1.0
 76
     1
 77
     6
 78
     2
 67
     7
 79
     5
170
     0
171
     0
290
     0
174
     0
 93
       13
 44
0.0
173
     0
291
     1
 45
0.0
1001
ACAD
1000
AcDbSavedByObjectVersion
1070
     0
  0
VISUALSTYLE
  5
38
102
{ACAD_REACTORS
330
2A
102
}
330
2A
100
AcDbVisualStyle
  2
Linepattern
 70
    14
 71
     2
 72
     2
 73
     0
 90
        0
 40
-0.6
 41
-30.0
 62
     5
 63
     7
 74
     1
 91
        4
 64
     7
 65
   257
 75
     7
175
     7
 42
1.0
 92
        8
 66
     7
 43
1.0
 76
     1
 77
     6
 78
     2
 67
     7
 79
     5
170
     0
171
     0
290
     0
174
     0
 93
        1
 44
0.0
173
     0
291
     1
 45
0.0
1001
ACAD
1000
AcDbSavedByObjectVersion
1070
     0
  0
VISUALSTYLE
  5
33
102
{ACAD_REACTORS
330
2A
102
}
330
2A
100
AcDbVisualStyle
  2
Realistic
 70
     8
 71
     2
 72
     2
 73
     0
 90
        0
 40
-0.6
 41
-30.0
 62
     5
 63
     7
 74
     1
 91
        0
 64
     7
 65
   257
 75
     1
175
     1
 42
1.0
 92
        8
 66
     8
 43
1.0
 76
     1
 77
     6
 78
     2
 67
     7
 79
     5
170
     0
171
     0
290
     0
174
     0
 93
       13
 44
0.0
173
     0
291
     0
 45
0.0
1001
ACAD
1000
AcDbSavedByObjectVersion
1070
     0
  0
VISUALSTYLE
  5
37
102
{ACAD_REACTORS
330
2A
102
}
330
2A
100
AcDbVisualStyle
  2
Thicken
 70
    13
 71
     2
 72
     2
 73
     0
 90
        0
 40
-0.6
 41
-30.0
 62
     5
 63
     7
 74
     1
 91
        4
 64
     7
 65
   257
 75
     1
175
     1
 42
1.0
 92
       12
 66
     7
 43
1.0
 76
     1
 77
     6
 78
     2
 67
     7
 79
     5
170
     0
171
     0
290
     0
174
     0
 93
        1
 44
0.0
173
     0
291
     1
 45
0.0
1001
ACAD
1000
AcDbSavedByObjectVersion
1070
     0
  0
DICTIONARYVAR
  5
263
102
{ACAD_REACTORS
330
262
102
}
330
262
100
DictionaryVariables
280
     0
  1
1:1
  0
DICTIONARYVAR
  5
267
102
{ACAD_REACTORS
330
262
102
}
330
262
100
DictionaryVariables
280
     0
  1
80.000000
  0
DICTIONARYVAR
  5
266
102
{ACAD_REACTORS
330
262
102
}
330
262
100
DictionaryVariables
280
     0
  1
5.000000
  0
ENDSEC
  0
EOF
