  0
SECTION
  2
HEADER
  9
$ACADVER
  1
AC1018
  9
$ACADMAINTVER
 70
   104
  9
$DWGCODEPAGE
  3
ANSI_1252
  9
$LASTSAVEDBY
  1
Administrator
  9
$CUSTOMPROPERTYTAG
  1
AmdtFileType
  9
$CUSTOMPROPERTY
  1
84
  9
$INSBASE
 10
0.0
 20
0.0
 30
0.0
  9
$EXTMIN
 10
-349.7314888566387
 20
-167.7490708929118
 30
0.0
  9
$EXTMAX
 10
102.7885340127434
 20
465.0010125491711
 30
0.0
  9
$LIMMIN
 10
0.0
 20
0.0
  9
$LIMMAX
 10
420.0
 20
297.0
  9
$ORTHOMODE
 70
     0
  9
$REGENMODE
 70
     1
  9
$FILLMODE
 70
     1
  9
$QTEXTMODE
 70
     0
  9
$MIRRTEXT
 70
     1
  9
$LTSCALE
 40
1.0
  9
$ATTMODE
 70
     1
  9
$TEXTSIZE
 40
2.5
  9
$TRACEWID
 40
1.0
  9
$TEXTSTYLE
  7
STANDARD
  9
$CLAYER
  8
0
  9
$CELTYPE
  6
ByLayer
  9
$CECOLOR
 62
   256
  9
$CELTSCALE
 40
1.0
  9
$DISPSILH
 70
     0
  9
$DIMSCALE
 40
1.0
  9
$DIMASZ
 40
3.5
  9
$DIMEXO
 40
1.0
  9
$DIMDLI
 40
10.0
  9
$DIMRND
 40
0.0
  9
$DIMDLE
 40
0.0
  9
$DIMEXE
 40
1.0
  9
$DIMTP
 40
0.1
  9
$DIMTM
 40
0.1
  9
$DIMTXT
 40
3.5
  9
$DIMCEN
 40
0.0
  9
$DIMTSZ
 40
0.0
  9
$DIMTOL
 70
     0
  9
$DIMLIM
 70
     0
  9
$DIMTIH
 70
     0
  9
$DIMTOH
 70
     0
  9
$DIMSE1
 70
     0
  9
$DIMSE2
 70
     0
  9
$DIMTAD
 70
     1
  9
$DIMZIN
 70
     8
  9
$DIMBLK
  1

  9
$DIMASO
 70
     1
  9
$DIMSHO
 70
     1
  9
$DIMPOST
  1

  9
$DIMAPOST
  1
"
  9
$DIMALT
 70
     0
  9
$DIMALTD
 70
     2
  9
$DIMALTF
 40
0.0393701
  9
$DIMLFAC
 40
1.0
  9
$DIMTOFL
 70
     1
  9
$DIMTVP
 40
0.0
  9
$DIMTIX
 70
     0
  9
$DIMSOXD
 70
     0
  9
$DIMSAH
 70
     0
  9
$DIMBLK1
  1

  9
$DIMBLK2
  1

  9
$DIMSTYLE
  2
AM_DIN
  9
$DIMCLRD
 70
   256
  9
$DIMCLRE
 70
   256
  9
$DIMCLRT
 70
   140
  9
$DIMTFAC
 40
0.71
  9
$DIMGAP
 40
1.5
  9
$DIMJUST
 70
     0
  9
$DIMSD1
 70
     0
  9
$DIMSD2
 70
     0
  9
$DIMTOLJ
 70
     0
  9
$DIMTZIN
 70
     8
  9
$DIMALTZ
 70
     0
  9
$DIMALTTZ
 70
     0
  9
$DIMUPT
 70
     0
  9
$DIMDEC
 70
     2
  9
$DIMTDEC
 70
     3
  9
$DIMALTU
 70
     2
  9
$DIMALTTD
 70
     4
  9
$DIMTXSTY
  7
STANDARD
  9
$DIMAUNIT
 70
     0
  9
$DIMADEC
 70
     0
  9
$DIMALTRND
 40
0.0
  9
$DIMAZIN
 70
     2
  9
$DIMDSEP
 70
    46
  9
$DIMATFIT
 70
     3
  9
$DIMFRAC
 70
     0
  9
$DIMLDRBLK
  1

  9
$DIMLUNIT
 70
     2
  9
$DIMLWD
 70
    -1
  9
$DIMLWE
 70
    -1
  9
$DIMTMOVE
 70
     0
  9
$LUNITS
 70
     2
  9
$LUPREC
 70
     2
  9
$SKETCHINC
 40
1.0
  9
$FILLETRAD
 40
0.0
  9
$AUNITS
 70
     0
  9
$AUPREC
 70
     0
  9
$MENU
  1
.
  9
$ELEVATION
 40
0.0
  9
$PELEVATION
 40
0.0
  9
$THICKNESS
 40
0.0
  9
$LIMCHECK
 70
     0
  9
$CHAMFERA
 40
10.0
  9
$CHAMFERB
 40
10.0
  9
$CHAMFERC
 40
20.0
  9
$CHAMFERD
 40
0.0
  9
$SKPOLY
 70
     0
  9
$TDCREATE
 40
2453918.262673241
  9
$TDUCREATE
 40
2453918.179339908
  9
$TDUPDATE
 40
2457292.505910706
  9
$TDUUPDATE
 40
2457292.422577373
  9
$TDINDWG
 40
0.4406822801
  9
$TDUSRTIMER
 40
0.4406781250
  9
$USRTIMER
 70
     1
  9
$ANGBASE
 50
0.0
  9
$ANGDIR
 70
     0
  9
$PDMODE
 70
     0
  9
$PDSIZE
 40
0.0
  9
$PLINEWID
 40
0.0
  9
$SPLFRAME
 70
     0
  9
$SPLINETYPE
 70
     6
  9
$SPLINESEGS
 70
     8
  9
$HANDSEED
  5
8575
  9
$SURFTAB1
 70
     6
  9
$SURFTAB2
 70
     6
  9
$SURFTYPE
 70
     6
  9
$SURFU
 70
     6
  9
$SURFV
 70
     6
  9
$UCSBASE
  2

  9
$UCSNAME
  2

  9
$UCSORG
 10
0.0
 20
0.0
 30
0.0
  9
$UCSXDIR
 10
1.0
 20
0.0
 30
0.0
  9
$UCSYDIR
 10
0.0
 20
1.0
 30
0.0
  9
$UCSORTHOREF
  2

  9
$UCSORTHOVIEW
 70
     0
  9
$UCSORGTOP
 10
0.0
 20
0.0
 30
0.0
  9
$UCSORGBOTTOM
 10
0.0
 20
0.0
 30
0.0
  9
$UCSORGLEFT
 10
0.0
 20
0.0
 30
0.0
  9
$UCSORGRIGHT
 10
0.0
 20
0.0
 30
0.0
  9
$UCSORGFRONT
 10
0.0
 20
0.0
 30
0.0
  9
$UCSORGBACK
 10
0.0
 20
0.0
 30
0.0
  9
$PUCSBASE
  2

  9
$PUCSNAME
  2

  9
$PUCSORG
 10
0.0
 20
0.0
 30
0.0
  9
$PUCSXDIR
 10
1.0
 20
0.0
 30
0.0
  9
$PUCSYDIR
 10
0.0
 20
1.0
 30
0.0
  9
$PUCSORTHOREF
  2

  9
$PUCSORTHOVIEW
 70
     0
  9
$PUCSORGTOP
 10
0.0
 20
0.0
 30
0.0
  9
$PUCSORGBOTTOM
 10
0.0
 20
0.0
 30
0.0
  9
$PUCSORGLEFT
 10
0.0
 20
0.0
 30
0.0
  9
$PUCSORGRIGHT
 10
0.0
 20
0.0
 30
0.0
  9
$PUCSORGFRONT
 10
0.0
 20
0.0
 30
0.0
  9
$PUCSORGBACK
 10
0.0
 20
0.0
 30
0.0
  9
$USERI1
 70
     0
  9
$USERI2
 70
     0
  9
$USERI3
 70
     0
  9
$USERI4
 70
     0
  9
$USERI5
 70
     0
  9
$USERR1
 40
0.0
  9
$USERR2
 40
0.0
  9
$USERR3
 40
0.0
  9
$USERR4
 40
0.0
  9
$USERR5
 40
0.0
  9
$WORLDVIEW
 70
     1
  9
$SHADEDGE
 70
     3
  9
$SHADEDIF
 70
    70
  9
$TILEMODE
 70
     1
  9
$MAXACTVP
 70
    64
  9
$PINSBASE
 10
0.0
 20
0.0
 30
0.0
  9
$PLIMCHECK
 70
     0
  9
$PEXTMIN
 10
1.000000000000000E+20
 20
1.000000000000000E+20
 30
1.000000000000000E+20
  9
$PEXTMAX
 10
-1.000000000000000E+20
 20
-1.000000000000000E+20
 30
-1.000000000000000E+20
  9
$PLIMMIN
 10
0.0
 20
0.0
  9
$PLIMMAX
 10
420.0
 20
297.0
  9
$UNITMODE
 70
     0
  9
$VISRETAIN
 70
     1
  9
$PLINEGEN
 70
     0
  9
$PSLTSCALE
 70
     1
  9
$TREEDEPTH
 70
  3020
  9
$CMLSTYLE
  2
Standard
  9
$CMLJUST
 70
     0
  9
$CMLSCALE
 40
20.0
  9
$PROXYGRAPHICS
 70
     1
  9
$MEASUREMENT
 70
     1
  9
$CELWEIGHT
370
    -1
  9
$ENDCAPS
280
     0
  9
$JOINSTYLE
280
     0
  9
$LWDISPLAY
290
     0
  9
$INSUNITS
 70
     4
  9
$HYPERLINKBASE
  1

  9
$STYLESHEET
  1

  9
$XEDIT
290
     1
  9
$CEPSNTYPE
380
     0
  9
$PSTYLEMODE
290
     1
  9
$FINGERPRINTGUID
  2
{E66C8CC1-E66B-408F-9010-06FD783B68A0}
  9
$VERSIONGUID
  2
{ECDD7A0B-0B6F-465E-9C18-61C8A36587A5}
  9
$EXTNAMES
290
     1
  9
$PSVPSCALE
 40
0.0
  9
$OLESTARTUP
290
     0
  9
$SORTENTS
280
   127
  9
$INDEXCTL
280
     0
  9
$HIDETEXT
280
     1
  9
$XCLIPFRAME
290
     0
  9
$HALOGAP
280
     0
  9
$OBSCOLOR
 70
   257
  9
$OBSLTYPE
280
     0
  9
$INTERSECTIONDISPLAY
280
     0
  9
$INTERSECTIONCOLOR
 70
   257
  9
$DIMASSOC
280
     2
  9
$PROJECTNAME
  1

  0
ENDSEC
  0
SECTION
  2
CLASSES
  0
CLASS
  1
ACDBDICTIONARYWDFLT
  2
AcDbDictionaryWithDefault
  3
ObjectDBX Classes
 90
        0
 91
        1
280
     0
281
     0
  0
CLASS
  1
ACME_DOCUMENT
  2
AcMeDbDoc
  3
AcMeServices
 90
     1024
 91
        2
280
     0
281
     0
  0
CLASS
  1
ACMESCOPE
  2
AcMeScope
  3
AcMeServices
 90
     1024
 91
        1
280
     0
281
     0
  0
CLASS
  1
ACMECOMMANDHISTORY
  2
AcMeCommandHistory
  3
AcMeServices
 90
     1024
 91
        1
280
     0
281
     0
  0
CLASS
  1
ACIMSYSVARMAN
  2
AcImSysVarManager
  3
AcMeServices
 90
     1024
 91
        4
280
     0
281
     0
  0
CLASS
  1
ACIMREALSYSVAR
  2
AcImRealSysVar
  3
AcMeServices
 90
     1024
 91
        1
280
     0
281
     0
  0
CLASS
  1
ACIMINTSYSVAR
  2
AcImIntSysVar
  3
AcMeServices
 90
     1024
 91
       27
280
     0
281
     0
  0
CLASS
  1
ACMEDRAWINGMAN
  2
AcMeDrawingMan
  3
AcMeServices
 90
     1024
 91
        0
280
     0
281
     0
  0
CLASS
  1
ACMEVIEW
  2
AcMeView
  3
AcMeServices
 90
     1024
 91
        0
280
     0
281
     0
  0
CLASS
  1
ACDBENTITYCACHE
  2
AcMeEntityCache
  3
AcMeServices
 90
     1024
 91
        1
280
     0
281
     0
  0
CLASS
  1
GSMANAGER
  2
AcMeGSManager
  3
AcMeServices
 90
     1024
 91
        0
280
     0
281
     0
  0
CLASS
  1
AMDTINTERNALREACTOR
  2
AmdtInternalReactor
  3
AcMeServices
 90
     1024
 91
        1
280
     0
281
     0
  0
CLASS
  1
ACMESTATEMGR
  2
AcMeStateMgr
  3
AcMeServices
 90
     1024
 91
        1
280
     0
281
     0
  0
CLASS
  1
ACGREFMASTER
  2
AcGrefMaster
  3
AcAttribServices
 90
     1024
 91
        1
280
     0
281
     0
  0
CLASS
  1
ACME_DATABASE
  2
AcMeDbDatabase
  3
AcMeServices
 90
     1024
 91
        2
280
     0
281
     0
  0
CLASS
  1
ACRFINSADJUSTERMGR
  2
AcRfInsAdjusterMgr
  3
AcMeServices
 90
     1024
 91
        1
280
     0
281
     0
  0
CLASS
  1
ACGREFACADMASTER
  2
AcGrefacadMaster
  3
AcGrefServices
 90
     1024
 91
        1
280
     0
281
     0
  0
CLASS
  1
AMIMASTER
  2
AmiMaster
  3
AmiServices
 90
     1024
 91
        1
280
     0
281
     0
  0
CLASS
  1
AMGSETTINGSOBJ
  2
AmgSettingsObj
  3
"AcadM|Product Description: AutoCAD Mechanical|Company: Autodesk, Inc."
 90
     1024
 91
        2
280
     0
281
     0
  0
CLASS
  1
ACMDATADICTIONARY
  2
AcmDataDictionary
  3
"AcmSymBB|Product Description: AutoCAD Mechanical|Company: Autodesk, Inc."
 90
     1024
 91
        1
280
     0
281
     0
  0
CLASS
  1
ACMDATAENTRYBLOCK
  2
AcmDataEntryBlock
  3
AcmSymBB|Product Description: AutoCAD Mechanical|Company: Autodesk, Inc.
 90
     1024
 91
        0
280
     0
281
     0
  0
CLASS
  1
ACIMSTRSYSVAR
  2
AcImStrSysVar
  3
AcMeServices
 90
     1024
 91
        5
280
     0
281
     0
  0
CLASS
  1
ACMSTANDARDDIN
  2
AcmStandardDIN
  3
"Amdt_StdImp|Product Description: AutoCAD Mechanical|Company: Autodesk, Inc."
 90
     1024
 91
        1
280
     0
281
     0
  0
CLASS
  1
AMGOBJPROPCFG
  2
AmgObjPropCfg
  3
"AmgLay|Product Description: AutoCAD Mechanical|Company: Autodesk, Inc."
 90
     1025
 91
        1
280
     0
281
     0
  0
CLASS
  1
AMDTEDGESTANDARDDIN
  2
AmdtEdgeStdDIN
  3
"Amdt_StdImp|Product Description: AutoCAD Mechanical|Company: Autodesk, Inc."
 90
     1024
 91
        0
280
     0
281
     0
  0
CLASS
  1
ACMSURFSTANDARDDIN
  2
AcmSurfTextStdDIN
  3
"Amdt_StdImp|Product Description: AutoCAD Mechanical|Company: Autodesk, Inc."
 90
     1024
 91
        0
280
     0
281
     0
  0
CLASS
  1
ACMFCFSTANDARDDIN
  2
AcmFCFStdDIN
  3
"Amdt_StdImp|Product Description: AutoCAD Mechanical|Company: Autodesk, Inc."
 90
     1024
 91
        1
280
     0
281
     0
  0
CLASS
  1
ACMWELDSTANDARDDIN
  2
AcmWeldingStdDIN
  3
"Amdt_StdImp|Product Description: AutoCAD Mechanical|Company: Autodesk, Inc."
 90
     1024
 91
        1
280
     0
281
     0
  0
CLASS
  1
ACMIDSTANDARDDIN
  2
AcmIdStdDIN
  3
"Amdt_StdImp|Product Description: AutoCAD Mechanical|Company: Autodesk, Inc."
 90
     1024
 91
        1
280
     0
281
     0
  0
CLASS
  1
ACMDATUMSTANDARDDIN
  2
AcmDatumStdDIN
  3
"Amdt_StdImp|Product Description: AutoCAD Mechanical|Company: Autodesk, Inc."
 90
     1024
 91
        1
280
     0
281
     0
  0
CLASS
  1
ACMBOMSTANDARDDIN
  2
AcmBOMStdDIN
  3
"Amdt_StdImp|Product Description: AutoCAD Mechanical|Company: Autodesk, Inc."
 90
     1024
 91
        1
280
     0
281
     0
  0
CLASS
  1
ACMDETAILSTANDARDDIN
  2
AmdtDetailSymStdDIN
  3
"Amdt_StdImp|Product Description: AutoCAD Mechanical|Company: Autodesk, Inc."
 90
     1024
 91
        1
280
     0
281
     0
  0
CLASS
  1
ACMSECTIONSTANDARDDIN
  2
AmdtSectionSymStdDIN
  3
"Amdt_StdImp|Product Description: AutoCAD Mechanical|Company: Autodesk, Inc."
 90
     1024
 91
        1
280
     0
281
     0
  0
CLASS
  1
ACMCENTERLINESTANDARDDIN
  2
AmdtCenterLineStdDIN
  3
"Amdt_StdImp|Product Description: AutoCAD Mechanical|Company: Autodesk, Inc."
 90
     1024
 91
        1
280
     0
281
     0
  0
CLASS
  1
ACMNOTESTANDARDDIN
  2
AmdtNoteStdDIN
  3
"Amdt_StdImp|Product Description: AutoCAD Mechanical|Company: Autodesk, Inc."
 90
     1024
 91
        1
280
     0
281
     0
  0
CLASS
  1
ACAMGLAYSTD
  2
AcAmgLayStd
  3
"AmgLay|Product Description: AutoCAD Mechanical|Company: Autodesk, Inc."
 90
     1024
 91
        1
280
     0
281
     0
  0
CLASS
  1
ACAMGDIMSTD
  2
AcAmgDimStd
  3
"AmgDim|Product Description: AutoCAD Mechanical|Company: Autodesk, Inc."
 90
     1024
 91
        1
280
     0
281
     0
  0
CLASS
  1
ACAMGHOLECHARTSTDDIN
  2
AcAmgHoleChartStdDIN
  3
AmgDim|Product Description: AutoCAD Mechanical|Company: Autodesk, Inc.
 90
     1024
 91
        1
280
     0
281
     0
  0
CLASS
  1
ACAMGTITLESTD
  2
AcAmgTitleStd
  3
"AmgTitle|Product Description: AutoCAD Mechanical|Company: Autodesk, Inc."
 90
     4095
 91
        1
280
     0
281
     0
  0
CLASS
  1
LAYER_INDEX
  2
AcDbLayerIndex
  3
ObjectDBX Classes
 90
        0
 91
        0
280
     0
281
     0
  0
CLASS
  1
IDBUFFER
  2
AcDbIdBuffer
  3
ObjectDBX Classes
 90
        0
 91
        0
280
     0
281
     0
  0
CLASS
  1
DICTIONARYVAR
  2
AcDbDictionaryVar
  3
ObjectDBX Classes
 90
        0
 91
       10
280
     0
281
     0
  0
CLASS
  1
ACAMGFILTERDAT
  2
AcAmgFilterDat
  3
"AcadM|Product Description: AutoCAD Mechanical|Company: Autodesk, Inc."
 90
     1024
 91
        0
280
     0
281
     0
  0
CLASS
  1
ACMSTANDARDANSI
  2
AcmStandardANSI
  3
"Amdt_StdImp|Product Description: AutoCAD Mechanical|Company: Autodesk, Inc."
 90
     1024
 91
        0
280
     0
281
     0
  0
CLASS
  1
ACMSURFSTANDARDANSI
  2
AcmSurfTextStdANSI
  3
"Amdt_StdImp|Product Description: AutoCAD Mechanical|Company: Autodesk, Inc."
 90
     1024
 91
        0
280
     0
281
     0
  0
CLASS
  1
ACMFCFSTANDARDANSI
  2
AcmFCFStdANSI
  3
"Amdt_StdImp|Product Description: AutoCAD Mechanical|Company: Autodesk, Inc."
 90
     1024
 91
        0
280
     0
281
     0
  0
CLASS
  1
ACMWELDSTANDARDANSI
  2
AcmWeldingStdANSI
  3
"Amdt_StdImp|Product Description: AutoCAD Mechanical|Company: Autodesk, Inc."
 90
     1024
 91
        0
280
     0
281
     0
  0
CLASS
  1
ACMIDSTANDARDANSI
  2
AcmIdStdANSI
  3
"Amdt_StdImp|Product Description: AutoCAD Mechanical|Company: Autodesk, Inc."
 90
     1024
 91
        0
280
     0
281
     0
  0
CLASS
  1
ACMDATUMSTANDARDANSI
  2
AcmDatumStdANSI
  3
"Amdt_StdImp|Product Description: AutoCAD Mechanical|Company: Autodesk, Inc."
 90
     1024
 91
        0
280
     0
281
     0
  0
CLASS
  1
ACMBOMSTANDARDANSI
  2
AcmBOMStdANSI
  3
"Amdt_StdImp|Product Description: AutoCAD Mechanical|Company: Autodesk, Inc."
 90
     1024
 91
        0
280
     0
281
     0
  0
CLASS
  1
ACMDETAILSTANDARDANSI
  2
AmdtDetailSymStdANSI
  3
"Amdt_StdImp|Product Description: AutoCAD Mechanical|Company: Autodesk, Inc."
 90
     1024
 91
        0
280
     0
281
     0
  0
CLASS
  1
ACMSECTIONSTANDARDANSI
  2
AmdtSectionSymStdANSI
  3
"Amdt_StdImp|Product Description: AutoCAD Mechanical|Company: Autodesk, Inc."
 90
     1024
 91
        0
280
     0
281
     0
  0
CLASS
  1
ACMCENTERLINESTANDARDANSI
  2
AmdtCenterLineStdANSI
  3
"Amdt_StdImp|Product Description: AutoCAD Mechanical|Company: Autodesk, Inc."
 90
     1024
 91
        0
280
     0
281
     0
  0
CLASS
  1
ACMNOTESTANDARDANSI
  2
AmdtNoteStdANSI
  3
"Amdt_StdImp|Product Description: AutoCAD Mechanical|Company: Autodesk, Inc."
 90
     1024
 91
        0
280
     0
281
     0
  0
CLASS
  1
ACAMGHOLECHARTSTDANSI
  2
AcAmgHoleChartStdANSI
  3
AmgDim|Product Description: AutoCAD Mechanical|Company: Autodesk, Inc.
 90
     1024
 91
        0
280
     0
281
     0
  0
CLASS
  1
AMDTFORMULAUPDATEDISPATCHER
  2
AmdtFormulaUpdateDispatcher
  3
AcMeServices
 90
     1024
 91
        0
280
     0
281
     0
  0
CLASS
  1
DIMASSOC
  2
AcDbDimAssoc
  3
"AcDbDimAssoc|Product Desc:     AcDim ARX App For Dimension|Company:          Autodesk, Inc.|WEB Address:      www.autodesk.com"
 90
        0
 91
        0
280
     0
281
     0
  0
CLASS
  1
MATERIAL
  2
AcDbMaterial
  3
ObjectDBX Classes
 90
     1153
 91
        3
280
     0
281
     0
  0
CLASS
  1
VISUALSTYLE
  2
AcDbVisualStyle
  3
ObjectDBX Classes
 90
     4095
 91
       26
280
     0
281
     0
  0
CLASS
  1
TABLESTYLE
  2
AcDbTableStyle
  3
ObjectDBX Classes
 90
     4095
 91
        1
280
     0
281
     0
  0
CLASS
  1
SCALE
  2
AcDbScale
  3
ObjectDBX Classes
 90
     1153
 91
       17
280
     0
281
     0
  0
CLASS
  1
MLEADERSTYLE
  2
AcDbMLeaderStyle
  3
ACDB_MLEADERSTYLE_CLASS
 90
     4095
 91
        1
280
     0
281
     0
  0
CLASS
  1
AM_DRAWING_MGR
  2
AcDmDwgMgr
  3
AcMechDwgViewMgmt
 90
     1024
 91
        1
280
     0
281
     0
  0
CLASS
  1
AM_DWG_DOCUMENT
  2
AcDmDwgDocument
  3
AcMechDwgViewMgmt
 90
     1024
 91
        1
280
     0
281
     0
  0
CLASS
  1
AM_DWG_SHEET
  2
AcDmSheet
  3
AcMechDwgViewMgmt
 90
     1024
 91
        2
280
     0
281
     0
  0
CLASS
  1
AM_VIEWDIMPARMAP
  2
AcDmViewDimParMap
  3
AcMechDwgViewMgmt
 90
     1024
 91
        2
280
     0
281
     0
  0
CLASS
  1
AM_DWGMGR_NAME
  2
AcDmDwgMgrName
  3
AcMechDwgViewMgmt
 90
     1024
 91
        1
280
     0
281
     0
  0
CLASS
  1
AMDTMENUSTATEMGR
  2
AmdtMenuStateMgr
  3
McadcomServices
 90
     1024
 91
        1
280
     0
281
     0
  0
CLASS
  1
AMDTMCOMMENUSTATE
  2
AmdtMcomMenuState
  3
McadcomServices
 90
     1024
 91
        1
280
     0
281
     0
  0
CLASS
  1
MAPIAMMOUDLE
  2
MApiAmModule
  3
MApiAmServices
 90
     1024
 91
        1
280
     0
281
     0
  0
CLASS
  1
AMDTADMENUSTATE
  2
AmdtAdMenuState
  3
DesignerServices
 90
     1024
 91
        0
280
     0
281
     0
  0
CLASS
  1
ADAPPL
  2
AcAdAppl
  3
DesignerAssemblies
 90
     1024
 91
        0
280
     0
281
     0
  0
CLASS
  1
DEPMGR
  2
AcAdDepMgr
  3
DesignerAssemblies
 90
     1024
 91
        0
280
     0
281
     0
  0
CLASS
  1
PARAMMGR
  2
AcAdParamMgr
  3
DesignerAssemblies
 90
     1024
 91
        0
280
     0
281
     0
  0
CLASS
  1
PARAMSCOPE
  2
AcAdParamScope
  3
DesignerAssemblies
 90
     1024
 91
        0
280
     0
281
     0
  0
CLASS
  1
NAMEDAPPL
  2
AcAdNamedAppl
  3
DesignerAssemblies
 90
     1024
 91
        0
280
     0
281
     0
  0
CLASS
  1
AMDTDMMENUSTATE
  2
AmdtDmMenuState
  3
AcMechDwgViewMgmt
 90
     1024
 91
        1
280
     0
281
     0
  0
CLASS
  1
AMDTAMMENUSTATE
  2
AmdtAmMenuState
  3
DesignerAssemblies
 90
     1024
 91
        1
280
     0
281
     0
  0
CLASS
  1
ACAMPROJECT
  2
AcAmProject
  3
DesignerAssemblies
 90
     1024
 91
        1
280
     0
281
     0
  0
CLASS
  1
ACAMGRCOMPDEF
  2
AcAmGrCompDef
  3
DesignerAssemblies
 90
     1024
 91
        1
280
     0
281
     0
  0
CLASS
  1
ACCMCONTEXT
  2
AcCmContext
  3
DesignerAssemblies
 90
     1024
 91
        0
280
     0
281
     0
  0
CLASS
  1
ACAMCOMPDEF
  2
AcAmCompDef
  3
DesignerAssemblies
 90
     1024
 91
        1
280
     0
281
     0
  0
CLASS
  1
ACAMCOMPDEFMGR
  2
AcAmCompDefMgr
  3
DesignerAssemblies
 90
     1024
 91
        1
280
     0
281
     0
  0
CLASS
  1
AMCONTEXTMGR
  2
AcAmContextMgr
  3
DesignerAssemblies
 90
     1024
 91
        1
280
     0
281
     0
  0
CLASS
  1
ACAMCONTEXTMODELER
  2
AcAmContextModeler
  3
DesignerAssemblies
 90
     1024
 91
        1
280
     0
281
     0
  0
CLASS
  1
ACRFATTGENMGR
  2
AcRfAttGeneralMgr
  3
AcAttribServices
 90
     1024
 91
        0
280
     0
281
     0
  0
CLASS
  1
ACRFOBJATTMGR
  2
AcRfObjAttGroupMgr
  3
AcAttribServices
 90
     1024
 91
        0
280
     0
281
     0
  0
CLASS
  1
ACRFMCADAPIATTHOLDER
  2
AcRfMCADAPIAttHolder
  3
AcAttribServices
 90
     1024
 91
        0
280
     0
281
     0
  0
CLASS
  1
AMDTSYSATTR
  2
AmdtSystemAttribute
  3
AcAttribServices
 90
     1024
 91
        0
280
     0
281
     0
  0
CLASS
  1
ACMTHREADLINESTANDARDDIN
  2
AmdtThreadLineStdDIN
  3
"Amdt_StdImp|Product Description: AutoCAD Mechanical|Company: Autodesk, Inc."
 90
     1024
 91
        1
280
     0
281
     0
  0
CLASS
  1
ACMTAPERSTANDARDDIN
  2
AcmTaperStdDIN
  3
"Amdt_StdImp|Product Description: AutoCAD Mechanical|Company: Autodesk, Inc."
 90
     1024
 91
        1
280
     0
281
     0
  0
CLASS
  1
ACMANOOTATIONVIEWSTANDARDDIN
  2
AmdtAnViewStdDIN
  3
"Amdt_StdImp|Product Description: AutoCAD Mechanical|Company: Autodesk, Inc."
 90
     1024
 91
        1
280
     0
281
     0
  0
CLASS
  1
ACMTHREADLINESTANDARDANSI
  2
AmdtThreadLineStdANSI
  3
"Amdt_StdImp|Product Description: AutoCAD Mechanical|Company: Autodesk, Inc."
 90
     1024
 91
        0
280
     0
281
     0
  0
CLASS
  1
ACMTAPERSTANDARDANSI
  2
AcmTaperStdANSI
  3
"Amdt_StdImp|Product Description: AutoCAD Mechanical|Company: Autodesk, Inc."
 90
     1024
 91
        0
280
     0
281
     0
  0
CLASS
  1
ACMANOOTATIONVIEWSTANDARDANSI
  2
AmdtAnViewStdANSI
  3
"Amdt_StdImp|Product Description: AutoCAD Mechanical|Company: Autodesk, Inc."
 90
     1024
 91
        0
280
     0
281
     0
  0
CLASS
  1
CATALOGSTATE
  2
AcAmCatalogState
  3
DesignerAssemblies
 90
     1024
 91
        0
280
     0
281
     0
  0
CLASS
  1
ACAMGRCOMPDEFSET
  2
AcAmGrCompDefSet
  3
DesignerAssemblies
 90
     1024
 91
        1
280
     0
281
     0
  0
CLASS
  1
AMDTBROWSERDBTAB
  2
AmdtBrowserDbTab
  3
McadcomServices
 90
     1024
 91
        1
280
     0
281
     0
  0
CLASS
  1
CBROWSERAPPOBJECT
  2
CBrowserAppObject
  3
McadcomServices
 90
     1024
 91
        2
280
     0
281
     0
  0
CLASS
  1
DM_PLACEHOLDER
  2
AcDmSelsetPlaceholder
  3
AcMechDwgViewMgmt
 90
     1024
 91
        1
280
     0
281
     0
  0
CLASS
  1
EXACXREFPANELOBJECT
  2
ExAcXREFPanelObject
  3
EXAC_ESW
 90
     1025
 91
        0
280
     0
281
     0
  0
CLASS
  1
NPOCOLLECTION
  2
AcDbImpNonPersistentObjectsCollection
  3
ObjectDBX Classes
 90
     1153
 91
        1
280
     0
281
     0
  0
CLASS
  1
CAMSSTRUCTBTNSTATE
  2
StructBtnState
  3
DesignerAssemblies
 90
     1024
 91
        0
280
     0
281
     0
  0
CLASS
  1
CELLSTYLEMAP
  2
AcDbCellStyleMap
  3
ObjectDBX Classes
 90
     1152
 91
        3
280
     0
281
     0
  0
CLASS
  1
AMDTEDGESTANDARDDIN13715
  2
AmdtEdgeStdDIN13715
  3
"Amdt_StdImp|Product Description: AutoCAD Mechanical|Company: Autodesk, Inc."
 90
     1024
 91
        1
280
     0
281
     0
  0
CLASS
  1
ACMSURFSTANDARDDIN2002
  2
AcmSurfTextStdDIN2002
  3
"Amdt_StdImp|Product Description: AutoCAD Mechanical|Company: Autodesk, Inc."
 90
     1024
 91
        1
280
     0
281
     0
  0
CLASS
  1
AMDTNOTETEMPLATEDB
  2
AmdtNoteTemplateDB
  3
AcmSymBB|Product Description: AutoCAD Mechanical|Company: Autodesk, Inc.
 90
     1024
 91
        6
280
     0
281
     0
  0
CLASS
  1
SORTENTSTABLE
  2
AcDbSortentsTable
  3
ObjectDBX Classes
 90
        0
 91
        3
280
     0
281
     0
  0
CLASS
  1
AEC_REFEDIT_STATUS_TRACKER
  2
AecDbRefEditStatusTracker
  3
AecArchBase60|Product Desc: Autodesk Architectural Desktop 2007 |Company: Autodesk,Inc. |WEB Address: www.autodesk.com
 90
      129
 91
        1
280
     0
281
     0
  0
CLASS
  1
IMAGE
  2
AcDbRasterImage
  3
ISM
 90
     2175
 91
        0
280
     0
281
     1
  0
CLASS
  1
IMAGEDEF_REACTOR
  2
AcDbRasterImageDefReactor
  3
ISM
 90
        1
 91
        0
280
     0
281
     0
  0
CLASS
  1
IMAGEDEF
  2
AcDbRasterImageDef
  3
ISM
 90
        0
 91
        2
280
     0
281
     0
  0
CLASS
  1
RASTERVARIABLES
  2
AcDbRasterVariables
  3
ISM
 90
        0
 91
        1
280
     0
281
     0
  0
ENDSEC
  0
SECTION
  2
TABLES
  0
TABLE
  2
VPORT
  5
8
102
{ACAD_XDICTIONARY
360
3120
102
}
330
0
100
AcDbSymbolTable
 70
     1
  0
VPORT
  5
2FCA
330
8
100
AcDbSymbolTableRecord
100
AcDbViewportTableRecord
  2
*Active
 70
     0
 10
0.0
 20
0.0
 11
1.0
 21
1.0
 12
-159.0178067920537
 22
159.3376249630201
 13
0.0
 23
0.0
 14
2.5
 24
2.5
 15
10.0
 25
10.0
 16
0.0
 26
0.0
 36
1.0
 17
0.0
 27
0.0
 37
0.0
 40
672.9892861801966
 41
2.261311172668513
 42
50.0
 43
0.0
 44
0.0
 50
0.0
 51
0.0
 71
     0
 72
   100
 73
     1
 74
     3
 75
     0
 76
     0
 77
     0
 78
     0
281
     0
 65
     1
110
0.0
120
0.0
130
0.0
111
1.0
121
0.0
131
0.0
112
0.0
122
1.0
132
0.0
 79
     0
146
0.0
  0
ENDTAB
  0
TABLE
  2
LTYPE
  5
5
330
0
100
AcDbSymbolTable
 70
    49
  0
LTYPE
  5
14
330
5
100
AcDbSymbolTableRecord
100
AcDbLinetypeTableRecord
  2
ByBlock
 70
     0
  3

 72
    65
 73
     0
 40
0.0
  0
LTYPE
  5
15
330
5
100
AcDbSymbolTableRecord
100
AcDbLinetypeTableRecord
  2
ByLayer
 70
     0
  3

 72
    65
 73
     0
 40
0.0
  0
LTYPE
  5
16
330
5
100
AcDbSymbolTableRecord
100
AcDbLinetypeTableRecord
  2
Continuous
 70
     0
  3
Solid line
 72
    65
 73
     0
 40
0.0
  0
LTYPE
  5
50
330
5
100
AcDbSymbolTableRecord
100
AcDbLinetypeTableRecord
  2
Amconstr
 70
     0
  3
_______________________
 72
    65
 73
     2
 40
9999.0
 49
9999.0
 74
     0
 49
0.0
 74
     0
  0
LTYPE
  5
55
330
5
100
AcDbSymbolTableRecord
100
AcDbLinetypeTableRecord
  2
Amzigzag
 70
     0
  3
/\/-/\/-/\/-/\/-/\/-/\/
 72
    65
 73
     2
 40
11.0001
 49
0.0001
 74
     4
 75
   135
340
54
 46
0.04
 50
0.0
 44
0.0
 45
0.0
 49
-11.0
 74
     0
  0
LTYPE
  5
56
330
5
100
AcDbSymbolTableRecord
100
AcDbLinetypeTableRecord
  2
AM_DIN_F_W050
 70
     0
  3
__ __ __ __ __ __ __ __ __ __ __ __ __ __ __
 72
    65
 73
     2
 40
6.25
 49
4.75
 74
     0
 49
-1.5
 74
     0
  0
LTYPE
  5
57
330
5
100
AcDbSymbolTableRecord
100
AcDbLinetypeTableRecord
  2
AM_DIN_G_W050
 70
     0
  3
____ . ____ . ____ . ____ . ____ . ____ . ____
 72
    65
 73
     4
 40
13.75
 49
9.75
 74
     0
 49
-1.5
 74
     0
 49
1.0
 74
     0
 49
-1.5
 74
     0
  0
LTYPE
  5
58
330
5
100
AcDbSymbolTableRecord
100
AcDbLinetypeTableRecord
  2
AM_DIN_K_W050
 70
     0
  3
_____ . . _____ . . _____ . . ____ .. ____
 72
    65
 73
     6
 40
16.25
 49
9.75
 74
     0
 49
-1.5
 74
     0
 49
1.0
 74
     0
 49
-1.5
 74
     0
 49
1.0
 74
     0
 49
-1.5
 74
     0
  0
LTYPE
  5
59
330
5
100
AcDbSymbolTableRecord
100
AcDbLinetypeTableRecord
  2
AM_DIN_G_W050x2
 70
     0
  3
__ . __ . __ . __ . __ . __
 72
    65
 73
     4
 40
6.875
 49
4.75
 74
     0
 49
-0.875
 74
     0
 49
0.375
 74
     0
 49
-0.875
 74
     0
  0
LTYPE
  5
5A
330
5
100
AcDbSymbolTableRecord
100
AcDbLinetypeTableRecord
  2
AM_DIN_F_W050x2
 70
     0
  3
 _ _ _ _ _ _ _ _ _ _ _ _
 72
    65
 73
     2
 40
3.125
 49
2.25
 74
     0
 49
-0.875
 74
     0
  0
LTYPE
  5
68
330
5
100
AcDbSymbolTableRecord
100
AcDbLinetypeTableRecord
  2
ACDINWELD
 70
     0
  3
_ _ _ _ _
 72
    65
 73
     2
 40
2.0
 49
2.0
 74
     0
 49
-1.0
 74
     0
  0
LTYPE
  5
69
330
5
100
AcDbSymbolTableRecord
100
AcDbLinetypeTableRecord
  2
ACDINTGB
 70
     0
  3
__ . . __ . .
 72
    65
 73
     6
 40
9.0
 49
4.0
 74
     0
 49
-1.0
 74
     0
 49
1.0
 74
     0
 49
-1.0
 74
     0
 49
1.0
 74
     0
 49
-1.0
 74
     0
  0
LTYPE
  5
6A
330
5
100
AcDbSymbolTableRecord
100
AcDbLinetypeTableRecord
  2
ACDINTGL
 70
     0
  3
_ _ _ _ _
 72
    65
 73
     2
 40
3.0
 49
2.0
 74
     0
 49
-1.0
 74
     0
  0
LTYPE
  5
6C
330
5
100
AcDbSymbolTableRecord
100
AcDbLinetypeTableRecord
  2
CENTER
 70
     0
  3
__ . __
 72
    65
 73
     4
 40
7.0
 49
4.0
 74
     0
 49
-1.0
 74
     0
 49
1.0
 74
     0
 49
-1.0
 74
     0
  0
LTYPE
  5
33D
330
5
100
AcDbSymbolTableRecord
100
AcDbLinetypeTableRecord
  2
PHANTOM2
 70
     0
  3
Phantom (.5x) ___ _ _ ___ _ _ ___ _ _ ___ _ _
 72
    65
 73
     6
 40
1.25
 49
0.625
 74
     0
 49
-0.125
 74
     0
 49
0.125
 74
     0
 49
-0.125
 74
     0
 49
0.125
 74
     0
 49
-0.125
 74
     0
  0
LTYPE
  5
341
330
5
100
AcDbSymbolTableRecord
100
AcDbLinetypeTableRecord
  2
ACANSTGB
 70
     0
  3
__ . . __ . .
 72
    65
 73
     6
 40
0.35433070866
 49
0.15748031496
 74
     0
 49
-0.03937007874
 74
     0
 49
0.03937007874
 74
     0
 49
-0.03937007874
 74
     0
 49
0.03937007874
 74
     0
 49
-0.03937007874
 74
     0
  0
LTYPE
  5
342
330
5
100
AcDbSymbolTableRecord
100
AcDbLinetypeTableRecord
  2
ACANSTGL
 70
     0
  3
_ _ _ _ _
 72
    65
 73
     2
 40
0.11811023622
 49
0.07874015748
 74
     0
 49
-0.03937007874
 74
     0
  0
LTYPE
  5
303B
330
5
100
AcDbSymbolTableRecord
100
AcDbLinetypeTableRecord
  2
HIDDEN
 70
     0
  3
Verdeckt
 72
    65
 73
     2
 40
9.525
 49
6.349999999999999
 74
     0
 49
-3.174999999999999
 74
     0
  0
LTYPE
  5
3074
330
5
100
AcDbSymbolTableRecord
100
AcDbLinetypeTableRecord
  2
CENTER2
 70
     0
  3
Center (.5x) ___ _ ___ _ ___ _ ___ _ ___ _ ___
 72
    65
 73
     4
 40
1.125
 49
0.75
 74
     0
 49
-0.125
 74
     0
 49
0.125
 74
     0
 49
-0.125
 74
     0
  0
LTYPE
  5
3075
330
5
100
AcDbSymbolTableRecord
100
AcDbLinetypeTableRecord
  2
HIDDEN2
 70
     0
  3
Hidden (.5x) _ _ _ _ _ _ _ _ _ _ _ _ _ _ _ _ _
 72
    65
 73
     2
 40
0.1875
 49
0.125
 74
     0
 49
-0.0625
 74
     0
  0
LTYPE
  5
3076
330
5
100
AcDbSymbolTableRecord
100
AcDbLinetypeTableRecord
  2
Amzigzag2
 70
     0
  3
/\/-/\/-/\/-/\/-/\/-/\/
 72
    65
 73
     2
 40
0.4401
 49
0.0001
 74
     4
 75
   136
340
3077
 46
0.0016
 50
0.0
 44
0.0
 45
0.0
 49
-0.4400000000000001
 74
     0
  0
LTYPE
  5
31A1
330
5
100
AcDbSymbolTableRecord
100
AcDbLinetypeTableRecord
  2
AM_ISO02W050
 70
     0
  3
__ __ __ __ __ __ __ __ __ __ __ __ __ __ __
 72
    65
 73
     2
 40
7.5
 49
6.0
 74
     0
 49
-1.5
 74
     0
  0
LTYPE
  5
31A2
330
5
100
AcDbSymbolTableRecord
100
AcDbLinetypeTableRecord
  2
AM_ISO08W050
 70
     0
  3
____ . ____ . ____ . ____ . ____ . ____ . ____
 72
    65
 73
     4
 40
18.0
 49
12.0
 74
     0
 49
-1.5
 74
     0
 49
3.0
 74
     0
 49
-1.5
 74
     0
  0
LTYPE
  5
31A3
330
5
100
AcDbSymbolTableRecord
100
AcDbLinetypeTableRecord
  2
AM_ISO09W050
 70
     0
  3
_____ . . _____ . . _____ . . ____ .. ____
 72
    65
 73
     6
 40
22.5
 49
12.0
 74
     0
 49
-1.5
 74
     0
 49
3.0
 74
     0
 49
-1.5
 74
     0
 49
3.0
 74
     0
 49
-1.5
 74
     0
  0
LTYPE
  5
31A4
330
5
100
AcDbSymbolTableRecord
100
AcDbLinetypeTableRecord
  2
AM_ISO08W050x2
 70
     0
  3
__ . __ . __ . __ . __ . __
 72
    65
 73
     4
 40
9.0
 49
6.0
 74
     0
 49
-0.75
 74
     0
 49
1.5
 74
     0
 49
-0.75
 74
     0
  0
LTYPE
  5
31A5
330
5
100
AcDbSymbolTableRecord
100
AcDbLinetypeTableRecord
  2
AM_ISO02W050x2
 70
     0
  3
 _ _ _ _ _ _ _ _ _ _ _ _
 72
    65
 73
     2
 40
3.75
 49
3.0
 74
     0
 49
-0.75
 74
     0
  0
LTYPE
  5
6FDE
330
5
100
AcDbSymbolTableRecord
100
AcDbLinetypeTableRecord
  2
STYLE_04
 70
     0
  3

 72
    65
 73
     2
 40
1.18103
 49
0.98419
 74
     0
 49
-0.1968399999999999
 74
     0
  0
LTYPE
  5
6FDF
330
5
100
AcDbSymbolTableRecord
100
AcDbLinetypeTableRecord
  2
STYLE_11
 70
     0
  3

 72
    65
 73
     4
 40
2.706692913385826
 49
1.919291338582677
 74
     0
 49
-0.2952755905511811
 74
     0
 49
0.1968503937007873
 74
     0
 49
-0.2952755905511808
 74
     0
  0
LTYPE
  5
7545
330
5
100
AcDbSymbolTableRecord
100
AcDbLinetypeTableRecord
  2
AI-Linetype-1
 70
     0
  3
Adobe Illustrator Linetype No. 1
 72
    65
 73
     4
 40
6.349999998412501
 49
4.233333332275
 74
     0
 49
-0.7055555553791667
 74
     0
 49
0.7055555553791667
 74
     0
 49
-0.7055555553791667
 74
     0
  0
LTYPE
  5
7546
330
5
100
AcDbSymbolTableRecord
100
AcDbLinetypeTableRecord
  2
AI-Linetype-2
 70
     0
  3
Adobe Illustrator Linetype No. 2
 72
    65
 73
     2
 40
0.7055555553791667
 49
0.3527777776895833
 74
     0
 49
-0.3527777776895833
 74
     0
  0
LTYPE
  5
7547
330
5
100
AcDbSymbolTableRecord
100
AcDbLinetypeTableRecord
  2
AI-Linetype-3
 70
     0
  3
Adobe Illustrator Linetype No. 3
 72
    65
 73
     2
 40
0.7055555553791667
 49
0.3527777776895833
 74
     0
 49
-0.3527777776895833
 74
     0
  0
LTYPE
  5
7548
330
5
100
AcDbSymbolTableRecord
100
AcDbLinetypeTableRecord
  2
AI-Linetype-4
 70
     0
  3
Adobe Illustrator Linetype No. 4
 72
    65
 73
     2
 40
0.7055555553791667
 49
0.3527777776895833
 74
     0
 49
-0.3527777776895833
 74
     0
  0
LTYPE
  5
7549
330
5
100
AcDbSymbolTableRecord
100
AcDbLinetypeTableRecord
  2
AI-Linetype-5
 70
     0
  3
Adobe Illustrator Linetype No. 5
 72
    65
 73
     2
 40
0.7055555553791667
 49
0.3527777776895833
 74
     0
 49
-0.3527777776895833
 74
     0
  0
LTYPE
  5
754A
330
5
100
AcDbSymbolTableRecord
100
AcDbLinetypeTableRecord
  2
AI-Linetype-6
 70
     0
  3
Adobe Illustrator Linetype No. 6
 72
    65
 73
     4
 40
4.586111109964583
 49
2.822222221516666
 74
     0
 49
-0.7055555553791667
 74
     0
 49
0.3527777776895833
 74
     0
 49
-0.7055555553791667
 74
     0
  0
LTYPE
  5
754B
330
5
100
AcDbSymbolTableRecord
100
AcDbLinetypeTableRecord
  2
AI-Linetype-7
 70
     0
  3
Adobe Illustrator Linetype No. 7
 72
    65
 73
     4
 40
4.586111109964583
 49
2.822222221516666
 74
     0
 49
-0.7055555553791667
 74
     0
 49
0.3527777776895833
 74
     0
 49
-0.7055555553791667
 74
     0
  0
LTYPE
  5
754C
330
5
100
AcDbSymbolTableRecord
100
AcDbLinetypeTableRecord
  2
AI-Linetype-8
 70
     0
  3
Adobe Illustrator Linetype No. 8
 72
    65
 73
     2
 40
0.7055555553791667
 49
0.3527777776895833
 74
     0
 49
-0.3527777776895833
 74
     0
  0
LTYPE
  5
754D
330
5
100
AcDbSymbolTableRecord
100
AcDbLinetypeTableRecord
  2
AI-Linetype-9
 70
     0
  3
Adobe Illustrator Linetype No. 9
 72
    65
 73
     2
 40
0.7055555553791667
 49
0.3527777776895833
 74
     0
 49
-0.3527777776895833
 74
     0
  0
LTYPE
  5
754E
330
5
100
AcDbSymbolTableRecord
100
AcDbLinetypeTableRecord
  2
AI-Linetype-10
 70
     0
  3
Adobe Illustrator Linetype No. 10
 72
    65
 73
     2
 40
1.411111110758333
 49
0.7055555553791667
 74
     0
 49
-0.7055555553791667
 74
     0
  0
LTYPE
  5
754F
330
5
100
AcDbSymbolTableRecord
100
AcDbLinetypeTableRecord
  2
AI-Linetype-11
 70
     0
  3
Adobe Illustrator Linetype No. 11
 72
    65
 73
     2
 40
1.411111110758333
 49
0.7055555553791667
 74
     0
 49
-0.7055555553791667
 74
     0
  0
LTYPE
  5
7550
330
5
100
AcDbSymbolTableRecord
100
AcDbLinetypeTableRecord
  2
AI-Linetype-12
 70
     0
  3
Adobe Illustrator Linetype No. 12
 72
    65
 73
     2
 40
0.7055555553791667
 49
0.3527777776895833
 74
     0
 49
-0.3527777776895833
 74
     0
  0
LTYPE
  5
7551
330
5
100
AcDbSymbolTableRecord
100
AcDbLinetypeTableRecord
  2
AI-Linetype-13
 70
     0
  3
Adobe Illustrator Linetype No. 13
 72
    65
 73
     2
 40
0.7055555553791667
 49
0.3527777776895833
 74
     0
 49
-0.3527777776895833
 74
     0
  0
LTYPE
  5
7552
330
5
100
AcDbSymbolTableRecord
100
AcDbLinetypeTableRecord
  2
AI-Linetype-14
 70
     0
  3
Adobe Illustrator Linetype No. 14
 72
    65
 73
     2
 40
0.7055555553791667
 49
0.3527777776895833
 74
     0
 49
-0.3527777776895833
 74
     0
  0
LTYPE
  5
7553
330
5
100
AcDbSymbolTableRecord
100
AcDbLinetypeTableRecord
  2
AI-Linetype-15
 70
     0
  3
Adobe Illustrator Linetype No. 15
 72
    65
 73
     2
 40
0.7055555553791667
 49
0.3527777776895833
 74
     0
 49
-0.3527777776895833
 74
     0
  0
LTYPE
  5
7554
330
5
100
AcDbSymbolTableRecord
100
AcDbLinetypeTableRecord
  2
AI-Linetype-16
 70
     0
  3
Adobe Illustrator Linetype No. 16
 72
    65
 73
     2
 40
0.7055555553791667
 49
0.3527777776895833
 74
     0
 49
-0.3527777776895833
 74
     0
  0
LTYPE
  5
7555
330
5
100
AcDbSymbolTableRecord
100
AcDbLinetypeTableRecord
  2
AI-Linetype-17
 70
     0
  3
Adobe Illustrator Linetype No. 17
 72
    65
 73
     2
 40
0.7055555553791667
 49
0.3527777776895833
 74
     0
 49
-0.3527777776895833
 74
     0
  0
LTYPE
  5
7556
330
5
100
AcDbSymbolTableRecord
100
AcDbLinetypeTableRecord
  2
AI-Linetype-18
 70
     0
  3
Adobe Illustrator Linetype No. 18
 72
    65
 73
     4
 40
4.586111109964583
 49
2.822222221516666
 74
     0
 49
-0.7055555553791667
 74
     0
 49
0.3527777776895833
 74
     0
 49
-0.7055555553791667
 74
     0
  0
LTYPE
  5
7557
330
5
100
AcDbSymbolTableRecord
100
AcDbLinetypeTableRecord
  2
AI-Linetype-19
 70
     0
  3
Adobe Illustrator Linetype No. 19
 72
    65
 73
     2
 40
0.7055555553791667
 49
0.3527777776895833
 74
     0
 49
-0.3527777776895833
 74
     0
  0
LTYPE
  5
7558
330
5
100
AcDbSymbolTableRecord
100
AcDbLinetypeTableRecord
  2
AI-Linetype-20
 70
     0
  3
Adobe Illustrator Linetype No. 20
 72
    65
 73
     2
 40
0.7055555553791667
 49
0.3527777776895833
 74
     0
 49
-0.3527777776895833
 74
     0
  0
LTYPE
  5
7559
330
5
100
AcDbSymbolTableRecord
100
AcDbLinetypeTableRecord
  2
AI-Linetype-21
 70
     0
  3
Adobe Illustrator Linetype No. 21
 72
    65
 73
     2
 40
0.7055555553791667
 49
0.3527777776895833
 74
     0
 49
-0.3527777776895833
 74
     0
  0
LTYPE
  5
755A
330
5
100
AcDbSymbolTableRecord
100
AcDbLinetypeTableRecord
  2
AI-Linetype-22
 70
     0
  3
Adobe Illustrator Linetype No. 22
 72
    65
 73
     2
 40
0.7055555553791667
 49
0.3527777776895833
 74
     0
 49
-0.3527777776895833
 74
     0
  0
LTYPE
  5
755B
330
5
100
AcDbSymbolTableRecord
100
AcDbLinetypeTableRecord
  2
AI-Linetype-23
 70
     0
  3
Adobe Illustrator Linetype No. 23
 72
    65
 73
     4
 40
6.349999998412501
 49
4.233333332275
 74
     0
 49
-0.7055555553791667
 74
     0
 49
0.7055555553791667
 74
     0
 49
-0.7055555553791667
 74
     0
  0
ENDTAB
  0
TABLE
  2
LAYER
  5
2
102
{ACAD_XDICTIONARY
360
7638
102
}
330
0
100
AcDbSymbolTable
 70
     1
  0
LAYER
  5
10
102
{ACAD_XDICTIONARY
360
30D3
102
}
330
2
100
AcDbSymbolTableRecord
100
AcDbLayerTableRecord
  2
0
 70
     0
 62
     7
  6
Continuous
370
    -3
390
F
  0
ENDTAB
  0
TABLE
  2
STYLE
  5
3
330
0
100
AcDbSymbolTable
 70
     7
  0
STYLE
  5
11
330
3
100
AcDbSymbolTableRecord
100
AcDbTextStyleTableRecord
  2
STANDARD
 70
     0
 40
0.0
 41
1.0
 50
0.0
 71
     0
 42
2.5
  3
ISOCP.SHX
  4

  0
STYLE
  5
54
330
3
100
AcDbSymbolTableRecord
100
AcDbTextStyleTableRecord
  2

 70
     1
 40
0.0
 41
1.0
 50
0.0
 71
     0
 42
2.5
  3
ltypeshp.shx
  4

  0
STYLE
  5
5B
330
3
100
AcDbSymbolTableRecord
100
AcDbTextStyleTableRecord
  2
ACDINTS
 70
     0
 40
1.0
 41
1.0
 50
0.0
 71
     0
 42
2.5
  3
isocp.shx
  4

  0
STYLE
  5
67
330
3
100
AcDbSymbolTableRecord
100
AcDbTextStyleTableRecord
  2
ACDINGDT
 70
     0
 40
0.0
 41
1.0
 50
0.0
 71
     0
 42
2.5
  3
amgdt.shx
  4

  0
STYLE
  5
343
330
3
100
AcDbSymbolTableRecord
100
AcDbTextStyleTableRecord
  2
ACANSTS
 70
     0
 40
1.0
 41
1.0
 50
0.0
 71
     0
 42
0.2
  3
romans.shx
  4

  0
STYLE
  5
344
330
3
100
AcDbSymbolTableRecord
100
AcDbTextStyleTableRecord
  2
ACANSGDT
 70
     0
 40
0.0
 41
1.0
 50
0.0
 71
     0
 42
0.2
  3
amgdtans.shx
  4

  0
STYLE
  5
3077
330
3
100
AcDbSymbolTableRecord
100
AcDbTextStyleTableRecord
  2

 70
     1
 40
0.0
 41
1.0
 50
0.0
 71
     0
 42
0.2
  3
genltshp.shx
  4

  0
ENDTAB
  0
TABLE
  2
VIEW
  5
6
330
0
100
AcDbSymbolTable
 70
     1
  0
ENDTAB
  0
TABLE
  2
UCS
  5
7
330
0
100
AcDbSymbolTable
 70
     0
  0
ENDTAB
  0
TABLE
  2
APPID
  5
9
330
0
100
AcDbSymbolTable
 70
    24
  0
APPID
  5
12
330
9
100
AcDbSymbolTableRecord
100
AcDbRegAppTableRecord
  2
ACAD
 70
     0
  0
APPID
  5
2C
330
9
100
AcDbSymbolTableRecord
100
AcDbRegAppTableRecord
  2
MCAD_NO_VIS
 70
     0
  0
APPID
  5
2D
330
9
100
AcDbSymbolTableRecord
100
AcDbRegAppTableRecord
  2
ACAD_TEMP_GRAPHIC
 70
     0
  0
APPID
  5
3E
330
9
100
AcDbSymbolTableRecord
100
AcDbRegAppTableRecord
  2
ACATTRIBSERVICES
 70
     0
  0
APPID
  5
428
330
9
100
AcDbSymbolTableRecord
100
AcDbRegAppTableRecord
  2
DCO15
 70
     0
  0
APPID
  5
300D
330
9
100
AcDbSymbolTableRecord
100
AcDbRegAppTableRecord
  2
ACAD_MLEADERVER
 70
     0
  0
APPID
  5
303D
330
9
100
AcDbSymbolTableRecord
100
AcDbRegAppTableRecord
  2
AD_DRAW
 70
     0
  0
APPID
  5
305C
330
9
100
AcDbSymbolTableRecord
100
AcDbRegAppTableRecord
  2
DESIGNERASSEMBLIES
 70
     0
  0
APPID
  5
306B
330
9
100
AcDbSymbolTableRecord
100
AcDbRegAppTableRecord
  2
ACADM_DIM_EDIT
 70
     0
  0
APPID
  5
306C
330
9
100
AcDbSymbolTableRecord
100
AcDbRegAppTableRecord
  2
AMDT_DM_ADJ
 70
     0
  0
APPID
  5
31B4
330
9
100
AcDbSymbolTableRecord
100
AcDbRegAppTableRecord
  2
ACAD_DSTYLE_DIMJOGGED_JOGANGLE_SYMBOL
 70
     0
  0
APPID
  5
31B5
330
9
100
AcDbSymbolTableRecord
100
AcDbRegAppTableRecord
  2
ACAD_DSTYLE_DIM_LINETYPE
 70
     0
  0
APPID
  5
31B6
330
9
100
AcDbSymbolTableRecord
100
AcDbRegAppTableRecord
  2
ACAD_DSTYLE_DIM_EXT1_LINETYPE
 70
     0
  0
APPID
  5
31B7
330
9
100
AcDbSymbolTableRecord
100
AcDbRegAppTableRecord
  2
ACAD_DSTYLE_DIM_EXT2_LINETYPE
 70
     0
  0
APPID
  5
49AC
330
9
100
AcDbSymbolTableRecord
100
AcDbRegAppTableRecord
  2
GENIUS_GENREC_14
 70
     0
  0
APPID
  5
49AD
330
9
100
AcDbSymbolTableRecord
100
AcDbRegAppTableRecord
  2
GENIUS_GENOBJ-N-REC_13
 70
     0
  0
APPID
  5
49AE
330
9
100
AcDbSymbolTableRecord
100
AcDbRegAppTableRecord
  2
GENIUS_GENODEF_13
 70
     0
  0
APPID
  5
49CE
330
9
100
AcDbSymbolTableRecord
100
AcDbRegAppTableRecord
  2
ACAD_EXEMPT_FROM_CAD_STANDARDS
 70
     0
  0
APPID
  5
6FE0
330
9
100
AcDbSymbolTableRecord
100
AcDbRegAppTableRecord
  2
GENIUS_GENOBJ-N-FIL_13
 70
     0
  0
APPID
  5
7495
330
9
100
AcDbSymbolTableRecord
100
AcDbRegAppTableRecord
  2
ACAD_DSTYLE_DIMBREAK
 70
     0
  0
APPID
  5
7496
330
9
100
AcDbSymbolTableRecord
100
AcDbRegAppTableRecord
  2
ACAD_DSTYLE_DIMJAG
 70
     0
  0
APPID
  5
7D44
330
9
100
AcDbSymbolTableRecord
100
AcDbRegAppTableRecord
  2
ACAD_PSEXT
 70
     0
  0
APPID
  5
84D2
330
9
100
AcDbSymbolTableRecord
100
AcDbRegAppTableRecord
  2
GRADIENTCOLOR1ACI
 70
     0
  0
APPID
  5
84D3
330
9
100
AcDbSymbolTableRecord
100
AcDbRegAppTableRecord
  2
GRADIENTCOLOR2ACI
 70
     0
  0
ENDTAB
  0
TABLE
  2
DIMSTYLE
  5
A
330
0
100
AcDbSymbolTable
 70
    14
100
AcDbDimStyleTable
 71
     1
340
6F
  0
DIMSTYLE
105
6F
102
{ACAD_REACTORS
330
84B7
102
}
330
A
100
AcDbSymbolTableRecord
100
AcDbDimStyleTableRecord
  2
AM_DIN
 70
     0
  4
"
 41
3.5
 42
1.0
 43
10.0
 44
1.0
 47
0.1
 48
0.1
 73
     0
 74
     0
 77
     1
 78
     8
 79
     2
140
3.5
141
0.0
143
0.0393701
146
0.71
147
1.5
172
     1
176
   256
177
   256
178
   140
271
     2
272
     3
274
     4
283
     0
284
     8
340
11
371
    -1
372
    -1
1001
ACAD_DSTYLE_DIMJOGGED_JOGANGLE_SYMBOL
1070
   384
1040
1.570796326794896
1001
ACAD_DSTYLE_DIM_LINETYPE
1070
   380
1005
14
1001
ACAD_DSTYLE_DIM_EXT1_LINETYPE
1070
   381
1005
14
1001
ACAD_DSTYLE_DIM_EXT2_LINETYPE
1070
   382
1005
14
  0
DIMSTYLE
105
70
330
A
100
AcDbSymbolTableRecord
100
AcDbDimStyleTableRecord
  2
AM_DIN$3
 70
     0
  4
"
 41
3.5
 42
1.0
 43
10.0
 44
1.0
 47
0.1
 48
0.1
 73
     0
 77
     1
 78
     8
 79
     2
140
3.5
141
0.0
143
0.0393701
146
0.71
147
1.5
176
   256
177
   256
178
   140
271
     2
272
     3
274
     4
283
     0
284
     8
288
     1
289
     0
340
11
371
    -1
372
    -1
1001
ACAD_DSTYLE_DIMJOGGED_JOGANGLE_SYMBOL
1070
   384
1040
1.570796326794896
1001
ACAD_DSTYLE_DIM_LINETYPE
1070
   380
1005
14
1001
ACAD_DSTYLE_DIM_EXT1_LINETYPE
1070
   381
1005
14
1001
ACAD_DSTYLE_DIM_EXT2_LINETYPE
1070
   382
1005
14
  0
DIMSTYLE
105
71
330
A
100
AcDbSymbolTableRecord
100
AcDbDimStyleTableRecord
  2
AM_DIN$4
 70
     0
  4
"
 41
3.5
 42
1.0
 43
10.0
 44
1.0
 47
0.1
 48
0.1
 73
     0
 74
     0
 77
     1
 78
     8
 79
     2
140
3.5
141
0.0
143
0.0393701
146
0.71
147
1.5
172
     1
176
   256
177
   256
178
   140
271
     2
272
     3
274
     4
283
     0
284
     8
340
11
371
    -1
372
    -1
1001
ACAD_DSTYLE_DIMJOGGED_JOGANGLE_SYMBOL
1070
   384
1040
1.570796326794896
1001
ACAD_DSTYLE_DIM_LINETYPE
1070
   380
1005
14
1001
ACAD_DSTYLE_DIM_EXT1_LINETYPE
1070
   381
1005
14
1001
ACAD_DSTYLE_DIM_EXT2_LINETYPE
1070
   382
1005
14
  0
DIMSTYLE
105
72
330
A
100
AcDbSymbolTableRecord
100
AcDbDimStyleTableRecord
  2
AM_DIN$6
 70
     0
  4
"
 41
3.5
 42
1.0
 43
10.0
 44
1.0
 47
0.1
 48
0.1
 73
     0
 74
     0
 78
     8
 79
     2
140
3.5
141
0.0
143
0.0393701
146
0.71
147
1.5
172
     1
176
   256
177
   256
178
   140
271
     2
272
     3
274
     4
283
     0
284
     8
340
11
371
    -1
372
    -1
1001
ACAD_DSTYLE_DIMJOGGED_JOGANGLE_SYMBOL
1070
   384
1040
1.570796326794896
1001
ACAD_DSTYLE_DIM_LINETYPE
1070
   380
1005
14
1001
ACAD_DSTYLE_DIM_EXT1_LINETYPE
1070
   381
1005
14
1001
ACAD_DSTYLE_DIM_EXT2_LINETYPE
1070
   382
1005
14
  0
DIMSTYLE
105
73
330
A
100
AcDbSymbolTableRecord
100
AcDbDimStyleTableRecord
  2
AM_DIN$7
 70
     0
  4
"
 41
3.5
 42
1.0
 43
10.0
 44
1.0
 47
0.1
 48
0.1
 73
     0
 74
     0
 77
     1
 78
     8
 79
     2
140
3.5
141
0.0
143
0.0393701
146
0.71
147
1.5
172
     1
176
   256
177
   256
178
   140
271
     2
272
     3
274
     4
283
     0
284
     8
340
11
371
    -1
372
    -1
1001
ACAD_DSTYLE_DIMJOGGED_JOGANGLE_SYMBOL
1070
   384
1040
1.570796326794896
1001
ACAD_DSTYLE_DIM_LINETYPE
1070
   380
1005
14
1001
ACAD_DSTYLE_DIM_EXT1_LINETYPE
1070
   381
1005
14
1001
ACAD_DSTYLE_DIM_EXT2_LINETYPE
1070
   382
1005
14
  0
DIMSTYLE
105
74
330
A
100
AcDbSymbolTableRecord
100
AcDbDimStyleTableRecord
  2
AM_DIN$SF
 70
     0
  4
"
 41
3.5
 42
1.0
 43
10.0
 44
1.0
 47
0.1
 48
0.1
 73
     0
 74
     0
 75
     1
 76
     1
 77
     1
 78
     8
 79
     2
140
3.5
141
0.0
143
0.0393701
146
0.71
147
1.5
172
     1
176
   256
177
   256
178
   140
271
     2
272
     3
274
     4
283
     0
284
     8
340
11
371
    -1
372
    -1
1001
ACAD_DSTYLE_DIMJOGGED_JOGANGLE_SYMBOL
1070
   384
1040
1.570796326794896
1001
ACAD_DSTYLE_DIM_LINETYPE
1070
   380
1005
14
1001
ACAD_DSTYLE_DIM_EXT1_LINETYPE
1070
   381
1005
14
1001
ACAD_DSTYLE_DIM_EXT2_LINETYPE
1070
   382
1005
14
  0
DIMSTYLE
105
79
330
A
100
AcDbSymbolTableRecord
100
AcDbDimStyleTableRecord
  2
AM_DIN$SH
 70
     0
  4
"
 41
3.5
 42
1.0
 43
10.0
 44
1.0
 47
0.1
 48
0.1
 73
     0
 74
     0
 75
     1
 76
     1
 77
     1
 78
     8
 79
     2
140
3.5
141
0.0
143
0.0393701
144
2.0
146
0.71
147
1.5
172
     1
173
     1
176
   256
177
   256
178
   140
271
     2
272
     3
274
     4
283
     0
284
     8
340
11
343
75
371
    -1
372
    -1
1001
ACAD_DSTYLE_DIMJOGGED_JOGANGLE_SYMBOL
1070
   384
1040
1.570796326794896
1001
ACAD_DSTYLE_DIM_LINETYPE
1070
   380
1005
14
1001
ACAD_DSTYLE_DIM_EXT1_LINETYPE
1070
   381
1005
14
1001
ACAD_DSTYLE_DIM_EXT2_LINETYPE
1070
   382
1005
14
  0
DIMSTYLE
105
92
330
A
100
AcDbSymbolTableRecord
100
AcDbDimStyleTableRecord
  2
STANDARD
 70
     0
279
     2
340
11
  0
DIMSTYLE
105
345
330
A
100
AcDbSymbolTableRecord
100
AcDbDimStyleTableRecord
  2
AM_ANSI
 70
     0
  4
mm
 41
0.1
 42
0.05
 43
0.5
 44
0.1
 47
0.1
 48
0.1
 78
     7
 79
     2
140
0.12
141
0.0
146
0.71
147
0.06
176
   256
177
   256
178
     2
274
     4
284
     7
340
11
371
    -1
372
    -1
  0
DIMSTYLE
105
346
330
A
100
AcDbSymbolTableRecord
100
AcDbDimStyleTableRecord
  2
AM_ANSI$3
 70
     0
  4
mm
 41
0.1
 42
0.05
 43
0.5
 44
0.1
 47
0.1
 48
0.1
 78
     7
 79
     2
140
0.12
141
0.0
146
0.71
147
0.06
176
   256
177
   256
178
     2
274
     4
284
     7
288
     1
289
     0
340
11
371
    -1
372
    -1
  0
DIMSTYLE
105
347
330
A
100
AcDbSymbolTableRecord
100
AcDbDimStyleTableRecord
  2
AM_ANSI$4
 70
     0
  4
mm
 41
0.1
 42
0.05
 43
0.5
 44
0.1
 47
0.1
 48
0.1
 78
     7
 79
     2
140
0.12
141
0.0
146
0.71
147
0.06
176
   256
177
   256
178
     2
274
     4
284
     7
288
     1
289
     0
340
11
371
    -1
372
    -1
  0
DIMSTYLE
105
348
330
A
100
AcDbSymbolTableRecord
100
AcDbDimStyleTableRecord
  2
AM_ANSI$7
 70
     0
  4
mm
 41
0.1
 42
0.05
 43
0.5
 44
0.1
 47
0.1
 48
0.1
 78
     7
 79
     2
140
0.24
141
0.0
146
0.71
147
0.06
176
   256
177
   256
178
     2
274
     4
284
     7
340
11
371
    -1
372
    -1
  0
DIMSTYLE
105
349
330
A
100
AcDbSymbolTableRecord
100
AcDbDimStyleTableRecord
  2
AM_ANSI$SF
 70
     0
  4
mm
 41
0.1
 42
0.05
 43
0.5
 44
0.1
 47
0.1
 48
0.1
 75
     1
 76
     1
 78
     7
 79
     2
140
0.12
141
0.0
146
0.71
147
0.06
176
   256
177
   256
178
     2
274
     4
284
     7
340
11
371
    -1
372
    -1
  0
DIMSTYLE
105
34A
330
A
100
AcDbSymbolTableRecord
100
AcDbDimStyleTableRecord
  2
AM_ANSI$SH
 70
     0
  4
mm
 41
0.1
 42
0.05
 43
0.5
 44
0.1
 47
0.1
 48
0.1
 75
     1
 76
     1
 78
     7
 79
     2
140
0.12
141
0.0
146
0.71
147
0.06
173
     1
176
   256
177
   256
178
     2
274
     4
284
     7
340
11
343
75
371
    -1
372
    -1
  0
ENDTAB
  0
TABLE
  2
BLOCK_RECORD
  5
1
330
0
100
AcDbSymbolTable
 70
     6
  0
BLOCK_RECORD
  5
1F
102
{ACAD_XDICTIONARY
360
81
102
}
330
1
100
AcDbSymbolTableRecord
100
AcDbBlockTableRecord
  2
*Model_Space
340
22
  0
BLOCK_RECORD
  5
1B
330
1
100
AcDbSymbolTableRecord
100
AcDbBlockTableRecord
  2
*Paper_Space
340
1E
  0
BLOCK_RECORD
  5
23
330
1
100
AcDbSymbolTableRecord
100
AcDbBlockTableRecord
  2
*Paper_Space0
340
26
  0
BLOCK_RECORD
  5
75
330
1
100
AcDbSymbolTableRecord
100
AcDbBlockTableRecord
  2
GENAXEH
340
0
  0
BLOCK_RECORD
  5
6B75
102
{ACAD_XDICTIONARY
360
6BEC
102
}
330
1
100
AcDbSymbolTableRecord
100
AcDbBlockTableRecord
  2
A$C417103F3
340
0
1001
ACAD
1000
DesignCenter Data
1002
{
1070
     1
1070
     4
1002
}
  0
BLOCK_RECORD
  5
74A1
330
1
100
AcDbSymbolTableRecord
100
AcDbBlockTableRecord
  2
block 2
340
0
  0
ENDTAB
  0
ENDSEC
  0
SECTION
  2
BLOCKS
  0
BLOCK
  5
20
330
1F
100
AcDbEntity
  8
0
100
AcDbBlockBegin
  2
*Model_Space
 70
     0
 10
0.0
 20
0.0
 30
0.0
  3
*Model_Space
  1

  0
ENDBLK
  5
21
330
1F
100
AcDbEntity
  8
0
100
AcDbBlockEnd
  0
BLOCK
  5
1C
330
1B
100
AcDbEntity
 67
     1
  8
0
100
AcDbBlockBegin
  2
*Paper_Space
 70
     0
 10
0.0
 20
0.0
 30
0.0
  3
*Paper_Space
  1

  0
ENDBLK
  5
1D
330
1B
100
AcDbEntity
 67
     1
  8
0
100
AcDbBlockEnd
  0
BLOCK
  5
24
330
23
100
AcDbEntity
 67
     1
  8
0
100
AcDbBlockBegin
  2
*Paper_Space0
 70
     0
 10
0.0
 20
0.0
 30
0.0
  3
*Paper_Space0
  1

  0
ENDBLK
  5
25
330
23
100
AcDbEntity
 67
     1
  8
0
100
AcDbBlockEnd
  0
BLOCK
  5
77
330
75
100
AcDbEntity
  8
0
100
AcDbBlockBegin
  2
GENAXEH
 70
     0
 10
0.0
 20
0.0
 30
0.0
  3
GENAXEH
  1

  0
LINE
  5
76
330
75
100
AcDbEntity
  8
0
100
AcDbLine
 10
-1.0
 20
0.0
 30
0.0
 11
1.0
 21
0.0
 31
0.0
  0
ENDBLK
  5
78
330
75
100
AcDbEntity
  8
0
100
AcDbBlockEnd
  0
BLOCK
  5
6BEE
330
6B75
100
AcDbEntity
  8
0
100
AcDbBlockBegin
  2
A$C417103F3
 70
     0
 10
0.0
 20
0.0
 30
0.0
  3
A$C417103F3
  1

  0
POLYLINE
  5
6B76
330
6B75
100
AcDbEntity
  8
0
100
AcDb2dPolyline
 66
     1
 10
0.0
 20
0.0
 30
0.0
  0
VERTEX
  5
6B77
330
6B76
100
AcDbEntity
  8
0
100
AcDbVertex
100
AcDb2dVertex
 10
1273.000162221968
 20
1034.999700013433
 30
0.0
  0
VERTEX
  5
6B78
330
6B76
100
AcDbEntity
  8
0
100
AcDbVertex
100
AcDb2dVertex
 10
0.3307299845555462
 20
1034.999700013433
 30
0.0
  0
VERTEX
  5
6B79
330
6B76
100
AcDbEntity
  8
0
100
AcDbVertex
100
AcDb2dVertex
 10
0.0000008178885764
 20
-0.0000015924694026
 30
0.0
  0
VERTEX
  5
6B7A
330
6B76
100
AcDbEntity
  8
0
100
AcDbVertex
100
AcDb2dVertex
 10
2.094618873444233
 20
-0.0000015924694026
 30
0.0
  0
SEQEND
  5
6B7B
330
6B76
100
AcDbEntity
  8
0
  0
POLYLINE
  5
6B7C
330
6B75
100
AcDbEntity
  8
0
100
AcDb2dPolyline
 66
     1
 10
0.0
 20
0.0
 30
0.0
  0
VERTEX
  5
6B7D
330
6B7C
100
AcDbEntity
  8
0
100
AcDbVertex
100
AcDb2dVertex
 10
1273.000162221968
 20
1034.945439759527
 30
0.0
  0
VERTEX
  5
6B7E
330
6B7C
100
AcDbEntity
  8
0
100
AcDbVertex
100
AcDb2dVertex
 10
1273.000162221968
 20
0.0418563176867792
 30
0.0
  0
VERTEX
  5
6B7F
330
6B7C
100
AcDbEntity
  8
0
100
AcDbVertex
100
AcDb2dVertex
 10
2.094618873444233
 20
0.0418563176867792
 30
0.0
  0
VERTEX
  5
6B80
330
6B7C
100
AcDbEntity
  8
0
100
AcDbVertex
100
AcDb2dVertex
 10
2.094618873444233
 20
26.30071862237435
 30
0.0
  0
VERTEX
  5
6B81
330
6B7C
100
AcDbEntity
  8
0
100
AcDbVertex
100
AcDb2dVertex
 10
1246.541828888635
 20
26.30071862237435
 30
0.0
  0
VERTEX
  5
6B82
330
6B7C
100
AcDbEntity
  8
0
100
AcDbVertex
100
AcDb2dVertex
 10
1246.541828888635
 20
1034.895313620204
 30
0.0
  0
SEQEND
  5
6B83
330
6B7C
100
AcDbEntity
  8
0
  0
LINE
  5
6B84
330
6B75
100
AcDbEntity
  8
0
100
AcDbLine
 10
1246.541828888635
 20
26.30071862237435
 30
0.0
 11
1273.000162221968
 21
0.0418563176867792
 31
0.0
  0
POLYLINE
  5
6B85
330
6B75
100
AcDbEntity
  8
0
100
AcDb2dPolyline
 66
     1
 10
0.0
 20
0.0
 30
0.0
 70
     1
  0
VERTEX
  5
6B86
330
6B85
100
AcDbEntity
  8
0
100
AcDbVertex
100
AcDb2dVertex
 10
5.385546336552124
 20
1030.067012296419
 30
0.0
  0
VERTEX
  5
6B87
330
6B85
100
AcDbEntity
  8
0
100
AcDbVertex
100
AcDb2dVertex
 10
1239.472837460684
 20
1030.067012296419
 30
0.0
  0
VERTEX
  5
6B88
330
6B85
100
AcDbEntity
  8
0
100
AcDbVertex
100
AcDb2dVertex
 10
1239.472837460684
 20
923.9918332599611
 30
0.0
  0
VERTEX
  5
6B89
330
6B85
100
AcDbEntity
  8
0
100
AcDbVertex
100
AcDb2dVertex
 10
5.385546336552124
 20
923.9918332599611
 30
0.0
  0
SEQEND
  5
6B8A
330
6B85
100
AcDbEntity
  8
0
  0
LINE
  5
6B8B
330
6B75
100
AcDbEntity
  8
0
100
AcDbLine
 10
637.6332595526978
 20
587.8001231905166
 30
0.0
 11
637.6332595526978
 21
581.9539684053604
 31
0.0
  0
LINE
  5
6B8C
330
6B75
100
AcDbEntity
  8
0
100
AcDbLine
 10
593.2018630683228
 20
587.8001231905166
 30
0.0
 11
593.2018630683228
 21
581.9539684053604
 31
0.0
  0
LINE
  5
6B8D
330
6B75
100
AcDbEntity
  8
0
100
AcDbLine
 10
637.640666507993
 20
699.9214448051
 30
0.0
 11
637.640666507993
 21
693.875302226975
 31
0.0
  0
LINE
  5
6B8E
330
6B75
100
AcDbEntity
  8
0
100
AcDbLine
 10
593.209442278392
 20
699.9214448051
 30
0.0
 11
593.209442278392
 21
693.875302226975
 31
0.0
  0
LINE
  5
6B8F
330
6B75
100
AcDbEntity
  8
0
100
AcDbLine
 10
637.6482457180623
 20
812.3245752304471
 30
0.0
 11
637.6482457180623
 21
806.2760210854818
 31
0.0
  0
LINE
  5
6B90
330
6B75
100
AcDbEntity
  8
0
100
AcDbLine
 10
593.2170214884617
 20
811.9429447779733
 30
0.0
 11
593.2170214884617
 21
806.2682696206382
 31
0.0
  0
LINE
  5
6B91
330
6B75
100
AcDbEntity
  8
0
100
AcDbLine
 10
637.6558249281315
 20
923.9918332599611
 30
0.0
 11
637.6558249281315
 21
918.0180376870444
 31
0.0
  0
LINE
  5
6B92
330
6B75
100
AcDbEntity
  8
0
100
AcDbLine
 10
593.224600698531
 20
923.9918332599611
 30
0.0
 11
593.224600698531
 21
918.0180376870444
 31
0.0
  0
LINE
  5
6B93
330
6B75
100
AcDbEntity
  8
0
100
AcDbLine
 10
1237.859499244538
 20
588.1670258597875
 30
0.0
 11
1237.859499244538
 21
581.9539684053604
 31
0.0
  0
LINE
  5
6B94
330
6B75
100
AcDbEntity
  8
0
100
AcDbLine
 10
1193.428275014937
 20
587.8001231905166
 30
0.0
 11
1193.428275014937
 21
581.9539684053604
 31
0.0
  0
LINE
  5
6B95
330
6B75
100
AcDbEntity
  8
0
100
AcDbLine
 10
1237.867078454607
 20
699.9214448051
 30
0.0
 11
1237.867078454607
 21
693.875302226975
 31
0.0
  0
LINE
  5
6B96
330
6B75
100
AcDbEntity
  8
0
100
AcDbLine
 10
1193.435681970232
 20
699.9214448051
 30
0.0
 11
1193.435681970232
 21
693.875302226975
 31
0.0
  0
LINE
  5
6B97
330
6B75
100
AcDbEntity
  8
0
100
AcDbLine
 10
1237.874485409903
 20
811.8705116453778
 30
0.0
 11
1237.874485409903
 21
805.8220436277997
 31
0.0
  0
LINE
  5
6B98
330
6B75
100
AcDbEntity
  8
0
100
AcDbLine
 10
1193.443261180302
 20
811.9429447779733
 30
0.0
 11
1193.443261180302
 21
805.814378290343
 31
0.0
  0
LINE
  5
6B99
330
6B75
100
AcDbEntity
  8
0
100
AcDbLine
 10
1237.882064619972
 20
923.9918332599611
 30
0.0
 11
1237.882064619972
 21
918.0180376870444
 31
0.0
  0
LINE
  5
6B9A
330
6B75
100
AcDbEntity
  8
0
100
AcDbLine
 10
1193.450840390371
 20
923.9918332599611
 30
0.0
 11
1193.450840390371
 21
918.0180376870444
 31
0.0
  0
LINE
  5
6B9B
330
6B75
100
AcDbEntity
  8
0
100
AcDbLine
 10
51.51477200386944
 20
587.8001231905166
 30
0.0
 11
51.51477200386944
 21
581.9539684053604
 31
0.0
  0
LINE
  5
6B9C
330
6B75
100
AcDbEntity
  8
0
100
AcDbLine
 10
7.083375519494438
 20
587.8001231905166
 30
0.0
 11
7.083375519494325
 21
581.9539684053604
 31
0.0
  0
LINE
  5
6B9D
330
6B75
100
AcDbEntity
  8
0
100
AcDbLine
 10
51.52226508655201
 20
699.9214448051
 30
0.0
 11
51.52226508655212
 21
693.875302226975
 31
0.0
  0
LINE
  5
6B9E
330
6B75
100
AcDbEntity
  8
0
100
AcDbLine
 10
7.090868602177124
 20
699.9214448051
 30
0.0
 11
7.090868602177124
 21
693.875302226975
 31
0.0
  0
LINE
  5
6B9F
330
6B75
100
AcDbEntity
  8
0
100
AcDbLine
 10
51.52975816923436
 20
811.8629324353083
 30
0.0
 11
51.52975816923436
 21
805.814378290343
 31
0.0
  0
LINE
  5
6BA0
330
6B75
100
AcDbEntity
  8
0
100
AcDbLine
 10
7.098447812246376
 20
811.9429447779733
 30
0.0
 11
7.098447812246376
 21
805.8066268254993
 31
0.0
  0
LINE
  5
6BA1
330
6B75
100
AcDbEntity
  8
0
100
AcDbLine
 10
51.5372512519167
 20
923.9918332599611
 30
0.0
 11
51.53725125191659
 21
918.3866629040583
 31
0.0
  0
LINE
  5
6BA2
330
6B75
100
AcDbEntity
  8
0
100
AcDbLine
 10
7.106027022316084
 20
923.9918332599611
 30
0.0
 11
7.106027022316084
 21
918.1634207165583
 31
0.0
  0
POLYLINE
  5
6BA3
330
6B75
100
AcDbEntity
  8
0
100
AcDb2dPolyline
 66
     1
 10
0.0
 20
0.0
 30
0.0
 70
     1
  0
VERTEX
  5
6BA4
330
6BA3
100
AcDbEntity
  8
0
100
AcDbVertex
100
AcDb2dVertex
 10
5.392953291847334
 20
918.0180376870444
 30
0.0
  0
VERTEX
  5
6BA5
330
6BA3
100
AcDbEntity
  8
0
100
AcDbVertex
100
AcDb2dVertex
 10
1239.480244415979
 20
918.0180376870444
 30
0.0
  0
VERTEX
  5
6BA6
330
6BA3
100
AcDbEntity
  8
0
100
AcDbVertex
100
AcDb2dVertex
 10
1239.480244415979
 20
811.9429447779733
 30
0.0
  0
VERTEX
  5
6BA7
330
6BA3
100
AcDbEntity
  8
0
100
AcDbVertex
100
AcDb2dVertex
 10
5.392953291847334
 20
811.9429447779733
 30
0.0
  0
SEQEND
  5
6BA8
330
6BA3
100
AcDbEntity
  8
0
  0
POLYLINE
  5
6BA9
330
6B75
100
AcDbEntity
  8
0
100
AcDb2dPolyline
 66
     1
 10
0.0
 20
0.0
 30
0.0
 70
     1
  0
VERTEX
  5
6BAA
330
6BA9
100
AcDbEntity
  8
0
100
AcDbVertex
100
AcDb2dVertex
 10
5.18021864557977
 20
805.9966238415583
 30
0.0
  0
VERTEX
  5
6BAB
330
6BA9
100
AcDbEntity
  8
0
100
AcDbVertex
100
AcDb2dVertex
 10
1239.267509769711
 20
805.9966238415583
 30
0.0
  0
VERTEX
  5
6BAC
330
6BA9
100
AcDbEntity
  8
0
100
AcDbVertex
100
AcDb2dVertex
 10
1239.267509769711
 20
699.9214448051
 30
0.0
  0
VERTEX
  5
6BAD
330
6BA9
100
AcDbEntity
  8
0
100
AcDbVertex
100
AcDb2dVertex
 10
5.18021864557977
 20
699.9214448051
 30
0.0
  0
SEQEND
  5
6BAE
330
6BA9
100
AcDbEntity
  8
0
  0
POLYLINE
  5
6BAF
330
6B75
100
AcDbEntity
  8
0
100
AcDb2dPolyline
 66
     1
 10
0.0
 20
0.0
 30
0.0
 70
     1
  0
VERTEX
  5
6BB0
330
6BAF
100
AcDbEntity
  8
0
100
AcDbVertex
100
AcDb2dVertex
 10
5.187711728262001
 20
693.875302226975
 30
0.0
  0
VERTEX
  5
6BB1
330
6BAF
100
AcDbEntity
  8
0
100
AcDbVertex
100
AcDb2dVertex
 10
1239.275088979781
 20
693.875302226975
 30
0.0
  0
VERTEX
  5
6BB2
330
6BAF
100
AcDbEntity
  8
0
100
AcDbVertex
100
AcDb2dVertex
 10
1239.275088979781
 20
587.8001231905166
 30
0.0
  0
VERTEX
  5
6BB3
330
6BAF
100
AcDbEntity
  8
0
100
AcDbVertex
100
AcDb2dVertex
 10
5.187711728262001
 20
587.8001231905166
 30
0.0
  0
SEQEND
  5
6BB4
330
6BAF
100
AcDbEntity
  8
0
  0
POLYLINE
  5
6BB5
330
6B75
100
AcDbEntity
  8
0
100
AcDb2dPolyline
 66
     1
 10
0.0
 20
0.0
 30
0.0
 70
     1
  0
VERTEX
  5
6BB6
330
6BB5
100
AcDbEntity
  8
0
100
AcDbVertex
100
AcDb2dVertex
 10
5.195204810944233
 20
581.9539684053604
 30
0.0
  0
VERTEX
  5
6BB7
330
6BB5
100
AcDbEntity
  8
0
100
AcDbVertex
100
AcDb2dVertex
 10
1239.28266818985
 20
581.9539684053604
 30
0.0
  0
VERTEX
  5
6BB8
330
6BB5
100
AcDbEntity
  8
0
100
AcDbVertex
100
AcDb2dVertex
 10
1239.28266818985
 20
475.8789616236763
 30
0.0
  0
VERTEX
  5
6BB9
330
6BB5
100
AcDbEntity
  8
0
100
AcDbVertex
100
AcDb2dVertex
 10
5.195204810944233
 20
475.8789616236763
 30
0.0
  0
SEQEND
  5
6BBA
330
6BB5
100
AcDbEntity
  8
0
  0
LINE
  5
6BBB
330
6B75
100
AcDbEntity
  8
0
100
AcDbLine
 10
637.640666507993
 20
139.4078543103083
 30
0.0
 11
637.640666507993
 21
133.5616995251521
 31
0.0
  0
LINE
  5
6BBC
330
6B75
100
AcDbEntity
  8
0
100
AcDbLine
 10
593.209442278392
 20
139.4078543103083
 30
0.0
 11
593.209442278392
 21
133.561699525152
 31
0.0
  0
LINE
  5
6BBD
330
6B75
100
AcDbEntity
  8
0
100
AcDbLine
 10
637.6482457180623
 20
251.529348179666
 30
0.0
 11
637.6482457180623
 21
245.4830333467667
 31
0.0
  0
LINE
  5
6BBE
330
6B75
100
AcDbEntity
  8
0
100
AcDbLine
 10
593.2170214884617
 20
251.529348179666
 30
0.0
 11
593.2170214884617
 21
245.4830333467667
 31
0.0
  0
LINE
  5
6BBF
330
6B75
100
AcDbEntity
  8
0
100
AcDbLine
 10
637.6558249281315
 20
363.5505897703778
 30
0.0
 11
637.6558249281315
 21
357.8839244600479
 31
0.0
  0
LINE
  5
6BC0
330
6B75
100
AcDbEntity
  8
0
100
AcDbLine
 10
593.224600698531
 20
363.5505897703778
 30
0.0
 11
593.224600698531
 21
357.8761729952042
 31
0.0
  0
LINE
  5
6BC1
330
6B75
100
AcDbEntity
  8
0
100
AcDbLine
 10
637.6634041382012
 20
475.8789616236763
 30
0.0
 11
637.6634041382012
 21
469.6259410616104
 31
0.0
  0
LINE
  5
6BC2
330
6B75
100
AcDbEntity
  8
0
100
AcDbLine
 10
593.2320076538262
 20
475.8789616236763
 30
0.0
 11
593.2320076538262
 21
469.6259410616104
 31
0.0
  0
LINE
  5
6BC3
330
6B75
100
AcDbEntity
  8
0
100
AcDbLine
 10
1237.867078454607
 20
139.4078543103083
 30
0.0
 11
1237.867078454607
 21
133.5616995251521
 31
0.0
  0
LINE
  5
6BC4
330
6B75
100
AcDbEntity
  8
0
100
AcDbLine
 10
1193.435681970232
 20
139.4078543103084
 30
0.0
 11
1193.435681970232
 21
133.5616995251521
 31
0.0
  0
LINE
  5
6BC5
330
6B75
100
AcDbEntity
  8
0
100
AcDbLine
 10
1237.874485409903
 20
251.529348179666
 30
0.0
 11
1237.874485409903
 21
245.4830333467667
 31
0.0
  0
LINE
  5
6BC6
330
6B75
100
AcDbEntity
  8
0
100
AcDbLine
 10
1193.443261180302
 20
251.529348179666
 30
0.0
 11
1193.443261180302
 21
245.4830333467667
 31
0.0
  0
LINE
  5
6BC7
330
6B75
100
AcDbEntity
  8
0
100
AcDbLine
 10
1237.882064619972
 20
363.4784150199438
 30
0.0
 11
1237.882064619972
 21
357.4300331297528
 31
0.0
  0
LINE
  5
6BC8
330
6B75
100
AcDbEntity
  8
0
100
AcDbLine
 10
1193.450840390371
 20
363.5505897703778
 30
0.0
 11
1193.450840390371
 21
357.4221094101347
 31
0.0
  0
LINE
  5
6BC9
330
6B75
100
AcDbEntity
  8
0
100
AcDbLine
 10
1237.889643830041
 20
475.8789616236763
 30
0.0
 11
1237.889643830041
 21
469.8267901284507
 31
0.0
  0
LINE
  5
6BCA
330
6B75
100
AcDbEntity
  8
0
100
AcDbLine
 10
1193.45841960044
 20
475.8789616236763
 30
0.0
 11
1193.45841960044
 21
469.6259410616104
 31
0.0
  0
LINE
  5
6BCB
330
6B75
100
AcDbEntity
  8
0
100
AcDbLine
 10
51.52226508655201
 20
139.4078543103083
 30
0.0
 11
51.52226508655212
 21
133.5616995251521
 31
0.0
  0
LINE
  5
6BCC
330
6B75
100
AcDbEntity
  8
0
100
AcDbLine
 10
7.09086860217701
 20
139.4078543103083
 30
0.0
 11
7.090868602177124
 21
133.5616995251521
 31
0.0
  0
LINE
  5
6BCD
330
6B75
100
AcDbEntity
  8
0
100
AcDbLine
 10
51.52975816923436
 20
251.529348179666
 30
0.0
 11
51.52975816923436
 21
245.4830333467667
 31
0.0
  0
LINE
  5
6BCE
330
6B75
100
AcDbEntity
  8
0
100
AcDbLine
 10
7.098447812246263
 20
251.5293481796659
 30
0.0
 11
7.098447812246376
 21
245.4830333467667
 31
0.0
  0
LINE
  5
6BCF
330
6B75
100
AcDbEntity
  8
0
100
AcDbLine
 10
51.53725125191659
 20
363.4706635551
 30
0.0
 11
51.53725125191659
 21
357.422281664909
 31
0.0
  0
LINE
  5
6BD0
330
6B75
100
AcDbEntity
  8
0
100
AcDbLine
 10
7.106027022316197
 20
363.5505897703778
 30
0.0
 11
7.106027022316084
 21
357.4145302000653
 31
0.0
  0
LINE
  5
6BD1
330
6B75
100
AcDbEntity
  8
0
100
AcDbLine
 10
51.54491658937331
 20
475.8789616236763
 30
0.0
 11
51.54491658937331
 21
469.8267901284507
 31
0.0
  0
LINE
  5
6BD2
330
6B75
100
AcDbEntity
  8
0
100
AcDbLine
 10
7.113520104998315
 20
475.8789616236763
 30
0.0
 11
7.113520104998315
 21
469.3806502629993
 31
0.0
  0
POLYLINE
  5
6BD3
330
6B75
100
AcDbEntity
  8
0
100
AcDb2dPolyline
 66
     1
 10
0.0
 20
0.0
 30
0.0
 70
     1
  0
VERTEX
  5
6BD4
330
6BD3
100
AcDbEntity
  8
0
100
AcDbVertex
100
AcDb2dVertex
 10
5.400532501916586
 20
469.6259410616104
 30
0.0
  0
VERTEX
  5
6BD5
330
6BD3
100
AcDbEntity
  8
0
100
AcDbVertex
100
AcDb2dVertex
 10
1239.487823626048
 20
469.6259410616104
 30
0.0
  0
VERTEX
  5
6BD6
330
6BD3
100
AcDbEntity
  8
0
100
AcDbVertex
100
AcDb2dVertex
 10
1239.487823626048
 20
363.5505897703778
 30
0.0
  0
VERTEX
  5
6BD7
330
6BD3
100
AcDbEntity
  8
0
100
AcDbVertex
100
AcDb2dVertex
 10
5.400532501916586
 20
363.5505897703778
 30
0.0
  0
SEQEND
  5
6BD8
330
6BD3
100
AcDbEntity
  8
0
  0
POLYLINE
  5
6BD9
330
6B75
100
AcDbEntity
  8
0
100
AcDb2dPolyline
 66
     1
 10
0.0
 20
0.0
 30
0.0
 70
     1
  0
VERTEX
  5
6BDA
330
6BD9
100
AcDbEntity
  8
0
100
AcDbVertex
100
AcDb2dVertex
 10
5.187711728262001
 20
357.6045272161243
 30
0.0
  0
VERTEX
  5
6BDB
330
6BD9
100
AcDbEntity
  8
0
100
AcDbVertex
100
AcDb2dVertex
 10
1239.275088979781
 20
357.6045272161243
 30
0.0
  0
VERTEX
  5
6BDC
330
6BD9
100
AcDbEntity
  8
0
100
AcDbVertex
100
AcDb2dVertex
 10
1239.275088979781
 20
251.529348179666
 30
0.0
  0
VERTEX
  5
6BDD
330
6BD9
100
AcDbEntity
  8
0
100
AcDbVertex
100
AcDb2dVertex
 10
5.187711728262001
 20
251.529348179666
 30
0.0
  0
SEQEND
  5
6BDE
330
6BD9
100
AcDbEntity
  8
0
  0
POLYLINE
  5
6BDF
330
6B75
100
AcDbEntity
  8
0
100
AcDb2dPolyline
 66
     1
 10
0.0
 20
0.0
 30
0.0
 70
     1
  0
VERTEX
  5
6BE0
330
6BDF
100
AcDbEntity
  8
0
100
AcDbVertex
100
AcDb2dVertex
 10
5.195204810944233
 20
245.4830333467667
 30
0.0
  0
VERTEX
  5
6BE1
330
6BDF
100
AcDbEntity
  8
0
100
AcDbVertex
100
AcDb2dVertex
 10
1239.28266818985
 20
245.4830333467667
 30
0.0
  0
VERTEX
  5
6BE2
330
6BDF
100
AcDbEntity
  8
0
100
AcDbVertex
100
AcDb2dVertex
 10
1239.28266818985
 20
139.4078543103083
 30
0.0
  0
VERTEX
  5
6BE3
330
6BDF
100
AcDbEntity
  8
0
100
AcDbVertex
100
AcDb2dVertex
 10
5.195204810944233
 20
139.4078543103083
 30
0.0
  0
SEQEND
  5
6BE4
330
6BDF
100
AcDbEntity
  8
0
  0
POLYLINE
  5
6BE5
330
6B75
100
AcDbEntity
  8
0
100
AcDb2dPolyline
 66
     1
 10
0.0
 20
0.0
 30
0.0
 70
     1
  0
VERTEX
  5
6BE6
330
6BE5
100
AcDbEntity
  8
0
100
AcDbVertex
100
AcDb2dVertex
 10
5.20278402101394
 20
133.5616995251521
 30
0.0
  0
VERTEX
  5
6BE7
330
6BE5
100
AcDbEntity
  8
0
100
AcDbVertex
100
AcDb2dVertex
 10
1239.290075145145
 20
133.5616995251521
 30
0.0
  0
VERTEX
  5
6BE8
330
6BE5
100
AcDbEntity
  8
0
100
AcDbVertex
100
AcDb2dVertex
 10
1239.290075145145
 20
33.10667700996112
 30
0.0
  0
VERTEX
  5
6BE9
330
6BE5
100
AcDbEntity
  8
0
100
AcDbVertex
100
AcDb2dVertex
 10
5.20278402101394
 20
33.10667700996112
 30
0.0
  0
SEQEND
  5
6BEA
330
6BE5
100
AcDbEntity
  8
0
  0
LWPOLYLINE
  5
6BEB
330
6B75
100
AcDbEntity
  8
0
100
AcDbPolyline
 90
        4
 70
     1
 43
0.0
 10
0.3307299845555462
 20
1034.999700013433
 10
1273.000162221968
 20
1034.999700013433
 10
1273.000162221968
 20
0.0418563176867792
 10
0.3307299845554326
 20
0.0418563176868929
1001
GENIUS_GENREC_14
1002
{
1000
PYDIR
1011
0.3307299845554326
1021
0.0418563176867792
1031
0.0
1002
}
1002
{
1000
PXDIR
1011
1273.000162221968
1021
1034.999700013433
1031
0.0
1002
}
1002
{
1000
PORI
1011
0.3307299845555462
1021
1034.999700013433
1031
0.0
1002
}
1002
{
1000
PINS
1011
0.3307299845555462
1021
1034.999700013433
1031
0.0
1002
}
1002
{
1000
PINS2
1011
1273.000162221968
1021
0.0418563176867792
1031
0.0
1002
}
1002
{
1000
C
1070
     1
1002
}
1001
GENIUS_GENODEF_13
1002
{
1000
HIER
1070
     0
1002
}
1002
{
1000
MANEDIT
1070
     0
1002
}
1002
{
1000
NOSEL
1070
     0
1002
}
1002
{
1000
BEHIND
1070
     0
1002
}
1002
{
1000
OTHER
1070
     0
1002
}
1002
{
1000
REACTOR
1002
}
1001
GENIUS_GENOBJ-N-REC_13
1002
{
1000
OWNER
1000
GEN
1002
}
  0
ENDBLK
  5
6BEF
330
6B75
100
AcDbEntity
  8
0
100
AcDbBlockEnd
  0
BLOCK
  5
74A2
330
74A1
100
AcDbEntity
  8
0
100
AcDbBlockBegin
  2
block 2
 70
     0
 10
0.0
 20
0.0
 30
0.0
  3
block 2
  1

  0
SPLINE
  5
74A3
330
74A1
100
AcDbEntity
  8
0
 62
   250
420
  1842203
370
     9
100
AcDbSpline
210
0.0
220
0.0
230
1.0
 70
     8
 71
     3
 72
    44
 73
    40
 74
     0
 42
0.0000000001
 43
0.0000000001
 40
0.0
 40
0.0
 40
0.0
 40
0.0
 40
1.0
 40
1.0
 40
1.0
 40
2.0
 40
2.0
 40
2.0
 40
3.0
 40
3.0
 40
3.0
 40
4.0
 40
4.0
 40
4.0
 40
5.0
 40
5.0
 40
5.0
 40
6.0
 40
6.0
 40
6.0
 40
7.0
 40
7.0
 40
7.0
 40
8.0
 40
8.0
 40
8.0
 40
9.0
 40
9.0
 40
9.0
 40
10.0
 40
10.0
 40
10.0
 40
11.0
 40
11.0
 40
11.0
 40
12.0
 40
12.0
 40
12.0
 40
13.0
 40
13.0
 40
13.0
 40
13.0
 10
101.2225897641909
 20
51.16759167557616
 30
0.0
 10
81.82256806765201
 20
49.84743108562842
 30
0.0
 10
67.27048473795669
 20
66.38388941482763
 30
0.0
 10
63.89704723880004
 20
82.91483559125046
 30
0.0
 10
60.65590140627699
 20
97.03145885161021
 30
0.0
 10
59.99444307310903
 20
102.9845838501219
 30
0.0
 10
57.62697345564534
 20
119.5706515543087
 30
0.0
 10
56.80841876834998
 20
125.32533905287
 30
0.0
 10
51.14468179059925
 20
127.7148572814393
 30
0.0
 10
45.33762884066212
 20
128.0070013785885
 30
0.0
 10
-43.0028876303083
 20
132.4938937385779
 30
0.0
 10
-93.36191539549632
 20
177.462036088447
 30
0.0
 10
-97.21215410981155
 20
186.6590629958699
 30
0.0
 10
-98.91265324133087
 20
190.7215195920765
 30
0.0
 10
-99.11935897044585
 20
194.4008815703234
 30
0.0
 10
-96.47352563777399
 20
198.1491454582752
 30
0.0
 10
-96.47352563777399
 20
198.1491454582752
 30
0.0
 10
-84.86493189067614
 20
210.4715629899168
 30
0.0
 10
-84.86493189067614
 20
210.4715629899168
 30
0.0
 10
-97.32239716533953
 20
216.4246879884286
 30
0.0
 10
-118.7095499377705
 20
223.8109727088042
 30
0.0
 10
-120.2529527151624
 20
222.2675699314123
 30
0.0
 10
-120.6829006317216
 20
221.8376220148531
 30
0.0
 10
-120.9419718122124
 20
221.6116237510207
 30
0.0
 10
-121.3553832704424
 20
221.1651393761323
 30
0.0
 10
-119.7017374375225
 20
214.5505560444527
 30
0.0
 10
-108.1289726834712
 20
195.9194796602215
 30
0.0
 10
-99.08628605378746
 20
185.5538763642018
 30
0.0
 10
-95.08997529089766
 20
180.9760334834018
 30
0.0
 10
-79.57877737810878
 20
167.8846706394524
 30
0.0
 10
-57.74514023078941
 20
143.77451439548
 30
0.0
 10
-11.66354302008759
 20
94.82659774105028
 30
0.0
 10
30.37213405273683
 20
30.33992240994975
 30
0.0
 10
55.70323213668183
 20
-98.98896210632916
 30
0.0
 10
56.30405678930941
 20
-102.0592312027838
 30
0.0
 10
56.4253241503902
 20
-104.2778726952847
 30
0.0
 10
61.72801512128675
 20
-104.2778726952847
 30
0.0
 10
61.72801512128675
 20
-104.2778726952847
 30
0.0
 10
88.02098386471351
 20
-104.2778726952847
 30
0.0
 10
88.02098386471351
 20
-104.2778726952847
 30
0.0
  0
SPLINE
  5
74A4
330
74A1
100
AcDbEntity
  8
0
 62
   250
420
  1842203
370
     9
100
AcDbSpline
210
0.0
220
0.0
230
1.0
 70
    11
 71
     3
 72
    26
 73
    22
 74
     0
 42
0.0000000001
 43
0.0000000001
 40
0.0
 40
0.0
 40
0.0
 40
0.0
 40
1.0
 40
1.0
 40
1.0
 40
2.0
 40
2.0
 40
2.0
 40
3.0
 40
3.0
 40
3.0
 40
4.0
 40
4.0
 40
4.0
 40
5.0
 40
5.0
 40
5.0
 40
6.0
 40
6.0
 40
6.0
 40
7.0
 40
7.0
 40
7.0
 40
7.0
 10
142.7868055198588
 20
58.666875527868
 30
0.0
 10
142.7868055198588
 20
58.666875527868
 30
0.0
 10
105.1636067445424
 20
59.41652830545837
 30
0.0
 10
105.1636067445424
 20
59.41652830545837
 30
0.0
 10
104.8633666730029
 20
56.7927435838921
 30
0.0
 10
100.4701809102123
 20
55.72889809804695
 30
0.0
 10
100.4701809102123
 20
55.72889809804695
 30
0.0
 10
100.7182277851503
 20
52.4932644183003
 30
0.0
 10
101.1371513961567
 20
51.16759167557616
 30
0.0
 10
101.4761487919052
 20
46.67794323919856
 30
0.0
 10
101.3659057363772
 20
46.60628525310538
 30
0.0
 10
103.209720840083
 20
48.02015244025191
 30
0.0
 10
106.5030598692076
 20
48.02015244025191
 30
0.0
 10
120.4074652476759
 20
48.02015244025191
 30
0.0
 10
128.8961805233315
 20
48.02015244025191
 30
0.0
 10
142.7868055198588
 20
48.02015244025191
 30
0.0
 10
142.7868055198588
 20
48.02015244025191
 30
0.0
 10
142.7868055198588
 20
58.666875527868
 30
0.0
 10
142.7868055198588
 20
58.666875527868
 30
0.0
 10
142.7868055198588
 20
58.666875527868
 30
0.0
 10
142.7868055198588
 20
58.666875527868
 30
0.0
 10
142.7868055198588
 20
58.666875527868
 30
0.0
  0
SPLINE
  5
74A5
330
74A1
100
AcDbEntity
  8
0
 62
   250
420
  1842203
370
     9
100
AcDbSpline
210
0.0
220
0.0
230
1.0
 70
     8
 71
     3
 72
    23
 73
    19
 74
     0
 42
0.0000000001
 43
0.0000000001
 40
0.0
 40
0.0
 40
0.0
 40
0.0
 40
1.0
 40
1.0
 40
1.0
 40
2.0
 40
2.0
 40
2.0
 40
3.0
 40
3.0
 40
3.0
 40
4.0
 40
4.0
 40
4.0
 40
5.0
 40
5.0
 40
5.0
 40
6.0
 40
6.0
 40
6.0
 40
6.0
 10
97.23179115407747
 20
51.14829914085876
 30
0.0
 10
97.23179115407747
 20
51.14829914085876
 30
0.0
 10
55.14374862987725
 20
47.86305608612451
 30
0.0
 10
55.14374862987725
 20
47.86305608612451
 30
0.0
 10
49.85208196453351
 20
46.09916719767659
 30
0.0
 10
47.42949081930582
 20
43.61318629552031
 30
0.0
 10
47.42949081930582
 20
39.04361164388493
 30
0.0
 10
47.42949081930582
 20
26.91687553580551
 30
0.0
 10
47.8677069650296
 20
21.84293890512954
 30
0.0
 10
47.8677069650296
 20
10.82138942871826
 30
0.0
 10
49.47449949935013
 20
7.119978839365838
 30
0.0
 10
50.92695175593146
 20
3.967027451265187
 30
0.0
 10
51.85850557514301
 20
1.277096896382114
 30
0.0
 10
64.62465140528481
 20
-35.70393608048374
 30
0.0
 10
67.93194307112464
 20
-44.07965222422315
 30
0.0
 10
75.86668699275207
 20
-91.4896782540373
 30
0.0
 10
77.07109237439542
 20
-98.66650116890976
 30
0.0
 10
84.82117917801346
 20
-100.5406331128857
 30
0.0
 10
92.1826592108953
 20
-100.5406331128857
 30
0.0
  0
SPLINE
  5
74A6
330
74A1
100
AcDbEntity
  8
0
 62
   250
420
  1842203
370
     9
100
AcDbSpline
210
0.0
220
0.0
230
1.0
 70
     8
 71
     3
 72
     8
 73
     4
 74
     0
 42
0.0000000001
 43
0.0000000001
 40
0.0
 40
0.0
 40
0.0
 40
0.0
 40
1.0
 40
1.0
 40
1.0
 40
1.0
 10
174.2060763453373
 20
375.2849310042691
 30
0.0
 10
175.5289930116733
 20
362.2762504519656
 30
0.0
 10
176.2345485670525
 20
350.629071635433
 30
0.0
 10
175.2010199214775
 20
335.3714327503586
 30
0.0
  0
SPLINE
  5
74A7
330
74A1
100
AcDbEntity
  8
0
 62
   250
420
  1842203
370
     9
100
AcDbSpline
210
0.0
220
0.0
230
1.0
 70
     8
 71
     3
 72
    17
 73
    13
 74
     0
 42
0.0000000001
 43
0.0000000001
 40
0.0
 40
0.0
 40
0.0
 40
0.0
 40
1.0
 40
1.0
 40
1.0
 40
2.0
 40
2.0
 40
2.0
 40
3.0
 40
3.0
 40
3.0
 40
4.0
 40
4.0
 40
4.0
 40
4.0
 10
179.6631075939731
 20
397.443785165396
 30
0.0
 10
179.6631075939731
 20
393.582522145528
 30
0.0
 10
182.5735242599122
 20
392.3946532222138
 30
0.0
 10
185.618988668873
 20
392.3946532222138
 30
0.0
 10
188.3171874529207
 20
392.3946532222138
 30
0.0
 10
189.4196180082007
 20
392.3946532222138
 30
0.0
 10
192.3217664449751
 20
392.3946532222138
 30
0.0
 10
195.3369140136658
 20
392.3946532222138
 30
0.0
 10
197.0511935271261
 20
389.6055039173556
 30
0.0
 10
197.3488497770517
 20
386.6372096472643
 30
0.0
 10
203.0814886645074
 20
329.5946966406916
 30
0.0
 10
194.4907985624884
 20
295.3559596700846
 30
0.0
 10
180.1592013438491
 20
250.6000352021069
 30
0.0
  0
SPLINE
  5
74A8
330
74A1
100
AcDbEntity
  8
0
 62
   250
420
  1842203
370
     9
100
AcDbSpline
210
0.0
220
0.0
230
1.0
 70
     8
 71
     3
 72
    29
 73
    25
 74
     0
 42
0.0000000001
 43
0.0000000001
 40
0.0
 40
0.0
 40
0.0
 40
0.0
 40
1.0
 40
1.0
 40
1.0
 40
2.0
 40
2.0
 40
2.0
 40
3.0
 40
3.0
 40
3.0
 40
4.0
 40
4.0
 40
4.0
 40
5.0
 40
5.0
 40
5.0
 40
6.0
 40
6.0
 40
6.0
 40
7.0
 40
7.0
 40
7.0
 40
8.0
 40
8.0
 40
8.0
 40
8.0
 10
159.9268445780738
 20
270.4548095026988
 30
0.0
 10
155.5226345097304
 20
260.7231037759651
 30
0.0
 10
160.108745619695
 20
250.6468885007063
 30
0.0
 10
174.6470485674493
 20
252.9151393681948
 30
0.0
 10
181.661262975418
 20
254.0093016943102
 30
0.0
 10
171.4031466585381
 20
243.2137504817313
 30
0.0
 10
171.4031466585381
 20
234.6671576019235
 30
0.0
 10
171.4031466585381
 20
234.6671576019235
 30
0.0
 10
171.4031466585381
 20
187.9268581344419
 30
0.0
 10
171.4031466585381
 20
187.9268581344419
 30
0.0
 10
171.3425129779977
 20
185.3581949406396
 30
0.0
 10
171.7200954431811
 20
181.9186116081662
 30
0.0
 10
168.6939235689376
 20
181.9186116081662
 30
0.0
 10
165.348046833663
 20
181.9186116081662
 30
0.0
 10
161.8588541262019
 20
181.9186116081662
 30
0.0
 10
157.2286457940262
 20
181.9186116081662
 30
0.0
 10
154.3182291280871
 20
181.9186116081662
 30
0.0
 10
151.4298610732536
 20
178.0849093521801
 30
0.0
 10
150.3935763512905
 20
174.1988416448183
 30
0.0
 10
143.5585069085548
 20
148.6252088387117
 30
0.0
 10
138.156597187683
 20
133.1801567592397
 30
0.0
 10
134.4083332997312
 20
105.8398789882969
 30
0.0
 10
133.4161457999793
 20
99.89502221894987
 30
0.0
 10
136.7234374658191
 20
95.70854218527426
 30
0.0
 10
142.679318540719
 20
95.70854218527426
 30
0.0
  0
POLYLINE
  5
74A9
330
74A1
100
AcDbEntity
  8
0
 62
   250
420
  1842203
370
     9
100
AcDb2dPolyline
 66
     1
 10
0.0
 20
0.0
 30
0.0
  0
VERTEX
  5
74AA
330
74A9
100
AcDbEntity
  8
0
 62
   250
420
  1842203
370
     9
100
AcDbVertex
100
AcDb2dVertex
 10
142.2355902422189
 20
93.28043888727018
 30
0.0
  0
VERTEX
  5
74AB
330
74A9
100
AcDbEntity
  8
0
 62
   250
420
  1842203
370
     9
100
AcDbVertex
100
AcDb2dVertex
 10
105.4998480639028
 20
93.27492673449377
 30
0.0
  0
SEQEND
  5
74AC
330
74A9
100
AcDbEntity
  8
0
370
     9
  0
POLYLINE
  5
74AD
330
74A1
100
AcDbEntity
  8
0
 62
   250
420
  1842203
370
     9
100
AcDb2dPolyline
 66
     1
 10
0.0
 20
0.0
 30
0.0
  0
VERTEX
  5
74AE
330
74AD
100
AcDbEntity
  8
0
 62
   250
420
  1842203
370
     9
100
AcDbVertex
100
AcDb2dVertex
 10
173.9855902342813
 20
211.9047227117808
 30
0.0
  0
VERTEX
  5
74AF
330
74AD
100
AcDbEntity
  8
0
 62
   250
420
  1842203
370
     9
100
AcDbVertex
100
AcDb2dVertex
 10
215.7842447377206
 20
211.9047227117808
 30
0.0
  0
SEQEND
  5
74B0
330
74AD
100
AcDbEntity
  8
0
370
     9
  0
SPLINE
  5
74B1
330
74A1
100
AcDbEntity
  8
0
 62
   250
420
  1842203
370
     9
100
AcDbSpline
210
0.0
220
0.0
230
1.0
 70
    11
 71
     3
 72
    20
 73
    16
 74
     0
 42
0.0000000001
 43
0.0000000001
 40
0.0
 40
0.0
 40
0.0
 40
0.0
 40
1.0
 40
1.0
 40
1.0
 40
2.0
 40
2.0
 40
2.0
 40
3.0
 40
3.0
 40
3.0
 40
4.0
 40
4.0
 40
4.0
 40
5.0
 40
5.0
 40
5.0
 40
5.0
 10
178.4862629762117
 20
197.5731254931414
 30
0.0
 10
178.4862629762117
 20
200.3236897285649
 30
0.0
 10
180.7159287742654
 20
202.5533555266186
 30
0.0
 10
183.4664930096889
 20
202.5533555266186
 30
0.0
 10
186.2170572451124
 20
202.5533555266186
 30
0.0
 10
188.4494791195543
 20
200.3236897285649
 30
0.0
 10
188.4494791195543
 20
197.5731254931414
 30
0.0
 10
188.4494791195543
 20
194.8225612577179
 30
0.0
 10
186.2170572451124
 20
192.5928954596642
 30
0.0
 10
183.4664930096889
 20
192.5928954596642
 30
0.0
 10
180.7159287742654
 20
192.5928954596642
 30
0.0
 10
178.4862629762117
 20
194.8225612577179
 30
0.0
 10
178.4862629762117
 20
197.5731254931414
 30
0.0
 10
178.4862629762117
 20
197.5731254931414
 30
0.0
 10
178.4862629762117
 20
197.5731254931414
 30
0.0
 10
178.4862629762117
 20
197.5731254931414
 30
0.0
  0
SPLINE
  5
74B2
330
74A1
100
AcDbEntity
  8
0
 62
   250
420
  1842203
370
     9
100
AcDbSpline
210
0.0
220
0.0
230
1.0
 70
     8
 71
     3
 72
    14
 73
    10
 74
     0
 42
0.0000000001
 43
0.0000000001
 40
0.0
 40
0.0
 40
0.0
 40
0.0
 40
1.0
 40
1.0
 40
1.0
 40
2.0
 40
2.0
 40
2.0
 40
3.0
 40
3.0
 40
3.0
 40
3.0
 10
181.6254339823714
 20
192.7224310499097
 30
0.0
 10
180.9612195728152
 20
193.568546501087
 30
0.0
 10
180.5671006493026
 20
194.6323919869321
 30
0.0
 10
180.5671006493026
 20
195.7899440699761
 30
0.0
 10
180.5671006493026
 20
198.5432643817878
 30
0.0
 10
182.7995225237446
 20
200.7701741034533
 30
0.0
 10
185.550086759168
 20
200.7701741034533
 30
0.0
 10
186.349348911746
 20
200.7701741034533
 30
0.0
 10
187.0080511685258
 20
200.5827609090557
 30
0.0
 10
187.6777777308583
 20
200.2465195896953
 30
0.0
  0
POLYLINE
  5
74B3
330
74A1
100
AcDbEntity
  8
0
 62
   250
420
  1842203
370
     9
100
AcDb2dPolyline
 66
     1
 10
0.0
 20
0.0
 30
0.0
  0
VERTEX
  5
74B4
330
74B3
100
AcDbEntity
  8
0
 62
   250
420
  1842203
370
     9
100
AcDbVertex
100
AcDb2dVertex
 10
198.3548176587446
 20
335.2997747642654
 30
0.0
  0
VERTEX
  5
74B5
330
74B3
100
AcDbEntity
  8
0
 62
   250
420
  1842203
370
     9
100
AcDbVertex
100
AcDb2dVertex
 10
215.7842447377206
 20
333.9603216396002
 30
0.0
  0
VERTEX
  5
74B6
330
74B3
100
AcDbEntity
  8
0
 62
   250
420
  1842203
370
     9
100
AcDbVertex
100
AcDb2dVertex
 10
215.7842447377206
 20
329.2667235504958
 30
0.0
  0
VERTEX
  5
74B7
330
74B3
100
AcDbEntity
  8
0
 62
   250
420
  1842203
370
     9
100
AcDbVertex
100
AcDb2dVertex
 10
198.0185763393842
 20
329.2667235504958
 30
0.0
  0
SEQEND
  5
74B8
330
74B3
100
AcDbEntity
  8
0
370
     9
  0
POLYLINE
  5
74B9
330
74A1
100
AcDbEntity
  8
0
 62
   250
420
  1842203
370
     9
100
AcDb2dPolyline
 66
     1
 10
0.0
 20
0.0
 30
0.0
  0
VERTEX
  5
74BA
330
74B9
100
AcDbEntity
  8
0
 62
   250
420
  1842203
370
     9
100
AcDbVertex
100
AcDb2dVertex
 10
199.3580294640494
 20
373.1792886436843
 30
0.0
  0
VERTEX
  5
74BB
330
74B9
100
AcDbEntity
  8
0
 62
   250
420
  1842203
370
     9
100
AcDbVertex
100
AcDb2dVertex
 10
215.4507594947484
 20
373.5155299630447
 30
0.0
  0
SEQEND
  5
74BC
330
74B9
100
AcDbEntity
  8
0
370
     9
  0
POLYLINE
  5
74BD
330
74A1
100
AcDbEntity
  8
0
  6
AI-Linetype-1
 62
   250
420
  1842203
370
     9
100
AcDb2dPolyline
 66
     1
 10
0.0
 20
0.0
 30
0.0
  0
VERTEX
  5
74BE
330
74BD
100
AcDbEntity
  8
0
  6
AI-Linetype-1
 62
   250
420
  1842203
370
     9
100
AcDbVertex
100
AcDb2dVertex
 10
138.707812465323
 20
400.6408337757078
 30
0.0
  0
VERTEX
  5
74BF
330
74BD
100
AcDbEntity
  8
0
  6
AI-Linetype-1
 62
   250
420
  1842203
370
     9
100
AcDbVertex
100
AcDb2dVertex
 10
204.619379289123
 20
400.6408337757078
 30
0.0
  0
SEQEND
  5
74C0
330
74BD
100
AcDbEntity
  8
0
  6
AI-Linetype-1
370
     9
  0
POLYLINE
  5
74C1
330
74A1
100
AcDbEntity
  8
0
 62
   250
420
  1842203
370
     9
100
AcDb2dPolyline
 66
     1
 10
0.0
 20
0.0
 30
0.0
  0
VERTEX
  5
74C2
330
74C1
100
AcDbEntity
  8
0
 62
   250
420
  1842203
370
     9
100
AcDbVertex
100
AcDb2dVertex
 10
115.2205294850837
 20
447.5988632778572
 30
0.0
  0
VERTEX
  5
74C3
330
74C1
100
AcDbEntity
  8
0
 62
   250
420
  1842203
370
     9
100
AcDbVertex
100
AcDb2dVertex
 10
-123.7807304920583
 20
224.6929171530282
 30
0.0
  0
SEQEND
  5
74C4
330
74C1
100
AcDbEntity
  8
0
370
     9
  0
POLYLINE
  5
74C5
330
74A1
100
AcDbEntity
  8
0
 62
   250
420
  1842203
370
     9
100
AcDb2dPolyline
 66
     1
 10
0.0
 20
0.0
 30
0.0
  0
VERTEX
  5
74C6
330
74C5
100
AcDbEntity
  8
0
 62
   250
420
  1842203
370
     9
100
AcDbVertex
100
AcDb2dVertex
 10
117.1001735818361
 20
394.7979518327242
 30
0.0
  0
VERTEX
  5
74C7
330
74C5
100
AcDbEntity
  8
0
 62
   250
420
  1842203
370
     9
100
AcDbVertex
100
AcDb2dVertex
 10
-83.52547876601098
 20
206.0618407687971
 30
0.0
  0
SEQEND
  5
74C8
330
74C5
100
AcDbEntity
  8
0
370
     9
  0
POLYLINE
  5
74C9
330
74A1
100
AcDbEntity
  8
0
 62
   250
420
  1842203
370
     9
100
AcDb2dPolyline
 66
     1
 10
0.0
 20
0.0
 30
0.0
  0
VERTEX
  5
74CA
330
74C9
100
AcDbEntity
  8
0
 62
   250
420
  1842203
370
     9
100
AcDbVertex
100
AcDb2dVertex
 10
105.4998480639028
 20
91.51930607521045
 30
0.0
  0
VERTEX
  5
74CB
330
74C9
100
AcDbEntity
  8
0
 62
   250
420
  1842203
370
     9
100
AcDbVertex
100
AcDb2dVertex
 10
105.4998480639028
 20
56.90023056303189
 30
0.0
  0
SEQEND
  5
74CC
330
74C9
100
AcDbEntity
  8
0
370
     9
  0
POLYLINE
  5
74CD
330
74A1
100
AcDbEntity
  8
0
 62
   250
420
  1842203
370
     9
100
AcDb2dPolyline
 66
     1
 10
0.0
 20
0.0
 30
0.0
  0
VERTEX
  5
74CE
330
74CD
100
AcDbEntity
  8
0
 62
   250
420
  1842203
370
     9
100
AcDbVertex
100
AcDb2dVertex
 10
215.6161240780404
 20
-97.80109318301501
 30
0.0
  0
VERTEX
  5
74CF
330
74CD
100
AcDbEntity
  8
0
 62
   250
420
  1842203
370
     9
100
AcDbVertex
100
AcDb2dVertex
 10
84.68888751137987
 20
-96.55810273193687
 30
0.0
  0
SEQEND
  5
74D0
330
74CD
100
AcDbEntity
  8
0
370
     9
  0
SPLINE
  5
74D1
330
74A1
100
AcDbEntity
  8
0
 62
   250
420
  1842203
370
     9
100
AcDbSpline
210
0.0
220
0.0
230
1.0
 70
    11
 71
     3
 72
    23
 73
    19
 74
     0
 42
0.0000000001
 43
0.0000000001
 40
0.0
 40
0.0
 40
0.0
 40
0.0
 40
1.0
 40
1.0
 40
1.0
 40
2.0
 40
2.0
 40
2.0
 40
3.0
 40
3.0
 40
3.0
 40
4.0
 40
4.0
 40
4.0
 40
5.0
 40
5.0
 40
5.0
 40
6.0
 40
6.0
 40
6.0
 40
6.0
 10
84.74400903914386
 20
-96.55810273193687
 30
0.0
 10
84.74400903914386
 20
-96.55810273193687
 30
0.0
 10
84.96449515019985
 20
-108.4505723470193
 30
0.0
 10
84.96449515019985
 20
-108.4505723470193
 30
0.0
 10
84.96449515019985
 20
-108.4505723470193
 30
0.0
 10
103.4880845552912
 20
-108.2411105415161
 30
0.0
 10
103.4880845552912
 20
-108.2411105415161
 30
0.0
 10
103.4880845552912
 20
-108.2411105415161
 30
0.0
 10
103.4880845552912
 20
-101.5190402306966
 30
0.0
 10
103.4880845552912
 20
-101.5190402306966
 30
0.0
 10
103.4880845552912
 20
-99.16810707156216
 30
0.0
 10
101.4761487919052
 20
-96.69315047495866
 30
0.0
 10
97.58732500815526
 20
-96.69315047495866
 30
0.0
 10
97.58732500815526
 20
-96.69315047495866
 30
0.0
 10
84.74400903914386
 20
-96.55810273193687
 30
0.0
 10
84.74400903914386
 20
-96.55810273193687
 30
0.0
 10
84.74400903914386
 20
-96.55810273193687
 30
0.0
 10
84.74400903914386
 20
-96.55810273193687
 30
0.0
 10
84.74400903914386
 20
-96.55810273193687
 30
0.0
  0
SPLINE
  5
74D2
330
74A1
100
AcDbEntity
  8
0
 62
   250
420
  1842203
370
     9
100
AcDbSpline
210
0.0
220
0.0
230
1.0
 70
     8
 71
     3
 72
    11
 73
     7
 74
     0
 42
0.0000000001
 43
0.0000000001
 40
0.0
 40
0.0
 40
0.0
 40
0.0
 40
1.0
 40
1.0
 40
1.0
 40
2.0
 40
2.0
 40
2.0
 40
2.0
 10
44.89114446577374
 20
132.1989935650405
 30
0.0
 10
44.89114446577374
 20
132.1989935650405
 30
0.0
 10
103.8243258746515
 20
134.839314744936
 30
0.0
 10
103.8243258746515
 20
134.839314744936
 30
0.0
 10
106.4065971956206
 20
134.839314744936
 30
0.0
 10
107.1755425079283
 20
135.845282626629
 30
0.0
 10
108.853993028342
 20
138.8631862717078
 30
0.0
  0
SPLINE
  5
74D3
330
74A1
100
AcDbEntity
  8
0
 62
   250
420
  1842203
370
     9
100
AcDbSpline
210
0.0
220
0.0
230
1.0
 70
     8
 71
     3
 72
    14
 73
    10
 74
     0
 42
0.0000000001
 43
0.0000000001
 40
0.0
 40
0.0
 40
0.0
 40
0.0
 40
1.0
 40
1.0
 40
1.0
 40
2.0
 40
2.0
 40
2.0
 40
3.0
 40
3.0
 40
3.0
 40
3.0
 10
46.76527640974965
 20
318.8377304975475
 30
0.0
 10
62.41703421833672
 20
329.8151827517476
 30
0.0
 10
73.03895261845902
 20
334.412318167265
 30
0.0
 10
91.75271129433614
 20
338.3149223329561
 30
0.0
 10
110.0556423335972
 20
342.1293320542246
 30
0.0
 10
119.7460069145079
 20
337.1408337915828
 30
0.0
 10
139.6917317359104
 20
338.6511636523164
 30
0.0
 10
151.4243489204772
 20
341.6690672973953
 30
0.0
 10
158.0747612452035
 20
344.6070447272163
 30
0.0
 10
168.9144096799936
 20
343.5349310122066
 30
0.0
  0
POLYLINE
  5
74D4
330
74A1
100
AcDbEntity
  8
0
 62
   250
420
  1842203
370
     9
100
AcDb2dPolyline
 66
     1
 10
0.0
 20
0.0
 30
0.0
  0
VERTEX
  5
74D5
330
74D4
100
AcDbEntity
  8
0
 62
   250
420
  1842203
370
     9
100
AcDbVertex
100
AcDb2dVertex
 10
215.7842447377206
 20
437.5391844609277
 30
0.0
  0
VERTEX
  5
74D6
330
74D4
100
AcDbEntity
  8
0
 62
   250
420
  1842203
370
     9
100
AcDbVertex
100
AcDb2dVertex
 10
178.1748263443452
 20
437.0210420999462
 30
0.0
  0
VERTEX
  5
74D7
330
74D4
100
AcDbEntity
  8
0
 62
   250
420
  1842203
370
     9
100
AcDbVertex
100
AcDb2dVertex
 10
178.1748263443452
 20
450.8179604992746
 30
0.0
  0
VERTEX
  5
74D8
330
74D4
100
AcDbEntity
  8
0
 62
   250
420
  1842203
370
     9
100
AcDbVertex
100
AcDb2dVertex
 10
215.4507594947484
 20
450.8179604992746
 30
0.0
  0
VERTEX
  5
74D9
330
74D4
100
AcDbEntity
  8
0
 62
   250
420
  1842203
370
     9
100
AcDbVertex
100
AcDb2dVertex
 10
215.7842447377206
 20
437.5391844609277
 30
0.0
  0
VERTEX
  5
74DA
330
74D4
100
AcDbEntity
  8
0
 62
   250
420
  1842203
370
     9
100
AcDbVertex
100
AcDb2dVertex
 10
215.7842447377206
 20
437.5391844609277
 30
0.0
  0
SEQEND
  5
74DB
330
74D4
100
AcDbEntity
  8
0
370
     9
  0
SPLINE
  5
74DC
330
74A1
100
AcDbEntity
  8
0
 62
   250
420
  1842203
370
     9
100
AcDbSpline
210
0.0
220
0.0
230
1.0
 70
     8
 71
     3
 72
    26
 73
    22
 74
     0
 42
0.0000000001
 43
0.0000000001
 40
0.0
 40
0.0
 40
0.0
 40
0.0
 40
1.0
 40
1.0
 40
1.0
 40
2.0
 40
2.0
 40
2.0
 40
3.0
 40
3.0
 40
3.0
 40
4.0
 40
4.0
 40
4.0
 40
5.0
 40
5.0
 40
5.0
 40
6.0
 40
6.0
 40
6.0
 40
7.0
 40
7.0
 40
7.0
 40
7.0
 10
178.1748263443452
 20
446.9429170974656
 30
0.0
 10
178.1748263443452
 20
446.9429170974656
 30
0.0
 10
122.3918402471798
 20
446.9429170974656
 30
0.0
 10
122.3918402471798
 20
446.9429170974656
 30
0.0
 10
117.871874970532
 20
446.9429170974656
 30
0.0
 10
114.7850694157481
 20
442.0894665778456
 30
0.0
 10
114.7850694157481
 20
431.9471054692701
 30
0.0
 10
114.7850694157481
 20
416.7335638064068
 30
0.0
 10
117.554926185889
 20
400.5581514840618
 30
0.0
 10
120.7409504906481
 20
395.6991888116655
 30
0.0
 10
132.2475694113825
 20
378.1429822188323
 30
0.0
 10
133.4244140291439
 20
376.056632392965
 30
0.0
 10
143.4482638530268
 20
361.7250351743257
 30
0.0
 10
152.5984374618504
 20
351.4724310102222
 30
0.0
 10
159.874479126698
 20
348.1623832679941
 30
0.0
 10
167.9222221802417
 20
348.1623832679941
 30
0.0
 10
172.7150390193212
 20
348.1623832679941
 30
0.0
 10
175.1018011715023
 20
343.2565672969984
 30
0.0
 10
175.1982638450893
 20
338.4637504579188
 30
0.0
 10
176.4109374558973
 20
277.6095838064656
 30
0.0
 10
108.5012152506525
 20
177.7293754981024
 30
0.0
 10
109.8351562225412
 20
89.36405433963816
 30
0.0
  0
SPLINE
  5
74DD
330
74A1
100
AcDbEntity
  8
0
 62
   250
420
  1842203
370
     9
100
AcDbSpline
210
0.0
220
0.0
230
1.0
 70
     8
 71
     3
 72
    11
 73
     7
 74
     0
 42
0.0000000001
 43
0.0000000001
 40
0.0
 40
0.0
 40
0.0
 40
0.0
 40
1.0
 40
1.0
 40
1.0
 40
2.0
 40
2.0
 40
2.0
 40
2.0
 10
180.58639318402
 20
421.6945013051667
 30
0.0
 10
180.58639318402
 20
421.6945013051667
 30
0.0
 10
156.4514322525538
 20
421.6945013051667
 30
0.0
 10
156.4514322525538
 20
421.6945013051667
 30
0.0
 10
151.9369791286824
 20
421.6945013051667
 30
0.0
 10
151.1652777399864
 20
419.0293754377774
 30
0.0
 10
151.1652777399864
 20
415.7413763066549
 30
0.0
  0
SPLINE
  5
74DE
330
74A1
100
AcDbEntity
  8
0
 62
   250
420
  1842203
370
     9
100
AcDbSpline
210
0.0
220
0.0
230
1.0
 70
     8
 71
     3
 72
    11
 73
     7
 74
     0
 42
0.0000000001
 43
0.0000000001
 40
0.0
 40
0.0
 40
0.0
 40
0.0
 40
1.0
 40
1.0
 40
1.0
 40
2.0
 40
2.0
 40
2.0
 40
2.0
 10
180.5836371076319
 20
377.8205212814129
 30
0.0
 10
180.5836371076319
 20
377.8205212814129
 30
0.0
 10
156.4486761761656
 20
377.8205212814129
 30
0.0
 10
156.4486761761656
 20
377.8205212814129
 30
0.0
 10
151.9342230522942
 20
377.8205212814129
 30
0.0
 10
151.1625216635982
 20
380.4884032251905
 30
0.0
 10
151.1625216635982
 20
383.7736462799247
 30
0.0
  0
POLYLINE
  5
74DF
330
74A1
100
AcDbEntity
  8
0
 62
   250
420
  1842203
370
     9
100
AcDb2dPolyline
 66
     1
 10
0.0
 20
0.0
 30
0.0
  0
VERTEX
  5
74E0
330
74DF
100
AcDbEntity
  8
0
 62
   250
420
  1842203
370
     9
100
AcDbVertex
100
AcDb2dVertex
 10
147.0311631576866
 20
416.5681992231148
 30
0.0
  0
VERTEX
  5
74E1
330
74DF
100
AcDbEntity
  8
0
 62
   250
420
  1842203
370
     9
100
AcDbVertex
100
AcDb2dVertex
 10
147.0311631576866
 20
382.7098007940795
 30
0.0
  0
SEQEND
  5
74E2
330
74DF
100
AcDbEntity
  8
0
370
     9
  0
POLYLINE
  5
74E3
330
74A1
100
AcDbEntity
  8
0
 62
   250
420
  1842203
370
     9
100
AcDb2dPolyline
 66
     1
 10
0.0
 20
0.0
 30
0.0
  0
VERTEX
  5
74E4
330
74E3
100
AcDbEntity
  8
0
 62
   250
420
  1842203
370
     9
100
AcDbVertex
100
AcDb2dVertex
 10
155.4454643708608
 20
418.803377173945
 30
0.0
  0
VERTEX
  5
74E5
330
74E3
100
AcDbEntity
  8
0
 62
   250
420
  1842203
370
     9
100
AcDbVertex
100
AcDb2dVertex
 10
155.4454643708608
 20
382.8255560023839
 30
0.0
  0
SEQEND
  5
74E6
330
74E3
100
AcDbEntity
  8
0
370
     9
  0
SPLINE
  5
74E7
330
74A1
100
AcDbEntity
  8
0
 62
   250
420
  1842203
370
     9
100
AcDbSpline
210
0.0
220
0.0
230
1.0
 70
     8
 71
     3
 72
    11
 73
     7
 74
     0
 42
0.0000000001
 43
0.0000000001
 40
0.0
 40
0.0
 40
0.0
 40
0.0
 40
1.0
 40
1.0
 40
1.0
 40
2.0
 40
2.0
 40
2.0
 40
2.0
 10
175.6392360672013
 20
422.2484726591948
 30
0.0
 10
175.6392360672013
 20
422.2484726591948
 30
0.0
 10
175.6392360672013
 20
434.0444796006902
 30
0.0
 10
175.6392360672013
 20
434.0444796006902
 30
0.0
 10
175.6392360672013
 20
438.1234726552261
 30
0.0
 10
179.0925997816157
 20
441.1220837655875
 30
0.0
 10
183.7861978707201
 20
441.1220837655875
 30
0.0
  0
POLYLINE
  5
74E8
330
74A1
100
AcDbEntity
  8
0
 62
   250
420
  1842203
370
     9
100
AcDb2dPolyline
 66
     1
 10
0.0
 20
0.0
 30
0.0
  0
VERTEX
  5
74E9
330
74E8
100
AcDbEntity
  8
0
 62
   250
420
  1842203
370
     9
100
AcDbVertex
100
AcDb2dVertex
 10
179.6631075939731
 20
418.031675785249
 30
0.0
  0
VERTEX
  5
74EA
330
74E8
100
AcDbEntity
  8
0
 62
   250
420
  1842203
370
     9
100
AcDbVertex
100
AcDb2dVertex
 10
179.6631075939731
 20
382.0566106900761
 30
0.0
  0
SEQEND
  5
74EB
330
74E8
100
AcDbEntity
  8
0
370
     9
  0
SPLINE
  5
74EC
330
74A1
100
AcDbEntity
  8
0
 62
   250
420
  1842203
370
     9
100
AcDbSpline
210
0.0
220
0.0
230
1.0
 70
     8
 71
     3
 72
    14
 73
    10
 74
     0
 42
0.0000000001
 43
0.0000000001
 40
0.0
 40
0.0
 40
0.0
 40
0.0
 40
1.0
 40
1.0
 40
1.0
 40
2.0
 40
2.0
 40
2.0
 40
3.0
 40
3.0
 40
3.0
 40
3.0
 10
122.256792504158
 20
450.9006427909207
 30
0.0
 10
122.256792504158
 20
450.9006427909207
 30
0.0
 10
216.3905815431246
 20
451.2341280338929
 30
0.0
 10
216.3905815431246
 20
451.2341280338929
 30
0.0
 10
216.3905815431246
 20
451.2341280338929
 30
0.0
 10
216.3354600153606
 20
-108.2411105415161
 30
0.0
 10
216.3354600153606
 20
-108.2411105415161
 30
0.0
 10
216.3354600153606
 20
-108.2411105415161
 30
0.0
 10
123.9848523995593
 20
-108.2411105415161
 30
0.0
 10
61.24570175335177
 20
-108.2411105415161
 30
0.0
  0
POLYLINE
  5
74ED
330
74A1
100
AcDbEntity
  8
0
  6
AI-Linetype-2
 62
    88
420
   790026
370
     9
100
AcDb2dPolyline
 66
     1
 10
0.0
 20
0.0
 30
0.0
  0
VERTEX
  5
74EE
330
74ED
100
AcDbEntity
  8
0
  6
AI-Linetype-2
 62
    88
420
   790026
370
     9
100
AcDbVertex
100
AcDb2dVertex
 10
179.1642577677089
 20
103.7342366277123
 30
0.0
  0
VERTEX
  5
74EF
330
74ED
100
AcDbEntity
  8
0
  6
AI-Linetype-2
 62
    88
420
   790026
370
     9
100
AcDbVertex
100
AcDb2dVertex
 10
147.7587673241714
 20
103.7342366277123
 30
0.0
  0
VERTEX
  5
74F0
330
74ED
100
AcDbEntity
  8
0
  6
AI-Linetype-2
 62
    88
420
   790026
370
     9
100
AcDbVertex
100
AcDb2dVertex
 10
147.7587673241714
 20
41.9430040042712
 30
0.0
  0
VERTEX
  5
74F1
330
74ED
100
AcDbEntity
  8
0
  6
AI-Linetype-2
 62
    88
420
   790026
370
     9
100
AcDbVertex
100
AcDb2dVertex
 10
179.1642577677089
 20
41.9430040042712
 30
0.0
  0
SEQEND
  5
74F2
330
74ED
100
AcDbEntity
  8
0
  6
AI-Linetype-2
370
     9
  0
SPLINE
  5
74F3
330
74A1
100
AcDbEntity
  8
0
  6
AI-Linetype-3
 62
    88
420
   790026
370
     9
100
AcDbSpline
210
0.0
220
0.0
230
1.0
 70
     8
 71
     3
 72
    14
 73
    10
 74
     0
 42
0.0000000001
 43
0.0000000001
 40
0.0
 40
0.0
 40
0.0
 40
0.0
 40
1.0
 40
1.0
 40
1.0
 40
2.0
 40
2.0
 40
2.0
 40
3.0
 40
3.0
 40
3.0
 40
3.0
 10
194.485286409712
 20
-19.84271646639349
 30
0.0
 10
194.485286409712
 20
-19.84271646639349
 30
0.0
 10
194.333702208361
 20
-19.84271646639349
 30
0.0
 10
194.333702208361
 20
-19.84271646639349
 30
0.0
 10
185.9414496062924
 20
-19.84271646639349
 30
0.0
 10
179.1284287746623
 20
-13.04071994031621
 30
0.0
 10
179.1284287746623
 20
-4.642955185471206
 30
0.0
 10
179.1284287746623
 20
-4.642955185471206
 30
0.0
 10
179.1284287746623
 20
25.17779133485138
 30
0.0
 10
179.1284287746623
 20
25.17779133485138
 30
0.0
  0
SPLINE
  5
74F4
330
74A1
100
AcDbEntity
  8
0
  6
AI-Linetype-4
 62
    88
420
   790026
370
     9
100
AcDbSpline
210
0.0
220
0.0
230
1.0
 70
     8
 71
     3
 72
    20
 73
    16
 74
     0
 42
0.0000000001
 43
0.0000000001
 40
0.0
 40
0.0
 40
0.0
 40
0.0
 40
1.0
 40
1.0
 40
1.0
 40
2.0
 40
2.0
 40
2.0
 40
3.0
 40
3.0
 40
3.0
 40
4.0
 40
4.0
 40
4.0
 40
5.0
 40
5.0
 40
5.0
 40
5.0
 10
194.4797742569356
 20
119.1820447835725
 30
0.0
 10
194.4797742569356
 20
119.1820447835725
 30
0.0
 10
194.3502386666902
 20
119.1820447835725
 30
0.0
 10
194.3502386666902
 20
119.1820447835725
 30
0.0
 10
185.9524739118452
 20
119.1820447835725
 30
0.0
 10
179.1422091566033
 20
112.3745361047189
 30
0.0
 10
179.1422091566033
 20
103.9740152734856
 30
0.0
 10
179.1422091566033
 20
103.9740152734856
 30
0.0
 10
179.1256726982741
 20
24.77540418217421
 30
0.0
 10
179.1256726982741
 20
24.77540418217421
 30
0.0
 10
179.1256726982741
 20
16.3831515801056
 30
0.0
 10
185.935937453516
 20
9.581155054028322
 30
0.0
 10
194.3281900555846
 20
9.581155054028322
 30
0.0
 10
194.3281900555846
 20
9.581155054028322
 30
0.0
 10
194.4797742569356
 20
9.581155054028322
 30
0.0
 10
194.4797742569356
 20
9.581155054028322
 30
0.0
  0
POLYLINE
  5
74F5
330
74A1
100
AcDbEntity
  8
0
  6
AI-Linetype-5
 62
    88
420
   790026
370
     9
100
AcDb2dPolyline
 66
     1
 10
0.0
 20
0.0
 30
0.0
  0
VERTEX
  5
74F6
330
74F5
100
AcDbEntity
  8
0
  6
AI-Linetype-5
 62
    88
420
   790026
370
     9
100
AcDbVertex
100
AcDb2dVertex
 10
214.1002820645305
 20
18.99866807250728
 30
0.0
  0
VERTEX
  5
74F7
330
74F5
100
AcDbEntity
  8
0
  6
AI-Linetype-5
 62
    88
420
   790026
370
     9
100
AcDbVertex
100
AcDb2dVertex
 10
214.1002820645305
 20
137.3638807165271
 30
0.0
  0
VERTEX
  5
74F8
330
74F5
100
AcDbEntity
  8
0
  6
AI-Linetype-5
 62
    88
420
   790026
370
     9
100
AcDbVertex
100
AcDb2dVertex
 10
212.1407117525204
 20
137.3638807165271
 30
0.0
  0
VERTEX
  5
74F9
330
74F5
100
AcDbEntity
  8
0
  6
AI-Linetype-5
 62
    88
420
   790026
370
     9
100
AcDbVertex
100
AcDb2dVertex
 10
212.1407117525204
 20
123.1397704770275
 30
0.0
  0
VERTEX
  5
74FA
330
74F5
100
AcDbEntity
  8
0
  6
AI-Linetype-5
 62
    88
420
   790026
370
     9
100
AcDbVertex
100
AcDb2dVertex
 10
196.4448567217221
 20
123.1397704770275
 30
0.0
  0
VERTEX
  5
74FB
330
74F5
100
AcDbEntity
  8
0
  6
AI-Linetype-5
 62
    88
420
   790026
370
     9
100
AcDbVertex
100
AcDb2dVertex
 10
196.4448567217221
 20
-30.1063449360498
 30
0.0
  0
VERTEX
  5
74FC
330
74F5
100
AcDbEntity
  8
0
  6
AI-Linetype-5
 62
    88
420
   790026
370
     9
100
AcDbVertex
100
AcDb2dVertex
 10
311.2326822138586
 20
-30.1063449360498
 30
0.0
  0
VERTEX
  5
74FD
330
74F5
100
AcDbEntity
  8
0
  6
AI-Linetype-5
 62
    88
420
   790026
370
     9
100
AcDbVertex
100
AcDb2dVertex
 10
314.1403428034094
 20
-29.30983885986004
 30
0.0
  0
VERTEX
  5
74FE
330
74F5
100
AcDbEntity
  8
0
  6
AI-Linetype-5
 62
    88
420
   790026
370
     9
100
AcDbVertex
100
AcDb2dVertex
 10
314.1403428034094
 20
18.16357692688272
 30
0.0
  0
VERTEX
  5
74FF
330
74F5
100
AcDbEntity
  8
0
  6
AI-Linetype-5
 62
    88
420
   790026
370
     9
100
AcDbVertex
100
AcDb2dVertex
 10
311.2326822138586
 20
18.93527831557868
 30
0.0
  0
VERTEX
  5
7500
330
74F5
100
AcDbEntity
  8
0
  6
AI-Linetype-5
 62
    88
420
   790026
370
     9
100
AcDbVertex
100
AcDb2dVertex
 10
214.1002820645305
 20
18.99866807250728
 30
0.0
  0
VERTEX
  5
7501
330
74F5
100
AcDbEntity
  8
0
  6
AI-Linetype-5
 62
    88
420
   790026
370
     9
100
AcDbVertex
100
AcDb2dVertex
 10
214.1002820645305
 20
18.99866807250728
 30
0.0
  0
SEQEND
  5
7502
330
74F5
100
AcDbEntity
  8
0
  6
AI-Linetype-5
370
     9
  0
POLYLINE
  5
7503
330
74A1
100
AcDbEntity
  8
0
  6
AI-Linetype-6
 62
    88
420
   790026
370
     9
100
AcDb2dPolyline
 66
     1
 10
0.0
 20
0.0
 30
0.0
  0
VERTEX
  5
7504
330
7503
100
AcDbEntity
  8
0
  6
AI-Linetype-6
 62
    88
420
   790026
370
     9
100
AcDbVertex
100
AcDb2dVertex
 10
323.7370007871213
 20
-5.566240775518162
 30
0.0
  0
VERTEX
  5
7505
330
7503
100
AcDbEntity
  8
0
  6
AI-Linetype-6
 62
    88
420
   790026
370
     9
100
AcDbVertex
100
AcDb2dVertex
 10
184.7039713079906
 20
-5.566240775518162
 30
0.0
  0
SEQEND
  5
7506
330
7503
100
AcDbEntity
  8
0
  6
AI-Linetype-6
370
     9
  0
POLYLINE
  5
7507
330
74A1
100
AcDbEntity
  8
0
  6
AI-Linetype-7
 62
    88
420
   790026
370
     9
100
AcDb2dPolyline
 66
     1
 10
0.0
 20
0.0
 30
0.0
  0
VERTEX
  5
7508
330
7507
100
AcDbEntity
  8
0
  6
AI-Linetype-7
 62
    88
420
   790026
370
     9
100
AcDbVertex
100
AcDb2dVertex
 10
223.8678167843108
 20
129.9279866211638
 30
0.0
  0
VERTEX
  5
7509
330
7507
100
AcDbEntity
  8
0
  6
AI-Linetype-7
 62
    88
420
   790026
370
     9
100
AcDbVertex
100
AcDb2dVertex
 10
202.3401041160816
 20
129.9279866211638
 30
0.0
  0
SEQEND
  5
750A
330
7507
100
AcDbEntity
  8
0
  6
AI-Linetype-7
370
     9
  0
POLYLINE
  5
750B
330
74A1
100
AcDbEntity
  8
0
  6
AI-Linetype-8
 62
    88
420
   790026
370
     9
100
AcDb2dPolyline
 66
     1
 10
0.0
 20
0.0
 30
0.0
  0
VERTEX
  5
750C
330
750B
100
AcDbEntity
  8
0
  6
AI-Linetype-8
 62
    88
420
   790026
370
     9
100
AcDbVertex
100
AcDb2dVertex
 10
311.1996092972001
 20
18.93527831557868
 30
0.0
  0
VERTEX
  5
750D
330
750B
100
AcDbEntity
  8
0
  6
AI-Linetype-8
 62
    88
420
   790026
370
     9
100
AcDbVertex
100
AcDb2dVertex
 10
311.1996092972001
 20
-30.1063449360498
 30
0.0
  0
SEQEND
  5
750E
330
750B
100
AcDbEntity
  8
0
  6
AI-Linetype-8
370
     9
  0
POLYLINE
  5
750F
330
74A1
100
AcDbEntity
  8
0
  6
AI-Linetype-9
 62
    88
420
   790026
370
     9
100
AcDb2dPolyline
 66
     1
 10
0.0
 20
0.0
 30
0.0
  0
VERTEX
  5
7510
330
750F
100
AcDbEntity
  8
0
  6
AI-Linetype-9
 62
    88
420
   790026
370
     9
100
AcDbVertex
100
AcDb2dVertex
 10
198.401670957344
 20
-30.1063449360498
 30
0.0
  0
VERTEX
  5
7511
330
750F
100
AcDbEntity
  8
0
  6
AI-Linetype-9
 62
    88
420
   790026
370
     9
100
AcDbVertex
100
AcDb2dVertex
 10
198.401670957344
 20
123.1397704770275
 30
0.0
  0
SEQEND
  5
7512
330
750F
100
AcDbEntity
  8
0
  6
AI-Linetype-9
370
     9
  0
POLYLINE
  5
7513
330
74A1
100
AcDbEntity
  8
0
  6
AI-Linetype-10
 62
    88
420
   790026
370
     9
100
AcDb2dPolyline
 66
     1
 10
0.0
 20
0.0
 30
0.0
  0
VERTEX
  5
7514
330
7513
100
AcDbEntity
  8
0
  6
AI-Linetype-10
 62
    88
420
   790026
370
     9
100
AcDbVertex
100
AcDb2dVertex
 10
214.1085502936951
 20
132.4360161344257
 30
0.0
  0
VERTEX
  5
7515
330
7513
100
AcDbEntity
  8
0
  6
AI-Linetype-10
 62
    88
420
   790026
370
     9
100
AcDbVertex
100
AcDb2dVertex
 10
212.1462239052968
 20
132.4360161344257
 30
0.0
  0
SEQEND
  5
7516
330
7513
100
AcDbEntity
  8
0
  6
AI-Linetype-10
370
     9
  0
POLYLINE
  5
7517
330
74A1
100
AcDbEntity
  8
0
  6
AI-Linetype-11
 62
    88
420
   790026
370
     9
100
AcDb2dPolyline
 66
     1
 10
0.0
 20
0.0
 30
0.0
  0
VERTEX
  5
7518
330
7517
100
AcDbEntity
  8
0
  6
AI-Linetype-11
 62
    88
420
   790026
370
     9
100
AcDbVertex
100
AcDb2dVertex
 10
212.1462239052968
 20
127.5329562398181
 30
0.0
  0
VERTEX
  5
7519
330
7517
100
AcDbEntity
  8
0
  6
AI-Linetype-11
 62
    88
420
   790026
370
     9
100
AcDbVertex
100
AcDb2dVertex
 10
214.1085502936951
 20
127.5329562398181
 30
0.0
  0
SEQEND
  5
751A
330
7517
100
AcDbEntity
  8
0
  6
AI-Linetype-11
370
     9
  0
SPLINE
  5
751B
330
74A1
100
AcDbEntity
  8
0
  6
AI-Linetype-12
 62
    88
420
   790026
370
     9
100
AcDbSpline
210
0.0
220
0.0
230
1.0
 70
     8
 71
     3
 72
    11
 73
     7
 74
     0
 42
0.0000000001
 43
0.0000000001
 40
0.0
 40
0.0
 40
0.0
 40
0.0
 40
1.0
 40
1.0
 40
1.0
 40
2.0
 40
2.0
 40
2.0
 40
2.0
 10
214.1002820645305
 20
103.9740152734856
 30
0.0
 10
214.1002820645305
 20
112.3745361047189
 30
0.0
 10
207.295529462065
 20
119.1820447835725
 30
0.0
 10
198.89776470722
 20
119.1820447835725
 30
0.0
 10
198.89776470722
 20
119.1820447835725
 30
0.0
 10
198.4209634920614
 20
119.1820447835725
 30
0.0
 10
198.4209634920614
 20
119.1820447835725
 30
0.0
  0
SPLINE
  5
751C
330
74A1
100
AcDbEntity
  8
0
  6
AI-Linetype-13
 62
    88
420
   790026
370
     9
100
AcDbSpline
210
0.0
220
0.0
230
1.0
 70
     8
 71
     3
 72
    11
 73
     7
 74
     0
 42
0.0000000001
 43
0.0000000001
 40
0.0
 40
0.0
 40
0.0
 40
0.0
 40
1.0
 40
1.0
 40
1.0
 40
2.0
 40
2.0
 40
2.0
 40
2.0
 10
214.1002820645305
 20
24.77540418217421
 30
0.0
 10
214.1002820645305
 20
16.3831515801056
 30
0.0
 10
207.2927733856768
 20
9.581155054028322
 30
0.0
 10
198.89776470722
 20
9.581155054028322
 30
0.0
 10
198.89776470722
 20
9.581155054028322
 30
0.0
 10
198.3713541170738
 20
9.581155054028322
 30
0.0
 10
198.3713541170738
 20
9.581155054028322
 30
0.0
  0
POLYLINE
  5
751D
330
74A1
100
AcDbEntity
  8
0
 62
    88
420
   790026
370
     9
100
AcDb2dPolyline
 66
     1
 10
0.0
 20
0.0
 30
0.0
  0
VERTEX
  5
751E
330
751D
100
AcDbEntity
  8
0
 62
    88
420
   790026
370
     9
100
AcDbVertex
100
AcDb2dVertex
 10
198.3961588045676
 20
6.706567381135858
 30
0.0
  0
VERTEX
  5
751F
330
751D
100
AcDbEntity
  8
0
 62
    88
420
   790026
370
     9
100
AcDbVertex
100
AcDb2dVertex
 10
196.4448567217221
 20
6.706567381135858
 30
0.0
  0
SEQEND
  5
7520
330
751D
100
AcDbEntity
  8
0
370
     9
  0
SPLINE
  5
7521
330
74A1
100
AcDbEntity
  8
0
  6
AI-Linetype-14
 62
    88
420
   790026
370
     9
100
AcDbSpline
210
0.0
220
0.0
230
1.0
 70
    11
 71
     3
 72
    68
 73
    64
 74
     0
 42
0.0000000001
 43
0.0000000001
 40
0.0
 40
0.0
 40
0.0
 40
0.0
 40
1.0
 40
1.0
 40
1.0
 40
2.0
 40
2.0
 40
2.0
 40
3.0
 40
3.0
 40
3.0
 40
4.0
 40
4.0
 40
4.0
 40
5.0
 40
5.0
 40
5.0
 40
6.0
 40
6.0
 40
6.0
 40
7.0
 40
7.0
 40
7.0
 40
8.0
 40
8.0
 40
8.0
 40
9.0
 40
9.0
 40
9.0
 40
10.0
 40
10.0
 40
10.0
 40
11.0
 40
11.0
 40
11.0
 40
12.0
 40
12.0
 40
12.0
 40
13.0
 40
13.0
 40
13.0
 40
14.0
 40
14.0
 40
14.0
 40
15.0
 40
15.0
 40
15.0
 40
16.0
 40
16.0
 40
16.0
 40
17.0
 40
17.0
 40
17.0
 40
18.0
 40
18.0
 40
18.0
 40
19.0
 40
19.0
 40
19.0
 40
20.0
 40
20.0
 40
20.0
 40
21.0
 40
21.0
 40
21.0
 40
21.0
 10
169.6006727006554
 20
106.6942626686389
 30
0.0
 10
169.6006727006554
 20
107.2454779462789
 30
0.0
 10
169.3801865895994
 20
107.7333034669903
 30
0.0
 10
169.0246527355216
 20
108.088837321068
 30
0.0
 10
168.6415581175618
 20
108.474688015416
 30
0.0
 10
168.1454643676858
 20
108.66761336259
 30
0.0
 10
167.6300780830925
 20
108.66761336259
 30
0.0
 10
167.0871310346171
 20
108.66761336259
 30
0.0
 10
166.5965494375175
 20
108.4498833279222
 30
0.0
 10
166.2382595070516
 20
108.088837321068
 30
0.0
 10
165.8579209654799
 20
107.7029866267201
 30
0.0
 10
165.6622395419178
 20
107.2013807240677
 30
0.0
 10
165.6622395419178
 20
106.6942626686389
 30
0.0
 10
165.6622395419178
 20
106.6942626686389
 30
0.0
 10
153.8221353782111
 20
106.6942626686389
 30
0.0
 10
153.8221353782111
 20
106.6942626686389
 30
0.0
 10
153.8221353782111
 20
106.6942626686389
 30
0.0
 10
152.8327039548473
 20
107.6809380156145
 30
0.0
 10
152.8327039548473
 20
107.6809380156145
 30
0.0
 10
152.8327039548473
 20
107.6809380156145
 30
0.0
 10
147.9020832963578
 20
107.6809380156145
 30
0.0
 10
147.9020832963578
 20
107.6809380156145
 30
0.0
 10
147.0862846854506
 20
107.6809380156145
 30
0.0
 10
146.3421440606366
 20
107.3502088490305
 30
0.0
 10
145.8129773941023
 20
106.8127739533315
 30
0.0
 10
145.2369574289685
 20
106.2367539881977
 30
0.0
 10
144.9393011790429
 20
105.481589057831
 30
0.0
 10
144.9393011790429
 20
104.7209119746878
 30
0.0
 10
144.9393011790429
 20
104.7209119746878
 30
0.0
 10
144.9393011790429
 20
40.60630695599425
 30
0.0
 10
144.9393011790429
 20
40.60630695599425
 30
0.0
 10
144.9393011790429
 20
39.7767279631461
 30
0.0
 10
145.2755424984033
 20
39.04085556749674
 30
0.0
 10
145.8129773941023
 20
38.50893282457416
 30
0.0
 10
146.3862412828479
 20
37.92464463027579
 30
0.0
 10
147.1441622896028
 20
37.6352566095148
 30
0.0
 10
147.9020832963578
 20
37.6352566095148
 30
0.0
 10
147.9020832963578
 20
37.6352566095148
 30
0.0
 10
152.8327039548473
 20
37.6352566095148
 30
0.0
 10
152.8327039548473
 20
37.6352566095148
 30
0.0
 10
152.8327039548473
 20
37.6352566095148
 30
0.0
 10
153.8221353782111
 20
38.62468803287855
 30
0.0
 10
153.8221353782111
 20
38.62468803287855
 30
0.0
 10
153.8221353782111
 20
38.62468803287855
 30
0.0
 10
165.6622395419178
 20
38.62468803287855
 30
0.0
 10
165.6622395419178
 20
38.62468803287855
 30
0.0
 10
165.6622395419178
 20
38.07622883162678
 30
0.0
 10
165.8827256529737
 20
37.582891158139
 30
0.0
 10
166.2382595070516
 20
37.23011338044942
 30
0.0
 10
166.6213541250113
 20
36.84426268610144
 30
0.0
 10
167.1257161040519
 20
36.65409341531564
 30
0.0
 10
167.6300780830925
 20
36.65409341531564
 30
0.0
 10
168.1785372843442
 20
36.65409341531564
 30
0.0
 10
168.6691188814438
 20
36.86631129720704
 30
0.0
 10
169.0246527355216
 20
37.23011338044942
 30
0.0
 10
169.4049912770932
 20
37.6187201511856
 30
0.0
 10
169.6006727006554
 20
38.12308213022618
 30
0.0
 10
169.6006727006554
 20
38.62468803287855
 30
0.0
 10
169.6006727006554
 20
38.62468803287855
 30
0.0
 10
169.6006727006554
 20
106.6942626686389
 30
0.0
 10
169.6006727006554
 20
106.6942626686389
 30
0.0
 10
169.6006727006554
 20
106.6942626686389
 30
0.0
 10
169.6006727006554
 20
106.6942626686389
 30
0.0
 10
169.6006727006554
 20
106.6942626686389
 30
0.0
  0
POLYLINE
  5
7522
330
74A1
100
AcDbEntity
  8
0
  6
AI-Linetype-15
 62
    88
420
   790026
370
     9
100
AcDb2dPolyline
 66
     1
 10
0.0
 20
0.0
 30
0.0
  0
VERTEX
  5
7523
330
7522
100
AcDbEntity
  8
0
  6
AI-Linetype-15
 62
    88
420
   790026
370
     9
100
AcDbVertex
100
AcDb2dVertex
 10
165.6622395419178
 20
106.6942626686389
 30
0.0
  0
VERTEX
  5
7524
330
7522
100
AcDbEntity
  8
0
  6
AI-Linetype-15
 62
    88
420
   790026
370
     9
100
AcDbVertex
100
AcDb2dVertex
 10
165.6622395419178
 20
38.62468803287855
 30
0.0
  0
SEQEND
  5
7525
330
7522
100
AcDbEntity
  8
0
  6
AI-Linetype-15
370
     9
  0
POLYLINE
  5
7526
330
74A1
100
AcDbEntity
  8
0
  6
AI-Linetype-16
 62
    88
420
   790026
370
     9
100
AcDb2dPolyline
 66
     1
 10
0.0
 20
0.0
 30
0.0
  0
VERTEX
  5
7527
330
7526
100
AcDbEntity
  8
0
  6
AI-Linetype-16
 62
    88
420
   790026
370
     9
100
AcDbVertex
100
AcDb2dVertex
 10
153.8221353782111
 20
106.6942626686389
 30
0.0
  0
VERTEX
  5
7528
330
7526
100
AcDbEntity
  8
0
  6
AI-Linetype-16
 62
    88
420
   790026
370
     9
100
AcDbVertex
100
AcDb2dVertex
 10
153.8221353782111
 20
38.62468803287855
 30
0.0
  0
SEQEND
  5
7529
330
7526
100
AcDbEntity
  8
0
  6
AI-Linetype-16
370
     9
  0
POLYLINE
  5
752A
330
74A1
100
AcDbEntity
  8
0
  6
AI-Linetype-17
 62
    88
420
   790026
370
     9
100
AcDb2dPolyline
 66
     1
 10
0.0
 20
0.0
 30
0.0
  0
VERTEX
  5
752B
330
752A
100
AcDbEntity
  8
0
  6
AI-Linetype-17
 62
    88
420
   790026
370
     9
100
AcDbVertex
100
AcDb2dVertex
 10
152.8327039548473
 20
107.6809380156145
 30
0.0
  0
VERTEX
  5
752C
330
752A
100
AcDbEntity
  8
0
  6
AI-Linetype-17
 62
    88
420
   790026
370
     9
100
AcDbVertex
100
AcDb2dVertex
 10
152.8327039548473
 20
37.6352566095148
 30
0.0
  0
SEQEND
  5
752D
330
752A
100
AcDbEntity
  8
0
  6
AI-Linetype-17
370
     9
  0
POLYLINE
  5
752E
330
74A1
100
AcDbEntity
  8
0
  6
AI-Linetype-18
 62
    88
420
   790026
370
     9
100
AcDb2dPolyline
 66
     1
 10
0.0
 20
0.0
 30
0.0
  0
VERTEX
  5
752F
330
752E
100
AcDbEntity
  8
0
  6
AI-Linetype-18
 62
    88
420
   790026
370
     9
100
AcDbVertex
100
AcDb2dVertex
 10
223.9008897009692
 20
72.83310816321534
 30
0.0
  0
VERTEX
  5
7530
330
752E
100
AcDbEntity
  8
0
  6
AI-Linetype-18
 62
    88
420
   790026
370
     9
100
AcDbVertex
100
AcDb2dVertex
 10
137.9195746182979
 20
72.83310816321534
 30
0.0
  0
SEQEND
  5
7531
330
752E
100
AcDbEntity
  8
0
  6
AI-Linetype-18
370
     9
  0
POLYLINE
  5
7532
330
74A1
100
AcDbEntity
  8
0
 62
    88
420
   790026
370
     9
100
AcDb2dPolyline
 66
     1
 10
0.0
 20
0.0
 30
0.0
  0
VERTEX
  5
7533
330
7532
100
AcDbEntity
  8
0
 62
    88
420
   790026
370
     9
100
AcDbVertex
100
AcDb2dVertex
 10
198.9446180058194
 20
5.849427624405699
 30
0.0
  0
VERTEX
  5
7534
330
7532
100
AcDbEntity
  8
0
 62
    88
420
   790026
370
     9
100
AcDbVertex
100
AcDb2dVertex
 10
196.9602430063155
 20
5.849427624405699
 30
0.0
  0
SEQEND
  5
7535
330
7532
100
AcDbEntity
  8
0
370
     9
  0
POLYLINE
  5
7536
330
74A1
100
AcDbEntity
  8
0
  6
AI-Linetype-19
 62
    88
420
   790026
370
     9
100
AcDb2dPolyline
 66
     1
 10
0.0
 20
0.0
 30
0.0
  0
VERTEX
  5
7537
330
7536
100
AcDbEntity
  8
0
  6
AI-Linetype-19
 62
    88
420
   790026
370
     9
100
AcDbVertex
100
AcDb2dVertex
 10
177.510611934789
 20
-231.8814533925505
 30
0.0
  0
VERTEX
  5
7538
330
7536
100
AcDbEntity
  8
0
  6
AI-Linetype-19
 62
    88
420
   790026
370
     9
100
AcDbVertex
100
AcDb2dVertex
 10
138.0573784377079
 20
-231.8814533925505
 30
0.0
  0
SEQEND
  5
7539
330
7536
100
AcDbEntity
  8
0
  6
AI-Linetype-19
370
     9
  0
POLYLINE
  5
753A
330
74A1
100
AcDbEntity
  8
0
  6
AI-Linetype-20
 62
    88
420
   790026
370
     9
100
AcDb2dPolyline
 66
     1
 10
0.0
 20
0.0
 30
0.0
  0
VERTEX
  5
753B
330
753A
100
AcDbEntity
  8
0
  6
AI-Linetype-20
 62
    88
420
   790026
370
     9
100
AcDbVertex
100
AcDb2dVertex
 10
177.510611934789
 20
-41.25743000270648
 30
0.0
  0
VERTEX
  5
753C
330
753A
100
AcDbEntity
  8
0
  6
AI-Linetype-20
 62
    88
420
   790026
370
     9
100
AcDbVertex
100
AcDb2dVertex
 10
138.0573784377079
 20
-41.25743000270648
 30
0.0
  0
SEQEND
  5
753D
330
753A
100
AcDbEntity
  8
0
  6
AI-Linetype-20
370
     9
  0
POLYLINE
  5
753E
330
74A1
100
AcDbEntity
  8
0
  6
AI-Linetype-21
 62
    88
420
   790026
370
     9
100
AcDb2dPolyline
 66
     1
 10
0.0
 20
0.0
 30
0.0
  0
VERTEX
  5
753F
330
753E
100
AcDbEntity
  8
0
  6
AI-Linetype-21
 62
    88
420
   790026
370
     9
100
AcDbVertex
100
AcDb2dVertex
 10
143.0569010059024
 20
-36.22759059424172
 30
0.0
  0
VERTEX
  5
7540
330
753E
100
AcDbEntity
  8
0
  6
AI-Linetype-21
 62
    88
420
   790026
370
     9
100
AcDbVertex
100
AcDb2dVertex
 10
172.5138454429826
 20
-36.22759059424172
 30
0.0
  0
SEQEND
  5
7541
330
753E
100
AcDbEntity
  8
0
  6
AI-Linetype-21
370
     9
  0
SPLINE
  5
7542
330
74A1
100
AcDbEntity
  8
0
  6
AI-Linetype-22
 62
    88
420
   790026
370
     9
100
AcDbSpline
210
0.0
220
0.0
230
1.0
 70
     8
 71
     3
 72
    41
 73
    37
 74
     0
 42
0.0000000001
 43
0.0000000001
 40
0.0
 40
0.0
 40
0.0
 40
0.0
 40
1.0
 40
1.0
 40
1.0
 40
2.0
 40
2.0
 40
2.0
 40
3.0
 40
3.0
 40
3.0
 40
4.0
 40
4.0
 40
4.0
 40
5.0
 40
5.0
 40
5.0
 40
6.0
 40
6.0
 40
6.0
 40
7.0
 40
7.0
 40
7.0
 40
8.0
 40
8.0
 40
8.0
 40
9.0
 40
9.0
 40
9.0
 40
10.0
 40
10.0
 40
10.0
 40
11.0
 40
11.0
 40
11.0
 40
12.0
 40
12.0
 40
12.0
 40
12.0
 10
188.0553601960417
 20
10.35285644272428
 30
0.0
 10
188.0553601960417
 20
10.35285644272428
 30
0.0
 10
182.681011239052
 20
10.38041720660628
 30
0.0
 10
182.681011239052
 20
10.38041720660628
 30
0.0
 10
160.7453992653692
 20
10.38041720660628
 30
0.0
 10
143.0210720128558
 20
-7.401787650059275
 30
0.0
 10
143.0210720128558
 20
-29.33739962374204
 30
0.0
 10
143.0210720128558
 20
-29.33739962374204
 30
0.0
 10
143.0569010059024
 20
-36.22759059424172
 30
0.0
 10
143.0569010059024
 20
-36.22759059424172
 30
0.0
 10
143.0569010059024
 20
-36.22759059424172
 30
0.0
 10
138.0491102085433
 20
-41.24089354437727
 30
0.0
 10
138.0491102085433
 20
-41.24089354437727
 30
0.0
 10
138.0491102085433
 20
-41.24089354437727
 30
0.0
 10
138.0656466668725
 20
-231.8015271772927
 30
0.0
 10
138.0656466668725
 20
-231.8015271772927
 30
0.0
 10
138.0656466668725
 20
-231.8015271772927
 30
0.0
 10
138.8263237500156
 20
-234.8773084265237
 30
0.0
 10
138.8263237500156
 20
-234.8773084265237
 30
0.0
 10
138.8263237500156
 20
-234.8773084265237
 30
0.0
 10
176.7692273863632
 20
-234.8469915862536
 30
0.0
 10
176.7692273863632
 20
-234.8469915862536
 30
0.0
 10
176.7692273863632
 20
-234.8469915862536
 30
0.0
 10
177.4885633236834
 20
-231.8704290869977
 30
0.0
 10
177.4885633236834
 20
-231.8704290869977
 30
0.0
 10
177.4885633236834
 20
-231.8704290869977
 30
0.0
 10
177.5299044695064
 20
-41.24089354437727
 30
0.0
 10
177.5299044695064
 20
-41.24089354437727
 30
0.0
 10
177.5299044695064
 20
-41.24089354437727
 30
0.0
 10
172.5138454429826
 20
-36.22759059424172
 30
0.0
 10
172.5138454429826
 20
-36.22759059424172
 30
0.0
 10
172.5138454429826
 20
-36.22759059424172
 30
0.0
 10
172.5386501304764
 20
-29.32637531818924
 30
0.0
 10
172.5386501304764
 20
-29.32637531818924
 30
0.0
 10
172.5386501304764
 20
-29.32637531818924
 30
0.0
 10
194.9483072429296
 20
-29.32637531818924
 30
0.0
 10
194.9483072429296
 20
-29.32637531818924
 30
0.0
  0
SPLINE
  5
7543
330
74A1
100
AcDbEntity
  8
0
  6
AI-Linetype-23
 62
   250
420
  1842203
370
     9
100
AcDbSpline
210
0.0
220
0.0
230
1.0
 70
     8
 71
     3
 72
    11
 73
     7
 74
     0
 42
0.0000000001
 43
0.0000000001
 40
0.0
 40
0.0
 40
0.0
 40
0.0
 40
1.0
 40
1.0
 40
1.0
 40
2.0
 40
2.0
 40
2.0
 40
2.0
 10
157.8625433633121
 20
-248.8285671035915
 30
0.0
 10
157.8625433633121
 20
-248.8285671035915
 30
0.0
 10
157.8625433633121
 20
-32.75217826872168
 30
0.0
 10
157.8625433633121
 20
-32.75217826872168
 30
0.0
 10
157.8625433633121
 20
-19.96398382747428
 30
0.0
 10
166.6819878055517
 20
-5.585533310235561
 30
0.0
 10
184.7067273843789
 20
-5.585533310235561
 30
0.0
  0
ENDBLK
  5
7544
330
74A1
100
AcDbEntity
  8
0
100
AcDbBlockEnd
  0
ENDSEC
  0
SECTION
  2
ENTITIES
  0
CIRCLE
  5
8343
330
1F
100
AcDbEntity
  8
0
100
AcDbCircle
 10
-31.87221095396336
 20
180.7326781917981
 30
0.0
 40
5.0
  0
ARC
  5
8345
330
1F
100
AcDbEntity
  8
0
100
AcDbCircle
 10
-32.68142533199358
 20
181.5418925698283
 30
0.0
 40
5.0
100
AcDbArc
 50
231.5713374069018
 51
38.42866259309852
  0
LINE
  5
8347
330
1F
100
AcDbEntity
  8
0
  6
ACDINTGL
 62
     6
 48
5.0
370
     0
100
AcDbLine
 10
-4.994540217768004
 20
-107.703059043975
 30
0.0
 11
-165.2307830785825
 21
-103.2420072667801
 31
0.0
  0
ELLIPSE
  5
8349
330
1F
100
AcDbEntity
  8
0
  6
ACDINTGL
 62
     6
 48
5.0
370
     0
100
AcDbEllipse
 10
101.7101404103097
 20
101.7826199285015
 30
0.0
 11
15.49951448318003
 21
239.8893302912632
 31
0.0
210
0.0
220
0.0
230
-1.0
 40
0.9483969866604983
 41
4.657995583205973
 42
4.773225675554082
  0
LINE
  5
834A
330
1F
100
AcDbEntity
  8
0
  6
ACDINTGL
 62
     6
 48
5.0
370
     0
100
AcDbLine
 10
-34.5720936090251
 20
422.4898484804207
 30
0.0
 11
-34.57209363551311
 21
444.4341413385618
 31
0.0
  0
ARC
  5
834B
330
1F
100
AcDbEntity
  8
0
  6
ACDINTGL
 62
     6
 48
5.0
370
     0
100
AcDbCircle
 10
-27.57209363551311
 20
444.4341413470112
 30
0.0
 40
7.0
100
AcDbArc
 50
91.14570892540582
 51
180.0000000691592
1001
GENIUS_GENOBJ-N-FIL_13
1002
{
1000
OWNER
1000
GEN
1002
}
1001
GENIUS_GENODEF_13
1002
{
1000
HIER
1070
     0
1002
}
1002
{
1000
MANEDIT
1070
     0
1002
}
1002
{
1000
NOSEL
1070
     0
1002
}
1002
{
1000
BEHIND
1070
     0
1002
}
1002
{
1000
OTHER
1070
     0
1002
}
1002
{
1000
REACTOR
1002
}
  0
LINE
  5
834D
330
1F
100
AcDbEntity
  8
0
  6
ACDINTGL
 62
     6
 48
5.0
370
     0
100
AcDbLine
 10
-62.57209356319475
 20
388.0011066252235
 30
0.0
 11
-62.57209360837618
 21
422.0011066252237
 31
0.0
  0
LINE
  5
834E
330
1F
100
AcDbEntity
  8
0
  6
ACDINTGL
 62
     6
 48
5.0
370
     0
100
AcDbLine
 10
-173.9421320667903
 20
77.89291306357881
 30
0.0
 11
-178.4284191957607
 21
108.3339440484172
 31
0.0
  0
ARC
  5
8350
330
1F
100
AcDbEntity
  8
0
  6
ACDINTGL
 62
     6
 48
5.0
370
     0
100
AcDbCircle
 10
-339.6029497909149
 20
250.2894022244459
 30
0.0
 40
3.000000001285006
100
AcDbArc
 50
319.0000000945901
 51
44.99999540542134
  0
LINE
  5
8352
330
1F
100
AcDbEntity
  8
0
  6
ACDINTGL
 62
     6
 48
5.0
370
     0
100
AcDbLine
 10
-337.4816293886789
 20
252.4107225111462
 30
0.0
 11
-339.5715493547238
 21
254.5006424716366
 31
0.0
  0
LINE
  5
8353
330
1F
100
AcDbEntity
  8
0
  6
ACDINTGL
 62
     6
 48
5.0
370
     0
100
AcDbLine
 10
-146.0021607516558
 20
415.4041664983341
 30
0.0
 11
-118.6733692367247
 21
381.6559196562563
 31
0.0
  0
ARC
  5
8354
330
1F
100
AcDbEntity
  8
0
  6
ACDINTGL
 62
     6
 48
5.0
370
     0
100
AcDbCircle
 10
-140.5621301092405
 20
419.8093982304768
 30
0.0
 40
7.000000000770248
100
AcDbArc
 50
139.5655652503691
 51
218.9998840882377
  0
ARC
  5
8355
330
1F
100
AcDbEntity
  8
0
  6
ACDINTGL
 62
     6
 48
5.0
370
     0
100
AcDbCircle
 10
-343.2838563728598
 20
250.7883353786679
 30
0.0
 40
5.249999784647589
100
AcDbArc
 50
45.00000057753662
 51
131.9999981521743
  0
LINE
  5
8356
330
1F
100
AcDbEntity
  8
0
  6
ACDINTGL
 62
     6
 48
5.0
370
     0
100
AcDbLine
 10
-140.1762185834807
 20
51.44996952987537
 30
0.0
 11
-51.92686425455935
 21
55.00110676234243
 31
0.0
  0
LINE
  5
8357
330
1F
100
AcDbEntity
  8
0
  6
ACDINTGL
 62
     6
 48
5.0
370
     0
100
AcDbLine
 10
-62.57209356319475
 20
388.0011066252235
 30
0.0
 11
-34.5720935625447
 21
387.512364844443
 31
0.0
  0
LINE
  5
8358
330
1F
100
AcDbEntity
  8
0
  6
ACDINTGL
 62
     6
 48
5.0
370
     0
100
AcDbLine
 10
-62.57209360837618
 20
422.0011066252235
 30
0.0
 11
-34.5720936090251
 21
422.4898484804207
 31
0.0
  0
ARC
  5
8359
330
1F
100
AcDbEntity
  8
0
  6
ACDINTGL
 62
     6
 48
5.0
370
     0
100
AcDbCircle
 10
-23.25519067738668
 20
387.8128833530705
 30
0.0
 40
11.9999999998
100
AcDbArc
 50
4.502538703452975
 51
84.96044138327169
  0
LINE
  5
835A
330
1F
100
AcDbEntity
  8
0
  6
ACDINTGL
 62
     6
 48
5.0
370
     0
100
AcDbLine
 10
-51.92686425455935
 20
105.0013013648489
 30
0.0
 11
-94.06646355024546
 21
106.2745400231316
 31
0.0
  0
LINE
  5
835B
330
1F
100
AcDbEntity
  8
0
  6
STYLE_11
 62
     4
370
     0
100
AcDbLine
 10
-72.23527552273191
 20
405.0011066252237
 30
0.0
 11
15.59202896553057
 21
405.0011066252237
 31
0.0
  0
LINE
  5
835D
330
1F
100
AcDbEntity
  8
0
  6
STYLE_11
 62
     4
370
     0
100
AcDbLine
 10
-90.16364060891948
 20
80.00120406359565
 30
0.0
 11
5.687471530463597
 21
80.00120406359567
 31
0.0
  0
LINE
  5
8360
330
1F
100
AcDbEntity
  8
0
  6
ACDINTGL
 62
     6
 48
5.0
370
     0
100
AcDbLine
 10
-4.994541757735285
 20
451.4327419611441
 30
0.0
 11
-27.71205905853952
 21
451.4327418985756
 31
0.0
  0
LINE
  5
8361
330
1F
100
AcDbEntity
  8
0
  6
ACDINTGL
 62
     6
 48
5.0
370
     0
100
AcDbLine
 10
-34.57209355988738
 20
387.5123648443966
 30
0.0
 11
-34.5720936090251
 21
422.4898484804207
 31
0.0
  0
ARC
  5
8363
330
1F
100
AcDbEntity
  8
0
  6
ACDINTGL
 62
     6
 48
5.0
370
     0
100
AcDbCircle
 10
-143.0349659117598
 20
82.57944163414398
 30
0.0
 40
31.26046176526155
100
AcDbArc
 50
188.6222165842082
 51
275.2469897075521
  0
ARC
  5
8364
330
1F
100
AcDbEntity
  8
0
  6
ACDINTGL
 62
     6
 48
5.0
370
     0
100
AcDbCircle
 10
-179.8377100579076
 20
111.9616134006424
 30
0.0
 40
54.20889903951702
100
AcDbArc
 50
332.4078681883066
 51
350.9270816764157
  0
LINE
  5
8365
330
1F
100
AcDbEntity
  8
0
  6
ACDINTGL
 62
     6
 48
5.0
370
     0
100
AcDbLine
 10
-172.033169931865
 20
-96.04655897047715
 30
0.0
 11
-167.6982283937074
 21
57.02419177299636
 31
0.0
  0
LINE
  5
8367
330
1F
100
AcDbEntity
  8
0
  6
ACDINTGL
 62
     6
 48
5.0
370
     0
100
AcDbLine
 10
-109.9945264978338
 20
-104.7798104265758
 30
0.0
 11
-109.9945248591573
 21
-119.9977066560996
 31
0.0
  0
LINE
  5
8368
330
1F
100
AcDbEntity
  8
0
  6
ACDINTGL
 62
     6
 48
5.0
370
     0
100
AcDbLine
 10
-34.57209353898321
 20
371.7820877395566
 30
0.0
 11
-34.57209355988738
 21
387.5123648443966
 31
0.0
  0
LINE
  5
836A
330
1F
100
AcDbEntity
  8
0
  6
ACDINTGL
 62
     6
 48
5.0
370
     0
100
AcDbLine
 10
-22.20106840450177
 20
399.7664947834712
 30
0.0
 11
-34.57209357710264
 21
399.7664947660919
 31
0.0
  0
ARC
  5
836B
330
1F
100
AcDbEntity
  8
0
  6
ACDINTGL
 62
     6
 48
5.0
370
     0
100
AcDbCircle
 10
-263.8071257065877
 20
378.7519139684156
 30
0.0
 40
229.3409654870737
100
AcDbArc
 50
326.0056548642253
 51
358.2584745682534
  0
ARC
  5
836C
330
1F
100
AcDbEntity
  8
0
  6
ACDINTGL
 62
     6
 48
5.0
370
     0
100
AcDbCircle
 10
124.0317435575578
 20
99.84787512373543
 30
0.0
 40
225.2999021288522
100
AcDbArc
 50
142.3392167272874
 51
176.4746031262998
  0
ARC
  5
8370
330
1F
100
AcDbEntity
  8
0
  6
ACDINTGL
 62
     6
 48
5.0
370
     0
100
AcDbCircle
 10
-205.4618982235633
 20
276.1304442163829
 30
0.0
 40
160.855236707053
100
AcDbArc
 50
214.7121444313226
 51
267.6597990994165
  0
ARC
  5
8372
330
1F
100
AcDbEntity
  8
0
  6
ACDINTGL
 62
     6
 48
5.0
370
     0
100
AcDbCircle
 10
86.13735466140639
 20
112.0877432880046
 30
0.0
 40
211.4254590004819
100
AcDbArc
 50
139.0970531044162
 51
174.8570294889454
  0
ARC
  5
8374
330
1F
100
AcDbEntity
  8
0
  6
ACDINTGL
 62
     6
 48
5.0
370
     0
100
AcDbCircle
 10
-173.2684502968121
 20
378.0162910357855
 30
0.0
 40
7.0
100
AcDbArc
 50
41.6387152730054
 51
132.39737162609
1001
GENIUS_GENODEF_13
1002
{
1000
HIER
1070
     0
1002
}
1002
{
1000
MANEDIT
1070
     0
1002
}
1002
{
1000
NOSEL
1070
     0
1002
}
1002
{
1000
BEHIND
1070
     0
1002
}
1002
{
1000
OTHER
1070
     0
1002
}
1002
{
1000
REACTOR
1002
}
1001
GENIUS_GENOBJ-N-FIL_13
1002
{
1000
OWNER
1000
GEN
1002
}
  0
LINE
  5
8375
330
1F
100
AcDbEntity
  8
0
  6
ACDINTGL
 62
     6
 48
5.0
370
     0
100
AcDbLine
 10
-153.6213522500844
 20
366.452651099495
 30
0.0
 11
-168.0370052044433
 21
382.6673105203213
 31
0.0
  0
ARC
  5
8377
330
1F
100
AcDbEntity
  8
0
  6
ACDINTGL
 62
     6
 48
5.0
370
     0
100
AcDbCircle
 10
-158.852797342453
 20
361.8016316149593
 30
0.0
 40
7.0
100
AcDbArc
 50
312.39737162609
 51
41.6387152730054
1001
GENIUS_GENOBJ-N-FIL_13
1002
{
1000
OWNER
1000
GEN
1002
}
1001
GENIUS_GENODEF_13
1002
{
1000
HIER
1070
     0
1002
}
1002
{
1000
MANEDIT
1070
     0
1002
}
1002
{
1000
NOSEL
1070
     0
1002
}
1002
{
1000
BEHIND
1070
     0
1002
}
1002
{
1000
OTHER
1070
     0
1002
}
1002
{
1000
REACTOR
1002
}
  0
ARC
  5
8379
330
1F
100
AcDbEntity
  8
0
  6
ACDINTGL
 62
     6
 48
5.0
370
     0
100
AcDbCircle
 10
-12.32408477437715
 20
454.4507422700625
 30
0.0
 40
128.4668578897577
100
AcDbArc
 50
215.5543497967231
 51
257.5906552346857
  0
LINE
  5
837A
330
1F
100
AcDbEntity
  8
0
  6
ACDINTGL
 62
     6
 48
5.0
370
     0
100
AcDbLine
 10
-20.49112979673174
 20
-19.82836547046591
 30
0.0
 11
-22.55393132163618
 21
-19.82836547046591
 31
0.0
  0
LINE
  5
837B
330
1F
100
AcDbEntity
  8
0
  6
STYLE_11
 62
     4
370
     0
100
AcDbLine
 10
-14.6438263297785
 20
0.0012105295341703
 30
0.0
 11
102.7885340127434
 21
0.0012105295341846
 31
0.0
  0
LWPOLYLINE
  5
837C
330
1F
100
AcDbEntity
  8
0
  6
ACDINTGL
 62
     6
 48
5.0
370
     0
100
AcDbPolyline
 90
        3
 70
   128
 43
0.0
 10
-1.053931321636183
 20
106.7157105295341
 42
0.388522648307385
 10
-17.95807282601294
 20
122.1862732780114
 42
0.3885226483073852
 10
-34.86221433039015
 20
106.7157105295341
 42
0.3885226483073852
  0
LWPOLYLINE
  5
837D
330
1F
100
AcDbEntity
  8
0
  6
ACDINTGL
 62
     6
 48
5.0
370
     0
100
AcDbPolyline
 90
        3
 70
   128
 43
0.0
 10
-1.05393132163607
 20
30.77457227801144
 42
-0.3885226483073861
 10
-17.95807282601305
 20
15.30400952953413
 42
-0.388522648307385
 10
-34.86221433039003
 20
30.77457227801144
 42
-0.388522648307385
  0
LINE
  5
837E
330
1F
100
AcDbEntity
  8
0
  6
ACDINTGL
 62
     6
 48
5.0
370
     0
100
AcDbLine
 10
-34.86221433039003
 20
30.77457227801144
 30
0.0
 11
-34.86221433039015
 21
106.7157105295341
 31
0.0
  0
LINE
  5
837F
330
1F
100
AcDbEntity
  8
0
  6
ACDINTGL
 62
     6
 48
5.0
370
     0
100
AcDbLine
 10
-1.05393132163607
 20
30.77457227801144
 30
0.0
 11
-1.053931321636183
 21
106.7157105295341
 31
0.0
  0
LINE
  5
8380
330
1F
100
AcDbEntity
  8
0
  6
ACDINTGL
 62
     6
 48
5.0
370
     0
100
AcDbLine
 10
-17.95807282601294
 20
-24.99878947046583
 30
0.0
 11
-17.95807282601305
 21
126.3820915480779
 31
0.0
  0
LINE
  5
8381
330
1F
100
AcDbEntity
  8
0
  6
ACDINTGL
 62
     6
 48
5.0
370
     0
100
AcDbLine
 10
97.20435628495563
 20
25.00121052953421
 30
0.0
 11
-2.625160223516842
 21
25.00121052953421
 31
0.0
  0
LINE
  5
8382
330
1F
100
AcDbEntity
  8
0
  6
ACDINTGL
 62
     6
 48
5.0
370
     0
100
AcDbLine
 10
-32.8251858214332
 20
-9.807586399105163
 30
0.0
 11
-32.55393132163607
 21
23.61657512071521
 31
0.0
  0
ARC
  5
8383
330
1F
100
AcDbEntity
  8
0
  6
ACDINTGL
 62
     6
 48
5.0
370
     0
100
AcDbCircle
 10
-22.82518582143319
 20
-9.80758639910516
 30
0.0
 40
10.0
100
AcDbArc
 50
180.0
 51
240.5059414740528
  0
LINE
  5
8384
330
1F
100
AcDbEntity
  8
0
  6
ACDINTGL
 62
     6
 48
5.0
370
     0
100
AcDbLine
 10
-20.49112979673174
 20
126.3820915480779
 30
0.0
 11
-4.795274765933355
 21
126.3820915480779
 31
0.0
  0
LINE
  5
8385
330
1F
100
AcDbEntity
  8
0
  6
ACDINTGL
 62
     6
 48
5.0
370
     0
100
AcDbLine
 10
-4.795274765933355
 20
126.3820915480779
 30
0.0
 11
-4.795274765933355
 21
140.6062017875774
 31
0.0
  0
LINE
  5
8386
330
1F
100
AcDbEntity
  8
0
  6
ACDINTGL
 62
     6
 48
5.0
370
     0
100
AcDbLine
 10
-4.795274765933355
 20
140.6062017875774
 30
0.0
 11
-2.835704453923255
 21
140.6062017875773
 31
0.0
  0
LINE
  5
8387
330
1F
100
AcDbEntity
  8
0
  6
ACDINTGL
 62
     6
 48
5.0
370
     0
100
AcDbLine
 10
-2.835704453923255
 20
140.6062017875773
 30
0.0
 11
-2.835704453923368
 21
112.9172671786031
 31
0.0
  0
LINE
  5
8388
330
1F
100
AcDbEntity
  8
0
  6
ACDINTGL
 62
     6
 48
5.0
370
     0
100
AcDbLine
 10
-4.789762613156937
 20
135.678337205476
 30
0.0
 11
-2.835704453923255
 21
135.678337205476
 31
0.0
  0
LINE
  5
8389
330
1F
100
AcDbEntity
  8
0
  6
ACDINTGL
 62
     6
 48
5.0
370
     0
100
AcDbLine
 10
-4.78976261315705
 20
130.7752773108685
 30
0.0
 11
-2.835704453923368
 21
130.7752773108685
 31
0.0
  0
LINE
  5
838A
330
1F
100
AcDbEntity
  8
0
  6
STYLE_11
 62
     4
370
     0
100
AcDbLine
 10
-8.75819694669718
 20
133.1703076922142
 30
0.0
 11
6.931830265856945
 21
133.1703076922142
 31
0.0
  0
LINE
  5
838B
330
1F
100
AcDbEntity
  8
0
  6
ACDINTGL
 62
     6
 48
5.0
370
     0
100
AcDbLine
 10
-20.49112979673163
 20
-24.99878947046582
 30
0.0
 11
-20.49112979673174
 21
126.3820915480779
 31
0.0
  0
LINE
  5
838C
330
1F
100
AcDbEntity
  8
0
  6
ACDINTGL
 62
     6
 48
5.0
370
     0
100
AcDbLine
 10
97.20435628495563
 20
-24.99878947046582
 30
0.0
 11
97.20435628495563
 21
25.00121052953421
 31
0.0
  0
LINE
  5
838D
330
1F
100
AcDbEntity
  8
0
  6
ACDINTGL
 62
     6
 48
5.0
370
     0
100
AcDbLine
 10
97.20435628495563
 20
-24.99878947046582
 30
0.0
 11
-20.49112979673163
 21
-24.99878947046582
 31
0.0
  0
LINE
  5
838F
330
1F
100
AcDbEntity
  8
0
  6
ACDINTGL
 62
     6
 48
5.0
370
     0
100
AcDbLine
 10
-51.92686299074461
 20
105.001301326663
 30
0.0
 11
-34.86221433039014
 21
105.0013013648488
 31
0.0
  0
LINE
  5
8390
330
1F
100
AcDbEntity
  8
0
  6
ACDINTGL
 62
     6
 48
5.0
370
     0
100
AcDbLine
 10
-51.92686425455935
 20
55.00110676234243
 30
0.0
 11
-34.86221433039007
 21
55.00120406359564
 31
0.0
  0
LINE
  5
8391
330
1F
100
AcDbEntity
  8
0
  6
ACDINTGL
 62
     6
 48
5.0
370
     0
100
AcDbLine
 10
-66.65756598661374
 20
110.1401352919115
 30
0.0
 11
-34.19845583428122
 21
110.14013534313
 31
0.0
  0
LINE
  5
8392
330
1F
100
AcDbEntity
  8
0
  6
ACDINTGL
 62
     6
 48
5.0
370
     0
100
AcDbLine
 10
-66.65756598661364
 20
49.86227273284281
 30
0.0
 11
-34.86221433039003
 21
49.86227278406129
 31
0.0
  0
LINE
  5
8393
330
1F
100
AcDbEntity
  8
0
  6
ACDINTGL
 62
     6
 48
5.0
370
     0
100
AcDbLine
 10
-66.65756598661374
 20
110.14013534313
 30
0.0
 11
-66.65756598661374
 21
49.86227278406129
 31
0.0
  0
LINE
  5
8394
330
1F
100
AcDbEntity
  8
0
  6
ACDINTGL
 62
     6
 48
5.0
370
     0
100
AcDbLine
 10
-4.994541085670845
 20
207.4176101420466
 30
0.0
 11
-73.21971441432975
 21
207.4176099541414
 31
0.0
  0
LINE
  5
83B0
330
1F
100
AcDbEntity
  8
0
100
AcDbLine
 10
-4.994540183906507
 20
-119.9975898553965
 30
0.0
 11
-4.994541795104907
 21
465.0010125287262
 31
0.0
  0
LINE
  5
83C3
330
1F
100
AcDbEntity
  8
0
  6
ACDINTGL
 62
     6
 48
5.0
370
     0
100
AcDbLine
 10
-126.3541412366061
 20
380.1788191318995
 30
0.0
 11
-305.7964308806737
 21
228.0751339872875
 31
0.0
  0
LINE
  5
83C5
330
1F
100
AcDbEntity
  8
0
  6
ACDINTGL
 62
     6
 48
5.0
370
     0
100
AcDbLine
 10
-177.9883298747732
 20
383.1856949443176
 30
0.0
 11
-337.3388210460275
 21
248.3212251403692
 31
0.0
  0
LINE
  5
83C9
330
1F
100
AcDbEntity
  8
0
  6
ACDINTGL
 62
     6
 48
5.0
370
     0
100
AcDbLine
 10
-212.0300768493641
 20
115.4093621965631
 30
0.0
 11
-185.0677863233707
 21
114.3074959192218
 31
0.0
  0
ARC
  5
83CA
330
1F
100
AcDbEntity
  8
0
  6
ACDINTGL
 62
     6
 48
5.0
370
     0
100
AcDbCircle
 10
-185.3536163113887
 20
107.3133339810086
 30
0.0
 40
7.0
100
AcDbArc
 50
8.383691446869395
 51
87.65979909941652
1001
GENIUS_GENOBJ-N-FIL_13
1002
{
1000
OWNER
1000
GEN
1002
}
1001
GENIUS_GENODEF_13
1002
{
1000
HIER
1070
     0
1002
}
1002
{
1000
MANEDIT
1070
     0
1002
}
1002
{
1000
NOSEL
1070
     0
1002
}
1002
{
1000
BEHIND
1070
     0
1002
}
1002
{
1000
OTHER
1070
     0
1002
}
1002
{
1000
REACTOR
1002
}
  0
LINE
  5
83D2
330
1F
100
AcDbEntity
  8
0
  6
ACDINTGL
 62
     6
 48
5.0
370
     0
100
AcDbLine
 10
-11.25908734409
 20
371.7820877705376
 30
0.0
 11
-11.29222440161021
 21
388.7549225666038
 31
0.0
  0
ARC
  5
83D3
330
1F
100
AcDbEntity
  8
0
  6
ACDINTGL
 62
     6
 48
5.0
370
     0
100
AcDbCircle
 10
-263.7021563507119
 20
378.6998648876548
 30
0.0
 40
252.5378362339477
100
AcDbArc
 50
326.0055586364048
 51
358.4302985049896
  0
ARC
  5
83D4
330
1F
100
AcDbEntity
  8
0
  6
ACDINTGL
 62
     6
 48
5.0
370
     0
100
AcDbCircle
 10
-165.0359752942714
 20
-96.24471851132838
 30
0.0
 40
7.0
100
AcDbArc
 50
178.3778253813159
 51
268.4052706959642
1001
GENIUS_GENODEF_13
1002
{
1000
HIER
1070
     0
1002
}
1002
{
1000
MANEDIT
1070
     0
1002
}
1002
{
1000
NOSEL
1070
     0
1002
}
1002
{
1000
BEHIND
1070
     0
1002
}
1002
{
1000
OTHER
1070
     0
1002
}
1002
{
1000
REACTOR
1002
}
1001
GENIUS_GENOBJ-N-FIL_13
1002
{
1000
OWNER
1000
GEN
1002
}
  0
LINE
  5
83D5
330
1F
100
AcDbEntity
  8
0
  6
ACDINTGL
 62
     6
 48
5.0
370
     0
100
AcDbLine
 10
-77.89175320375631
 20
246.1229139243989
 30
0.0
 11
-54.50090142455559
 21
237.2747304867286
 31
0.0
  0
LINE
  5
83D7
330
1F
100
AcDbEntity
  8
0
  6
ACDINTGL
 62
     6
 48
5.0
370
     0
100
AcDbLine
 10
-43.39453866056738
 20
105.0013013457559
 30
0.0
 11
-43.39453929247468
 21
55.00115541296903
 31
0.0
  0
ARC
  5
83D8
330
1F
100
AcDbEntity
  8
0
  6
ACDINTGL
 62
     6
 48
5.0
370
     0
100
AcDbCircle
 10
-93.85505657899978
 20
113.2713469443285
 30
0.0
 40
7.0
100
AcDbArc
 50
176.4746031262996
 51
268.2693472421538
1001
GENIUS_GENODEF_13
1002
{
1000
HIER
1070
     0
1002
}
1002
{
1000
MANEDIT
1070
     0
1002
}
1002
{
1000
NOSEL
1070
     0
1002
}
1002
{
1000
BEHIND
1070
     0
1002
}
1002
{
1000
OTHER
1070
     0
1002
}
1002
{
1000
REACTOR
1002
}
1001
GENIUS_GENOBJ-N-FIL_13
1002
{
1000
OWNER
1000
GEN
1002
}
  0
ARC
  5
83DB
330
1F
100
AcDbEntity
  8
0
  6
ACDINTGL
 62
     6
 48
5.0
370
     0
100
AcDbCircle
 10
-121.8279014409916
 20
374.8390482273947
 30
0.0
 40
7.0
100
AcDbArc
 50
44.55820412450849
 51
130.2861712440946
1001
GENIUS_GENOBJ-N-FIL_13
1002
{
1000
OWNER
1000
GEN
1002
}
1001
GENIUS_GENODEF_13
1002
{
1000
HIER
1070
     0
1002
}
1002
{
1000
MANEDIT
1070
     0
1002
}
1002
{
1000
NOSEL
1070
     0
1002
}
1002
{
1000
BEHIND
1070
     0
1002
}
1002
{
1000
OTHER
1070
     0
1002
}
1002
{
1000
REACTOR
1002
}
  0
LWPOLYLINE
  5
8417
330
1F
100
AcDbEntity
  8
0
100
AcDbPolyline
 90
       11
 70
     1
 43
0.0
 10
0.005459275236035
 20
460.0010125904839
 10
-4.994540738534851
 20
465.0010125491711
 10
-97.46395663870693
 20
463.2117069625919
 42
0.1808370560141712
 10
-102.0224443377843
 20
461.4060094940265
 10
-347.6944345948044
 20
253.8784708697763
 42
0.2881001918223909
 10
-349.7020261968383
 20
246.7055602633554
 42
0.0665815110672986
 10
-295.7336537035858
 20
59.53454169059296
 42
0.0387829508731151
 10
-210.2838527931834
 20
-116.7317105698204
 42
0.257517065190078
 10
-204.3628762412518
 20
-119.997806861932
 10
-4.994755605212503
 20
-119.9978063128301
 10
0.0054608588925476
 20
-114.9975897936388
  0
LINE
  5
84E1
330
1F
100
AcDbEntity
  8
0
100
AcDbLine
 10
-109.84082433744
 20
-139.99780631283
 30
0.0
 11
-114.399650441655
 21
-123.6532847968247
 31
0.0
  0
LINE
  5
84E2
330
1F
100
AcDbEntity
  8
0
100
AcDbLine
 10
-137.6356290503869
 20
-123.6532847968247
 30
0.0
 11
0.0054608588925476
 21
-123.6532847968247
 31
0.0
  0
LINE
  5
84E3
330
1F
100
AcDbEntity
  8
0
100
AcDbLine
 10
-113.646984556539
 20
-126.3517785477198
 30
0.0
 11
-136.8829631652709
 21
-126.3517785477198
 31
0.0
  0
LWPOLYLINE
  5
84E4
330
1F
100
AcDbEntity
  8
0
100
AcDbPolyline
 90
        5
 70
     1
 43
0.0
 10
0.0054608588925476
 20
-119.9978063128301
 10
-138.6552178294106
 20
-119.9978063128301
 10
-133.688755790317
 20
-137.8038036903869
 42
0.3366105839581626
 10
-130.7990554204912
 20
-139.99780631283
 10
0.0054608588925476
 20
-139.99780631283
  0
HATCH
  5
84E5
330
1F
100
AcDbEntity
  8
0
 62
     7
100
AcDbHatch
 10
0.0
 20
0.0
 30
0.0
210
0.0
220
0.0
230
1.0
  2
SOLID
 70
     1
 71
     0
 91
        1
 92
        1
 93
       11
 72
     1
 10
-59.01049555115708
 20
-147.332183443514
 11
-49.09274265913882
 21
-125.2878629915234
 72
     1
 10
-49.09274265913882
 20
-125.2878629915234
 11
-55.60589273956975
 21
-125.2878629915234
 72
     1
 10
-55.60589273956975
 20
-125.2878629915234
 11
-63.74733219855489
 21
-153.693966703563
 72
     1
 10
-63.74733219855489
 20
-153.6939667035631
 11
-52.75188249718695
 21
-147.8661077399465
 72
     1
 10
-52.7518824971869
 20
-147.8661077399465
 11
-53.9776058389445
 21
-159.1330901741582
 72
     1
 10
-53.97760583894456
 20
-159.1330901741583
 11
-56.7901025209012
 21
-158.7242144616641
 72
     1
 10
-56.79010252090108
 20
-158.7242144616641
 11
-54.12563237135185
 21
-167.7490708929119
 72
     1
 10
-54.12563237135191
 20
-167.7490708929118
 11
-48.64866306191601
 21
-159.9078022969409
 72
     1
 10
-48.64866306191607
 20
-159.907802296941
 11
-51.35256348723567
 21
-159.5147141130479
 72
     1
 10
-51.35256348723555
 20
-159.5147141130479
 11
-45.98419291236678
 21
-140.0827087651816
 72
     1
 10
-45.98419291236689
 20
-140.0827087651816
 11
-59.01049555115713
 21
-147.3321834435141
 97
        0
 75
     0
 76
     1
 98
        1
 10
-148.1758671131765
 20
-110.1320103866328
450
        0
451
        0
460
0.0
461
0.0
452
        0
462
1.0
453
        2
463
0.0
 63
     5
421
      255
463
1.0
 63
     2
421
 16776960
470
LINEAR
1001
GRADIENTCOLOR1ACI
1070
     5
1001
GRADIENTCOLOR2ACI
1070
     2
1001
ACAD
1010
0.0
1020
0.0
1030
0.0
  0
ENDSEC
  0
SECTION
  2
OBJECTS
  0
DICTIONARY
  5
C
330
0
100
AcDbDictionary
281
     1
  3
ACAD_2007HEADERVARS_RT
350
8538
  3
ACAD_COLOR
350
2FF6
  3
ACAD_GROUP
350
D
  3
ACAD_IMAGE_DICT
350
7837
  3
ACAD_IMAGE_VARS
350
7854
  3
ACAD_LAYOUT
350
1A
  3
ACAD_MATERIAL
350
2FCC
  3
ACAD_MLEADERSTYLE
350
300B
  3
ACAD_MLINESTYLE
350
17
  3
ACAD_PLOTSETTINGS
350
19
  3
ACAD_PLOTSTYLENAME
350
E
  3
ACAD_SCALELIST
350
2FF9
  3
ACAD_TABLESTYLE
350
2FF7
  3
ACAD_VISUALSTYLE
350
2FE5
  3
ACDB_RECOMPOSE_DATA
350
8537
  3
AcDbVariableDictionary
350
86
  3
AcmDictionary
350
45
  3
AEC_PROPERTY_SET_DEFS
350
7578
  3
AMG
350
41
  3
AMGSNAPSETTINGS
350
332
  3
ASE_INDEX_DICTIONARY
350
6D73
  0
DICTIONARY
  5
3120
330
8
100
AcDbDictionary
280
     1
281
     1
  0
DICTIONARY
  5
7638
330
2
100
AcDbDictionary
280
     1
281
     1
  3
ACAD_LAYERSTATES
360
7639
  0
DICTIONARY
  5
30D3
330
10
100
AcDbDictionary
280
     1
281
     1
  3
ADSK_XREC_LAYER_RECONCILED
360
30D4
  0
DICTIONARY
  5
81
330
1F
100
AcDbDictionary
280
     1
281
     1
  3
ACAD_SORTENTS
360
3C89
  0
DICTIONARY
  5
6BEC
330
6B75
100
AcDbDictionary
280
     1
281
     1
  3
ACAD_SORTENTS
360
6BED
  0
DICTIONARY
  5
8538
102
{ACAD_REACTORS
330
C
102
}
330
C
100
AcDbDictionary
281
     1
  3
DIMJOGANG
350
8539
  3
DIMLTEX1
350
853B
  3
DIMLTEX2
350
853C
  3
DIMLTYPE
350
853A
  0
DICTIONARY
  5
2FF6
102
{ACAD_REACTORS
330
C
102
}
330
C
100
AcDbDictionary
281
     1
  0
DICTIONARY
  5
D
102
{ACAD_REACTORS
330
C
102
}
330
C
100
AcDbDictionary
281
     1
  0
DICTIONARY
  5
7837
102
{ACAD_REACTORS
330
C
102
}
330
C
100
AcDbDictionary
281
     1
  3
Bildschirmfoto 2015-09-25 um 20.16.26
350
82D8
  3
Unbenannt
350
7838
  0
RASTERVARIABLES
  5
7854
102
{ACAD_REACTORS
330
C
102
}
330
C
100
AcDbRasterVariables
 90
        0
 70
     1
 71
     1
 72
     1
  0
DICTIONARY
  5
1A
102
{ACAD_REACTORS
330
C
102
}
330
C
100
AcDbDictionary
281
     1
  3
Layout1
350
1E
  3
Layout2
350
26
  3
Model
350
22
  0
DICTIONARY
  5
2FCC
102
{ACAD_REACTORS
330
C
102
}
330
C
100
AcDbDictionary
281
     1
  3
ByBlock
350
2FD5
  3
ByLayer
350
2FCD
  3
Global
350
2FDD
  0
DICTIONARY
  5
300B
102
{ACAD_REACTORS
330
C
102
}
330
C
100
AcDbDictionary
281
     1
  3
Standard
350
300C
  0
DICTIONARY
  5
17
102
{ACAD_REACTORS
330
C
102
}
330
C
100
AcDbDictionary
281
     1
  3
Standard
350
18
  0
DICTIONARY
  5
19
102
{ACAD_REACTORS
330
C
102
}
330
C
100
AcDbDictionary
281
     1
  0
ACDBDICTIONARYWDFLT
  5
E
102
{ACAD_REACTORS
330
C
102
}
330
C
100
AcDbDictionary
281
     1
  3
Normal
350
F
100
AcDbDictionaryWithDefault
340
F
  0
DICTIONARY
  5
2FF9
102
{ACAD_REACTORS
330
C
102
}
330
C
100
AcDbDictionary
281
     1
  3
A0
350
2FFA
  3
A1
350
2FFB
  3
A2
350
2FFC
  3
A3
350
2FFD
  3
A4
350
2FFE
  3
A5
350
2FFF
  3
A6
350
3000
  3
A7
350
3001
  3
A8
350
3002
  3
A9
350
3003
  3
B0
350
3004
  3
B1
350
3005
  3
B2
350
3006
  3
B3
350
3007
  3
B4
350
3008
  3
B5
350
3009
  3
B6
350
300A
  0
DICTIONARY
  5
2FF7
102
{ACAD_REACTORS
330
C
102
}
330
C
100
AcDbDictionary
281
     1
  3
Standard
350
2FF8
  0
DICTIONARY
  5
2FE5
102
{ACAD_REACTORS
330
C
102
}
330
C
100
AcDbDictionary
281
     1
  3
2dWireframe
350
2FEB
  3
3D Hidden
350
2FED
  3
3dWireframe
350
2FEC
  3
Basic
350
2FEA
  3
Brighten
350
2FF1
  3
ColorChange
350
2FF5
  3
Conceptual
350
2FEE
  3
Dim
350
2FF0
  3
EdgeColorOff
350
742C
  3
Facepattern
350
2FF4
  3
Flat
350
2FE6
  3
FlatWithEdges
350
2FE7
  3
Gouraud
350
2FE8
  3
GouraudWithEdges
350
2FE9
  3
Hidden
350
7424
  3
JitterOff
350
742A
  3
Linepattern
350
2FF3
  3
OverhangOff
350
742B
  3
Realistic
350
2FEF
  3
Shaded
350
7429
  3
Shaded with edges
350
7428
  3
Shades of Gray
350
7425
  3
Sketchy
350
7426
  3
Thicken
350
2FF2
  3
Wireframe
350
7423
  3
X-Ray
350
7427
  0
XRECORD
  5
8537
102
{ACAD_REACTORS
330
C
102
}
330
C
100
AcDbXrecord
280
     1
 90
        1
330
2FF8
  0
DICTIONARY
  5
86
102
{ACAD_REACTORS
330
C
102
}
330
C
100
AcDbDictionary
281
     1
  3
CANNOSCALE
350
30E8
  3
CMLEADERSTYLE
350
30E6
  3
CTABLESTYLE
350
30E5
  3
DIMASSOC
350
89
  3
HIDETEXT
350
88
  3
INDEXCTL
350
87
  3
LAYEREVAL
350
30EA
  3
LAYERNOTIFY
350
30EB
  3
LIGHTINGUNITS
350
30E9
  3
MSLTSCALE
350
30E7
  0
DICTIONARY
  5
45
102
{ACAD_REACTORS
330
C
102
}
330
C
100
AcDbDictionary
281
     1
  3
AcmStdDictionary
350
4A
  3
AMDTSECTSYM_ARROWCOLOR
350
3064
  0
DICTIONARY
  5
7578
102
{ACAD_REACTORS
330
C
102
}
330
C
100
AcDbDictionary
281
     1
  0
DICTIONARY
  5
41
102
{ACAD_REACTORS
330
C
102
}
330
C
100
AcDbDictionary
281
     1
  0
DICTIONARY
  5
332
102
{ACAD_REACTORS
330
C
102
}
330
C
100
AcDbDictionary
281
     1
  0
DICTIONARY
  5
6D73
102
{ACAD_REACTORS
330
C
102
}
330
C
100
AcDbDictionary
281
     1
  3
ASEBlockHierarchyIndexRecord
350
6D74
1001
DCO15
1040
1665819116.296
  0
DICTIONARY
  5
7639
102
{ACAD_REACTORS
330
7638
102
}
330
7638
100
AcDbDictionary
281
     1
  0
XRECORD
  5
30D4
102
{ACAD_REACTORS
330
30D3
102
}
330
30D3
100
AcDbXrecord
280
     1
290
     1
  0
SORTENTSTABLE
  5
3C89
102
{ACAD_REACTORS
330
81
102
}
330
81
100
AcDbSortentsTable
330
1F
331
83B0
  5
83CA
331
8367
  5
8369
331
8357
  5
8358
331
8388
  5
838F
331
8347
  5
8347
331
836C
  5
8375
331
838D
  5
8394
331
837D
  5
8383
331
83D2
  5
836C
331
8392
  5
8399
331
8361
  5
8362
331
8382
  5
8388
331
8372
  5
8379
331
83D7
  5
83DB
331
8356
  5
8357
331
8387
  5
838D
331
8377
  5
837D
331
836B
  5
8372
331
838C
  5
8393
331
835B
  5
835C
331
837C
  5
8382
331
834B
  5
834B
331
8360
  5
8361
331
8391
  5
8398
331
8381
  5
8387
331
8350
  5
8351
331
8365
  5
8366
331
8386
  5
838C
331
8355
  5
8356
331
8345
  5
8345
331
83DB
  5
837F
331
836A
  5
8370
331
838B
  5
8392
331
835A
  5
835B
331
837B
  5
8381
331
834A
  5
834A
331
8390
  5
8397
331
8380
  5
8386
331
8370
  5
8378
331
83D5
  5
83D8
331
83C5
  5
83D3
331
8364
  5
8365
331
8385
  5
838B
331
8354
  5
8355
331
8375
  5
837C
331
83CA
  5
834F
331
838A
  5
8391
331
8359
  5
835A
331
837A
  5
8380
331
8349
  5
8349
331
838F
  5
8396
331
837F
  5
8385
331
834E
  5
834E
331
83D4
  5
8368
331
8394
  5
839B
331
8363
  5
8364
331
8384
  5
838A
331
8353
  5
8354
331
8374
  5
837A
331
8343
  5
8343
331
83C9
  5
83D7
331
8368
  5
836B
331
8389
  5
8390
331
8358
  5
8359
331
8379
  5
837E
331
835D
  5
835E
331
834D
  5
834D
331
837E
  5
8384
331
83D3
  5
8374
331
83C3
  5
83D4
331
8393
  5
839A
331
8383
  5
8389
331
8352
  5
8353
331
83D8
  5
8377
  0
SORTENTSTABLE
  5
6BED
102
{ACAD_REACTORS
330
6BEC
102
}
330
6BEC
100
AcDbSortentsTable
330
6B75
  0
XRECORD
  5
8539
102
{ACAD_REACTORS
330
8538
102
}
330
8538
100
AcDbXrecord
280
     1
 40
1.570796326794896
  0
XRECORD
  5
853B
102
{ACAD_REACTORS
330
8538
102
}
330
8538
100
AcDbXrecord
280
     1
340
14
  0
XRECORD
  5
853C
102
{ACAD_REACTORS
330
8538
102
}
330
8538
100
AcDbXrecord
280
     1
340
14
  0
XRECORD
  5
853A
102
{ACAD_REACTORS
330
8538
102
}
330
8538
100
AcDbXrecord
280
     1
340
14
  0
IMAGEDEF
  5
82D8
102
{ACAD_REACTORS
330
7837
102
}
330
7837
100
AcDbRasterImageDef
 90
        0
  1
C:\Users\Administrator\Desktop\Bildschirmfoto 2015-09-25 um 20.16.26.jpg
 10
757.0
 20
982.0
 11
0.3527777777777778
 21
0.3527777777777778
280
     1
281
     5
  0
IMAGEDEF
  5
7838
102
{ACAD_REACTORS
330
7837
102
}
330
7837
100
AcDbRasterImageDef
 90
        0
  1
C:\Users\Administrator\Desktop\Unbenannt.JPG
 10
697.0
 20
936.0
 11
0.2645833333333333
 21
0.2645833333333333
280
     1
281
     5
  0
LAYOUT
  5
1E
102
{ACAD_REACTORS
330
1A
102
}
330
1A
100
AcDbPlotSettings
  1

  2
Epson Stylus COLOR 440 ESC/P 2
  4

  6

 40
0.0
 41
0.0
 42
0.0
 43
0.0
 44
0.0
 45
0.0
 46
0.0
 47
0.0
 48
0.0
 49
0.0
140
0.0
141
0.0
142
1.0
143
1.0
 70
   688
 72
     0
 73
     0
 74
     5
  7

 75
    16
147
1.0
 76
     0
 77
     2
 78
   300
148
0.0
149
0.0
100
AcDbLayout
  1
Layout1
 70
     1
 71
     1
 10
0.0
 20
0.0
 11
420.0
 21
297.0
 12
0.0
 22
0.0
 32
0.0
 14
1.000000000000000E+20
 24
1.000000000000000E+20
 34
1.000000000000000E+20
 15
-1.000000000000000E+20
 25
-1.000000000000000E+20
 35
-1.000000000000000E+20
146
0.0
 13
0.0
 23
0.0
 33
0.0
 16
1.0
 26
0.0
 36
0.0
 17
0.0
 27
1.0
 37
0.0
 76
     0
330
1B
  0
LAYOUT
  5
26
102
{ACAD_REACTORS
330
1A
102
}
330
1A
100
AcDbPlotSettings
  1

  2
Epson Stylus COLOR 440 ESC/P 2
  4

  6

 40
0.0
 41
0.0
 42
0.0
 43
0.0
 44
0.0
 45
0.0
 46
0.0
 47
0.0
 48
0.0
 49
0.0
140
0.0
141
0.0
142
1.0
143
1.0
 70
   688
 72
     0
 73
     0
 74
     5
  7

 75
    16
147
1.0
 76
     0
 77
     2
 78
   300
148
0.0
149
0.0
100
AcDbLayout
  1
Layout2
 70
     1
 71
     2
 10
0.0
 20
0.0
 11
12.0
 21
9.0
 12
0.0
 22
0.0
 32
0.0
 14
0.0
 24
0.0
 34
0.0
 15
0.0
 25
0.0
 35
0.0
146
0.0
 13
0.0
 23
0.0
 33
0.0
 16
1.0
 26
0.0
 36
0.0
 17
0.0
 27
1.0
 37
0.0
 76
     0
330
23
  0
LAYOUT
  5
22
102
{ACAD_XDICTIONARY
360
763E
102
}
102
{ACAD_REACTORS
330
1A
102
}
330
1A
100
AcDbPlotSettings
  1

  2
none_device
  4
ISO_A4_(210.00_x_297.00_MM)
  6

 40
7.5
 41
20.0
 42
7.5
 43
20.0
 44
210.0
 45
297.0
 46
0.0
 47
0.0
 48
0.0
 49
0.0
140
0.0
141
0.0
142
1.0
143
7.028912322782197
 70
 11952
 72
     1
 73
     1
 74
     0
  7

 75
     0
147
0.142269522520403
 76
     0
 77
     2
 78
   300
148
1001.647604128032
149
291.8947167440501
100
AcDbLayout
  1
Model
 70
     1
 71
     0
 10
0.0
 20
0.0
 11
12.0
 21
9.0
 12
0.0
 22
0.0
 32
0.0
 14
0.0
 24
0.0
 34
0.0
 15
0.0
 25
0.0
 35
0.0
146
0.0
 13
0.0
 23
0.0
 33
0.0
 16
1.0
 26
0.0
 36
0.0
 17
0.0
 27
1.0
 37
0.0
 76
     0
330
1F
331
2FCA
1001
ACAD_PSEXT
1000
Kein
1000
Kein
1000
Nicht anwendbar
1000
Das Layout wird erst geplottet, wenn ein neuer Plotter-Konfigurationsname ausgewählt wird.
1070
     0
  0
MATERIAL
  5
2FD5
102
{ACAD_XDICTIONARY
360
2FD6
102
}
102
{ACAD_REACTORS
330
2FCC
102
}
330
2FCC
100
AcDbMaterial
  1
ByBlock
 72
     0
 43
0.0008202099737533
 43
0.0
 43
0.0
 43
0.0
 43
0.0
 43
0.0008202099737533
 43
0.0
 43
0.0
 43
0.0
 43
0.0
 43
1.0
 43
0.0
 43
0.0
 43
0.0
 43
0.0
 43
1.0
 77
     0
 47
0.0008202099737533
 47
0.0
 47
0.0
 47
0.0
 47
0.0
 47
0.0008202099737533
 47
0.0
 47
0.0
 47
0.0
 47
0.0
 47
1.0
 47
0.0
 47
0.0
 47
0.0
 47
0.0
 47
1.0
171
     0
 49
0.0008202099737533
 49
0.0
 49
0.0
 49
0.0
 49
0.0
 49
0.0008202099737533
 49
0.0
 49
0.0
 49
0.0
 49
0.0
 49
1.0
 49
0.0
 49
0.0
 49
0.0
 49
0.0
 49
1.0
175
     0
142
0.0008202099737533
142
0.0
142
0.0
142
0.0
142
0.0
142
0.0008202099737533
142
0.0
142
0.0
142
0.0
142
0.0
142
1.0
142
0.0
142
0.0
142
0.0
142
0.0
142
1.0
179
     0
144
0.0008202099737533
144
0.0
144
0.0
144
0.0
144
0.0
144
0.0008202099737533
144
0.0
144
0.0
144
0.0
144
0.0
144
1.0
144
0.0
144
0.0
144
0.0
144
0.0
144
1.0
147
0.0008202099737533
147
0.0
147
0.0
147
0.0
147
0.0
147
0.0008202099737533
147
0.0
147
0.0
147
0.0
147
0.0
147
1.0
147
0.0
147
0.0
147
0.0
147
0.0
147
1.0
  0
MATERIAL
  5
2FCD
102
{ACAD_XDICTIONARY
360
2FCE
102
}
102
{ACAD_REACTORS
330
2FCC
102
}
330
2FCC
100
AcDbMaterial
  1
ByLayer
 72
     0
 43
0.0008202099737533
 43
0.0
 43
0.0
 43
0.0
 43
0.0
 43
0.0008202099737533
 43
0.0
 43
0.0
 43
0.0
 43
0.0
 43
1.0
 43
0.0
 43
0.0
 43
0.0
 43
0.0
 43
1.0
 77
     0
 47
0.0008202099737533
 47
0.0
 47
0.0
 47
0.0
 47
0.0
 47
0.0008202099737533
 47
0.0
 47
0.0
 47
0.0
 47
0.0
 47
1.0
 47
0.0
 47
0.0
 47
0.0
 47
0.0
 47
1.0
171
     0
 49
0.0008202099737533
 49
0.0
 49
0.0
 49
0.0
 49
0.0
 49
0.0008202099737533
 49
0.0
 49
0.0
 49
0.0
 49
0.0
 49
1.0
 49
0.0
 49
0.0
 49
0.0
 49
0.0
 49
1.0
175
     0
142
0.0008202099737533
142
0.0
142
0.0
142
0.0
142
0.0
142
0.0008202099737533
142
0.0
142
0.0
142
0.0
142
0.0
142
1.0
142
0.0
142
0.0
142
0.0
142
0.0
142
1.0
179
     0
144
0.0008202099737533
144
0.0
144
0.0
144
0.0
144
0.0
144
0.0008202099737533
144
0.0
144
0.0
144
0.0
144
0.0
144
1.0
144
0.0
144
0.0
144
0.0
144
0.0
144
1.0
147
0.0008202099737533
147
0.0
147
0.0
147
0.0
147
0.0
147
0.0008202099737533
147
0.0
147
0.0
147
0.0
147
0.0
147
1.0
147
0.0
147
0.0
147
0.0
147
0.0
147
1.0
  0
MATERIAL
  5
2FDD
102
{ACAD_XDICTIONARY
360
2FDE
102
}
102
{ACAD_REACTORS
330
2FCC
102
}
330
2FCC
100
AcDbMaterial
  1
Global
 72
     0
 43
0.0008202099737533
 43
0.0
 43
0.0
 43
0.0
 43
0.0
 43
0.0008202099737533
 43
0.0
 43
0.0
 43
0.0
 43
0.0
 43
1.0
 43
0.0
 43
0.0
 43
0.0
 43
0.0
 43
1.0
 77
     0
 47
0.0008202099737533
 47
0.0
 47
0.0
 47
0.0
 47
0.0
 47
0.0008202099737533
 47
0.0
 47
0.0
 47
0.0
 47
0.0
 47
1.0
 47
0.0
 47
0.0
 47
0.0
 47
0.0
 47
1.0
171
     0
 49
0.0008202099737533
 49
0.0
 49
0.0
 49
0.0
 49
0.0
 49
0.0008202099737533
 49
0.0
 49
0.0
 49
0.0
 49
0.0
 49
1.0
 49
0.0
 49
0.0
 49
0.0
 49
0.0
 49
1.0
175
     0
142
0.0008202099737533
142
0.0
142
0.0
142
0.0
142
0.0
142
0.0008202099737533
142
0.0
142
0.0
142
0.0
142
0.0
142
1.0
142
0.0
142
0.0
142
0.0
142
0.0
142
1.0
179
     0
144
0.0008202099737533
144
0.0
144
0.0
144
0.0
144
0.0
144
0.0008202099737533
144
0.0
144
0.0
144
0.0
144
0.0
144
1.0
144
0.0
144
0.0
144
0.0
144
0.0
144
1.0
147
0.0008202099737533
147
0.0
147
0.0
147
0.0
147
0.0
147
0.0008202099737533
147
0.0
147
0.0
147
0.0
147
0.0
147
1.0
147
0.0
147
0.0
147
0.0
147
0.0
147
1.0
  0
MLEADERSTYLE
  5
300C
102
{ACAD_REACTORS
330
300B
102
}
330
300B
100
AcDbMLeaderStyle
170
     2
171
     1
172
     0
 90
        2
 40
0.0
 41
0.0
173
     1
 91
-1056964608
340
14
 92
       -2
290
     1
 42
2.0
291
     1
 43
0.36
  3
Standard
 44
4.0
300

342
11
174
     1
178
     6
175
     1
176
     0
 93
-1056964608
 45
4.0
292
     0
297
     0
 46
4.0
 94
-1056964608
 47
1.0
 49
1.0
140
1.0
293
     1
141
0.0
294
     1
177
     0
142
1.0
295
     0
296
     0
143
0.125
1001
ACAD_MLEADERVER
1070
     2
  0
MLINESTYLE
  5
18
102
{ACAD_REACTORS
330
17
102
}
330
17
100
AcDbMlineStyle
  2
STANDARD
 70
     0
  3

 62
   256
 51
90.0
 52
90.0
 71
     2
 49
0.5
 62
   256
  6
BYLAYER
 49
-0.5
 62
   256
  6
BYLAYER
  0
ACDBPLACEHOLDER
  5
F
102
{ACAD_REACTORS
330
E
102
}
330
E
  0
SCALE
  5
2FFA
102
{ACAD_REACTORS
330
2FF9
102
}
330
2FF9
100
AcDbScale
 70
     0
300
1:1
140
1.0
141
1.0
290
     1
  0
SCALE
  5
2FFB
102
{ACAD_REACTORS
330
2FF9
102
}
330
2FF9
100
AcDbScale
 70
     0
300
1:2
140
1.0
141
2.0
290
     0
  0
SCALE
  5
2FFC
102
{ACAD_REACTORS
330
2FF9
102
}
330
2FF9
100
AcDbScale
 70
     0
300
1:4
140
1.0
141
4.0
290
     0
  0
SCALE
  5
2FFD
102
{ACAD_REACTORS
330
2FF9
102
}
330
2FF9
100
AcDbScale
 70
     0
300
1:5
140
1.0
141
5.0
290
     0
  0
SCALE
  5
2FFE
102
{ACAD_REACTORS
330
2FF9
102
}
330
2FF9
100
AcDbScale
 70
     0
300
1:8
140
1.0
141
8.0
290
     0
  0
SCALE
  5
2FFF
102
{ACAD_REACTORS
330
2FF9
102
}
330
2FF9
100
AcDbScale
 70
     0
300
1:10
140
1.0
141
10.0
290
     0
  0
SCALE
  5
3000
102
{ACAD_REACTORS
330
2FF9
102
}
330
2FF9
100
AcDbScale
 70
     0
300
1:16
140
1.0
141
16.0
290
     0
  0
SCALE
  5
3001
102
{ACAD_REACTORS
330
2FF9
102
}
330
2FF9
100
AcDbScale
 70
     0
300
1:20
140
1.0
141
20.0
290
     0
  0
SCALE
  5
3002
102
{ACAD_REACTORS
330
2FF9
102
}
330
2FF9
100
AcDbScale
 70
     0
300
1:30
140
1.0
141
30.0
290
     0
  0
SCALE
  5
3003
102
{ACAD_REACTORS
330
2FF9
102
}
330
2FF9
100
AcDbScale
 70
     0
300
1:40
140
1.0
141
40.0
290
     0
  0
SCALE
  5
3004
102
{ACAD_REACTORS
330
2FF9
102
}
330
2FF9
100
AcDbScale
 70
     0
300
1:50
140
1.0
141
50.0
290
     0
  0
SCALE
  5
3005
102
{ACAD_REACTORS
330
2FF9
102
}
330
2FF9
100
AcDbScale
 70
     0
300
1:100
140
1.0
141
100.0
290
     0
  0
SCALE
  5
3006
102
{ACAD_REACTORS
330
2FF9
102
}
330
2FF9
100
AcDbScale
 70
     0
300
2:1
140
2.0
141
1.0
290
     0
  0
SCALE
  5
3007
102
{ACAD_REACTORS
330
2FF9
102
}
330
2FF9
100
AcDbScale
 70
     0
300
4:1
140
4.0
141
1.0
290
     0
  0
SCALE
  5
3008
102
{ACAD_REACTORS
330
2FF9
102
}
330
2FF9
100
AcDbScale
 70
     0
300
8:1
140
8.0
141
1.0
290
     0
  0
SCALE
  5
3009
102
{ACAD_REACTORS
330
2FF9
102
}
330
2FF9
100
AcDbScale
 70
     0
300
10:1
140
10.0
141
1.0
290
     0
  0
SCALE
  5
300A
102
{ACAD_REACTORS
330
2FF9
102
}
330
2FF9
100
AcDbScale
 70
     0
300
100:1
140
100.0
141
1.0
290
     0
  0
TABLESTYLE
  5
2FF8
102
{ACAD_XDICTIONARY
360
30E2
102
}
102
{ACAD_REACTORS
330
2FF7
102
}
330
2FF7
100
AcDbTableStyle
  3
Standard
 70
     0
 71
     0
 40
1.5
 41
1.5
280
     0
281
     0
  7
STANDARD
140
4.5
170
     2
 62
     0
 63
     7
283
     0
274
    -2
284
     1
 64
     0
275
    -2
285
     1
 65
     0
276
    -2
286
     1
 66
     0
277
    -2
287
     1
 67
     0
278
    -2
288
     1
 68
     0
279
    -2
289
     1
 69
     0
  7
STANDARD
140
6.0
170
     5
 62
     0
 63
     7
283
     0
274
    -2
284
     1
 64
     0
275
    -2
285
     1
 65
     0
276
    -2
286
     1
 66
     0
277
    -2
287
     1
 67
     0
278
    -2
288
     1
 68
     0
279
    -2
289
     1
 69
     0
  7
STANDARD
140
4.5
170
     5
 62
     0
 63
     7
283
     0
274
    -2
284
     1
 64
     0
275
    -2
285
     1
 65
     0
276
    -2
286
     1
 66
     0
277
    -2
287
     1
 67
     0
278
    -2
288
     1
 68
     0
279
    -2
289
     1
 69
     0
  0
VISUALSTYLE
  5
2FEB
102
{ACAD_XDICTIONARY
360
854A
102
}
102
{ACAD_REACTORS
330
2FE5
102
}
330
2FE5
100
AcDbVisualStyle
  2
2dWireframe
 70
     4
 71
     0
 72
     2
 73
     0
 90
        0
 40
-0.6
 41
-30.0
 62
     5
 63
     7
421
 16777215
 74
     1
 91
        4
 64
     7
 65
   257
 75
     1
175
     1
 42
1.0
 92
        0
 66
   257
 43
1.0
 76
     1
 77
     6
 78
     2
 67
     7
 79
     5
170
     0
171
     0
290
     0
174
     0
 93
        1
 44
0.0
173
     0
291
     0
 45
0.0
1001
ACAD
1000
AcDbSavedByObjectVersion
1070
     0
  0
VISUALSTYLE
  5
2FED
102
{ACAD_XDICTIONARY
360
854E
102
}
102
{ACAD_REACTORS
330
2FE5
102
}
330
2FE5
100
AcDbVisualStyle
  2
3D Hidden
 70
     6
 71
     1
 72
     2
 73
     2
 90
        0
 40
-0.6
 41
-30.0
 62
     5
 63
     7
421
 16777215
 74
     2
 91
        2
 64
     7
 65
   257
 75
     2
175
     1
 42
40.0
 92
        0
 66
   257
 43
1.0
 76
     1
 77
     6
 78
     2
 67
     7
 79
     3
170
     0
171
     0
290
     0
174
     0
 93
        1
 44
0.0
173
     0
291
     0
 45
0.0
1001
ACAD
1000
AcDbSavedByObjectVersion
1070
     0
  0
VISUALSTYLE
  5
2FEC
102
{ACAD_XDICTIONARY
360
854C
102
}
102
{ACAD_REACTORS
330
2FE5
102
}
330
2FE5
100
AcDbVisualStyle
  2
3dWireframe
 70
     5
 71
     0
 72
     2
 73
     0
 90
        0
 40
-0.6
 41
-30.0
 62
     5
 63
     7
421
 16777215
 74
     1
 91
        4
 64
     7
 65
   257
 75
     1
175
     1
 42
1.0
 92
        0
 66
   257
 43
1.0
 76
     1
 77
     6
 78
     2
 67
     7
 79
     5
170
     0
171
     0
290
     0
174
     0
 93
        1
 44
0.0
173
     0
291
     0
 45
0.0
1001
ACAD
1000
AcDbSavedByObjectVersion
1070
     0
  0
VISUALSTYLE
  5
2FEA
102
{ACAD_XDICTIONARY
360
8548
102
}
102
{ACAD_REACTORS
330
2FE5
102
}
330
2FE5
100
AcDbVisualStyle
  2
Basic
 70
     7
 71
     1
 72
     0
 73
     1
 90
        0
 40
-0.6
 41
-30.0
 62
     5
 63
     7
421
 16777215
 74
     0
 91
        4
 64
     7
 65
   257
 75
     1
175
     1
 42
1.0
 92
        8
 66
     7
 43
1.0
 76
     1
 77
     6
 78
     2
 67
     7
 79
     5
170
     0
171
     0
290
     0
174
     0
 93
        1
 44
0.0
173
     0
291
     1
 45
0.0
1001
ACAD
1000
AcDbSavedByObjectVersion
1070
     0
  0
VISUALSTYLE
  5
2FF1
102
{ACAD_XDICTIONARY
360
8556
102
}
102
{ACAD_REACTORS
330
2FE5
102
}
330
2FE5
100
AcDbVisualStyle
  2
Brighten
 70
    12
 71
     2
 72
     2
 73
     0
 90
        0
 40
-0.6
 41
-30.0
 62
     5
 63
     7
421
 16777215
 74
     1
 91
        4
 64
     7
 65
   257
 75
     1
175
     1
 42
1.0
 92
        8
 66
     7
 43
1.0
 76
     1
 77
     6
 78
     2
 67
     7
 79
     5
170
     0
171
     0
290
     0
174
     0
 93
        1
 44
50.0
173
     0
291
     1
 45
0.0
1001
ACAD
1000
AcDbSavedByObjectVersion
1070
     0
  0
VISUALSTYLE
  5
2FF5
102
{ACAD_XDICTIONARY
360
855E
102
}
102
{ACAD_REACTORS
330
2FE5
102
}
330
2FE5
100
AcDbVisualStyle
  2
ColorChange
 70
    16
 71
     2
 72
     2
 73
     3
 90
        0
 40
-0.6
 41
-30.0
 62
     5
 63
     8
421
  8421504
 74
     1
 91
        4
 64
     7
 65
   257
 75
     1
175
     1
 42
1.0
 92
        8
 66
     8
424
  8421504
 43
1.0
 76
     1
 77
     6
 78
     2
 67
     7
 79
     5
170
     0
171
     0
290
     0
174
     0
 93
        1
 44
0.0
173
     0
291
     1
 45
0.0
1001
ACAD
1000
AcDbSavedByObjectVersion
1070
     0
  0
VISUALSTYLE
  5
2FEE
102
{ACAD_XDICTIONARY
360
8550
102
}
102
{ACAD_REACTORS
330
2FE5
102
}
330
2FE5
100
AcDbVisualStyle
  2
Conceptual
 70
     9
 71
     3
 72
     2
 73
     0
 90
        0
 40
-0.6
 41
-30.0
 62
     5
 63
     7
421
 16777215
 74
     2
 91
        2
 64
     7
 65
   257
 75
     1
175
     1
 42
40.0
 92
        8
 66
     7
 43
1.0
 76
     1
 77
     6
 78
     2
 67
     7
 79
     3
170
     0
171
     0
290
     0
174
     0
 93
        1
 44
0.0
173
     0
291
     0
 45
0.0
1001
ACAD
1000
AcDbSavedByObjectVersion
1070
     0
  0
VISUALSTYLE
  5
2FF0
102
{ACAD_XDICTIONARY
360
8554
102
}
102
{ACAD_REACTORS
330
2FE5
102
}
330
2FE5
100
AcDbVisualStyle
  2
Dim
 70
    11
 71
     2
 72
     2
 73
     0
 90
        0
 40
-0.6
 41
-30.0
 62
     5
 63
     7
421
 16777215
 74
     1
 91
        4
 64
     7
 65
   257
 75
     1
175
     1
 42
1.0
 92
        8
 66
     7
 43
1.0
 76
     1
 77
     6
 78
     2
 67
     7
 79
     5
170
     0
171
     0
290
     0
174
     0
 93
        1
 44
-50.0
173
     0
291
     1
 45
0.0
1001
ACAD
1000
AcDbSavedByObjectVersion
1070
     0
  0
VISUALSTYLE
  5
742C
102
{ACAD_XDICTIONARY
360
8573
102
}
102
{ACAD_REACTORS
330
2FE5
102
}
330
2FE5
100
AcDbVisualStyle
  2
EdgeColorOff
 70
    22
 71
     2
 72
     2
 73
     0
 90
        0
 40
-0.6
 41
-30.0
 62
     5
 63
     7
421
 16777215
 74
     1
 91
        4
 64
     7
 65
   257
 75
     1
175
     1
 42
1.0
 92
        8
 66
     7
 43
1.0
 76
     1
 77
     6
 78
     2
 67
     7
 79
     5
170
     0
171
     0
290
     0
174
     0
 93
        1
 44
0.0
173
     0
291
     1
 45
0.0
1001
ACAD
1000
AcDbSavedByObjectVersion
1070
     0
  0
VISUALSTYLE
  5
2FF4
102
{ACAD_XDICTIONARY
360
855C
102
}
102
{ACAD_REACTORS
330
2FE5
102
}
330
2FE5
100
AcDbVisualStyle
  2
Facepattern
 70
    15
 71
     2
 72
     2
 73
     0
 90
        0
 40
-0.6
 41
-30.0
 62
     5
 63
     7
421
 16777215
 74
     1
 91
        4
 64
     7
 65
   257
 75
     1
175
     1
 42
1.0
 92
        8
 66
     7
 43
1.0
 76
     1
 77
     6
 78
     2
 67
     7
 79
     5
170
     0
171
     0
290
     0
174
     0
 93
        1
 44
0.0
173
     0
291
     1
 45
0.0
1001
ACAD
1000
AcDbSavedByObjectVersion
1070
     0
  0
VISUALSTYLE
  5
2FE6
102
{ACAD_XDICTIONARY
360
8540
102
}
102
{ACAD_REACTORS
330
2FE5
102
}
330
2FE5
100
AcDbVisualStyle
  2
Flat
 70
     0
 71
     2
 72
     1
 73
     1
 90
        2
 40
-0.6
 41
30.0
 62
     5
 63
     7
421
 16777215
 74
     0
 91
        4
 64
     7
 65
   257
 75
     1
175
     1
 42
1.0
 92
        8
 66
     7
 43
1.0
 76
     1
 77
     6
 78
     2
 67
     7
 79
     5
170
     0
171
     0
290
     0
174
     0
 93
       13
 44
0.0
173
     0
291
     1
 45
0.0
1001
ACAD
1000
AcDbSavedByObjectVersion
1070
     0
  0
VISUALSTYLE
  5
2FE7
102
{ACAD_XDICTIONARY
360
8542
102
}
102
{ACAD_REACTORS
330
2FE5
102
}
330
2FE5
100
AcDbVisualStyle
  2
FlatWithEdges
 70
     1
 71
     2
 72
     1
 73
     1
 90
        2
 40
-0.6
 41
30.0
 62
     5
 63
     7
421
 16777215
 74
     1
 91
        4
 64
     7
 65
   257
 75
     1
175
     1
 42
1.0
 92
        0
 66
   257
 43
1.0
 76
     1
 77
     6
 78
     2
 67
     7
 79
     5
170
     0
171
     0
290
     0
174
     0
 93
       13
 44
0.0
173
     0
291
     1
 45
0.0
1001
ACAD
1000
AcDbSavedByObjectVersion
1070
     0
  0
VISUALSTYLE
  5
2FE8
102
{ACAD_XDICTIONARY
360
8544
102
}
102
{ACAD_REACTORS
330
2FE5
102
}
330
2FE5
100
AcDbVisualStyle
  2
Gouraud
 70
     2
 71
     2
 72
     2
 73
     1
 90
        2
 40
-0.6
 41
30.0
 62
     5
 63
     7
421
 16777215
 74
     0
 91
        4
 64
     7
 65
   257
 75
     1
175
     1
 42
1.0
 92
        0
 66
     7
 43
1.0
 76
     1
 77
     6
 78
     2
 67
     7
 79
     5
170
     0
171
     0
290
     0
174
     0
 93
       13
 44
0.0
173
     0
291
     1
 45
0.0
1001
ACAD
1000
AcDbSavedByObjectVersion
1070
     0
  0
VISUALSTYLE
  5
2FE9
102
{ACAD_XDICTIONARY
360
8546
102
}
102
{ACAD_REACTORS
330
2FE5
102
}
330
2FE5
100
AcDbVisualStyle
  2
GouraudWithEdges
 70
     3
 71
     2
 72
     2
 73
     1
 90
        2
 40
-0.6
 41
30.0
 62
     5
 63
     7
421
 16777215
 74
     1
 91
        4
 64
     7
 65
   257
 75
     1
175
     1
 42
1.0
 92
        0
 66
   257
 43
1.0
 76
     1
 77
     6
 78
     2
 67
     7
 79
     5
170
     0
171
     0
290
     0
174
     0
 93
       13
 44
0.0
173
     0
291
     1
 45
0.0
1001
ACAD
1000
AcDbSavedByObjectVersion
1070
     0
  0
VISUALSTYLE
  5
7424
102
{ACAD_XDICTIONARY
360
8563
102
}
102
{ACAD_REACTORS
330
2FE5
102
}
330
2FE5
100
AcDbVisualStyle
  2
Hidden
 70
     6
 71
     1
 72
     2
 73
     2
 90
        0
 40
-0.6
 41
-30.0
 62
     5
 63
     7
421
 16777215
 74
     2
 91
        2
 64
     7
 65
   257
 75
     2
175
     1
 42
40.0
 92
        0
 66
   257
 43
1.0
 76
     1
 77
     6
 78
     2
 67
     7
 79
     3
170
     0
171
     0
290
     0
174
     0
 93
        1
 44
0.0
173
     0
291
     0
 45
0.0
1001
ACAD
1000
AcDbSavedByObjectVersion
1070
     0
  0
VISUALSTYLE
  5
742A
102
{ACAD_XDICTIONARY
360
856F
102
}
102
{ACAD_REACTORS
330
2FE5
102
}
330
2FE5
100
AcDbVisualStyle
  2
JitterOff
 70
    20
 71
     2
 72
     2
 73
     0
 90
        0
 40
-0.6
 41
-30.0
 62
     5
 63
     7
421
 16777215
 74
     1
 91
        4
 64
     7
 65
   257
 75
     1
175
     1
 42
1.0
 92
       10
 66
     7
 43
1.0
 76
     1
 77
     6
 78
     2
 67
     7
 79
     5
170
     0
171
     0
290
     0
174
     0
 93
        1
 44
0.0
173
     0
291
     1
 45
0.0
1001
ACAD
1000
AcDbSavedByObjectVersion
1070
     0
  0
VISUALSTYLE
  5
2FF3
102
{ACAD_XDICTIONARY
360
855A
102
}
102
{ACAD_REACTORS
330
2FE5
102
}
330
2FE5
100
AcDbVisualStyle
  2
Linepattern
 70
    14
 71
     2
 72
     2
 73
     0
 90
        0
 40
-0.6
 41
-30.0
 62
     5
 63
     7
421
 16777215
 74
     1
 91
        4
 64
     7
 65
   257
 75
     7
175
     7
 42
1.0
 92
        8
 66
     7
 43
1.0
 76
     1
 77
     6
 78
     2
 67
     7
 79
     5
170
     0
171
     0
290
     0
174
     0
 93
        1
 44
0.0
173
     0
291
     1
 45
0.0
1001
ACAD
1000
AcDbSavedByObjectVersion
1070
     0
  0
VISUALSTYLE
  5
742B
102
{ACAD_XDICTIONARY
360
8571
102
}
102
{ACAD_REACTORS
330
2FE5
102
}
330
2FE5
100
AcDbVisualStyle
  2
OverhangOff
 70
    21
 71
     2
 72
     2
 73
     0
 90
        0
 40
-0.6
 41
-30.0
 62
     5
 63
     7
421
 16777215
 74
     1
 91
        4
 64
     7
 65
   257
 75
     1
175
     1
 42
1.0
 92
        9
 66
     7
 43
1.0
 76
     1
 77
     6
 78
     2
 67
     7
 79
     5
170
     0
171
     0
290
     0
174
     0
 93
        1
 44
0.0
173
     0
291
     1
 45
0.0
1001
ACAD
1000
AcDbSavedByObjectVersion
1070
     0
  0
VISUALSTYLE
  5
2FEF
102
{ACAD_XDICTIONARY
360
8552
102
}
102
{ACAD_REACTORS
330
2FE5
102
}
330
2FE5
100
AcDbVisualStyle
  2
Realistic
 70
     8
 71
     2
 72
     2
 73
     0
 90
        0
 40
-0.6
 41
-30.0
 62
     5
 63
     7
421
 16777215
 74
     1
 91
        0
 64
     7
 65
   257
 75
     1
175
     1
 42
1.0
 92
        8
 66
     8
424
  7895160
 43
1.0
 76
     1
 77
     6
 78
     2
 67
     7
 79
     5
170
     0
171
     0
290
     0
174
     0
 93
       13
 44
0.0
173
     0
291
     0
 45
0.0
1001
ACAD
1000
AcDbSavedByObjectVersion
1070
     0
  0
VISUALSTYLE
  5
7429
102
{ACAD_XDICTIONARY
360
856D
102
}
102
{ACAD_REACTORS
330
2FE5
102
}
330
2FE5
100
AcDbVisualStyle
  2
Shaded
 70
    27
 71
     2
 72
     2
 73
     1
 90
        2
 40
-0.6
 41
30.0
 62
     5
 63
     7
421
 16777215
 74
     0
 91
        4
 64
     7
 65
   257
 75
     1
175
     1
 42
1.0
 92
        8
 66
   257
 43
1.0
 76
     1
 77
     6
 78
     2
 67
     8
425
  7895160
 79
     3
170
     0
171
     0
290
     0
174
     0
 93
        5
 44
0.0
173
     0
291
     0
 45
0.0
1001
ACAD
1000
AcDbSavedByObjectVersion
1070
     0
  0
VISUALSTYLE
  5
7428
102
{ACAD_XDICTIONARY
360
856B
102
}
102
{ACAD_REACTORS
330
2FE5
102
}
330
2FE5
100
AcDbVisualStyle
  2
Shaded with edges
 70
    26
 71
     2
 72
     2
 73
     1
 90
        2
 40
-0.6
 41
30.0
 62
     5
 63
     7
421
 16777215
 74
     1
 91
       10
 64
     7
 65
   257
 75
     2
175
     1
 42
1.0
 92
        8
 66
   257
 43
1.0
 76
     1
 77
     6
 78
     2
 67
     7
 79
     3
170
     0
171
     0
290
     0
174
     0
 93
        5
 44
0.0
173
     0
291
     0
 45
0.0
1001
ACAD
1000
AcDbSavedByObjectVersion
1070
     0
  0
VISUALSTYLE
  5
7425
102
{ACAD_XDICTIONARY
360
8565
102
}
102
{ACAD_REACTORS
330
2FE5
102
}
330
2FE5
100
AcDbVisualStyle
  2
Shades of Gray
 70
    23
 71
     2
 72
     2
 73
     3
 90
        0
 40
-0.6
 41
-30.0
 62
     5
 63
     7
421
 16777215
 74
     2
 91
        2
 64
     7
 65
     7
 75
     1
175
     1
 42
40.0
 92
        8
 66
     7
 43
1.0
 76
     1
 77
     6
 78
     2
 67
     7
 79
     3
170
     0
171
     0
290
     0
174
     0
 93
        1
 44
0.0
173
     0
291
     0
 45
0.0
1001
ACAD
1000
AcDbSavedByObjectVersion
1070
     0
  0
VISUALSTYLE
  5
7426
102
{ACAD_XDICTIONARY
360
8567
102
}
102
{ACAD_REACTORS
330
2FE5
102
}
330
2FE5
100
AcDbVisualStyle
  2
Sketchy
 70
    24
 71
     1
 72
     2
 73
     2
 90
        0
 40
-0.6
 41
-30.0
 62
     5
 63
     7
421
 16777215
 74
     2
 91
        2
 64
     7
 65
     7
 75
     1
175
     1
 42
40.0
 92
       11
 66
     7
 43
1.0
 76
     1
 77
     6
 78
     2
 67
     7
 79
     6
170
     0
171
     0
290
     0
174
     0
 93
        1
 44
0.0
173
     0
291
     0
 45
0.0
1001
ACAD
1000
AcDbSavedByObjectVersion
1070
     0
  0
VISUALSTYLE
  5
2FF2
102
{ACAD_XDICTIONARY
360
8558
102
}
102
{ACAD_REACTORS
330
2FE5
102
}
330
2FE5
100
AcDbVisualStyle
  2
Thicken
 70
    13
 71
     2
 72
     2
 73
     0
 90
        0
 40
-0.6
 41
-30.0
 62
     5
 63
     7
421
 16777215
 74
     1
 91
        4
 64
     7
 65
   257
 75
     1
175
     1
 42
1.0
 92
       12
 66
     7
 43
1.0
 76
     1
 77
     6
 78
     2
 67
     7
 79
     5
170
     0
171
     0
290
     0
174
     0
 93
        1
 44
0.0
173
     0
291
     1
 45
0.0
1001
ACAD
1000
AcDbSavedByObjectVersion
1070
     0
  0
VISUALSTYLE
  5
7423
102
{ACAD_XDICTIONARY
360
8561
102
}
102
{ACAD_REACTORS
330
2FE5
102
}
330
2FE5
100
AcDbVisualStyle
  2
Wireframe
 70
     5
 71
     0
 72
     2
 73
     0
 90
        0
 40
-0.6
 41
-30.0
 62
     5
 63
     7
421
 16777215
 74
     1
 91
        4
 64
     7
 65
   257
 75
     1
175
     1
 42
1.0
 92
        0
 66
   257
 43
1.0
 76
     1
 77
     6
 78
     2
 67
     7
 79
     3
170
     0
171
     0
290
     0
174
     0
 93
        1
 44
0.0
173
     0
291
     0
 45
0.0
1001
ACAD
1000
AcDbSavedByObjectVersion
1070
     0
  0
VISUALSTYLE
  5
7427
102
{ACAD_XDICTIONARY
360
8569
102
}
102
{ACAD_REACTORS
330
2FE5
102
}
330
2FE5
100
AcDbVisualStyle
  2
X-Ray
 70
    25
 71
     2
 72
     2
 73
     1
 90
        1
 40
0.5
 41
-30.0
 62
     5
 63
     7
421
 16777215
 74
     1
 91
        0
 64
     7
 65
   257
 75
     1
175
     1
 42
1.0
 92
        8
 66
     7
 43
1.0
 76
     1
 77
     6
 78
     2
 67
     7
 79
     3
170
     0
171
     0
290
     0
174
     0
 93
       13
 44
0.0
173
     0
291
     0
 45
0.0
1001
ACAD
1000
AcDbSavedByObjectVersion
1070
     0
  0
DICTIONARYVAR
  5
30E8
102
{ACAD_REACTORS
330
86
102
}
330
86
100
DictionaryVariables
280
     0
  1
1:1
  0
DICTIONARYVAR
  5
30E6
102
{ACAD_REACTORS
330
86
102
}
330
86
100
DictionaryVariables
280
     0
  1
STANDARD
  0
DICTIONARYVAR
  5
30E5
102
{ACAD_REACTORS
330
86
102
}
330
86
100
DictionaryVariables
280
     0
  1
STANDARD
  0
DICTIONARYVAR
  5
89
102
{ACAD_REACTORS
330
86
102
}
330
86
100
DictionaryVariables
280
     0
  1
2
  0
DICTIONARYVAR
  5
88
102
{ACAD_REACTORS
330
86
102
}
330
86
100
DictionaryVariables
280
     0
  1
1
  0
DICTIONARYVAR
  5
87
102
{ACAD_REACTORS
330
86
102
}
330
86
100
DictionaryVariables
280
     0
  1
1
  0
DICTIONARYVAR
  5
30EA
102
{ACAD_REACTORS
330
86
102
}
330
86
100
DictionaryVariables
280
     0
  1
1
  0
DICTIONARYVAR
  5
30EB
102
{ACAD_REACTORS
330
86
102
}
330
86
100
DictionaryVariables
280
     0
  1
15
  0
DICTIONARYVAR
  5
30E9
102
{ACAD_REACTORS
330
86
102
}
330
86
100
DictionaryVariables
280
     0
  1
0
  0
DICTIONARYVAR
  5
30E7
102
{ACAD_REACTORS
330
86
102
}
330
86
100
DictionaryVariables
280
     0
  1
0
  0
DICTIONARY
  5
4A
102
{ACAD_REACTORS
330
45
102
}
330
45
100
AcDbDictionary
281
     1
  0
XRECORD
  5
3064
102
{ACAD_REACTORS
330
45
102
}
330
45
100
AcDbXrecord
280
     1
 90
-1023410169
  0
XRECORD
  5
6D74
102
{ACAD_REACTORS
330
6D73
102
}
330
6D73
100
AcDbXrecord
280
     1
  0
DICTIONARY
  5
763E
330
22
100
AcDbDictionary
280
     1
281
     1
  3
ADSK_XREC_LAYOUTTHUMBNAIL
360
763F
  0
DICTIONARY
  5
2FD6
330
2FD5
100
AcDbDictionary
280
     1
281
     1
  3
ACAD_XREC_ROUNDTRIP
360
853E
  3
BUMPTILE
360
2FD8
  3
DIFFUSETILE
360
2FD7
  3
OPACITYTILE
360
2FDB
  3
REFLECTIONTILE
360
2FDA
  3
REFRACTIONTILE
360
2FDC
  3
SPECULARTILE
360
2FD9
  0
DICTIONARY
  5
2FCE
330
2FCD
100
AcDbDictionary
280
     1
281
     1
  3
ACAD_XREC_ROUNDTRIP
360
853D
  3
BUMPTILE
360
2FD0
  3
DIFFUSETILE
360
2FCF
  3
OPACITYTILE
360
2FD3
  3
REFLECTIONTILE
360
2FD2
  3
REFRACTIONTILE
360
2FD4
  3
SPECULARTILE
360
2FD1
  0
DICTIONARY
  5
2FDE
330
2FDD
100
AcDbDictionary
280
     1
281
     1
  3
ACAD_XREC_ROUNDTRIP
360
853F
  3
BUMPTILE
360
2FE0
  3
DIFFUSETILE
360
2FDF
  3
OPACITYTILE
360
2FE3
  3
REFLECTIONTILE
360
2FE2
  3
REFRACTIONTILE
360
2FE4
  3
SPECULARTILE
360
2FE1
  0
DICTIONARY
  5
30E2
330
2FF8
100
AcDbDictionary
280
     1
281
     1
  3
ACAD_ROUNDTRIP_2008_TABLESTYLE_CELLSTYLEMAP
360
8536
  3
ACAD_XREC_ROUNDTRIP
360
8560
  0
DICTIONARY
  5
854A
330
2FEB
100
AcDbDictionary
280
     1
281
     1
  3
ACAD_XREC_ROUNDTRIP
360
854B
  0
DICTIONARY
  5
854E
330
2FED
100
AcDbDictionary
280
     1
281
     1
  3
ACAD_XREC_ROUNDTRIP
360
854F
  0
DICTIONARY
  5
854C
330
2FEC
100
AcDbDictionary
280
     1
281
     1
  3
ACAD_XREC_ROUNDTRIP
360
854D
  0
DICTIONARY
  5
8548
330
2FEA
100
AcDbDictionary
280
     1
281
     1
  3
ACAD_XREC_ROUNDTRIP
360
8549
  0
DICTIONARY
  5
8556
330
2FF1
100
AcDbDictionary
280
     1
281
     1
  3
ACAD_XREC_ROUNDTRIP
360
8557
  0
DICTIONARY
  5
855E
330
2FF5
100
AcDbDictionary
280
     1
281
     1
  3
ACAD_XREC_ROUNDTRIP
360
855F
  0
DICTIONARY
  5
8550
330
2FEE
100
AcDbDictionary
280
     1
281
     1
  3
ACAD_XREC_ROUNDTRIP
360
8551
  0
DICTIONARY
  5
8554
330
2FF0
100
AcDbDictionary
280
     1
281
     1
  3
ACAD_XREC_ROUNDTRIP
360
8555
  0
DICTIONARY
  5
8573
330
742C
100
AcDbDictionary
280
     1
281
     1
  3
ACAD_XREC_ROUNDTRIP
360
8574
  0
DICTIONARY
  5
855C
330
2FF4
100
AcDbDictionary
280
     1
281
     1
  3
ACAD_XREC_ROUNDTRIP
360
855D
  0
DICTIONARY
  5
8540
330
2FE6
100
AcDbDictionary
280
     1
281
     1
  3
ACAD_XREC_ROUNDTRIP
360
8541
  0
DICTIONARY
  5
8542
330
2FE7
100
AcDbDictionary
280
     1
281
     1
  3
ACAD_XREC_ROUNDTRIP
360
8543
  0
DICTIONARY
  5
8544
330
2FE8
100
AcDbDictionary
280
     1
281
     1
  3
ACAD_XREC_ROUNDTRIP
360
8545
  0
DICTIONARY
  5
8546
330
2FE9
100
AcDbDictionary
280
     1
281
     1
  3
ACAD_XREC_ROUNDTRIP
360
8547
  0
DICTIONARY
  5
8563
330
7424
100
AcDbDictionary
280
     1
281
     1
  3
ACAD_XREC_ROUNDTRIP
360
8564
  0
DICTIONARY
  5
856F
330
742A
100
AcDbDictionary
280
     1
281
     1
  3
ACAD_XREC_ROUNDTRIP
360
8570
  0
DICTIONARY
  5
855A
330
2FF3
100
AcDbDictionary
280
     1
281
     1
  3
ACAD_XREC_ROUNDTRIP
360
855B
  0
DICTIONARY
  5
8571
330
742B
100
AcDbDictionary
280
     1
281
     1
  3
ACAD_XREC_ROUNDTRIP
360
8572
  0
DICTIONARY
  5
8552
330
2FEF
100
AcDbDictionary
280
     1
281
     1
  3
ACAD_XREC_ROUNDTRIP
360
8553
  0
DICTIONARY
  5
856D
330
7429
100
AcDbDictionary
280
     1
281
     1
  3
ACAD_XREC_ROUNDTRIP
360
856E
  0
DICTIONARY
  5
856B
330
7428
100
AcDbDictionary
280
     1
281
     1
  3
ACAD_XREC_ROUNDTRIP
360
856C
  0
DICTIONARY
  5
8565
330
7425
100
AcDbDictionary
280
     1
281
     1
  3
ACAD_XREC_ROUNDTRIP
360
8566
  0
DICTIONARY
  5
8567
330
7426
100
AcDbDictionary
280
     1
281
     1
  3
ACAD_XREC_ROUNDTRIP
360
8568
  0
DICTIONARY
  5
8558
330
2FF2
100
AcDbDictionary
280
     1
281
     1
  3
ACAD_XREC_ROUNDTRIP
360
8559
  0
DICTIONARY
  5
8561
330
7423
100
AcDbDictionary
280
     1
281
     1
  3
ACAD_XREC_ROUNDTRIP
360
8562
  0
DICTIONARY
  5
8569
330
7427
100
AcDbDictionary
280
     1
281
     1
  3
ACAD_XREC_ROUNDTRIP
360
856A
  0
XRECORD
  5
763F
102
{ACAD_REACTORS
330
763E
102
}
330
763E
100
AcDbXrecord
280
     1
310
28000000000100007100000001000800000000000071000000000000000000000001000000000000FFFFFF0000000000FFFFFF000000000000000000000000000000000000000000000000000000000000000000330000006600000099000000CC000000FF00000000330000333300006633000099330000CC330000FF3300
310
0000660000336600006666000099660000CC660000FF66000000990000339900006699000099990000CC990000FF99000000CC000033CC000066CC000099CC0000CCCC0000FFCC000000FF000033FF000066FF000099FF0000CCFF0000FFFF000000003300330033006600330099003300CC003300FF003300003333003333
310
33006633330099333300CC333300FF33330000663300336633006666330099663300CC663300FF66330000993300339933006699330099993300CC993300FF99330000CC330033CC330066CC330099CC3300CCCC3300FFCC330000FF330033FF330066FF330099FF3300CCFF3300FFFF330000006600330066006600660099
310
006600CC006600FF00660000336600333366006633660099336600CC336600FF33660000666600336666006666660099666600CC666600FF66660000996600339966006699660099996600CC996600FF99660000CC660033CC660066CC660099CC6600CCCC6600FFCC660000FF660033FF660066FF660099FF6600CCFF6600
310
FFFF660000009900330099006600990099009900CC009900FF00990000339900333399006633990099339900CC339900FF33990000669900336699006666990099669900CC669900FF66990000999900339999006699990099999900CC999900FF99990000CC990033CC990066CC990099CC9900CCCC9900FFCC990000FF99
310
0033FF990066FF990099FF9900CCFF9900FFFF99000000CC003300CC006600CC009900CC00CC00CC00FF00CC000033CC003333CC006633CC009933CC00CC33CC00FF33CC000066CC003366CC006666CC009966CC00CC66CC00FF66CC000099CC003399CC006699CC009999CC00CC99CC00FF99CC0000CCCC0033CCCC0066CC
310
CC0099CCCC00CCCCCC00FFCCCC0000FFCC0033FFCC0066FFCC0099FFCC00CCFFCC00FFFFCC000000FF003300FF006600FF009900FF00CC00FF00FF00FF000033FF003333FF006633FF009933FF00CC33FF00FF33FF000066FF003366FF006666FF009966FF00CC66FF00FF66FF000099FF003399FF006699FF009999FF00CC
310
99FF00FF99FF0000CCFF0033CCFF0066CCFF0099CCFF00CCCCFF00FFCCFF0000FFFF0033FFFF0066FFFF0099FFFF00CCFFFF00FFFFFF00000000000D0D0D001A1A1A00282828003535350043434300505050005D5D5D006B6B6B00787878008686860093939300A1A1A100AEAEAE00BBBBBB00C9C9C900D6D6D600E4E4E400
310
F1F1F100FFFFFF000000000000000000000000000000000000000000000000000000000000000000000000000000000000000000000000000000000000000000000000000000000000000000000000000000000000000000000000000000000000000000000000000000000000000000000000000000000000000000000000
310
00000000000000000000000000000000000000000000000000000000000000000000000000000000000000000000000000000000000000000000000000000000000000000000000000000000000000000000000000000000000000000000000000000000000000000000000000000000000000000000000000000000000000
310
00000000000000000000000000000000000000000000000000000000000000000000000000000000000000000000000000000000000000000000000000000000000000000000000000000000000000000000000000000000000000000000000000000000000000000000000000000000000000000000000000000000000000
310
00000000000000000000000000000000000000000000000000000000000000000000000000000000000000000000000000000000000000000000000000000000000000000000000000000000000000000000000000000000000000000000000000000000000000000000000000000000000000000000000000000000000000
310
00000000000000000000000000000000000000000000000000000000000000000000000000000000000000000000000000000000000000000000000000000000000000000000000000000000000000000000000000000000000000000000000000000000000000000000000000000000000000000000000000000000000000
310
00000000000000000000000000000000000000000000000000000000000000000000000000000000000000000000000000000000000000000000000000000000000000000000E20000000000000000000000000000000000000000000000000000000000000000000000000000000000000000000000000000000000000000
310
00000000000000000000000000000000000000000000000000000000000000000000000000000000000000000000000000000000000000000000000000000000000000000000000000000000000000000000000000000000000000000000000000000000000000000000000000000000000000000000000000000000000000
310
000000000000000000000000000000000000000000000000000000000000000000000000000000000000000000000000000000000000000000000000000000000000000000000000E2E20000000000000000000000000000000000000000000000000000000000000000000000000000000000000000000000000000000000
310
00000000000000000000000000000000000000000000000000000000000000000000000000000000000000000000000000000000000000000000000000000000000000000000000000000000000000000000000000000000000000000000000000000000000000000000000000000000000000000000000000000000000000
310
000000000000000000000000000000000000000000000000000000000000000000000000000000000000000000000000000000000000000000000000000000000000000000000000E200E2E2000000000000000000000000000000000000000000000000000000000000000000000000000000000000000000000000000000
310
00000000000000000000000000000000000000000000000000000000000000000000000000000000000000000000000000000000000000000000000000000000000000000000000000000000000000000000000000000000000000000000000000000000000000000000000000000000000000000000000000000000000000
310
000000000000000000000000000000000000000000000000000000000000000000000000000000000000000000000000000000000000000000000000000000000000000000000000000000E2E2E200000000000000000000000000000000000000000000000000000000000000000000000000000000000000000000000000
310
00000000000000000000000000000000000000000000000000000000000000000000000000000000000000000000000000000000000000000000000000000000000000000000000000000000000000000000000000000000000000000000000000000000000000000000000000000000000000000000000000000000000000
310
0000000000000000000000000000000000000000000000000000000000000000000000000000000000000000000000000000000000000000000000000000000000E2E2E2E2E2E2E2E2E2E2E2E2E2E2E2E2E2E2E2E2E2E2E2000000000000000000000000000000000000000000000000000000000000000000000000000000
310
00000000000000000000000000000000000000000000000000000000000000000000000000000000000000000000000000000000000000000000000000000000000000000000000000000000000000000000000000000000000000000000000000000000000000000000000000000000000000000000000000000000000000
310
00000000000000000000000000000000000000000000000000000000000000000000000000000000000000000000000000000000000000000000000000000000000000E2000000E20000000000000000E20000000000000000E200000000000000000000000000000000000000000000000000000000000000000000000000
310
00000000000000000000000000000000000000000000000000000000000000000000000000000000000000000000000000000000000000000000000000000000000000000000000000000000000000000000000000000000000000000000000000000000000000000000000000000000000000000000000000000000000000
310
0000000000000000000000000000000000000000000000000000000000000000000000000000000000000000000000000000000000000000000000000000000000000000E2E2E2E2E2000000000000000000E2E200000000000000E20000000000000000000000000000000000000000000000000000000000000000000000
310
00000000000000000000000000000000000000000000000000000000000000000000000000000000000000000000000000000000000000000000000000000000000000000000000000000000000000000000000000000000000000000000000000000000000000000000000000000000000000000000000000000000000000
310
00000000000000000000000000000000000000000000000000000000000000000000000000000000000000000000000000000000000000000000000000000000000000000000E2E2E2E2E2E2E2E2E2E2E2E2E2E2E2E2E2E2E2E2E2E2E2E2000000000000000000000000000000000000000000000000000000000000000000
310
00000000000000000000000000000000000000000000000000000000000000000000000000000000000000000000000000000000000000000000000000000000000000000000000000000000000000000000000000000000000000000000000000000000000000000000000000000000000000000000000000000000000000
310
000000000000000000000000000000000000000000000000000000000000000000000000000000000000000000000000000000000000000000000000E2E2E2E2E2E2E2E2E2E2E2E2E2E2E2E2E2E2E2E2E2E2E2E2E2E2E2E2E2E2E2E2E2E2E2E200000000000000000000000000000000000000000000000000000000000000
310
00000000000000000000000000000000000000000000000000000000000000000000000000000000000000000000000000000000000000000000000000000000000000000000000000000000000000000000000000000000000000000000000000000000000000000000000000000000000000000000000000000000000000
310
00000000000000000000000000000000000000000000000000000000000000000000000000000000000000000000000000000000000000000000000000E20000000000000000000000000000000000C300000000000000000000000000000000E2E20000000000000000000000000000000000000000000000000000000000
310
00000000000000000000000000000000000000000000000000000000000000000000000000000000000000000000000000000000000000000000000000000000000000000000000000000000000000000000000000000000000000000000000000000000000000000000000000000000000000000000000000000000000000
310
000000000000000000000000000000000000000000000000000000000000000000000000000000000000000000000000000000000000000000000000000000E200000000000000C3C3C3C3C3C3C3C3C3C3C3C3C3C3C3C3C3C3C3C3C3C3C3C3C3C3C3E2E2000000000000000000000000000000000000000000000000000000
310
00000000000000000000000000000000000000000000000000000000000000000000000000000000000000000000000000000000000000000000000000000000000000000000000000000000000000000000000000000000000000000000000000000000000000000000000000000000000000000000000000000000000000
310
00000000000000000000000000000000000000000000000000000000000000000000000000000000000000000000000000000000000000000000000000000000E200000000000000C3000000000000000000000000000000000000000000000000000000E2E200000000000000000000000000000000000000000000000000
310
00000000000000000000000000000000000000000000000000000000000000000000000000000000000000000000000000000000000000000000000000000000000000000000000000000000000000000000000000000000000000000000000000000000000000000000000000000000000000000000000000000000000000
310
000000000000000000000000000000000000000000000000000000000000000000000000000000000000000000000000000000000000000000000000000000000000E200000000000000C3000000000000000000000000000000000000000000000000000000E2E20000000000000000000000000000000000000000000000
310
00000000000000000000000000000000000000000000000000000000000000000000000000000000000000000000000000000000000000000000000000000000000000000000000000000000000000000000000000000000000000000000000000000000000000000000000000000000000000000000000000000000000000
310
00000000000000000000000000000000000000000000000000000000000000000000000000000000000000000000000000000000000000000000000000000000000000E20000000000000000C3000000000000000000000000000000000000000000000000000000E2E2000000000000000000000000000000000000000000
310
00000000000000000000000000000000000000000000000000000000000000000000000000000000000000000000000000000000000000000000000000000000000000000000000000000000000000000000000000000000000000000000000000000000000000000000000000000000000000000000000000000000000000
310
000000000000000000000000000000000000000000000000000000000000000000000000000000000000000000000000000000000000000000000000000000000000000000E20000000000000000C3000000000000000000000000000000000000000000000000000000E2E200000000000000000000000000000000000000
310
00000000000000000000000000000000000000000000000000000000000000000000000000000000000000000000000000000000000000000000000000000000000000000000000000000000000000000000000000000000000000000000000000000000000000000000000000000000000000000000000000000000000000
310
00000000000000000000000000000000000000000000000000000000000000000000000000000000000000000000000000000000000000000000000000000000000000000000E2000000000000000000C3000000000000000000000000000000000000000000000000000000E2E20000000000000000000000000000000000
310
00000000000000000000000000000000000000000000000000000000000000000000000000000000000000000000000000000000000000000000000000000000000000000000000000000000000000000000000000000000000000000000000000000000000000000000000000000000000000000000000000000000000000
310
0000000000000000000000000000000000000000000000000000000000000000000000000000000000000000000000000000000000000000000000000000000000000000000000E200000000000000000000C3000000000000000000000000000000000000000000000000000000E2E2000000000000000000000000000000
310
00000000000000000000000000000000000000000000000000000000000000000000000000000000000000000000000000000000000000000000000000000000000000000000000000000000000000000000000000000000000000000000000000000000000000000000000000000000000000000000000000000000000000
310
00000000000000000000000000000000000000000000000000000000000000000000000000000000000000000000000000000000000000000000000000000000000000000000000000E200000000000000000000C3000000000000000000000000000000000000000000000000000000E2E200000000000000000000000000
310
00000000000000000000000000000000000000000000000000000000000000000000000000000000000000000000000000000000000000000000000000000000000000000000000000000000000000000000000000000000000000000000000000000000000000000000000000000000000000000000000000000000000000
310
0000000000000000000000000000000000000000000000000000000000000000000000000000000000000000000000000000000000000000000000000000000000000000000000000000E20000000000000000000000C3C30000000000000000000000000000000000000000000000000000E2E20000000000000000000000
310
00000000000000000000000000000000000000000000000000000000000000000000000000000000000000000000000000000000000000000000000000000000000000000000000000000000000000000000000000000000000000000000000000000000000000000000000000000000000000000000000000000000000000
310
00000000000000000000000000000000000000000000000000000000000000000000000000000000000000000000000000000000000000000000000000000000000000000000000000000000E2000000000000000000000000C30000000000000000000000000000000000000000000000000000E2E2000000000000000000
310
00000000000000000000000000000000000000000000000000000000000000000000000000000000000000000000000000000000000000000000000000000000000000000000000000000000000000000000000000000000000000000000000000000000000000000000000000000000000000000000000000000000000000
310
0000000000000000000000000000000000000000000000000000000000000000000000000000000000000000000000000000000000000000000000000000000000000000000000000000000000E200000000000000000000000000C30000000000000000000000000000000000000000000000000000E2E200000000000000
310
00000000000000000000000000000000000000000000000000000000000000000000000000000000000000000000000000000000000000000000000000000000000000000000000000000000000000000000000000000000000000000000000000000000000000000000000000000000000000000000000000000000000000
310
00000000000000000000000000000000000000000000000000000000000000000000000000000000000000000000000000000000000000000000000000000000000000000000000000000000000000E200000000000000000000000000C30000000000000000000000000000000000000000000000000000E2E20000000000
310
00000000000000000000000000000000000000000000000000000000000000000000000000000000000000000000000000000000000000000000000000000000000000000000000000000000000000000000000000000000000000000000000000000000000000000000000000000000000000000000000000000000000000
310
0000000000000000000000000000000000000000000000000000000000000000000000000000000000000000000000000000000000000000000000000000000000000000000000000000000000000000E20000000000000000000000000000C30000000000000000000000000000000000000000000000000000E2E2000000
310
00000000000000000000000000000000000000000000000000000000000000000000000000000000000000000000000000000000000000000000000000000000000000000000000000000000000000000000000000000000000000000000000000000000000000000000000000000000000000000000000000000000000000
310
00000000000000000000000000000000000000000000000000000000000000000000000000000000000000000000000000000000000000000000000000000000000000000000000000000000000000000000E20000000000000000000000000000C3000000000000000000000000000000000000000000000000C3C3E2E2C3
310
C3C3C3C3C3C3C3C3C3C3C3C3C3C3C300000000000000000000000000000000000000000000000000000000000000000000000000000000000000000000000000000000000000000000000000000000000000000000000000000000000000000000000000000000000000000000000000000000000000000000000000000000
310
0000000000000000000000000000000000000000000000000000000000000000000000000000000000000000000000000000000000000000000000000000000000000000000000000000000000000000000000E2000000000000000000000000000000C300000000000000000000000000000000000000000000C3C3C300E2
310
E2000000000000000000000000000000C30000000000000000000000000000000000000000000000000000000000000000000000000000000000000000000000000000000000000000000000000000000000000000000000000000000000000000000000000000000000000000000000000000000000000000000000000000
310
00000000000000000000000000000000000000000000000000000000000000000000000000000000000000000000000000000000000000000000000000000000000000000000000000000000000000000000000000E2000000000000000000000000000000C300000000000000000000000000000000000000000000C300C3
310
00E2E2000000000000000000000000000000C3000000000000000000000000000000000000000000000000000000000000000000000000000000000000000000000000000000000000000000000000000000000000000000000000000000000000000000000000000000000000000000000000000000000000000000000000
310
000000000000000000000000000000000000000000000000000000000000000000000000000000000000000000000000000000000000000000000000000000000000000000000000000000000000000000000000000000E2000000000000000000000000000000C300000000000000000000000000000000000000000000C3
310
00C300E2E2000000000000000000000000000000C300000000000000000000000000000000000000000000000000000000000000000000000000000000000000000000000000000000000000000000000000000000000000000000000000000000000000000000000000000000000000000000000000000000000000000000
310
00000000000000000000000000000000000000000000000000000000000000000000000000000000000000000000000000000000000000000000000000000000000000000000000000000000000000000000000000000000E200000000000000000000000000000000C3000000000000000000000000000000000000000000
310
00C300C32DE2E22D2D2D2D2D2D2D2D2D2D2D2D2D2D2DC32D00000000000000000000000000000000000000000000000000000000000000000000000000000000000000000000000000000000000000000000000000000000000000000000000000000000000000000000000000000000000000000000000000000000000000
310
000000000000000000000000000000000000000000000000000000000000000000000000000000000000000000000000000000000000000000000000000000000000000000000000000000000000000000000000000000000000E200000000000000000000000000000000C300000000000000000000000000000000000000
310
000000C300C300E2E2000000000000000000000000000000C3000000000000000000000000000000000000000000000000000000000000000000000000000000000000000000000000000000000000000000000000000000000000000000000000000000000000000000000000000000000000000000000000000000000000
310
00000000000000000000000000000000000000000000000000000000000000000000000000000000000000000000000000000000000000000000000000000000000000000000000000000000000000000000000000000000000000E20000000000000000000000000000000000C30000000000000000000000000000000000
310
0000000000C300C300E2E2000000000000000000000000000000C300000000000000000000000000000000000000000000000000000000000000000000000000000000000000000000000000000000000000000000000000000000000000000000000000000000000000000000000000000000000000000000000000000000
310
000000000000000000000000000000000000000000000000000000000000000000000000000000000000000000000000000000000000000000000000000000000000000000000000000000000000000000000000000000000000000000E20000000000000000000000000000000000C3000000000000000000000000000000
310
00000000000000C3C3C3C3E2E2000000000000000000000000000000C30000000000000000000000000000000000000000000000000000000000000000000000000000000000000000000000000000000000000000000000000000000000000000000000000000000000000000000000000000000000000000000000000000
310
0000000000000000000000000000000000000000000000000000000000000000000000000000000000000000000000000000000000000000000000000000000000000000000000000000000000000000000000000000000000000000000000E20000000000000000000000000000000000C300000000000000000000000000
310
000000000000000000C300C300E2E2000000000000000000000000000000C3000000000000000000000000000000000000000000000000000000000000000000000000000000000000000000000000000000000000000000000000000000000000000000000000000000000000000000000000000000000000000000000000
310
000000000000000000000000000000000000000000000000000000000000000000000000000000000000000000000000000000000000000000000000000000000000000000000000000000000000000000000000000000000000000000000000E2000000000000000000000000000000000000C30000000000000000000000
310
0000000000000000000000C300C300E2E2C3C3C3C3C3C3C3C3C3C3C3C3C3C3C3C300000000000000000000000000000000000000000000000000000000000000000000000000000000000000000000000000000000000000000000000000000000000000000000000000000000000000000000000000000000000000000000
310
0000000000000000000000000000000000000000000000000000000000000000000000000000000000000000000000000000000000000000000000000000000000000000000000000000000000000000000000000000000000000000000000000000E2000000000000000000000000000000000000C3000000000000000000
310
000000000000000000000000C30000C300E2E2000000000000000000000000000000000000000000000000000000000000000000000000000000000000000000000000000000000000000000000000000000000000000000000000000000000000000000000000000000000000000000000000000000000000000000000000
310
000000000000000000000000000000000000000000000000000000000000000000000000000000000000000000000000000000000000000000000000000000000000000000000000000000000000000000000000000000000000000000000000000000E200000000000000000000000000000000000000C300000000000000
310
0000000000000000000000000000C30000C300E2E200000000000000000000000000000000000000000000000000000000000000000000000000000000000000000000000000000000000000000000000000000000000000000000000000000000000000000000000000000000000000000000000000000000000000000000
310
0000000000000000000000000000000000000000000000000000000000000000000000000000000000000000000000000000000000000000000000000000000000000000000000000000000000000000000000000000000000000000000000000000000000E200000000000000000000000000000000000000C30000000000
310
00000000000000000000000000000000C30000C300E2E20000000000000000000000000000000000000000000000000000000000000000000000000000000000000000000000000000000000000000000000000000000000000000000000000000000000000000000000000000000000000000000000000000000000000000
310
000000000000000000000000000000000000000000000000000000000000000000000000000000000000000000000000000000000000000000000000000000000000000000000000000000000000000000000000000000000000000000000000000000000000E20000000000000000000000000000000000000000C300C3C3
310
C3C3C3C3C3C3C3C3C3C3C3C300C3C3C3C3C3C30000C300E2E2000000000000000000000000000000000000000000000000000000000000000000000000000000000000000000000000000000000000000000000000000000000000000000000000000000000000000000000000000000000000000000000000000000000000
310
0000000000000000000000000000000000000000000000000000000000000000000000000000000000000000000000000000000000000000000000000000000000000000000000000000000000000000000000000000000000000000000000000000000000000000E20000000000000000000000000000000000000000C3C3
310
0000000000000000000000000000C3C3C3C3C3C3C30000C300E2E200000000000000000000000000000000000000000000000000000000000000000000000000000000000000000000000000000000000000000000000000000000000000000000000000000000000000000000000000000000000000000000000000000000
310
00000000000000000000000000000000000000000000000000000000000000000000000000000000000000000000000000000000000000000000000000000000000000000000000000000000000000000000000000000000000000000000000000000000000000000000E20000000000000000000000000000000000000000
310
C300000000000000000000000000000000C3000000C3C30000C300E2E20000000000000000000000000000000000000000000000000000000000000000000000000000000000000000000000000000000000000000000000000000000000000000000000000000000000000000000000000000000000000000000000000000
310
0000000000000000000000000000000000000000000000000000000000000000000000000000000000000000000000000000000000000000000000000000000000000000000000000000000000000000000000000000000000000000000000000000000000000000000000E200000000000000000000000000000000000000
310
00C3C300000000000000000000000000000000C3000000C3C30000C300E2E2000000000000000000000000000000000000000000000000000000000000000000000000000000000000000000000000000000000000000000000000000000000000000000000000000000000000000000000000000000000000000000000000
310
00000000000000000000000000000000000000000000000000000000000000000000000000000000000000000000000000000000000000000000000000000000000000000000000000000000000000000000000000000000000000000000000000000000000000000000000000E20000000000000000000000000000000000
310
000000C30000000000000000000000000000000000C3000000C3C30000C300E2E200000000000000000000000000000000000000000000000000000000000000000000000000000000000000000000000000000000000000000000000000000000000000000000000000000000000000000000000000000000000000000000
310
0000000000000000000000000000000000000000000000000000000000000000000000000000000000000000000000000000000000000000000000000000000000000000000000000000000000000000000000000000000000000000000000000000000000000000000000000000E200000000000000000000000000000000
310
0000000000C3000000000000000000000000002D2D2D2DC32D2D2DC3C32D2DC32DE2E22D00000000000000000000000000000000000000000000000000000000000000000000000000000000000000000000000000000000000000000000000000000000000000000000000000000000000000000000000000000000000000
310
00000000000000000000000000000000000000000000000000000000000000000000000000000000000000000000000000000000000000000000000000000000000000000000000000000000000000000000000000000000000000000000000000000000000000000000000000000000E20000000000000000000000000000
310
00000000000000C3000000000000C300000000000000000000C3000000C3C30000C300E2E2000000000000000000000000000000000000000000000000000000000000000000000000000000000000000000000000000000000000000000000000000000000000000000000000000000000000000000000000000000000000
310
0000000000000000000000000000000000000000000000000000000000000000000000000000000000000000000000000000000000000000000000000000000000000000000000000000000000000000000000000000000000000000000000000000000000000000000000000000000000E200000000000000000000000000
310
000000000000000000C3000000000000C300000000000000000000C3000000C3C30000C300E2E200000000000000000000000000000000000000000000000000000000000000000000000000000000000000000000000000000000000000000000000000000000000000000000000000000000000000000000000000000000
310
00000000000000000000000000000000000000000000000000000000000000000000000000000000000000000000000000000000000000000000000000000000000000000000000000000000000000000000000000000000000000000000000000000000000000000000000000000000000000E20000000000000000000000
310
0000000000000000000000C300000000000000C3000000000000000000C3000000C3C30000C300E2E20000000000000000000000000000000000000000000000000000000000000000000000000000000000000000000000000000000000000000000000000000000000000000000000000000000000000000000000000000
310
0000000000000000000000000000000000000000000000000000000000000000000000000000000000000000000000000000000000000000000000000000000000000000000000000000000000000000000000000000000000000000000000000000000000000000000000000000000000000000E200000000000000000000
310
000000000000000000000000C30000000000000000C300000000C3C3C3C3C3C3C3C3C3C3C30000C300E2E2000000000000000000000000000000000000000000000000000000000000000000000000000000000000000000000000000000000000000000000000000000000000000000000000000000000000000000000000
310
00000000000000000000000000000000000000000000000000000000000000000000000000000000000000000000000000000000000000000000000000000000000000000000000000000000000000000000000000000000000000000000000000000000000000000000000000000000000000000000E20000000000000000
310
0000000000000000000000000000C30000000000000000C3000000C30000000000C3C3C3C3C3C3C300C300E2E200000000000000000000000000000000000000000000000000000000000000000000000000000000000000000000000000000000000000000000000000000000000000000000000000000000000000000000
310
000000000000000000000000000000000000000000000000000000000000000000000000000000000000000000000000000000000000000000000000000000000000000000000000000000000000000000000000000000000000000000000000000000000000000000000000000000000000000000000000E2000000000000
310
0000000000C3C3C3C3C3C3C3C3C3C3C3000000000000000000C3000000C30000000000000000000000C300C300E2E20000000000000000000000000000000000000000000000000000000000000000000000000000000000000000000000000000000000000000000000000000000000000000000000000000000000000000
310
0000000000000000000000000000000000000000000000000000000000000000000000000000000000000000000000000000000000000000000000000000000000000000000000000000000000000000000000000000000000000000000000000000000000000000000000000000000000000000000000000000E200000000
310
0000000000C3C30000000000000000000000000000000000000000C3000000C3000000000000000000000000C3C3C3E2E2000000000000000000000000000000000000000000000000000000000000000000000000000000000000000000000000000000000000000000000000000000000000000000000000000000000000
310
000000000000000000000000000000000000000000000000000000000000000000000000000000000000000000000000000000000000000000000000000000000000000000000000000000000000000000000000000000000000000000000000000000000000000000000000000000000000000000000000000000E2000000
310
0000000000C3C300000000000000000000000000000000000000000000C300000000C3000000000000000000000000C3C3E2E200000000000000000000000000000000000000000000000000000000000000000000000000000000000000000000000000000000000000000000000000000000000000000000000000000000
310
0000000000000000000000000000000000000000000000000000000000000000000000000000000000000000000000000000000000000000000000000000000000000000000000000000000000000000000000000000000000000000000000000000000000000000000000000000000000000000000000000000000000E200
310
00000000C3C3C300000000000000000000000000000000000000000000000000C3000000C30000000000000000000000000000E2E22D00000000000000000000000000000000000000000000000000000000000000000000000000000000000000000000000000000000000000000000000000000000000000000000000000
310
00000000000000000000000000000000000000000000000000000000000000000000000000000000000000000000000000000000000000000000000000000000000000000000000000000000000000000000000000000000000000000000000000000000000000000000000000000000000000000000000000000000000000
310
E200000000C300000000000000000000000000000000000000000000000000000000C3000000C30000000000000000000000000000E2E2000000000000000000000000000000000000000000000000000000000000000000000000000000000000000000000000000000000000000000000000000000000000000000000000
310
00000000000000000000000000000000000000000000000000000000000000000000000000000000000000000000000000000000000000000000000000000000000000000000000000000000000000000000000000000000000000000000000000000000000000000000000000000000000000000000000000000000000000
310
00E200000000C30000000000000000000000000000000000000000000000000000000000C3000000C30000000000000000000000000000E2E200000000000000000000000000000000000000000000000000000000000000000000000000000000000000000000000000000000000000000000000000000000000000000000
310
00000000000000000000000000000000000000000000000000000000000000000000000000000000000000000000000000000000000000000000000000000000000000000000000000000000000000000000000000000000000000000000000000000000000000000000000000000000000000000000000000000000000000
310
000000E20000C3C3000000000000000000000000000000000000000000000000000000000000C3000000C30000000000000000000000000000E2E20000000000000000000000000000000000000000000000000000000000000000000000000000000000000000000000000000000000000000000000000000000000000000
310
00000000000000000000000000000000000000000000000000000000000000000000000000000000000000000000000000000000000000000000000000000000000000000000000000000000000000000000000000000000000000000000000000000000000000000000000000000000000000000000000000000000000000
310
0000000000E200C3C300000000000000000000000000000000000000000000000000000000000000C300000000C300000000000000000000000000E2E2000000000000000000000000000000000000000000000000000000000000000000000000000000000000000000000000000000000000000000000000000000000000
310
00000000000000000000000000000000000000000000000000000000000000000000000000000000000000000000000000000000000000000000000000000000000000000000000000000000000000000000000000000000000000000000000000000000000000000000000000000000000000000000000000000000000000
310
000000000000E200C300000000000000000000000000000000000000000000000000000000000000000000C3000000C300000000000000000000000000E2E200000000000000000000000000000000000000000000000000000000000000000000000000000000000000000000000000000000000000000000000000000000
310
00000000000000000000000000000000000000000000000000000000000000000000000000000000000000000000000000000000000000000000000000000000000000000000000000000000000000000000000000000000000000000000000000000000000000000000000000000000000000000000000000000000000000
310
0000000000000000E2C30000000000000000000000000000000000000000000000000000000000000000000000C3000000C300000000000000000000000000E2E20000000000000000000000000000000000000000000000000000000000000000000000000000000000000000000000000000000000000000000000000000
310
00000000000000000000000000000000000000000000000000000000000000000000000000000000000000000000000000000000000000000000000000000000000000000000000000000000000000000000000000000000000000000000000000000000000000000000000000000000000000000000000000000000000000
310
00000000000000000000E2C30000000000000000000000000000000000000000000000000000000000000000000000C300000000C300000000000000E2E2000000E2E2000000000000000000000000000000000000000000000000000000000000000000000000000000000000000000000000000000000000000000000000
310
00000000000000000000000000000000000000000000000000000000000000000000000000000000000000000000000000000000000000000000000000000000000000000000000000000000000000000000000000000000000000000000000000000000000000000000000000000000000000000000000000000000000000
310
000000000000000000000000E2000000000000000000000000000000000000000000000000000000000000000000000000C300000000C300000000000000E2E2E20000E2E200000000000000000000000000000000000000000000000000000000000000000000000000000000000000000000000000000000000000000000
310
00000000000000000000000000000000000000000000000000000000000000000000000000000000000000000000000000000000000000000000000000000000000000000000000000000000000000000000000000000000000000000000000000000000000000000000000000000000000000000000000000000000000000
310
00000000000000000000000000E20000000000000000000000000000000000000000000000000000000000000000000000000000C3000000C3000000000000000000000000E2E20000000000000000000000000000000000000000000000000000000000000000000000000000000000000000000000000000000000000000
310
00000000000000000000000000000000000000000000000000000000000000000000000000000000000000000000000000000000000000000000000000000000000000000000000000000000000000000000000000000000000000000000000000000000000000000000000000000000000000000000000000000000000000
310
000000000000000000000000000000E20000000000000000000000000000000000000000000000000000000000000000000000000000C300000000C30000000000000000000000E2E2000000000000000000000000000000000000000000000000000000000000000000000000000000000000000000000000000000000000
310
00000000000000000000000000000000000000000000000000000000000000000000000000000000000000000000000000000000000000000000000000000000000000000000000000000000000000000000000000000000000000000000000000000000000000000000000000000000000000000000000000000000000000
310
0000000000000000000000000000000000E20000000000000000000000000000000000000000000000000000000000000000000000000000C3C3000000C30000000000000000000000E2E200000000000000000000000000000000000000000000000000000000000000000000000000000000000000000000000000000000
310
00000000000000000000000000000000000000000000000000000000000000000000000000000000000000000000000000000000000000000000000000000000000000000000000000000000000000000000000000000000000000000000000000000000000000000000000000000000000000000000000000000000000000
310
00000000000000000000000000000000000000E2000000000000000000000000000000000000000000000000000000000000000000000000000000C300000000C3C3C3C3C3C3C3C3C3C3C3E2E20000000000000000000000000000000000000000000000000000000000000000000000000000000000000000000000000000
310
00000000000000000000000000000000000000000000000000000000000000000000000000000000000000000000000000000000000000000000000000000000000000000000000000000000000000000000000000000000000000000000000000000000000000000000000000000000000000000000000000000000000000
310
000000000000000000000000000000000000000000E2000000000000000000000000000000000000000000000000000000000000000000000000000000C300000000C3C3000000000000000000E2E2000000000000000000000000000000000000000000000000000000000000000000000000000000000000000000000000
310
00000000000000000000000000000000000000000000000000000000000000000000000000000000000000000000000000000000000000000000000000000000000000000000000000000000000000000000000000000000000000000000000000000000000000000000000000000000000000000000000000000000000000
310
0000000000000000000000000000000000000000000000E200000000000000000000000000000000000000000000000000000000000000000000000000000000C300000000C3000000000000000000E2E200000000000000000000000000000000000000000000000000000000000000000000000000000000000000000000
310
00000000000000000000000000000000000000000000000000000000000000000000000000000000000000000000000000000000000000000000000000000000000000000000000000000000000000000000000000000000000000000000000000000000000000000000000000000000000000000000000000000000000000
310
00000000000000000000000000000000000000000000000000E20000000000C30000000000000000000000000000000000000000000000000000000000000000000000C3000000C3C30000000000000000E2E20000000000000000000000000000000000000000000000000000000000000000000000000000000000000000
310
00000000000000000000000000000000000000000000000000000000000000000000000000000000000000000000000000000000000000000000000000000000000000000000000000000000000000000000000000000000000000000000000000000000000000000000000000000000000000000000000000000000000000
310
0000000000000000000000000000000000000000000000000000E200000000000000C300000000000000000000000000000000000000000000000000000000000000000000C3C300000000C300000000000000E2E2000000000000000000000000000000000000000000000000000000000000000000000000000000000000
310
00000000000000000000000000000000000000000000000000000000000000000000000000000000000000000000000000000000000000000000000000000000000000000000000000000000000000000000000000000000000000000000000000000000000000000000000000000000000000000000000000000000000000
310
00000000000000000000000000000000000000000000000000000000E200000000000000C3C300000000000000000000000000000000000000000000000000000000000000000000C300000000C300000000000000E2E200000000000000000000000000000000000000000000000000000000000000000000000000000000
310
00000000000000000000000000000000000000000000000000000000000000000000000000000000000000000000000000000000000000000000000000000000000000000000000000000000000000000000000000000000000000000000000000000000000000000000000000000000000000000000000000000000000000
310
000000000000000000000000000000000000000000000000000000000000E2000000000000000000C300000000000000000000000000000000000000000000000000000000000000000000C3C3C3C300C3000000000000E2E20000000000000000000000000000000000000000000000000000000000000000000000000000
310
00000000000000000000000000000000000000000000000000000000000000000000000000000000000000000000000000000000000000000000000000000000000000000000000000000000000000000000000000000000000000000000000000000000000000000000000000000000000000000000000000000000000000
310
0000000000000000000000000000000000000000000000000000000000000000E200C30000000000000000C300000000000000000000000000000000000000000000000000000000000000000000C3000000C3000000000000E2E2000000000000000000000000000000000000000000000000000000000000000000000000
310
00000000000000000000000000000000000000000000000000000000000000000000000000000000000000000000000000000000000000000000000000000000000000000000000000000000000000000000000000000000000000000000000000000000000000000000000000000000000000000000000000000000000000
310
00000000000000000000000000000000000000000000000000000000000000000000E2C300C30000000000000000C3C3000000000000000000000000000000000000000000000000000000000000000000C3000000C30000000000E2E200000000000000000000000000000000000000000000000000000000000000000000
310
00000000000000000000000000000000000000000000000000000000000000000000000000000000000000000000000000000000000000000000000000000000000000000000000000000000000000000000000000000000000000000000000000000000000000000000000000000000000000000000000000000000000000
310
00000000000000000000000000000000000000000000000000000000000000000000000000E20000C3000000000000000000C30000000000000000000000000000000000000000000000000000000000000000C3000000C30000000000E2E20000000000000000000000000000000000000000000000000000000000000000
310
00000000000000000000000000000000000000000000000000000000000000000000000000000000000000000000000000000000000000000000000000000000000000000000000000000000000000000000000000000000000000000000000000000000000000000000000000000000000000000000000000000000000000
310
00000000000000000000000000000000000000000000000000000000000000000000000000000000E2E200C3C30000000000000000C30000000000000000000000000000000000000000000000000000000000000000C3000000C300000000E2E2000000000000000000000000000000000000000000000000000000000000
310
00000000000000000000000000000000000000000000000000000000000000000000000000000000000000000000000000000000000000000000000000000000000000000000000000000000000000000000000000000000000000000000000000000000000000000000000000000000000000000000000000000000000000
310
0000000000000000000000000000000000000000000000000000000000000000000000000000000000000000E20000C30000000000000000C300000000000000000000000000000000000000000000000000000000000000C3000000C3C3000000E2E200000000000000000000000000000000000000000000000000000000
310
00000000000000000000000000000000000000000000000000000000000000000000000000000000000000000000000000000000000000000000000000000000000000000000000000000000000000000000000000000000000000000000000000000000000000000000000000000000000000000000000000000000000000
310
0000000000000000000000000000000000000000000000000000000000000000000000000000000000000000000000E20000C30000000000000000C300000000000000000000000000000000000000000000000000000000000000C3000000C3000000E2E20000000000000000000000000000000000000000000000000000
310
00000000000000000000000000000000000000000000000000000000000000000000000000000000000000000000000000000000000000000000000000000000000000000000000000000000000000000000000000000000000000000000000000000000000000000000000000000000000000000000000000000000000000
310
0000000000000000000000000000000000000000000000000000000000000000000000000000000000000000000000000000E20000C3C300000000000000C3000000000000000000000000000000000000000000000000000000000000C3000000C3000000E2E2000000000000000000000000000000000000000000000000
310
00000000000000000000000000000000000000000000000000000000000000000000000000000000000000000000000000000000000000000000000000000000000000000000000000000000000000000000000000000000000000000000000000000000000000000000000000000000000000000000000000000000000000
310
0000000000000000000000000000000000000000000000000000000000000000000000000000000000000000000000000000000000E2000000C300000000000000C3C300000000000000000000000000000000000000000000000000000000C300000000C30000E2E200000000000000000000000000000000000000000000
310
00000000000000000000000000000000000000000000000000000000000000000000000000000000000000000000000000000000000000000000000000000000000000000000000000000000000000000000000000000000000000000000000000000000000000000000000000000000000000000000000000000000000000
310
0000000000000000000000000000000000000000000000000000000000000000000000000000000000000000000000000000000000000000E2E200C30000000000000000C30000000000000000000000000000000000000000000000000000000000C3000000C30000E2E20000000000000000000000000000000000000000
310
00000000000000000000000000000000000000000000000000000000000000000000000000000000000000000000000000000000000000000000000000000000000000000000000000000000000000000000000000000000000000000000000000000000000000000000000000000000000000000000000000000000000000
310
000000000000000000000000000000000000000000000000000000000000000000000000000000000000000000000000000000000000000000000000E200C3C300000000000000C3C3000000000000000000000000000000000000000000000000000000C3000000C30000E2E2000000000000000000000000000000000000
310
00000000000000000000000000000000000000000000000000000000000000000000000000000000000000000000000000000000000000000000000000000000000000000000000000000000000000000000000000000000000000000000000000000000000000000000000000000000000000000000000000000000000000
310
000000000000000000000000000000000000000000000000000000000000000000000000000000000000000000000000000000000000000000000000000000E200C3000000000000000000C3C30000000000000000000000000000000000000000000000000000C3000000C300E2E200000000000000000000000000000000
310
00000000000000000000000000000000000000000000000000000000000000000000000000000000000000000000000000000000000000000000000000000000000000000000000000000000000000000000000000000000000000000000000000000000000000000000000000000000000000000000000000000000000000
310
000000000000000000000000000000000000000000000000000000000000000000000000000000000000000000000000000000000000000000000000000000000000E200C3C30000000000000000C30000000000000000000000000000000000000000000000000000C3000000C300E2E20000000000000000000000000000
310
00000000000000000000000000000000000000000000000000000000000000000000000000000000000000000000000000000000000000000000000000000000000000000000000000000000000000000000000000000000000000000000000000000000000000000000000000000000000000000000000000000000000000
310
000000000000000000000000000000000000000000000000000000000000000000000000000000000000000000000000000000000000000000000000000000000000000000E20000C3C300000000000000C300000000000000000000000000000000000000000000000000C3000000C300E2E2000000000000000000000000
310
00000000000000000000000000000000000000000000000000000000000000000000000000000000000000000000000000000000000000000000000000000000000000000000000000000000000000000000000000000000000000000000000000000000000000000000000000000000000000000000000000000000000000
310
000000000000000000000000000000000000000000000000000000000000000000000000000000000000000000000000000000000000000000000000000000000000000000000000E2E200C30000000000000000C3000000000000000000000000000000000000000000000000C3000000C300E2E200000000000000000000
310
00000000000000000000000000000000000000000000000000000000000000000000000000000000000000000000000000000000000000000000000000000000000000000000000000000000000000000000000000000000000000000000000000000000000000000000000000000000000000000000000000000000000000
310
00000000000000000000000000000000000000000000000000000000000000000000000000000000000000000000000000000000000000000000000000000000000000000000000000000000E200C30000000000000000C3C300000000000000000000000000000000000000C3C3C300C3000000C3E2E20000000000000000
310
00000000000000000000000000000000000000000000000000000000000000000000000000000000000000000000000000000000000000000000000000000000000000000000000000000000000000000000000000000000000000000000000000000000000000000000000000000000000000000000000000000000000000
310
00000000000000000000000000000000000000000000000000000000000000000000000000000000000000000000000000000000000000000000000000000000000000000000000000000000000000E200C3000000000000000000C300000000000000000000000000000000C3C300000000C3000000C3E2E2000000000000
310
00000000000000000000000000000000000000000000000000000000000000000000000000000000000000000000000000000000000000000000000000000000000000000000000000000000000000000000000000000000000000000000000000000000000000000000000000000000000000000000000000000000000000
310
00000000000000000000000000000000000000000000000000000000000000000000000000000000000000000000000000000000000000000000000000000000000000000000000000000000000000000000E200C3C30000000000000000C300000000000000000000000000C3C3000000000000C3000000C3E2E200000000
310
00000000000000000000000000000000000000000000000000000000000000000000000000000000000000000000000000000000000000000000000000000000000000000000000000000000000000000000000000000000000000000000000000000000000000000000000000000000000000000000000000000000000000
310
00000000000000000000000000000000000000000000000000000000000000000000000000000000000000000000000000000000000000000000000000000000000000000000000000000000000000000000000000E20000C30000000000000000C3C300000000000000000000C3C300000000000000C3000000C3E2E20000
310
00000000000000000000000000000000000000000000000000000000000000000000000000000000000000000000000000000000000000000000000000000000000000000000000000000000000000000000000000000000000000000000000000000000000000000000000000000000000000000000000000000000000000
310
00000000000000000000000000000000000000000000000000000000000000000000000000000000000000000000000000000000000000000000000000000000000000000000000000000000000000000000000000000000E2E200C30000000000000000C3C30000000000000000C3000000000000000000C3000000C3E2E2
310
00000000000000000000000000000000000000000000000000000000000000000000000000000000000000000000000000000000000000000000000000000000000000000000000000000000000000000000000000000000000000000000000000000000000000000000000000000000000000000000000000000000000000
310
0000000000000000000000000000000000000000000000000000000000000000000000000000000000000000000000000000000000000000000000000000000000000000000000000000000000000000000000000000000000000000E200C3C3000000000000C3C3C3000000000000C300000000000000000000C3000000C3
310
E2E20000000000000000000000000000000000000000000000000000000000000000000000000000000000000000000000000000000000000000000000000000000000000000000000000000000000000000000000000000000000000000000000000000000000000000000000000000000000000000000000000000000000
310
0000000000000000000000000000000000000000000000000000000000000000000000000000000000000000000000000000000000000000000000000000000000000000000000000000000000000000000000000000000000000000000000E20000C30000000000C30000C300000000C30000000000000000000000C30000
310
00C3E2E2000000000000000000000000000000000000000000000000000000000000000000000000000000000000000000000000000000000000000000000000000000000000000000000000000000000000000000000000000000000000000000000000000000000000000000000000000000000000000000000000000000
310
0000000000000000000000000000000000000000000000000000000000000000000000000000000000000000000000000000000000000000000000000000000000000000000000000000000000000000000000000000000000000000000000000000E20000C3000000C300000000C30000C3000000000000000000000000C3
310
000000C3E2E200000000000000000000000000000000000000000000000000000000000000000000000000000000000000000000000000000000000000000000000000000000000000000000000000000000000000000000000000000000000000000000000000000000000000000000000000000000000000000000000000
310
0000000000000000000000000000000000000000000000000000000000000000000000000000000000000000000000000000000000000000000000000000000000000000000000000000000000000000000000000000000000000000000000000000000000E20000C300C3000000000000C3C3C30000000000000000000000
310
00C3000000C3E2E20000000000000000000000000000000000000000000000000000000000000000000000000000000000000000000000000000000000000000000000000000000000000000000000000000000000000000000000000000000000000000000000000000000000000000000000000000000000000000000000
310
0000000000000000000000000000000000000000000000000000000000000000000000000000000000000000000000000000000000000000000000000000000000000000000000000000000000000000000000000000000000000000000000000000000000000000E2E200C30000000000000000C3000000000000000000C3
310
C3C3C3C3000000C3E2E2000000000000000000000000000000000000000000000000000000000000000000000000000000000000000000000000000000000000000000000000000000000000000000000000000000000000000000000000000000000000000000000000000000000000000000000000000000000000000000
310
000000000000000000000000000000000000000000000000000000000000000000000000000000000000000000000000000000000000000000000000000000000000000000000000000000000000000000000000000000000000000000000000000000000000000000000000E200000000000000C3C3000000000000000000
310
00C3000000C3000000C3E2E200000000000000000000000000000000000000000000000000000000000000000000000000000000000000000000000000000000000000000000000000000000000000000000000000000000000000000000000000000000000000000000000000000000000000000000000000000000000000
310
000000000000000000000000000000000000000000000000000000000000000000000000000000000000000000000000000000000000000000000000000000000000000000000000000000000000000000000000000000000000000000000000000000000000000000000000000000E20000000000C3000000000000000000
310
000000C3000000C3C3C3C300E2E20000000000000000000000000000000000000000000000000000000000000000000000000000000000000000000000000000000000000000000000000000000000000000000000000000000000000000000000000000000000000000000000000000000000000000000000000000000000
310
000000000000000000000000000000000000000000000000000000000000000000000000000000000000000000000000000000000000000000000000000000000000000000000000000000000000000000000000000000000000000000000000000000000000000000000000000000000000E200000000C300000000000000
310
0000002D2D2D2D2D2DC32D2D2D2DE2E22D2D2D000000000000000000000000000000000000000000000000000000000000000000000000000000000000000000000000000000000000000000000000000000000000000000000000000000000000000000000000000000000000000000000000000000000000000000000000
310
000000000000000000000000000000000000000000000000000000000000000000000000000000000000000000000000000000000000000000000000000000000000000000000000000000000000000000000000000000000000000000000000000000000000000000000000000000000000000000E2000000C30000000000
310
00000000000000C3000000C300000000E2E200000000000000000000000000000000000000000000000000000000000000000000000000000000000000000000000000000000000000000000000000000000000000000000000000000000000000000000000000000000000000000000000000000000000000000000000000
310
000000000000000000000000000000000000000000000000000000000000000000000000000000000000000000000000000000000000000000000000000000000000000000000000000000000000000000000000000000000000000000000000000000000000000000000000000000000000000000000000E2E2C300000000
310
000000000000000000C3000000C300000000E2E20000000000000000000000000000000000000000000000000000000000000000000000000000000000000000000000000000000000000000000000000000000000000000000000000000000000000000000000000000000000000000000000000000000000000000000000
310
000000000000000000000000000000000000000000000000000000000000000000000000000000000000000000000000000000000000000000000000000000000000000000000000000000000000000000000000000000000000000000000000000000000000000000000000000000000000000000000000000000C3E20000
310
0000000000000000000000C3C3C3C3C300000000E2E2000000000000000000000000000000000000000000000000000000000000000000000000000000000000000000000000000000000000000000000000000000000000000000000000000000000000000000000000000000000000000000000000000000000000000000
310
00000000000000000000000000000000000000000000000000000000000000000000000000000000000000000000000000000000000000000000000000000000000000000000000000000000000000000000000000000000000000000000000000000000000000000000000000000000000000000000000000000000000000
310
E200000000000000000000000000000000C300000000E2E200000000000000000000000000000000000000000000000000000000000000000000000000000000000000000000000000000000000000000000000000000000000000000000000000000000000000000000000000000000000000000000000000000000000000
310
00000000000000000000000000000000000000000000000000000000000000000000000000000000000000000000000000000000000000000000000000000000000000000000000000000000000000000000000000000000000000000000000000000000000000000000000000000000000000000000000000000000000000
310
000000E2000000000000000000000000000000C300000000E2E20000000000000000000000000000000000000000000000000000000000000000000000000000000000000000000000000000000000000000000000000000000000000000000000000000000000000000000000000000000000000000000000000000000000
310
00000000000000000000000000000000000000000000000000000000000000000000000000000000000000000000000000000000000000000000000000000000000000000000000000000000000000000000000000000000000000000000000000000000000000000000000000000000000000000000000000000000000000
310
000000000000E20000000000000000000000000000C300000000E2E2000000000000000000000000000000000000000000000000000000000000000000000000000000000000000000000000000000000000000000000000000000000000000000000000000000000000000000000000000000000000000000000000000000
310
00000000000000000000000000000000000000000000000000000000000000000000000000000000000000000000000000000000000000000000000000000000000000000000000000000000000000000000000000000000000000000000000000000000000000000000000000000000000000000000000000000000000000
310
000000000000000000E2E200000000000000000000000000C3000000E2E200000000000000000000000000000000000000000000000000000000000000000000000000000000000000000000000000000000000000000000000000000000000000000000000000000000000000000000000000000000000000000000000000
310
00000000000000000000000000000000000000000000000000000000000000000000000000000000000000000000000000000000000000000000000000000000000000000000000000000000000000000000000000000000000000000000000000000000000000000000000000000000000000000000000000000000000000
310
00000000000000000000000000E200000000000000000000000000C3C3C3E2E20000000000000000000000000000000000000000000000000000000000000000000000000000000000000000000000000000000000000000000000000000000000000000000000000000000000000000000000000000000000000000000000
310
00000000000000000000000000000000000000000000000000000000000000000000000000000000000000000000000000000000000000000000000000000000000000000000000000000000000000000000000000000000000000000000000000000000000000000000000000000000000000000000000000000000000000
310
00000000000000000000000000000000E2000000000000000000000000000000E2E2000000000000000000000000000000000000000000000000000000000000000000000000000000000000000000000000000000000000000000000000000000000000000000000000000000000000000000000000000000000000000000
310
00000000000000000000000000000000000000000000000000000000000000000000000000000000000000000000000000000000000000000000000000000000000000000000000000000000000000000000000000000000000000000000000000000000000000000000000000000000000000000000000000000000000000
310
00000000000000000000000000000000000000E2E2E2E2E2E2E2E2E2E2E2E2E2E2E2E20000000000000000000000000000000000000000000000000000000000000000000000000000000000000000000000000000000000000000000000000000000000000000000000000000000000000000000000000000000000000000
310
00000000000000000000000000000000000000000000000000000000000000000000000000000000000000000000000000000000000000000000000000000000000000000000000000000000000000000000000000000000000000000000000000000000000000000000000000000000000000000000000000000000000000
310
00000000000000000000000000000000000000000000000000000000000000000000000000000000000000000000000000000000000000000000000000000000000000000000000000000000000000000000000000000000000000000000000000000000000000000000000000000000000000000000000000000000000000
310
00000000000000000000000000000000000000000000000000000000000000000000000000000000000000000000000000000000000000000000000000000000000000000000000000000000000000000000000000000000000000000000000000000000000000000000000000000000000000000000000000000000000000
310
00000000000000000000000000000000000000000000000000000000000000000000000000000000000000000000000000000000000000000000000000000000000000000000000000000000000000000000000000000000000000000000000000000000000000000000000000000000000000000000000000000000000000
310
00000000000000000000000000000000000000000000000000000000000000000000000000000000000000000000000000000000000000000000000000000000000000000000000000000000000000000000000000000000000000000000000000000000000000000000000000000000000000000000000000000000000000
310
00000000000000000000000000000000000000000000000000000000000000000000000000000000000000000000000000000000000000000000000000000000000000000000000000000000000000000000000000000000000000000000000000000000000000000000000000000000000000000000000000000000000000
310
00000000000000000000000000000000000000000000000000000000000000000000000000000000000000000000000000000000000000000000000000000000000000000000000000000000000000000000000000000000000000000000000000000000000000000000000000000000000000000000000000000000000000
310
00000000000000000000000000000000000000000000000000000000000000000000000000000000000000000000000000000000000000000000000000000000000000000000000000000000000000000000000000000000000000000000000000000000000000000000000000000000000000000000000000000000000000
310
00000000000000000000000000000000000000000000000000000000000000000000000000000000000000000000000000000000000000000000000000000000000000000000000000000000000000000000000000000000000000000000000000000000000000000000000000000000000000000000000000000000000000
310
00000000000000000000000000000000000000000000000000000000000000000000000000000000000000000000000000000000000000000000000000000000000000000000000000000000000000000000000000000000000000000000000000000000000000000000000000000000000000000000000000000000000000
310
0000000000000000000000000000000000000000
  0
XRECORD
  5
853E
102
{ACAD_REACTORS
330
2FD6
102
}
330
2FD6
100
AcDbXrecord
280
     1
102
MATERIAL
148
0.0
149
0.0
149
0.0
 93
        0
 94
      127
282
     0
 72
     0
 77
     0
171
     0
175
     0
179
     0
273
     0
  0
XRECORD
  5
2FD8
102
{ACAD_REACTORS
330
2FD6
102
}
330
2FD6
100
AcDbXrecord
280
     1
270
     1
271
     1
  0
XRECORD
  5
2FD7
102
{ACAD_REACTORS
330
2FD6
102
}
330
2FD6
100
AcDbXrecord
280
     1
270
     1
271
     1
  0
XRECORD
  5
2FDB
102
{ACAD_REACTORS
330
2FD6
102
}
330
2FD6
100
AcDbXrecord
280
     1
270
     1
271
     1
  0
XRECORD
  5
2FDA
102
{ACAD_REACTORS
330
2FD6
102
}
330
2FD6
100
AcDbXrecord
280
     1
270
     1
271
     1
  0
XRECORD
  5
2FDC
102
{ACAD_REACTORS
330
2FD6
102
}
330
2FD6
100
AcDbXrecord
280
     1
270
     1
271
     1
  0
XRECORD
  5
2FD9
102
{ACAD_REACTORS
330
2FD6
102
}
330
2FD6
100
AcDbXrecord
280
     1
270
     1
271
     1
  0
XRECORD
  5
853D
102
{ACAD_REACTORS
330
2FCE
102
}
330
2FCE
100
AcDbXrecord
280
     1
102
MATERIAL
148
0.0
149
0.0
149
0.0
 93
        0
 94
      127
282
     0
 72
     0
 77
     0
171
     0
175
     0
179
     0
273
     0
  0
XRECORD
  5
2FD0
102
{ACAD_REACTORS
330
2FCE
102
}
330
2FCE
100
AcDbXrecord
280
     1
270
     1
271
     1
  0
XRECORD
  5
2FCF
102
{ACAD_REACTORS
330
2FCE
102
}
330
2FCE
100
AcDbXrecord
280
     1
270
     1
271
     1
  0
XRECORD
  5
2FD3
102
{ACAD_REACTORS
330
2FCE
102
}
330
2FCE
100
AcDbXrecord
280
     1
270
     1
271
     1
  0
XRECORD
  5
2FD2
102
{ACAD_REACTORS
330
2FCE
102
}
330
2FCE
100
AcDbXrecord
280
     1
270
     1
271
     1
  0
XRECORD
  5
2FD4
102
{ACAD_REACTORS
330
2FCE
102
}
330
2FCE
100
AcDbXrecord
280
     1
270
     1
271
     1
  0
XRECORD
  5
2FD1
102
{ACAD_REACTORS
330
2FCE
102
}
330
2FCE
100
AcDbXrecord
280
     1
270
     1
271
     1
  0
XRECORD
  5
853F
102
{ACAD_REACTORS
330
2FDE
102
}
330
2FDE
100
AcDbXrecord
280
     1
102
MATERIAL
148
0.0
149
0.0
149
0.0
 93
        0
 94
      127
282
     0
 72
     0
 77
     0
171
     0
175
     0
179
     0
273
     0
  0
XRECORD
  5
2FE0
102
{ACAD_REACTORS
330
2FDE
102
}
330
2FDE
100
AcDbXrecord
280
     1
270
     1
271
     1
  0
XRECORD
  5
2FDF
102
{ACAD_REACTORS
330
2FDE
102
}
330
2FDE
100
AcDbXrecord
280
     1
270
     1
271
     1
  0
XRECORD
  5
2FE3
102
{ACAD_REACTORS
330
2FDE
102
}
330
2FDE
100
AcDbXrecord
280
     1
270
     1
271
     1
  0
XRECORD
  5
2FE2
102
{ACAD_REACTORS
330
2FDE
102
}
330
2FDE
100
AcDbXrecord
280
     1
270
     1
271
     1
  0
XRECORD
  5
2FE4
102
{ACAD_REACTORS
330
2FDE
102
}
330
2FDE
100
AcDbXrecord
280
     1
270
     1
271
     1
  0
XRECORD
  5
2FE1
102
{ACAD_REACTORS
330
2FDE
102
}
330
2FDE
100
AcDbXrecord
280
     1
270
     1
271
     1
  0
CELLSTYLEMAP
  5
8536
102
{ACAD_REACTORS
330
30E2
102
}
330
30E2
100
AcDbCellStyleMap
 90
        3
300
CELLSTYLE
  1
TABLEFORMAT_BEGIN
 90
        5
170
     1
 91
        0
 92
    32768
 62
   257
 93
        1
300
CONTENTFORMAT
  1
CONTENTFORMAT_BEGIN
 90
        0
 91
        0
 92
      512
 93
        0
300

 40
0.0
140
1.0
 94
        5
 62
     0
340
11
144
6.0
309
CONTENTFORMAT_END
171
     1
301
MARGIN
  1
CELLMARGIN_BEGIN
 40
1.5
 40
1.5
 40
1.5
 40
1.5
 40
4.5
 40
4.5
309
CELLMARGIN_END
 94
        6
 95
        1
302
GRIDFORMAT
  1
GRIDFORMAT_BEGIN
 90
        0
 91
        1
 62
     0
 92
       -2
340
0
 93
        0
 40
1.125
309
GRIDFORMAT_END
 95
        2
302
GRIDFORMAT
  1
GRIDFORMAT_BEGIN
 90
        0
 91
        1
 62
     0
 92
       -2
340
0
 93
        0
 40
1.125
309
GRIDFORMAT_END
 95
        4
302
GRIDFORMAT
  1
GRIDFORMAT_BEGIN
 90
        0
 91
        1
 62
     0
 92
       -2
340
0
 93
        0
 40
1.125
309
GRIDFORMAT_END
 95
        8
302
GRIDFORMAT
  1
GRIDFORMAT_BEGIN
 90
        0
 91
        1
 62
     0
 92
       -2
340
0
 93
        0
 40
1.125
309
GRIDFORMAT_END
 95
       16
302
GRIDFORMAT
  1
GRIDFORMAT_BEGIN
 90
        0
 91
        1
 62
     0
 92
       -2
340
0
 93
        0
 40
1.125
309
GRIDFORMAT_END
 95
       32
302
GRIDFORMAT
  1
GRIDFORMAT_BEGIN
 90
        0
 91
        1
 62
     0
 92
       -2
340
0
 93
        0
 40
1.125
309
GRIDFORMAT_END
309
TABLEFORMAT_END
  1
CELLSTYLE_BEGIN
 90
        1
 91
        1
300
_TITLE
309
CELLSTYLE_END
300
CELLSTYLE
  1
TABLEFORMAT_BEGIN
 90
        5
170
     1
 91
        0
 92
        0
 62
   257
 93
        1
300
CONTENTFORMAT
  1
CONTENTFORMAT_BEGIN
 90
        0
 91
        0
 92
      512
 93
        0
300

 40
0.0
140
1.0
 94
        5
 62
     0
340
11
144
4.5
309
CONTENTFORMAT_END
171
     1
301
MARGIN
  1
CELLMARGIN_BEGIN
 40
1.5
 40
1.5
 40
1.5
 40
1.5
 40
4.5
 40
4.5
309
CELLMARGIN_END
 94
        6
 95
        1
302
GRIDFORMAT
  1
GRIDFORMAT_BEGIN
 90
        0
 91
        1
 62
     0
 92
       -2
340
0
 93
        0
 40
1.125
309
GRIDFORMAT_END
 95
        2
302
GRIDFORMAT
  1
GRIDFORMAT_BEGIN
 90
        0
 91
        1
 62
     0
 92
       -2
340
0
 93
        0
 40
1.125
309
GRIDFORMAT_END
 95
        4
302
GRIDFORMAT
  1
GRIDFORMAT_BEGIN
 90
        0
 91
        1
 62
     0
 92
       -2
340
0
 93
        0
 40
1.125
309
GRIDFORMAT_END
 95
        8
302
GRIDFORMAT
  1
GRIDFORMAT_BEGIN
 90
        0
 91
        1
 62
     0
 92
       -2
340
0
 93
        0
 40
1.125
309
GRIDFORMAT_END
 95
       16
302
GRIDFORMAT
  1
GRIDFORMAT_BEGIN
 90
        0
 91
        1
 62
     0
 92
       -2
340
0
 93
        0
 40
1.125
309
GRIDFORMAT_END
 95
       32
302
GRIDFORMAT
  1
GRIDFORMAT_BEGIN
 90
        0
 91
        1
 62
     0
 92
       -2
340
0
 93
        0
 40
1.125
309
GRIDFORMAT_END
309
TABLEFORMAT_END
  1
CELLSTYLE_BEGIN
 90
        2
 91
        1
300
_HEADER
309
CELLSTYLE_END
300
CELLSTYLE
  1
TABLEFORMAT_BEGIN
 90
        5
170
     1
 91
        0
 92
        0
 62
   257
 93
        1
300
CONTENTFORMAT
  1
CONTENTFORMAT_BEGIN
 90
        0
 91
        0
 92
      512
 93
        0
300

 40
0.0
140
1.0
 94
        2
 62
     0
340
11
144
4.5
309
CONTENTFORMAT_END
171
     1
301
MARGIN
  1
CELLMARGIN_BEGIN
 40
1.5
 40
1.5
 40
1.5
 40
1.5
 40
4.5
 40
4.5
309
CELLMARGIN_END
 94
        6
 95
        1
302
GRIDFORMAT
  1
GRIDFORMAT_BEGIN
 90
        0
 91
        1
 62
     0
 92
       -2
340
0
 93
        0
 40
1.125
309
GRIDFORMAT_END
 95
        2
302
GRIDFORMAT
  1
GRIDFORMAT_BEGIN
 90
        0
 91
        1
 62
     0
 92
       -2
340
0
 93
        0
 40
1.125
309
GRIDFORMAT_END
 95
        4
302
GRIDFORMAT
  1
GRIDFORMAT_BEGIN
 90
        0
 91
        1
 62
     0
 92
       -2
340
0
 93
        0
 40
1.125
309
GRIDFORMAT_END
 95
        8
302
GRIDFORMAT
  1
GRIDFORMAT_BEGIN
 90
        0
 91
        1
 62
     0
 92
       -2
340
0
 93
        0
 40
1.125
309
GRIDFORMAT_END
 95
       16
302
GRIDFORMAT
  1
GRIDFORMAT_BEGIN
 90
        0
 91
        1
 62
     0
 92
       -2
340
0
 93
        0
 40
1.125
309
GRIDFORMAT_END
 95
       32
302
GRIDFORMAT
  1
GRIDFORMAT_BEGIN
 90
        0
 91
        1
 62
     0
 92
       -2
340
0
 93
        0
 40
1.125
309
GRIDFORMAT_END
309
TABLEFORMAT_END
  1
CELLSTYLE_BEGIN
 90
        3
 91
        2
300
_DATA
309
CELLSTYLE_END
  0
XRECORD
  5
8560
102
{ACAD_REACTORS
330
30E2
102
}
330
30E2
100
AcDbXrecord
280
     1
102
ACAD_ROUNDTRIP_PRE2007_TABLESTYLE
 90
      512
 91
        0
  1

 92
      512
 93
        0
  2

 94
      512
 95
        0
  3

  0
XRECORD
  5
854B
102
{ACAD_REACTORS
330
854A
102
}
330
854A
100
AcDbXrecord
280
     1
102
RTVSPropertyOp0
 70
     1
102
RTVSPropertyOp1
 70
     1
102
RTVSPropertyOp2
 70
     1
102
RTVSPropertyOp3
 70
     1
102
RTVSPropertyOp4
 70
     1
102
RTVSPropertyOp5
 70
     1
102
RTVSPropertyOp6
 70
     1
102
RTVSPropertyOp7
 70
     1
102
RTVSPropertyOp8
 70
     1
102
RTVSPropertyOp9
 70
     1
102
RTVSPropertyOp10
 70
     1
102
RTVSPropertyOp11
 70
     1
102
RTVSPropertyOp12
 70
     1
102
RTVSPropertyOp13
 70
     1
102
RTVSPropertyOp14
 70
     1
102
RTVSPropertyOp15
 70
     1
102
RTVSPropertyOp16
 70
     1
102
RTVSPropertyOp17
 70
     1
102
RTVSPropertyOp18
 70
     1
102
RTVSPropertyOp19
 70
     1
102
RTVSPropertyOp20
 70
     1
102
RTVSPropertyOp21
 70
     1
102
RTVSPropertyOp22
 70
     1
102
RTVSPropertyOp23
 70
     1
102
RTVSPropertyOp24
 70
     1
102
RTVSPropertyOp25
 70
     1
102
RTVSPropertyOp26
 70
     1
102
RTVSPropertyOp27
 70
     1
102
RTVSPropertyOp28
 70
     1
102
RTVSPropertyOp29
 70
     1
102
RTVSPropertyOp30
 70
     1
102
RTVSPropertyOp31
 70
     1
102
RTVSPropertyOp32
 70
     1
  0
XRECORD
  5
854F
102
{ACAD_REACTORS
330
854E
102
}
330
854E
100
AcDbXrecord
280
     1
102
RTVSPropertyOp0
 70
     1
102
RTVSPropertyOp1
 70
     1
102
RTVSPropertyOp2
 70
     1
102
RTVSPropertyOp3
 70
     1
102
RTVSPropertyOp4
 70
     1
102
RTVSPropertyOp5
 70
     1
102
RTVSPropertyOp6
 70
     1
102
RTVSPropertyOp7
 70
     1
102
RTVSPropertyOp8
 70
     1
102
RTVSPropertyOp9
 70
     1
102
RTVSPropertyOp10
 70
     1
102
RTVSPropertyOp11
 70
     1
102
RTVSPropertyOp12
 70
     1
102
RTVSPropertyOp13
 70
     1
102
RTVSPropertyOp14
 70
     1
102
RTVSPropertyOp15
 70
     1
102
RTVSPropertyOp16
 70
     1
102
RTVSPropertyOp17
 70
     1
102
RTVSPropertyOp18
 70
     1
102
RTVSPropertyOp19
 70
     1
102
RTVSPropertyOp20
 70
     1
102
RTVSPropertyOp21
 70
     1
102
RTVSPropertyOp22
 70
     1
102
RTVSPropertyOp23
 70
     1
102
RTVSPropertyOp24
 70
     1
102
RTVSPropertyOp25
 70
     1
102
RTVSPropertyOp26
 70
     1
102
RTVSPropertyOp27
 70
     1
102
RTVSPropertyOp28
 70
     1
102
RTVSPropertyOp29
 70
     1
102
RTVSPropertyOp30
 70
     1
102
RTVSPropertyOp31
 70
     1
102
RTVSPropertyOp32
 70
     1
  0
XRECORD
  5
854D
102
{ACAD_REACTORS
330
854C
102
}
330
854C
100
AcDbXrecord
280
     1
102
RTVSPropertyOp0
 70
     1
102
RTVSPropertyOp1
 70
     1
102
RTVSPropertyOp2
 70
     1
102
RTVSPropertyOp3
 70
     1
102
RTVSPropertyOp4
 70
     1
102
RTVSPropertyOp5
 70
     1
102
RTVSPropertyOp6
 70
     1
102
RTVSPropertyOp7
 70
     1
102
RTVSPropertyOp8
 70
     1
102
RTVSPropertyOp9
 70
     1
102
RTVSPropertyOp10
 70
     1
102
RTVSPropertyOp11
 70
     1
102
RTVSPropertyOp12
 70
     1
102
RTVSPropertyOp13
 70
     1
102
RTVSPropertyOp14
 70
     1
102
RTVSPropertyOp15
 70
     1
102
RTVSPropertyOp16
 70
     1
102
RTVSPropertyOp17
 70
     1
102
RTVSPropertyOp18
 70
     1
102
RTVSPropertyOp19
 70
     1
102
RTVSPropertyOp20
 70
     1
102
RTVSPropertyOp21
 70
     1
102
RTVSPropertyOp22
 70
     1
102
RTVSPropertyOp23
 70
     1
102
RTVSPropertyOp24
 70
     1
102
RTVSPropertyOp25
 70
     1
102
RTVSPropertyOp26
 70
     1
102
RTVSPropertyOp27
 70
     1
102
RTVSPropertyOp28
 70
     1
102
RTVSPropertyOp29
 70
     1
102
RTVSPropertyOp30
 70
     1
102
RTVSPropertyOp31
 70
     1
102
RTVSPropertyOp32
 70
     1
  0
XRECORD
  5
8549
102
{ACAD_REACTORS
330
8548
102
}
330
8548
100
AcDbXrecord
280
     1
102
RTVSPropertyOp0
 70
     1
102
RTVSPropertyOp1
 70
     1
102
RTVSPropertyOp2
 70
     1
102
RTVSPropertyOp3
 70
     1
102
RTVSPropertyOp4
 70
     1
102
RTVSPropertyOp5
 70
     1
102
RTVSPropertyOp6
 70
     1
102
RTVSPropertyOp7
 70
     1
102
RTVSPropertyOp8
 70
     1
102
RTVSPropertyOp9
 70
     1
102
RTVSPropertyOp10
 70
     1
102
RTVSPropertyOp11
 70
     1
102
RTVSPropertyOp12
 70
     1
102
RTVSPropertyOp13
 70
     1
102
RTVSPropertyOp14
 70
     1
102
RTVSPropertyOp15
 70
     1
102
RTVSPropertyOp16
 70
     1
102
RTVSPropertyOp17
 70
     1
102
RTVSPropertyOp18
 70
     1
102
RTVSPropertyOp19
 70
     1
102
RTVSPropertyOp20
 70
     1
102
RTVSPropertyOp21
 70
     1
102
RTVSPropertyOp22
 70
     1
102
RTVSPropertyOp23
 70
     1
102
RTVSPropertyOp24
 70
     1
102
RTVSPropertyOp25
 70
     1
102
RTVSPropertyOp26
 70
     1
102
RTVSPropertyOp27
 70
     1
102
RTVSPropertyOp28
 70
     1
102
RTVSPropertyOp29
 70
     1
102
RTVSPropertyOp30
 70
     1
102
RTVSPropertyOp31
 70
     1
102
RTVSPropertyOp32
 70
     1
  0
XRECORD
  5
8557
102
{ACAD_REACTORS
330
8556
102
}
330
8556
100
AcDbXrecord
280
     1
102
RTVSPropertyOp0
 70
     1
102
RTVSPropertyOp1
 70
     1
102
RTVSPropertyOp2
 70
     1
102
RTVSPropertyOp3
 70
     1
102
RTVSPropertyOp4
 70
     1
102
RTVSPropertyOp5
 70
     1
102
RTVSPropertyOp6
 70
     1
102
RTVSPropertyOp7
 70
     1
102
RTVSPropertyOp8
 70
     1
102
RTVSPropertyOp9
 70
     1
102
RTVSPropertyOp10
 70
     1
102
RTVSPropertyOp11
 70
     1
102
RTVSPropertyOp12
 70
     1
102
RTVSPropertyOp13
 70
     1
102
RTVSPropertyOp14
 70
     1
102
RTVSPropertyOp15
 70
     1
102
RTVSPropertyOp16
 70
     1
102
RTVSPropertyOp17
 70
     1
102
RTVSPropertyOp18
 70
     1
102
RTVSPropertyOp19
 70
     1
102
RTVSPropertyOp20
 70
     1
102
RTVSPropertyOp21
 70
     1
102
RTVSPropertyOp22
 70
     1
102
RTVSPropertyOp23
 70
     1
102
RTVSPropertyOp24
 70
     1
102
RTVSPropertyOp25
 70
     1
102
RTVSPropertyOp26
 70
     1
102
RTVSPropertyOp27
 70
     1
102
RTVSPropertyOp28
 70
     1
102
RTVSPropertyOp29
 70
     1
102
RTVSPropertyOp30
 70
     1
102
RTVSPropertyOp31
 70
     1
102
RTVSPropertyOp32
 70
     1
  0
XRECORD
  5
855F
102
{ACAD_REACTORS
330
855E
102
}
330
855E
100
AcDbXrecord
280
     1
102
RTVSPropertyOp0
 70
     1
102
RTVSPropertyOp1
 70
     1
102
RTVSPropertyOp2
 70
     1
102
RTVSPropertyOp3
 70
     1
102
RTVSPropertyOp4
 70
     1
102
RTVSPropertyOp5
 70
     1
102
RTVSPropertyOp6
 70
     1
102
RTVSPropertyOp7
 70
     1
102
RTVSPropertyOp8
 70
     1
102
RTVSPropertyOp9
 70
     1
102
RTVSPropertyOp10
 70
     1
102
RTVSPropertyOp11
 70
     1
102
RTVSPropertyOp12
 70
     1
102
RTVSPropertyOp13
 70
     1
102
RTVSPropertyOp14
 70
     1
102
RTVSPropertyOp15
 70
     1
102
RTVSPropertyOp16
 70
     1
102
RTVSPropertyOp17
 70
     1
102
RTVSPropertyOp18
 70
     1
102
RTVSPropertyOp19
 70
     1
102
RTVSPropertyOp20
 70
     1
102
RTVSPropertyOp21
 70
     1
102
RTVSPropertyOp22
 70
     1
102
RTVSPropertyOp23
 70
     1
102
RTVSPropertyOp24
 70
     1
102
RTVSPropertyOp25
 70
     1
102
RTVSPropertyOp26
 70
     1
102
RTVSPropertyOp27
 70
     1
102
RTVSPropertyOp28
 70
     1
102
RTVSPropertyOp29
 70
     1
102
RTVSPropertyOp30
 70
     1
102
RTVSPropertyOp31
 70
     1
102
RTVSPropertyOp32
 70
     1
  0
XRECORD
  5
8551
102
{ACAD_REACTORS
330
8550
102
}
330
8550
100
AcDbXrecord
280
     1
102
RTVSPropertyOp0
 70
     1
102
RTVSPropertyOp1
 70
     1
102
RTVSPropertyOp2
 70
     1
102
RTVSPropertyOp3
 70
     1
102
RTVSPropertyOp4
 70
     1
102
RTVSPropertyOp5
 70
     1
102
RTVSPropertyOp6
 70
     1
102
RTVSPropertyOp7
 70
     1
102
RTVSPropertyOp8
 70
     1
102
RTVSPropertyOp9
 70
     1
102
RTVSPropertyOp10
 70
     1
102
RTVSPropertyOp11
 70
     1
102
RTVSPropertyOp12
 70
     1
102
RTVSPropertyOp13
 70
     1
102
RTVSPropertyOp14
 70
     1
102
RTVSPropertyOp15
 70
     1
102
RTVSPropertyOp16
 70
     1
102
RTVSPropertyOp17
 70
     1
102
RTVSPropertyOp18
 70
     1
102
RTVSPropertyOp19
 70
     1
102
RTVSPropertyOp20
 70
     1
102
RTVSPropertyOp21
 70
     1
102
RTVSPropertyOp22
 70
     1
102
RTVSPropertyOp23
 70
     1
102
RTVSPropertyOp24
 70
     1
102
RTVSPropertyOp25
 70
     1
102
RTVSPropertyOp26
 70
     1
102
RTVSPropertyOp27
 70
     1
102
RTVSPropertyOp28
 70
     1
102
RTVSPropertyOp29
 70
     1
102
RTVSPropertyOp30
 70
     1
102
RTVSPropertyOp31
 70
     1
102
RTVSPropertyOp32
 70
     1
  0
XRECORD
  5
8555
102
{ACAD_REACTORS
330
8554
102
}
330
8554
100
AcDbXrecord
280
     1
102
RTVSPropertyOp0
 70
     1
102
RTVSPropertyOp1
 70
     1
102
RTVSPropertyOp2
 70
     1
102
RTVSPropertyOp3
 70
     1
102
RTVSPropertyOp4
 70
     1
102
RTVSPropertyOp5
 70
     1
102
RTVSPropertyOp6
 70
     1
102
RTVSPropertyOp7
 70
     1
102
RTVSPropertyOp8
 70
     1
102
RTVSPropertyOp9
 70
     1
102
RTVSPropertyOp10
 70
     1
102
RTVSPropertyOp11
 70
     1
102
RTVSPropertyOp12
 70
     1
102
RTVSPropertyOp13
 70
     1
102
RTVSPropertyOp14
 70
     1
102
RTVSPropertyOp15
 70
     1
102
RTVSPropertyOp16
 70
     1
102
RTVSPropertyOp17
 70
     1
102
RTVSPropertyOp18
 70
     1
102
RTVSPropertyOp19
 70
     1
102
RTVSPropertyOp20
 70
     1
102
RTVSPropertyOp21
 70
     1
102
RTVSPropertyOp22
 70
     1
102
RTVSPropertyOp23
 70
     1
102
RTVSPropertyOp24
 70
     1
102
RTVSPropertyOp25
 70
     1
102
RTVSPropertyOp26
 70
     1
102
RTVSPropertyOp27
 70
     1
102
RTVSPropertyOp28
 70
     1
102
RTVSPropertyOp29
 70
     1
102
RTVSPropertyOp30
 70
     1
102
RTVSPropertyOp31
 70
     1
102
RTVSPropertyOp32
 70
     1
  0
XRECORD
  5
8574
102
{ACAD_REACTORS
330
8573
102
}
330
8573
100
AcDbXrecord
280
     1
102
RTVSPropertyOp0
 70
     0
102
RTVSPropertyOp1
 70
     0
102
RTVSPropertyOp2
 70
     0
102
RTVSPropertyOp3
 70
     0
102
RTVSPropertyOp4
 70
     0
102
RTVSPropertyOp5
 70
     0
102
RTVSPropertyOp6
 70
     0
102
RTVSPropertyOp7
 70
     0
102
RTVSPropertyOp8
 70
     0
102
RTVSPropertyOp9
 70
     0
102
RTVSPropertyOp10
 70
     0
102
RTVSPropertyOp11
 70
     0
102
RTVSPropertyOp12
 70
     0
102
RTVSPropertyOp13
 70
     0
102
RTVSPropertyOp14
 70
     2
102
RTVSPropertyOp15
 70
     0
102
RTVSPropertyOp16
 70
     0
102
RTVSPropertyOp17
 70
     0
102
RTVSPropertyOp18
 70
     0
102
RTVSPropertyOp19
 70
     0
102
RTVSPropertyOp20
 70
     0
102
RTVSPropertyOp21
 70
     0
102
RTVSPropertyOp22
 70
     0
102
RTVSPropertyOp23
 70
     0
102
RTVSPropertyOp24
 70
     0
102
RTVSPropertyOp25
 70
     0
102
RTVSPropertyOp26
 70
     0
102
RTVSPropertyOp27
 70
     0
102
RTVSPropertyOp28
 70
     1
102
RTVSPropertyOp29
 70
     1
102
RTVSPropertyOp30
 70
     1
102
RTVSPropertyOp31
 70
     1
102
RTVSPropertyOp32
 70
     1
  0
XRECORD
  5
855D
102
{ACAD_REACTORS
330
855C
102
}
330
855C
100
AcDbXrecord
280
     1
102
RTVSPropertyOp0
 70
     1
102
RTVSPropertyOp1
 70
     1
102
RTVSPropertyOp2
 70
     1
102
RTVSPropertyOp3
 70
     1
102
RTVSPropertyOp4
 70
     1
102
RTVSPropertyOp5
 70
     1
102
RTVSPropertyOp6
 70
     1
102
RTVSPropertyOp7
 70
     1
102
RTVSPropertyOp8
 70
     1
102
RTVSPropertyOp9
 70
     1
102
RTVSPropertyOp10
 70
     1
102
RTVSPropertyOp11
 70
     1
102
RTVSPropertyOp12
 70
     1
102
RTVSPropertyOp13
 70
     1
102
RTVSPropertyOp14
 70
     1
102
RTVSPropertyOp15
 70
     1
102
RTVSPropertyOp16
 70
     1
102
RTVSPropertyOp17
 70
     1
102
RTVSPropertyOp18
 70
     1
102
RTVSPropertyOp19
 70
     1
102
RTVSPropertyOp20
 70
     1
102
RTVSPropertyOp21
 70
     1
102
RTVSPropertyOp22
 70
     1
102
RTVSPropertyOp23
 70
     1
102
RTVSPropertyOp24
 70
     1
102
RTVSPropertyOp25
 70
     1
102
RTVSPropertyOp26
 70
     1
102
RTVSPropertyOp27
 70
     1
102
RTVSPropertyOp28
 70
     1
102
RTVSPropertyOp29
 70
     1
102
RTVSPropertyOp30
 70
     1
102
RTVSPropertyOp31
 70
     1
102
RTVSPropertyOp32
 70
     1
  0
XRECORD
  5
8541
102
{ACAD_REACTORS
330
8540
102
}
330
8540
100
AcDbXrecord
280
     1
102
RTVSPropertyOp0
 70
     1
102
RTVSPropertyOp1
 70
     1
102
RTVSPropertyOp2
 70
     1
102
RTVSPropertyOp3
 70
     1
102
RTVSPropertyOp4
 70
     1
102
RTVSPropertyOp5
 70
     1
102
RTVSPropertyOp6
 70
     1
102
RTVSPropertyOp7
 70
     1
102
RTVSPropertyOp8
 70
     1
102
RTVSPropertyOp9
 70
     1
102
RTVSPropertyOp10
 70
     1
102
RTVSPropertyOp11
 70
     1
102
RTVSPropertyOp12
 70
     1
102
RTVSPropertyOp13
 70
     1
102
RTVSPropertyOp14
 70
     1
102
RTVSPropertyOp15
 70
     1
102
RTVSPropertyOp16
 70
     1
102
RTVSPropertyOp17
 70
     1
102
RTVSPropertyOp18
 70
     1
102
RTVSPropertyOp19
 70
     1
102
RTVSPropertyOp20
 70
     1
102
RTVSPropertyOp21
 70
     1
102
RTVSPropertyOp22
 70
     1
102
RTVSPropertyOp23
 70
     1
102
RTVSPropertyOp24
 70
     1
102
RTVSPropertyOp25
 70
     1
102
RTVSPropertyOp26
 70
     1
102
RTVSPropertyOp27
 70
     1
102
RTVSPropertyOp28
 70
     1
102
RTVSPropertyOp29
 70
     1
102
RTVSPropertyOp30
 70
     1
102
RTVSPropertyOp31
 70
     1
102
RTVSPropertyOp32
 70
     1
  0
XRECORD
  5
8543
102
{ACAD_REACTORS
330
8542
102
}
330
8542
100
AcDbXrecord
280
     1
102
RTVSPropertyOp0
 70
     1
102
RTVSPropertyOp1
 70
     1
102
RTVSPropertyOp2
 70
     1
102
RTVSPropertyOp3
 70
     1
102
RTVSPropertyOp4
 70
     1
102
RTVSPropertyOp5
 70
     1
102
RTVSPropertyOp6
 70
     1
102
RTVSPropertyOp7
 70
     1
102
RTVSPropertyOp8
 70
     1
102
RTVSPropertyOp9
 70
     1
102
RTVSPropertyOp10
 70
     1
102
RTVSPropertyOp11
 70
     1
102
RTVSPropertyOp12
 70
     1
102
RTVSPropertyOp13
 70
     1
102
RTVSPropertyOp14
 70
     1
102
RTVSPropertyOp15
 70
     1
102
RTVSPropertyOp16
 70
     1
102
RTVSPropertyOp17
 70
     1
102
RTVSPropertyOp18
 70
     1
102
RTVSPropertyOp19
 70
     1
102
RTVSPropertyOp20
 70
     1
102
RTVSPropertyOp21
 70
     1
102
RTVSPropertyOp22
 70
     1
102
RTVSPropertyOp23
 70
     1
102
RTVSPropertyOp24
 70
     1
102
RTVSPropertyOp25
 70
     1
102
RTVSPropertyOp26
 70
     1
102
RTVSPropertyOp27
 70
     1
102
RTVSPropertyOp28
 70
     1
102
RTVSPropertyOp29
 70
     1
102
RTVSPropertyOp30
 70
     1
102
RTVSPropertyOp31
 70
     1
102
RTVSPropertyOp32
 70
     1
  0
XRECORD
  5
8545
102
{ACAD_REACTORS
330
8544
102
}
330
8544
100
AcDbXrecord
280
     1
102
RTVSPropertyOp0
 70
     1
102
RTVSPropertyOp1
 70
     1
102
RTVSPropertyOp2
 70
     1
102
RTVSPropertyOp3
 70
     1
102
RTVSPropertyOp4
 70
     1
102
RTVSPropertyOp5
 70
     1
102
RTVSPropertyOp6
 70
     1
102
RTVSPropertyOp7
 70
     1
102
RTVSPropertyOp8
 70
     1
102
RTVSPropertyOp9
 70
     1
102
RTVSPropertyOp10
 70
     1
102
RTVSPropertyOp11
 70
     1
102
RTVSPropertyOp12
 70
     1
102
RTVSPropertyOp13
 70
     1
102
RTVSPropertyOp14
 70
     1
102
RTVSPropertyOp15
 70
     1
102
RTVSPropertyOp16
 70
     1
102
RTVSPropertyOp17
 70
     1
102
RTVSPropertyOp18
 70
     1
102
RTVSPropertyOp19
 70
     1
102
RTVSPropertyOp20
 70
     1
102
RTVSPropertyOp21
 70
     1
102
RTVSPropertyOp22
 70
     1
102
RTVSPropertyOp23
 70
     1
102
RTVSPropertyOp24
 70
     1
102
RTVSPropertyOp25
 70
     1
102
RTVSPropertyOp26
 70
     1
102
RTVSPropertyOp27
 70
     1
102
RTVSPropertyOp28
 70
     1
102
RTVSPropertyOp29
 70
     1
102
RTVSPropertyOp30
 70
     1
102
RTVSPropertyOp31
 70
     1
102
RTVSPropertyOp32
 70
     1
  0
XRECORD
  5
8547
102
{ACAD_REACTORS
330
8546
102
}
330
8546
100
AcDbXrecord
280
     1
102
RTVSPropertyOp0
 70
     1
102
RTVSPropertyOp1
 70
     1
102
RTVSPropertyOp2
 70
     1
102
RTVSPropertyOp3
 70
     1
102
RTVSPropertyOp4
 70
     1
102
RTVSPropertyOp5
 70
     1
102
RTVSPropertyOp6
 70
     1
102
RTVSPropertyOp7
 70
     1
102
RTVSPropertyOp8
 70
     1
102
RTVSPropertyOp9
 70
     1
102
RTVSPropertyOp10
 70
     1
102
RTVSPropertyOp11
 70
     1
102
RTVSPropertyOp12
 70
     1
102
RTVSPropertyOp13
 70
     1
102
RTVSPropertyOp14
 70
     1
102
RTVSPropertyOp15
 70
     1
102
RTVSPropertyOp16
 70
     1
102
RTVSPropertyOp17
 70
     1
102
RTVSPropertyOp18
 70
     1
102
RTVSPropertyOp19
 70
     1
102
RTVSPropertyOp20
 70
     1
102
RTVSPropertyOp21
 70
     1
102
RTVSPropertyOp22
 70
     1
102
RTVSPropertyOp23
 70
     1
102
RTVSPropertyOp24
 70
     1
102
RTVSPropertyOp25
 70
     1
102
RTVSPropertyOp26
 70
     1
102
RTVSPropertyOp27
 70
     1
102
RTVSPropertyOp28
 70
     1
102
RTVSPropertyOp29
 70
     1
102
RTVSPropertyOp30
 70
     1
102
RTVSPropertyOp31
 70
     1
102
RTVSPropertyOp32
 70
     1
  0
XRECORD
  5
8564
102
{ACAD_REACTORS
330
8563
102
}
330
8563
100
AcDbXrecord
280
     1
102
RTVSPropertyOp0
 70
     1
102
RTVSPropertyOp1
 70
     1
102
RTVSPropertyOp2
 70
     1
102
RTVSPropertyOp3
 70
     1
102
RTVSPropertyOp4
 70
     1
102
RTVSPropertyOp5
 70
     1
102
RTVSPropertyOp6
 70
     1
102
RTVSPropertyOp7
 70
     1
102
RTVSPropertyOp8
 70
     1
102
RTVSPropertyOp9
 70
     1
102
RTVSPropertyOp10
 70
     1
102
RTVSPropertyOp11
 70
     1
102
RTVSPropertyOp12
 70
     1
102
RTVSPropertyOp13
 70
     1
102
RTVSPropertyOp14
 70
     1
102
RTVSPropertyOp15
 70
     1
102
RTVSPropertyOp16
 70
     1
102
RTVSPropertyOp17
 70
     1
102
RTVSPropertyOp18
 70
     1
102
RTVSPropertyOp19
 70
     1
102
RTVSPropertyOp20
 70
     1
102
RTVSPropertyOp21
 70
     1
102
RTVSPropertyOp22
 70
     1
102
RTVSPropertyOp23
 70
     1
102
RTVSPropertyOp24
 70
     1
102
RTVSPropertyOp25
 70
     1
102
RTVSPropertyOp26
 70
     1
102
RTVSPropertyOp27
 70
     1
102
RTVSPropertyOp28
 70
     1
102
RTVSPropertyOp29
 70
     1
102
RTVSPropertyOp30
 70
     1
102
RTVSPropertyOp31
 70
     1
102
RTVSPropertyOp32
 70
     1
  0
XRECORD
  5
8570
102
{ACAD_REACTORS
330
856F
102
}
330
856F
100
AcDbXrecord
280
     1
102
RTVSPropertyOp0
 70
     0
102
RTVSPropertyOp1
 70
     0
102
RTVSPropertyOp2
 70
     0
102
RTVSPropertyOp3
 70
     0
102
RTVSPropertyOp4
 70
     0
102
RTVSPropertyOp5
 70
     0
102
RTVSPropertyOp6
 70
     0
102
RTVSPropertyOp7
 70
     0
102
RTVSPropertyOp8
 70
     0
102
RTVSPropertyOp9
 70
     0
102
RTVSPropertyOp10
 70
     0
102
RTVSPropertyOp11
 70
     0
102
RTVSPropertyOp12
 70
     0
102
RTVSPropertyOp13
 70
     0
102
RTVSPropertyOp14
 70
     2
102
RTVSPropertyOp15
 70
     0
102
RTVSPropertyOp16
 70
     0
102
RTVSPropertyOp17
 70
     0
102
RTVSPropertyOp18
 70
     0
102
RTVSPropertyOp19
 70
     0
102
RTVSPropertyOp20
 70
     0
102
RTVSPropertyOp21
 70
     0
102
RTVSPropertyOp22
 70
     0
102
RTVSPropertyOp23
 70
     0
102
RTVSPropertyOp24
 70
     0
102
RTVSPropertyOp25
 70
     0
102
RTVSPropertyOp26
 70
     0
102
RTVSPropertyOp27
 70
     0
102
RTVSPropertyOp28
 70
     1
102
RTVSPropertyOp29
 70
     1
102
RTVSPropertyOp30
 70
     1
102
RTVSPropertyOp31
 70
     1
102
RTVSPropertyOp32
 70
     1
  0
XRECORD
  5
855B
102
{ACAD_REACTORS
330
855A
102
}
330
855A
100
AcDbXrecord
280
     1
102
RTVSPropertyOp0
 70
     1
102
RTVSPropertyOp1
 70
     1
102
RTVSPropertyOp2
 70
     1
102
RTVSPropertyOp3
 70
     1
102
RTVSPropertyOp4
 70
     1
102
RTVSPropertyOp5
 70
     1
102
RTVSPropertyOp6
 70
     1
102
RTVSPropertyOp7
 70
     1
102
RTVSPropertyOp8
 70
     1
102
RTVSPropertyOp9
 70
     1
102
RTVSPropertyOp10
 70
     1
102
RTVSPropertyOp11
 70
     1
102
RTVSPropertyOp12
 70
     1
102
RTVSPropertyOp13
 70
     1
102
RTVSPropertyOp14
 70
     1
102
RTVSPropertyOp15
 70
     1
102
RTVSPropertyOp16
 70
     1
102
RTVSPropertyOp17
 70
     1
102
RTVSPropertyOp18
 70
     1
102
RTVSPropertyOp19
 70
     1
102
RTVSPropertyOp20
 70
     1
102
RTVSPropertyOp21
 70
     1
102
RTVSPropertyOp22
 70
     1
102
RTVSPropertyOp23
 70
     1
102
RTVSPropertyOp24
 70
     1
102
RTVSPropertyOp25
 70
     1
102
RTVSPropertyOp26
 70
     1
102
RTVSPropertyOp27
 70
     1
102
RTVSPropertyOp28
 70
     1
102
RTVSPropertyOp29
 70
     1
102
RTVSPropertyOp30
 70
     1
102
RTVSPropertyOp31
 70
     1
102
RTVSPropertyOp32
 70
     1
  0
XRECORD
  5
8572
102
{ACAD_REACTORS
330
8571
102
}
330
8571
100
AcDbXrecord
280
     1
102
RTVSPropertyOp0
 70
     0
102
RTVSPropertyOp1
 70
     0
102
RTVSPropertyOp2
 70
     0
102
RTVSPropertyOp3
 70
     0
102
RTVSPropertyOp4
 70
     0
102
RTVSPropertyOp5
 70
     0
102
RTVSPropertyOp6
 70
     0
102
RTVSPropertyOp7
 70
     0
102
RTVSPropertyOp8
 70
     0
102
RTVSPropertyOp9
 70
     0
102
RTVSPropertyOp10
 70
     0
102
RTVSPropertyOp11
 70
     0
102
RTVSPropertyOp12
 70
     0
102
RTVSPropertyOp13
 70
     0
102
RTVSPropertyOp14
 70
     2
102
RTVSPropertyOp15
 70
     0
102
RTVSPropertyOp16
 70
     0
102
RTVSPropertyOp17
 70
     0
102
RTVSPropertyOp18
 70
     0
102
RTVSPropertyOp19
 70
     0
102
RTVSPropertyOp20
 70
     0
102
RTVSPropertyOp21
 70
     0
102
RTVSPropertyOp22
 70
     0
102
RTVSPropertyOp23
 70
     0
102
RTVSPropertyOp24
 70
     0
102
RTVSPropertyOp25
 70
     0
102
RTVSPropertyOp26
 70
     0
102
RTVSPropertyOp27
 70
     0
102
RTVSPropertyOp28
 70
     1
102
RTVSPropertyOp29
 70
     1
102
RTVSPropertyOp30
 70
     1
102
RTVSPropertyOp31
 70
     1
102
RTVSPropertyOp32
 70
     1
  0
XRECORD
  5
8553
102
{ACAD_REACTORS
330
8552
102
}
330
8552
100
AcDbXrecord
280
     1
102
RTVSPropertyOp0
 70
     1
102
RTVSPropertyOp1
 70
     1
102
RTVSPropertyOp2
 70
     1
102
RTVSPropertyOp3
 70
     1
102
RTVSPropertyOp4
 70
     1
102
RTVSPropertyOp5
 70
     1
102
RTVSPropertyOp6
 70
     1
102
RTVSPropertyOp7
 70
     1
102
RTVSPropertyOp8
 70
     1
102
RTVSPropertyOp9
 70
     1
102
RTVSPropertyOp10
 70
     1
102
RTVSPropertyOp11
 70
     1
102
RTVSPropertyOp12
 70
     1
102
RTVSPropertyOp13
 70
     1
102
RTVSPropertyOp14
 70
     1
102
RTVSPropertyOp15
 70
     1
102
RTVSPropertyOp16
 70
     1
102
RTVSPropertyOp17
 70
     1
102
RTVSPropertyOp18
 70
     1
102
RTVSPropertyOp19
 70
     1
102
RTVSPropertyOp20
 70
     1
102
RTVSPropertyOp21
 70
     1
102
RTVSPropertyOp22
 70
     1
102
RTVSPropertyOp23
 70
     1
102
RTVSPropertyOp24
 70
     1
102
RTVSPropertyOp25
 70
     1
102
RTVSPropertyOp26
 70
     1
102
RTVSPropertyOp27
 70
     1
102
RTVSPropertyOp28
 70
     1
102
RTVSPropertyOp29
 70
     1
102
RTVSPropertyOp30
 70
     1
102
RTVSPropertyOp31
 70
     1
102
RTVSPropertyOp32
 70
     1
  0
XRECORD
  5
856E
102
{ACAD_REACTORS
330
856D
102
}
330
856D
100
AcDbXrecord
280
     1
102
RTVSPropertyOp0
 70
     1
102
RTVSPropertyOp1
 70
     1
102
RTVSPropertyOp2
 70
     1
102
RTVSPropertyOp3
 70
     1
102
RTVSPropertyOp4
 70
     1
102
RTVSPropertyOp5
 70
     1
102
RTVSPropertyOp6
 70
     1
102
RTVSPropertyOp7
 70
     1
102
RTVSPropertyOp8
 70
     1
102
RTVSPropertyOp9
 70
     1
102
RTVSPropertyOp10
 70
     1
102
RTVSPropertyOp11
 70
     1
102
RTVSPropertyOp12
 70
     1
102
RTVSPropertyOp13
 70
     1
102
RTVSPropertyOp14
 70
     1
102
RTVSPropertyOp15
 70
     1
102
RTVSPropertyOp16
 70
     1
102
RTVSPropertyOp17
 70
     1
102
RTVSPropertyOp18
 70
     1
102
RTVSPropertyOp19
 70
     1
102
RTVSPropertyOp20
 70
     1
102
RTVSPropertyOp21
 70
     1
102
RTVSPropertyOp22
 70
     1
102
RTVSPropertyOp23
 70
     1
102
RTVSPropertyOp24
 70
     1
102
RTVSPropertyOp25
 70
     1
102
RTVSPropertyOp26
 70
     1
102
RTVSPropertyOp27
 70
     1
102
RTVSPropertyOp28
 70
     1
102
RTVSPropertyOp29
 70
     1
102
RTVSPropertyOp30
 70
     1
102
RTVSPropertyOp31
 70
     1
102
RTVSPropertyOp32
 70
     1
  0
XRECORD
  5
856C
102
{ACAD_REACTORS
330
856B
102
}
330
856B
100
AcDbXrecord
280
     1
102
RTVSPropertyOp0
 70
     1
102
RTVSPropertyOp1
 70
     1
102
RTVSPropertyOp2
 70
     1
102
RTVSPropertyOp3
 70
     1
102
RTVSPropertyOp4
 70
     1
102
RTVSPropertyOp5
 70
     1
102
RTVSPropertyOp6
 70
     1
102
RTVSPropertyOp7
 70
     1
102
RTVSPropertyOp8
 70
     1
102
RTVSPropertyOp9
 70
     1
102
RTVSPropertyOp10
 70
     1
102
RTVSPropertyOp11
 70
     1
102
RTVSPropertyOp12
 70
     1
102
RTVSPropertyOp13
 70
     1
102
RTVSPropertyOp14
 70
     1
102
RTVSPropertyOp15
 70
     1
102
RTVSPropertyOp16
 70
     1
102
RTVSPropertyOp17
 70
     1
102
RTVSPropertyOp18
 70
     1
102
RTVSPropertyOp19
 70
     1
102
RTVSPropertyOp20
 70
     1
102
RTVSPropertyOp21
 70
     1
102
RTVSPropertyOp22
 70
     1
102
RTVSPropertyOp23
 70
     1
102
RTVSPropertyOp24
 70
     1
102
RTVSPropertyOp25
 70
     1
102
RTVSPropertyOp26
 70
     1
102
RTVSPropertyOp27
 70
     1
102
RTVSPropertyOp28
 70
     1
102
RTVSPropertyOp29
 70
     1
102
RTVSPropertyOp30
 70
     1
102
RTVSPropertyOp31
 70
     1
102
RTVSPropertyOp32
 70
     1
  0
XRECORD
  5
8566
102
{ACAD_REACTORS
330
8565
102
}
330
8565
100
AcDbXrecord
280
     1
102
RTVSPropertyOp0
 70
     1
102
RTVSPropertyOp1
 70
     1
102
RTVSPropertyOp2
 70
     1
102
RTVSPropertyOp3
 70
     1
102
RTVSPropertyOp4
 70
     1
102
RTVSPropertyOp5
 70
     1
102
RTVSPropertyOp6
 70
     1
102
RTVSPropertyOp7
 70
     1
102
RTVSPropertyOp8
 70
     1
102
RTVSPropertyOp9
 70
     1
102
RTVSPropertyOp10
 70
     1
102
RTVSPropertyOp11
 70
     1
102
RTVSPropertyOp12
 70
     1
102
RTVSPropertyOp13
 70
     1
102
RTVSPropertyOp14
 70
     1
102
RTVSPropertyOp15
 70
     1
102
RTVSPropertyOp16
 70
     1
102
RTVSPropertyOp17
 70
     1
102
RTVSPropertyOp18
 70
     1
102
RTVSPropertyOp19
 70
     1
102
RTVSPropertyOp20
 70
     1
102
RTVSPropertyOp21
 70
     1
102
RTVSPropertyOp22
 70
     1
102
RTVSPropertyOp23
 70
     1
102
RTVSPropertyOp24
 70
     1
102
RTVSPropertyOp25
 70
     1
102
RTVSPropertyOp26
 70
     1
102
RTVSPropertyOp27
 70
     1
102
RTVSPropertyOp28
 70
     1
102
RTVSPropertyOp29
 70
     1
102
RTVSPropertyOp30
 70
     1
102
RTVSPropertyOp31
 70
     1
102
RTVSPropertyOp32
 70
     1
  0
XRECORD
  5
8568
102
{ACAD_REACTORS
330
8567
102
}
330
8567
100
AcDbXrecord
280
     1
102
RTVSPropertyOp0
 70
     1
102
RTVSPropertyOp1
 70
     1
102
RTVSPropertyOp2
 70
     1
102
RTVSPropertyOp3
 70
     1
102
RTVSPropertyOp4
 70
     1
102
RTVSPropertyOp5
 70
     1
102
RTVSPropertyOp6
 70
     1
102
RTVSPropertyOp7
 70
     1
102
RTVSPropertyOp8
 70
     1
102
RTVSPropertyOp9
 70
     1
102
RTVSPropertyOp10
 70
     1
102
RTVSPropertyOp11
 70
     1
102
RTVSPropertyOp12
 70
     1
102
RTVSPropertyOp13
 70
     1
102
RTVSPropertyOp14
 70
     1
102
RTVSPropertyOp15
 70
     1
102
RTVSPropertyOp16
 70
     1
102
RTVSPropertyOp17
 70
     1
102
RTVSPropertyOp18
 70
     1
102
RTVSPropertyOp19
 70
     1
102
RTVSPropertyOp20
 70
     1
102
RTVSPropertyOp21
 70
     1
102
RTVSPropertyOp22
 70
     1
102
RTVSPropertyOp23
 70
     1
102
RTVSPropertyOp24
 70
     1
102
RTVSPropertyOp25
 70
     1
102
RTVSPropertyOp26
 70
     1
102
RTVSPropertyOp27
 70
     1
102
RTVSPropertyOp28
 70
     1
102
RTVSPropertyOp29
 70
     1
102
RTVSPropertyOp30
 70
     1
102
RTVSPropertyOp31
 70
     1
102
RTVSPropertyOp32
 70
     1
  0
XRECORD
  5
8559
102
{ACAD_REACTORS
330
8558
102
}
330
8558
100
AcDbXrecord
280
     1
102
RTVSPropertyOp0
 70
     1
102
RTVSPropertyOp1
 70
     1
102
RTVSPropertyOp2
 70
     1
102
RTVSPropertyOp3
 70
     1
102
RTVSPropertyOp4
 70
     1
102
RTVSPropertyOp5
 70
     1
102
RTVSPropertyOp6
 70
     1
102
RTVSPropertyOp7
 70
     1
102
RTVSPropertyOp8
 70
     1
102
RTVSPropertyOp9
 70
     1
102
RTVSPropertyOp10
 70
     1
102
RTVSPropertyOp11
 70
     1
102
RTVSPropertyOp12
 70
     1
102
RTVSPropertyOp13
 70
     1
102
RTVSPropertyOp14
 70
     1
102
RTVSPropertyOp15
 70
     1
102
RTVSPropertyOp16
 70
     1
102
RTVSPropertyOp17
 70
     1
102
RTVSPropertyOp18
 70
     1
102
RTVSPropertyOp19
 70
     1
102
RTVSPropertyOp20
 70
     1
102
RTVSPropertyOp21
 70
     1
102
RTVSPropertyOp22
 70
     1
102
RTVSPropertyOp23
 70
     1
102
RTVSPropertyOp24
 70
     1
102
RTVSPropertyOp25
 70
     1
102
RTVSPropertyOp26
 70
     1
102
RTVSPropertyOp27
 70
     1
102
RTVSPropertyOp28
 70
     1
102
RTVSPropertyOp29
 70
     1
102
RTVSPropertyOp30
 70
     1
102
RTVSPropertyOp31
 70
     1
102
RTVSPropertyOp32
 70
     1
  0
XRECORD
  5
8562
102
{ACAD_REACTORS
330
8561
102
}
330
8561
100
AcDbXrecord
280
     1
102
RTVSPropertyOp0
 70
     1
102
RTVSPropertyOp1
 70
     1
102
RTVSPropertyOp2
 70
     1
102
RTVSPropertyOp3
 70
     1
102
RTVSPropertyOp4
 70
     1
102
RTVSPropertyOp5
 70
     1
102
RTVSPropertyOp6
 70
     1
102
RTVSPropertyOp7
 70
     1
102
RTVSPropertyOp8
 70
     1
102
RTVSPropertyOp9
 70
     1
102
RTVSPropertyOp10
 70
     1
102
RTVSPropertyOp11
 70
     1
102
RTVSPropertyOp12
 70
     1
102
RTVSPropertyOp13
 70
     1
102
RTVSPropertyOp14
 70
     1
102
RTVSPropertyOp15
 70
     1
102
RTVSPropertyOp16
 70
     1
102
RTVSPropertyOp17
 70
     1
102
RTVSPropertyOp18
 70
     1
102
RTVSPropertyOp19
 70
     1
102
RTVSPropertyOp20
 70
     1
102
RTVSPropertyOp21
 70
     1
102
RTVSPropertyOp22
 70
     1
102
RTVSPropertyOp23
 70
     1
102
RTVSPropertyOp24
 70
     1
102
RTVSPropertyOp25
 70
     1
102
RTVSPropertyOp26
 70
     1
102
RTVSPropertyOp27
 70
     1
102
RTVSPropertyOp28
 70
     1
102
RTVSPropertyOp29
 70
     1
102
RTVSPropertyOp30
 70
     1
102
RTVSPropertyOp31
 70
     1
102
RTVSPropertyOp32
 70
     1
  0
XRECORD
  5
856A
102
{ACAD_REACTORS
330
8569
102
}
330
8569
100
AcDbXrecord
280
     1
102
RTVSPropertyOp0
 70
     1
102
RTVSPropertyOp1
 70
     1
102
RTVSPropertyOp2
 70
     1
102
RTVSPropertyOp3
 70
     1
102
RTVSPropertyOp4
 70
     1
102
RTVSPropertyOp5
 70
     1
102
RTVSPropertyOp6
 70
     1
102
RTVSPropertyOp7
 70
     1
102
RTVSPropertyOp8
 70
     1
102
RTVSPropertyOp9
 70
     1
102
RTVSPropertyOp10
 70
     1
102
RTVSPropertyOp11
 70
     1
102
RTVSPropertyOp12
 70
     1
102
RTVSPropertyOp13
 70
     1
102
RTVSPropertyOp14
 70
     1
102
RTVSPropertyOp15
 70
     1
102
RTVSPropertyOp16
 70
     1
102
RTVSPropertyOp17
 70
     1
102
RTVSPropertyOp18
 70
     1
102
RTVSPropertyOp19
 70
     1
102
RTVSPropertyOp20
 70
     1
102
RTVSPropertyOp21
 70
     1
102
RTVSPropertyOp22
 70
     1
102
RTVSPropertyOp23
 70
     1
102
RTVSPropertyOp24
 70
     1
102
RTVSPropertyOp25
 70
     1
102
RTVSPropertyOp26
 70
     1
102
RTVSPropertyOp27
 70
     1
102
RTVSPropertyOp28
 70
     1
102
RTVSPropertyOp29
 70
     1
102
RTVSPropertyOp30
 70
     1
102
RTVSPropertyOp31
 70
     1
102
RTVSPropertyOp32
 70
     1
  0
ENDSEC
  0
EOF
