  0
SECTION
  2
HEADER
  9
$ACADVER
  1
AC1021
  9
$ACADMAINTVER
 70
    25
  9
$DWGCODEPAGE
  3
UNDEFINED
  9
$INSBASE
 10
0.0
 20
0.0
 30
0.0
  9
$EXTMIN
 10
1.000000000000000E+20
 20
1.000000000000000E+20
 30
1.000000000000000E+20
  9
$EXTMAX
 10
-1.000000000000000E+20
 20
-1.000000000000000E+20
 30
-1.000000000000000E+20
  9
$LIMMIN
 10
0.0
 20
0.0
  9
$LIMMAX
 10
12.0
 20
9.0
  9
$ORTHOMODE
 70
     0
  9
$REGENMODE
 70
     1
  9
$FILLMODE
 70
     1
  9
$QTEXTMODE
 70
     0
  9
$MIRRTEXT
 70
     1
  9
$LTSCALE
 40
1.0
  9
$ATTMODE
 70
     1
  9
$TEXTSIZE
 40
0.2
  9
$TRACEWID
 40
0.05
  9
$TEXTSTYLE
  7
Standard
  9
$CLAYER
  8
0
  9
$CELTYPE
  6
ByLayer
  9
$CECOLOR
 62
   256
  9
$CELTSCALE
 40
1.0
  9
$DISPSILH
 70
     0
  9
$DIMSCALE
 40
1.0
  9
$DIMASZ
 40
0.18
  9
$DIMEXO
 40
0.0625
  9
$DIMDLI
 40
0.38
  9
$DIMRND
 40
0.0
  9
$DIMDLE
 40
0.0
  9
$DIMEXE
 40
0.18
  9
$DIMTP
 40
0.0
  9
$DIMTM
 40
0.0
  9
$DIMTXT
 40
0.18
  9
$DIMCEN
 40
0.09
  9
$DIMTSZ
 40
0.0
  9
$DIMTOL
 70
     0
  9
$DIMLIM
 70
     0
  9
$DIMTIH
 70
     1
  9
$DIMTOH
 70
     1
  9
$DIMSE1
 70
     0
  9
$DIMSE2
 70
     0
  9
$DIMTAD
 70
     0
  9
$DIMZIN
 70
     0
  9
$DIMBLK
  1

  9
$DIMASO
 70
     1
  9
$DIMSHO
 70
     1
  9
$DIMPOST
  1

  9
$DIMAPOST
  1

  9
$DIMALT
 70
     0
  9
$DIMALTD
 70
     2
  9
$DIMALTF
 40
25.4
  9
$DIMLFAC
 40
1.0
  9
$DIMTOFL
 70
     0
  9
$DIMTVP
 40
0.0
  9
$DIMTIX
 70
     0
  9
$DIMSOXD
 70
     0
  9
$DIMSAH
 70
     0
  9
$DIMBLK1
  1

  9
$DIMBLK2
  1

  9
$DIMSTYLE
  2
Standard
  9
$DIMCLRD
 70
     0
  9
$DIMCLRE
 70
     0
  9
$DIMCLRT
 70
     0
  9
$DIMTFAC
 40
1.0
  9
$DIMGAP
 40
0.09
  9
$DIMJUST
 70
     0
  9
$DIMSD1
 70
     0
  9
$DIMSD2
 70
     0
  9
$DIMTOLJ
 70
     1
  9
$DIMTZIN
 70
     0
  9
$DIMALTZ
 70
     0
  9
$DIMALTTZ
 70
     0
  9
$DIMUPT
 70
     0
  9
$DIMDEC
 70
     4
  9
$DIMTDEC
 70
     4
  9
$DIMALTU
 70
     2
  9
$DIMALTTD
 70
     2
  9
$DIMTXSTY
  7
Standard
  9
$DIMAUNIT
 70
     0
  9
$DIMADEC
 70
     0
  9
$DIMALTRND
 40
0.0
  9
$DIMAZIN
 70
     0
  9
$DIMDSEP
 70
    46
  9
$DIMATFIT
 70
     3
  9
$DIMFRAC
 70
     0
  9
$DIMLDRBLK
  1

  9
$DIMLUNIT
 70
     2
  9
$DIMLWD
 70
    -2
  9
$DIMLWE
 70
    -2
  9
$DIMTMOVE
 70
     0
  9
$DIMFXL
 40
1.0
  9
$DIMFXLON
 70
     0
  9
$DIMJOGANG
 40
0.7853981633974483
  9
$DIMTFILL
 70
     0
  9
$DIMTFILLCLR
 70
     0
  9
$DIMARCSYM
 70
     0
  9
$DIMLTYPE
  6

  9
$DIMLTEX1
  6

  9
$DIMLTEX2
  6

  9
$LUNITS
 70
     2
  9
$LUPREC
 70
     4
  9
$SKETCHINC
 40
0.1
  9
$FILLETRAD
 40
0.5
  9
$AUNITS
 70
     0
  9
$AUPREC
 70
     0
  9
$MENU
  1
.
  9
$ELEVATION
 40
0.0
  9
$PELEVATION
 40
0.0
  9
$THICKNESS
 40
0.0
  9
$LIMCHECK
 70
     0
  9
$CHAMFERA
 40
0.5
  9
$CHAMFERB
 40
0.5
  9
$CHAMFERC
 40
1.0
  9
$CHAMFERD
 40
0.0
  9
$SKPOLY
 70
     0
  9
$TDCREATE
 40
2459600.385150451
  9
$TDUCREATE
 40
2459600.343483796
  9
$TDUPDATE
 40
2459600.385150451
  9
$TDUUPDATE
 40
2459600.343483796
  9
$TDINDWG
 40
0.0000000116
  9
$TDUSRTIMER
 40
0.0000000116
  9
$USRTIMER
 70
     1
  9
$ANGBASE
 50
0.0
  9
$ANGDIR
 70
     0
  9
$PDMODE
 70
     0
  9
$PDSIZE
 40
0.0
  9
$PLINEWID
 40
0.0
  9
$SPLFRAME
 70
     0
  9
$SPLINETYPE
 70
     6
  9
$SPLINESEGS
 70
     8
  9
$HANDSEED
  5
1F9
  9
$SURFTAB1
 70
     6
  9
$SURFTAB2
 70
     6
  9
$SURFTYPE
 70
     6
  9
$SURFU
 70
     6
  9
$SURFV
 70
     6
  9
$UCSBASE
  2

  9
$UCSNAME
  2

  9
$UCSORG
 10
0.0
 20
0.0
 30
0.0
  9
$UCSXDIR
 10
1.0
 20
0.0
 30
0.0
  9
$UCSYDIR
 10
0.0
 20
1.0
 30
0.0
  9
$UCSORTHOREF
  2

  9
$UCSORTHOVIEW
 70
     0
  9
$UCSORGTOP
 10
0.0
 20
0.0
 30
0.0
  9
$UCSORGBOTTOM
 10
0.0
 20
0.0
 30
0.0
  9
$UCSORGLEFT
 10
0.0
 20
0.0
 30
0.0
  9
$UCSORGRIGHT
 10
0.0
 20
0.0
 30
0.0
  9
$UCSORGFRONT
 10
0.0
 20
0.0
 30
0.0
  9
$UCSORGBACK
 10
0.0
 20
0.0
 30
0.0
  9
$PUCSBASE
  2

  9
$PUCSNAME
  2

  9
$PUCSORG
 10
0.0
 20
0.0
 30
0.0
  9
$PUCSXDIR
 10
1.0
 20
0.0
 30
0.0
  9
$PUCSYDIR
 10
0.0
 20
1.0
 30
0.0
  9
$PUCSORTHOREF
  2

  9
$PUCSORTHOVIEW
 70
     0
  9
$PUCSORGTOP
 10
0.0
 20
0.0
 30
0.0
  9
$PUCSORGBOTTOM
 10
0.0
 20
0.0
 30
0.0
  9
$PUCSORGLEFT
 10
0.0
 20
0.0
 30
0.0
  9
$PUCSORGRIGHT
 10
0.0
 20
0.0
 30
0.0
  9
$PUCSORGFRONT
 10
0.0
 20
0.0
 30
0.0
  9
$PUCSORGBACK
 10
0.0
 20
0.0
 30
0.0
  9
$USERI1
 70
     0
  9
$USERI2
 70
     0
  9
$USERI3
 70
     0
  9
$USERI4
 70
     0
  9
$USERI5
 70
     0
  9
$USERR1
 40
0.0
  9
$USERR2
 40
0.0
  9
$USERR3
 40
0.0
  9
$USERR4
 40
0.0
  9
$USERR5
 40
0.0
  9
$WORLDVIEW
 70
     1
  9
$SHADEDGE
 70
     3
  9
$SHADEDIF
 70
    70
  9
$TILEMODE
 70
     1
  9
$MAXACTVP
 70
    64
  9
$PINSBASE
 10
0.0
 20
0.0
 30
0.0
  9
$PLIMCHECK
 70
     0
  9
$PEXTMIN
 10
1.000000000000000E+20
 20
1.000000000000000E+20
 30
1.000000000000000E+20
  9
$PEXTMAX
 10
-1.000000000000000E+20
 20
-1.000000000000000E+20
 30
-1.000000000000000E+20
  9
$PLIMMIN
 10
0.0
 20
0.0
  9
$PLIMMAX
 10
12.0
 20
9.0
  9
$UNITMODE
 70
     0
  9
$VISRETAIN
 70
     1
  9
$PLINEGEN
 70
     0
  9
$PSLTSCALE
 70
     1
  9
$TREEDEPTH
 70
  3020
  9
$CMLSTYLE
  2
Standard
  9
$CMLJUST
 70
     0
  9
$CMLSCALE
 40
1.0
  9
$PROXYGRAPHICS
 70
     1
  9
$MEASUREMENT
 70
     0
  9
$CELWEIGHT
370
    -1
  9
$ENDCAPS
280
     0
  9
$JOINSTYLE
280
     0
  9
$LWDISPLAY
290
     1
  9
$INSUNITS
 70
     1
  9
$HYPERLINKBASE
  1

  9
$STYLESHEET
  1

  9
$XEDIT
290
     1
  9
$CEPSNTYPE
380
     0
  9
$PSTYLEMODE
290
     1
  9
$FINGERPRINTGUID
  2
{471A2E71-95F5-1796-9AD0-0CB6959394F9}
  9
$VERSIONGUID
  2
{FAEB1C32-E019-11D5-929B-00C0DF256EC4}
  9
$EXTNAMES
290
     1
  9
$PSVPSCALE
 40
0.0
  9
$OLESTARTUP
290
     0
  9
$SORTENTS
280
   127
  9
$INDEXCTL
280
     0
  9
$HIDETEXT
280
     1
  9
$XCLIPFRAME
290
     0
  9
$HALOGAP
280
     0
  9
$OBSCOLOR
 70
   257
  9
$OBSLTYPE
280
     0
  9
$INTERSECTIONDISPLAY
280
     0
  9
$INTERSECTIONCOLOR
 70
   257
  9
$DIMASSOC
280
     2
  9
$PROJECTNAME
  1

  9
$CAMERADISPLAY
290
     0
  9
$LENSLENGTH
 40
50.0
  9
$CAMERAHEIGHT
 40
0.0
  9
$STEPSPERSEC
 40
2.0
  9
$STEPSIZE
 40
6.0
  9
$3DDWFPREC
 40
2.0
  9
$PSOLWIDTH
 40
0.25
  9
$PSOLHEIGHT
 40
4.0
  9
$LOFTANG1
 40
1.570796326794897
  9
$LOFTANG2
 40
1.570796326794897
  9
$LOFTMAG1
 40
0.0
  9
$LOFTMAG2
 40
0.0
  9
$LOFTPARAM
 70
     7
  9
$LOFTNORMALS
280
     1
  9
$LATITUDE
 40
37.795
  9
$LONGITUDE
 40
-122.394
  9
$NORTHDIRECTION
 40
0.0
  9
$TIMEZONE
 70
 -8000
  9
$LIGHTGLYPHDISPLAY
280
     1
  9
$TILEMODELIGHTSYNCH
280
     1
  9
$CMATERIAL
347
3C
  9
$SOLIDHIST
280
     1
  9
$SHOWHIST
280
     1
  9
$DWFFRAME
280
     2
  9
$DGNFRAME
280
     2
  9
$REALWORLDSCALE
290
     1
  9
$INTERFERECOLOR
 62
   256
  9
$CSHADOW
280
     0
  9
$SHADOWPLANELOCATION
 40
0.0
  0
ENDSEC
  0
SECTION
  2
CLASSES
  0
CLASS
  1
ACDBDICTIONARYWDFLT
  2
AcDbDictionaryWithDefault
  3
ObjectDBX Classes
 90
        0
 91
        4
280
     0
281
     0
  0
CLASS
  1
VISUALSTYLE
  2
AcDbVisualStyle
  3
ObjectDBX Classes
 90
     4095
 91
        4
280
     0
281
     0
  0
CLASS
  1
MATERIAL
  2
AcDbMaterial
  3
ObjectDBX Classes
 90
     1153
 91
        4
280
     0
281
     0
  0
CLASS
  1
SUN
  2
AcDbSun
  3
SCENEOE
 90
     1024
 91
        4
280
     0
281
     0
  0
ENDSEC
  0
SECTION
  2
TABLES
  0
TABLE
  2
VPORT
  5
8
330
0
100
AcDbSymbolTable
 70
     1
  0
VPORT
  5
29
330
8
100
AcDbSymbolTableRecord
100
AcDbViewportTableRecord
  2
*Active
 70
     0
 10
0.0
 20
0.0
 11
1.0
 21
1.0
 12
0.0
 22
0.0
 13
0.0
 23
0.0
 14
0.5
 24
0.5
 15
0.5
 25
0.5
 16
0.0
 26
0.0
 36
1.0
 17
105.0007777515277
 27
148.5000416295417
 37
0.0
 40
297.0000832590835
 41
0.7070757462376325
 42
50.0
 43
0.0
 44
0.0
 50
0.0
 51
0.0
 71
     0
 72
   100
 73
     1
 74
     3
 75
     0
 76
     0
 77
     0
 78
     0
281
     0
 65
     1
110
0.0
120
0.0
130
0.0
111
1.0
121
0.0
131
0.0
112
0.0
122
1.0
132
0.0
 79
     0
146
0.0
 60
     3
 61
     5
292
     1
282
     1
141
0.0
142
0.0
 63
   250
361
3F
  0
ENDTAB
  0
TABLE
  2
LTYPE
  5
5
330
0
100
AcDbSymbolTable
 70
    21
  0
LTYPE
  5
14
330
5
100
AcDbSymbolTableRecord
100
AcDbLinetypeTableRecord
  2
ByBlock
 70
     0
  3

 72
    65
 73
     0
 40
0.0
  0
LTYPE
  5
15
330
5
100
AcDbSymbolTableRecord
100
AcDbLinetypeTableRecord
  2
ByLayer
 70
     0
  3

 72
    65
 73
     0
 40
0.0
  0
LTYPE
  5
16
330
5
100
AcDbSymbolTableRecord
100
AcDbLinetypeTableRecord
  2
Continuous
 70
     0
  3
Solid line
 72
    65
 73
     0
 40
0.0
  0
LTYPE
  5
4A
330
5
100
AcDbSymbolTableRecord
100
AcDbLinetypeTableRecord
  2
AI-Linetype-1
 70
     0
  3
Adobe Illustrator Linetype No. 1
 72
    65
 73
     2
 40
7.270862246391072
 49
3.635375106750391
 74
     0
 49
-3.635487139640682
 74
     0
  0
LTYPE
  5
50
330
5
100
AcDbSymbolTableRecord
100
AcDbLinetypeTableRecord
  2
AI-Linetype-2
 70
     0
  3
Adobe Illustrator Linetype No. 2
 72
    65
 73
     2
 40
7.270862246391072
 49
3.635375106750391
 74
     0
 49
-3.635487139640682
 74
     0
  0
LTYPE
  5
56
330
5
100
AcDbSymbolTableRecord
100
AcDbLinetypeTableRecord
  2
AI-Linetype-3
 70
     0
  3
Adobe Illustrator Linetype No. 3
 72
    65
 73
     2
 40
7.270862246391072
 49
3.635375106750391
 74
     0
 49
-3.635487139640682
 74
     0
  0
LTYPE
  5
5C
330
5
100
AcDbSymbolTableRecord
100
AcDbLinetypeTableRecord
  2
AI-Linetype-4
 70
     0
  3
Adobe Illustrator Linetype No. 4
 72
    65
 73
     2
 40
7.270862246391072
 49
3.635375106750391
 74
     0
 49
-3.635487139640682
 74
     0
  0
LTYPE
  5
62
330
5
100
AcDbSymbolTableRecord
100
AcDbLinetypeTableRecord
  2
AI-Linetype-5
 70
     0
  3
Adobe Illustrator Linetype No. 5
 72
    65
 73
     2
 40
7.270862246391072
 49
3.635375106750391
 74
     0
 49
-3.635487139640682
 74
     0
  0
LTYPE
  5
68
330
5
100
AcDbSymbolTableRecord
100
AcDbLinetypeTableRecord
  2
AI-Linetype-6
 70
     0
  3
Adobe Illustrator Linetype No. 6
 72
    65
 73
     2
 40
7.270862246391072
 49
3.635375106750391
 74
     0
 49
-3.635487139640682
 74
     0
  0
LTYPE
  5
6E
330
5
100
AcDbSymbolTableRecord
100
AcDbLinetypeTableRecord
  2
AI-Linetype-7
 70
     0
  3
Adobe Illustrator Linetype No. 7
 72
    65
 73
     2
 40
7.270862246391072
 49
3.635375106750391
 74
     0
 49
-3.635487139640682
 74
     0
  0
LTYPE
  5
74
330
5
100
AcDbSymbolTableRecord
100
AcDbLinetypeTableRecord
  2
AI-Linetype-8
 70
     0
  3
Adobe Illustrator Linetype No. 8
 72
    65
 73
     2
 40
7.270862246391072
 49
3.635375106750391
 74
     0
 49
-3.635487139640682
 74
     0
  0
LTYPE
  5
7A
330
5
100
AcDbSymbolTableRecord
100
AcDbLinetypeTableRecord
  2
AI-Linetype-9
 70
     0
  3
Adobe Illustrator Linetype No. 9
 72
    65
 73
     2
 40
7.270862246391072
 49
3.635375106750391
 74
     0
 49
-3.635487139640682
 74
     0
  0
LTYPE
  5
80
330
5
100
AcDbSymbolTableRecord
100
AcDbLinetypeTableRecord
  2
AI-Linetype-10
 70
     0
  3
Adobe Illustrator Linetype No. 10
 72
    65
 73
     2
 40
7.270862246391072
 49
3.635375106750391
 74
     0
 49
-3.635487139640682
 74
     0
  0
LTYPE
  5
86
330
5
100
AcDbSymbolTableRecord
100
AcDbLinetypeTableRecord
  2
AI-Linetype-11
 70
     0
  3
Adobe Illustrator Linetype No. 11
 72
    65
 73
     2
 40
7.270862246391072
 49
3.635375106750391
 74
     0
 49
-3.635487139640682
 74
     0
  0
LTYPE
  5
8C
330
5
100
AcDbSymbolTableRecord
100
AcDbLinetypeTableRecord
  2
AI-Linetype-12
 70
     0
  3
Adobe Illustrator Linetype No. 12
 72
    65
 73
     2
 40
7.270862246391072
 49
3.635375106750391
 74
     0
 49
-3.635487139640682
 74
     0
  0
LTYPE
  5
92
330
5
100
AcDbSymbolTableRecord
100
AcDbLinetypeTableRecord
  2
AI-Linetype-13
 70
     0
  3
Adobe Illustrator Linetype No. 13
 72
    65
 73
     2
 40
7.270862246391072
 49
3.635375106750391
 74
     0
 49
-3.635487139640682
 74
     0
  0
LTYPE
  5
98
330
5
100
AcDbSymbolTableRecord
100
AcDbLinetypeTableRecord
  2
AI-Linetype-14
 70
     0
  3
Adobe Illustrator Linetype No. 14
 72
    65
 73
     2
 40
7.270862246391072
 49
3.635375106750391
 74
     0
 49
-3.635487139640682
 74
     0
  0
LTYPE
  5
9E
330
5
100
AcDbSymbolTableRecord
100
AcDbLinetypeTableRecord
  2
AI-Linetype-15
 70
     0
  3
Adobe Illustrator Linetype No. 15
 72
    65
 73
     2
 40
7.270862246391072
 49
3.635375106750391
 74
     0
 49
-3.635487139640682
 74
     0
  0
LTYPE
  5
A4
330
5
100
AcDbSymbolTableRecord
100
AcDbLinetypeTableRecord
  2
AI-Linetype-16
 70
     0
  3
Adobe Illustrator Linetype No. 16
 72
    65
 73
     2
 40
7.270862246391072
 49
3.635375106750391
 74
     0
 49
-3.635487139640682
 74
     0
  0
LTYPE
  5
D2
330
5
100
AcDbSymbolTableRecord
100
AcDbLinetypeTableRecord
  2
AI-Linetype-17
 70
     0
  3
Adobe Illustrator Linetype No. 17
 72
    65
 73
     2
 40
7.148194978834289
 49
3.574097489417145
 74
     0
 49
-3.574097489417145
 74
     0
  0
LTYPE
  5
DB
330
5
100
AcDbSymbolTableRecord
100
AcDbLinetypeTableRecord
  2
AI-Linetype-18
 70
     0
  3
Adobe Illustrator Linetype No. 18
 72
    65
 73
     4
 40
32.1670348563839
 49
21.44474238813247
 74
     0
 49
-3.574097489417145
 74
     0
 49
3.574097489417145
 74
     0
 49
-3.574097489417145
 74
     0
  0
LTYPE
  5
F4
330
5
100
AcDbSymbolTableRecord
100
AcDbLinetypeTableRecord
  2
AI-Linetype-19
 70
     0
  3
Adobe Illustrator Linetype No. 19
 72
    65
 73
     2
 40
7.148180175689626
 49
3.574090087844813
 74
     0
 49
-3.574090087844813
 74
     0
  0
LTYPE
  5
FD
330
5
100
AcDbSymbolTableRecord
100
AcDbLinetypeTableRecord
  2
AI-Linetype-20
 70
     0
  3
Adobe Illustrator Linetype No. 20
 72
    65
 73
     4
 40
32.16696958797334
 49
21.4446993244389
 74
     0
 49
-3.574090087844813
 74
     0
 49
3.574090087844813
 74
     0
 49
-3.574090087844813
 74
     0
  0
ENDTAB
  0
TABLE
  2
LAYER
  5
2
330
0
100
AcDbSymbolTable
 70
     1
  0
LAYER
  5
10
330
2
100
AcDbSymbolTableRecord
100
AcDbLayerTableRecord
  2
0
 70
     0
 62
     7
  6
Continuous
370
    -3
390
F
347
3E
  0
ENDTAB
  0
TABLE
  2
STYLE
  5
3
330
0
100
AcDbSymbolTable
 70
     1
  0
STYLE
  5
11
330
3
100
AcDbSymbolTableRecord
100
AcDbTextStyleTableRecord
  2
Standard
 70
     0
 40
0.0
 41
1.0
 50
0.0
 71
     0
 42
0.2
  3
txt
  4

  0
ENDTAB
  0
TABLE
  2
VIEW
  5
6
330
0
100
AcDbSymbolTable
 70
     0
  0
ENDTAB
  0
TABLE
  2
UCS
  5
7
330
0
100
AcDbSymbolTable
 70
     0
  0
ENDTAB
  0
TABLE
  2
APPID
  5
9
330
0
100
AcDbSymbolTable
 70
     1
  0
APPID
  5
12
330
9
100
AcDbSymbolTableRecord
100
AcDbRegAppTableRecord
  2
ACAD
 70
     0
  0
ENDTAB
  0
TABLE
  2
DIMSTYLE
  5
A
330
0
100
AcDbSymbolTable
 70
     1
100
AcDbDimStyleTable
  0
DIMSTYLE
105
27
330
A
100
AcDbSymbolTableRecord
100
AcDbDimStyleTableRecord
  2
Standard
 70
     0
178
     0
340
11
  0
ENDTAB
  0
TABLE
  2
BLOCK_RECORD
  5
1
330
0
100
AcDbSymbolTable
 70
    44
  0
BLOCK_RECORD
  5
1F
330
1
100
AcDbSymbolTableRecord
100
AcDbBlockTableRecord
  2
*Model_Space
340
22
 70
     0
280
     1
281
     0
  0
BLOCK_RECORD
  5
1B
330
1
100
AcDbSymbolTableRecord
100
AcDbBlockTableRecord
  2
*Paper_Space
340
1E
 70
     0
280
     1
281
     0
  0
BLOCK_RECORD
  5
23
330
1
100
AcDbSymbolTableRecord
100
AcDbBlockTableRecord
  2
*Paper_Space0
340
26
 70
     0
280
     1
281
     0
  0
BLOCK_RECORD
  5
40
330
1
100
AcDbSymbolTableRecord
100
AcDbBlockTableRecord
  2
block 2
340
0
102
{BLKREFS
331
41
102
}
 70
     0
280
     1
281
     0
  0
BLOCK_RECORD
  5
45
330
1
100
AcDbSymbolTableRecord
100
AcDbBlockTableRecord
  2
block 3
340
0
102
{BLKREFS
331
46
102
}
 70
     0
280
     1
281
     0
  0
BLOCK_RECORD
  5
4B
330
1
100
AcDbSymbolTableRecord
100
AcDbBlockTableRecord
  2
block 4
340
0
102
{BLKREFS
331
4C
102
}
 70
     0
280
     1
281
     0
  0
BLOCK_RECORD
  5
51
330
1
100
AcDbSymbolTableRecord
100
AcDbBlockTableRecord
  2
block 5
340
0
102
{BLKREFS
331
52
102
}
 70
     0
280
     1
281
     0
  0
BLOCK_RECORD
  5
57
330
1
100
AcDbSymbolTableRecord
100
AcDbBlockTableRecord
  2
block 6
340
0
102
{BLKREFS
331
58
102
}
 70
     0
280
     1
281
     0
  0
BLOCK_RECORD
  5
5D
330
1
100
AcDbSymbolTableRecord
100
AcDbBlockTableRecord
  2
block 7
340
0
102
{BLKREFS
331
5E
102
}
 70
     0
280
     1
281
     0
  0
BLOCK_RECORD
  5
63
330
1
100
AcDbSymbolTableRecord
100
AcDbBlockTableRecord
  2
block 8
340
0
102
{BLKREFS
331
64
102
}
 70
     0
280
     1
281
     0
  0
BLOCK_RECORD
  5
69
330
1
100
AcDbSymbolTableRecord
100
AcDbBlockTableRecord
  2
block 9
340
0
102
{BLKREFS
331
6A
102
}
 70
     0
280
     1
281
     0
  0
BLOCK_RECORD
  5
6F
330
1
100
AcDbSymbolTableRecord
100
AcDbBlockTableRecord
  2
block 10
340
0
102
{BLKREFS
331
70
102
}
 70
     0
280
     1
281
     0
  0
BLOCK_RECORD
  5
75
330
1
100
AcDbSymbolTableRecord
100
AcDbBlockTableRecord
  2
block 11
340
0
102
{BLKREFS
331
76
102
}
 70
     0
280
     1
281
     0
  0
BLOCK_RECORD
  5
7B
330
1
100
AcDbSymbolTableRecord
100
AcDbBlockTableRecord
  2
block 12
340
0
102
{BLKREFS
331
7C
102
}
 70
     0
280
     1
281
     0
  0
BLOCK_RECORD
  5
81
330
1
100
AcDbSymbolTableRecord
100
AcDbBlockTableRecord
  2
block 13
340
0
102
{BLKREFS
331
82
102
}
 70
     0
280
     1
281
     0
  0
BLOCK_RECORD
  5
87
330
1
100
AcDbSymbolTableRecord
100
AcDbBlockTableRecord
  2
block 14
340
0
102
{BLKREFS
331
88
102
}
 70
     0
280
     1
281
     0
  0
BLOCK_RECORD
  5
8D
330
1
100
AcDbSymbolTableRecord
100
AcDbBlockTableRecord
  2
block 15
340
0
102
{BLKREFS
331
8E
102
}
 70
     0
280
     1
281
     0
  0
BLOCK_RECORD
  5
93
330
1
100
AcDbSymbolTableRecord
100
AcDbBlockTableRecord
  2
block 16
340
0
102
{BLKREFS
331
94
102
}
 70
     0
280
     1
281
     0
  0
BLOCK_RECORD
  5
99
330
1
100
AcDbSymbolTableRecord
100
AcDbBlockTableRecord
  2
block 17
340
0
102
{BLKREFS
331
9A
102
}
 70
     0
280
     1
281
     0
  0
BLOCK_RECORD
  5
9F
330
1
100
AcDbSymbolTableRecord
100
AcDbBlockTableRecord
  2
block 18
340
0
102
{BLKREFS
331
A0
102
}
 70
     0
280
     1
281
     0
  0
BLOCK_RECORD
  5
A5
330
1
100
AcDbSymbolTableRecord
100
AcDbBlockTableRecord
  2
block 19
340
0
102
{BLKREFS
331
A6
102
}
 70
     0
280
     1
281
     0
  0
BLOCK_RECORD
  5
AA
330
1
100
AcDbSymbolTableRecord
100
AcDbBlockTableRecord
  2
block 20
340
0
102
{BLKREFS
331
AB
102
}
 70
     0
280
     1
281
     0
  0
BLOCK_RECORD
  5
AF
330
1
100
AcDbSymbolTableRecord
100
AcDbBlockTableRecord
  2
block 21
340
0
102
{BLKREFS
331
B0
102
}
 70
     0
280
     1
281
     0
  0
BLOCK_RECORD
  5
B4
330
1
100
AcDbSymbolTableRecord
100
AcDbBlockTableRecord
  2
block 22
340
0
102
{BLKREFS
331
B5
102
}
 70
     0
280
     1
281
     0
  0
BLOCK_RECORD
  5
B9
330
1
100
AcDbSymbolTableRecord
100
AcDbBlockTableRecord
  2
block 23
340
0
102
{BLKREFS
331
BA
102
}
 70
     0
280
     1
281
     0
  0
BLOCK_RECORD
  5
BE
330
1
100
AcDbSymbolTableRecord
100
AcDbBlockTableRecord
  2
block 24
340
0
102
{BLKREFS
331
BF
102
}
 70
     0
280
     1
281
     0
  0
BLOCK_RECORD
  5
C3
330
1
100
AcDbSymbolTableRecord
100
AcDbBlockTableRecord
  2
block 25
340
0
102
{BLKREFS
331
C4
102
}
 70
     0
280
     1
281
     0
  0
BLOCK_RECORD
  5
CB
330
1
100
AcDbSymbolTableRecord
100
AcDbBlockTableRecord
  2
block 26
340
0
102
{BLKREFS
331
CC
102
}
 70
     0
280
     1
281
     0
  0
BLOCK_RECORD
  5
D4
330
1
100
AcDbSymbolTableRecord
100
AcDbBlockTableRecord
  2
block 27
340
0
102
{BLKREFS
331
D5
102
}
 70
     0
280
     1
281
     0
  0
BLOCK_RECORD
  5
DD
330
1
100
AcDbSymbolTableRecord
100
AcDbBlockTableRecord
  2
block 28
340
0
102
{BLKREFS
331
DE
102
}
 70
     0
280
     1
281
     0
  0
BLOCK_RECORD
  5
E5
330
1
100
AcDbSymbolTableRecord
100
AcDbBlockTableRecord
  2
block 29
340
0
102
{BLKREFS
331
E6
102
}
 70
     0
280
     1
281
     0
  0
BLOCK_RECORD
  5
ED
330
1
100
AcDbSymbolTableRecord
100
AcDbBlockTableRecord
  2
block 30
340
0
102
{BLKREFS
331
EE
102
}
 70
     0
280
     1
281
     0
  0
BLOCK_RECORD
  5
F6
330
1
100
AcDbSymbolTableRecord
100
AcDbBlockTableRecord
  2
block 31
340
0
102
{BLKREFS
331
F7
102
}
 70
     0
280
     1
281
     0
  0
BLOCK_RECORD
  5
FF
330
1
100
AcDbSymbolTableRecord
100
AcDbBlockTableRecord
  2
block 32
340
0
102
{BLKREFS
331
100
102
}
 70
     0
280
     1
281
     0
  0
BLOCK_RECORD
  5
107
330
1
100
AcDbSymbolTableRecord
100
AcDbBlockTableRecord
  2
block 33
340
0
102
{BLKREFS
331
108
102
}
 70
     0
280
     1
281
     0
  0
BLOCK_RECORD
  5
12C
330
1
100
AcDbSymbolTableRecord
100
AcDbBlockTableRecord
  2
block 34
340
0
102
{BLKREFS
331
12D
102
}
 70
     0
280
     1
281
     0
  0
BLOCK_RECORD
  5
151
330
1
100
AcDbSymbolTableRecord
100
AcDbBlockTableRecord
  2
block 35
340
0
102
{BLKREFS
331
152
102
}
 70
     0
280
     1
281
     0
  0
BLOCK_RECORD
  5
156
330
1
100
AcDbSymbolTableRecord
100
AcDbBlockTableRecord
  2
block 36
340
0
102
{BLKREFS
331
157
102
}
 70
     0
280
     1
281
     0
  0
BLOCK_RECORD
  5
15B
330
1
100
AcDbSymbolTableRecord
100
AcDbBlockTableRecord
  2
block 37
340
0
102
{BLKREFS
331
15C
102
}
 70
     0
280
     1
281
     0
  0
BLOCK_RECORD
  5
160
330
1
100
AcDbSymbolTableRecord
100
AcDbBlockTableRecord
  2
block 38
340
0
102
{BLKREFS
331
161
102
}
 70
     0
280
     1
281
     0
  0
BLOCK_RECORD
  5
165
330
1
100
AcDbSymbolTableRecord
100
AcDbBlockTableRecord
  2
block 39
340
0
102
{BLKREFS
331
166
102
}
 70
     0
280
     1
281
     0
  0
BLOCK_RECORD
  5
17F
330
1
100
AcDbSymbolTableRecord
100
AcDbBlockTableRecord
  2
block 40
340
0
102
{BLKREFS
331
180
102
}
 70
     0
280
     1
281
     0
  0
BLOCK_RECORD
  5
199
330
1
100
AcDbSymbolTableRecord
100
AcDbBlockTableRecord
  2
block 41
340
0
102
{BLKREFS
331
19A
102
}
 70
     0
280
     1
281
     0
  0
BLOCK_RECORD
  5
19E
330
1
100
AcDbSymbolTableRecord
100
AcDbBlockTableRecord
  2
block 42
340
0
102
{BLKREFS
331
19F
102
}
 70
     0
280
     1
281
     0
  0
BLOCK_RECORD
  5
1B8
330
1
100
AcDbSymbolTableRecord
100
AcDbBlockTableRecord
  2
block 43
340
0
102
{BLKREFS
331
1B9
102
}
 70
     0
280
     1
281
     0
  0
BLOCK_RECORD
  5
1D2
330
1
100
AcDbSymbolTableRecord
100
AcDbBlockTableRecord
  2
block 44
340
0
102
{BLKREFS
331
1D3
102
}
 70
     0
280
     1
281
     0
  0
ENDTAB
  0
ENDSEC
  0
SECTION
  2
BLOCKS
  0
BLOCK
  5
20
330
1F
100
AcDbEntity
  8
0
100
AcDbBlockBegin
  2
*Model_Space
 70
     0
 10
0.0
 20
0.0
 30
0.0
  3
*Model_Space
  1

  0
ENDBLK
  5
21
330
1F
100
AcDbEntity
  8
0
100
AcDbBlockEnd
  0
BLOCK
  5
1C
330
1B
100
AcDbEntity
 67
     1
  8
0
100
AcDbBlockBegin
  2
*Paper_Space
 70
     0
 10
0.0
 20
0.0
 30
0.0
  3
*Paper_Space
  1

  0
ENDBLK
  5
1D
330
1B
100
AcDbEntity
 67
     1
  8
0
100
AcDbBlockEnd
  0
BLOCK
  5
24
330
23
100
AcDbEntity
  8
0
100
AcDbBlockBegin
  2
*Paper_Space0
 70
     0
 10
0.0
 20
0.0
 30
0.0
  3
*Paper_Space0
  1

  0
ENDBLK
  5
25
330
23
100
AcDbEntity
  8
0
100
AcDbBlockEnd
  0
BLOCK
  5
42
330
40
100
AcDbEntity
  8
0
100
AcDbBlockBegin
  2
block 2
 70
     0
 10
0.0
 20
0.0
 30
0.0
  3
block 2
  1

  0
SPLINE
  5
44
330
40
100
AcDbEntity
  8
0
 62
   250
370
    25
100
AcDbSpline
210
0.0
220
0.0
230
1.0
 70
    11
 71
     3
 72
    29
 73
    25
 74
     0
 42
0.0000000001
 43
0.0000000001
 12
1.0
 22
0.0
 32
0.0
 13
1.0
 23
0.0
 33
0.0
 40
0.0
 40
0.0
 40
0.0
 40
0.0
 40
1.0
 40
1.0
 40
1.0
 40
2.0
 40
2.0
 40
2.0
 40
3.0
 40
3.0
 40
3.0
 40
4.0
 40
4.0
 40
4.0
 40
5.0
 40
5.0
 40
5.0
 40
6.0
 40
6.0
 40
6.0
 40
7.0
 40
7.0
 40
7.0
 40
8.0
 40
8.0
 40
8.0
 40
8.0
 10
-374.4340285478771
 20
162.1785159790388
 30
0.0
 10
-372.1366399171033
 20
213.7665340032942
 30
0.0
 10
-374.5777301330704
 20
362.256428615726
 30
0.0
 10
-109.6197386726926
 20
369.8482090443898
 30
0.0
 10
155.3382527876855
 20
377.4399894730543
 30
0.0
 10
299.4956638543032
 20
379.3557014585501
 30
0.0
 10
403.0902760073185
 20
365.9380134155357
 30
0.0
 10
506.6848881603345
 20
352.5203253725213
 30
0.0
 10
688.0836110937993
 20
357.361684063856
 30
0.0
 10
702.1027112870447
 20
242.0168700799496
 30
0.0
 10
716.6265368457399
 20
122.5193321274296
 30
0.0
 10
708.5793235805531
 20
37.83011781447686
 30
0.0
 10
680.7953887984679
 20
3.877808304749537
 30
0.0
 10
656.6026490718767
 20
-25.68601674477095
 30
0.0
 10
583.0783529079954
 20
-53.25393338853876
 30
0.0
 10
440.4835721434122
 20
-65.73366789221696
 30
0.0
 10
287.7353019027816
 20
-79.10202435154491
 30
0.0
 10
67.12761365013186
 20
-84.94869675310363
 30
0.0
 10
-70.39157857578796
 20
-76.38679164280677
 30
0.0
 10
-172.7452646458446
 20
-70.01428076896583
 30
0.0
 10
-312.3500089039136
 20
-52.86405529686927
 30
0.0
 10
-345.5135908147196
 20
18.38643932599019
 30
0.0
 10
-374.8015901918915
 20
81.31041562473509
 30
0.0
 10
-376.483406348814
 20
116.1595980137272
 30
0.0
 10
-374.4340285478771
 20
162.1785159790388
 30
0.0
  0
ENDBLK
  5
43
330
40
100
AcDbEntity
  8
0
100
AcDbBlockEnd
  0
BLOCK
  5
47
330
45
100
AcDbEntity
  8
0
100
AcDbBlockBegin
  2
block 3
 70
     0
 10
0.0
 20
0.0
 30
0.0
  3
block 3
  1

  0
SPLINE
  5
49
330
45
100
AcDbEntity
  8
0
  6
AI-Linetype-1
 62
     6
370
    25
100
AcDbSpline
210
0.0
220
0.0
230
1.0
 70
     8
 71
     3
 72
    11
 73
     7
 74
     0
 42
0.0000000001
 43
0.0000000001
 12
1.0
 22
0.0
 32
0.0
 13
1.0
 23
0.0
 33
0.0
 40
0.0
 40
0.0
 40
0.0
 40
0.0
 40
1.0
 40
1.0
 40
1.0
 40
2.0
 40
2.0
 40
2.0
 40
2.0
 10
520.3207382884966
 20
346.3496501618063
 30
0.0
 10
523.4452218470824
 20
333.4817227659894
 30
0.0
 10
535.6944829157587
 20
324.979669070816
 30
0.0
 10
548.8425163120562
 20
326.5530233157255
 30
0.0
 10
561.9905497083538
 20
328.1264128384183
 30
0.0
 10
571.887840325739
 20
339.2786753789227
 30
0.0
 10
571.8878403245583
 20
352.5205120920479
 30
0.0
  0
ENDBLK
  5
48
330
45
100
AcDbEntity
  8
0
100
AcDbBlockEnd
  0
BLOCK
  5
4D
330
4B
100
AcDbEntity
  8
0
100
AcDbBlockBegin
  2
block 4
 70
     0
 10
0.0
 20
0.0
 30
0.0
  3
block 4
  1

  0
SPLINE
  5
4F
330
4B
100
AcDbEntity
  8
0
  6
AI-Linetype-2
 62
     6
370
    25
100
AcDbSpline
210
0.0
220
0.0
230
1.0
 70
     8
 71
     3
 72
    11
 73
     7
 74
     0
 42
0.0000000001
 43
0.0000000001
 12
1.0
 22
0.0
 32
0.0
 13
1.0
 23
0.0
 33
0.0
 40
0.0
 40
0.0
 40
0.0
 40
0.0
 40
1.0
 40
1.0
 40
1.0
 40
2.0
 40
2.0
 40
2.0
 40
2.0
 10
571.3396939787091
 20
357.8468589558128
 30
0.0
 10
568.6091575329095
 20
370.9730550666523
 30
0.0
 10
556.3945745345616
 20
379.9083553248886
 30
0.0
 10
543.0578402242705
 20
378.5358728274061
 30
0.0
 10
529.721070636177
 20
377.1633903299236
 30
0.0
 10
519.5823035267307
 20
365.9276958113986
 30
0.0
 10
519.5823035279371
 20
352.5205120873507
 30
0.0
  0
ENDBLK
  5
4E
330
4B
100
AcDbEntity
  8
0
100
AcDbBlockEnd
  0
BLOCK
  5
53
330
51
100
AcDbEntity
  8
0
100
AcDbBlockBegin
  2
block 5
 70
     0
 10
0.0
 20
0.0
 30
0.0
  3
block 5
  1

  0
SPLINE
  5
55
330
51
100
AcDbEntity
  8
0
  6
AI-Linetype-3
 62
     6
370
    25
100
AcDbSpline
210
0.0
220
0.0
230
1.0
 70
     8
 71
     3
 72
    11
 73
     7
 74
     0
 42
0.0000000001
 43
0.0000000001
 12
1.0
 22
0.0
 32
0.0
 13
1.0
 23
0.0
 33
0.0
 40
0.0
 40
0.0
 40
0.0
 40
0.0
 40
1.0
 40
1.0
 40
1.0
 40
2.0
 40
2.0
 40
2.0
 40
2.0
 10
-183.8313288706395
 20
358.6909713716014
 30
0.0
 10
-186.9558124292318
 20
371.5588987674375
 30
0.0
 10
-199.205073497902
 20
380.0609877403949
 30
0.0
 10
-212.3531068941992
 20
378.4875982176893
 30
0.0
 10
-225.5011050127195
 20
376.9142439727862
 30
0.0
 10
-235.3983956301048
 20
365.761946154485
 30
0.0
 10
-235.3983956289177
 20
352.5201094413656
 30
0.0
  0
ENDBLK
  5
54
330
51
100
AcDbEntity
  8
0
100
AcDbBlockEnd
  0
BLOCK
  5
59
330
57
100
AcDbEntity
  8
0
100
AcDbBlockBegin
  2
block 6
 70
     0
 10
0.0
 20
0.0
 30
0.0
  3
block 6
  1

  0
SPLINE
  5
5B
330
57
100
AcDbEntity
  8
0
  6
AI-Linetype-4
 62
     6
370
    25
100
AcDbSpline
210
0.0
220
0.0
230
1.0
 70
     8
 71
     3
 72
    11
 73
     7
 74
     0
 42
0.0000000001
 43
0.0000000001
 12
1.0
 22
0.0
 32
0.0
 13
1.0
 23
0.0
 33
0.0
 40
0.0
 40
0.0
 40
0.0
 40
0.0
 40
1.0
 40
1.0
 40
1.0
 40
2.0
 40
2.0
 40
2.0
 40
2.0
 10
-234.8502845608645
 20
347.1937978553783
 30
0.0
 10
-232.1197481150394
 20
334.067601744558
 30
0.0
 10
-219.9051651166974
 20
325.1322662085197
 30
0.0
 10
-206.5684308064004
 20
326.5047487060086
 30
0.0
 10
-193.2316612183328
 20
327.8772312034911
 30
0.0
 10
-183.0928941088673
 20
339.1129257220156
 30
0.0
 10
-183.0928941100736
 20
352.5201094460629
 30
0.0
  0
ENDBLK
  5
5A
330
57
100
AcDbEntity
  8
0
100
AcDbBlockEnd
  0
BLOCK
  5
5F
330
5D
100
AcDbEntity
  8
0
100
AcDbBlockBegin
  2
block 7
 70
     0
 10
0.0
 20
0.0
 30
0.0
  3
block 7
  1

  0
SPLINE
  5
61
330
5D
100
AcDbEntity
  8
0
  6
AI-Linetype-5
 62
     6
370
    25
100
AcDbSpline
210
0.0
220
0.0
230
1.0
 70
     8
 71
     3
 72
    11
 73
     7
 74
     0
 42
0.0000000001
 43
0.0000000001
 12
1.0
 22
0.0
 32
0.0
 13
1.0
 23
0.0
 33
0.0
 40
0.0
 40
0.0
 40
0.0
 40
0.0
 40
1.0
 40
1.0
 40
1.0
 40
2.0
 40
2.0
 40
2.0
 40
2.0
 10
510.6755427780424
 20
344.0076986637612
 30
0.0
 10
514.9858187882563
 20
326.2561606933294
 30
0.0
 10
531.8838815660714
 20
314.5273884789798
 30
0.0
 10
550.021852928026
 20
316.6978899088741
 30
0.0
 10
568.1597890122166
 20
318.868391338762
 30
0.0
 10
581.8132826232672
 20
334.2531775258541
 30
0.0
 10
581.8132826216245
 20
352.5205120929398
 30
0.0
  0
ENDBLK
  5
60
330
5D
100
AcDbEntity
  8
0
100
AcDbBlockEnd
  0
BLOCK
  5
65
330
63
100
AcDbEntity
  8
0
100
AcDbBlockBegin
  2
block 8
 70
     0
 10
0.0
 20
0.0
 30
0.0
  3
block 8
  1

  0
SPLINE
  5
67
330
63
100
AcDbEntity
  8
0
  6
AI-Linetype-6
 62
     6
370
    25
100
AcDbSpline
210
0.0
220
0.0
230
1.0
 70
     8
 71
     3
 72
    11
 73
     7
 74
     0
 42
0.0000000001
 43
0.0000000001
 12
1.0
 22
0.0
 32
0.0
 13
1.0
 23
0.0
 33
0.0
 40
0.0
 40
0.0
 40
0.0
 40
0.0
 40
1.0
 40
1.0
 40
1.0
 40
2.0
 40
2.0
 40
2.0
 40
2.0
 10
581.0571384089484
 20
359.8683117139142
 30
0.0
 10
577.2902815198383
 20
377.976120105413
 30
0.0
 10
560.4400907068717
 20
390.3025686712016
 30
0.0
 10
542.0417692336277
 20
388.4092095749295
 30
0.0
 10
523.6434477603709
 20
386.5158504786703
 30
0.0
 10
509.6568259513872
 20
371.0159881341776
 30
0.0
 10
509.6568259530556
 20
352.5205120864587
 30
0.0
  0
ENDBLK
  5
66
330
63
100
AcDbEntity
  8
0
100
AcDbBlockEnd
  0
BLOCK
  5
6B
330
69
100
AcDbEntity
  8
0
100
AcDbBlockBegin
  2
block 9
 70
     0
 10
0.0
 20
0.0
 30
0.0
  3
block 9
  1

  0
SPLINE
  5
6D
330
69
100
AcDbEntity
  8
0
  6
AI-Linetype-7
 62
     6
370
    25
100
AcDbSpline
210
0.0
220
0.0
230
1.0
 70
     8
 71
     3
 72
    11
 73
     7
 74
     0
 42
0.0000000001
 43
0.0000000001
 12
1.0
 22
0.0
 32
0.0
 13
1.0
 23
0.0
 33
0.0
 40
0.0
 40
0.0
 40
0.0
 40
0.0
 40
1.0
 40
1.0
 40
1.0
 40
2.0
 40
2.0
 40
2.0
 40
2.0
 10
-174.1861333601978
 20
361.0329228696658
 30
0.0
 10
-178.4963740926092
 20
378.7844961178751
 30
0.0
 10
-195.3944721482018
 20
390.5132683322311
 30
0.0
 10
-213.5324082323792
 20
388.3427669023304
 30
0.0
 10
-231.6703795943463
 20
386.1722654724425
 30
0.0
 10
-245.323873205423
 20
370.7874792853562
 30
0.0
 10
-245.3238732037867
 20
352.52010944048
 30
0.0
  0
ENDBLK
  5
6C
330
69
100
AcDbEntity
  8
0
100
AcDbBlockEnd
  0
BLOCK
  5
71
330
6F
100
AcDbEntity
  8
0
100
AcDbBlockBegin
  2
block 10
 70
     0
 10
0.0
 20
0.0
 30
0.0
  3
block 10
  1

  0
SPLINE
  5
73
330
6F
100
AcDbEntity
  8
0
  6
AI-Linetype-8
 62
     6
370
    25
100
AcDbSpline
210
0.0
220
0.0
230
1.0
 70
     8
 71
     3
 72
    11
 73
     7
 74
     0
 42
0.0000000001
 43
0.0000000001
 12
1.0
 22
0.0
 32
0.0
 13
1.0
 23
0.0
 33
0.0
 40
0.0
 40
0.0
 40
0.0
 40
0.0
 40
1.0
 40
1.0
 40
1.0
 40
2.0
 40
2.0
 40
2.0
 40
2.0
 10
-244.5677289910978
 20
345.1723450972768
 30
0.0
 10
-240.800872101962
 20
327.0645014280017
 30
0.0
 10
-223.9506460112246
 20
314.7380528622196
 30
0.0
 10
-205.5523598157575
 20
316.631447236275
 30
0.0
 10
-187.154038342501
 20
318.524806332547
 30
0.0
 10
-173.1674165335426
 20
334.024633399243
 30
0.0
 10
-173.1674165352047
 20
352.5201094469484
 30
0.0
  0
ENDBLK
  5
72
330
6F
100
AcDbEntity
  8
0
100
AcDbBlockEnd
  0
BLOCK
  5
77
330
75
100
AcDbEntity
  8
0
100
AcDbBlockBegin
  2
block 11
 70
     0
 10
0.0
 20
0.0
 30
0.0
  3
block 11
  1

  0
SPLINE
  5
79
330
75
100
AcDbEntity
  8
0
  6
AI-Linetype-9
 62
     6
370
    25
100
AcDbSpline
210
0.0
220
0.0
230
1.0
 70
     8
 71
     3
 72
    11
 73
     7
 74
     0
 42
0.0000000001
 43
0.0000000001
 12
1.0
 22
0.0
 32
0.0
 13
1.0
 23
0.0
 33
0.0
 40
0.0
 40
0.0
 40
0.0
 40
0.0
 40
1.0
 40
1.0
 40
1.0
 40
2.0
 40
2.0
 40
2.0
 40
2.0
 10
571.0043929871612
 20
-50.15508955864593
 30
0.0
 10
568.2738565413489
 20
-37.02889311623408
 30
0.0
 10
556.0592735430137
 20
-28.09359263226726
 30
0.0
 10
542.7225392327099
 20
-29.4660751644272
 30
0.0
 10
529.3857696446291
 20
-30.83855769657429
 30
0.0
 10
519.2470025351829
 20
-42.07425249892284
 30
0.0
 10
519.2470025363764
 20
-55.48143656168453
 30
0.0
  0
ENDBLK
  5
78
330
75
100
AcDbEntity
  8
0
100
AcDbBlockEnd
  0
BLOCK
  5
7D
330
7B
100
AcDbEntity
  8
0
100
AcDbBlockBegin
  2
block 12
 70
     0
 10
0.0
 20
0.0
 30
0.0
  3
block 12
  1

  0
SPLINE
  5
7F
330
7B
100
AcDbEntity
  8
0
  6
AI-Linetype-10
 62
     6
370
    25
100
AcDbSpline
210
0.0
220
0.0
230
1.0
 70
     8
 71
     3
 72
    11
 73
     7
 74
     0
 42
0.0000000001
 43
0.0000000001
 12
1.0
 22
0.0
 32
0.0
 13
1.0
 23
0.0
 33
0.0
 40
0.0
 40
0.0
 40
0.0
 40
0.0
 40
1.0
 40
1.0
 40
1.0
 40
2.0
 40
2.0
 40
2.0
 40
2.0
 10
519.9854372969359
 20
-61.65229864310405
 30
0.0
 10
523.1099208555218
 20
-74.52022636401267
 30
0.0
 10
535.3591819242109
 20
-83.0223155517268
 30
0.0
 10
548.5072153205084
 20
-81.4489259893064
 30
0.0
 10
561.6552487168059
 20
-79.87553642686034
 30
0.0
 10
571.5525393341911
 20
-68.72327360461159
 30
0.0
 10
571.5525393329976
 20
-55.48143655698729
 30
0.0
  0
ENDBLK
  5
7E
330
7B
100
AcDbEntity
  8
0
100
AcDbBlockEnd
  0
BLOCK
  5
83
330
81
100
AcDbEntity
  8
0
100
AcDbBlockBegin
  2
block 13
 70
     0
 10
0.0
 20
0.0
 30
0.0
  3
block 13
  1

  0
SPLINE
  5
85
330
81
100
AcDbEntity
  8
0
  6
AI-Linetype-11
 62
     6
370
    25
100
AcDbSpline
210
0.0
220
0.0
230
1.0
 70
     8
 71
     3
 72
    11
 73
     7
 74
     0
 42
0.0000000001
 43
0.0000000001
 12
1.0
 22
0.0
 32
0.0
 13
1.0
 23
0.0
 33
0.0
 40
0.0
 40
0.0
 40
0.0
 40
0.0
 40
1.0
 40
1.0
 40
1.0
 40
2.0
 40
2.0
 40
2.0
 40
2.0
 10
580.7218374174006
 20
-48.13363674949095
 30
0.0
 10
576.9549805282776
 20
-30.02582790056335
 30
0.0
 10
560.1047897153238
 20
-17.69937902337748
 30
0.0
 10
541.706468242067
 20
-19.59273816747539
 30
0.0
 10
523.3081467688102
 20
-21.48613258935018
 30
0.0
 10
509.3215249598393
 20
-36.98596004763079
 30
0.0
 10
509.3215249614949
 20
-55.48143656257007
 30
0.0
  0
ENDBLK
  5
84
330
81
100
AcDbEntity
  8
0
100
AcDbBlockEnd
  0
BLOCK
  5
89
330
87
100
AcDbEntity
  8
0
100
AcDbBlockBegin
  2
block 14
 70
     0
 10
0.0
 20
0.0
 30
0.0
  3
block 14
  1

  0
SPLINE
  5
8B
330
87
100
AcDbEntity
  8
0
  6
AI-Linetype-12
 62
     6
370
    25
100
AcDbSpline
210
0.0
220
0.0
230
1.0
 70
     8
 71
     3
 72
    11
 73
     7
 74
     0
 42
0.0000000001
 43
0.0000000001
 12
1.0
 22
0.0
 32
0.0
 13
1.0
 23
0.0
 33
0.0
 40
0.0
 40
0.0
 40
0.0
 40
0.0
 40
1.0
 40
1.0
 40
1.0
 40
2.0
 40
2.0
 40
2.0
 40
2.0
 10
510.3402417864945
 20
-63.99425020032018
 30
0.0
 10
514.6505177967084
 20
-81.74582389698729
 30
0.0
 10
531.5485805745107
 20
-93.47459640762855
 30
0.0
 10
549.686551936478
 20
-91.30409492290107
 30
0.0
 10
567.8244880206687
 20
-89.13355816039672
 30
0.0
 10
581.4779816317193
 20
-73.74880686243648
 30
0.0
 10
581.4779816300766
 20
-55.48143655608892
 30
0.0
  0
ENDBLK
  5
8A
330
87
100
AcDbEntity
  8
0
100
AcDbBlockEnd
  0
BLOCK
  5
8F
330
8D
100
AcDbEntity
  8
0
100
AcDbBlockBegin
  2
block 15
 70
     0
 10
0.0
 20
0.0
 30
0.0
  3
block 15
  1

  0
SPLINE
  5
91
330
8D
100
AcDbEntity
  8
0
  6
AI-Linetype-13
 62
     6
370
    25
100
AcDbSpline
210
0.0
220
0.0
230
1.0
 70
     8
 71
     3
 72
    11
 73
     7
 74
     0
 42
0.0000000001
 43
0.0000000001
 12
1.0
 22
0.0
 32
0.0
 13
1.0
 23
0.0
 33
0.0
 40
0.0
 40
0.0
 40
0.0
 40
0.0
 40
1.0
 40
1.0
 40
1.0
 40
2.0
 40
2.0
 40
2.0
 40
2.0
 10
-244.1896568847662
 20
-65.2233120179753
 30
0.0
 10
-240.4227999956368
 20
-83.3311208669151
 30
0.0
 10
-223.5725739048866
 20
-95.65756974408878
 30
0.0
 10
-205.1742877094195
 20
-93.76421059999022
 30
0.0
 10
-186.7759662361694
 20
-91.87085145590514
 30
0.0
 10
-172.7893444272046
 20
-76.3709887198483
 30
0.0
 10
-172.7893444288602
 20
-57.87551220490838
 30
0.0
  0
ENDBLK
  5
90
330
8D
100
AcDbEntity
  8
0
100
AcDbBlockEnd
  0
BLOCK
  5
95
330
93
100
AcDbEntity
  8
0
100
AcDbBlockBegin
  2
block 16
 70
     0
 10
0.0
 20
0.0
 30
0.0
  3
block 16
  1

  0
SPLINE
  5
97
330
93
100
AcDbEntity
  8
0
  6
AI-Linetype-14
 62
     6
370
    25
100
AcDbSpline
210
0.0
220
0.0
230
1.0
 70
     8
 71
     3
 72
    11
 73
     7
 74
     0
 42
0.0000000001
 43
0.0000000001
 12
1.0
 22
0.0
 32
0.0
 13
1.0
 23
0.0
 33
0.0
 40
0.0
 40
0.0
 40
0.0
 40
0.0
 40
1.0
 40
1.0
 40
1.0
 40
2.0
 40
2.0
 40
2.0
 40
2.0
 10
-173.8080612538598
 20
-49.36269856714544
 30
0.0
 10
-178.1183019862712
 20
-31.61112487047832
 30
0.0
 10
-195.0164000418638
 20
-19.88235235983706
 30
0.0
 10
-213.1543361260348
 20
-22.05285384456454
 30
0.0
 10
-231.2923074880148
 20
-24.22339060706889
 30
0.0
 10
-244.945801099085
 20
-39.60814190502977
 30
0.0
 10
-244.9458010974422
 20
-57.8755122113767
 30
0.0
  0
ENDBLK
  5
96
330
93
100
AcDbEntity
  8
0
100
AcDbBlockEnd
  0
BLOCK
  5
9B
330
99
100
AcDbEntity
  8
0
100
AcDbBlockBegin
  2
block 17
 70
     0
 10
0.0
 20
0.0
 30
0.0
  3
block 17
  1

  0
SPLINE
  5
9D
330
99
100
AcDbEntity
  8
0
  6
AI-Linetype-15
 62
     6
370
    25
100
AcDbSpline
210
0.0
220
0.0
230
1.0
 70
     8
 71
     3
 72
    11
 73
     7
 74
     0
 42
0.0000000001
 43
0.0000000001
 12
1.0
 22
0.0
 32
0.0
 13
1.0
 23
0.0
 33
0.0
 40
0.0
 40
0.0
 40
0.0
 40
0.0
 40
1.0
 40
1.0
 40
1.0
 40
2.0
 40
2.0
 40
2.0
 40
2.0
 10
-182.7148220037356
 20
-57.87551220579392
 30
0.0
 10
-182.7148220025228
 20
-71.28269626851775
 30
0.0
 10
-192.8535891119948
 20
-82.51839107089133
 30
0.0
 10
-206.1903587000623
 20
-83.89087360305125
 30
0.0
 10
-219.5270930103594
 20
-85.26335613521118
 30
0.0
 10
-231.741676008695
 20
-76.32805565124501
 30
0.0
 10
-234.4722124545265
 20
-63.20185920879402
 30
0.0
  0
ENDBLK
  5
9C
330
99
100
AcDbEntity
  8
0
100
AcDbBlockEnd
  0
BLOCK
  5
A1
330
9F
100
AcDbEntity
  8
0
100
AcDbBlockBegin
  2
block 18
 70
     0
 10
0.0
 20
0.0
 30
0.0
  3
block 18
  1

  0
SPLINE
  5
A3
330
9F
100
AcDbEntity
  8
0
  6
AI-Linetype-16
 62
     6
370
    25
100
AcDbSpline
210
0.0
220
0.0
230
1.0
 70
     8
 71
     3
 72
    11
 73
     7
 74
     0
 42
0.0000000001
 43
0.0000000001
 12
1.0
 22
0.0
 32
0.0
 13
1.0
 23
0.0
 33
0.0
 40
0.0
 40
0.0
 40
0.0
 40
0.0
 40
1.0
 40
1.0
 40
1.0
 40
2.0
 40
2.0
 40
2.0
 40
2.0
 10
-235.0203235225732
 20
-57.87551221049115
 30
0.0
 10
-235.0203235237668
 20
-44.63367516285467
 30
0.0
 10
-225.1230329063815
 20
-33.48141234060527
 30
0.0
 10
-211.975034787874
 20
-31.90802277817204
 30
0.0
 10
-198.827001391564
 20
-30.33463321573881
 30
0.0
 10
-186.5777403228938
 20
-38.83672240345359
 30
0.0
 10
-183.4532567642951
 20
-51.7046501243744
 30
0.0
  0
ENDBLK
  5
A2
330
9F
100
AcDbEntity
  8
0
100
AcDbBlockEnd
  0
BLOCK
  5
A7
330
A5
100
AcDbEntity
  8
0
100
AcDbBlockBegin
  2
block 19
 70
     0
 10
0.0
 20
0.0
 30
0.0
  3
block 19
  1

  0
SPLINE
  5
A9
330
A5
100
AcDbEntity
  8
0
 62
   250
370
    25
100
AcDbSpline
210
0.0
220
0.0
230
1.0
 70
     8
 71
     3
 72
    11
 73
     7
 74
     0
 42
0.0000000001
 43
0.0000000001
 12
1.0
 22
0.0
 32
0.0
 13
1.0
 23
0.0
 33
0.0
 40
0.0
 40
0.0
 40
0.0
 40
0.0
 40
1.0
 40
1.0
 40
1.0
 40
2.0
 40
2.0
 40
2.0
 40
2.0
 10
105.7016763081601
 20
174.320680564679
 30
0.0
 10
119.9433918386779
 20
174.0045209864015
 30
0.0
 10
131.2788522393658
 20
162.2870726467704
 30
0.0
 10
131.1230302296188
 20
148.0427465596099
 30
0.0
 10
130.9672082198591
 20
133.7951043599071
 30
0.0
 10
119.3730557662565
 20
122.327070013688
 30
0.0
 10
105.1246021773393
 20
122.3270700124046
 30
0.0
  0
ENDBLK
  5
A8
330
A5
100
AcDbEntity
  8
0
100
AcDbBlockEnd
  0
BLOCK
  5
AC
330
AA
100
AcDbEntity
  8
0
100
AcDbBlockBegin
  2
block 20
 70
     0
 10
0.0
 20
0.0
 30
0.0
  3
block 20
  1

  0
SPLINE
  5
AE
330
AA
100
AcDbEntity
  8
0
 62
   250
370
    25
100
AcDbSpline
210
0.0
220
0.0
230
1.0
 70
     8
 71
     3
 72
    11
 73
     7
 74
     0
 42
0.0000000001
 43
0.0000000001
 12
1.0
 22
0.0
 32
0.0
 13
1.0
 23
0.0
 33
0.0
 40
0.0
 40
0.0
 40
0.0
 40
0.0
 40
1.0
 40
1.0
 40
1.0
 40
2.0
 40
2.0
 40
2.0
 40
2.0
 10
104.5474927640576
 20
122.3334905706584
 30
0.0
 10
90.3058125113429
 20
122.649685426732
 30
0.0
 10
78.97031683286502
 20
134.3670984885727
 30
0.0
 10
79.12613884261194
 20
148.6114598535236
 30
0.0
 10
79.28196085235886
 20
162.8590667754232
 30
0.0
 10
90.87611330596117
 20
174.3271011216493
 30
0.0
 10
105.1246021726677
 20
174.3271011229263
 30
0.0
  0
ENDBLK
  5
AD
330
AA
100
AcDbEntity
  8
0
100
AcDbBlockEnd
  0
BLOCK
  5
B1
330
AF
100
AcDbEntity
  8
0
100
AcDbBlockBegin
  2
block 21
 70
     0
 10
0.0
 20
0.0
 30
0.0
  3
block 21
  1

  0
SPLINE
  5
B3
330
AF
100
AcDbEntity
  8
0
 62
   250
370
    25
100
AcDbSpline
210
0.0
220
0.0
230
1.0
 70
     8
 71
     3
 72
     8
 73
     4
 74
     0
 42
0.0000000001
 43
0.0000000001
 12
1.0
 22
0.0
 32
0.0
 13
1.0
 23
0.0
 33
0.0
 40
0.0
 40
0.0
 40
0.0
 40
0.0
 40
1.0
 40
1.0
 40
1.0
 40
1.0
 10
105.1246021773393
 20
122.3270700124046
 30
0.0
 10
104.9321970951181
 20
122.3270700123918
 30
0.0
 10
104.7398625684891
 20
122.3292219577311
 30
0.0
 10
104.5474927640576
 20
122.3334905706584
 30
0.0
  0
ENDBLK
  5
B2
330
AF
100
AcDbEntity
  8
0
100
AcDbBlockEnd
  0
BLOCK
  5
B6
330
B4
100
AcDbEntity
  8
0
100
AcDbBlockBegin
  2
block 22
 70
     0
 10
0.0
 20
0.0
 30
0.0
  3
block 22
  1

  0
SPLINE
  5
B8
330
B4
100
AcDbEntity
  8
0
 62
   250
370
    25
100
AcDbSpline
210
0.0
220
0.0
230
1.0
 70
     8
 71
     3
 72
     8
 73
     4
 74
     0
 42
0.0000000001
 43
0.0000000001
 12
1.0
 22
0.0
 32
0.0
 13
1.0
 23
0.0
 33
0.0
 40
0.0
 40
0.0
 40
0.0
 40
0.0
 40
1.0
 40
1.0
 40
1.0
 40
1.0
 10
105.1246021726677
 20
174.3271011229263
 30
0.0
 10
105.3169719770996
 20
174.3271011229455
 30
0.0
 10
105.5093417815311
 20
174.3249844553896
 30
0.0
 10
105.7016763081601
 20
174.320680564679
 30
0.0
  0
ENDBLK
  5
B7
330
B4
100
AcDbEntity
  8
0
100
AcDbBlockEnd
  0
BLOCK
  5
BB
330
B9
100
AcDbEntity
  8
0
100
AcDbBlockBegin
  2
block 23
 70
     0
 10
0.0
 20
0.0
 30
0.0
  3
block 23
  1

  0
SPLINE
  5
BD
330
B9
100
AcDbEntity
  8
0
 62
   250
370
    25
100
AcDbSpline
210
0.0
220
0.0
230
1.0
 70
     8
 71
     3
 72
    53
 73
    49
 74
     0
 42
0.0000000001
 43
0.0000000001
 12
1.0
 22
0.0
 32
0.0
 13
1.0
 23
0.0
 33
0.0
 40
0.0
 40
0.0
 40
0.0
 40
0.0
 40
1.0
 40
1.0
 40
1.0
 40
2.0
 40
2.0
 40
2.0
 40
3.0
 40
3.0
 40
3.0
 40
4.0
 40
4.0
 40
4.0
 40
5.0
 40
5.0
 40
5.0
 40
6.0
 40
6.0
 40
6.0
 40
7.0
 40
7.0
 40
7.0
 40
8.0
 40
8.0
 40
8.0
 40
9.0
 40
9.0
 40
9.0
 40
10.0
 40
10.0
 40
10.0
 40
11.0
 40
11.0
 40
11.0
 40
12.0
 40
12.0
 40
12.0
 40
13.0
 40
13.0
 40
13.0
 40
14.0
 40
14.0
 40
14.0
 40
15.0
 40
15.0
 40
15.0
 40
16.0
 40
16.0
 40
16.0
 40
16.0
 10
105.1246021791361
 20
102.3190581288809
 30
0.0
 10
102.0662292055159
 20
102.3188111840571
 30
0.0
 10
99.00785623185726
 20
102.6307374281794
 30
0.0
 10
96.0123482850349
 20
103.2475696359621
 30
0.0
 10
93.01846311669328
 20
103.8640490658091
 30
0.0
 10
90.0873724195957
 20
104.7851522369353
 30
0.0
 10
87.27866038587821
 20
105.9911588631585
 30
0.0
 10
84.43220111381981
 20
107.2133579963238
 30
0.0
 10
81.71147189544682
 20
108.72815114341
 30
0.0
 10
79.17224692130516
 20
110.5025888459022
 30
0.0
 10
76.8143850802039
 20
112.1503087165072
 30
0.0
 10
74.61305080598464
 20
114.0219720161348
 30
0.0
 10
72.60634411493129
 20
116.0830065078233
 30
0.0
 10
70.60221270274506
 20
118.1414657206446
 30
0.0
 10
68.7922149846043
 20
120.3888727920003
 30
0.0
 10
67.20725430709427
 20
122.7850463158279
 30
0.0
 10
65.36039129536789
 20
125.5772130644249
 30
0.0
 10
63.81906924755582
 20
128.5713804549173
 30
0.0
 10
62.61824845632975
 20
131.6963226235374
 30
0.0
 10
61.5851382923834
 20
134.3848784946002
 30
0.0
 10
60.80408795836129
 20
137.1702366292694
 30
0.0
 10
60.28755051514821
 20
140.0037489511946
 30
0.0
 10
59.77122473868592
 20
142.835991272588
 30
0.0
 10
59.51916490849218
 20
145.7163525034599
 30
0.0
 10
59.53574547087592
 20
148.595196789258
 30
0.0
 10
59.55236131106222
 20
151.4740763528465
 30
0.0
 10
59.83765282160289
 20
154.3514742491644
 30
0.0
 10
60.38675166710735
 20
157.1775782346982
 30
0.0
 10
60.95260746422614
 20
160.0897600347905
 30
0.0
 10
61.79856893659264
 20
162.947508200532
 30
0.0
 10
62.91010163354935
 20
165.6980471538296
 30
0.0
 10
64.03874406006918
 20
168.4910252919236
 30
0.0
 10
65.44121271470333
 20
171.173513382816
 30
0.0
 10
67.09171953092655
 20
173.6935825154507
 30
0.0
 10
68.74416662573793
 20
176.2166149826837
 30
0.0
 10
70.6452868823917
 20
178.5769109914868
 30
0.0
 10
72.75959084126785
 20
180.7277627441556
 30
0.0
 10
74.8710020211438
 20
182.8757569956011
 30
0.0
 10
77.19499718077883
 20
184.8149419911655
 30
0.0
 10
79.68730269013123
 20
186.5062299363639
 30
0.0
 10
82.16902486162039
 20
188.1903212118193
 30
0.0
 10
84.81761099333352
 20
189.6286673822673
 30
0.0
 10
87.58201411901452
 20
190.7918820462789
 30
0.0
 10
90.34874557902215
 20
191.9561197662691
 30
0.0
 10
93.23150569974841
 20
192.8448026462952
 30
0.0
 10
96.17374417924196
 20
193.439480400695
 30
0.0
 10
99.11767599279568
 20
194.0345462108074
 30
0.0
 10
102.1211214429385
 20
194.3352893951412
 30
0.0
 10
105.124602170871
 20
194.3350777286597
 30
0.0
  0
ENDBLK
  5
BC
330
B9
100
AcDbEntity
  8
0
100
AcDbBlockEnd
  0
BLOCK
  5
C0
330
BE
100
AcDbEntity
  8
0
100
AcDbBlockBegin
  2
block 24
 70
     0
 10
0.0
 20
0.0
 30
0.0
  3
block 24
  1

  0
SPLINE
  5
C2
330
BE
100
AcDbEntity
  8
0
 62
   250
370
    25
100
AcDbSpline
210
0.0
220
0.0
230
1.0
 70
     8
 71
     3
 72
    29
 73
    25
 74
     0
 42
0.0000000001
 43
0.0000000001
 12
1.0
 22
0.0
 32
0.0
 13
1.0
 23
0.0
 33
0.0
 40
0.0
 40
0.0
 40
0.0
 40
0.0
 40
1.0
 40
1.0
 40
1.0
 40
2.0
 40
2.0
 40
2.0
 40
3.0
 40
3.0
 40
3.0
 40
4.0
 40
4.0
 40
4.0
 40
5.0
 40
5.0
 40
5.0
 40
6.0
 40
6.0
 40
6.0
 40
7.0
 40
7.0
 40
7.0
 40
8.0
 40
8.0
 40
8.0
 40
8.0
 10
105.1246021791361
 20
102.3190581288809
 30
0.0
 10
111.1452161408647
 20
102.314119238424
 30
0.0
 10
117.1645601019453
 20
103.5376236507063
 30
0.0
 10
122.7108994163475
 20
105.878834373915
 30
0.0
 10
128.2423162243792
 20
108.2137303721999
 30
0.0
 10
133.3033036645991
 20
111.660300178832
 30
0.0
 10
137.5099335174237
 20
115.9441531209725
 30
0.0
 10
141.7029461422125
 20
120.2141771683383
 30
0.0
 10
145.0471045152881
 20
125.3160162932924
 30
0.0
 10
147.3018493672119
 20
130.8598861625939
 30
0.0
 10
149.5506675499507
 20
136.3891863034611
 30
0.0
 10
150.7157872139843
 20
142.3581535765595
 30
0.0
 10
150.7157872134452
 20
148.3271208495553
 30
0.0
 10
150.7157872129062
 20
154.298134234534
 30
0.0
 10
149.5498208807645
 20
160.2691476194101
 30
0.0
 10
147.2995210297541
 20
165.8000352605448
 30
0.0
 10
145.0446350656576
 20
171.3421059620191
 30
0.0
 10
141.7010058585421
 20
176.4422164745272
 30
0.0
 10
137.5089810111978
 20
180.7109352427817
 30
0.0
 10
133.3011517126375
 20
184.9957759623655
 30
0.0
 10
128.2385062155311
 20
188.4428749349962
 30
0.0
 10
122.7053607952389
 20
190.7776650989116
 30
0.0
 10
117.1605384255247
 20
193.1173235982436
 30
0.0
 10
111.1431700206167
 20
194.339981342405
 30
0.0
 10
105.124602170871
 20
194.3350777286597
 30
0.0
  0
ENDBLK
  5
C1
330
BE
100
AcDbEntity
  8
0
100
AcDbBlockEnd
  0
BLOCK
  5
C5
330
C3
100
AcDbEntity
  8
0
100
AcDbBlockBegin
  2
block 25
 70
     0
 10
0.0
 20
0.0
 30
0.0
  3
block 25
  1

  0
POLYLINE
  5
C7
330
C3
100
AcDbEntity
  8
0
 62
     4
370
    25
100
AcDb2dPolyline
 66
     1
 10
0.0
 20
0.0
 30
0.0
  0
VERTEX
  5
C8
330
C7
100
AcDbEntity
  8
0
 62
     4
370
    25
100
AcDbVertex
100
AcDb2dVertex
 10
171.4015640677996
 20
147.5286780094503
 30
0.0
  0
VERTEX
  5
C9
330
C7
100
AcDbEntity
  8
0
 62
     4
370
    25
100
AcDbVertex
100
AcDb2dVertex
 10
160.1514755696355
 20
147.5286780094503
 30
0.0
  0
SEQEND
  5
CA
330
C7
100
AcDbEntity
  8
0
 62
     4
370
    25
  0
ENDBLK
  5
C6
330
C3
100
AcDbEntity
  8
0
100
AcDbBlockEnd
  0
BLOCK
  5
CD
330
CB
100
AcDbEntity
  8
0
100
AcDbBlockBegin
  2
block 26
 70
     0
 10
0.0
 20
0.0
 30
0.0
  3
block 26
  1

  0
POLYLINE
  5
CF
330
CB
100
AcDbEntity
  8
0
  6
AI-Linetype-17
 62
     4
370
    25
100
AcDb2dPolyline
 66
     1
 10
0.0
 20
0.0
 30
0.0
  0
VERTEX
  5
D0
330
CF
100
AcDbEntity
  8
0
  6
AI-Linetype-17
 62
     4
370
    25
100
AcDbVertex
100
AcDb2dVertex
 10
156.5773827903099
 20
147.5286780094503
 30
0.0
  0
VERTEX
  5
D1
330
CF
100
AcDbEntity
  8
0
  6
AI-Linetype-17
 62
     4
370
    25
100
AcDbVertex
100
AcDb2dVertex
 10
151.216232855398
 20
147.5286780094503
 30
0.0
  0
SEQEND
  5
D3
330
CF
100
AcDbEntity
  8
0
  6
AI-Linetype-17
 62
     4
370
    25
  0
ENDBLK
  5
CE
330
CB
100
AcDbEntity
  8
0
100
AcDbBlockEnd
  0
BLOCK
  5
D6
330
D4
100
AcDbEntity
  8
0
100
AcDbBlockBegin
  2
block 27
 70
     0
 10
0.0
 20
0.0
 30
0.0
  3
block 27
  1

  0
POLYLINE
  5
D8
330
D4
100
AcDbEntity
  8
0
  6
AI-Linetype-18
 62
     4
370
    25
100
AcDb2dPolyline
 66
     1
 10
0.0
 20
0.0
 30
0.0
  0
VERTEX
  5
D9
330
D8
100
AcDbEntity
  8
0
  6
AI-Linetype-18
 62
     4
370
    25
100
AcDbVertex
100
AcDb2dVertex
 10
149.4291864657352
 20
147.5286780094503
 30
0.0
  0
VERTEX
  5
DA
330
D8
100
AcDbEntity
  8
0
  6
AI-Linetype-18
 62
     4
370
    25
100
AcDbVertex
100
AcDb2dVertex
 10
54.71513030485692
 20
147.5286780094503
 30
0.0
  0
SEQEND
  5
DC
330
D8
100
AcDbEntity
  8
0
  6
AI-Linetype-18
 62
     4
370
    25
  0
ENDBLK
  5
D7
330
D4
100
AcDbEntity
  8
0
100
AcDbBlockEnd
  0
BLOCK
  5
DF
330
DD
100
AcDbEntity
  8
0
100
AcDbBlockBegin
  2
block 28
 70
     0
 10
0.0
 20
0.0
 30
0.0
  3
block 28
  1

  0
POLYLINE
  5
E1
330
DD
100
AcDbEntity
  8
0
 62
     4
370
    25
100
AcDb2dPolyline
 66
     1
 10
0.0
 20
0.0
 30
0.0
  0
VERTEX
  5
E2
330
E1
100
AcDbEntity
  8
0
 62
     4
370
    25
100
AcDbVertex
100
AcDb2dVertex
 10
52.92807853223239
 20
147.5286780094503
 30
0.0
  0
VERTEX
  5
E3
330
E1
100
AcDbEntity
  8
0
 62
     4
370
    25
100
AcDbVertex
100
AcDb2dVertex
 10
41.67799541703005
 20
147.5286780094503
 30
0.0
  0
SEQEND
  5
E4
330
E1
100
AcDbEntity
  8
0
 62
     4
370
    25
  0
ENDBLK
  5
E0
330
DD
100
AcDbEntity
  8
0
100
AcDbBlockEnd
  0
BLOCK
  5
E7
330
E5
100
AcDbEntity
  8
0
100
AcDbBlockBegin
  2
block 29
 70
     0
 10
0.0
 20
0.0
 30
0.0
  3
block 29
  1

  0
POLYLINE
  5
E9
330
E5
100
AcDbEntity
  8
0
 62
     4
370
    25
100
AcDb2dPolyline
 66
     1
 10
0.0
 20
0.0
 30
0.0
  0
VERTEX
  5
EA
330
E9
100
AcDbEntity
  8
0
 62
     4
370
    25
100
AcDbVertex
100
AcDb2dVertex
 10
105.310421641831
 20
212.3317853608711
 30
0.0
  0
VERTEX
  5
EB
330
E9
100
AcDbEntity
  8
0
 62
     4
370
    25
100
AcDbVertex
100
AcDb2dVertex
 10
105.310421641831
 20
201.081696862707
 30
0.0
  0
SEQEND
  5
EC
330
E9
100
AcDbEntity
  8
0
 62
     4
370
    25
  0
ENDBLK
  5
E8
330
E5
100
AcDbEntity
  8
0
100
AcDbBlockEnd
  0
BLOCK
  5
EF
330
ED
100
AcDbEntity
  8
0
100
AcDbBlockBegin
  2
block 30
 70
     0
 10
0.0
 20
0.0
 30
0.0
  3
block 30
  1

  0
POLYLINE
  5
F1
330
ED
100
AcDbEntity
  8
0
  6
AI-Linetype-19
 62
     4
370
    25
100
AcDb2dPolyline
 66
     1
 10
0.0
 20
0.0
 30
0.0
  0
VERTEX
  5
F2
330
F1
100
AcDbEntity
  8
0
  6
AI-Linetype-19
 62
     4
370
    25
100
AcDbVertex
100
AcDb2dVertex
 10
105.310421641831
 20
197.507604083381
 30
0.0
  0
VERTEX
  5
F3
330
F1
100
AcDbEntity
  8
0
  6
AI-Linetype-19
 62
     4
370
    25
100
AcDbVertex
100
AcDb2dVertex
 10
105.310421641831
 20
192.1464756803159
 30
0.0
  0
SEQEND
  5
F5
330
F1
100
AcDbEntity
  8
0
  6
AI-Linetype-19
 62
     4
370
    25
  0
ENDBLK
  5
F0
330
ED
100
AcDbEntity
  8
0
100
AcDbBlockEnd
  0
BLOCK
  5
F8
330
F6
100
AcDbEntity
  8
0
100
AcDbBlockBegin
  2
block 31
 70
     0
 10
0.0
 20
0.0
 30
0.0
  3
block 31
  1

  0
POLYLINE
  5
FA
330
F6
100
AcDbEntity
  8
0
  6
AI-Linetype-20
 62
     4
370
    25
100
AcDb2dPolyline
 66
     1
 10
0.0
 20
0.0
 30
0.0
  0
VERTEX
  5
FB
330
FA
100
AcDbEntity
  8
0
  6
AI-Linetype-20
 62
     4
370
    25
100
AcDbVertex
100
AcDb2dVertex
 10
105.310421641831
 20
190.3594400565765
 30
0.0
  0
VERTEX
  5
FC
330
FA
100
AcDbEntity
  8
0
  6
AI-Linetype-20
 62
     4
370
    25
100
AcDbVertex
100
AcDb2dVertex
 10
105.310421641831
 20
95.64556153343453
 30
0.0
  0
SEQEND
  5
FE
330
FA
100
AcDbEntity
  8
0
  6
AI-Linetype-20
 62
     4
370
    25
  0
ENDBLK
  5
F9
330
F6
100
AcDbEntity
  8
0
100
AcDbBlockEnd
  0
BLOCK
  5
101
330
FF
100
AcDbEntity
  8
0
100
AcDbBlockBegin
  2
block 32
 70
     0
 10
0.0
 20
0.0
 30
0.0
  3
block 32
  1

  0
POLYLINE
  5
103
330
FF
100
AcDbEntity
  8
0
 62
     4
370
    25
100
AcDb2dPolyline
 66
     1
 10
0.0
 20
0.0
 30
0.0
  0
VERTEX
  5
104
330
103
100
AcDbEntity
  8
0
 62
     4
370
    25
100
AcDbVertex
100
AcDb2dVertex
 10
105.310421641831
 20
93.8585151437717
 30
0.0
  0
VERTEX
  5
105
330
103
100
AcDbEntity
  8
0
 62
     4
370
    25
100
AcDbVertex
100
AcDb2dVertex
 10
105.310421641831
 20
82.60843741153106
 30
0.0
  0
SEQEND
  5
106
330
103
100
AcDbEntity
  8
0
 62
     4
370
    25
  0
ENDBLK
  5
102
330
FF
100
AcDbEntity
  8
0
100
AcDbBlockEnd
  0
BLOCK
  5
109
330
107
100
AcDbEntity
  8
0
100
AcDbBlockBegin
  2
block 33
 70
     0
 10
0.0
 20
0.0
 30
0.0
  3
block 33
  1

  0
POLYLINE
  5
10B
330
107
100
AcDbEntity
  8
0
 62
   250
370
    25
100
AcDb2dPolyline
 66
     1
 10
0.0
 20
0.0
 30
0.0
  0
VERTEX
  5
10C
330
10B
100
AcDbEntity
  8
0
 62
   250
370
    25
100
AcDbVertex
100
AcDb2dVertex
 10
-657.621153212987
 20
148.5194444128845
 30
0.0
  0
VERTEX
  5
10D
330
10B
100
AcDbEntity
  8
0
 62
   250
370
    25
100
AcDbVertex
100
AcDb2dVertex
 10
-654.6061808191015
 20
86.3447429272027
 30
0.0
  0
VERTEX
  5
10E
330
10B
100
AcDbEntity
  8
0
 62
   250
370
    25
100
AcDbVertex
100
AcDb2dVertex
 10
-645.587391579751
 20
24.74259527850478
 30
0.0
  0
VERTEX
  5
10F
330
10B
100
AcDbEntity
  8
0
 62
   250
370
    25
100
AcDbVertex
100
AcDb2dVertex
 10
-628.8146926432667
 20
-35.17255209330339
 30
0.0
  0
VERTEX
  5
110
330
10B
100
AcDbEntity
  8
0
 62
   250
370
    25
100
AcDbVertex
100
AcDb2dVertex
 10
-615.520612223989
 20
-63.33596526675081
 30
0.0
  0
VERTEX
  5
111
330
10B
100
AcDbEntity
  8
0
 62
   250
370
    25
100
AcDbVertex
100
AcDb2dVertex
 10
-598.4339612223856
 20
-89.43051299432878
 30
0.0
  0
VERTEX
  5
112
330
10B
100
AcDbEntity
  8
0
 62
   250
370
    25
100
AcDbVertex
100
AcDb2dVertex
 10
-577.7576414954333
 20
-112.9528166504834
 30
0.0
  0
VERTEX
  5
113
330
10B
100
AcDbEntity
  8
0
 62
   250
370
    25
100
AcDbVertex
100
AcDb2dVertex
 10
-554.0979416894849
 20
-133.5974485364685
 30
0.0
  0
VERTEX
  5
114
330
10B
100
AcDbEntity
  8
0
 62
   250
370
    25
100
AcDbVertex
100
AcDb2dVertex
 10
-528.182926053332
 20
-151.3674260229016
 30
0.0
  0
VERTEX
  5
115
330
10B
100
AcDbEntity
  8
0
 62
   250
370
    25
100
AcDbVertex
100
AcDb2dVertex
 10
-500.6134194354057
 20
-166.5111247051939
 30
0.0
  0
VERTEX
  5
116
330
10B
100
AcDbEntity
  8
0
 62
   250
370
    25
100
AcDbVertex
100
AcDb2dVertex
 10
-442.2662701884148
 20
-190.155904636573
 30
0.0
  0
VERTEX
  5
117
330
10B
100
AcDbEntity
  8
0
 62
   250
370
    25
100
AcDbVertex
100
AcDb2dVertex
 10
-381.8174125534183
 20
-206.7561855861217
 30
0.0
  0
VERTEX
  5
118
330
10B
100
AcDbEntity
  8
0
 62
   250
370
    25
100
AcDbVertex
100
AcDb2dVertex
 10
-319.826694420657
 20
-218.2565155130641
 30
0.0
  0
VERTEX
  5
119
330
10B
100
AcDbEntity
  8
0
 62
   250
370
    25
100
AcDbVertex
100
AcDb2dVertex
 10
-257.8771774436851
 20
-225.8001990715885
 30
0.0
  0
VERTEX
  5
11A
330
10B
100
AcDbEntity
  8
0
 62
   250
370
    25
100
AcDbVertex
100
AcDb2dVertex
 10
-134.1227087417335
 20
-233.7323331160131
 30
0.0
  0
VERTEX
  5
11B
330
10B
100
AcDbEntity
  8
0
 62
   250
370
    25
100
AcDbVertex
100
AcDb2dVertex
 10
112.2810279287393
 20
-238.8759787428525
 30
0.0
  0
VERTEX
  5
11C
330
10B
100
AcDbEntity
  8
0
 62
   250
370
    25
100
AcDbVertex
100
AcDb2dVertex
 10
358.3580650273193
 20
-233.0801790597835
 30
0.0
  0
VERTEX
  5
11D
330
10B
100
AcDbEntity
  8
0
 62
   250
370
    25
100
AcDbVertex
100
AcDb2dVertex
 10
481.5674913788804
 20
-224.4747188514333
 30
0.0
  0
VERTEX
  5
11E
330
10B
100
AcDbEntity
  8
0
 62
   250
370
    25
100
AcDbVertex
100
AcDb2dVertex
 10
542.5612150200715
 20
-216.442300386127
 30
0.0
  0
VERTEX
  5
11F
330
10B
100
AcDbEntity
  8
0
 62
   250
370
    25
100
AcDbVertex
100
AcDb2dVertex
 10
602.7777833736859
 20
-204.5669598932782
 30
0.0
  0
VERTEX
  5
120
330
10B
100
AcDbEntity
  8
0
 62
   250
370
    25
100
AcDbVertex
100
AcDb2dVertex
 10
661.475794370183
 20
-187.6408003831878
 30
0.0
  0
VERTEX
  5
121
330
10B
100
AcDbEntity
  8
0
 62
   250
370
    25
100
AcDbVertex
100
AcDb2dVertex
 10
717.9784430003759
 20
-163.7534789441212
 30
0.0
  0
VERTEX
  5
122
330
10B
100
AcDbEntity
  8
0
 62
   250
370
    25
100
AcDbVertex
100
AcDb2dVertex
 10
744.5969038896112
 20
-148.5296213673362
 30
0.0
  0
VERTEX
  5
123
330
10B
100
AcDbEntity
  8
0
 62
   250
370
    25
100
AcDbVertex
100
AcDb2dVertex
 10
769.5052262699468
 20
-130.7537757269958
 30
0.0
  0
VERTEX
  5
124
330
10B
100
AcDbEntity
  8
0
 62
   250
370
    25
100
AcDbVertex
100
AcDb2dVertex
 10
792.2148813055201
 20
-110.1236986217077
 30
0.0
  0
VERTEX
  5
125
330
10B
100
AcDbEntity
  8
0
 62
   250
370
    25
100
AcDbVertex
100
AcDb2dVertex
 10
811.9976734368418
 20
-86.6531232123469
 30
0.0
  0
VERTEX
  5
126
330
10B
100
AcDbEntity
  8
0
 62
   250
370
    25
100
AcDbVertex
100
AcDb2dVertex
 10
828.2320448734927
 20
-60.72379149616252
 30
0.0
  0
VERTEX
  5
127
330
10B
100
AcDbEntity
  8
0
 62
   250
370
    25
100
AcDbVertex
100
AcDb2dVertex
 10
840.7840007958913
 20
-32.7990945835509
 30
0.0
  0
VERTEX
  5
128
330
10B
100
AcDbEntity
  8
0
 62
   250
370
    25
100
AcDbVertex
100
AcDb2dVertex
 10
856.4757826505207
 20
26.4565303126406
 30
0.0
  0
VERTEX
  5
129
330
10B
100
AcDbEntity
  8
0
 62
   250
370
    25
100
AcDbVertex
100
AcDb2dVertex
 10
864.8852336747649
 20
87.22856740928542
 30
0.0
  0
VERTEX
  5
12A
330
10B
100
AcDbEntity
  8
0
 62
   250
370
    25
100
AcDbVertex
100
AcDb2dVertex
 10
867.6964385515463
 20
148.5194459235211
 30
0.0
  0
SEQEND
  5
12B
330
10B
100
AcDbEntity
  8
0
 62
   250
370
    25
  0
ENDBLK
  5
10A
330
107
100
AcDbEntity
  8
0
100
AcDbBlockEnd
  0
BLOCK
  5
12E
330
12C
100
AcDbEntity
  8
0
100
AcDbBlockBegin
  2
block 34
 70
     0
 10
0.0
 20
0.0
 30
0.0
  3
block 34
  1

  0
POLYLINE
  5
130
330
12C
100
AcDbEntity
  8
0
 62
   250
370
    25
100
AcDb2dPolyline
 66
     1
 10
0.0
 20
0.0
 30
0.0
  0
VERTEX
  5
131
330
130
100
AcDbEntity
  8
0
 62
   250
370
    25
100
AcDbVertex
100
AcDb2dVertex
 10
-657.621153212987
 20
148.519444401719
 30
0.0
  0
VERTEX
  5
132
330
130
100
AcDbEntity
  8
0
 62
   250
370
    25
100
AcDbVertex
100
AcDb2dVertex
 10
-654.6061791259722
 20
210.6941633033508
 30
0.0
  0
VERTEX
  5
133
330
130
100
AcDbEntity
  8
0
 62
   250
370
    25
100
AcDbVertex
100
AcDb2dVertex
 10
-645.5873848268826
 20
272.296327913887
 30
0.0
  0
VERTEX
  5
134
330
130
100
AcDbEntity
  8
0
 62
   250
370
    25
100
AcDbVertex
100
AcDb2dVertex
 10
-628.814673290445
 20
332.2114899201743
 30
0.0
  0
VERTEX
  5
135
330
130
100
AcDbEntity
  8
0
 62
   250
370
    25
100
AcDbVertex
100
AcDb2dVertex
 10
-615.5205822829793
 20
360.3749077633298
 30
0.0
  0
VERTEX
  5
136
330
130
100
AcDbEntity
  8
0
 62
   250
370
    25
100
AcDbVertex
100
AcDb2dVertex
 10
-598.4339185327667
 20
386.4694578435177
 30
0.0
  0
VERTEX
  5
137
330
130
100
AcDbEntity
  8
0
 62
   250
370
    25
100
AcDbVertex
100
AcDb2dVertex
 10
-577.7575850250901
 20
409.9917614787202
 30
0.0
  0
VERTEX
  5
138
330
130
100
AcDbEntity
  8
0
 62
   250
370
    25
100
AcDbVertex
100
AcDb2dVertex
 10
-554.0978715949853
 20
430.636391339734
 30
0.0
  0
VERTEX
  5
139
330
130
100
AcDbEntity
  8
0
 62
   250
370
    25
100
AcDbVertex
100
AcDb2dVertex
 10
-528.1828430172966
 20
448.4063656122439
 30
0.0
  0
VERTEX
  5
13A
330
130
100
AcDbEntity
  8
0
 62
   250
370
    25
100
AcDbVertex
100
AcDb2dVertex
 10
-500.6133240743724
 20
463.5500605863365
 30
0.0
  0
VERTEX
  5
13B
330
130
100
AcDbEntity
  8
0
 62
   250
370
    25
100
AcDbVertex
100
AcDb2dVertex
 10
-442.2661525531095
 20
487.194832403136
 30
0.0
  0
VERTEX
  5
13C
330
130
100
AcDbEntity
  8
0
 62
   250
370
    25
100
AcDbVertex
100
AcDb2dVertex
 10
-381.8172751585824
 20
503.7951053433701
 30
0.0
  0
VERTEX
  5
13D
330
130
100
AcDbEntity
  8
0
 62
   250
370
    25
100
AcDbVertex
100
AcDb2dVertex
 10
-319.8271850123168
 20
515.2953306970985
 30
0.0
  0
VERTEX
  5
13E
330
130
100
AcDbEntity
  8
0
 62
   250
370
    25
100
AcDbVertex
100
AcDb2dVertex
 10
-257.8776541539764
 20
522.8390418703967
 30
0.0
  0
VERTEX
  5
13F
330
130
100
AcDbEntity
  8
0
 62
   250
370
    25
100
AcDbVertex
100
AcDb2dVertex
 10
-134.1230474093169
 20
530.7712071961222
 30
0.0
  0
VERTEX
  5
140
330
130
100
AcDbEntity
  8
0
 62
   250
370
    25
100
AcDbVertex
100
AcDb2dVertex
 10
112.2807328094645
 20
535.9148679748754
 30
0.0
  0
VERTEX
  5
141
330
130
100
AcDbEntity
  8
0
 62
   250
370
    25
100
AcDbVertex
100
AcDb2dVertex
 10
358.3578520470231
 20
530.1190776846242
 30
0.0
  0
VERTEX
  5
142
330
130
100
AcDbEntity
  8
0
 62
   250
370
    25
100
AcDbVertex
100
AcDb2dVertex
 10
481.5673152012562
 20
521.5136262342081
 30
0.0
  0
VERTEX
  5
143
330
130
100
AcDbEntity
  8
0
 62
   250
370
    25
100
AcDbVertex
100
AcDb2dVertex
 10
542.5610583664615
 20
513.4812144370212
 30
0.0
  0
VERTEX
  5
144
330
130
100
AcDbEntity
  8
0
 62
   250
370
    25
100
AcDbVertex
100
AcDb2dVertex
 10
602.7776453602394
 20
501.6058815182431
 30
0.0
  0
VERTEX
  5
145
330
130
100
AcDbEntity
  8
0
 62
   250
370
    25
100
AcDbVertex
100
AcDb2dVertex
 10
661.4756807011039
 20
484.6797285702818
 30
0.0
  0
VERTEX
  5
146
330
130
100
AcDbEntity
  8
0
 62
   250
370
    25
100
AcDbVertex
100
AcDb2dVertex
 10
717.9783510848301
 20
460.7924150142954
 30
0.0
  0
VERTEX
  5
147
330
130
100
AcDbEntity
  8
0
 62
   250
370
    25
100
AcDbVertex
100
AcDb2dVertex
 10
744.5968242345854
 20
445.5685608892744
 30
0.0
  0
VERTEX
  5
148
330
130
100
AcDbEntity
  8
0
 62
   250
370
    25
100
AcDbVertex
100
AcDb2dVertex
 10
769.5051593154155
 20
427.7927182114075
 30
0.0
  0
VERTEX
  5
149
330
130
100
AcDbEntity
  8
0
 62
   250
370
    25
100
AcDbVertex
100
AcDb2dVertex
 10
792.2148274670349
 20
407.1626430730617
 30
0.0
  0
VERTEX
  5
14A
330
130
100
AcDbEntity
  8
0
 62
   250
370
    25
100
AcDbVertex
100
AcDb2dVertex
 10
811.9976330001383
 20
383.6920674582103
 30
0.0
  0
VERTEX
  5
14B
330
130
100
AcDbEntity
  8
0
 62
   250
370
    25
100
AcDbVertex
100
AcDb2dVertex
 10
828.2320167448206
 20
357.7627331608942
 30
0.0
  0
VERTEX
  5
14C
330
130
100
AcDbEntity
  8
0
 62
   250
370
    25
100
AcDbVertex
100
AcDb2dVertex
 10
840.7839827809609
 20
329.8380314395312
 30
0.0
  0
VERTEX
  5
14D
330
130
100
AcDbEntity
  8
0
 62
   250
370
    25
100
AcDbVertex
100
AcDb2dVertex
 10
856.4757764308529
 20
270.5823920270101
 30
0.0
  0
VERTEX
  5
14E
330
130
100
AcDbEntity
  8
0
 62
   250
370
    25
100
AcDbVertex
100
AcDb2dVertex
 10
864.88523209752
 20
209.8103385621436
 30
0.0
  0
VERTEX
  5
14F
330
130
100
AcDbEntity
  8
0
 62
   250
370
    25
100
AcDbVertex
100
AcDb2dVertex
 10
867.6964385515463
 20
148.5194428911081
 30
0.0
  0
SEQEND
  5
150
330
130
100
AcDbEntity
  8
0
 62
   250
370
    25
  0
ENDBLK
  5
12F
330
12C
100
AcDbEntity
  8
0
100
AcDbBlockEnd
  0
BLOCK
  5
153
330
151
100
AcDbEntity
  8
0
100
AcDbBlockBegin
  2
block 35
 70
     0
 10
0.0
 20
0.0
 30
0.0
  3
block 35
  1

  0
SPLINE
  5
155
330
151
100
AcDbEntity
  8
0
 62
   250
370
    25
100
AcDbSpline
210
0.0
220
0.0
230
1.0
 70
     8
 71
     3
 72
   185
 73
   181
 74
     0
 42
0.0000000001
 43
0.0000000001
 12
1.0
 22
0.0
 32
0.0
 13
1.0
 23
0.0
 33
0.0
 40
0.0
 40
0.0
 40
0.0
 40
0.0
 40
1.0
 40
1.0
 40
1.0
 40
2.0
 40
2.0
 40
2.0
 40
3.0
 40
3.0
 40
3.0
 40
4.0
 40
4.0
 40
4.0
 40
5.0
 40
5.0
 40
5.0
 40
6.0
 40
6.0
 40
6.0
 40
7.0
 40
7.0
 40
7.0
 40
8.0
 40
8.0
 40
8.0
 40
9.0
 40
9.0
 40
9.0
 40
10.0
 40
10.0
 40
10.0
 40
11.0
 40
11.0
 40
11.0
 40
12.0
 40
12.0
 40
12.0
 40
13.0
 40
13.0
 40
13.0
 40
14.0
 40
14.0
 40
14.0
 40
15.0
 40
15.0
 40
15.0
 40
16.0
 40
16.0
 40
16.0
 40
17.0
 40
17.0
 40
17.0
 40
18.0
 40
18.0
 40
18.0
 40
19.0
 40
19.0
 40
19.0
 40
20.0
 40
20.0
 40
20.0
 40
21.0
 40
21.0
 40
21.0
 40
22.0
 40
22.0
 40
22.0
 40
23.0
 40
23.0
 40
23.0
 40
24.0
 40
24.0
 40
24.0
 40
25.0
 40
25.0
 40
25.0
 40
26.0
 40
26.0
 40
26.0
 40
27.0
 40
27.0
 40
27.0
 40
28.0
 40
28.0
 40
28.0
 40
29.0
 40
29.0
 40
29.0
 40
30.0
 40
30.0
 40
30.0
 40
31.0
 40
31.0
 40
31.0
 40
32.0
 40
32.0
 40
32.0
 40
33.0
 40
33.0
 40
33.0
 40
34.0
 40
34.0
 40
34.0
 40
35.0
 40
35.0
 40
35.0
 40
36.0
 40
36.0
 40
36.0
 40
37.0
 40
37.0
 40
37.0
 40
38.0
 40
38.0
 40
38.0
 40
39.0
 40
39.0
 40
39.0
 40
40.0
 40
40.0
 40
40.0
 40
41.0
 40
41.0
 40
41.0
 40
42.0
 40
42.0
 40
42.0
 40
43.0
 40
43.0
 40
43.0
 40
44.0
 40
44.0
 40
44.0
 40
45.0
 40
45.0
 40
45.0
 40
46.0
 40
46.0
 40
46.0
 40
47.0
 40
47.0
 40
47.0
 40
48.0
 40
48.0
 40
48.0
 40
49.0
 40
49.0
 40
49.0
 40
50.0
 40
50.0
 40
50.0
 40
51.0
 40
51.0
 40
51.0
 40
52.0
 40
52.0
 40
52.0
 40
53.0
 40
53.0
 40
53.0
 40
54.0
 40
54.0
 40
54.0
 40
55.0
 40
55.0
 40
55.0
 40
56.0
 40
56.0
 40
56.0
 40
57.0
 40
57.0
 40
57.0
 40
58.0
 40
58.0
 40
58.0
 40
59.0
 40
59.0
 40
59.0
 40
60.0
 40
60.0
 40
60.0
 40
60.0
 10
896.1464702199423
 20
148.5194444073146
 30
0.0
 10
896.1464712033205
 20
160.0814015903823
 30
0.0
 10
895.8273999569187
 20
171.6406335714524
 30
0.0
 10
895.1898990549396
 20
183.1829490447846
 30
0.0
 10
894.5515577919198
 20
194.7404797316398
 30
0.0
 10
893.5939468046906
 20
206.2810492822894
 30
0.0
 10
892.3192584599457
 20
217.7864939983402
 30
0.0
 10
891.0465083322023
 20
229.2744442039494
 30
0.0
 10
889.4576443726299
 20
240.7273763113098
 30
0.0
 10
887.5520666255846
 20
252.1267924850068
 30
0.0
 10
885.6495165690772
 20
263.5080966165142
 30
0.0
 10
883.4312583514127
 20
274.8360547376114
 30
0.0
 10
880.9118621875748
 20
286.0984480496592
 30
0.0
 10
878.41673213325
 20
297.2523651825426
 30
0.0
 10
875.6262371468193
 20
308.3419744272607
 30
0.0
 10
872.3557738430271
 20
319.2946740136956
 30
0.0
 10
869.0601558389918
 20
330.3316160604256
 30
0.0
 10
865.2771577906072
 20
341.2295342739001
 30
0.0
 10
860.8626895814621
 20
351.871546108013
 30
0.0
 10
856.4621892655963
 20
362.4798853730923
 30
0.0
 10
851.4342085576759
 20
372.8339351321066
 30
0.0
 10
845.7260297394404
 20
382.8018758889286
 30
0.0
 10
840.0564510574361
 20
392.7024109313184
 30
0.0
 10
833.715842501307
 20
402.2220412472569
 30
0.0
 10
826.7429547731858
 20
411.2529471526078
 30
0.0
 10
819.7321579038484
 20
420.3329509210591
 30
0.0
 10
812.0821882146253
 20
428.9189017877596
 30
0.0
 10
803.8980327871739
 20
436.9567312028893
 30
0.0
 10
795.5589196509978
 20
445.1467478095184
 30
0.0
 10
786.6652008724124
 20
452.767690350704
 30
0.0
 10
777.3496256312637
 20
459.8251030185803
 30
0.0
 10
767.8828107596764
 20
466.9970937405064
 30
0.0
 10
757.9803304387208
 20
473.5871080859305
 30
0.0
 10
747.7655019439607
 20
479.6430231268946
 30
0.0
 10
737.4771099164129
 20
485.7425506969481
 30
0.0
 10
726.8718546764312
 20
491.3002584787753
 30
0.0
 10
716.0460607373616
 20
496.3814841787055
 30
0.0
 10
705.266979569325
 20
501.4407846384302
 30
0.0
 10
694.269258823393
 20
506.0277061384558
 30
0.0
 10
683.1209725045064
 20
510.2075793733704
 30
0.0
 10
672.1447205148802
 20
514.3229510635498
 30
0.0
 10
661.0225139911971
 20
518.0437402559268
 30
0.0
 10
649.7995794993916
 20
521.4260327561393
 30
0.0
 10
638.7987024421267
 20
524.7414030804982
 30
0.0
 10
627.7010439982664
 20
527.7315392139393
 30
0.0
 10
616.5363189287234
 20
530.4421623200055
 30
0.0
 10
605.3737974296431
 20
533.1522504331122
 30
0.0
 10
594.1442357760179
 20
535.5829358423808
 30
0.0
 10
582.8687010315806
 20
537.7741336349299
 30
0.0
 10
571.3975819319293
 20
540.0033397363707
 30
0.0
 10
559.8788810193248
 20
541.9846779050526
 30
0.0
 10
548.3283418832037
 20
543.755398576832
 30
0.0
 10
536.6681832170099
 20
545.5429241410478
 30
0.0
 10
524.9755791431091
 20
547.115815539131
 30
0.0
 10
513.2619257751109
 20
548.5086053577904
 30
0.0
 10
501.8680798189554
 20
549.8633690804893
 30
0.0
 10
490.4543182585743
 20
551.0477312801867
 30
0.0
 10
479.0280140979875
 20
552.092081341425
 30
0.0
 10
467.8176192670217
 20
553.1166975571181
 30
0.0
 10
456.5951513627766
 20
554.0065429297167
 30
0.0
 10
445.3655333413587
 20
554.7914951140161
 30
0.0
 10
433.8677675450081
 20
555.5951908728063
 30
0.0
 10
422.3625060846882
 20
556.2889242253123
 30
0.0
 10
410.8532452174455
 20
556.9048813831644
 30
0.0
 10
399.1715391220275
 20
557.5300675326754
 30
0.0
 10
387.4857128742715
 20
558.0751293589848
 30
0.0
 10
375.7981816271882
 20
558.5788115267102
 30
0.0
 10
364.6622929680992
 20
559.0587202790964
 30
0.0
 10
353.5248564606867
 20
559.5010633654459
 30
0.0
 10
342.3865094922995
 20
559.919242943285
 30
0.0
 10
331.4058844799483
 20
560.3315009870716
 30
0.0
 10
320.4243746088091
 20
560.7202750006358
 30
0.0
 10
309.4419507576292
 20
561.0814042637586
 30
0.0
 10
297.9487449755658
 20
561.4593293002616
 30
0.0
 10
286.4545382197871
 20
561.8069783268842
 30
0.0
 10
274.9594946816077
 20
562.1243046588596
 30
0.0
 10
263.6639324772694
 20
562.4361242104605
 30
0.0
 10
252.367562281063
 20
562.7186643565359
 30
0.0
 10
241.0705060300914
 20
562.9705241241047
 30
0.0
 10
230.0090654463871
 20
563.2171310093165
 30
0.0
 10
218.9469671267638
 20
563.4343239335176
 30
0.0
 10
207.884362694539
 20
563.621647297341
 30
0.0
 10
196.8713635281963
 20
563.808130693908
 30
0.0
 10
185.8578627779399
 20
563.9650118027267
 30
0.0
 10
174.8440162037569
 20
564.0919420778525
 30
0.0
 10
163.752194679578
 20
564.2197709837964
 30
0.0
 10
152.6600224174375
 20
564.3172234678075
 30
0.0
 10
141.5676656137931
 20
564.3841449139658
 30
0.0
 10
130.3244844686934
 20
564.451976300489
 30
0.0
 10
119.0811137294929
 20
564.4884407348236
 30
0.0
 10
107.8377286514637
 20
564.4934832750313
 30
0.0
 10
96.42171026985368
 20
564.4986032394494
 30
0.0
 10
85.00567710570522
 20
564.4713289852176
 30
0.0
 10
73.58981284744748
 20
564.4116980566065
 30
0.0
 10
62.0319723663662
 20
564.351325513207
 30
0.0
 10
50.47430501854744
 20
564.2577864671846
 30
0.0
 10
38.9169997890815
 20
564.1312342445175
 30
0.0
 10
27.38179992760999
 20
564.004924075123
 30
0.0
 10
15.84696080057782
 20
563.8457268953217
 30
0.0
 10
4.312662286639865
 20
563.6540571168238
 30
0.0
 10
-7.050961753343636
 20
563.4652235002902
 30
0.0
 10
-18.41406106090417
 20
563.2448711773621
 30
0.0
 10
-29.77647326831986
 20
562.9935490148022
 30
0.0
 10
-41.03646476627149
 20
562.7444922685805
 30
0.0
 10
-52.29578149528818
 20
562.4650214902593
 30
0.0
 10
-63.55429212535972
 20
562.1561660082726
 30
0.0
 10
-75.01606650669804
 20
561.8417343780841
 30
0.0
 10
-86.4770054193408
 20
561.4968474296766
 30
0.0
 10
-97.93696308289658
 20
561.1221132343827
 30
0.0
 10
-109.5604885880658
 20
560.7420304623166
 30
0.0
 10
-121.1830046335178
 20
560.3312423441071
 30
0.0
 10
-132.8045269046164
 20
559.8940934976523
 30
0.0
 10
-144.1875159268231
 20
559.4659171878734
 30
0.0
 10
-155.5695515507204
 20
559.0124511592785
 30
0.0
 10
-166.9499070108528
 20
558.5185104947137
 30
0.0
 10
-178.574620711907
 20
558.0139639688226
 30
0.0
 10
-190.1975813218461
 20
557.4671860089179
 30
0.0
 10
-201.8163514571061
 20
556.839676159759
 30
0.0
 10
-213.4477256794236
 20
556.2114855854779
 30
0.0
 10
-225.0749003304455
 20
555.5023878703544
 30
0.0
 10
-236.6942477028997
 20
554.6798474052094
 30
0.0
 10
-247.9967035374077
 20
553.879739879241
 30
0.0
 10
-259.2917532142017
 20
552.9722930153712
 30
0.0
 10
-270.5742228352785
 20
551.9265231864093
 30
0.0
 10
-281.8589978841304
 20
550.8805396678299
 30
0.0
 10
-293.1311877356005
 20
549.6961766493374
 30
0.0
 10
-304.3836031800114
 20
548.3444073071953
 30
0.0
 10
-316.0381047065244
 20
546.9443347681838
 30
0.0
 10
-327.6713933664981
 20
545.3646781843682
 30
0.0
 10
-339.2720787977308
 20
543.5710806382649
 30
0.0
 10
-350.9409835693424
 20
541.7669356083659
 30
0.0
 10
-362.5769005296768
 20
539.7463260023687
 30
0.0
 10
-374.1634376679792
 20
537.4710654497422
 30
0.0
 10
-385.5804348610669
 20
535.2290976354662
 30
0.0
 10
-396.9494867594055
 20
532.7398767086098
 30
0.0
 10
-408.2482564894688
 20
529.9614380188666
 30
0.0
 10
-419.408410492273
 20
527.2170858101127
 30
0.0
 10
-430.4999962220936
 20
524.1905686795113
 30
0.0
 10
-441.4925210609646
 20
520.8355369036786
 30
0.0
 10
-452.5415890228375
 20
517.4632475844493
 30
0.0
 10
-463.4905743780162
 20
513.7590553142586
 30
0.0
 10
-474.2954627417162
 20
509.6691567767494
 30
0.0
 10
-485.2623168657688
 20
505.5179504770256
 30
0.0
 10
-496.0807215788346
 20
500.969387732785
 30
0.0
 10
-506.6848163903258
 20
495.9608262450692
 30
0.0
 10
-517.3756586962977
 20
490.9112918909448
 30
0.0
 10
-527.8486704062484
 20
485.3942019095742
 30
0.0
 10
-538.010072386137
 20
479.3464286873845
 30
0.0
 10
-548.1430734427767
 20
473.3155588751687
 30
0.0
 10
-557.9662042214961
 20
466.756968175421
 30
0.0
 10
-567.3585102119977
 20
459.624345259298
 30
0.0
 10
-576.624324514299
 20
452.5877815553635
 30
0.0
 10
-585.4708402268815
 20
444.9925431758522
 30
0.0
 10
-593.7673355540437
 20
436.8336611730151
 30
0.0
 10
-601.9228320356888
 20
428.8134392787662
 30
0.0
 10
-609.5468444503458
 20
420.2485691983843
 30
0.0
 10
-616.5347043432561
 20
411.1923018985324
 30
0.0
 10
-623.4960495137109
 20
402.1703976823089
 30
0.0
 10
-629.8260606353114
 20
392.6608182850967
 30
0.0
 10
-635.4871335094249
 20
382.7716827581175
 30
0.0
 10
-641.1886366949815
 20
372.8119208961499
 30
0.0
 10
-646.2116126527228
 20
362.4671621087908
 30
0.0
 10
-650.6082190444555
 20
351.8685051342794
 30
0.0
 10
-655.0250796018723
 20
341.2210225576614
 30
0.0
 10
-658.8097862159807
 20
330.3172971031888
 30
0.0
 10
-662.1064835308364
 20
319.2744213964183
 30
0.0
 10
-665.3771137912302
 20
308.3188619383111
 30
0.0
 10
-668.1674216409724
 20
297.2263440560021
 30
0.0
 10
-670.66248555025
 20
286.0695619676819
 30
0.0
 10
-673.1812306752089
 20
274.8068883381487
 30
0.0
 10
-675.3991008091506
 20
263.4787248212272
 30
0.0
 10
-677.3011910398482
 20
252.0972155079664
 30
0.0
 10
-679.2057024129826
 20
240.7012188403241
 30
0.0
 10
-680.7936294681247
 20
229.2517404837562
 30
0.0
 10
-682.0657048908653
 20
217.7672809436137
 30
0.0
 10
-683.3395622156862
 20
206.2667341636963
 30
0.0
 10
-684.2966824089085
 20
194.7311081294478
 30
0.0
 10
-684.934682826534
 20
183.1785300248985
 30
0.0
 10
-685.5720351418556
 20
171.6376874179924
 30
0.0
 10
-685.8909156974794
 20
160.0799271642491
 30
0.0
 10
-685.8909147169504
 20
148.5194444073146
 30
0.0
  0
ENDBLK
  5
154
330
151
100
AcDbEntity
  8
0
100
AcDbBlockEnd
  0
BLOCK
  5
158
330
156
100
AcDbEntity
  8
0
100
AcDbBlockBegin
  2
block 36
 70
     0
 10
0.0
 20
0.0
 30
0.0
  3
block 36
  1

  0
SPLINE
  5
15A
330
156
100
AcDbEntity
  8
0
 62
   250
370
    25
100
AcDbSpline
210
0.0
220
0.0
230
1.0
 70
     8
 71
     3
 72
   185
 73
   181
 74
     0
 42
0.0000000001
 43
0.0000000001
 12
1.0
 22
0.0
 32
0.0
 13
1.0
 23
0.0
 33
0.0
 40
0.0
 40
0.0
 40
0.0
 40
0.0
 40
1.0
 40
1.0
 40
1.0
 40
2.0
 40
2.0
 40
2.0
 40
3.0
 40
3.0
 40
3.0
 40
4.0
 40
4.0
 40
4.0
 40
5.0
 40
5.0
 40
5.0
 40
6.0
 40
6.0
 40
6.0
 40
7.0
 40
7.0
 40
7.0
 40
8.0
 40
8.0
 40
8.0
 40
9.0
 40
9.0
 40
9.0
 40
10.0
 40
10.0
 40
10.0
 40
11.0
 40
11.0
 40
11.0
 40
12.0
 40
12.0
 40
12.0
 40
13.0
 40
13.0
 40
13.0
 40
14.0
 40
14.0
 40
14.0
 40
15.0
 40
15.0
 40
15.0
 40
16.0
 40
16.0
 40
16.0
 40
17.0
 40
17.0
 40
17.0
 40
18.0
 40
18.0
 40
18.0
 40
19.0
 40
19.0
 40
19.0
 40
20.0
 40
20.0
 40
20.0
 40
21.0
 40
21.0
 40
21.0
 40
22.0
 40
22.0
 40
22.0
 40
23.0
 40
23.0
 40
23.0
 40
24.0
 40
24.0
 40
24.0
 40
25.0
 40
25.0
 40
25.0
 40
26.0
 40
26.0
 40
26.0
 40
27.0
 40
27.0
 40
27.0
 40
28.0
 40
28.0
 40
28.0
 40
29.0
 40
29.0
 40
29.0
 40
30.0
 40
30.0
 40
30.0
 40
31.0
 40
31.0
 40
31.0
 40
32.0
 40
32.0
 40
32.0
 40
33.0
 40
33.0
 40
33.0
 40
34.0
 40
34.0
 40
34.0
 40
35.0
 40
35.0
 40
35.0
 40
36.0
 40
36.0
 40
36.0
 40
37.0
 40
37.0
 40
37.0
 40
38.0
 40
38.0
 40
38.0
 40
39.0
 40
39.0
 40
39.0
 40
40.0
 40
40.0
 40
40.0
 40
41.0
 40
41.0
 40
41.0
 40
42.0
 40
42.0
 40
42.0
 40
43.0
 40
43.0
 40
43.0
 40
44.0
 40
44.0
 40
44.0
 40
45.0
 40
45.0
 40
45.0
 40
46.0
 40
46.0
 40
46.0
 40
47.0
 40
47.0
 40
47.0
 40
48.0
 40
48.0
 40
48.0
 40
49.0
 40
49.0
 40
49.0
 40
50.0
 40
50.0
 40
50.0
 40
51.0
 40
51.0
 40
51.0
 40
52.0
 40
52.0
 40
52.0
 40
53.0
 40
53.0
 40
53.0
 40
54.0
 40
54.0
 40
54.0
 40
55.0
 40
55.0
 40
55.0
 40
56.0
 40
56.0
 40
56.0
 40
57.0
 40
57.0
 40
57.0
 40
58.0
 40
58.0
 40
58.0
 40
59.0
 40
59.0
 40
59.0
 40
60.0
 40
60.0
 40
60.0
 40
60.0
 10
896.1464702199423
 20
148.5194444073146
 30
0.0
 10
896.1464712033205
 20
136.9574872242469
 30
0.0
 10
895.8273999569187
 20
125.3982552431832
 30
0.0
 10
895.1898990549396
 20
113.855939769826
 30
0.0
 10
894.5515577919198
 20
102.2984090829958
 30
0.0
 10
893.5939468046906
 20
90.7578395323468
 30
0.0
 10
892.3192584599457
 20
79.25239481628256
 30
0.0
 10
891.0465083322023
 20
67.7644446106862
 30
0.0
 10
889.4576443726299
 20
56.31151250330721
 30
0.0
 10
887.5520666255846
 20
44.91209632962876
 30
0.0
 10
885.6495165690772
 20
33.53079219809575
 30
0.0
 10
883.4312583514127
 20
22.20283407702419
 30
0.0
 10
880.9118621875748
 20
10.94044076496355
 30
0.0
 10
878.41673213325
 20
-0.2134763679070279
 30
0.0
 10
875.6262371468193
 20
-11.30308561262575
 30
0.0
 10
872.3557738430271
 20
-22.25578519908497
 30
0.0
 10
869.0601558389918
 20
-33.29272724578998
 30
0.0
 10
865.2771577906072
 20
-44.19064545929016
 30
0.0
 10
860.8626895814621
 20
-54.83265729337742
 30
0.0
 10
856.4621892655963
 20
-65.44099655845088
 30
0.0
 10
851.4342085576759
 20
-75.79504631749666
 30
0.0
 10
845.7260297394404
 20
-85.7629870742802
 30
0.0
 10
840.0564510574361
 20
-95.66352211669557
 30
0.0
 10
833.715842501307
 20
-105.183152432647
 30
0.0
 10
826.7429547731858
 20
-114.2140583379722
 30
0.0
 10
819.7321579038484
 20
-123.2940621064486
 30
0.0
 10
812.0821882146253
 20
-131.880012973124
 30
0.0
 10
803.8980327871739
 20
-139.9178423882794
 30
0.0
 10
795.5589196509978
 20
-148.1078589948957
 30
0.0
 10
786.6652008724124
 20
-155.7288015360812
 30
0.0
 10
777.3496256312637
 20
-162.7862142039575
 30
0.0
 10
767.8828107596764
 20
-169.95820492589
 30
0.0
 10
757.9803304387208
 20
-176.5482192713078
 30
0.0
 10
747.7655019439607
 20
-182.6041343122776
 30
0.0
 10
737.4771099164129
 20
-188.7036618823253
 30
0.0
 10
726.8718546764312
 20
-194.2613696641461
 30
0.0
 10
716.0460607373616
 20
-199.3425953640828
 30
0.0
 10
705.266979569325
 20
-204.4018958238067
 30
0.0
 10
694.269258823393
 20
-208.9888173238452
 30
0.0
 10
683.1209725045064
 20
-213.1686905587219
 30
0.0
 10
672.1447205148802
 20
-217.2840622489399
 30
0.0
 10
661.0225139911971
 20
-221.0048514412784
 30
0.0
 10
649.7995794993916
 20
-224.3871439415165
 30
0.0
 10
638.7987024421267
 20
-227.7025142658626
 30
0.0
 10
627.7010439982664
 20
-230.6926503993294
 30
0.0
 10
616.5363189287234
 20
-233.4032735053699
 30
0.0
 10
605.3737974296431
 20
-236.1133616185022
 30
0.0
 10
594.1442357760179
 20
-238.544047027751
 30
0.0
 10
582.8687010315806
 20
-240.7352448203193
 30
0.0
 10
571.3975819319293
 20
-242.9644509217486
 30
0.0
 10
559.8788810193248
 20
-244.9457890904299
 30
0.0
 10
548.3283418832037
 20
-246.716509762197
 30
0.0
 10
536.6681832170099
 20
-248.5040353264123
 30
0.0
 10
524.9755791431091
 20
-250.0769267244954
 30
0.0
 10
513.2619257751109
 20
-251.4697165431677
 30
0.0
 10
501.8680798189554
 20
-252.8244802658793
 30
0.0
 10
490.4543182585743
 20
-254.0088424655632
 30
0.0
 10
479.0280140979875
 20
-255.0531925267888
 30
0.0
 10
467.8176192670217
 20
-256.0778087424883
 30
0.0
 10
456.5951513627766
 20
-256.9676541150933
 30
0.0
 10
445.3655333413587
 20
-257.7526062993931
 30
0.0
 10
433.8677675450081
 20
-258.5563020581575
 30
0.0
 10
422.3625060846882
 20
-259.250035410702
 30
0.0
 10
410.8532452174455
 20
-259.8659925685413
 30
0.0
 10
399.1715391220275
 20
-260.4911787180455
 30
0.0
 10
387.4857128742715
 20
-261.0362405443618
 30
0.0
 10
375.7981816271882
 20
-261.5399227120807
 30
0.0
 10
364.6622929680992
 20
-262.0198314644861
 30
0.0
 10
353.5248564606867
 20
-262.4621745508234
 30
0.0
 10
342.3865094922995
 20
-262.880354128662
 30
0.0
 10
331.4058844799483
 20
-263.2926121724229
 30
0.0
 10
320.4243746088091
 20
-263.681386186013
 30
0.0
 10
309.4419507576292
 20
-264.0425154491227
 30
0.0
 10
297.9487449755658
 20
-264.4204404856264
 30
0.0
 10
286.4545382197871
 20
-264.7680895122676
 30
0.0
 10
274.9594946816077
 20
-265.0854158442237
 30
0.0
 10
263.6639324772694
 20
-265.3972353958311
 30
0.0
 10
252.367562281063
 20
-265.6797755419129
 30
0.0
 10
241.0705060300914
 20
-265.9316353094559
 30
0.0
 10
230.0090654463871
 20
-266.1782421947066
 30
0.0
 10
218.9469671267638
 20
-266.3954351188817
 30
0.0
 10
207.884362694539
 20
-266.5827584827112
 30
0.0
 10
196.8713635281963
 20
-266.7692418792977
 30
0.0
 10
185.8578627779399
 20
-266.9261229881168
 30
0.0
 10
174.8440162037569
 20
-267.0530532632231
 30
0.0
 10
163.752194679578
 20
-267.1808821691729
 30
0.0
 10
152.6600224174375
 20
-267.2783346531841
 30
0.0
 10
141.5676656137931
 20
-267.3452560993366
 30
0.0
 10
130.3244844686934
 20
-267.4130874858528
 30
0.0
 10
119.0811137294929
 20
-267.4495519202002
 30
0.0
 10
107.8377286514637
 20
-267.4545944604021
 30
0.0
 10
96.42171026985368
 20
-267.459714424826
 30
0.0
 10
85.00567710570522
 20
-267.4324401705813
 30
0.0
 10
73.58981284744748
 20
-267.3728092419894
 30
0.0
 10
62.0319723663662
 20
-267.3124366985842
 30
0.0
 10
50.47430501854744
 20
-267.2188976525366
 30
0.0
 10
38.9169997890815
 20
-267.0923454299005
 30
0.0
 10
27.38179992760999
 20
-266.9660352605063
 30
0.0
 10
15.84696080057782
 20
-266.8068380806928
 30
0.0
 10
4.312662286639865
 20
-266.6151683021884
 30
0.0
 10
-7.050961753343636
 20
-266.4263346856671
 30
0.0
 10
-18.41406106090417
 20
-266.2059823627263
 30
0.0
 10
-29.77647326831986
 20
-265.9546602001922
 30
0.0
 10
-41.03646476627149
 20
-265.7056034539577
 30
0.0
 10
-52.29578149528818
 20
-265.4261326756241
 30
0.0
 10
-63.55429212535972
 20
-265.1172771936498
 30
0.0
 10
-75.01606650669804
 20
-264.8028455634674
 30
0.0
 10
-86.4770054193408
 20
-264.4579586150403
 30
0.0
 10
-97.93696308289658
 20
-264.0832244197474
 30
0.0
 10
-109.5604885880658
 20
-263.7031416476878
 30
0.0
 10
-121.1830046335178
 20
-263.2923535294654
 30
0.0
 10
-132.8045269046164
 20
-262.8552046830357
 30
0.0
 10
-144.1875159268231
 20
-262.4270283732253
 30
0.0
 10
-155.5695515507204
 20
-261.9735623446625
 30
0.0
 10
-166.9499070108528
 20
-261.4796216801035
 30
0.0
 10
-178.574620711907
 20
-260.9750751541996
 30
0.0
 10
-190.1975813218461
 20
-260.4282971943077
 30
0.0
 10
-201.8163514571061
 20
-259.8007873451228
 30
0.0
 10
-213.4477256794236
 20
-259.172596770842
 30
0.0
 10
-225.0749003304455
 20
-258.4634990557184
 30
0.0
 10
-236.6942477028997
 20
-257.6409585905924
 30
0.0
 10
-247.9967035374077
 20
-256.840851064624
 30
0.0
 10
-259.2917532142017
 20
-255.9334042007477
 30
0.0
 10
-270.5742228352785
 20
-254.8876343717994
 30
0.0
 10
-281.8589978841304
 20
-253.8416508531944
 30
0.0
 10
-293.1311877356005
 20
-252.6572878347012
 30
0.0
 10
-304.3836031800114
 20
-251.3055184925732
 30
0.0
 10
-316.0381047065244
 20
-249.9054459535488
 30
0.0
 10
-327.6713933664981
 20
-248.3257893697269
 30
0.0
 10
-339.2720787977308
 20
-246.5321918236165
 30
0.0
 10
-350.9409835693424
 20
-244.7280467937431
 30
0.0
 10
-362.5769005296768
 20
-242.7074371877403
 30
0.0
 10
-374.1634376679792
 20
-240.4321766351188
 30
0.0
 10
-385.5804348610669
 20
-238.19020882083
 30
0.0
 10
-396.9494867594055
 20
-235.700987893987
 30
0.0
 10
-408.2482564894688
 20
-232.9225492042438
 30
0.0
 10
-419.408410492273
 20
-230.1781969954899
 30
0.0
 10
-430.4999962220936
 20
-227.1516798648886
 30
0.0
 10
-441.4925210609646
 20
-223.7966480890559
 30
0.0
 10
-452.5415890228375
 20
-220.4243587698136
 30
0.0
 10
-463.4905743780162
 20
-216.7201664996294
 30
0.0
 10
-474.2954627417162
 20
-212.6302679621331
 30
0.0
 10
-485.2623168657688
 20
-208.4790616624029
 30
0.0
 10
-496.0807215788346
 20
-203.9304989181623
 30
0.0
 10
-506.6848163903258
 20
-198.9219374304465
 30
0.0
 10
-517.3756586962977
 20
-193.8724030763278
 30
0.0
 10
-527.8486704062484
 20
-188.3553130949321
 30
0.0
 10
-538.010072386137
 20
-182.3075398727611
 30
0.0
 10
-548.1430734427767
 20
-176.2766700605267
 30
0.0
 10
-557.9662042214961
 20
-169.7180793607983
 30
0.0
 10
-567.3585102119977
 20
-162.5854564446624
 30
0.0
 10
-576.624324514299
 20
-155.5488927407215
 30
0.0
 10
-585.4708402268815
 20
-147.9536543612295
 30
0.0
 10
-593.7673355540437
 20
-139.7947723583924
 30
0.0
 10
-601.9228320356888
 20
-131.7745504641435
 30
0.0
 10
-609.5468444503458
 20
-123.2096803837545
 30
0.0
 10
-616.5347043432561
 20
-114.1534130838968
 30
0.0
 10
-623.4960495137109
 20
-105.1315088676797
 30
0.0
 10
-629.8260606353114
 20
-95.62192947048676
 30
0.0
 10
-635.4871335094249
 20
-85.73279394350692
 30
0.0
 10
-641.1886366949815
 20
-75.77303208149439
 30
0.0
 10
-646.2116126527228
 20
-65.42827329415589
 30
0.0
 10
-650.6082190444555
 20
-54.82961631964385
 30
0.0
 10
-655.0250796018723
 20
-44.18213374305147
 30
0.0
 10
-658.8097862159807
 20
-33.27840828856536
 30
0.0
 10
-662.1064835308364
 20
-22.23553258180138
 30
0.0
 10
-665.3771137912302
 20
-11.27997312368193
 30
0.0
 10
-668.1674216409724
 20
-0.1874552413600976
 30
0.0
 10
-670.66248555025
 20
10.96932684694087
 30
0.0
 10
-673.1812306752089
 20
22.23200047649977
 30
0.0
 10
-675.3991008091506
 20
33.56016399339558
 30
0.0
 10
-677.3011910398482
 20
44.94167330665636
 30
0.0
 10
-679.2057024129826
 20
56.33766997429285
 30
0.0
 10
-680.7936294681247
 20
67.78714833087294
 30
0.0
 10
-682.0657048908653
 20
79.27160787100911
 30
0.0
 10
-683.3395622156862
 20
90.77215465093931
 30
0.0
 10
-684.2966824089085
 20
102.3077806851614
 30
0.0
 10
-684.934682826534
 20
113.8603587897313
 30
0.0
 10
-685.5720351418556
 20
125.4012013966176
 30
0.0
 10
-685.8909156974794
 20
136.9589616503801
 30
0.0
 10
-685.8909147169504
 20
148.5194444073146
 30
0.0
  0
ENDBLK
  5
159
330
156
100
AcDbEntity
  8
0
100
AcDbBlockEnd
  0
BLOCK
  5
15D
330
15B
100
AcDbEntity
  8
0
100
AcDbBlockBegin
  2
block 37
 70
     0
 10
0.0
 20
0.0
 30
0.0
  3
block 37
  1

  0
SPLINE
  5
15F
330
15B
100
AcDbEntity
  8
0
 62
   250
370
    25
100
AcDbSpline
210
0.0
220
0.0
230
1.0
 70
     8
 71
     3
 72
   293
 73
   289
 74
     0
 42
0.0000000001
 43
0.0000000001
 12
1.0
 22
0.0
 32
0.0
 13
1.0
 23
0.0
 33
0.0
 40
0.0
 40
0.0
 40
0.0
 40
0.0
 40
1.0
 40
1.0
 40
1.0
 40
2.0
 40
2.0
 40
2.0
 40
3.0
 40
3.0
 40
3.0
 40
4.0
 40
4.0
 40
4.0
 40
5.0
 40
5.0
 40
5.0
 40
6.0
 40
6.0
 40
6.0
 40
7.0
 40
7.0
 40
7.0
 40
8.0
 40
8.0
 40
8.0
 40
9.0
 40
9.0
 40
9.0
 40
10.0
 40
10.0
 40
10.0
 40
11.0
 40
11.0
 40
11.0
 40
12.0
 40
12.0
 40
12.0
 40
13.0
 40
13.0
 40
13.0
 40
14.0
 40
14.0
 40
14.0
 40
15.0
 40
15.0
 40
15.0
 40
16.0
 40
16.0
 40
16.0
 40
17.0
 40
17.0
 40
17.0
 40
18.0
 40
18.0
 40
18.0
 40
19.0
 40
19.0
 40
19.0
 40
20.0
 40
20.0
 40
20.0
 40
21.0
 40
21.0
 40
21.0
 40
22.0
 40
22.0
 40
22.0
 40
23.0
 40
23.0
 40
23.0
 40
24.0
 40
24.0
 40
24.0
 40
25.0
 40
25.0
 40
25.0
 40
26.0
 40
26.0
 40
26.0
 40
27.0
 40
27.0
 40
27.0
 40
28.0
 40
28.0
 40
28.0
 40
29.0
 40
29.0
 40
29.0
 40
30.0
 40
30.0
 40
30.0
 40
31.0
 40
31.0
 40
31.0
 40
32.0
 40
32.0
 40
32.0
 40
33.0
 40
33.0
 40
33.0
 40
34.0
 40
34.0
 40
34.0
 40
35.0
 40
35.0
 40
35.0
 40
36.0
 40
36.0
 40
36.0
 40
37.0
 40
37.0
 40
37.0
 40
38.0
 40
38.0
 40
38.0
 40
39.0
 40
39.0
 40
39.0
 40
40.0
 40
40.0
 40
40.0
 40
41.0
 40
41.0
 40
41.0
 40
42.0
 40
42.0
 40
42.0
 40
43.0
 40
43.0
 40
43.0
 40
44.0
 40
44.0
 40
44.0
 40
45.0
 40
45.0
 40
45.0
 40
46.0
 40
46.0
 40
46.0
 40
47.0
 40
47.0
 40
47.0
 40
48.0
 40
48.0
 40
48.0
 40
49.0
 40
49.0
 40
49.0
 40
50.0
 40
50.0
 40
50.0
 40
51.0
 40
51.0
 40
51.0
 40
52.0
 40
52.0
 40
52.0
 40
53.0
 40
53.0
 40
53.0
 40
54.0
 40
54.0
 40
54.0
 40
55.0
 40
55.0
 40
55.0
 40
56.0
 40
56.0
 40
56.0
 40
57.0
 40
57.0
 40
57.0
 40
58.0
 40
58.0
 40
58.0
 40
59.0
 40
59.0
 40
59.0
 40
60.0
 40
60.0
 40
60.0
 40
61.0
 40
61.0
 40
61.0
 40
62.0
 40
62.0
 40
62.0
 40
63.0
 40
63.0
 40
63.0
 40
64.0
 40
64.0
 40
64.0
 40
65.0
 40
65.0
 40
65.0
 40
66.0
 40
66.0
 40
66.0
 40
67.0
 40
67.0
 40
67.0
 40
68.0
 40
68.0
 40
68.0
 40
69.0
 40
69.0
 40
69.0
 40
70.0
 40
70.0
 40
70.0
 40
71.0
 40
71.0
 40
71.0
 40
72.0
 40
72.0
 40
72.0
 40
73.0
 40
73.0
 40
73.0
 40
74.0
 40
74.0
 40
74.0
 40
75.0
 40
75.0
 40
75.0
 40
76.0
 40
76.0
 40
76.0
 40
77.0
 40
77.0
 40
77.0
 40
78.0
 40
78.0
 40
78.0
 40
79.0
 40
79.0
 40
79.0
 40
80.0
 40
80.0
 40
80.0
 40
81.0
 40
81.0
 40
81.0
 40
82.0
 40
82.0
 40
82.0
 40
83.0
 40
83.0
 40
83.0
 40
84.0
 40
84.0
 40
84.0
 40
85.0
 40
85.0
 40
85.0
 40
86.0
 40
86.0
 40
86.0
 40
87.0
 40
87.0
 40
87.0
 40
88.0
 40
88.0
 40
88.0
 40
89.0
 40
89.0
 40
89.0
 40
90.0
 40
90.0
 40
90.0
 40
91.0
 40
91.0
 40
91.0
 40
92.0
 40
92.0
 40
92.0
 40
93.0
 40
93.0
 40
93.0
 40
94.0
 40
94.0
 40
94.0
 40
95.0
 40
95.0
 40
95.0
 40
96.0
 40
96.0
 40
96.0
 40
96.0
 10
904.9093929039533
 20
148.5194444073146
 30
0.0
 10
904.9093928069284
 20
141.355602355692
 30
0.0
 10
904.7887545248898
 20
134.1923636603078
 30
0.0
 10
904.5475305297732
 20
127.0330255848718
 30
0.0
 10
904.305804959907
 20
119.8588011660023
 30
0.0
 10
903.9429916901786
 20
112.6884936049793
 30
0.0
 10
903.4592991428057
 20
105.5263915392059
 30
0.0
 10
902.9753256515721
 20
98.36012949887049
 30
0.0
 10
902.3703324209476
 20
91.20208248855907
 30
0.0
 10
901.6446042052404
 20
84.05628953400179
 30
0.0
 10
900.9190033876605
 20
76.91175098910229
 30
0.0
 10
900.0727099701562
 20
69.77946219800718
 30
0.0
 10
899.1064327031178
 20
62.66346127559204
 30
0.0
 10
898.1403231927255
 20
55.5486957714314
 30
0.0
 10
897.0542714902837
 20
48.45021248088681
 30
0.0
 10
895.8481458002676
 20
41.37219894840534
 30
0.0
 10
894.6414150150863
 20
34.29063448265395
 30
0.0
 10
893.3144897335106
 20
27.22956031884235
 30
0.0
 10
891.8711522361623
 20
20.19241090102306
 30
0.0
 10
890.4290856288823
 20
13.16145784637969
 30
0.0
 10
888.8708117225743
 20
6.154387423777235
 30
0.0
 10
887.1868251928851
 20
-0.8228100427872505
 30
0.0
 10
885.5009332463583
 20
-7.807902150661395
 30
0.0
 10
883.6890440298962
 20
-14.76305366220822
 30
0.0
 10
881.7013108400797
 20
-21.66846273939532
 30
0.0
 10
879.7155454791728
 20
-28.56703555512922
 30
0.0
 10
877.5542841388651
 20
-35.41596437644913
 30
0.0
 10
875.1845826613048
 20
-42.19271313502382
 30
0.0
 10
872.8370116947137
 20
-48.90617421189526
 30
0.0
 10
870.2848756333874
 20
-55.54879710203175
 30
0.0
 10
867.504949637546
 20
-62.09535385296047
 30
0.0
 10
864.7454090989415
 20
-68.59390409110338
 30
0.0
 10
861.761407186349
 20
-74.99779194814103
 30
0.0
 10
858.5412335857827
 20
-81.28112136998124
 30
0.0
 10
855.3334298414018
 20
-87.54031424174354
 30
0.0
 10
851.8912653665158
 20
-93.67987311682363
 30
0.0
 10
848.2130627003237
 20
-99.67492814965085
 30
0.0
 10
844.5199956845355
 20
-105.694210393953
 30
0.0
 10
840.5889788679776
 20
-111.567818498456
 30
0.0
 10
836.4286817829624
 20
-117.2742340742946
 30
0.0
 10
832.342517195844
 20
-122.8789668058883
 30
0.0
 10
828.0351706479462
 20
-128.3224123426651
 30
0.0
 10
823.5216693425713
 20
-133.5889873532341
 30
0.0
 10
819.053724262692
 20
-138.802405122281
 30
0.0
 10
814.383764996306
 20
-143.8425047690615
 30
0.0
 10
809.5310107780995
 20
-148.6996355628508
 30
0.0
 10
804.6659426694381
 20
-153.5690913526838
 30
0.0
 10
799.6171507455412
 20
-158.2546485424917
 30
0.0
 10
794.4068431955341
 20
-162.7525592045081
 30
0.0
 10
789.243378346035
 20
-167.2100318923609
 30
0.0
 10
783.9212889927267
 20
-171.4832169166993
 30
0.0
 10
778.4625748828029
 20
-175.5734798413652
 30
0.0
 10
773.0161133870043
 20
-179.6545617735057
 30
0.0
 10
767.4336397813227
 20
-183.5535418572069
 30
0.0
 10
761.7360723849608
 20
-187.2757344852583
 30
0.0
 10
755.9779506880728
 20
-191.0374869385993
 30
0.0
 10
750.1022757439122
 20
-194.6186741384362
 30
0.0
 10
744.1287403168946
 20
-198.0277310790753
 30
0.0
 10
738.0737421923283
 20
-201.4832782393799
 30
0.0
 10
731.9181962862401
 20
-204.7619683559333
 30
0.0
 10
725.6800667485403
 20
-207.8744491547312
 30
0.0
 10
719.3954371993855
 20
-211.0101308813055
 30
0.0
 10
713.0269882467999
 20
-213.9771161533309
 30
0.0
 10
706.5903389402732
 20
-216.7872255114246
 30
0.0
 10
700.0941228620707
 20
-219.6233405029607
 30
0.0
 10
693.5284382941459
 20
-222.2996625875272
 30
0.0
 10
686.9066644065109
 20
-224.828457505499
 30
0.0
 10
680.2726881783276
 20
-227.3619123857978
 30
0.0
 10
673.5824157216632
 20
-229.7472958842234
 30
0.0
 10
666.8468943682053
 20
-231.9965724055064
 30
0.0
 10
660.108947499838
 20
-234.2466589091944
 30
0.0
 10
653.325719139844
 20
-236.3605403916858
 30
0.0
 10
646.5062146614038
 20
-238.3495142439396
 30
0.0
 10
639.5648268216219
 20
-240.3740365468853
 30
0.0
 10
632.5858545668526
 20
-242.2691464316833
 30
0.0
 10
625.5770244554549
 20
-244.0459452655606
 30
0.0
 10
618.4448694362527
 20
-245.854008026364
 30
0.0
 10
611.2817965795656
 20
-247.5395595871262
 30
0.0
 10
604.0943898941989
 20
-249.1134118761828
 30
0.0
 10
596.9386047053378
 20
-250.6803398924272
 30
0.0
 10
589.7586993335351
 20
-252.1365493323619
 30
0.0
 10
582.5598876393907
 20
-253.4918429648399
 30
0.0
 10
575.2766501126993
 20
-254.8630311363136
 30
0.0
 10
567.9740602062018
 20
-256.1309225905232
 30
0.0
 10
560.6564928959945
 20
-257.3049713645646
 30
0.0
 10
553.1635786401412
 20
-258.5071532404835
 30
0.0
 10
545.6549605895596
 20
-259.6109411480395
 30
0.0
 10
538.1344441133199
 20
-260.6259684668772
 30
0.0
 10
530.6654871978159
 20
-261.6340369069455
 30
0.0
 10
523.184794445133
 20
-262.5545576455605
 30
0.0
 10
515.6953412135704
 20
-263.3965883278305
 30
0.0
 10
508.2295386605728
 20
-264.2359599912933
 30
0.0
 10
500.7550308701273
 20
-264.9973365376474
 30
0.0
 10
493.2741732322602
 20
-265.6895039168352
 30
0.0
 10
485.631812635383
 20
-266.3966143794486
 30
0.0
 10
477.9828250599681
 20
-267.0314951282381
 30
0.0
 10
470.3292130357383
 20
-267.6038135951235
 30
0.0
 10
462.5627357116612
 20
-268.1845718542187
 30
0.0
 10
454.7914965426365
 20
-268.7009090555161
 30
0.0
 10
447.0170958386049
 20
-269.163215216008
 30
0.0
 10
439.4046787238917
 20
-269.6158889926946
 30
0.0
 10
431.7892304460473
 20
-270.0167598010856
 30
0.0
 10
424.1718620096394
 20
-270.3761312611616
 30
0.0
 10
416.5476392817283
 20
-270.7358260923394
 30
0.0
 10
408.9214929380873
 20
-271.0539468573832
 30
0.0
 10
401.29421958665
 20
-271.34136045167
 30
0.0
 10
393.5394752323589
 20
-271.6335774530581
 30
0.0
 10
385.7835658851919
 20
-271.8940523181743
 30
0.0
 10
378.0270596423612
 20
-272.1346242646476
 30
0.0
 10
370.3616746389744
 20
-272.3723700400312
 30
0.0
 10
362.6957066818755
 20
-272.5906777776939
 30
0.0
 10
355.0294828732858
 20
-272.7994335390596
 30
0.0
 10
347.3044404691048
 20
-273.0097909652366
 30
0.0
 10
339.5791382723747
 20
-273.2104492789685
 30
0.0
 10
331.8536035487336
 20
-273.4017561688631
 30
0.0
 10
324.2530349771274
 20
-273.5899685304393
 30
0.0
 10
316.6522413403379
 20
-273.7691295535491
 30
0.0
 10
309.0512432098754
 20
-273.9391357627335
 30
0.0
 10
301.5585003752447
 20
-274.1067207014235
 30
0.0
 10
294.0655588303691
 20
-274.2654097394811
 30
0.0
 10
286.572440816423
 20
-274.4152775246522
 30
0.0
 10
279.0827760560361
 20
-274.5650762422669
 30
0.0
 10
271.5929349891846
 20
-274.7060618358072
 30
0.0
 10
264.1029370092327
 20
-274.8381563340659
 30
0.0
 10
256.5258251420711
 20
-274.9717871832364
 30
0.0
 10
248.9485526905585
 20
-275.0963189151605
 30
0.0
 10
241.3711397252453
 20
-275.2116255291
 30
0.0
 10
233.7386669143454
 20
-275.3277699968468
 30
0.0
 10
226.1060515402187
 20
-275.4345547943717
 30
0.0
 10
218.4733148365509
 20
-275.5318278864752
 30
0.0
 10
210.888904763171
 20
-275.6284850945656
 30
0.0
 10
203.3043748918189
 20
-275.7157506625643
 30
0.0
 10
195.7197472072448
 20
-275.7934802382962
 30
0.0
 10
188.2277825281194
 20
-275.8702601753499
 30
0.0
 10
180.7357224111948
 20
-275.9377357032624
 30
0.0
 10
173.2435890564011
 20
-275.9957704565216
 30
0.0
 10
165.7585474762421
 20
-276.0537502762618
 30
0.0
 10
158.2734327968085
 20
-276.1023071854286
 30
0.0
 10
150.7882683308856
 20
-276.1413316775419
 30
0.0
 10
143.2765936219065
 20
-276.1804943829012
 30
0.0
 10
135.7648687731569
 20
-276.2100570296598
 30
0.0
 10
128.2531182490784
 20
-276.229941678413
 30
0.0
 10
120.7114276221398
 20
-276.2499055827984
 30
0.0
 10
113.1697111148109
 20
-276.2601141869293
 30
0.0
 10
105.6279940513991
 20
-276.2605414862085
 30
0.0
 10
98.0820835984862
 20
-276.2609690230962
 30
0.0
 10
90.53617258887407
 20
-276.2516043747656
 30
0.0
 10
82.99028639739551
 20
-276.2324728036376
 30
0.0
 10
75.47080605289459
 20
-276.2134081809704
 30
0.0
 10
67.95135035315298
 20
-276.1846448720105
 30
0.0
 10
60.4319438570716
 20
-276.1462602117207
 30
0.0
 10
52.94121673090274
 20
-276.1080219523204
 30
0.0
 10
45.45053843379588
 20
-276.0602355941538
 30
0.0
 10
37.95993235864503
 20
-276.0030102004409
 30
0.0
 10
30.46737309537192
 20
-275.9457698850692
 30
0.0
 10
22.97488609172254
 20
-275.8790856109849
 30
0.0
 10
15.48249355701679
 20
-275.8030952991787
 30
0.0
 10
7.901962567183192
 20
-275.7262110581556
 30
0.0
 10
0.3215282819723619
 20
-275.6398005442191
 30
0.0
 10
-7.258787167846497
 20
-275.5439939727348
 30
0.0
 10
-14.89734982735082
 20
-275.447451222731
 30
0.0
 10
-22.53579181817393
 20
-275.3413674615782
 30
0.0
 10
-30.17409130905421
 20
-275.225868887234
 30
0.0
 10
-37.76842757609459
 20
-275.1110350799059
 30
0.0
 10
-45.36262297882522
 20
-274.9868945238662
 30
0.0
 10
-52.95665753854266
 20
-274.85359688108
 30
0.0
 10
-60.45389567915913
 20
-274.7219983001597
 30
0.0
 10
-67.95097705096094
 20
-274.5814745840823
 30
0.0
 10
-75.44788255525917
 20
-274.4321315950806
 30
0.0
 10
-82.89402260434017
 20
-274.2837998853145
 30
0.0
 10
-90.33998915962647
 20
-274.1267679380269
 30
0.0
 10
-97.78576372730623
 20
-273.9610905977331
 30
0.0
 10
-105.2202011283635
 20
-273.7956655228844
 30
0.0
 10
-112.6544471260171
 20
-273.6216213625084
 30
0.0
 10
-120.0884739848222
 20
-273.4387074885192
 30
0.0
 10
-127.642935528973
 20
-273.2528303248566
 30
0.0
 10
-135.1971707764692
 20
-273.0577937327851
 30
0.0
 10
-142.7511700144891
 20
-272.8538884568991
 30
0.0
 10
-150.4452217594145
 20
-272.6462027404376
 30
0.0
 10
-158.1390286624218
 20
-272.429316437671
 30
0.0
 10
-165.8322900694351
 20
-272.1940130292154
 30
0.0
 10
-173.3877425775796
 20
-271.9629245956294
 30
0.0
 10
-180.9426689575611
 20
-271.7140729556852
 30
0.0
 10
-188.4965527445037
 20
-271.4361144820801
 30
0.0
 10
-196.1786790839577
 20
-271.1534370976344
 30
0.0
 10
-203.8597271296007
 20
-270.840656194904
 30
0.0
 10
-211.5389299310516
 20
-270.4869401519773
 30
0.0
 10
-219.3153039008137
 20
-270.1287482536682
 30
0.0
 10
-227.0897856321897
 20
-269.7285786897517
 30
0.0
 10
-234.861214999199
 20
-269.2752608642136
 30
0.0
 10
-242.4824663498018
 20
-268.8307031223707
 30
0.0
 10
-250.1007821662419
 20
-268.3350313855593
 30
0.0
 10
-257.7146889035101
 20
-267.7783880194318
 30
0.0
 10
-265.2424448254395
 20
-267.2280430335624
 30
0.0
 10
-272.7658908805411
 20
-266.6180983916364
 30
0.0
 10
-280.2831987286814
 20
-265.9394864066217
 30
0.0
 10
-287.9336274755304
 20
-265.2488571623199
 30
0.0
 10
-295.5776986925752
 20
-264.4871070380103
 30
0.0
 10
-303.2129401861715
 20
-263.6447092916712
 30
0.0
 10
-310.7761768319125
 20
-262.8102558548525
 30
0.0
 10
-318.3307495079609
 20
-261.8966687331645
 30
0.0
 10
-325.8736357944442
 20
-260.8945959901034
 30
0.0
 10
-333.2521855632432
 20
-259.9143553599755
 30
0.0
 10
-340.6195526169364
 20
-258.8494427712212
 30
0.0
 10
-347.9722620461305
 20
-257.6909673743301
 30
0.0
 10
-355.3333229496874
 20
-256.5311761389833
 30
0.0
 10
-362.6796929125012
 20
-255.2776094307384
 30
0.0
 10
-370.0070249079849
 20
-253.9206793451096
 30
0.0
 10
-377.3174529505529
 20
-252.5668796597515
 30
0.0
 10
-384.6089307646137
 20
-251.1101929598254
 30
0.0
 10
-391.8760807331133
 20
-249.540370743385
 30
0.0
 10
-398.9811228904871
 20
-248.005566442406
 30
0.0
 10
-406.0629104559107
 20
-246.3626177410207
 30
0.0
 10
-413.1152454571407
 20
-244.6012134238033
 30
0.0
 10
-420.1070612366497
 20
-242.8549245000753
 30
0.0
 10
-427.0699277741452
 20
-240.9922042778699
 30
0.0
 10
-433.9963859257902
 20
-239.0021534041472
 30
0.0
 10
-440.9813049566714
 20
-236.995306049289
 30
0.0
 10
-447.9291984179852
 20
-234.858969572996
 30
0.0
 10
-454.8306127237817
 20
-232.5811541376431
 30
0.0
 10
-461.7274042336189
 20
-230.3048644585201
 30
0.0
 10
-468.577778833637
 20
-227.8872852914373
 30
0.0
 10
-475.3700911770083
 20
-225.3156506921319
 30
0.0
 10
-482.1058087285868
 20
-222.7654434238023
 30
0.0
 10
-488.7844275632586
 20
-220.0637372640819
 30
0.0
 10
-495.3920445151757
 20
-217.1976347404256
 30
0.0
 10
-501.9135156518794
 20
-214.3688985986838
 30
0.0
 10
-508.3658241902605
 20
-211.3800247360096
 30
0.0
 10
-514.7328989632637
 20
-208.2187529476447
 30
0.0
 10
-521.0364549429712
 20
-205.089018431324
 30
0.0
 10
-527.2564692815523
 20
-201.7903085614176
 30
0.0
 10
-533.374559167114
 20
-198.3116519829558
 30
0.0
 10
-539.3967869801663
 20
-194.8875011792289
 30
0.0
 10
-545.3202593497554
 20
-191.288998524953
 30
0.0
 10
-551.1249705860878
 20
-187.5075498272248
 30
0.0
 10
-556.8436557920242
 20
-183.7821423359353
 30
0.0
 10
-562.4470738693607
 20
-179.8791711540812
 30
0.0
 10
-567.9139807670834
 20
-175.7929882887695
 30
0.0
 10
-573.3518664607245
 20
-171.7284970215245
 30
0.0
 10
-578.6546864734455
 20
-167.48273407489
 30
0.0
 10
-583.8008168692865
 20
-163.0543682573506
 30
0.0
 10
-589.0135299265793
 20
-158.5687064990921
 30
0.0
 10
-594.0654725129133
 20
-153.8956861261271
 30
0.0
 10
-598.9347953510609
 20
-149.0391520683476
 30
0.0
 10
-603.8630034464028
 20
-144.1238874095476
 30
0.0
 10
-608.6041482051978
 20
-139.0206437258816
 30
0.0
 10
-613.1375861073722
 20
-133.7389265304514
 30
0.0
 10
-617.687123605294
 20
-128.4384523754076
 30
0.0
 10
-622.0274763685386
 20
-122.9582348319018
 30
0.0
 10
-626.1435426501345
 20
-117.3144878779334
 30
0.0
 10
-630.2609697481291
 20
-111.6688750396641
 30
0.0
 10
-634.1539620368584
 20
-105.8596246438266
 30
0.0
 10
-637.8142533629058
 20
-99.90753893132535
 30
0.0
 10
-641.4819166622938
 20
-93.94346547979887
 30
0.0
 10
-644.9159407169635
 20
-87.83598078014904
 30
0.0
 10
-648.117424230695
 20
-81.60937032754187
 30
0.0
 10
-651.3741271364468
 20
-75.27536290034942
 30
0.0
 10
-654.390198573263
 20
-68.81808490363285
 30
0.0
 10
-657.1777648254492
 20
-62.26429949472485
 30
0.0
 10
-659.9865943713683
 20
-55.66052242584563
 30
0.0
 10
-662.5634194048956
 20
-48.95876003056019
 30
0.0
 10
-664.9318564595524
 20
-42.18486456972077
 30
0.0
 10
-667.3066521202131
 20
-35.39278305139761
 30
0.0
 10
-669.4719393704805
 20
-28.52818063250046
 30
0.0
 10
-671.461263845575
 20
-21.61382808496602
 30
0.0
 10
-673.4481656019759
 20
-14.7078962507873
 30
0.0
 10
-675.2595329182692
 20
-7.752335391543808
 30
0.0
 10
-676.9447995290949
 20
-0.7668218235949663
 30
0.0
 10
-678.624186276854
 20
6.194319420776615
 30
0.0
 10
-680.1783507100371
 20
13.18520472967112
 30
0.0
 10
-681.6170610476418
 20
20.19981917831391
 30
0.0
 10
-683.0603107320187
 20
27.23656578701605
 30
0.0
 10
-684.38737662152
 20
34.2971915097205
 30
0.0
 10
-685.5941020455562
 20
41.37833572348547
 30
0.0
 10
-686.8001895005054
 20
48.45573629267317
 30
0.0
 10
-687.8860636990466
 20
55.55363366332767
 30
0.0
 10
-688.8519938827664
 20
62.667809867385
 30
0.0
 10
-689.8180717419631
 20
69.78307371667523
 30
0.0
 10
-690.6641689084387
 20
76.91462137728507
 30
0.0
 10
-691.3895944836771
 20
84.05841516429015
 30
0.0
 10
-692.1151734789914
 20
91.20371979040884
 30
0.0
 10
-692.7200298360514
 20
98.36127572330649
 30
0.0
 10
-693.2039067278944
 20
105.5270426239543
 30
0.0
 10
-693.6875233693617
 20
112.6889554585576
 30
0.0
 10
-694.0502906468131
 20
119.8590704308506
 30
0.0
 10
-694.2919930046988
 20
127.0331015074423
 30
0.0
 10
-694.5331994969093
 20
134.1924146650373
 30
0.0
 10
-694.653837302679
 20
141.3556278751901
 30
0.0
 10
-694.6538374009616
 20
148.5194444073146
 30
0.0
  0
ENDBLK
  5
15E
330
15B
100
AcDbEntity
  8
0
100
AcDbBlockEnd
  0
BLOCK
  5
162
330
160
100
AcDbEntity
  8
0
100
AcDbBlockBegin
  2
block 38
 70
     0
 10
0.0
 20
0.0
 30
0.0
  3
block 38
  1

  0
SPLINE
  5
164
330
160
100
AcDbEntity
  8
0
 62
   250
370
    25
100
AcDbSpline
210
0.0
220
0.0
230
1.0
 70
     8
 71
     3
 72
   293
 73
   289
 74
     0
 42
0.0000000001
 43
0.0000000001
 12
1.0
 22
0.0
 32
0.0
 13
1.0
 23
0.0
 33
0.0
 40
0.0
 40
0.0
 40
0.0
 40
0.0
 40
1.0
 40
1.0
 40
1.0
 40
2.0
 40
2.0
 40
2.0
 40
3.0
 40
3.0
 40
3.0
 40
4.0
 40
4.0
 40
4.0
 40
5.0
 40
5.0
 40
5.0
 40
6.0
 40
6.0
 40
6.0
 40
7.0
 40
7.0
 40
7.0
 40
8.0
 40
8.0
 40
8.0
 40
9.0
 40
9.0
 40
9.0
 40
10.0
 40
10.0
 40
10.0
 40
11.0
 40
11.0
 40
11.0
 40
12.0
 40
12.0
 40
12.0
 40
13.0
 40
13.0
 40
13.0
 40
14.0
 40
14.0
 40
14.0
 40
15.0
 40
15.0
 40
15.0
 40
16.0
 40
16.0
 40
16.0
 40
17.0
 40
17.0
 40
17.0
 40
18.0
 40
18.0
 40
18.0
 40
19.0
 40
19.0
 40
19.0
 40
20.0
 40
20.0
 40
20.0
 40
21.0
 40
21.0
 40
21.0
 40
22.0
 40
22.0
 40
22.0
 40
23.0
 40
23.0
 40
23.0
 40
24.0
 40
24.0
 40
24.0
 40
25.0
 40
25.0
 40
25.0
 40
26.0
 40
26.0
 40
26.0
 40
27.0
 40
27.0
 40
27.0
 40
28.0
 40
28.0
 40
28.0
 40
29.0
 40
29.0
 40
29.0
 40
30.0
 40
30.0
 40
30.0
 40
31.0
 40
31.0
 40
31.0
 40
32.0
 40
32.0
 40
32.0
 40
33.0
 40
33.0
 40
33.0
 40
34.0
 40
34.0
 40
34.0
 40
35.0
 40
35.0
 40
35.0
 40
36.0
 40
36.0
 40
36.0
 40
37.0
 40
37.0
 40
37.0
 40
38.0
 40
38.0
 40
38.0
 40
39.0
 40
39.0
 40
39.0
 40
40.0
 40
40.0
 40
40.0
 40
41.0
 40
41.0
 40
41.0
 40
42.0
 40
42.0
 40
42.0
 40
43.0
 40
43.0
 40
43.0
 40
44.0
 40
44.0
 40
44.0
 40
45.0
 40
45.0
 40
45.0
 40
46.0
 40
46.0
 40
46.0
 40
47.0
 40
47.0
 40
47.0
 40
48.0
 40
48.0
 40
48.0
 40
49.0
 40
49.0
 40
49.0
 40
50.0
 40
50.0
 40
50.0
 40
51.0
 40
51.0
 40
51.0
 40
52.0
 40
52.0
 40
52.0
 40
53.0
 40
53.0
 40
53.0
 40
54.0
 40
54.0
 40
54.0
 40
55.0
 40
55.0
 40
55.0
 40
56.0
 40
56.0
 40
56.0
 40
57.0
 40
57.0
 40
57.0
 40
58.0
 40
58.0
 40
58.0
 40
59.0
 40
59.0
 40
59.0
 40
60.0
 40
60.0
 40
60.0
 40
61.0
 40
61.0
 40
61.0
 40
62.0
 40
62.0
 40
62.0
 40
63.0
 40
63.0
 40
63.0
 40
64.0
 40
64.0
 40
64.0
 40
65.0
 40
65.0
 40
65.0
 40
66.0
 40
66.0
 40
66.0
 40
67.0
 40
67.0
 40
67.0
 40
68.0
 40
68.0
 40
68.0
 40
69.0
 40
69.0
 40
69.0
 40
70.0
 40
70.0
 40
70.0
 40
71.0
 40
71.0
 40
71.0
 40
72.0
 40
72.0
 40
72.0
 40
73.0
 40
73.0
 40
73.0
 40
74.0
 40
74.0
 40
74.0
 40
75.0
 40
75.0
 40
75.0
 40
76.0
 40
76.0
 40
76.0
 40
77.0
 40
77.0
 40
77.0
 40
78.0
 40
78.0
 40
78.0
 40
79.0
 40
79.0
 40
79.0
 40
80.0
 40
80.0
 40
80.0
 40
81.0
 40
81.0
 40
81.0
 40
82.0
 40
82.0
 40
82.0
 40
83.0
 40
83.0
 40
83.0
 40
84.0
 40
84.0
 40
84.0
 40
85.0
 40
85.0
 40
85.0
 40
86.0
 40
86.0
 40
86.0
 40
87.0
 40
87.0
 40
87.0
 40
88.0
 40
88.0
 40
88.0
 40
89.0
 40
89.0
 40
89.0
 40
90.0
 40
90.0
 40
90.0
 40
91.0
 40
91.0
 40
91.0
 40
92.0
 40
92.0
 40
92.0
 40
93.0
 40
93.0
 40
93.0
 40
94.0
 40
94.0
 40
94.0
 40
95.0
 40
95.0
 40
95.0
 40
96.0
 40
96.0
 40
96.0
 40
96.0
 10
904.9093929039533
 20
148.5194444073146
 30
0.0
 10
904.9093928069284
 20
155.6832864589372
 30
0.0
 10
904.7887545248898
 20
162.8465251543342
 30
0.0
 10
904.5475305297732
 20
170.0058632297831
 30
0.0
 10
904.305804959907
 20
177.1800876486339
 30
0.0
 10
903.9429916901786
 20
184.3503952096563
 30
0.0
 10
903.4592991428057
 20
191.5124972754034
 30
0.0
 10
902.9753256515721
 20
198.6787593157523
 30
0.0
 10
902.3703324209476
 20
205.8368063260515
 30
0.0
 10
901.6446042052404
 20
212.9825992806216
 30
0.0
 10
900.9190033876605
 20
220.1271378255269
 30
0.0
 10
900.0727099701562
 20
227.2594266166028
 30
0.0
 10
899.1064327031178
 20
234.3754275390442
 30
0.0
 10
898.1403231927255
 20
241.4901930432048
 30
0.0
 10
897.0542714902837
 20
248.5886763337289
 30
0.0
 10
895.8481458002676
 20
255.6666898662303
 30
0.0
 10
894.6414150150863
 20
262.7482543319823
 30
0.0
 10
893.3144897335106
 20
269.8093284957804
 30
0.0
 10
891.8711522361623
 20
276.8464779136125
 30
0.0
 10
890.4290856288823
 20
283.8774309682431
 30
0.0
 10
888.8708117225743
 20
290.8845013908584
 30
0.0
 10
887.1868251928851
 20
297.8616988574107
 30
0.0
 10
885.5009332463583
 20
304.8467909652778
 30
0.0
 10
883.6890440298962
 20
311.8019424768303
 30
0.0
 10
881.7013108400797
 20
318.7073515539994
 30
0.0
 10
879.7155454791728
 20
325.6059243697654
 30
0.0
 10
877.5542841388651
 20
332.4548531910976
 30
0.0
 10
875.1845826613048
 20
339.2316019496594
 30
0.0
 10
872.8370116947137
 20
345.9450630265373
 30
0.0
 10
870.2848756333874
 20
352.5876859166609
 30
0.0
 10
867.504949637546
 20
359.1342426675967
 30
0.0
 10
864.7454090989415
 20
365.632792905739
 30
0.0
 10
861.761407186349
 20
372.0366807627638
 30
0.0
 10
858.5412335857827
 20
378.3200101846111
 30
0.0
 10
855.3334298414018
 20
384.5792030563856
 30
0.0
 10
851.8912653665158
 20
390.7187619314599
 30
0.0
 10
848.2130627003237
 20
396.7138169642736
 30
0.0
 10
844.5199956845355
 20
402.7330992085887
 30
0.0
 10
840.5889788679776
 20
408.6067073130852
 30
0.0
 10
836.4286817829624
 20
414.3131228889173
 30
0.0
 10
832.342517195844
 20
419.9178556204989
 30
0.0
 10
828.0351706479462
 20
425.3613011572751
 30
0.0
 10
823.5216693425713
 20
430.6278761678433
 30
0.0
 10
819.053724262692
 20
435.8412939369236
 30
0.0
 10
814.383764996306
 20
440.8813935836785
 30
0.0
 10
809.5310107780995
 20
445.7385243774735
 30
0.0
 10
804.6659426694381
 20
450.6079801673072
 30
0.0
 10
799.6171507455412
 20
455.2935373571016
 30
0.0
 10
794.4068431955341
 20
459.7914480191181
 30
0.0
 10
789.243378346035
 20
464.2489207069837
 30
0.0
 10
783.9212889927267
 20
468.522105731322
 30
0.0
 10
778.4625748828029
 20
472.6123686559751
 30
0.0
 10
773.0161133870043
 20
476.693450588142
 30
0.0
 10
767.4336397813227
 20
480.5924306718425
 30
0.0
 10
761.7360723849608
 20
484.3146232998747
 30
0.0
 10
755.9779506880728
 20
488.0763757532342
 30
0.0
 10
750.1022757439122
 20
491.6575629530724
 30
0.0
 10
744.1287403168946
 20
495.0666198936788
 30
0.0
 10
738.0737421923283
 20
498.5221670540033
 30
0.0
 10
731.9181962862401
 20
501.8008571705567
 30
0.0
 10
725.6800667485403
 20
504.9133379693546
 30
0.0
 10
719.3954371993855
 20
508.0490196959289
 30
0.0
 10
713.0269882467999
 20
511.0160049679344
 30
0.0
 10
706.5903389402732
 20
513.8261143260345
 30
0.0
 10
700.0941228620707
 20
516.6622293175834
 30
0.0
 10
693.5284382941459
 20
519.33855140215
 30
0.0
 10
686.9066644065109
 20
521.8673463201346
 30
0.0
 10
680.2726881783276
 20
524.4008012004334
 30
0.0
 10
673.5824157216632
 20
526.7861846988591
 30
0.0
 10
666.8468943682053
 20
529.0354612201228
 30
0.0
 10
660.108947499838
 20
531.2855477238172
 30
0.0
 10
653.325719139844
 20
533.3994292063086
 30
0.0
 10
646.5062146614038
 20
535.388403058563
 30
0.0
 10
639.5648268216219
 20
537.4129253615023
 30
0.0
 10
632.5858545668526
 20
539.3080352463066
 30
0.0
 10
625.5770244554549
 20
541.0848340801962
 30
0.0
 10
618.4448694362527
 20
542.8928968409867
 30
0.0
 10
611.2817965795656
 20
544.5784484017362
 30
0.0
 10
604.0943898941989
 20
546.1523006908055
 30
0.0
 10
596.9386047053378
 20
547.7192287070493
 30
0.0
 10
589.7586993335351
 20
549.1754381469847
 30
0.0
 10
582.5598876393907
 20
550.5307317794562
 30
0.0
 10
575.2766501126993
 20
551.9019199509563
 30
0.0
 10
567.9740602062018
 20
553.1698114051591
 30
0.0
 10
560.6564928959945
 20
554.3438601792072
 30
0.0
 10
553.1635786401412
 20
555.5460420551129
 30
0.0
 10
545.6549605895596
 20
556.6498299626629
 30
0.0
 10
538.1344441133199
 20
557.664857281513
 30
0.0
 10
530.6654871978159
 20
558.6729257215814
 30
0.0
 10
523.184794445133
 20
559.5934464601764
 30
0.0
 10
515.6953412135704
 20
560.4354771424407
 30
0.0
 10
508.2295386605728
 20
561.2748488059232
 30
0.0
 10
500.7550308701273
 20
562.0362253522705
 30
0.0
 10
493.2741732322602
 20
562.7283927314714
 30
0.0
 10
485.631812635383
 20
563.4355031940646
 30
0.0
 10
477.9828250599681
 20
564.0703839428868
 30
0.0
 10
470.3292130357383
 20
564.6427024097527
 30
0.0
 10
462.5627357116612
 20
565.2234606688479
 30
0.0
 10
454.7914965426365
 20
565.7397978701516
 30
0.0
 10
447.0170958386049
 20
566.2021040306307
 30
0.0
 10
439.4046787238917
 20
566.6547778073309
 30
0.0
 10
431.7892304460473
 20
567.055648615709
 30
0.0
 10
424.1718620096394
 20
567.4150200757979
 30
0.0
 10
416.5476392817283
 20
567.7747149069692
 30
0.0
 10
408.9214929380873
 20
568.0928356720002
 30
0.0
 10
401.29421958665
 20
568.3802492662934
 30
0.0
 10
393.5394752323589
 20
568.6724662676944
 30
0.0
 10
385.7835658851919
 20
568.9329411327977
 30
0.0
 10
378.0270596423612
 20
569.1735130792832
 30
0.0
 10
370.3616746389744
 20
569.4112588546411
 30
0.0
 10
362.6957066818755
 20
569.6295665923295
 30
0.0
 10
355.0294828732858
 20
569.838322353708
 30
0.0
 10
347.3044404691048
 20
570.0486797798529
 30
0.0
 10
339.5791382723747
 20
570.2493380935913
 30
0.0
 10
331.8536035487336
 20
570.4406449834794
 30
0.0
 10
324.2530349771274
 20
570.628857345075
 30
0.0
 10
316.6522413403379
 20
570.8080183681718
 30
0.0
 10
309.0512432098754
 20
570.9780245773434
 30
0.0
 10
301.5585003752447
 20
571.1456095160462
 30
0.0
 10
294.0655588303691
 20
571.3042985540911
 30
0.0
 10
286.572440816423
 20
571.4541663392878
 30
0.0
 10
279.0827760560361
 20
571.6039650569024
 30
0.0
 10
271.5929349891846
 20
571.7449506504429
 30
0.0
 10
264.1029370092327
 20
571.8770451487014
 30
0.0
 10
256.5258251420711
 20
572.010675997872
 30
0.0
 10
248.9485526905585
 20
572.1352077298025
 30
0.0
 10
241.3711397252453
 20
572.2505143437099
 30
0.0
 10
233.7386669143454
 20
572.3666588114696
 30
0.0
 10
226.1060515402187
 20
572.4734436089881
 30
0.0
 10
218.4733148365509
 20
572.5707167011109
 30
0.0
 10
210.888904763171
 20
572.6673739091691
 30
0.0
 10
203.3043748918189
 20
572.7546394771871
 30
0.0
 10
195.7197472072448
 20
572.8323690529254
 30
0.0
 10
188.2277825281194
 20
572.9091489899727
 30
0.0
 10
180.7357224111948
 20
572.9766245178852
 30
0.0
 10
173.2435890564011
 20
573.0346592711572
 30
0.0
 10
165.7585474762421
 20
573.0926390908718
 30
0.0
 10
158.2734327968085
 20
573.1411960000386
 30
0.0
 10
150.7882683308856
 20
573.1802204921647
 30
0.0
 10
143.2765936219065
 20
573.2193831975496
 30
0.0
 10
135.7648687731569
 20
573.2489458442698
 30
0.0
 10
128.2531182490784
 20
573.2688304930485
 30
0.0
 10
120.7114276221398
 20
573.2887943974405
 30
0.0
 10
113.1697111148109
 20
573.2990030015584
 30
0.0
 10
105.6279940513991
 20
573.2994303008377
 30
0.0
 10
98.0820835984862
 20
573.2998578377125
 30
0.0
 10
90.53617258887407
 20
573.2904931893884
 30
0.0
 10
82.99028639739551
 20
573.2713616182732
 30
0.0
 10
75.47080605289459
 20
573.2522969955932
 30
0.0
 10
67.95135035315298
 20
573.2235336866461
 30
0.0
 10
60.4319438570716
 20
573.1851490263435
 30
0.0
 10
52.94121673090274
 20
573.1469107669432
 30
0.0
 10
45.45053843379588
 20
573.0991244088021
 30
0.0
 10
37.95993235864503
 20
573.0418990150508
 30
0.0
 10
30.46737309537192
 20
572.984658699692
 30
0.0
 10
22.97488609172254
 20
572.9179744255948
 30
0.0
 10
15.48249355701679
 20
572.841984113795
 30
0.0
 10
7.901962567183192
 20
572.7650998727848
 30
0.0
 10
0.3215282819723619
 20
572.6786893588546
 30
0.0
 10
-7.258787167846497
 20
572.5828827873576
 30
0.0
 10
-14.89734982735082
 20
572.4863400373474
 30
0.0
 10
-22.53579181817393
 20
572.3802562762138
 30
0.0
 10
-30.17409130905421
 20
572.2647577018632
 30
0.0
 10
-37.76842757609459
 20
572.1499238945223
 30
0.0
 10
-45.36262297882522
 20
572.0257833384825
 30
0.0
 10
-52.95665753854266
 20
571.89248569569
 30
0.0
 10
-60.45389567915913
 20
571.7608871147696
 30
0.0
 10
-67.95097705096094
 20
571.6203633987116
 30
0.0
 10
-75.44788255525917
 20
571.4710204097163
 30
0.0
 10
-82.89402260434017
 20
571.3226886999502
 30
0.0
 10
-90.33998915962647
 20
571.1656567526496
 30
0.0
 10
-97.78576372730623
 20
570.9999794123687
 30
0.0
 10
-105.2202011283635
 20
570.83455433752
 30
0.0
 10
-112.6544471260171
 20
570.6605101771183
 30
0.0
 10
-120.0884739848222
 20
570.477596303142
 30
0.0
 10
-127.642935528973
 20
570.2917191394922
 30
0.0
 10
-135.1971707764692
 20
570.0966825474208
 30
0.0
 10
-142.7511700144891
 20
569.8927772715219
 30
0.0
 10
-150.4452217594145
 20
569.6850915550732
 30
0.0
 10
-158.1390286624218
 20
569.4682052523066
 30
0.0
 10
-165.8322900694351
 20
569.2329018438381
 30
0.0
 10
-173.3877425775796
 20
569.0018134102656
 30
0.0
 10
-180.9426689575611
 20
568.7529617702952
 30
0.0
 10
-188.4965527445037
 20
568.4750032967099
 30
0.0
 10
-196.1786790839577
 20
568.1923259122578
 30
0.0
 10
-203.8597271296007
 20
567.8795450095338
 30
0.0
 10
-211.5389299310516
 20
567.5258289666
 30
0.0
 10
-219.3153039008137
 20
567.1676370683037
 30
0.0
 10
-227.0897856321897
 20
566.7674675043879
 30
0.0
 10
-234.861214999199
 20
566.31414967883
 30
0.0
 10
-242.4824663498018
 20
565.8695919370062
 30
0.0
 10
-250.1007821662419
 20
565.3739202001956
 30
0.0
 10
-257.7146889035101
 20
564.817276834068
 30
0.0
 10
-265.2424448254395
 20
564.2669318481854
 30
0.0
 10
-272.7658908805411
 20
563.6569872062855
 30
0.0
 10
-280.2831987286814
 20
562.9783752212317
 30
0.0
 10
-287.9336274755304
 20
562.2877459769429
 30
0.0
 10
-295.5776986925752
 20
561.5259958526399
 30
0.0
 10
-303.2129401861715
 20
560.683598106307
 30
0.0
 10
-310.7761768319125
 20
559.8491446694628
 30
0.0
 10
-318.3307495079609
 20
558.9355575477879
 30
0.0
 10
-325.8736357944442
 20
557.9334848047457
 30
0.0
 10
-333.2521855632432
 20
556.9532441745986
 30
0.0
 10
-340.6195526169364
 20
555.8883315858446
 30
0.0
 10
-347.9722620461305
 20
554.7298561889529
 30
0.0
 10
-355.3333229496874
 20
553.5700649536313
 30
0.0
 10
-362.6796929125012
 20
552.3164982453746
 30
0.0
 10
-370.0070249079849
 20
550.9595681597331
 30
0.0
 10
-377.3174529505529
 20
549.6057684743871
 30
0.0
 10
-384.6089307646137
 20
548.149081774461
 30
0.0
 10
-391.8760807331133
 20
546.5792595580014
 30
0.0
 10
-398.9811228904871
 20
545.0444552570352
 30
0.0
 10
-406.0629104559107
 20
543.4015065556434
 30
0.0
 10
-413.1152454571407
 20
541.6401022384512
 30
0.0
 10
-420.1070612366497
 20
539.8938133146853
 30
0.0
 10
-427.0699277741452
 20
538.0310930924933
 30
0.0
 10
-433.9963859257902
 20
536.0410422187833
 30
0.0
 10
-440.9813049566714
 20
534.0341948639182
 30
0.0
 10
-447.9291984179852
 20
531.8978583876379
 30
0.0
 10
-454.8306127237817
 20
529.6200429522659
 30
0.0
 10
-461.7274042336189
 20
527.3437532731492
 30
0.0
 10
-468.577778833637
 20
524.9261741060793
 30
0.0
 10
-475.3700911770083
 20
522.3545395067547
 30
0.0
 10
-482.1058087285868
 20
519.8043322384123
 30
0.0
 10
-488.7844275632586
 20
517.1026260787046
 30
0.0
 10
-495.3920445151757
 20
514.2365235550612
 30
0.0
 10
-501.9135156518794
 20
511.4077874133066
 30
0.0
 10
-508.3658241902605
 20
508.4189135506452
 30
0.0
 10
-514.7328989632637
 20
505.2576417622739
 30
0.0
 10
-521.0364549429712
 20
502.1279072459339
 30
0.0
 10
-527.2564692815523
 20
498.8291973760282
 30
0.0
 10
-533.374559167114
 20
495.3505407975663
 30
0.0
 10
-539.3967869801663
 20
491.9263899938645
 30
0.0
 10
-545.3202593497554
 20
488.3278873395757
 30
0.0
 10
-551.1249705860878
 20
484.5464386418475
 30
0.0
 10
-556.8436557920242
 20
480.8210311505703
 30
0.0
 10
-562.4470738693607
 20
476.9180599686918
 30
0.0
 10
-567.9139807670834
 20
472.8318771033923
 30
0.0
 10
-573.3518664607245
 20
468.767385836128
 30
0.0
 10
-578.6546864734455
 20
464.5216228895256
 30
0.0
 10
-583.8008168692865
 20
460.0932570719862
 30
0.0
 10
-589.0135299265793
 20
455.6075953137276
 30
0.0
 10
-594.0654725129133
 20
450.9345749407435
 30
0.0
 10
-598.9347953510609
 20
446.0780408829831
 30
0.0
 10
-603.8630034464028
 20
441.1627762241646
 30
0.0
 10
-608.6041482051978
 20
436.0595325405179
 30
0.0
 10
-613.1375861073722
 20
430.777815345087
 30
0.0
 10
-617.687123605294
 20
425.4773411900111
 30
0.0
 10
-622.0274763685386
 20
419.9971236465381
 30
0.0
 10
-626.1435426501345
 20
414.3533766925562
 30
0.0
 10
-630.2609697481291
 20
408.7077638542997
 30
0.0
 10
-634.1539620368584
 20
402.8985134584494
 30
0.0
 10
-637.8142533629058
 20
396.9464277459674
 30
0.0
 10
-641.4819166622938
 20
390.982354294428
 30
0.0
 10
-644.9159407169635
 20
384.8748695947789
 30
0.0
 10
-648.117424230695
 20
378.6482591421774
 30
0.0
 10
-651.3741271364468
 20
372.3142517149793
 30
0.0
 10
-654.390198573263
 20
365.8569737182678
 30
0.0
 10
-657.1777648254492
 20
359.3031883093482
 30
0.0
 10
-659.9865943713683
 20
352.6994112404748
 30
0.0
 10
-662.5634194048956
 20
345.9976488451829
 30
0.0
 10
-664.9318564595524
 20
339.2237533843435
 30
0.0
 10
-667.3066521202131
 20
332.4316718660204
 30
0.0
 10
-669.4719393704805
 20
325.5670694471367
 30
0.0
 10
-671.461263845575
 20
318.6527168995894
 30
0.0
 10
-673.4481656019759
 20
311.7467850653908
 30
0.0
 10
-675.2595329182692
 20
304.7912242061794
 30
0.0
 10
-676.9447995290949
 20
297.8057106382113
 30
0.0
 10
-678.624186276854
 20
290.8445693938333
 30
0.0
 10
-680.1783507100371
 20
283.8536840849453
 30
0.0
 10
-681.6170610476418
 20
276.8390696363089
 30
0.0
 10
-683.0603107320187
 20
269.8023230275945
 30
0.0
 10
-684.38737662152
 20
262.7416973049029
 30
0.0
 10
-685.5941020455562
 20
255.6605530911501
 30
0.0
 10
-686.8001895005054
 20
248.5831525219432
 30
0.0
 10
-687.8860636990466
 20
241.4852551512893
 30
0.0
 10
-688.8519938827664
 20
234.3710789472384
 30
0.0
 10
-689.8180717419631
 20
227.255815097954
 30
0.0
 10
-690.6641689084387
 20
220.1242674373377
 30
0.0
 10
-691.3895944836771
 20
212.9804736503461
 30
0.0
 10
-692.1151734789914
 20
205.8351690242338
 30
0.0
 10
-692.7200298360514
 20
198.6776130913285
 30
0.0
 10
-693.2039067278944
 20
191.5118461906813
 30
0.0
 10
-693.6875233693617
 20
184.3499333560837
 30
0.0
 10
-694.0502906468131
 20
177.1798183837984
 30
0.0
 10
-694.2919930046988
 20
170.005787307174
 30
0.0
 10
-694.5331994969093
 20
162.8464741495919
 30
0.0
 10
-694.653837302679
 20
155.6832609394391
 30
0.0
 10
-694.6538374009616
 20
148.5194444073146
 30
0.0
  0
ENDBLK
  5
163
330
160
100
AcDbEntity
  8
0
100
AcDbBlockEnd
  0
BLOCK
  5
167
330
165
100
AcDbEntity
  8
0
100
AcDbBlockBegin
  2
block 39
 70
     0
 10
0.0
 20
0.0
 30
0.0
  3
block 39
  1

  0
POLYLINE
  5
169
330
165
100
AcDbEntity
  8
0
 62
   250
370
    25
100
AcDb2dPolyline
 66
     1
 10
0.0
 20
0.0
 30
0.0
  0
VERTEX
  5
16A
330
169
100
AcDbEntity
  8
0
 62
   250
370
    25
100
AcDbVertex
100
AcDb2dVertex
 10
151.1279764005121
 20
517.7123262986856
 30
0.0
  0
VERTEX
  5
16B
330
169
100
AcDbEntity
  8
0
 62
   250
370
    25
100
AcDbVertex
100
AcDb2dVertex
 10
151.8439745405252
 20
517.6996185740313
 30
0.0
  0
VERTEX
  5
16C
330
169
100
AcDbEntity
  8
0
 62
   250
370
    25
100
AcDbVertex
100
AcDb2dVertex
 10
152.5457765699473
 20
517.6723846795182
 30
0.0
  0
VERTEX
  5
16D
330
169
100
AcDbEntity
  8
0
 62
   250
370
    25
100
AcDbVertex
100
AcDb2dVertex
 10
152.8856237595149
 20
517.6533140529416
 30
0.0
  0
VERTEX
  5
16E
330
169
100
AcDbEntity
  8
0
 62
   250
370
    25
100
AcDbVertex
100
AcDb2dVertex
 10
153.2143869459883
 20
517.63063008574
 30
0.0
  0
VERTEX
  5
16F
330
169
100
AcDbEntity
  8
0
 62
   250
370
    25
100
AcDbVertex
100
AcDb2dVertex
 10
153.5289473272557
 20
517.6043745637893
 30
0.0
  0
VERTEX
  5
170
330
169
100
AcDbEntity
  8
0
 62
   250
370
    25
100
AcDbVertex
100
AcDb2dVertex
 10
153.8259740601256
 20
517.5746152693417
 30
0.0
  0
VERTEX
  5
171
330
169
100
AcDbEntity
  8
0
 62
   250
370
    25
100
AcDbVertex
100
AcDb2dVertex
 10
154.1019693674569
 20
517.5414510102723
 30
0.0
  0
VERTEX
  5
172
330
169
100
AcDbEntity
  8
0
 62
   250
370
    25
100
AcDbVertex
100
AcDb2dVertex
 10
154.3533136455586
 20
517.5050166493237
 30
0.0
  0
VERTEX
  5
173
330
169
100
AcDbEntity
  8
0
 62
   250
370
    25
100
AcDbVertex
100
AcDb2dVertex
 10
154.5763081059511
 20
517.4654884170154
 30
0.0
  0
VERTEX
  5
174
330
169
100
AcDbEntity
  8
0
 62
   250
370
    25
100
AcDbVertex
100
AcDb2dVertex
 10
154.6759641679719
 20
517.4446375853764
 30
0.0
  0
VERTEX
  5
175
330
169
100
AcDbEntity
  8
0
 62
   250
370
    25
100
AcDbVertex
100
AcDb2dVertex
 10
154.7670147457515
 20
517.4231200817671
 30
0.0
  0
VERTEX
  5
176
330
169
100
AcDbEntity
  8
0
 62
   250
370
    25
100
AcDbVertex
100
AcDb2dVertex
 10
154.8489233497596
 20
517.4009908316339
 30
0.0
  0
VERTEX
  5
177
330
169
100
AcDbEntity
  8
0
 62
   250
370
    25
100
AcDbVertex
100
AcDb2dVertex
 10
154.921171403636
 20
517.378313013109
 30
0.0
  0
VERTEX
  5
178
330
169
100
AcDbEntity
  8
0
 62
   250
370
    25
100
AcDbVertex
100
AcDb2dVertex
 10
154.9832701043545
 20
517.3551576164078
 30
0.0
  0
VERTEX
  5
179
330
169
100
AcDbEntity
  8
0
 62
   250
370
    25
100
AcDbVertex
100
AcDb2dVertex
 10
155.0347722822067
 20
517.3316030032178
 30
0.0
  0
VERTEX
  5
17A
330
169
100
AcDbEntity
  8
0
 62
   250
370
    25
100
AcDbVertex
100
AcDb2dVertex
 10
155.0752842609281
 20
517.3077344660899
 30
0.0
  0
VERTEX
  5
17B
330
169
100
AcDbEntity
  8
0
 62
   250
370
    25
100
AcDbVertex
100
AcDb2dVertex
 10
155.1044777177014
 20
517.2836437878922
 30
0.0
  0
VERTEX
  5
17C
330
169
100
AcDbEntity
  8
0
 62
   250
370
    25
100
AcDbVertex
100
AcDb2dVertex
 10
155.122101543327
 20
517.2594288012003
 30
0.0
  0
VERTEX
  5
17D
330
169
100
AcDbEntity
  8
0
 62
   250
370
    25
100
AcDbVertex
100
AcDb2dVertex
 10
155.1279936738697
 20
517.2351928005847
 30
0.0
  0
SEQEND
  5
17E
330
169
100
AcDbEntity
  8
0
 62
   250
370
    25
  0
ENDBLK
  5
168
330
165
100
AcDbEntity
  8
0
100
AcDbBlockEnd
  0
BLOCK
  5
181
330
17F
100
AcDbEntity
  8
0
100
AcDbBlockBegin
  2
block 40
 70
     0
 10
0.0
 20
0.0
 30
0.0
  3
block 40
  1

  0
POLYLINE
  5
183
330
17F
100
AcDbEntity
  8
0
 62
   250
370
    25
100
AcDb2dPolyline
 66
     1
 10
0.0
 20
0.0
 30
0.0
  0
VERTEX
  5
184
330
183
100
AcDbEntity
  8
0
 62
   250
370
    25
100
AcDbVertex
100
AcDb2dVertex
 10
155.1279936738697
 20
517.2351928005847
 30
0.0
  0
VERTEX
  5
185
330
183
100
AcDbEntity
  8
0
 62
   250
370
    25
100
AcDbVertex
100
AcDb2dVertex
 10
155.1221208531676
 20
517.2111054845756
 30
0.0
  0
VERTEX
  5
186
330
183
100
AcDbEntity
  8
0
 62
   250
370
    25
100
AcDbVertex
100
AcDb2dVertex
 10
155.1045512459709
 20
517.1872099279589
 30
0.0
  0
VERTEX
  5
187
330
183
100
AcDbEntity
  8
0
 62
   250
370
    25
100
AcDbVertex
100
AcDb2dVertex
 10
155.0754231748068
 20
517.1636072763381
 30
0.0
  0
VERTEX
  5
188
330
183
100
AcDbEntity
  8
0
 62
   250
370
    25
100
AcDbVertex
100
AcDb2dVertex
 10
155.0349659516227
 20
517.140392017298
 30
0.0
  0
VERTEX
  5
189
330
183
100
AcDbEntity
  8
0
 62
   250
370
    25
100
AcDbVertex
100
AcDb2dVertex
 10
154.9834885900563
 20
517.1176517164031
 30
0.0
  0
VERTEX
  5
18A
330
183
100
AcDbEntity
  8
0
 62
   250
370
    25
100
AcDbVertex
100
AcDb2dVertex
 10
154.9213685178978
 20
517.0954667530737
 30
0.0
  0
VERTEX
  5
18B
330
183
100
AcDbEntity
  8
0
 62
   250
370
    25
100
AcDbVertex
100
AcDb2dVertex
 10
154.849040289322
 20
517.0739100565405
 30
0.0
  0
VERTEX
  5
18C
330
183
100
AcDbEntity
  8
0
 62
   250
370
    25
100
AcDbVertex
100
AcDb2dVertex
 10
154.7669842973245
 20
517.0530468416565
 30
0.0
  0
VERTEX
  5
18D
330
183
100
AcDbEntity
  8
0
 62
   250
370
    25
100
AcDbVertex
100
AcDb2dVertex
 10
154.6757154859925
 20
517.032934345018
 30
0.0
  0
VERTEX
  5
18E
330
183
100
AcDbEntity
  8
0
 62
   250
370
    25
100
AcDbVertex
100
AcDb2dVertex
 10
154.5757720629409
 20
517.0136215607507
 30
0.0
  0
VERTEX
  5
18F
330
183
100
AcDbEntity
  8
0
 62
   250
370
    25
100
AcDbVertex
100
AcDb2dVertex
 10
154.3520620740452
 20
516.9775482629386
 30
0.0
  0
VERTEX
  5
190
330
183
100
AcDbEntity
  8
0
 62
   250
370
    25
100
AcDbVertex
100
AcDb2dVertex
 10
154.100066391758
 20
516.9450418896449
 30
0.0
  0
VERTEX
  5
191
330
183
100
AcDbEntity
  8
0
 62
   250
370
    25
100
AcDbVertex
100
AcDb2dVertex
 10
153.8235605549467
 20
516.9162125633744
 30
0.0
  0
VERTEX
  5
192
330
183
100
AcDbEntity
  8
0
 62
   250
370
    25
100
AcDbVertex
100
AcDb2dVertex
 10
153.5261817820758
 20
516.891126177192
 30
0.0
  0
VERTEX
  5
193
330
183
100
AcDbEntity
  8
0
 62
   250
370
    25
100
AcDbVertex
100
AcDb2dVertex
 10
153.2114377625665
 20
516.8698152043158
 30
0.0
  0
VERTEX
  5
194
330
183
100
AcDbEntity
  8
0
 62
   250
370
    25
100
AcDbVertex
100
AcDb2dVertex
 10
152.8826652401422
 20
516.8522845008613
 30
0.0
  0
VERTEX
  5
195
330
183
100
AcDbEntity
  8
0
 62
   250
370
    25
100
AcDbVertex
100
AcDb2dVertex
 10
152.5429885960063
 20
516.8385171079933
 30
0.0
  0
VERTEX
  5
196
330
183
100
AcDbEntity
  8
0
 62
   250
370
    25
100
AcDbVertex
100
AcDb2dVertex
 10
151.8421101543476
 20
516.8221301592683
 30
0.0
  0
VERTEX
  5
197
330
183
100
AcDbEntity
  8
0
 62
   250
370
    25
100
AcDbVertex
100
AcDb2dVertex
 10
151.1279764005121
 20
516.8203028838104
 30
0.0
  0
SEQEND
  5
198
330
183
100
AcDbEntity
  8
0
 62
   250
370
    25
  0
ENDBLK
  5
182
330
17F
100
AcDbEntity
  8
0
100
AcDbBlockEnd
  0
BLOCK
  5
19B
330
199
100
AcDbEntity
  8
0
100
AcDbBlockBegin
  2
block 41
 70
     0
 10
0.0
 20
0.0
 30
0.0
  3
block 41
  1

  0
SPLINE
  5
19D
330
199
100
AcDbEntity
  8
0
 62
   250
370
    25
100
AcDbSpline
210
0.0
220
0.0
230
1.0
 70
     8
 71
     3
 72
     8
 73
     4
 74
     0
 42
0.0000000001
 43
0.0000000001
 12
1.0
 22
0.0
 32
0.0
 13
1.0
 23
0.0
 33
0.0
 40
0.0
 40
0.0
 40
0.0
 40
0.0
 40
1.0
 40
1.0
 40
1.0
 40
1.0
 10
151.1278623122239
 20
516.8201987593179
 30
0.0
 10
120.4613391755347
 20
517.0492267497337
 30
0.0
 10
89.79341777323053
 20
517.0158836998683
 30
0.0
 10
59.12746514730535
 20
516.7201732704863
 30
0.0
  0
ENDBLK
  5
19C
330
199
100
AcDbEntity
  8
0
100
AcDbBlockEnd
  0
BLOCK
  5
1A0
330
19E
100
AcDbEntity
  8
0
100
AcDbBlockBegin
  2
block 42
 70
     0
 10
0.0
 20
0.0
 30
0.0
  3
block 42
  1

  0
POLYLINE
  5
1A2
330
19E
100
AcDbEntity
  8
0
 62
   250
370
    25
100
AcDb2dPolyline
 66
     1
 10
0.0
 20
0.0
 30
0.0
  0
VERTEX
  5
1A3
330
1A2
100
AcDbEntity
  8
0
 62
   250
370
    25
100
AcDbVertex
100
AcDb2dVertex
 10
59.12757910246672
 20
517.6513572795951
 30
0.0
  0
VERTEX
  5
1A4
330
1A2
100
AcDbEntity
  8
0
 62
   250
370
    25
100
AcDbVertex
100
AcDb2dVertex
 10
58.40956397680512
 20
517.6372760832362
 30
0.0
  0
VERTEX
  5
1A5
330
1A2
100
AcDbEntity
  8
0
 62
   250
370
    25
100
AcDbVertex
100
AcDb2dVertex
 10
57.70604053380492
 20
517.6078736099095
 30
0.0
  0
VERTEX
  5
1A6
330
1A2
100
AcDbEntity
  8
0
 62
   250
370
    25
100
AcDbVertex
100
AcDb2dVertex
 10
57.36555787275873
 20
517.5874280238746
 30
0.0
  0
VERTEX
  5
1A7
330
1A2
100
AcDbEntity
  8
0
 62
   250
370
    25
100
AcDbVertex
100
AcDb2dVertex
 10
57.0363662537078
 20
517.5631857716859
 30
0.0
  0
VERTEX
  5
1A8
330
1A2
100
AcDbEntity
  8
0
 62
   250
370
    25
100
AcDbVertex
100
AcDb2dVertex
 10
56.72161713281948
 20
517.535200709212
 30
0.0
  0
VERTEX
  5
1A9
330
1A2
100
AcDbEntity
  8
0
 62
   250
370
    25
100
AcDbVertex
100
AcDb2dVertex
 10
56.42466090899296
 20
517.5035562046511
 30
0.0
  0
VERTEX
  5
1AA
330
1A2
100
AcDbEntity
  8
0
 62
   250
370
    25
100
AcDbVertex
100
AcDb2dVertex
 10
56.14899757263429
 20
517.4683702782829
 30
0.0
  0
VERTEX
  5
1AB
330
1A2
100
AcDbEntity
  8
0
 62
   250
370
    25
100
AcDbVertex
100
AcDb2dVertex
 10
55.89822735460454
 20
517.4298007422091
 30
0.0
  0
VERTEX
  5
1AC
330
1A2
100
AcDbEntity
  8
0
 62
   250
370
    25
100
AcDbVertex
100
AcDb2dVertex
 10
55.67600339281108
 20
517.388050583123
 30
0.0
  0
VERTEX
  5
1AD
330
1A2
100
AcDbEntity
  8
0
 62
   250
370
    25
100
AcDbVertex
100
AcDb2dVertex
 10
55.57678162792589
 20
517.3660655848226
 30
0.0
  0
VERTEX
  5
1AE
330
1A2
100
AcDbEntity
  8
0
 62
   250
370
    25
100
AcDbVertex
100
AcDb2dVertex
 10
55.48618131080335
 20
517.3434040907043
 30
0.0
  0
VERTEX
  5
1AF
330
1A2
100
AcDbEntity
  8
0
 62
   250
370
    25
100
AcDbVertex
100
AcDb2dVertex
 10
55.40472438914927
 20
517.3201254399168
 30
0.0
  0
VERTEX
  5
1B0
330
1A2
100
AcDbEntity
  8
0
 62
   250
370
    25
100
AcDbVertex
100
AcDb2dVertex
 10
55.33291355158721
 20
517.2962972120059
 30
0.0
  0
VERTEX
  5
1B1
330
1A2
100
AcDbEntity
  8
0
 62
   250
370
    25
100
AcDbVertex
100
AcDb2dVertex
 10
55.27122120229359
 20
517.2719947430231
 30
0.0
  0
VERTEX
  5
1B2
330
1A2
100
AcDbEntity
  8
0
 62
   250
370
    25
100
AcDbVertex
100
AcDb2dVertex
 10
55.22007843553013
 20
517.2473006416321
 30
0.0
  0
VERTEX
  5
1B3
330
1A2
100
AcDbEntity
  8
0
 62
   250
370
    25
100
AcDbVertex
100
AcDb2dVertex
 10
55.1798640102405
 20
517.2223043050501
 30
0.0
  0
VERTEX
  5
1B4
330
1A2
100
AcDbEntity
  8
0
 62
   250
370
    25
100
AcDbVertex
100
AcDb2dVertex
 10
55.1508933246084
 20
517.1971014352773
 30
0.0
  0
VERTEX
  5
1B5
330
1A2
100
AcDbEntity
  8
0
 62
   250
370
    25
100
AcDbVertex
100
AcDb2dVertex
 10
55.1334073906285
 20
517.1717935549796
 30
0.0
  0
VERTEX
  5
1B6
330
1A2
100
AcDbEntity
  8
0
 62
   250
370
    25
100
AcDbVertex
100
AcDb2dVertex
 10
55.12756182907066
 20
517.1464874015774
 30
0.0
  0
SEQEND
  5
1B7
330
1A2
100
AcDbEntity
  8
0
 62
   250
370
    25
  0
ENDBLK
  5
1A1
330
19E
100
AcDbEntity
  8
0
100
AcDbBlockEnd
  0
BLOCK
  5
1BA
330
1B8
100
AcDbEntity
  8
0
100
AcDbBlockBegin
  2
block 43
 70
     0
 10
0.0
 20
0.0
 30
0.0
  3
block 43
  1

  0
POLYLINE
  5
1BC
330
1B8
100
AcDbEntity
  8
0
 62
   250
370
    25
100
AcDb2dPolyline
 66
     1
 10
0.0
 20
0.0
 30
0.0
  0
VERTEX
  5
1BD
330
1BC
100
AcDbEntity
  8
0
 62
   250
370
    25
100
AcDbVertex
100
AcDb2dVertex
 10
55.12756182907066
 20
517.1464874015774
 30
0.0
  0
VERTEX
  5
1BE
330
1BC
100
AcDbEntity
  8
0
 62
   250
370
    25
100
AcDbVertex
100
AcDb2dVertex
 10
55.13338602267935
 20
517.121361874962
 30
0.0
  0
VERTEX
  5
1BF
330
1BC
100
AcDbEntity
  8
0
 62
   250
370
    25
100
AcDbVertex
100
AcDb2dVertex
 10
55.15081187099001
 20
517.0964562194957
 30
0.0
  0
VERTEX
  5
1C0
330
1BC
100
AcDbEntity
  8
0
 62
   250
370
    25
100
AcDbVertex
100
AcDb2dVertex
 10
55.17970762251198
 20
517.0718741336153
 30
0.0
  0
VERTEX
  5
1C1
330
1BC
100
AcDbEntity
  8
0
 62
   250
370
    25
100
AcDbVertex
100
AcDb2dVertex
 10
55.21985489461316
 20
517.0477128186376
 30
0.0
  0
VERTEX
  5
1C2
330
1BC
100
AcDbEntity
  8
0
 62
   250
370
    25
100
AcDbVertex
100
AcDb2dVertex
 10
55.27095872597938
 20
517.024062596898
 30
0.0
  0
VERTEX
  5
1C3
330
1BC
100
AcDbEntity
  8
0
 62
   250
370
    25
100
AcDbVertex
100
AcDb2dVertex
 10
55.33265762891963
 20
517.0010065299205
 30
0.0
  0
VERTEX
  5
1C4
330
1BC
100
AcDbEntity
  8
0
 62
   250
370
    25
100
AcDbVertex
100
AcDb2dVertex
 10
55.40453364188952
 20
516.9786200366057
 30
0.0
  0
VERTEX
  5
1C5
330
1BC
100
AcDbEntity
  8
0
 62
   250
370
    25
100
AcDbVertex
100
AcDb2dVertex
 10
55.48612238180947
 20
516.9569705113825
 30
0.0
  0
VERTEX
  5
1C6
330
1BC
100
AcDbEntity
  8
0
 62
   250
370
    25
100
AcDbVertex
100
AcDb2dVertex
 10
55.57692309649827
 20
516.9361169423324
 30
0.0
  0
VERTEX
  5
1C7
330
1BC
100
AcDbEntity
  8
0
 62
   250
370
    25
100
AcDbVertex
100
AcDb2dVertex
 10
55.67641011366204
 20
516.9161093736321
 30
0.0
  0
VERTEX
  5
1C8
330
1BC
100
AcDbEntity
  8
0
 62
   250
370
    25
100
AcDbVertex
100
AcDb2dVertex
 10
55.89944821444043
 20
516.8787723819252
 30
0.0
  0
VERTEX
  5
1C9
330
1BC
100
AcDbEntity
  8
0
 62
   250
370
    25
100
AcDbVertex
100
AcDb2dVertex
 10
56.15136944731848
 20
516.8451691735688
 30
0.0
  0
VERTEX
  5
1CA
330
1BC
100
AcDbEntity
  8
0
 62
   250
370
    25
100
AcDbVertex
100
AcDb2dVertex
 10
56.42829208708647
 20
516.8154417416732
 30
0.0
  0
VERTEX
  5
1CB
330
1BC
100
AcDbEntity
  8
0
 62
   250
370
    25
100
AcDbVertex
100
AcDb2dVertex
 10
56.72636264565384
 20
516.7896786697555
 30
0.0
  0
VERTEX
  5
1CC
330
1BC
100
AcDbEntity
  8
0
 62
   250
370
    25
100
AcDbVertex
100
AcDb2dVertex
 10
57.04184443788758
 20
516.7679227607523
 30
0.0
  0
VERTEX
  5
1CD
330
1BC
100
AcDbEntity
  8
0
 62
   250
370
    25
100
AcDbVertex
100
AcDb2dVertex
 10
57.37120614725806
 20
516.7501786657944
 30
0.0
  0
VERTEX
  5
1CE
330
1BC
100
AcDbEntity
  8
0
 62
   250
370
    25
100
AcDbVertex
100
AcDb2dVertex
 10
57.71121039167735
 20
516.7364205130974
 30
0.0
  0
VERTEX
  5
1CF
330
1BC
100
AcDbEntity
  8
0
 62
   250
370
    25
100
AcDbVertex
100
AcDb2dVertex
 10
58.41219802374086
 20
516.7206517058572
 30
0.0
  0
VERTEX
  5
1D0
330
1BC
100
AcDbEntity
  8
0
 62
   250
370
    25
100
AcDbVertex
100
AcDb2dVertex
 10
59.12757910246672
 20
516.720106650415
 30
0.0
  0
SEQEND
  5
1D1
330
1BC
100
AcDbEntity
  8
0
 62
   250
370
    25
  0
ENDBLK
  5
1BB
330
1B8
100
AcDbEntity
  8
0
100
AcDbBlockEnd
  0
BLOCK
  5
1D4
330
1D2
100
AcDbEntity
  8
0
100
AcDbBlockBegin
  2
block 44
 70
     0
 10
0.0
 20
0.0
 30
0.0
  3
block 44
  1

  0
SPLINE
  5
1D6
330
1D2
100
AcDbEntity
  8
0
 62
   250
370
    25
100
AcDbSpline
210
0.0
220
0.0
230
1.0
 70
     8
 71
     3
 72
     8
 73
     4
 74
     0
 42
0.0000000001
 43
0.0000000001
 12
1.0
 22
0.0
 32
0.0
 13
1.0
 23
0.0
 33
0.0
 40
0.0
 40
0.0
 40
0.0
 40
0.0
 40
1.0
 40
1.0
 40
1.0
 40
1.0
 10
151.127975975887
 20
517.7122706645468
 30
0.0
 10
120.4615360136605
 20
517.946330894566
 30
0.0
 10
89.79368214237081
 20
517.9260361759988
 30
0.0
 10
59.12757882194157
 20
517.6513886029787
 30
0.0
  0
ENDBLK
  5
1D5
330
1D2
100
AcDbEntity
  8
0
100
AcDbBlockEnd
  0
ENDSEC
  0
SECTION
  2
ENTITIES
  0
INSERT
  5
41
330
1F
100
AcDbEntity
  8
0
100
AcDbBlockReference
  2
block 2
 10
0.0
 20
0.0
 30
0.0
  0
INSERT
  5
46
330
1F
100
AcDbEntity
  8
0
100
AcDbBlockReference
  2
block 3
 10
0.0
 20
0.0
 30
0.0
  0
INSERT
  5
4C
330
1F
100
AcDbEntity
  8
0
100
AcDbBlockReference
  2
block 4
 10
0.0
 20
0.0
 30
0.0
  0
INSERT
  5
52
330
1F
100
AcDbEntity
  8
0
100
AcDbBlockReference
  2
block 5
 10
0.0
 20
0.0
 30
0.0
  0
INSERT
  5
58
330
1F
100
AcDbEntity
  8
0
100
AcDbBlockReference
  2
block 6
 10
0.0
 20
0.0
 30
0.0
  0
INSERT
  5
5E
330
1F
100
AcDbEntity
  8
0
100
AcDbBlockReference
  2
block 7
 10
0.0
 20
0.0
 30
0.0
  0
INSERT
  5
64
330
1F
100
AcDbEntity
  8
0
100
AcDbBlockReference
  2
block 8
 10
0.0
 20
0.0
 30
0.0
  0
INSERT
  5
6A
330
1F
100
AcDbEntity
  8
0
100
AcDbBlockReference
  2
block 9
 10
0.0
 20
0.0
 30
0.0
  0
INSERT
  5
70
330
1F
100
AcDbEntity
  8
0
100
AcDbBlockReference
  2
block 10
 10
0.0
 20
0.0
 30
0.0
  0
INSERT
  5
76
330
1F
100
AcDbEntity
  8
0
100
AcDbBlockReference
  2
block 11
 10
0.0
 20
0.0
 30
0.0
  0
INSERT
  5
7C
330
1F
100
AcDbEntity
  8
0
100
AcDbBlockReference
  2
block 12
 10
0.0
 20
0.0
 30
0.0
  0
INSERT
  5
82
330
1F
100
AcDbEntity
  8
0
100
AcDbBlockReference
  2
block 13
 10
0.0
 20
0.0
 30
0.0
  0
INSERT
  5
88
330
1F
100
AcDbEntity
  8
0
100
AcDbBlockReference
  2
block 14
 10
0.0
 20
0.0
 30
0.0
  0
INSERT
  5
8E
330
1F
100
AcDbEntity
  8
0
100
AcDbBlockReference
  2
block 15
 10
0.0
 20
0.0
 30
0.0
  0
INSERT
  5
94
330
1F
100
AcDbEntity
  8
0
100
AcDbBlockReference
  2
block 16
 10
0.0
 20
0.0
 30
0.0
  0
INSERT
  5
9A
330
1F
100
AcDbEntity
  8
0
100
AcDbBlockReference
  2
block 17
 10
0.0
 20
0.0
 30
0.0
  0
INSERT
  5
A0
330
1F
100
AcDbEntity
  8
0
100
AcDbBlockReference
  2
block 18
 10
0.0
 20
0.0
 30
0.0
  0
INSERT
  5
A6
330
1F
100
AcDbEntity
  8
0
100
AcDbBlockReference
  2
block 19
 10
0.0
 20
0.0
 30
0.0
  0
INSERT
  5
AB
330
1F
100
AcDbEntity
  8
0
100
AcDbBlockReference
  2
block 20
 10
0.0
 20
0.0
 30
0.0
  0
INSERT
  5
B0
330
1F
100
AcDbEntity
  8
0
100
AcDbBlockReference
  2
block 21
 10
0.0
 20
0.0
 30
0.0
  0
INSERT
  5
B5
330
1F
100
AcDbEntity
  8
0
100
AcDbBlockReference
  2
block 22
 10
0.0
 20
0.0
 30
0.0
  0
INSERT
  5
BA
330
1F
100
AcDbEntity
  8
0
100
AcDbBlockReference
  2
block 23
 10
0.0
 20
0.0
 30
0.0
  0
INSERT
  5
BF
330
1F
100
AcDbEntity
  8
0
100
AcDbBlockReference
  2
block 24
 10
0.0
 20
0.0
 30
0.0
  0
INSERT
  5
C4
330
1F
100
AcDbEntity
  8
0
100
AcDbBlockReference
  2
block 25
 10
0.0
 20
0.0
 30
0.0
  0
INSERT
  5
CC
330
1F
100
AcDbEntity
  8
0
100
AcDbBlockReference
  2
block 26
 10
0.0
 20
0.0
 30
0.0
  0
INSERT
  5
D5
330
1F
100
AcDbEntity
  8
0
100
AcDbBlockReference
  2
block 27
 10
0.0
 20
0.0
 30
0.0
  0
INSERT
  5
DE
330
1F
100
AcDbEntity
  8
0
100
AcDbBlockReference
  2
block 28
 10
0.0
 20
0.0
 30
0.0
  0
INSERT
  5
E6
330
1F
100
AcDbEntity
  8
0
100
AcDbBlockReference
  2
block 29
 10
0.0
 20
0.0
 30
0.0
  0
INSERT
  5
EE
330
1F
100
AcDbEntity
  8
0
100
AcDbBlockReference
  2
block 30
 10
0.0
 20
0.0
 30
0.0
  0
INSERT
  5
F7
330
1F
100
AcDbEntity
  8
0
100
AcDbBlockReference
  2
block 31
 10
0.0
 20
0.0
 30
0.0
  0
INSERT
  5
100
330
1F
100
AcDbEntity
  8
0
100
AcDbBlockReference
  2
block 32
 10
0.0
 20
0.0
 30
0.0
  0
INSERT
  5
108
330
1F
100
AcDbEntity
  8
0
100
AcDbBlockReference
  2
block 33
 10
0.0
 20
0.0
 30
0.0
  0
INSERT
  5
12D
330
1F
100
AcDbEntity
  8
0
100
AcDbBlockReference
  2
block 34
 10
0.0
 20
0.0
 30
0.0
  0
INSERT
  5
152
330
1F
100
AcDbEntity
  8
0
100
AcDbBlockReference
  2
block 35
 10
0.0
 20
0.0
 30
0.0
  0
INSERT
  5
157
330
1F
100
AcDbEntity
  8
0
100
AcDbBlockReference
  2
block 36
 10
0.0
 20
0.0
 30
0.0
  0
INSERT
  5
15C
330
1F
100
AcDbEntity
  8
0
100
AcDbBlockReference
  2
block 37
 10
0.0
 20
0.0
 30
0.0
  0
INSERT
  5
161
330
1F
100
AcDbEntity
  8
0
100
AcDbBlockReference
  2
block 38
 10
0.0
 20
0.0
 30
0.0
  0
INSERT
  5
166
330
1F
100
AcDbEntity
  8
0
100
AcDbBlockReference
  2
block 39
 10
0.0
 20
0.0
 30
0.0
  0
INSERT
  5
180
330
1F
100
AcDbEntity
  8
0
100
AcDbBlockReference
  2
block 40
 10
0.0
 20
0.0
 30
0.0
  0
INSERT
  5
19A
330
1F
100
AcDbEntity
  8
0
100
AcDbBlockReference
  2
block 41
 10
0.0
 20
0.0
 30
0.0
  0
INSERT
  5
19F
330
1F
100
AcDbEntity
  8
0
100
AcDbBlockReference
  2
block 42
 10
0.0
 20
0.0
 30
0.0
  0
INSERT
  5
1B9
330
1F
100
AcDbEntity
  8
0
100
AcDbBlockReference
  2
block 43
 10
0.0
 20
0.0
 30
0.0
  0
INSERT
  5
1D3
330
1F
100
AcDbEntity
  8
0
100
AcDbBlockReference
  2
block 44
 10
0.0
 20
0.0
 30
0.0
  0
ENDSEC
  0
SECTION
  2
OBJECTS
  0
DICTIONARY
  5
C
330
0
100
AcDbDictionary
281
     1
  3
ACAD_GROUP
350
D
  3
ACAD_LAYOUT
350
1A
  3
ACAD_MATERIAL
350
3B
  3
ACAD_MLEADERSTYLE
350
1F8
  3
ACAD_MLINESTYLE
350
17
  3
ACAD_PLOTSETTINGS
350
19
  3
ACAD_PLOTSTYLENAME
350
E
  3
ACAD_TABLESTYLE
350
1F7
  3
ACAD_VISUALSTYLE
350
2A
  0
SUN
  5
3F
330
29
100
AcDbSun
 90
        1
290
     0
 63
     7
421
 16777215
 40
1.0
291
     1
 91
  2455826
 92
 54000000
292
     0
 70
     2
 71
   256
280
     1
  0
DICTIONARY
  5
D
102
{ACAD_REACTORS
330
C
102
}
330
C
100
AcDbDictionary
281
     1
  0
DICTIONARY
  5
1A
102
{ACAD_REACTORS
330
C
102
}
330
C
100
AcDbDictionary
281
     1
  3
Layout1
350
1E
  3
Layout2
350
26
  3
Model
350
22
  0
DICTIONARY
  5
3B
102
{ACAD_REACTORS
330
C
102
}
330
C
100
AcDbDictionary
281
     1
  3
ByBlock
350
3D
  3
ByLayer
350
3C
  3
Global
350
3E
  0
DICTIONARY
  5
1F8
102
{ACAD_REACTORS
330
C
102
}
330
C
100
AcDbDictionary
281
     1
  0
DICTIONARY
  5
17
102
{ACAD_REACTORS
330
C
102
}
330
C
100
AcDbDictionary
281
     1
  3
Standard
350
18
  0
DICTIONARY
  5
19
102
{ACAD_REACTORS
330
C
102
}
330
C
100
AcDbDictionary
281
     1
  0
ACDBDICTIONARYWDFLT
  5
E
102
{ACAD_REACTORS
330
C
102
}
330
C
100
AcDbDictionary
281
     1
  3
Normal
350
F
100
AcDbDictionaryWithDefault
340
F
  0
DICTIONARY
  5
1F7
102
{ACAD_REACTORS
330
C
102
}
330
C
100
AcDbDictionary
281
     1
  0
DICTIONARY
  5
2A
102
{ACAD_REACTORS
330
C
102
}
330
C
100
AcDbDictionary
281
     1
  3
2dWireframe
350
2F
  3
3D Hidden
350
31
  3
3dWireframe
350
30
  3
Basic
350
32
  3
Brighten
350
36
  3
ColorChange
350
3A
  3
Conceptual
350
34
  3
Dim
350
35
  3
Facepattern
350
39
  3
Flat
350
2B
  3
FlatWithEdges
350
2C
  3
Gouraud
350
2D
  3
GouraudWithEdges
350
2E
  3
Linepattern
350
38
  3
Realistic
350
33
  3
Thicken
350
37
  0
LAYOUT
  5
1E
102
{ACAD_REACTORS
330
1A
102
}
330
1A
100
AcDbPlotSettings
  1

  2
none_device
  4

  6

 40
0.0
 41
0.0
 42
0.0
 43
0.0
 44
0.0
 45
0.0
 46
0.0
 47
0.0
 48
0.0
 49
0.0
140
0.0
141
0.0
142
1.0
143
1.0
 70
   688
 72
     0
 73
     0
 74
     5
  7

 75
    16
 76
     0
 77
     2
 78
   300
147
1.0
148
0.0
149
0.0
100
AcDbLayout
  1
Layout1
 70
     1
 71
     1
 10
0.0
 20
0.0
 11
12.0
 21
9.0
 12
0.0
 22
0.0
 32
0.0
 14
1.000000000000000E+20
 24
1.000000000000000E+20
 34
1.000000000000000E+20
 15
-1.000000000000000E+20
 25
-1.000000000000000E+20
 35
-1.000000000000000E+20
146
0.0
 13
0.0
 23
0.0
 33
0.0
 16
1.0
 26
0.0
 36
0.0
 17
0.0
 27
1.0
 37
0.0
 76
     0
330
1B
  0
LAYOUT
  5
26
102
{ACAD_REACTORS
330
1A
102
}
330
1A
100
AcDbPlotSettings
  1

  2
none_device
  4

  6

 40
0.0
 41
0.0
 42
0.0
 43
0.0
 44
0.0
 45
0.0
 46
0.0
 47
0.0
 48
0.0
 49
0.0
140
0.0
141
0.0
142
1.0
143
1.0
 70
   688
 72
     0
 73
     0
 74
     5
  7

 75
    16
 76
     0
 77
     2
 78
   300
147
1.0
148
0.0
149
0.0
100
AcDbLayout
  1
Layout2
 70
     1
 71
     2
 10
0.0
 20
0.0
 11
0.0
 21
0.0
 12
0.0
 22
0.0
 32
0.0
 14
0.0
 24
0.0
 34
0.0
 15
0.0
 25
0.0
 35
0.0
146
0.0
 13
0.0
 23
0.0
 33
0.0
 16
1.0
 26
0.0
 36
0.0
 17
0.0
 27
1.0
 37
0.0
 76
     0
330
23
  0
LAYOUT
  5
22
102
{ACAD_REACTORS
330
1A
102
}
330
1A
100
AcDbPlotSettings
  1

  2
none_device
  4

  6

 40
0.0
 41
0.0
 42
0.0
 43
0.0
 44
0.0
 45
0.0
 46
0.0
 47
0.0
 48
0.0
 49
0.0
140
0.0
141
0.0
142
1.0
143
1.0
 70
  1712
 72
     0
 73
     0
 74
     0
  7

 75
     0
 76
     0
 77
     2
 78
   300
147
1.0
148
0.0
149
0.0
100
AcDbLayout
  1
Model
 70
     1
 71
     0
 10
0.0
 20
0.0
 11
12.0
 21
9.0
 12
0.0
 22
0.0
 32
0.0
 14
1.000000000000000E+20
 24
1.000000000000000E+20
 34
1.000000000000000E+20
 15
-1.000000000000000E+20
 25
-1.000000000000000E+20
 35
-1.000000000000000E+20
146
0.0
 13
0.0
 23
0.0
 33
0.0
 16
1.0
 26
0.0
 36
0.0
 17
0.0
 27
1.0
 37
0.0
 76
     0
330
1F
331
29
  0
MATERIAL
  5
3D
102
{ACAD_REACTORS
330
3B
102
}
330
3B
100
AcDbMaterial
  1
ByBlock
 72
     1
 94
      127
  0
MATERIAL
  5
3C
102
{ACAD_REACTORS
330
3B
102
}
330
3B
100
AcDbMaterial
  1
ByLayer
 72
     1
 94
      127
  0
MATERIAL
  5
3E
102
{ACAD_REACTORS
330
3B
102
}
330
3B
100
AcDbMaterial
  1
Global
 72
     1
 94
      127
  0
MLINESTYLE
  5
18
102
{ACAD_REACTORS
330
17
102
}
330
17
100
AcDbMlineStyle
  2
Standard
 70
     0
  3

 62
   256
 51
90.0
 52
90.0
 71
     2
 49
0.5
 62
   256
  6
BYLAYER
 49
-0.5
 62
   256
  6
BYLAYER
  0
ACDBPLACEHOLDER
  5
F
102
{ACAD_REACTORS
330
E
102
}
330
E
  0
VISUALSTYLE
  5
2F
102
{ACAD_REACTORS
330
2A
102
}
102
{ACAD_XDICTIONARY
360
1DF
102
}
330
2A
100
AcDbVisualStyle
  2
2dWireframe
 70
     4
 71
     0
 72
     2
 73
     0
 90
        0
 40
-0.6
 41
-30.0
 62
     5
 63
     7
421
 16777215
 74
     1
 91
        4
 64
     7
 65
   257
 75
     1
175
     1
 42
1.0
 92
        0
 66
   257
 43
1.0
 76
     1
 77
     6
 78
     2
 67
     7
 79
     5
170
     0
171
     0
290
     0
174
     0
 93
        1
 44
0.0
173
     0
291
     0
 45
0.0
  0
VISUALSTYLE
  5
31
102
{ACAD_REACTORS
330
2A
102
}
102
{ACAD_XDICTIONARY
360
1E3
102
}
330
2A
100
AcDbVisualStyle
  2
3D Hidden
 70
     6
 71
     1
 72
     2
 73
     2
 90
        0
 40
-0.6
 41
-30.0
 62
     5
 63
     7
421
 16777215
 74
     2
 91
        2
 64
     7
 65
   257
 75
     2
175
     1
 42
40.0
 92
        0
 66
   257
 43
1.0
 76
     1
 77
     6
 78
     2
 67
     7
 79
     3
170
     0
171
     0
290
     0
174
     0
 93
        1
 44
0.0
173
     0
291
     0
 45
0.0
  0
VISUALSTYLE
  5
30
102
{ACAD_REACTORS
330
2A
102
}
102
{ACAD_XDICTIONARY
360
1E1
102
}
330
2A
100
AcDbVisualStyle
  2
3dWireframe
 70
     5
 71
     0
 72
     2
 73
     0
 90
        0
 40
-0.6
 41
-30.0
 62
     5
 63
     7
421
 16777215
 74
     1
 91
        4
 64
     7
 65
   257
 75
     1
175
     1
 42
1.0
 92
        0
 66
   257
 43
1.0
 76
     1
 77
     6
 78
     2
 67
     7
 79
     5
170
     0
171
     0
290
     0
174
     0
 93
        1
 44
0.0
173
     0
291
     0
 45
0.0
  0
VISUALSTYLE
  5
32
102
{ACAD_REACTORS
330
2A
102
}
102
{ACAD_XDICTIONARY
360
1E5
102
}
330
2A
100
AcDbVisualStyle
  2
Basic
 70
     7
 71
     1
 72
     0
 73
     1
 90
        0
 40
-0.6
 41
-30.0
 62
     5
 63
     7
421
 16777215
 74
     0
 91
        4
 64
     7
 65
   257
 75
     1
175
     1
 42
1.0
 92
        8
 66
     7
 43
1.0
 76
     1
 77
     6
 78
     2
 67
     7
 79
     5
170
     0
171
     0
290
     0
174
     0
 93
        1
 44
0.0
173
     0
291
     1
 45
0.0
  0
VISUALSTYLE
  5
36
102
{ACAD_REACTORS
330
2A
102
}
102
{ACAD_XDICTIONARY
360
1ED
102
}
330
2A
100
AcDbVisualStyle
  2
Brighten
 70
    12
 71
     2
 72
     2
 73
     0
 90
        0
 40
-0.6
 41
-30.0
 62
     5
 63
     7
421
 16777215
 74
     1
 91
        4
 64
     7
 65
   257
 75
     1
175
     1
 42
1.0
 92
        8
 66
     7
 43
1.0
 76
     1
 77
     6
 78
     2
 67
     7
 79
     5
170
     0
171
     0
290
     0
174
     0
 93
        1
 44
50.0
173
     0
291
     1
 45
0.0
  0
VISUALSTYLE
  5
3A
102
{ACAD_REACTORS
330
2A
102
}
102
{ACAD_XDICTIONARY
360
1F5
102
}
330
2A
100
AcDbVisualStyle
  2
ColorChange
 70
    16
 71
     2
 72
     2
 73
     3
 90
        0
 40
-0.6
 41
-30.0
 62
     5
 63
     8
421
  8421504
 74
     1
 91
        4
 64
     7
 65
   257
 75
     1
175
     1
 42
1.0
 92
        8
 66
     8
424
  8421504
 43
1.0
 76
     1
 77
     6
 78
     2
 67
     7
 79
     5
170
     0
171
     0
290
     0
174
     0
 93
        1
 44
0.0
173
     0
291
     1
 45
0.0
  0
VISUALSTYLE
  5
34
102
{ACAD_REACTORS
330
2A
102
}
102
{ACAD_XDICTIONARY
360
1E9
102
}
330
2A
100
AcDbVisualStyle
  2
Conceptual
 70
     9
 71
     3
 72
     2
 73
     0
 90
        0
 40
-0.6
 41
-30.0
 62
     5
 63
     7
421
 16777215
 74
     2
 91
        2
 64
     7
 65
   257
 75
     1
175
     1
 42
40.0
 92
        8
 66
     7
 43
1.0
 76
     1
 77
     6
 78
     2
 67
     7
 79
     3
170
     0
171
     0
290
     0
174
     0
 93
        1
 44
0.0
173
     0
291
     0
 45
0.0
  0
VISUALSTYLE
  5
35
102
{ACAD_REACTORS
330
2A
102
}
102
{ACAD_XDICTIONARY
360
1EB
102
}
330
2A
100
AcDbVisualStyle
  2
Dim
 70
    11
 71
     2
 72
     2
 73
     0
 90
        0
 40
-0.6
 41
-30.0
 62
     5
 63
     7
421
 16777215
 74
     1
 91
        4
 64
     7
 65
   257
 75
     1
175
     1
 42
1.0
 92
        8
 66
     7
 43
1.0
 76
     1
 77
     6
 78
     2
 67
     7
 79
     5
170
     0
171
     0
290
     0
174
     0
 93
        1
 44
-50.0
173
     0
291
     1
 45
0.0
  0
VISUALSTYLE
  5
39
102
{ACAD_REACTORS
330
2A
102
}
102
{ACAD_XDICTIONARY
360
1F3
102
}
330
2A
100
AcDbVisualStyle
  2
Facepattern
 70
    15
 71
     2
 72
     2
 73
     0
 90
        0
 40
-0.6
 41
-30.0
 62
     5
 63
     7
421
 16777215
 74
     1
 91
        4
 64
     7
 65
   257
 75
     1
175
     1
 42
1.0
 92
        8
 66
     7
 43
1.0
 76
     1
 77
     6
 78
     2
 67
     7
 79
     5
170
     0
171
     0
290
     0
174
     0
 93
        1
 44
0.0
173
     0
291
     1
 45
0.0
  0
VISUALSTYLE
  5
2B
102
{ACAD_REACTORS
330
2A
102
}
102
{ACAD_XDICTIONARY
360
1D7
102
}
330
2A
100
AcDbVisualStyle
  2
Flat
 70
     0
 71
     2
 72
     1
 73
     1
 90
        2
 40
-0.6
 41
30.0
 62
     5
 63
     7
421
 16777215
 74
     0
 91
        4
 64
     7
 65
   257
 75
     1
175
     1
 42
1.0
 92
        8
 66
     7
 43
1.0
 76
     1
 77
     6
 78
     2
 67
     7
 79
     5
170
     0
171
     0
290
     0
174
     0
 93
       13
 44
0.0
173
     0
291
     1
 45
0.0
  0
VISUALSTYLE
  5
2C
102
{ACAD_REACTORS
330
2A
102
}
102
{ACAD_XDICTIONARY
360
1D9
102
}
330
2A
100
AcDbVisualStyle
  2
FlatWithEdges
 70
     1
 71
     2
 72
     1
 73
     1
 90
        2
 40
-0.6
 41
30.0
 62
     5
 63
     7
421
 16777215
 74
     1
 91
        4
 64
     7
 65
   257
 75
     1
175
     1
 42
1.0
 92
        0
 66
   257
 43
1.0
 76
     1
 77
     6
 78
     2
 67
     7
 79
     5
170
     0
171
     0
290
     0
174
     0
 93
       13
 44
0.0
173
     0
291
     1
 45
0.0
  0
VISUALSTYLE
  5
2D
102
{ACAD_REACTORS
330
2A
102
}
102
{ACAD_XDICTIONARY
360
1DB
102
}
330
2A
100
AcDbVisualStyle
  2
Gouraud
 70
     2
 71
     2
 72
     2
 73
     1
 90
        2
 40
-0.6
 41
30.0
 62
     5
 63
     7
421
 16777215
 74
     0
 91
        4
 64
     7
 65
   257
 75
     1
175
     1
 42
1.0
 92
        0
 66
     7
 43
1.0
 76
     1
 77
     6
 78
     2
 67
     7
 79
     5
170
     0
171
     0
290
     0
174
     0
 93
       13
 44
0.0
173
     0
291
     1
 45
0.0
  0
VISUALSTYLE
  5
2E
102
{ACAD_REACTORS
330
2A
102
}
102
{ACAD_XDICTIONARY
360
1DD
102
}
330
2A
100
AcDbVisualStyle
  2
GouraudWithEdges
 70
     3
 71
     2
 72
     2
 73
     1
 90
        2
 40
-0.6
 41
30.0
 62
     5
 63
     7
421
 16777215
 74
     1
 91
        4
 64
     7
 65
   257
 75
     1
175
     1
 42
1.0
 92
        0
 66
   257
 43
1.0
 76
     1
 77
     6
 78
     2
 67
     7
 79
     5
170
     0
171
     0
290
     0
174
     0
 93
       13
 44
0.0
173
     0
291
     1
 45
0.0
  0
VISUALSTYLE
  5
38
102
{ACAD_REACTORS
330
2A
102
}
102
{ACAD_XDICTIONARY
360
1F1
102
}
330
2A
100
AcDbVisualStyle
  2
Linepattern
 70
    14
 71
     2
 72
     2
 73
     0
 90
        0
 40
-0.6
 41
-30.0
 62
     5
 63
     7
421
 16777215
 74
     1
 91
        4
 64
     7
 65
   257
 75
     7
175
     7
 42
1.0
 92
        8
 66
     7
 43
1.0
 76
     1
 77
     6
 78
     2
 67
     7
 79
     5
170
     0
171
     0
290
     0
174
     0
 93
        1
 44
0.0
173
     0
291
     1
 45
0.0
  0
VISUALSTYLE
  5
33
102
{ACAD_REACTORS
330
2A
102
}
102
{ACAD_XDICTIONARY
360
1E7
102
}
330
2A
100
AcDbVisualStyle
  2
Realistic
 70
     8
 71
     2
 72
     2
 73
     0
 90
        0
 40
-0.6
 41
-30.0
 62
     5
 63
     7
421
 16777215
 74
     1
 91
        0
 64
     7
 65
   257
 75
     1
175
     1
 42
1.0
 92
        8
 66
     8
424
  7895160
 43
1.0
 76
     1
 77
     6
 78
     2
 67
     7
 79
     5
170
     0
171
     0
290
     0
174
     0
 93
       13
 44
0.0
173
     0
291
     0
 45
0.0
  0
VISUALSTYLE
  5
37
102
{ACAD_REACTORS
330
2A
102
}
102
{ACAD_XDICTIONARY
360
1EF
102
}
330
2A
100
AcDbVisualStyle
  2
Thicken
 70
    13
 71
     2
 72
     2
 73
     0
 90
        0
 40
-0.6
 41
-30.0
 62
     5
 63
     7
421
 16777215
 74
     1
 91
        4
 64
     7
 65
   257
 75
     1
175
     1
 42
1.0
 92
       12
 66
     7
 43
1.0
 76
     1
 77
     6
 78
     2
 67
     7
 79
     5
170
     0
171
     0
290
     0
174
     0
 93
        1
 44
0.0
173
     0
291
     1
 45
0.0
  0
DICTIONARY
  5
1DF
330
2F
100
AcDbDictionary
280
     1
281
     1
  3
ACAD_XREC_ROUNDTRIP
360
1E0
  0
DICTIONARY
  5
1E3
330
31
100
AcDbDictionary
280
     1
281
     1
  3
ACAD_XREC_ROUNDTRIP
360
1E4
  0
DICTIONARY
  5
1E1
330
30
100
AcDbDictionary
280
     1
281
     1
  3
ACAD_XREC_ROUNDTRIP
360
1E2
  0
DICTIONARY
  5
1E5
330
32
100
AcDbDictionary
280
     1
281
     1
  3
ACAD_XREC_ROUNDTRIP
360
1E6
  0
DICTIONARY
  5
1ED
330
36
100
AcDbDictionary
280
     1
281
     1
  3
ACAD_XREC_ROUNDTRIP
360
1EE
  0
DICTIONARY
  5
1F5
330
3A
100
AcDbDictionary
280
     1
281
     1
  3
ACAD_XREC_ROUNDTRIP
360
1F6
  0
DICTIONARY
  5
1E9
330
34
100
AcDbDictionary
280
     1
281
     1
  3
ACAD_XREC_ROUNDTRIP
360
1EA
  0
DICTIONARY
  5
1EB
330
35
100
AcDbDictionary
280
     1
281
     1
  3
ACAD_XREC_ROUNDTRIP
360
1EC
  0
DICTIONARY
  5
1F3
330
39
100
AcDbDictionary
280
     1
281
     1
  3
ACAD_XREC_ROUNDTRIP
360
1F4
  0
DICTIONARY
  5
1D7
330
2B
100
AcDbDictionary
280
     1
281
     1
  3
ACAD_XREC_ROUNDTRIP
360
1D8
  0
DICTIONARY
  5
1D9
330
2C
100
AcDbDictionary
280
     1
281
     1
  3
ACAD_XREC_ROUNDTRIP
360
1DA
  0
DICTIONARY
  5
1DB
330
2D
100
AcDbDictionary
280
     1
281
     1
  3
ACAD_XREC_ROUNDTRIP
360
1DC
  0
DICTIONARY
  5
1DD
330
2E
100
AcDbDictionary
280
     1
281
     1
  3
ACAD_XREC_ROUNDTRIP
360
1DE
  0
DICTIONARY
  5
1F1
330
38
100
AcDbDictionary
280
     1
281
     1
  3
ACAD_XREC_ROUNDTRIP
360
1F2
  0
DICTIONARY
  5
1E7
330
33
100
AcDbDictionary
280
     1
281
     1
  3
ACAD_XREC_ROUNDTRIP
360
1E8
  0
DICTIONARY
  5
1EF
330
37
100
AcDbDictionary
280
     1
281
     1
  3
ACAD_XREC_ROUNDTRIP
360
1F0
  0
XRECORD
  5
1E0
102
{ACAD_REACTORS
330
1DF
102
}
330
1DF
100
AcDbXrecord
280
     1
102
RTVSPropertyOp0
 70
     1
102
RTVSPropertyOp1
 70
     1
102
RTVSPropertyOp2
 70
     1
102
RTVSPropertyOp3
 70
     1
102
RTVSPropertyOp4
 70
     1
102
RTVSPropertyOp5
 70
     1
102
RTVSPropertyOp6
 70
     1
102
RTVSPropertyOp7
 70
     1
102
RTVSPropertyOp8
 70
     1
102
RTVSPropertyOp9
 70
     1
102
RTVSPropertyOp10
 70
     1
102
RTVSPropertyOp11
 70
     1
102
RTVSPropertyOp12
 70
     1
102
RTVSPropertyOp13
 70
     1
102
RTVSPropertyOp14
 70
     1
102
RTVSPropertyOp15
 70
     1
102
RTVSPropertyOp16
 70
     1
102
RTVSPropertyOp17
 70
     1
102
RTVSPropertyOp18
 70
     1
102
RTVSPropertyOp19
 70
     1
102
RTVSPropertyOp20
 70
     1
102
RTVSPropertyOp21
 70
     1
102
RTVSPropertyOp22
 70
     1
102
RTVSPropertyOp23
 70
     1
102
RTVSPropertyOp24
 70
     1
102
RTVSPropertyOp25
 70
     1
102
RTVSPropertyOp26
 70
     1
102
RTVSPropertyOp27
 70
     1
102
RTVSPropertyOp28
 70
     1
102
RTVSPropertyOp29
 70
     1
102
RTVSPropertyOp30
 70
     1
102
RTVSPropertyOp31
 70
     1
102
RTVSPropertyOp32
 70
     1
  0
XRECORD
  5
1E4
102
{ACAD_REACTORS
330
1E3
102
}
330
1E3
100
AcDbXrecord
280
     1
102
RTVSPropertyOp0
 70
     1
102
RTVSPropertyOp1
 70
     1
102
RTVSPropertyOp2
 70
     1
102
RTVSPropertyOp3
 70
     1
102
RTVSPropertyOp4
 70
     1
102
RTVSPropertyOp5
 70
     1
102
RTVSPropertyOp6
 70
     1
102
RTVSPropertyOp7
 70
     1
102
RTVSPropertyOp8
 70
     1
102
RTVSPropertyOp9
 70
     1
102
RTVSPropertyOp10
 70
     1
102
RTVSPropertyOp11
 70
     1
102
RTVSPropertyOp12
 70
     1
102
RTVSPropertyOp13
 70
     1
102
RTVSPropertyOp14
 70
     1
102
RTVSPropertyOp15
 70
     1
102
RTVSPropertyOp16
 70
     1
102
RTVSPropertyOp17
 70
     1
102
RTVSPropertyOp18
 70
     1
102
RTVSPropertyOp19
 70
     1
102
RTVSPropertyOp20
 70
     1
102
RTVSPropertyOp21
 70
     1
102
RTVSPropertyOp22
 70
     1
102
RTVSPropertyOp23
 70
     1
102
RTVSPropertyOp24
 70
     1
102
RTVSPropertyOp25
 70
     1
102
RTVSPropertyOp26
 70
     1
102
RTVSPropertyOp27
 70
     1
102
RTVSPropertyOp28
 70
     1
102
RTVSPropertyOp29
 70
     1
102
RTVSPropertyOp30
 70
     1
102
RTVSPropertyOp31
 70
     1
102
RTVSPropertyOp32
 70
     1
  0
XRECORD
  5
1E2
102
{ACAD_REACTORS
330
1E1
102
}
330
1E1
100
AcDbXrecord
280
     1
102
RTVSPropertyOp0
 70
     1
102
RTVSPropertyOp1
 70
     1
102
RTVSPropertyOp2
 70
     1
102
RTVSPropertyOp3
 70
     1
102
RTVSPropertyOp4
 70
     1
102
RTVSPropertyOp5
 70
     1
102
RTVSPropertyOp6
 70
     1
102
RTVSPropertyOp7
 70
     1
102
RTVSPropertyOp8
 70
     1
102
RTVSPropertyOp9
 70
     1
102
RTVSPropertyOp10
 70
     1
102
RTVSPropertyOp11
 70
     1
102
RTVSPropertyOp12
 70
     1
102
RTVSPropertyOp13
 70
     1
102
RTVSPropertyOp14
 70
     1
102
RTVSPropertyOp15
 70
     1
102
RTVSPropertyOp16
 70
     1
102
RTVSPropertyOp17
 70
     1
102
RTVSPropertyOp18
 70
     1
102
RTVSPropertyOp19
 70
     1
102
RTVSPropertyOp20
 70
     1
102
RTVSPropertyOp21
 70
     1
102
RTVSPropertyOp22
 70
     1
102
RTVSPropertyOp23
 70
     1
102
RTVSPropertyOp24
 70
     1
102
RTVSPropertyOp25
 70
     1
102
RTVSPropertyOp26
 70
     1
102
RTVSPropertyOp27
 70
     1
102
RTVSPropertyOp28
 70
     1
102
RTVSPropertyOp29
 70
     1
102
RTVSPropertyOp30
 70
     1
102
RTVSPropertyOp31
 70
     1
102
RTVSPropertyOp32
 70
     1
  0
XRECORD
  5
1E6
102
{ACAD_REACTORS
330
1E5
102
}
330
1E5
100
AcDbXrecord
280
     1
102
RTVSPropertyOp0
 70
     1
102
RTVSPropertyOp1
 70
     1
102
RTVSPropertyOp2
 70
     1
102
RTVSPropertyOp3
 70
     1
102
RTVSPropertyOp4
 70
     1
102
RTVSPropertyOp5
 70
     1
102
RTVSPropertyOp6
 70
     1
102
RTVSPropertyOp7
 70
     1
102
RTVSPropertyOp8
 70
     1
102
RTVSPropertyOp9
 70
     1
102
RTVSPropertyOp10
 70
     1
102
RTVSPropertyOp11
 70
     1
102
RTVSPropertyOp12
 70
     1
102
RTVSPropertyOp13
 70
     1
102
RTVSPropertyOp14
 70
     1
102
RTVSPropertyOp15
 70
     1
102
RTVSPropertyOp16
 70
     1
102
RTVSPropertyOp17
 70
     1
102
RTVSPropertyOp18
 70
     1
102
RTVSPropertyOp19
 70
     1
102
RTVSPropertyOp20
 70
     1
102
RTVSPropertyOp21
 70
     1
102
RTVSPropertyOp22
 70
     1
102
RTVSPropertyOp23
 70
     1
102
RTVSPropertyOp24
 70
     1
102
RTVSPropertyOp25
 70
     1
102
RTVSPropertyOp26
 70
     1
102
RTVSPropertyOp27
 70
     1
102
RTVSPropertyOp28
 70
     1
102
RTVSPropertyOp29
 70
     1
102
RTVSPropertyOp30
 70
     1
102
RTVSPropertyOp31
 70
     1
102
RTVSPropertyOp32
 70
     1
  0
XRECORD
  5
1EE
102
{ACAD_REACTORS
330
1ED
102
}
330
1ED
100
AcDbXrecord
280
     1
102
RTVSPropertyOp0
 70
     1
102
RTVSPropertyOp1
 70
     1
102
RTVSPropertyOp2
 70
     1
102
RTVSPropertyOp3
 70
     1
102
RTVSPropertyOp4
 70
     1
102
RTVSPropertyOp5
 70
     1
102
RTVSPropertyOp6
 70
     1
102
RTVSPropertyOp7
 70
     1
102
RTVSPropertyOp8
 70
     1
102
RTVSPropertyOp9
 70
     1
102
RTVSPropertyOp10
 70
     1
102
RTVSPropertyOp11
 70
     1
102
RTVSPropertyOp12
 70
     1
102
RTVSPropertyOp13
 70
     1
102
RTVSPropertyOp14
 70
     1
102
RTVSPropertyOp15
 70
     1
102
RTVSPropertyOp16
 70
     1
102
RTVSPropertyOp17
 70
     1
102
RTVSPropertyOp18
 70
     1
102
RTVSPropertyOp19
 70
     1
102
RTVSPropertyOp20
 70
     1
102
RTVSPropertyOp21
 70
     1
102
RTVSPropertyOp22
 70
     1
102
RTVSPropertyOp23
 70
     1
102
RTVSPropertyOp24
 70
     1
102
RTVSPropertyOp25
 70
     1
102
RTVSPropertyOp26
 70
     1
102
RTVSPropertyOp27
 70
     1
102
RTVSPropertyOp28
 70
     1
102
RTVSPropertyOp29
 70
     1
102
RTVSPropertyOp30
 70
     1
102
RTVSPropertyOp31
 70
     1
102
RTVSPropertyOp32
 70
     1
  0
XRECORD
  5
1F6
102
{ACAD_REACTORS
330
1F5
102
}
330
1F5
100
AcDbXrecord
280
     1
102
RTVSPropertyOp0
 70
     1
102
RTVSPropertyOp1
 70
     1
102
RTVSPropertyOp2
 70
     1
102
RTVSPropertyOp3
 70
     1
102
RTVSPropertyOp4
 70
     1
102
RTVSPropertyOp5
 70
     1
102
RTVSPropertyOp6
 70
     1
102
RTVSPropertyOp7
 70
     1
102
RTVSPropertyOp8
 70
     1
102
RTVSPropertyOp9
 70
     1
102
RTVSPropertyOp10
 70
     1
102
RTVSPropertyOp11
 70
     1
102
RTVSPropertyOp12
 70
     1
102
RTVSPropertyOp13
 70
     1
102
RTVSPropertyOp14
 70
     1
102
RTVSPropertyOp15
 70
     1
102
RTVSPropertyOp16
 70
     1
102
RTVSPropertyOp17
 70
     1
102
RTVSPropertyOp18
 70
     1
102
RTVSPropertyOp19
 70
     1
102
RTVSPropertyOp20
 70
     1
102
RTVSPropertyOp21
 70
     1
102
RTVSPropertyOp22
 70
     1
102
RTVSPropertyOp23
 70
     1
102
RTVSPropertyOp24
 70
     1
102
RTVSPropertyOp25
 70
     1
102
RTVSPropertyOp26
 70
     1
102
RTVSPropertyOp27
 70
     1
102
RTVSPropertyOp28
 70
     1
102
RTVSPropertyOp29
 70
     1
102
RTVSPropertyOp30
 70
     1
102
RTVSPropertyOp31
 70
     1
102
RTVSPropertyOp32
 70
     1
  0
XRECORD
  5
1EA
102
{ACAD_REACTORS
330
1E9
102
}
330
1E9
100
AcDbXrecord
280
     1
102
RTVSPropertyOp0
 70
     1
102
RTVSPropertyOp1
 70
     1
102
RTVSPropertyOp2
 70
     1
102
RTVSPropertyOp3
 70
     1
102
RTVSPropertyOp4
 70
     1
102
RTVSPropertyOp5
 70
     1
102
RTVSPropertyOp6
 70
     1
102
RTVSPropertyOp7
 70
     1
102
RTVSPropertyOp8
 70
     1
102
RTVSPropertyOp9
 70
     1
102
RTVSPropertyOp10
 70
     1
102
RTVSPropertyOp11
 70
     1
102
RTVSPropertyOp12
 70
     1
102
RTVSPropertyOp13
 70
     1
102
RTVSPropertyOp14
 70
     1
102
RTVSPropertyOp15
 70
     1
102
RTVSPropertyOp16
 70
     1
102
RTVSPropertyOp17
 70
     1
102
RTVSPropertyOp18
 70
     1
102
RTVSPropertyOp19
 70
     1
102
RTVSPropertyOp20
 70
     1
102
RTVSPropertyOp21
 70
     1
102
RTVSPropertyOp22
 70
     1
102
RTVSPropertyOp23
 70
     1
102
RTVSPropertyOp24
 70
     1
102
RTVSPropertyOp25
 70
     1
102
RTVSPropertyOp26
 70
     1
102
RTVSPropertyOp27
 70
     1
102
RTVSPropertyOp28
 70
     1
102
RTVSPropertyOp29
 70
     1
102
RTVSPropertyOp30
 70
     1
102
RTVSPropertyOp31
 70
     1
102
RTVSPropertyOp32
 70
     1
  0
XRECORD
  5
1EC
102
{ACAD_REACTORS
330
1EB
102
}
330
1EB
100
AcDbXrecord
280
     1
102
RTVSPropertyOp0
 70
     1
102
RTVSPropertyOp1
 70
     1
102
RTVSPropertyOp2
 70
     1
102
RTVSPropertyOp3
 70
     1
102
RTVSPropertyOp4
 70
     1
102
RTVSPropertyOp5
 70
     1
102
RTVSPropertyOp6
 70
     1
102
RTVSPropertyOp7
 70
     1
102
RTVSPropertyOp8
 70
     1
102
RTVSPropertyOp9
 70
     1
102
RTVSPropertyOp10
 70
     1
102
RTVSPropertyOp11
 70
     1
102
RTVSPropertyOp12
 70
     1
102
RTVSPropertyOp13
 70
     1
102
RTVSPropertyOp14
 70
     1
102
RTVSPropertyOp15
 70
     1
102
RTVSPropertyOp16
 70
     1
102
RTVSPropertyOp17
 70
     1
102
RTVSPropertyOp18
 70
     1
102
RTVSPropertyOp19
 70
     1
102
RTVSPropertyOp20
 70
     1
102
RTVSPropertyOp21
 70
     1
102
RTVSPropertyOp22
 70
     1
102
RTVSPropertyOp23
 70
     1
102
RTVSPropertyOp24
 70
     1
102
RTVSPropertyOp25
 70
     1
102
RTVSPropertyOp26
 70
     1
102
RTVSPropertyOp27
 70
     1
102
RTVSPropertyOp28
 70
     1
102
RTVSPropertyOp29
 70
     1
102
RTVSPropertyOp30
 70
     1
102
RTVSPropertyOp31
 70
     1
102
RTVSPropertyOp32
 70
     1
  0
XRECORD
  5
1F4
102
{ACAD_REACTORS
330
1F3
102
}
330
1F3
100
AcDbXrecord
280
     1
102
RTVSPropertyOp0
 70
     1
102
RTVSPropertyOp1
 70
     1
102
RTVSPropertyOp2
 70
     1
102
RTVSPropertyOp3
 70
     1
102
RTVSPropertyOp4
 70
     1
102
RTVSPropertyOp5
 70
     1
102
RTVSPropertyOp6
 70
     1
102
RTVSPropertyOp7
 70
     1
102
RTVSPropertyOp8
 70
     1
102
RTVSPropertyOp9
 70
     1
102
RTVSPropertyOp10
 70
     1
102
RTVSPropertyOp11
 70
     1
102
RTVSPropertyOp12
 70
     1
102
RTVSPropertyOp13
 70
     1
102
RTVSPropertyOp14
 70
     1
102
RTVSPropertyOp15
 70
     1
102
RTVSPropertyOp16
 70
     1
102
RTVSPropertyOp17
 70
     1
102
RTVSPropertyOp18
 70
     1
102
RTVSPropertyOp19
 70
     1
102
RTVSPropertyOp20
 70
     1
102
RTVSPropertyOp21
 70
     1
102
RTVSPropertyOp22
 70
     1
102
RTVSPropertyOp23
 70
     1
102
RTVSPropertyOp24
 70
     1
102
RTVSPropertyOp25
 70
     1
102
RTVSPropertyOp26
 70
     1
102
RTVSPropertyOp27
 70
     1
102
RTVSPropertyOp28
 70
     1
102
RTVSPropertyOp29
 70
     1
102
RTVSPropertyOp30
 70
     1
102
RTVSPropertyOp31
 70
     1
102
RTVSPropertyOp32
 70
     1
  0
XRECORD
  5
1D8
102
{ACAD_REACTORS
330
1D7
102
}
330
1D7
100
AcDbXrecord
280
     1
102
RTVSPropertyOp0
 70
     1
102
RTVSPropertyOp1
 70
     1
102
RTVSPropertyOp2
 70
     1
102
RTVSPropertyOp3
 70
     1
102
RTVSPropertyOp4
 70
     1
102
RTVSPropertyOp5
 70
     1
102
RTVSPropertyOp6
 70
     1
102
RTVSPropertyOp7
 70
     1
102
RTVSPropertyOp8
 70
     1
102
RTVSPropertyOp9
 70
     1
102
RTVSPropertyOp10
 70
     1
102
RTVSPropertyOp11
 70
     1
102
RTVSPropertyOp12
 70
     1
102
RTVSPropertyOp13
 70
     1
102
RTVSPropertyOp14
 70
     1
102
RTVSPropertyOp15
 70
     1
102
RTVSPropertyOp16
 70
     1
102
RTVSPropertyOp17
 70
     1
102
RTVSPropertyOp18
 70
     1
102
RTVSPropertyOp19
 70
     1
102
RTVSPropertyOp20
 70
     1
102
RTVSPropertyOp21
 70
     1
102
RTVSPropertyOp22
 70
     1
102
RTVSPropertyOp23
 70
     1
102
RTVSPropertyOp24
 70
     1
102
RTVSPropertyOp25
 70
     1
102
RTVSPropertyOp26
 70
     1
102
RTVSPropertyOp27
 70
     1
102
RTVSPropertyOp28
 70
     1
102
RTVSPropertyOp29
 70
     1
102
RTVSPropertyOp30
 70
     1
102
RTVSPropertyOp31
 70
     1
102
RTVSPropertyOp32
 70
     1
  0
XRECORD
  5
1DA
102
{ACAD_REACTORS
330
1D9
102
}
330
1D9
100
AcDbXrecord
280
     1
102
RTVSPropertyOp0
 70
     1
102
RTVSPropertyOp1
 70
     1
102
RTVSPropertyOp2
 70
     1
102
RTVSPropertyOp3
 70
     1
102
RTVSPropertyOp4
 70
     1
102
RTVSPropertyOp5
 70
     1
102
RTVSPropertyOp6
 70
     1
102
RTVSPropertyOp7
 70
     1
102
RTVSPropertyOp8
 70
     1
102
RTVSPropertyOp9
 70
     1
102
RTVSPropertyOp10
 70
     1
102
RTVSPropertyOp11
 70
     1
102
RTVSPropertyOp12
 70
     1
102
RTVSPropertyOp13
 70
     1
102
RTVSPropertyOp14
 70
     1
102
RTVSPropertyOp15
 70
     1
102
RTVSPropertyOp16
 70
     1
102
RTVSPropertyOp17
 70
     1
102
RTVSPropertyOp18
 70
     1
102
RTVSPropertyOp19
 70
     1
102
RTVSPropertyOp20
 70
     1
102
RTVSPropertyOp21
 70
     1
102
RTVSPropertyOp22
 70
     1
102
RTVSPropertyOp23
 70
     1
102
RTVSPropertyOp24
 70
     1
102
RTVSPropertyOp25
 70
     1
102
RTVSPropertyOp26
 70
     1
102
RTVSPropertyOp27
 70
     1
102
RTVSPropertyOp28
 70
     1
102
RTVSPropertyOp29
 70
     1
102
RTVSPropertyOp30
 70
     1
102
RTVSPropertyOp31
 70
     1
102
RTVSPropertyOp32
 70
     1
  0
XRECORD
  5
1DC
102
{ACAD_REACTORS
330
1DB
102
}
330
1DB
100
AcDbXrecord
280
     1
102
RTVSPropertyOp0
 70
     1
102
RTVSPropertyOp1
 70
     1
102
RTVSPropertyOp2
 70
     1
102
RTVSPropertyOp3
 70
     1
102
RTVSPropertyOp4
 70
     1
102
RTVSPropertyOp5
 70
     1
102
RTVSPropertyOp6
 70
     1
102
RTVSPropertyOp7
 70
     1
102
RTVSPropertyOp8
 70
     1
102
RTVSPropertyOp9
 70
     1
102
RTVSPropertyOp10
 70
     1
102
RTVSPropertyOp11
 70
     1
102
RTVSPropertyOp12
 70
     1
102
RTVSPropertyOp13
 70
     1
102
RTVSPropertyOp14
 70
     1
102
RTVSPropertyOp15
 70
     1
102
RTVSPropertyOp16
 70
     1
102
RTVSPropertyOp17
 70
     1
102
RTVSPropertyOp18
 70
     1
102
RTVSPropertyOp19
 70
     1
102
RTVSPropertyOp20
 70
     1
102
RTVSPropertyOp21
 70
     1
102
RTVSPropertyOp22
 70
     1
102
RTVSPropertyOp23
 70
     1
102
RTVSPropertyOp24
 70
     1
102
RTVSPropertyOp25
 70
     1
102
RTVSPropertyOp26
 70
     1
102
RTVSPropertyOp27
 70
     1
102
RTVSPropertyOp28
 70
     1
102
RTVSPropertyOp29
 70
     1
102
RTVSPropertyOp30
 70
     1
102
RTVSPropertyOp31
 70
     1
102
RTVSPropertyOp32
 70
     1
  0
XRECORD
  5
1DE
102
{ACAD_REACTORS
330
1DD
102
}
330
1DD
100
AcDbXrecord
280
     1
102
RTVSPropertyOp0
 70
     1
102
RTVSPropertyOp1
 70
     1
102
RTVSPropertyOp2
 70
     1
102
RTVSPropertyOp3
 70
     1
102
RTVSPropertyOp4
 70
     1
102
RTVSPropertyOp5
 70
     1
102
RTVSPropertyOp6
 70
     1
102
RTVSPropertyOp7
 70
     1
102
RTVSPropertyOp8
 70
     1
102
RTVSPropertyOp9
 70
     1
102
RTVSPropertyOp10
 70
     1
102
RTVSPropertyOp11
 70
     1
102
RTVSPropertyOp12
 70
     1
102
RTVSPropertyOp13
 70
     1
102
RTVSPropertyOp14
 70
     1
102
RTVSPropertyOp15
 70
     1
102
RTVSPropertyOp16
 70
     1
102
RTVSPropertyOp17
 70
     1
102
RTVSPropertyOp18
 70
     1
102
RTVSPropertyOp19
 70
     1
102
RTVSPropertyOp20
 70
     1
102
RTVSPropertyOp21
 70
     1
102
RTVSPropertyOp22
 70
     1
102
RTVSPropertyOp23
 70
     1
102
RTVSPropertyOp24
 70
     1
102
RTVSPropertyOp25
 70
     1
102
RTVSPropertyOp26
 70
     1
102
RTVSPropertyOp27
 70
     1
102
RTVSPropertyOp28
 70
     1
102
RTVSPropertyOp29
 70
     1
102
RTVSPropertyOp30
 70
     1
102
RTVSPropertyOp31
 70
     1
102
RTVSPropertyOp32
 70
     1
  0
XRECORD
  5
1F2
102
{ACAD_REACTORS
330
1F1
102
}
330
1F1
100
AcDbXrecord
280
     1
102
RTVSPropertyOp0
 70
     1
102
RTVSPropertyOp1
 70
     1
102
RTVSPropertyOp2
 70
     1
102
RTVSPropertyOp3
 70
     1
102
RTVSPropertyOp4
 70
     1
102
RTVSPropertyOp5
 70
     1
102
RTVSPropertyOp6
 70
     1
102
RTVSPropertyOp7
 70
     1
102
RTVSPropertyOp8
 70
     1
102
RTVSPropertyOp9
 70
     1
102
RTVSPropertyOp10
 70
     1
102
RTVSPropertyOp11
 70
     1
102
RTVSPropertyOp12
 70
     1
102
RTVSPropertyOp13
 70
     1
102
RTVSPropertyOp14
 70
     1
102
RTVSPropertyOp15
 70
     1
102
RTVSPropertyOp16
 70
     1
102
RTVSPropertyOp17
 70
     1
102
RTVSPropertyOp18
 70
     1
102
RTVSPropertyOp19
 70
     1
102
RTVSPropertyOp20
 70
     1
102
RTVSPropertyOp21
 70
     1
102
RTVSPropertyOp22
 70
     1
102
RTVSPropertyOp23
 70
     1
102
RTVSPropertyOp24
 70
     1
102
RTVSPropertyOp25
 70
     1
102
RTVSPropertyOp26
 70
     1
102
RTVSPropertyOp27
 70
     1
102
RTVSPropertyOp28
 70
     1
102
RTVSPropertyOp29
 70
     1
102
RTVSPropertyOp30
 70
     1
102
RTVSPropertyOp31
 70
     1
102
RTVSPropertyOp32
 70
     1
  0
XRECORD
  5
1E8
102
{ACAD_REACTORS
330
1E7
102
}
330
1E7
100
AcDbXrecord
280
     1
102
RTVSPropertyOp0
 70
     1
102
RTVSPropertyOp1
 70
     1
102
RTVSPropertyOp2
 70
     1
102
RTVSPropertyOp3
 70
     1
102
RTVSPropertyOp4
 70
     1
102
RTVSPropertyOp5
 70
     1
102
RTVSPropertyOp6
 70
     1
102
RTVSPropertyOp7
 70
     1
102
RTVSPropertyOp8
 70
     1
102
RTVSPropertyOp9
 70
     1
102
RTVSPropertyOp10
 70
     1
102
RTVSPropertyOp11
 70
     1
102
RTVSPropertyOp12
 70
     1
102
RTVSPropertyOp13
 70
     1
102
RTVSPropertyOp14
 70
     1
102
RTVSPropertyOp15
 70
     1
102
RTVSPropertyOp16
 70
     1
102
RTVSPropertyOp17
 70
     1
102
RTVSPropertyOp18
 70
     1
102
RTVSPropertyOp19
 70
     1
102
RTVSPropertyOp20
 70
     1
102
RTVSPropertyOp21
 70
     1
102
RTVSPropertyOp22
 70
     1
102
RTVSPropertyOp23
 70
     1
102
RTVSPropertyOp24
 70
     1
102
RTVSPropertyOp25
 70
     1
102
RTVSPropertyOp26
 70
     1
102
RTVSPropertyOp27
 70
     1
102
RTVSPropertyOp28
 70
     1
102
RTVSPropertyOp29
 70
     1
102
RTVSPropertyOp30
 70
     1
102
RTVSPropertyOp31
 70
     1
102
RTVSPropertyOp32
 70
     1
  0
XRECORD
  5
1F0
102
{ACAD_REACTORS
330
1EF
102
}
330
1EF
100
AcDbXrecord
280
     1
102
RTVSPropertyOp0
 70
     1
102
RTVSPropertyOp1
 70
     1
102
RTVSPropertyOp2
 70
     1
102
RTVSPropertyOp3
 70
     1
102
RTVSPropertyOp4
 70
     1
102
RTVSPropertyOp5
 70
     1
102
RTVSPropertyOp6
 70
     1
102
RTVSPropertyOp7
 70
     1
102
RTVSPropertyOp8
 70
     1
102
RTVSPropertyOp9
 70
     1
102
RTVSPropertyOp10
 70
     1
102
RTVSPropertyOp11
 70
     1
102
RTVSPropertyOp12
 70
     1
102
RTVSPropertyOp13
 70
     1
102
RTVSPropertyOp14
 70
     1
102
RTVSPropertyOp15
 70
     1
102
RTVSPropertyOp16
 70
     1
102
RTVSPropertyOp17
 70
     1
102
RTVSPropertyOp18
 70
     1
102
RTVSPropertyOp19
 70
     1
102
RTVSPropertyOp20
 70
     1
102
RTVSPropertyOp21
 70
     1
102
RTVSPropertyOp22
 70
     1
102
RTVSPropertyOp23
 70
     1
102
RTVSPropertyOp24
 70
     1
102
RTVSPropertyOp25
 70
     1
102
RTVSPropertyOp26
 70
     1
102
RTVSPropertyOp27
 70
     1
102
RTVSPropertyOp28
 70
     1
102
RTVSPropertyOp29
 70
     1
102
RTVSPropertyOp30
 70
     1
102
RTVSPropertyOp31
 70
     1
102
RTVSPropertyOp32
 70
     1
  0
ENDSEC
  0
EOF
