  0
SECTION
  2
HEADER
  9
$ACADVER
  1
AC1018
  9
$ACADMAINTVER
 70
     0
  9
$DWGCODEPAGE
  3
ANSI_1252
  9
$LASTSAVEDBY
  1
ckosziol
  9
$INSBASE
 10
0.0
 20
0.0
 30
0.0
  9
$EXTMIN
 10
0.0
 20
0.0
 30
0.0
  9
$EXTMAX
 10
210.0
 20
297.0
 30
0.0
  9
$LIMMIN
 10
0.0
 20
0.0
  9
$LIMMAX
 10
210.0
 20
297.0
  9
$ORTHOMODE
 70
     0
  9
$REGENMODE
 70
     1
  9
$FILLMODE
 70
     1
  9
$QTEXTMODE
 70
     0
  9
$MIRRTEXT
 70
     1
  9
$LTSCALE
 40
1.0
  9
$ATTMODE
 70
     1
  9
$TEXTSIZE
 40
3.5
  9
$TRACEWID
 40
1.0
  9
$TEXTSTYLE
  7
Standard
  9
$CLAYER
  8
0
  9
$CELTYPE
  6
ByLayer
  9
$CECOLOR
 62
   256
  9
$CELTSCALE
 40
1.0
  9
$DISPSILH
 70
     0
  9
$DIMSCALE
 40
1.0
  9
$DIMASZ
 40
6.0
  9
$DIMEXO
 40
0.01
  9
$DIMDLI
 40
3.75
  9
$DIMRND
 40
0.0
  9
$DIMDLE
 40
0.0
  9
$DIMEXE
 40
1.0
  9
$DIMTP
 40
0.0
  9
$DIMTM
 40
0.0
  9
$DIMTXT
 40
3.5
  9
$DIMCEN
 40
2.5
  9
$DIMTSZ
 40
0.0
  9
$DIMTOL
 70
     0
  9
$DIMLIM
 70
     0
  9
$DIMTIH
 70
     1
  9
$DIMTOH
 70
     1
  9
$DIMSE1
 70
     0
  9
$DIMSE2
 70
     0
  9
$DIMTAD
 70
     1
  9
$DIMZIN
 70
     0
  9
$DIMBLK
  1

  9
$DIMASO
 70
     1
  9
$DIMSHO
 70
     1
  9
$DIMPOST
  1

  9
$DIMAPOST
  1

  9
$DIMALT
 70
     0
  9
$DIMALTD
 70
     3
  9
$DIMALTF
 40
0.0393700787
  9
$DIMLFAC
 40
1.0
  9
$DIMTOFL
 70
     1
  9
$DIMTVP
 40
0.0
  9
$DIMTIX
 70
     0
  9
$DIMSOXD
 70
     0
  9
$DIMSAH
 70
     0
  9
$DIMBLK1
  1

  9
$DIMBLK2
  1

  9
$DIMSTYLE
  2
ISO-25
  9
$DIMCLRD
 70
     0
  9
$DIMCLRE
 70
     0
  9
$DIMCLRT
 70
     0
  9
$DIMTFAC
 40
1.0
  9
$DIMGAP
 40
1.524
  9
$DIMJUST
 70
     0
  9
$DIMSD1
 70
     0
  9
$DIMSD2
 70
     0
  9
$DIMTOLJ
 70
     0
  9
$DIMTZIN
 70
     0
  9
$DIMALTZ
 70
     0
  9
$DIMALTTZ
 70
     0
  9
$DIMUPT
 70
     0
  9
$DIMDEC
 70
     0
  9
$DIMTDEC
 70
     0
  9
$DIMALTU
 70
     2
  9
$DIMALTTD
 70
     3
  9
$DIMTXSTY
  7
Standard
  9
$DIMAUNIT
 70
     0
  9
$DIMADEC
 70
     1
  9
$DIMALTRND
 40
0.0
  9
$DIMAZIN
 70
     0
  9
$DIMDSEP
 70
    44
  9
$DIMATFIT
 70
     3
  9
$DIMFRAC
 70
     0
  9
$DIMLDRBLK
  1

  9
$DIMLUNIT
 70
     2
  9
$DIMLWD
 70
    -2
  9
$DIMLWE
 70
    -2
  9
$DIMTMOVE
 70
     0
  9
$LUNITS
 70
     2
  9
$LUPREC
 70
     0
  9
$SKETCHINC
 40
1.0
  9
$FILLETRAD
 40
10.0
  9
$AUNITS
 70
     0
  9
$AUPREC
 70
     1
  9
$MENU
  1
.
  9
$ELEVATION
 40
0.0
  9
$PELEVATION
 40
0.0
  9
$THICKNESS
 40
0.0
  9
$LIMCHECK
 70
     0
  9
$CHAMFERA
 40
0.0
  9
$CHAMFERB
 40
0.0
  9
$CHAMFERC
 40
0.0
  9
$CHAMFERD
 40
0.0
  9
$SKPOLY
 70
     0
  9
$TDCREATE
 40
2459153.396905428
  9
$TDUCREATE
 40
2459153.355238762
  9
$TDUPDATE
 40
2459153.396906389
  9
$TDUUPDATE
 40
2459153.355239722
  9
$TDINDWG
 40
0.0000000116
  9
$TDUSRTIMER
 40
0.0000000116
  9
$USRTIMER
 70
     1
  9
$ANGBASE
 50
0.0
  9
$ANGDIR
 70
     0
  9
$PDMODE
 70
     0
  9
$PDSIZE
 40
-1.0
  9
$PLINEWID
 40
0.0
  9
$SPLFRAME
 70
     0
  9
$SPLINETYPE
 70
     6
  9
$SPLINESEGS
 70
     8
  9
$HANDSEED
  5
161
  9
$SURFTAB1
 70
     6
  9
$SURFTAB2
 70
     6
  9
$SURFTYPE
 70
     6
  9
$SURFU
 70
     6
  9
$SURFV
 70
     6
  9
$UCSBASE
  2

  9
$UCSNAME
  2

  9
$UCSORG
 10
0.0
 20
0.0
 30
0.0
  9
$UCSXDIR
 10
1.0
 20
0.0
 30
0.0
  9
$UCSYDIR
 10
0.0
 20
1.0
 30
0.0
  9
$UCSORTHOREF
  2

  9
$UCSORTHOVIEW
 70
     0
  9
$UCSORGTOP
 10
0.0
 20
0.0
 30
0.0
  9
$UCSORGBOTTOM
 10
0.0
 20
0.0
 30
0.0
  9
$UCSORGLEFT
 10
0.0
 20
0.0
 30
0.0
  9
$UCSORGRIGHT
 10
0.0
 20
0.0
 30
0.0
  9
$UCSORGFRONT
 10
0.0
 20
0.0
 30
0.0
  9
$UCSORGBACK
 10
0.0
 20
0.0
 30
0.0
  9
$PUCSBASE
  2

  9
$PUCSNAME
  2

  9
$PUCSORG
 10
0.0
 20
0.0
 30
0.0
  9
$PUCSXDIR
 10
1.0
 20
0.0
 30
0.0
  9
$PUCSYDIR
 10
0.0
 20
1.0
 30
0.0
  9
$PUCSORTHOREF
  2

  9
$PUCSORTHOVIEW
 70
     0
  9
$PUCSORGTOP
 10
0.0
 20
0.0
 30
0.0
  9
$PUCSORGBOTTOM
 10
0.0
 20
0.0
 30
0.0
  9
$PUCSORGLEFT
 10
0.0
 20
0.0
 30
0.0
  9
$PUCSORGRIGHT
 10
0.0
 20
0.0
 30
0.0
  9
$PUCSORGFRONT
 10
0.0
 20
0.0
 30
0.0
  9
$PUCSORGBACK
 10
0.0
 20
0.0
 30
0.0
  9
$USERI1
 70
     0
  9
$USERI2
 70
     0
  9
$USERI3
 70
     0
  9
$USERI4
 70
     0
  9
$USERI5
 70
     0
  9
$USERR1
 40
0.0
  9
$USERR2
 40
0.0
  9
$USERR3
 40
0.0
  9
$USERR4
 40
0.0
  9
$USERR5
 40
0.0
  9
$WORLDVIEW
 70
     1
  9
$SHADEDGE
 70
     3
  9
$SHADEDIF
 70
    70
  9
$TILEMODE
 70
     1
  9
$MAXACTVP
 70
    64
  9
$PINSBASE
 10
0.0
 20
0.0
 30
0.0
  9
$PLIMCHECK
 70
     0
  9
$PEXTMIN
 10
1.0000000000E+20
 20
1.0000000000E+20
 30
1.0000000000E+20
  9
$PEXTMAX
 10
-1.0000000000E+20
 20
-1.0000000000E+20
 30
-1.0000000000E+20
  9
$PLIMMIN
 10
0.0
 20
0.0
  9
$PLIMMAX
 10
420.0
 20
297.0
  9
$UNITMODE
 70
     0
  9
$VISRETAIN
 70
     1
  9
$PLINEGEN
 70
     0
  9
$PSLTSCALE
 70
     1
  9
$TREEDEPTH
 70
  3020
  9
$CMLSTYLE
  2
Standard
  9
$CMLJUST
 70
     0
  9
$CMLSCALE
 40
20.0
  9
$PROXYGRAPHICS
 70
     1
  9
$MEASUREMENT
 70
     1
  9
$CELWEIGHT
370
    -1
  9
$ENDCAPS
280
     0
  9
$JOINSTYLE
280
     0
  9
$LWDISPLAY
290
     1
  9
$INSUNITS
 70
     4
  9
$HYPERLINKBASE
  1

  9
$STYLESHEET
  1

  9
$XEDIT
290
     1
  9
$CEPSNTYPE
380
     0
  9
$PSTYLEMODE
290
     1
  9
$FINGERPRINTGUID
  2
{acff99bc-99ff-41a5-85be-f0bb58efe229}
  9
$VERSIONGUID
  2
{FAEB1C32-E019-11D5-929B-00C0DF256EC4}
  9
$EXTNAMES
290
     1
  9
$PSVPSCALE
 40
0.0
  9
$OLESTARTUP
290
     0
  9
$SORTENTS
280
   127
  9
$INDEXCTL
280
     0
  9
$HIDETEXT
280
     1
  9
$XCLIPFRAME
290
     0
  9
$HALOGAP
280
     0
  9
$OBSCOLOR
 70
   257
  9
$OBSLTYPE
280
     0
  9
$INTERSECTIONDISPLAY
280
     0
  9
$INTERSECTIONCOLOR
 70
   257
  9
$DIMASSOC
280
     2
  9
$PROJECTNAME
  1

  0
ENDSEC
  0
SECTION
  2
CLASSES
  0
CLASS
  1
ACDBDICTIONARYWDFLT
  2
AcDbDictionaryWithDefault
  3
ObjectDBX Classes
 90
        0
 91
        3
280
     0
281
     0
  0
CLASS
  1
VISUALSTYLE
  2
AcDbVisualStyle
  3
ObjectDBX Classes
 90
     4095
 91
        3
280
     0
281
     0
  0
CLASS
  1
MATERIAL
  2
AcDbMaterial
  3
ObjectDBX Classes
 90
     1153
 91
        3
280
     0
281
     0
  0
CLASS
  1
SCALE
  2
AcDbScale
  3
ObjectDBX Classes
 90
     1153
 91
        3
280
     0
281
     0
  0
CLASS
  1
TABLESTYLE
  2
AcDbTableStyle
  3
ObjectDBX Classes
 90
     4095
 91
        3
280
     0
281
     0
  0
CLASS
  1
MLEADERSTYLE
  2
AcDbMLeaderStyle
  3
ACDB_MLEADERSTYLE_CLASS
 90
     4095
 91
        3
280
     0
281
     0
  0
CLASS
  1
SUN
  2
AcDbSun
  3
SCENEOE
 90
     1153
 91
        3
280
     0
281
     0
  0
CLASS
  1
DICTIONARYVAR
  2
AcDbDictionaryVar
  3
ObjectDBX Classes
 90
        0
 91
        3
280
     0
281
     0
  0
CLASS
  1
CELLSTYLEMAP
  2
AcDbCellStyleMap
  3
ObjectDBX Classes
 90
     1152
 91
        3
280
     0
281
     0
  0
ENDSEC
  0
SECTION
  2
TABLES
  0
TABLE
  2
VPORT
  5
8
330
0
100
AcDbSymbolTable
 70
     1
  0
VPORT
  5
29
330
8
100
AcDbSymbolTableRecord
100
AcDbViewportTableRecord
  2
*Active
 70
     0
 10
0.0
 20
0.0
 11
1.0
 21
1.0
 12
105.0
 22
148.5
 13
0.0
 23
0.0
 14
10.0
 24
10.0
 15
10.0
 25
10.0
 16
0.0
 26
0.0
 36
1.0
 17
0.0
 27
0.0
 37
0.0
 40
297.0
 41
0.7070707071
 42
50.0
 43
0.0
 44
0.0
 50
0.0
 51
0.0
 71
     0
 72
  2000
 73
     1
 74
     3
 75
     0
 76
     0
 77
     0
 78
     0
281
     0
 65
     1
110
0.0
120
0.0
130
0.0
111
1.0
121
0.0
131
0.0
112
0.0
122
1.0
132
0.0
 79
     0
146
0.0
  0
ENDTAB
  0
TABLE
  2
LTYPE
  5
5
330
0
100
AcDbSymbolTable
 70
     6
  0
LTYPE
  5
14
330
5
100
AcDbSymbolTableRecord
100
AcDbLinetypeTableRecord
  2
ByBlock
 70
     0
  3

 72
    65
 73
     0
 40
0.0
  0
LTYPE
  5
15
330
5
100
AcDbSymbolTableRecord
100
AcDbLinetypeTableRecord
  2
ByLayer
 70
     0
  3

 72
    65
 73
     0
 40
0.0
  0
LTYPE
  5
16
330
5
100
AcDbSymbolTableRecord
100
AcDbLinetypeTableRecord
  2
Continuous
 70
     0
  3
Solid line
 72
    65
 73
     0
 40
0.0
  0
LTYPE
  5
6E
330
5
100
AcDbSymbolTableRecord
100
AcDbLinetypeTableRecord
  2
HIDDEN
 70
     0
  3
Hidden __ __ __ __ __ __ __ __ __ __ __ __ __ __
 72
    65
 73
     2
 40
1.905
 49
1.27
 74
     0
 49
-0.635
 74
     0
  0
LTYPE
  5
6F
330
5
100
AcDbSymbolTableRecord
100
AcDbLinetypeTableRecord
  2
PHANTOM
 70
     0
  3
Phantom ______  __  __  ______  __  __  ______
 72
    65
 73
     6
 40
12.7
 49
6.35
 74
     0
 49
-1.27
 74
     0
 49
1.27
 74
     0
 49
-1.27
 74
     0
 49
1.27
 74
     0
 49
-1.27
 74
     0
  0
LTYPE
  5
70
330
5
100
AcDbSymbolTableRecord
100
AcDbLinetypeTableRecord
  2
CENTER
 70
     0
  3
Center ____ _ ____ _ ____ _ ____ _ ____ _ ____
 72
    65
 73
     4
 40
10.16
 49
6.35
 74
     0
 49
-1.27
 74
     0
 49
1.27
 74
     0
 49
-1.27
 74
     0
  0
LTYPE
  5
71
330
5
100
AcDbSymbolTableRecord
100
AcDbLinetypeTableRecord
  2
CENTERX2
 70
     0
  3
Center (2x) ________  __  ________  __  _____
 72
    65
 73
     4
 40
20.32
 49
12.7
 74
     0
 49
-2.54
 74
     0
 49
2.54
 74
     0
 49
-2.54
 74
     0
  0
LTYPE
  5
72
330
5
100
AcDbSymbolTableRecord
100
AcDbLinetypeTableRecord
  2
DOT2
 70
     0
  3
Dot (.5x) ........................................
 72
    65
 73
     2
 40
0.635
 49
0.0
 74
     0
 49
-0.635
 74
     0
  0
ENDTAB
  0
TABLE
  2
LAYER
  5
2
330
0
100
AcDbSymbolTable
 70
     7
  0
LAYER
  5
10
330
2
100
AcDbSymbolTableRecord
100
AcDbLayerTableRecord
  2
0
 70
     0
 62
     7
  6
Continuous
370
    -3
390
F
  0
LAYER
  5
73
330
2
100
AcDbSymbolTableRecord
100
AcDbLayerTableRecord
  2
BLATTFORMAT
 70
     0
 62
    -7
  6
Continuous
290
     0
370
    -3
390
F
  0
LAYER
  5
74
330
2
100
AcDbSymbolTableRecord
100
AcDbLayerTableRecord
  2
BEMASSUNG
 70
     0
 62
    -7
  6
Continuous
290
     0
370
    -3
390
F
  0
LAYER
  5
75
330
2
100
AcDbSymbolTableRecord
100
AcDbLayerTableRecord
  2
BESCHRIFTUNG
 70
     0
 62
    -7
  6
Continuous
290
     0
370
    -3
390
F
  0
LAYER
  5
76
330
2
100
AcDbSymbolTableRecord
100
AcDbLayerTableRecord
  2
MITTELLINIEN
 70
     0
 62
     7
  6
Continuous
370
    -3
390
F
  0
LAYER
  5
77
330
2
100
AcDbSymbolTableRecord
100
AcDbLayerTableRecord
  2
ANSICHTEN
 70
     0
 62
     7
  6
Continuous
370
    -3
390
F
  0
LAYER
  5
78
330
2
100
AcDbSymbolTableRecord
100
AcDbLayerTableRecord
  2
SKALA
 70
     0
 62
    -7
  6
Continuous
290
     0
370
    -3
390
F
  0
ENDTAB
  0
TABLE
  2
STYLE
  5
3
330
0
100
AcDbSymbolTable
 70
     2
  0
STYLE
  5
11
330
3
100
AcDbSymbolTableRecord
100
AcDbTextStyleTableRecord
  2
Standard
 70
     0
 40
0.0
 41
1.0
 50
0.0
 71
     0
 42
3.5
  3
txt
  4

  0
STYLE
  5
89
330
3
100
AcDbSymbolTableRecord
100
AcDbTextStyleTableRecord
  2
SLDTEXTSTYLE0
 70
     0
 40
0.0
 41
0.7
 50
0.0
 71
     0
 42
3.5
  3
TXT
  4

  0
ENDTAB
  0
TABLE
  2
VIEW
  5
6
330
0
100
AcDbSymbolTable
 70
     0
  0
ENDTAB
  0
TABLE
  2
UCS
  5
7
330
0
100
AcDbSymbolTable
 70
     0
  0
ENDTAB
  0
TABLE
  2
APPID
  5
9
330
0
100
AcDbSymbolTable
 70
     2
  0
APPID
  5
12
330
9
100
AcDbSymbolTableRecord
100
AcDbRegAppTableRecord
  2
ACAD
 70
     0
  0
APPID
  5
159
330
9
100
AcDbSymbolTableRecord
100
AcDbRegAppTableRecord
  2
ACAD_MLEADERVER
 70
     0
  0
ENDTAB
  0
TABLE
  2
DIMSTYLE
  5
A
330
0
100
AcDbSymbolTable
 70
     1
100
AcDbDimStyleTable
  0
DIMSTYLE
105
27
330
A
100
AcDbSymbolTableRecord
100
AcDbDimStyleTableRecord
  2
ISO-25
 70
     0
 41
2.5
 42
0.625
 43
3.75
 44
1.25
 73
     0
 74
     0
 77
     1
 78
     8
140
2.5
141
2.5
143
0.0393700787
147
0.625
171
     3
172
     1
178
     0
271
     2
272
     2
274
     3
278
    44
283
     0
284
     8
340
11
  0
ENDTAB
  0
TABLE
  2
BLOCK_RECORD
  5
1
330
0
100
AcDbSymbolTable
 70
     3
  0
BLOCK_RECORD
  5
1F
330
1
100
AcDbSymbolTableRecord
100
AcDbBlockTableRecord
  2
*Model_Space
340
22
  0
BLOCK_RECORD
  5
1B
330
1
100
AcDbSymbolTableRecord
100
AcDbBlockTableRecord
  2
*Paper_Space
340
1E
  0
BLOCK_RECORD
  5
23
330
1
100
AcDbSymbolTableRecord
100
AcDbBlockTableRecord
  2
*Paper_Space0
340
26
  0
BLOCK_RECORD
  5
E0
330
1
100
AcDbSymbolTableRecord
100
AcDbBlockTableRecord
  2
SW_CENTERMARKSYMBOL_0
340
0
102
{BLKREFS
331
EB
102
}
  0
BLOCK_RECORD
  5
114
330
1
100
AcDbSymbolTableRecord
100
AcDbBlockTableRecord
  2
SW_CENTERMARKSYMBOL_1
340
0
102
{BLKREFS
331
11F
102
}
  0
ENDTAB
  0
ENDSEC
  0
SECTION
  2
BLOCKS
  0
BLOCK
  5
20
330
1F
100
AcDbEntity
  8
0
100
AcDbBlockBegin
  2
*Model_Space
 70
     0
 10
0.0
 20
0.0
 30
0.0
  3
*Model_Space
  1

  0
ENDBLK
  5
21
330
1F
100
AcDbEntity
  8
0
100
AcDbBlockEnd
  0
BLOCK
  5
1C
330
1B
100
AcDbEntity
 67
     1
  8
0
100
AcDbBlockBegin
  2
*Paper_Space
 70
     0
 10
0.0
 20
0.0
 30
0.0
  3
*Paper_Space
  1

  0
ENDBLK
  5
1D
330
1B
100
AcDbEntity
 67
     1
  8
0
100
AcDbBlockEnd
  0
BLOCK
  5
24
330
23
100
AcDbEntity
  8
0
100
AcDbBlockBegin
  2
*Paper_Space0
 70
     0
 10
0.0
 20
0.0
 30
0.0
  3
*Paper_Space0
  1

  0
ENDBLK
  5
25
330
23
100
AcDbEntity
  8
0
100
AcDbBlockEnd
  0
BLOCK
  5
E1
330
E0
100
AcDbEntity
  8
0
100
AcDbBlockBegin
  2
SW_CENTERMARKSYMBOL_0
 70
     0
 10
0.0
 20
0.0
 30
0.0
  3
SW_CENTERMARKSYMBOL_0
  1

  0
LINE
  5
E3
330
E0
100
AcDbEntity
  8
MITTELLINIEN
 62
     0
100
AcDbLine
 10
0.0
 20
0.0
 30
0.0
 11
0.0
 21
2.5
 31
0.0
  0
LINE
  5
E4
330
E0
100
AcDbEntity
  8
MITTELLINIEN
 62
     0
100
AcDbLine
 10
0.0
 20
0.0
 30
0.0
 11
-2.5
 21
0.0
 31
0.0
  0
LINE
  5
E5
330
E0
100
AcDbEntity
  8
MITTELLINIEN
 62
     0
100
AcDbLine
 10
0.0
 20
0.0
 30
0.0
 11
0.0
 21
-2.5
 31
0.0
  0
LINE
  5
E6
330
E0
100
AcDbEntity
  8
MITTELLINIEN
 62
     0
100
AcDbLine
 10
0.0
 20
0.0
 30
0.0
 11
2.5
 21
0.0
 31
0.0
  0
LINE
  5
E7
330
E0
100
AcDbEntity
  8
MITTELLINIEN
 62
     0
100
AcDbLine
 10
0.0
 20
5.0
 30
0.0
 11
0.0
 21
23.47
 31
0.0
  0
LINE
  5
E8
330
E0
100
AcDbEntity
  8
MITTELLINIEN
 62
     0
100
AcDbLine
 10
-5.0
 20
0.0
 30
0.0
 11
-405.5727834981
 21
0.0
 31
0.0
  0
LINE
  5
E9
330
E0
100
AcDbEntity
  8
MITTELLINIEN
 62
     0
100
AcDbLine
 10
0.0
 20
-5.0
 30
0.0
 11
0.0
 21
-23.47
 31
0.0
  0
LINE
  5
EA
330
E0
100
AcDbEntity
  8
MITTELLINIEN
 62
     0
100
AcDbLine
 10
5.0
 20
0.0
 30
0.0
 11
23.47
 21
0.0
 31
0.0
  0
ENDBLK
  5
E2
330
E0
100
AcDbEntity
  8
0
100
AcDbBlockEnd
  0
BLOCK
  5
115
330
114
100
AcDbEntity
  8
0
100
AcDbBlockBegin
  2
SW_CENTERMARKSYMBOL_1
 70
     0
 10
0.0
 20
0.0
 30
0.0
  3
SW_CENTERMARKSYMBOL_1
  1

  0
LINE
  5
117
330
114
100
AcDbEntity
  8
MITTELLINIEN
 62
     0
100
AcDbLine
 10
0.0
 20
0.0
 30
0.0
 11
0.0
 21
2.5
 31
0.0
  0
LINE
  5
118
330
114
100
AcDbEntity
  8
MITTELLINIEN
 62
     0
100
AcDbLine
 10
0.0
 20
0.0
 30
0.0
 11
-2.5
 21
0.0
 31
0.0
  0
LINE
  5
119
330
114
100
AcDbEntity
  8
MITTELLINIEN
 62
     0
100
AcDbLine
 10
0.0
 20
0.0
 30
0.0
 11
0.0
 21
-2.5
 31
0.0
  0
LINE
  5
11A
330
114
100
AcDbEntity
  8
MITTELLINIEN
 62
     0
100
AcDbLine
 10
0.0
 20
0.0
 30
0.0
 11
2.5
 21
0.0
 31
0.0
  0
LINE
  5
11B
330
114
100
AcDbEntity
  8
MITTELLINIEN
 62
     0
100
AcDbLine
 10
0.0
 20
5.0
 30
0.0
 11
0.0
 21
237.7552807868
 31
0.0
  0
LINE
  5
11C
330
114
100
AcDbEntity
  8
MITTELLINIEN
 62
     0
100
AcDbLine
 10
-5.0
 20
0.0
 30
0.0
 11
-37.5
 21
0.0
 31
0.0
  0
LINE
  5
11D
330
114
100
AcDbEntity
  8
MITTELLINIEN
 62
     0
100
AcDbLine
 10
0.0
 20
-5.0
 30
0.0
 11
0.0
 21
-99.7799659431
 31
0.0
  0
LINE
  5
11E
330
114
100
AcDbEntity
  8
MITTELLINIEN
 62
     0
100
AcDbLine
 10
5.0
 20
0.0
 30
0.0
 11
37.5
 21
0.0
 31
0.0
  0
ENDBLK
  5
116
330
114
100
AcDbEntity
  8
0
100
AcDbBlockEnd
  0
ENDSEC
  0
SECTION
  2
ENTITIES
  0
LINE
  5
79
330
1F
100
AcDbEntity
  8
SKALA
100
AcDbLine
 10
525.0180858921
 20
85.4815345088
 30
0.0
 11
779.0180858921
 21
85.4815345088
 31
0.0
  0
LINE
  5
7A
330
1F
100
AcDbEntity
  8
BLATTFORMAT
  6
DOT2
100
AcDbLine
 10
20.0
 20
443.5857391304
 30
0.0
 11
820.0
 21
443.5857391304
 31
0.0
  0
LINE
  5
7B
330
1F
100
AcDbEntity
  8
BLATTFORMAT
  6
DOT2
100
AcDbLine
 10
20.0
 20
443.5857391304
 30
0.0
 11
20.0
 21
1163.5857391304
 31
0.0
  0
LINE
  5
7C
330
1F
100
AcDbEntity
  8
BLATTFORMAT
  6
DOT2
100
AcDbLine
 10
20.0
 20
1163.5857391304
 30
0.0
 11
820.0
 21
1163.5857391304
 31
0.0
  0
LINE
  5
7D
330
1F
100
AcDbEntity
  8
BLATTFORMAT
  6
DOT2
100
AcDbLine
 10
820.0
 20
443.5857391304
 30
0.0
 11
820.0
 21
1163.5857391304
 31
0.0
  0
LINE
  5
7E
330
1F
100
AcDbEntity
  8
SKALA
100
AcDbLine
 10
525.0180858921
 20
106.9008342117
 30
0.0
 11
525.0180858921
 21
64.0622348059
 31
0.0
  0
LINE
  5
7F
330
1F
100
AcDbEntity
  8
SKALA
100
AcDbLine
 10
625.0180858921
 20
106.9008342117
 30
0.0
 11
625.0180858921
 21
85.4815345088
 31
0.0
  0
LINE
  5
80
330
1F
100
AcDbEntity
  8
SKALA
100
AcDbLine
 10
779.0180858921
 20
85.4815345088
 30
0.0
 11
779.0180858921
 21
64.0622348059
 31
0.0
  0
LINE
  5
81
330
1F
100
AcDbEntity
  8
SKALA
100
AcDbLine
 10
545.0180858921
 20
85.4815345088
 30
0.0
 11
545.0180858921
 21
89.4815345088
 31
0.0
  0
LINE
  5
82
330
1F
100
AcDbEntity
  8
SKALA
100
AcDbLine
 10
565.0180858921
 20
85.4815345088
 30
0.0
 11
565.0180858921
 21
89.4815345088
 31
0.0
  0
LINE
  5
83
330
1F
100
AcDbEntity
  8
SKALA
100
AcDbLine
 10
585.0180858921
 20
85.4815345088
 30
0.0
 11
585.0180858921
 21
89.4815345088
 31
0.0
  0
LINE
  5
84
330
1F
100
AcDbEntity
  8
SKALA
100
AcDbLine
 10
605.0180858921
 20
85.4815345088
 30
0.0
 11
605.0180858921
 21
89.4815345088
 31
0.0
  0
LINE
  5
85
330
1F
100
AcDbEntity
  8
SKALA
100
AcDbLine
 10
575.8180858921
 20
85.4815345088
 30
0.0
 11
575.8180858921
 21
79.4815345088
 31
0.0
  0
LINE
  5
86
330
1F
100
AcDbEntity
  8
SKALA
100
AcDbLine
 10
626.6180858921
 20
85.4815345088
 30
0.0
 11
626.6180858921
 21
79.4815345088
 31
0.0
  0
LINE
  5
87
330
1F
100
AcDbEntity
  8
SKALA
100
AcDbLine
 10
677.4180858921
 20
85.4815345088
 30
0.0
 11
677.4180858921
 21
79.4815345088
 31
0.0
  0
LINE
  5
88
330
1F
100
AcDbEntity
  8
SKALA
100
AcDbLine
 10
728.2180858921
 20
85.4815345088
 30
0.0
 11
728.2180858921
 21
79.4815345088
 31
0.0
  0
MTEXT
  5
8A
330
1F
100
AcDbEntity
  8
BESCHRIFTUNG
100
AcDbMText
 10
7.0858683274
 20
289.4597370186
 30
0.0
 40
3.5
 41
0.0
 71
     1
 72
     1
  1
mm [inches]
  7
SLDTEXTSTYLE0
 73
     1
 44
1.0
  0
MTEXT
  5
8B
330
1F
100
AcDbEntity
  8
SKALA
100
AcDbMText
 10
138.3229107562
 20
26.2426670758
 30
0.0
 40
2.5
 41
0.0
 71
     1
 72
     1
  1
100 mm
  7
SLDTEXTSTYLE0
 73
     1
 44
1.0
  0
MTEXT
  5
8C
330
1F
100
AcDbEntity
  8
SKALA
100
AcDbMText
 10
159.7958021077
 20
18.65928628
 30
0.0
 40
2.5
 41
0.0
 71
     1
 72
     1
  1
10 inch
  7
SLDTEXTSTYLE0
 73
     1
 44
1.0
  0
ARC
  5
8D
330
1F
100
AcDbEntity
  8
0
  6
Continuous
 62
     7
370
    25
100
AcDbCircle
 10
-2.5149305687
 20
93.792675918
 30
0.0
 40
0.5
100
AcDbArc
 50
270.0
 51
359.9999999998
  0
ARC
  5
8E
330
1F
100
AcDbEntity
  8
0
  6
Continuous
 62
     7
370
    25
100
AcDbCircle
 10
-2.5149305687
 20
162.792675918
 30
0.0
 40
0.5
100
AcDbArc
 50
0.0000000002
 51
90.0
  0
LINE
  5
8F
330
1F
100
AcDbEntity
  8
0
  6
Continuous
 62
     7
370
    25
100
AcDbLine
 10
-16.0149305687
 20
93.292675918
 30
0.0
 11
-2.5149305687
 21
93.292675918
 31
0.0
  0
LINE
  5
90
330
1F
100
AcDbEntity
  8
0
  6
Continuous
 62
     7
370
    25
100
AcDbLine
 10
-2.5149305687
 20
163.292675918
 30
0.0
 11
-16.0149305687
 21
163.292675918
 31
0.0
  0
LINE
  5
91
330
1F
100
AcDbEntity
  8
0
  6
Continuous
 62
     7
370
    25
100
AcDbLine
 10
278.2350760284
 20
37.292470771
 30
0.0
 11
278.2350760284
 21
37.2922657953
 31
0.0
  0
LINE
  5
92
330
1F
100
AcDbEntity
  8
0
  6
Continuous
 62
     7
370
    25
100
AcDbLine
 10
317.7350760284
 20
37.2922657953
 30
0.0
 11
317.7350760284
 21
37.292470771
 31
0.0
  0
LINE
  5
93
330
1F
100
AcDbEntity
  8
0
  6
Continuous
 62
     7
370
    25
100
AcDbLine
 10
281.9850558177
 20
343.144420529
 30
0.0
 11
281.9850558177
 21
191.7909031231
 31
0.0
  0
LINE
  5
94
330
1F
100
AcDbEntity
  8
0
  6
Continuous
 62
     7
370
    25
100
AcDbLine
 10
313.9850830449
 20
191.7909031231
 30
0.0
 11
313.9850830449
 21
343.144420529
 31
0.0
  0
LINE
  5
95
330
1F
100
AcDbEntity
  8
0
  6
Continuous
 62
     7
370
    25
100
AcDbLine
 10
320.48506961
 20
343.144420529
 30
0.0
 11
320.48506961
 21
358.1444232113
 31
0.0
  0
LINE
  5
96
330
1F
100
AcDbEntity
  8
0
  6
Continuous
 62
     7
370
    25
100
AcDbLine
 10
275.4850690666
 20
358.1444232113
 30
0.0
 11
275.4850690666
 21
343.144420529
 31
0.0
  0
LINE
  5
97
330
1F
100
AcDbEntity
  8
0
  6
Continuous
 62
     7
370
    25
100
AcDbLine
 10
275.4850758397
 20
191.7909031231
 30
0.0
 11
275.4850758397
 21
176.7909004409
 31
0.0
  0
LINE
  5
98
330
1F
100
AcDbEntity
  8
0
  6
Continuous
 62
     7
370
    25
100
AcDbLine
 10
320.4850763831
 20
176.7909004409
 30
0.0
 11
320.4850763831
 21
191.7909031231
 31
0.0
  0
SPLINE
  5
99
330
1F
100
AcDbEntity
  8
0
  6
Continuous
 62
     7
370
    25
100
AcDbSpline
210
0.0
220
0.0
230
1.0
 70
     8
 71
     3
 72
    13
 73
     9
 74
     0
 42
0.00000001
 43
0.00000001
 40
0.0
 40
0.0
 40
0.0
 40
0.0
 40
0.1660312741895011
 40
0.3328239699810944
 40
0.4999999999998422
 40
0.6671760300186271
 40
0.8339687258102684
 40
1.0
 40
1.0
 40
1.0
 40
1.0
 10
-101.5149440688211
 20
113.5098218019789
 30
0.0
 10
-101.2029518839659
 20
113.3829651680198
 30
0.0
 10
-100.5775367140015
 20
113.1286701339137
 30
0.0
 10
-99.6080273634468
 20
112.8281477526439
 30
0.0
 10
-98.61983142014482
 20
112.588418741119
 30
0.0
 10
-97.61722610791048
 20
112.418760822931
 30
0.0
 10
-96.607802498594
 20
112.3123368622211
 30
0.0
 10
-95.93279296046495
 20
112.2992135002978
 30
0.0
 10
-95.59606032155068
 20
112.2926668308921
 30
0.0
  0
SPLINE
  5
9A
330
1F
100
AcDbEntity
  8
0
  6
Continuous
 62
     7
370
    25
100
AcDbSpline
210
0.0
220
0.0
230
1.0
 70
     8
 71
     3
 72
    13
 73
     9
 74
     0
 42
0.00000001
 43
0.00000001
 40
0.0
 40
0.0
 40
0.0
 40
0.0
 40
0.1660312741897705
 40
0.3328239699814137
 40
0.5000000000001996
 40
0.6671760300189293
 40
0.8339687258104944
 40
1.0
 40
1.0
 40
1.0
 40
1.0
 10
-95.59606032154858
 20
144.2926850050141
 30
0.0
 10
-95.93279296046312
 20
144.2861383356084
 30
0.0
 10
-96.60780249859255
 20
144.2730149736851
 30
0.0
 10
-97.61722610790949
 20
144.1665910129752
 30
0.0
 10
-98.61983142014472
 20
143.9969330947872
 30
0.0
 10
-99.60802736344668
 20
143.7572040832622
 30
0.0
 10
-100.577536714002
 20
143.4566817019924
 30
0.0
 10
-101.2029518839666
 20
143.2023866678863
 30
0.0
 10
-101.5149440688221
 20
143.0755300339272
 30
0.0
  0
LINE
  5
9B
330
1F
100
AcDbEntity
  8
0
  6
Continuous
 62
     7
370
    25
100
AcDbLine
 10
273.485055931
 20
144.292685005
 30
0.0
 11
-2.0149305687
 21
144.292685005
 31
0.0
  0
LINE
  5
9C
330
1F
100
AcDbEntity
  8
0
  6
Continuous
 62
     7
370
    25
100
AcDbLine
 10
-16.0149305687
 20
144.292685005
 30
0.0
 11
-95.596060402
 21
144.292685005
 31
0.0
  0
LINE
  5
9D
330
1F
100
AcDbEntity
  8
0
  6
Continuous
 62
     7
370
    25
100
AcDbLine
 10
-95.596060402
 20
112.2926668309
 30
0.0
 11
-16.0149305687
 21
112.2926668309
 31
0.0
  0
LINE
  5
9E
330
1F
100
AcDbEntity
  8
0
  6
Continuous
 62
     7
370
    25
100
AcDbLine
 10
-2.0149305687
 20
112.2926668309
 30
0.0
 11
273.485055931
 21
112.2926668309
 31
0.0
  0
LINE
  5
9F
330
1F
100
AcDbEntity
  8
0
  6
Continuous
 62
     7
370
    25
100
AcDbLine
 10
275.4850657748
 20
144.2926806908
 30
0.0
 11
273.4850559318
 21
144.2926806908
 31
0.0
  0
LINE
  5
A0
330
1F
100
AcDbEntity
  8
0
  6
Continuous
 62
     7
370
    25
100
AcDbLine
 10
273.4850559318
 20
112.2926711451
 30
0.0
 11
275.4850665718
 21
112.2926711451
 31
0.0
  0
LINE
  5
A1
330
1F
100
AcDbEntity
  8
0
  6
Continuous
 62
     7
370
    25
100
AcDbLine
 10
319.3079390486
 20
37.290958458
 30
0.0
 11
319.3079390486
 21
37.292470771
 31
0.0
  0
LINE
  5
A2
330
1F
100
AcDbEntity
  8
0
  6
Continuous
 62
     7
370
    25
100
AcDbLine
 10
276.6622130083
 20
37.292470771
 30
0.0
 11
276.6622130083
 21
37.290958458
 31
0.0
  0
LINE
  5
A3
330
1F
100
AcDbEntity
  8
0
  6
Continuous
 62
     7
370
    25
100
AcDbLine
 10
320.4850598495
 20
37.292470771
 30
0.0
 11
320.4850598495
 21
176.7909004409
 31
0.0
  0
LINE
  5
A4
330
1F
100
AcDbEntity
  8
0
  6
Continuous
 62
     7
370
    25
100
AcDbLine
 10
275.4850922074
 20
112.2927076267
 30
0.0
 11
275.4850922074
 21
37.292470771
 31
0.0
  0
LINE
  5
A5
330
1F
100
AcDbEntity
  8
0
  6
Continuous
 62
     7
370
    25
100
AcDbLine
 10
275.4850922074
 20
176.7909004409
 30
0.0
 11
275.4850922074
 21
144.2926435084
 31
0.0
  0
LINE
  5
A6
330
1F
100
AcDbEntity
  8
0
  6
Continuous
 62
     7
370
    25
100
AcDbLine
 10
-2.0149305687
 20
156.9567896941
 30
0.0
 11
-2.0149305687
 21
93.792675918
 31
0.0
  0
LINE
  5
A7
330
1F
100
AcDbEntity
  8
0
  6
Continuous
 62
     7
370
    25
100
AcDbLine
 10
-2.0149305687
 20
162.792675918
 30
0.0
 11
-2.0149305687
 21
156.9567896941
 31
0.0
  0
LINE
  5
A8
330
1F
100
AcDbEntity
  8
0
  6
Continuous
 62
     7
370
    25
100
AcDbLine
 10
-16.0149305687
 20
157.3722116329
 30
0.0
 11
-16.0149305687
 21
163.292675918
 31
0.0
  0
LINE
  5
A9
330
1F
100
AcDbEntity
  8
0
  6
Continuous
 62
     7
370
    25
100
AcDbLine
 10
-16.0149305687
 20
93.292675918
 30
0.0
 11
-16.0149305687
 21
157.3722116329
 31
0.0
  0
LINE
  5
AA
330
1F
100
AcDbEntity
  8
0
  6
Continuous
 62
     7
370
    25
100
AcDbLine
 10
320.48506961
 20
358.1444232113
 30
0.0
 11
275.4850690666
 21
358.1444232113
 31
0.0
  0
LINE
  5
AB
330
1F
100
AcDbEntity
  8
0
  6
Continuous
 62
     7
370
    25
100
AcDbLine
 10
275.4850690666
 20
343.144420529
 30
0.0
 11
320.48506961
 21
343.144420529
 31
0.0
  0
LINE
  5
AC
330
1F
100
AcDbEntity
  8
0
  6
Continuous
 62
     7
370
    25
100
AcDbLine
 10
275.4850758397
 20
176.7909004409
 30
0.0
 11
320.4850763831
 21
176.7909004409
 31
0.0
  0
LINE
  5
AD
330
1F
100
AcDbEntity
  8
0
  6
Continuous
 62
     7
370
    25
100
AcDbLine
 10
320.4850763831
 20
191.7909031231
 30
0.0
 11
275.4850758397
 21
191.7909031231
 31
0.0
  0
LINE
  5
AE
330
1F
100
AcDbEntity
  8
0
  6
Continuous
 62
     7
370
    25
100
AcDbLine
 10
-101.5149440688
 20
143.075530033
 30
0.0
 11
-101.5149440688
 21
113.5098218021
 31
0.0
  0
LINE
  5
AF
330
1F
100
AcDbEntity
  8
0
  6
Continuous
 62
     7
370
    25
100
AcDbLine
 10
273.485055931
 20
112.2926668309
 30
0.0
 11
273.485055931
 21
144.292685005
 31
0.0
  0
LWPOLYLINE
  5
B0
330
1F
100
AcDbEntity
  8
0
  6
Continuous
 62
     7
370
    25
100
AcDbPolyline
 90
       50
 70
   128
 43
0.0
 10
275.4850665718
 20
112.2926715528
 10
275.5154962681
 20
112.335491664
 10
275.6070356752
 20
112.4646499371
 10
275.7591309837
 20
112.6804258449
 10
275.971972148
 20
112.9849502344
 10
276.2281904836
 20
113.3557486399
 10
276.5313994203
 20
113.8009550566
 10
276.8766489788
 20
114.3171461453
 10
277.2617342206
 20
114.9058673832
 10
277.7013167084
 20
115.5969818694
 10
278.1705788474
 20
116.3610346866
 10
278.6592575498
 20
117.1914582872
 10
279.161413741
 20
118.0907131529
 10
279.6654720867
 20
119.0537538872
 10
280.1298609883
 20
120.0126696109
 10
280.5538895812
 20
120.9717422948
 10
280.9525554017
 20
121.97946957
 10
281.3151758074
 20
123.0357380742
 10
281.5884949229
 20
123.9801709623
 10
281.8180617077
 20
124.9576821927
 10
281.9955238969
 20
125.9655292775
 10
282.1129930793
 20
126.9992876983
 10
282.1635348802
 20
128.0262162746
 10
282.1469852283
 20
129.0640096827
 10
282.06240825
 20
130.104079392
 10
281.9119878239
 20
131.1376705139
 10
281.6777440353
 20
132.2523351551
 10
281.3795551157
 20
133.3417493724
 10
281.0280205111
 20
134.399356041
 10
280.630101389
 20
135.4302487856
 10
280.2683218673
 20
136.2697162165
 10
279.8897267235
 20
137.0785425373
 10
279.4998024413
 20
137.8558927937
 10
279.1039333448
 20
138.6003098841
 10
278.7068716262
 20
139.3107939699
 10
278.3134418604
 20
139.9855345439
 10
277.93272898
 20
140.6152716674
 10
277.5642551968
 20
141.2062214958
 10
277.2120884849
 20
141.7562096253
 10
276.8807206887
 20
142.2620544154
 10
276.5743189223
 20
142.720781635
 10
276.2974401712
 20
143.1285533054
 10
276.0855745066
 20
143.4365813302
 10
275.9018016566
 20
143.7011381145
 10
275.747760836
 20
143.921107827
 10
275.6272712077
 20
144.0920787794
 10
275.5422033104
 20
144.2122308233
 10
275.499444586
 20
144.2724541703
 10
275.4850657748
 20
144.2926806908
 10
275.4850657748
 20
144.2926806908
  0
LINE
  5
B1
330
1F
100
AcDbEntity
  8
0
  6
Continuous
 62
     7
370
    25
100
AcDbLine
 10
275.4850922074
 20
37.292470771
 30
0.0
 11
320.4850598495
 21
37.292470771
 31
0.0
  0
LINE
  5
B2
330
1F
100
AcDbEntity
  8
0
  6
Continuous
 62
     8
370
    25
100
AcDbLine
 10
-2.5149305687
 20
157.3722116329
 30
0.0
 11
-2.5149305687
 21
163.292675918
 31
0.0
  0
LINE
  5
B3
330
1F
100
AcDbEntity
  8
0
  6
Continuous
 62
     8
370
    25
100
AcDbLine
 10
-2.5149305687
 20
93.292675918
 30
0.0
 11
-2.5149305687
 21
157.3722116329
 31
0.0
  0
LWPOLYLINE
  5
B4
330
1F
100
AcDbEntity
  8
0
  6
Continuous
 62
     8
370
    25
100
AcDbPolyline
 90
       70
 70
   128
 43
0.0
 10
-95.5960603215
 20
144.2926850049
 10
-95.5960602412
 20
144.2761012827
 10
-95.5960602414
 20
144.2263894707
 10
-95.5960602419
 20
144.1436526042
 10
-95.5960602424
 20
144.0280621679
 10
-95.5960602432
 20
143.8798577408
 10
-95.5960602441
 20
143.699346499
 10
-95.5960602452
 20
143.4869025798
 10
-95.5960602464
 20
143.2429663055
 10
-95.5960602478
 20
142.9680432714
 10
-95.5960602493
 20
142.6627032975
 10
-95.596060251
 20
142.3275792474
 10
-95.5960602528
 20
141.9633657169
 10
-95.5960602548
 20
141.5708175942
 10
-95.5960602569
 20
141.1507484953
 10
-95.5960602591
 20
140.7040290774
 10
-95.5960602615
 20
140.2315852348
 10
-95.596060264
 20
139.7343961795
 10
-95.5960602666
 20
139.2134924117
 10
-95.5960602694
 20
138.6699535841
 10
-95.5960602722
 20
138.1049062638
 10
-95.5960602752
 20
137.5195215977
 10
-95.5960602782
 20
136.915012885
 10
-95.5960602813
 20
136.2926330622
 10
-95.5960602845
 20
135.6536721065
 10
-95.5960602878
 20
134.9994543622
 10
-95.5960602912
 20
134.3313357955
 10
-95.5960602946
 20
133.6507011839
 10
-95.5960602981
 20
132.9589612468
 10
-95.5960603016
 20
132.2575497208
 10
-95.5960603052
 20
131.5479203884
 10
-95.5960603088
 20
130.8315440647
 10
-95.5960603124
 20
130.1099055491
 10
-95.5960603161
 20
129.3845005475
 10
-95.5960603197
 20
128.6568325727
 10
-95.5960603234
 20
127.9284098276
 10
-95.596060327
 20
127.2007420796
 10
-95.5960603307
 20
126.4753375313
 10
-95.5960603343
 20
125.7536996942
 10
-95.5960603379
 20
125.0373242731
 10
-95.5960603415
 20
124.3276960654
 10
-95.596060345
 20
123.6262858839
 10
-95.5960603485
 20
122.9345475084
 10
-95.5960603519
 20
122.2539146722
 10
-95.5960603553
 20
121.5857980908
 10
-95.5960603586
 20
120.9315825379
 10
-95.5960603618
 20
120.2926239752
 10
-95.5960603649
 20
119.6702467417
 10
-95.5960603679
 20
119.0657408095
 10
-95.5960603709
 20
118.4803591092
 10
-95.5960603737
 20
117.915314934
 10
-95.5960603765
 20
117.371779424
 10
-95.5960603791
 20
116.8508791398
 10
-95.5960603816
 20
116.3536937266
 10
-95.596060384
 20
115.8812536771
 10
-95.5960603862
 20
115.4345381956
 10
-95.5960603883
 20
115.014473168
 10
-95.5960603903
 20
114.6219292433
 10
-95.5960603921
 20
114.2577200286
 10
-95.5960603938
 20
113.9226004033
 10
-95.5960603953
 20
113.6172649539
 10
-95.5960603967
 20
113.3423465348
 10
-95.5960603979
 20
113.0984149563
 10
-95.596060399
 20
112.8859758039
 10
-95.5960603999
 20
112.7054693902
 10
-95.5960604007
 20
112.5572698423
 10
-95.5960604012
 20
112.4416843264
 10
-95.5960604017
 20
112.3589524111
 10
-95.5960604019
 20
112.309245571
 10
-95.596060402
 20
112.292666831
  0
LINE
  5
B5
330
1F
100
AcDbEntity
  8
BESCHRIFTUNG
370
   100
100
AcDbLine
 10
-16.0149305687
 20
182.404063891
 30
0.0
 11
-16.0149305687
 21
78.2080194982
 31
0.0
  0
LINE
  5
B6
330
1F
100
AcDbEntity
  8
BEMASSUNG
100
AcDbLine
 10
-101.3176490435
 20
128.292675918
 30
0.0
 11
-139.2294544689
 21
128.292675918
 31
0.0
  0
LINE
  5
B7
330
1F
100
AcDbEntity
  8
BEMASSUNG
100
AcDbLine
 10
-145.2107575548
 20
128.292675918
 30
0.0
 11
-187.5229386442
 21
128.292675918
 31
0.0
  0
LINE
  5
B8
330
1F
100
AcDbEntity
  8
BEMASSUNG
100
AcDbLine
 10
-16.0149305687
 20
163.292675918
 30
0.0
 11
-139.2294544689
 21
163.292675918
 31
0.0
  0
LINE
  5
B9
330
1F
100
AcDbEntity
  8
BEMASSUNG
100
AcDbLine
 10
297.9850693383
 20
356.6444232113
 30
0.0
 11
297.9850693383
 21
393.7534178625
 31
0.0
  0
LINE
  5
BA
330
1F
100
AcDbEntity
  8
MITTELLINIEN
  6
CENTERX2
370
    18
100
AcDbLine
 10
-103.5149440688
 20
128.292675918
 30
0.0
 11
275.485055931
 21
128.292675918
 31
0.0
  0
LINE
  5
BB
330
1F
100
AcDbEntity
  8
MITTELLINIEN
  6
CENTERX2
370
    18
100
AcDbLine
 10
297.9850694313
 20
32.4846555132
 30
0.0
 11
297.9850694313
 21
362.4063252492
 31
0.0
  0
ARC
  5
BC
330
1F
100
AcDbEntity
  8
0
  6
Continuous
 62
     7
370
    25
100
AcDbCircle
 10
-54.5620685159
 20
-154.1662722593
 30
0.0
 40
0.5
100
AcDbArc
 50
270.0
 51
359.9999999998
  0
ARC
  5
BD
330
1F
100
AcDbEntity
  8
0
  6
Continuous
 62
     7
370
    25
100
AcDbCircle
 10
-54.5620685159
 20
-85.1662722593
 30
0.0
 40
0.5
100
AcDbArc
 50
0.0000000002
 51
90.0
  0
LINE
  5
BE
330
1F
100
AcDbEntity
  8
0
  6
Continuous
 62
     7
370
    25
100
AcDbLine
 10
-68.0620685159
 20
-154.6662722593
 30
0.0
 11
-54.5620685159
 21
-154.6662722593
 31
0.0
  0
LINE
  5
BF
330
1F
100
AcDbEntity
  8
0
  6
Continuous
 62
     7
370
    25
100
AcDbLine
 10
-54.5620685159
 20
-84.6662722593
 30
0.0
 11
-68.0620685159
 21
-84.6662722593
 31
0.0
  0
SPLINE
  5
C0
330
1F
100
AcDbEntity
  8
0
  6
Continuous
 62
     7
370
    25
100
AcDbSpline
210
0.0
220
0.0
230
1.0
 70
     8
 71
     3
 72
    13
 73
     9
 74
     0
 42
0.00000001
 43
0.00000001
 40
0.0
 40
0.0
 40
0.0
 40
0.0
 40
0.1660312741894389
 40
0.3328239699809786
 40
0.4999999999997352
 40
0.6671760300185307
 40
0.8339687258101925
 40
1.0
 40
1.0
 40
1.0
 40
1.0
 10
-153.5620820160469
 20
-134.4491263752413
 30
0.0
 10
-153.2500898311915
 20
-134.5759830092004
 30
0.0
 10
-152.6246746612271
 20
-134.8302780433065
 30
0.0
 10
-151.6551653106721
 20
-135.1308004245764
 30
0.0
 10
-150.6669693673701
 20
-135.3705294361013
 30
0.0
 10
-149.6643640551347
 20
-135.5401873542893
 30
0.0
 10
-148.6549404458178
 20
-135.6466113149992
 30
0.0
 10
-147.9799309076882
 20
-135.6597346769224
 30
0.0
 10
-147.6431982687735
 20
-135.6662813463282
 30
0.0
  0
SPLINE
  5
C1
330
1F
100
AcDbEntity
  8
0
  6
Continuous
 62
     7
370
    25
100
AcDbSpline
210
0.0
220
0.0
230
1.0
 70
     8
 71
     3
 72
    13
 73
     9
 74
     0
 42
0.00000001
 43
0.00000001
 40
0.0
 40
0.0
 40
0.0
 40
0.0
 40
0.1660312741897418
 40
0.3328239699813472
 40
0.5000000000001229
 40
0.6671760300188868
 40
0.8339687258104774
 40
1.0
 40
1.0
 40
1.0
 40
1.0
 10
-147.6431982687743
 20
-103.6662631722061
 30
0.0
 10
-147.9799309076889
 20
-103.6728098416118
 30
0.0
 10
-148.6549404458182
 20
-103.685933203535
 30
0.0
 10
-149.6643640551351
 20
-103.7923571642449
 30
0.0
 10
-150.6669693673701
 20
-103.962015082433
 30
0.0
 10
-151.6551653106723
 20
-104.2017440939579
 30
0.0
 10
-152.6246746612276
 20
-104.5022664752277
 30
0.0
 10
-153.2500898311924
 20
-104.7565615093338
 30
0.0
 10
-153.5620820160479
 20
-104.8834181432929
 30
0.0
  0
LINE
  5
C2
330
1F
100
AcDbEntity
  8
0
  6
Continuous
 62
     7
370
    25
100
AcDbLine
 10
221.4379179838
 20
-103.6662631722
 30
0.0
 11
-54.0620685159
 21
-103.6662631722
 31
0.0
  0
LINE
  5
C3
330
1F
100
AcDbEntity
  8
0
  6
Continuous
 62
     7
370
    25
100
AcDbLine
 10
-68.0620685159
 20
-103.6662631722
 30
0.0
 11
-147.6431983492
 21
-103.6662631722
 31
0.0
  0
LINE
  5
C4
330
1F
100
AcDbEntity
  8
0
  6
Continuous
 62
     7
370
    25
100
AcDbLine
 10
-147.6431983492
 20
-135.6662813463
 30
0.0
 11
-68.0620685159
 21
-135.6662813463
 31
0.0
  0
LINE
  5
C5
330
1F
100
AcDbEntity
  8
0
  6
Continuous
 62
     7
370
    25
100
AcDbLine
 10
-54.0620685159
 20
-135.6662813463
 30
0.0
 11
221.4379179838
 21
-135.6662813463
 31
0.0
  0
LINE
  5
C6
330
1F
100
AcDbEntity
  8
0
  6
Continuous
 62
     7
370
    25
100
AcDbLine
 10
230.1121243132
 20
-103.6662674864
 30
0.0
 11
221.4379179846
 21
-103.6662674864
 31
0.0
  0
LINE
  5
C7
330
1F
100
AcDbEntity
  8
0
  6
Continuous
 62
     7
370
    25
100
AcDbLine
 10
221.4379179846
 20
-135.6662770321
 30
0.0
 11
230.1121240754
 21
-135.6662770321
 31
0.0
  0
LINE
  5
C8
330
1F
100
AcDbEntity
  8
0
  6
Continuous
 62
     7
370
    25
100
AcDbLine
 10
-54.0620685159
 20
-138.8657144759
 30
0.0
 11
-54.0620685159
 21
-154.1662722593
 31
0.0
  0
LINE
  5
C9
330
1F
100
AcDbEntity
  8
0
  6
Continuous
 62
     7
370
    25
100
AcDbLine
 10
-54.0620685159
 20
-85.1662722593
 30
0.0
 11
-54.0620685159
 21
-138.8657144759
 31
0.0
  0
LINE
  5
CA
330
1F
100
AcDbEntity
  8
0
  6
Continuous
 62
     7
370
    25
100
AcDbLine
 10
-68.0620685159
 20
-139.1439672616
 30
0.0
 11
-68.0620685159
 21
-84.6662722593
 31
0.0
  0
LINE
  5
CB
330
1F
100
AcDbEntity
  8
0
  6
Continuous
 62
     7
370
    25
100
AcDbLine
 10
-68.0620685159
 20
-154.6662722593
 30
0.0
 11
-68.0620685159
 21
-139.1439672616
 31
0.0
  0
CIRCLE
  5
CC
330
1F
100
AcDbEntity
  8
0
  6
Continuous
 62
     7
370
    25
100
AcDbCircle
 10
245.9379380812
 20
-119.6662752533
 30
0.0
 40
12.49999999999991
  0
CIRCLE
  5
CD
330
1F
100
AcDbEntity
  8
0
  6
Continuous
 62
     7
370
    25
100
AcDbCircle
 10
245.9379380812
 20
-119.6662752533
 30
0.0
 40
12.69999999999988
  0
CIRCLE
  5
CE
330
1F
100
AcDbEntity
  8
0
  6
Continuous
 62
     7
370
    25
100
AcDbCircle
 10
245.9379380812
 20
-119.6662752533
 30
0.0
 40
5.808541651548992
  0
CIRCLE
  5
CF
330
1F
100
AcDbEntity
  8
0
  6
Continuous
 62
     7
370
    25
100
AcDbCircle
 10
245.9379380812
 20
-119.6662752533
 30
0.0
 40
6.00835129586537
  0
CIRCLE
  5
D0
330
1F
100
AcDbEntity
  8
0
  6
Continuous
 62
     7
370
    25
100
AcDbCircle
 10
245.9379380812
 20
-119.6662752533
 30
0.0
 40
6.218304714542517
  0
CIRCLE
  5
D1
330
1F
100
AcDbEntity
  8
0
  6
Continuous
 62
     7
370
    25
100
AcDbCircle
 10
245.9379314841
 20
-119.6662619692
 30
0.0
 40
15.25
  0
CIRCLE
  5
D2
330
1F
100
AcDbEntity
  8
0
  6
Continuous
 62
     7
370
    25
100
AcDbCircle
 10
245.9379314841
 20
-119.6662619692
 30
0.0
 40
13.39998771914437
  0
CIRCLE
  5
D3
330
1F
100
AcDbEntity
  8
0
  6
Continuous
 62
     7
370
    25
100
AcDbCircle
 10
245.9379314841
 20
-119.6662619692
 30
0.0
 40
14.41531876965345
  0
CIRCLE
  5
D4
330
1F
100
AcDbEntity
  8
0
  6
Continuous
 62
     7
370
    25
100
AcDbCircle
 10
245.9379390158
 20
-119.6662691056
 30
0.0
 40
14.5675705473574
  0
CIRCLE
  5
D5
330
1F
100
AcDbEntity
  8
0
  6
Continuous
 62
     7
370
    25
100
AcDbCircle
 10
245.9379313911
 20
-119.6662620115
 30
0.0
 40
22.50000027167902
  0
CIRCLE
  5
D6
330
1F
100
AcDbEntity
  8
0
  6
Continuous
 62
     7
370
    25
100
AcDbCircle
 10
245.9379314841
 20
-119.6662619692
 30
0.0
 40
20.97000000000037
  0
CIRCLE
  5
D7
330
1F
100
AcDbEntity
  8
0
  6
Continuous
 62
     7
370
    25
100
AcDbCircle
 10
245.9379314841
 20
-119.6662619692
 30
0.0
 40
19.47000000000033
  0
LINE
  5
D8
330
1F
100
AcDbEntity
  8
0
  6
Continuous
 62
     7
370
    25
100
AcDbLine
 10
-153.562082016
 20
-104.883418144
 30
0.0
 11
-153.562082016
 21
-134.4491263724
 31
0.0
  0
LINE
  5
D9
330
1F
100
AcDbEntity
  8
0
  6
Continuous
 62
     7
370
    25
100
AcDbLine
 10
221.4379179838
 20
-119.6662722593
 30
0.0
 11
221.4379179838
 21
-103.6662631722
 31
0.0
  0
LINE
  5
DA
330
1F
100
AcDbEntity
  8
0
  6
Continuous
 62
     7
370
    25
100
AcDbLine
 10
221.4379179838
 20
-135.6662813463
 30
0.0
 11
221.4379179838
 21
-119.6662722593
 31
0.0
  0
LINE
  5
DB
330
1F
100
AcDbEntity
  8
0
  6
Continuous
 62
     7
370
    25
100
AcDbLine
 10
221.4379179846
 20
-119.6662722593
 30
0.0
 11
221.4379179846
 21
-103.6662674864
 31
0.0
  0
LINE
  5
DC
330
1F
100
AcDbEntity
  8
0
  6
Continuous
 62
     7
370
    25
100
AcDbLine
 10
221.4379179846
 20
-135.6662770321
 30
0.0
 11
221.4379179846
 21
-119.6662722593
 31
0.0
  0
LINE
  5
DD
330
1F
100
AcDbEntity
  8
0
  6
Continuous
 62
     8
370
    25
100
AcDbLine
 10
-54.5620685159
 20
-139.1439672616
 30
0.0
 11
-54.5620685159
 21
-84.6662722593
 31
0.0
  0
LINE
  5
DE
330
1F
100
AcDbEntity
  8
0
  6
Continuous
 62
     8
370
    25
100
AcDbLine
 10
-54.5620685159
 20
-154.6662722593
 30
0.0
 11
-54.5620685159
 21
-139.1439672616
 31
0.0
  0
LWPOLYLINE
  5
DF
330
1F
100
AcDbEntity
  8
0
  6
Continuous
 62
     8
370
    25
100
AcDbPolyline
 90
       71
 70
   128
 43
0.0
 10
-147.6431982688
 20
-103.6662631724
 10
-147.6431982669
 20
-103.6704102631
 10
-147.6431982633
 20
-103.7035666215
 10
-147.6431982596
 20
-103.7698081249
 10
-147.643198256
 20
-103.8689974778
 10
-147.6431982524
 20
-104.000929095
 10
-147.6431982488
 20
-104.1653295281
 10
-147.6431982453
 20
-104.3618580321
 10
-147.6431982418
 20
-104.5901072717
 10
-147.6431982384
 20
-104.8496041654
 10
-147.6431982351
 20
-105.1398108664
 10
-147.6431982318
 20
-105.4601258769
 10
-147.6431982286
 20
-105.8098852952
 10
-147.6431982254
 20
-106.1883641913
 10
-147.6431982224
 20
-106.5947781102
 10
-147.6431982194
 20
-107.0282846967
 10
-147.6431982166
 20
-107.4879854424
 10
-147.6431982139
 20
-107.9729275472
 10
-147.6431982112
 20
-108.4821058946
 10
-147.6431982087
 20
-109.0144651347
 10
-147.6431982064
 20
-109.5689018716
 10
-147.6431982041
 20
-110.1442669506
 10
-147.643198202
 20
-110.7393678396
 10
-147.6431982
 20
-111.3529711013
 10
-147.6431981982
 20
-111.9838049491
 10
-147.6431981965
 20
-112.6305618836
 10
-147.643198195
 20
-113.2919014023
 10
-147.6431981936
 20
-113.9664527779
 10
-147.6431981924
 20
-114.6528178998
 10
-147.6431981913
 20
-115.3495741715
 10
-147.6431981904
 20
-116.0552774591
 10
-147.6431981897
 20
-116.7684650849
 10
-147.6431981891
 20
-117.4876588586
 10
-147.6431981887
 20
-118.2113681412
 10
-147.6431981884
 20
-118.9380929348
 10
-147.6431981883
 20
-119.6663269912
 10
-147.6431981884
 20
-120.3945609342
 10
-147.6431981887
 20
-121.1212853877
 10
-147.6431981891
 20
-121.8449941043
 10
-147.6431981897
 20
-122.5641870872
 10
-147.6431981904
 20
-123.2773736991
 10
-147.6431981913
 20
-123.9830757518
 10
-147.6431981924
 20
-124.67983057
 10
-147.6431981936
 20
-125.3661940231
 10
-147.643198195
 20
-126.0407435178
 10
-147.6431981965
 20
-126.7020809475
 10
-147.6431981982
 20
-127.3488355893
 10
-147.6431982
 20
-127.9796669453
 10
-147.643198202
 20
-128.5932675214
 10
-147.6431982041
 20
-129.1883655366
 10
-147.6431982064
 20
-129.7637275594
 10
-147.6431982087
 20
-130.3181610641
 10
-147.6431982112
 20
-130.8505169027
 10
-147.6431982139
 20
-131.3596916863
 10
-147.6431982166
 20
-131.8446300725
 10
-147.6431982194
 20
-132.3043269524
 10
-147.6431982224
 20
-132.7378295341
 10
-147.6431982254
 20
-133.1442393172
 10
-147.6431982286
 20
-133.5227139553
 10
-147.6431982318
 20
-133.8724690022
 10
-147.6431982351
 20
-134.1927795368
 10
-147.6431982384
 20
-134.4829816669
 10
-147.6431982418
 20
-134.7424739041
 10
-147.6431982453
 20
-134.9707184111
 10
-147.6431982488
 20
-135.1672421165
 10
-147.6431982524
 20
-135.3316376946
 10
-147.643198256
 20
-135.4635644108
 10
-147.6431982596
 20
-135.5627488265
 10
-147.6431982633
 20
-135.6289853671
 10
-147.6431982669
 20
-135.6621367472
 10
-147.6431982688
 20
-135.6662813463
  0
INSERT
  5
EB
330
1F
100
AcDbEntity
  8
MITTELLINIEN
100
AcDbBlockReference
  2
SW_CENTERMARKSYMBOL_0
 10
245.9379314841
 20
-119.6662619692
 30
0.0
  0
LINE
  5
EC
330
1F
100
AcDbEntity
  8
0
  6
Continuous
 62
     7
370
    25
100
AcDbLine
 10
466.5982518431
 20
37.292470771
 30
0.0
 11
466.5982518431
 21
37.2922657953
 31
0.0
  0
LINE
  5
ED
330
1F
100
AcDbEntity
  8
0
  6
Continuous
 62
     7
370
    25
100
AcDbLine
 10
506.0982518431
 20
37.2922657953
 30
0.0
 11
506.0982518431
 21
37.292470771
 31
0.0
  0
ARC
  5
EE
330
1F
100
AcDbEntity
  8
0
  6
Continuous
 62
     7
370
    25
100
AcDbCircle
 10
486.348248849
 20
128.292675918
 30
0.0
 40
15.99999999999998
100
AcDbArc
 50
269.9998040057
 51
190.0836666867
  0
ARC
  5
EF
330
1F
100
AcDbEntity
  8
0
  6
Continuous
 62
     7
370
    25
100
AcDbCircle
 10
486.348248849
 20
128.292675918
 30
0.0
 40
15.99999999999996
100
AcDbArc
 50
190.0836666867
 51
248.401966958
  0
LINE
  5
F0
330
1F
100
AcDbEntity
  8
0
  6
Continuous
 62
     7
370
    25
100
AcDbLine
 10
470.3482249453
 20
343.144420529
 30
0.0
 11
470.3482249453
 21
191.7909031231
 31
0.0
  0
LINE
  5
F1
330
1F
100
AcDbEntity
  8
0
  6
Continuous
 62
     7
370
    25
100
AcDbLine
 10
502.3482521725
 20
191.7909031231
 30
0.0
 11
502.3482521725
 21
343.144420529
 31
0.0
  0
LINE
  5
F2
330
1F
100
AcDbEntity
  8
0
  6
Continuous
 62
     7
370
    25
100
AcDbLine
 10
508.848238873
 20
343.144420529
 30
0.0
 11
508.848238873
 21
358.1444232113
 31
0.0
  0
LINE
  5
F3
330
1F
100
AcDbEntity
  8
0
  6
Continuous
 62
     7
370
    25
100
AcDbLine
 10
463.8482383296
 20
358.1444232113
 30
0.0
 11
463.8482383296
 21
343.144420529
 31
0.0
  0
LINE
  5
F4
330
1F
100
AcDbEntity
  8
0
  6
Continuous
 62
     7
370
    25
100
AcDbLine
 10
463.8482486371
 20
191.7909031231
 30
0.0
 11
463.8482486371
 21
176.7909004409
 31
0.0
  0
LINE
  5
F5
330
1F
100
AcDbEntity
  8
0
  6
Continuous
 62
     7
370
    25
100
AcDbLine
 10
508.8482491804
 20
176.7909004409
 30
0.0
 11
508.8482491804
 21
191.7909031231
 31
0.0
  0
LINE
  5
F6
330
1F
100
AcDbEntity
  8
0
  6
Continuous
 62
     7
370
    25
100
AcDbLine
 10
507.6711118691
 20
37.290958458
 30
0.0
 11
507.6711118691
 21
37.292470771
 31
0.0
  0
LINE
  5
F7
330
1F
100
AcDbEntity
  8
0
  6
Continuous
 62
     7
370
    25
100
AcDbLine
 10
465.0253858289
 20
37.292470771
 30
0.0
 11
465.0253858289
 21
37.290958458
 31
0.0
  0
LINE
  5
F8
330
1F
100
AcDbEntity
  8
0
  6
Continuous
 62
     7
370
    25
100
AcDbLine
 10
508.8482326701
 20
37.292470771
 30
0.0
 11
508.8482326701
 21
101.4831491028
 31
0.0
  0
LINE
  5
F9
330
1F
100
AcDbEntity
  8
0
  6
Continuous
 62
     7
370
    25
100
AcDbLine
 10
508.8482326701
 20
155.1022027331
 30
0.0
 11
508.8482326701
 21
176.7909004409
 31
0.0
  0
LINE
  5
FA
330
1F
100
AcDbEntity
  8
0
  6
Continuous
 62
     7
370
    25
100
AcDbLine
 10
463.848265028
 20
176.7909004409
 30
0.0
 11
463.848265028
 21
155.1022027331
 31
0.0
  0
LINE
  5
FB
330
1F
100
AcDbEntity
  8
0
  6
Continuous
 62
     7
370
    25
100
AcDbLine
 10
463.848265028
 20
101.4831491028
 30
0.0
 11
463.848265028
 21
37.292470771
 31
0.0
  0
CIRCLE
  5
FC
330
1F
100
AcDbEntity
  8
0
  6
Continuous
 62
     7
370
    25
100
AcDbCircle
 10
486.348248849
 20
128.292675918
 30
0.0
 40
33.50000000000046
  0
CIRCLE
  5
FD
330
1F
100
AcDbEntity
  8
0
  6
Continuous
 62
     7
370
    25
100
AcDbCircle
 10
486.348248849
 20
128.292675918
 30
0.0
 40
33.00000000000043
  0
CIRCLE
  5
FE
330
1F
100
AcDbEntity
  8
0
  6
Continuous
 62
     7
370
    25
100
AcDbCircle
 10
486.348248849
 20
128.292675918
 30
0.0
 40
35.00000000000041
  0
CIRCLE
  5
FF
330
1F
100
AcDbEntity
  8
0
  6
Continuous
 62
     7
370
    25
100
AcDbCircle
 10
486.348248849
 20
128.292675918
 30
0.0
 40
31.00000000000042
  0
CIRCLE
  5
100
330
1F
100
AcDbEntity
  8
0
  6
Continuous
 62
     7
370
    25
100
AcDbCircle
 10
486.348248849
 20
128.292675918
 30
0.0
 40
20.75000000000032
  0
CIRCLE
  5
101
330
1F
100
AcDbEntity
  8
0
  6
Continuous
 62
     7
370
    25
100
AcDbCircle
 10
486.348248849
 20
128.292675918
 30
0.0
 40
17.50000000000028
  0
CIRCLE
  5
102
330
1F
100
AcDbEntity
  8
0
  6
Continuous
 62
     7
370
    25
100
AcDbCircle
 10
486.348248849
 20
128.292675918
 30
0.0
 40
16.50000000000021
  0
CIRCLE
  5
103
330
1F
100
AcDbEntity
  8
0
  6
Continuous
 62
     7
370
    25
100
AcDbCircle
 10
486.348248849
 20
128.292675918
 30
0.0
 40
16.30000000000025
  0
LINE
  5
104
330
1F
100
AcDbEntity
  8
0
  6
Continuous
 62
     7
370
    25
100
AcDbLine
 10
465.8708892106
 20
343.144420529
 30
0.0
 11
508.848238873
 21
343.144420529
 31
0.0
  0
LINE
  5
105
330
1F
100
AcDbEntity
  8
0
  6
Continuous
 62
     7
370
    25
100
AcDbLine
 10
463.8482383296
 20
343.144420529
 30
0.0
 11
465.8708892106
 21
343.144420529
 31
0.0
  0
LINE
  5
106
330
1F
100
AcDbEntity
  8
0
  6
Continuous
 62
     7
370
    25
100
AcDbLine
 10
465.8708892106
 20
358.1444232113
 30
0.0
 11
463.8482383296
 21
358.1444232113
 31
0.0
  0
LINE
  5
107
330
1F
100
AcDbEntity
  8
0
  6
Continuous
 62
     7
370
    25
100
AcDbLine
 10
508.848238873
 20
358.1444232113
 30
0.0
 11
465.8708892106
 21
358.1444232113
 31
0.0
  0
LINE
  5
108
330
1F
100
AcDbEntity
  8
0
  6
Continuous
 62
     7
370
    25
100
AcDbLine
 10
508.8482491804
 20
191.7909031231
 30
0.0
 11
463.8482486371
 21
191.7909031231
 31
0.0
  0
LINE
  5
109
330
1F
100
AcDbEntity
  8
0
  6
Continuous
 62
     7
370
    25
100
AcDbLine
 10
463.8482486371
 20
176.7909004409
 30
0.0
 11
508.8482491804
 21
176.7909004409
 31
0.0
  0
CIRCLE
  5
10A
330
1F
100
AcDbEntity
  8
0
  6
Continuous
 62
     7
370
    25
100
AcDbCircle
 10
486.348248849
 20
128.292675918
 30
0.0
 40
14.78285411597428
  0
CIRCLE
  5
10B
330
1F
100
AcDbEntity
  8
0
  6
Continuous
 62
     7
370
    25
100
AcDbCircle
 10
486.348248849
 20
128.292675918
 30
0.0
 40
16.00000908706117
  0
CIRCLE
  5
10C
330
1F
100
AcDbEntity
  8
0
  6
Continuous
 62
     7
370
    25
100
AcDbCircle
 10
486.348248849
 20
128.292675918
 30
0.0
 40
14.32342860034671
  0
CIRCLE
  5
10D
330
1F
100
AcDbEntity
  8
0
  6
Continuous
 62
     7
370
    25
100
AcDbCircle
 10
486.348248849
 20
128.292675918
 30
0.0
 40
12.80001084743276
  0
SPLINE
  5
10E
330
1F
100
AcDbEntity
  8
0
  6
Continuous
 62
     7
370
    25
100
AcDbSpline
210
0.0
220
0.0
230
1.0
 70
    11
 71
     3
 72
   102
 73
    98
 74
     0
 42
0.00000001
 43
0.00000001
 40
0.0
 40
0.0
 40
0.0
 40
0.0
 40
0.03125
 40
0.03125
 40
0.0468749999999999
 40
0.0468749999999999
 40
0.0624999999999999
 40
0.0624999999999999
 40
0.0937499999999999
 40
0.0937499999999999
 40
0.1093749999999999
 40
0.1093749999999999
 40
0.1249999999999999
 40
0.1249999999999999
 40
0.140625
 40
0.140625
 40
0.15625
 40
0.15625
 40
0.1875
 40
0.1875
 40
0.203125
 40
0.203125
 40
0.21875
 40
0.21875
 40
0.2499999999999999
 40
0.2499999999999999
 40
0.2812499999999999
 40
0.2812499999999999
 40
0.296875
 40
0.296875
 40
0.3125
 40
0.3125
 40
0.3281250000000001
 40
0.3281250000000001
 40
0.3437500000000001
 40
0.3437500000000001
 40
0.3750000000000001
 40
0.3750000000000001
 40
0.3906250000000001
 40
0.3906250000000001
 40
0.4062500000000001
 40
0.4062500000000001
 40
0.4375000000000001
 40
0.4375000000000001
 40
0.4531250000000001
 40
0.4531250000000001
 40
0.4687500000000001
 40
0.4687500000000001
 40
0.5000000000000001
 40
0.5000000000000001
 40
0.5156250000000001
 40
0.5156250000000001
 40
0.5312500000000001
 40
0.5312500000000001
 40
0.546875
 40
0.546875
 40
0.5625
 40
0.5625
 40
0.59375
 40
0.59375
 40
0.6093749999999999
 40
0.6093749999999999
 40
0.6249999999999999
 40
0.6249999999999999
 40
0.6406249999999999
 40
0.6406249999999999
 40
0.6562499999999999
 40
0.6562499999999999
 40
0.6874999999999999
 40
0.6874999999999999
 40
0.703125
 40
0.703125
 40
0.7187500000000001
 40
0.7187500000000001
 40
0.7500000000000001
 40
0.7500000000000001
 40
0.7812500000000002
 40
0.7812500000000002
 40
0.7968750000000002
 40
0.7968750000000002
 40
0.8125000000000002
 40
0.8125000000000002
 40
0.8281250000000001
 40
0.8281250000000001
 40
0.8437500000000001
 40
0.8437500000000001
 40
0.8750000000000001
 40
0.8750000000000001
 40
0.90625
 40
0.90625
 40
0.9375
 40
0.9375
 40
0.953125
 40
0.953125
 40
0.9687499999999999
 40
0.9687499999999999
 40
1.0
 40
1.0
 40
1.0
 40
1.0
 10
486.3482488490112
 20
115.7926653987305
 30
0.0
 10
487.1926470349671
 20
115.7926661521913
 30
0.0
 10
488.019777995999
 20
115.8773223656253
 30
0.0
 10
489.2363311828328
 20
116.1238481427895
 30
0.0
 10
489.6377966519935
 20
116.2261092984149
 30
0.0
 10
490.4325937249449
 20
116.4714552206412
 30
0.0
 10
490.8214337300497
 20
116.6132895802734
 30
0.0
 10
491.9523744068741
 20
117.0894131559039
 30
0.0
 10
492.6643836078824
 20
117.4753322061137
 30
0.0
 10
493.6734930070307
 20
118.155839773115
 30
0.0
 10
493.9981916509892
 20
118.398775562669
 30
0.0
 10
494.6166963036043
 20
118.9095185995532
 30
0.0
 10
494.9119161231871
 20
119.1782591384253
 30
0.0
 10
495.4753925175613
 20
119.742575659757
 30
0.0
 10
495.7436482687267
 20
120.0381492140127
 30
0.0
 10
496.2533592203025
 20
120.6572646324415
 30
0.0
 10
496.4956059323029
 20
120.9822348717697
 30
0.0
 10
497.1684824725723
 20
121.9824982477579
 30
0.0
 10
497.550192453596
 20
122.6871100556707
 30
0.0
 10
498.0224950898495
 20
123.8064950317283
 30
0.0
 10
498.163073465233
 20
124.1901176081548
 30
0.0
 10
498.408538604747
 20
124.9805083043313
 30
0.0
 10
498.5121648451939
 20
125.3840071948788
 30
0.0
 10
498.7608795251299
 20
126.6009243338112
 30
0.0
 10
498.8468811095715
 20
127.428173534177
 30
0.0
 10
498.8495627810083
 20
129.1174711227736
 30
0.0
 10
498.7659759140011
 20
129.9464713096939
 30
0.0
 10
498.5210679744081
 20
131.1638197151985
 30
0.0
 10
498.4189966865127
 20
131.566605279067
 30
0.0
 10
498.1755167270859
 20
132.3592826254094
 30
0.0
 10
498.0356176535719
 20
132.7447262466518
 30
0.0
 10
497.7212037920586
 20
133.4956778189199
 30
0.0
 10
497.5466824371128
 20
133.8611812628673
 30
0.0
 10
497.163343859452
 20
134.5733510478273
 30
0.0
 10
496.95356549278
 20
134.9214012805147
 30
0.0
 10
496.2785284781639
 20
135.9275716394415
 30
0.0
 10
495.7719958079485
 20
136.543796645374
 30
0.0
 10
494.9265886770001
 20
137.3932967167864
 30
0.0
 10
494.6303952023073
 20
137.6638616124797
 30
0.0
 10
494.0075281397246
 20
138.1794607003201
 30
0.0
 10
493.6839256274122
 20
138.4218067871771
 30
0.0
 10
492.6842483831151
 20
139.0978613426652
 30
0.0
 10
491.9764203157202
 20
139.4838441596568
 30
0.0
 10
490.846754312101
 20
139.9623088664888
 30
0.0
 10
490.4562473912904
 20
140.1056510336948
 30
0.0
 10
489.6633384716847
 20
140.3522043665683
 30
0.0
 10
489.2628091666471
 20
140.4551422174237
 30
0.0
 10
488.0490436437855
 20
140.7039318947559
 30
0.0
 10
487.223742949932
 20
140.7904030375934
 30
0.0
 10
485.9598644398284
 20
140.7937315572488
 30
0.0
 10
485.5381341676024
 20
140.7733600952674
 30
0.0
 10
484.7078667045179
 20
140.6915843373527
 30
0.0
 10
484.2971381579247
 20
140.6302025501685
 30
0.0
 10
483.484265484886
 20
140.4672083245853
 30
0.0
 10
483.0821216175364
 20
140.3655958682673
 30
0.0
 10
482.2864170344407
 20
140.1216457975171
 30
0.0
 10
481.8959187653808
 20
139.9800492688778
 30
0.0
 10
480.7615185605508
 20
139.5047531452146
 30
0.0
 10
480.0473704833425
 20
139.1190343708583
 30
0.0
 10
479.0352485436669
 20
138.4383781807407
 30
0.0
 10
478.7101526628475
 20
138.1957394793529
 30
0.0
 10
478.0903472374816
 20
137.6851338919475
 30
0.0
 10
477.7944406103123
 20
137.4163716396484
 30
0.0
 10
477.2295449173317
 20
136.8518068371493
 30
0.0
 10
476.9605565156735
 20
136.556006915531
 30
0.0
 10
476.4493604207436
 20
135.9361985907153
 30
0.0
 10
476.206563284708
 20
135.6110108875318
 30
0.0
 10
475.5323831009941
 20
134.6104380730687
 30
0.0
 10
475.1496821595593
 20
133.9052171180917
 30
0.0
 10
474.6759701139123
 20
132.7840755595454
 30
0.0
 10
474.5349350724661
 20
132.3997253809016
 30
0.0
 10
474.2886450516401
 20
131.6075237403265
 30
0.0
 10
474.1850173608012
 20
131.2043333080879
 30
0.0
 10
473.9358055359093
 20
129.9863252113772
 30
0.0
 10
473.8494882020746
 20
129.1569160239052
 30
0.0
 10
473.8470139206506
 20
127.4649745303043
 30
0.0
 10
473.9307535884179
 20
126.6362483416106
 30
0.0
 10
474.176469886775
 20
125.4169088599761
 30
0.0
 10
474.2790664478568
 20
125.0128488863237
 30
0.0
 10
474.5230782838481
 20
124.2198658887041
 30
0.0
 10
474.6632969847959
 20
123.8341636802059
 30
0.0
 10
474.9785140744173
 20
123.0825347125798
 30
0.0
 10
475.1535186637131
 20
122.7166122037304
 30
0.0
 10
475.538044205582
 20
122.0034826104478
 30
0.0
 10
475.7486420704836
 20
121.6547530316987
 30
0.0
 10
476.4249637243343
 20
120.6485915046357
 30
0.0
 10
476.9326483164131
 20
120.0320734192482
 30
0.0
 10
478.0631663839978
 20
118.8986089495861
 30
0.0
 10
478.6924262667753
 20
118.3786878748331
 30
0.0
 10
480.0277133179914
 20
117.4783521718513
 30
0.0
 10
480.7372146236942
 20
117.092724311489
 30
0.0
 10
481.8705101942126
 20
116.6149934777666
 30
0.0
 10
482.2626178358718
 20
116.4719140034765
 30
0.0
 10
483.0561782646214
 20
116.2268128433214
 30
0.0
 10
483.4572830807978
 20
116.124529863795
 30
0.0
 10
484.6735764331222
 20
115.8777520452973
 30
0.0
 10
485.5038506630552
 20
115.7926646452697
 30
0.0
 10
486.3482488490112
 20
115.7926653987305
 30
0.0
  0
LINE
  5
10F
330
1F
100
AcDbEntity
  8
0
  6
Continuous
 62
     7
370
    25
100
AcDbLine
 10
463.848265028
 20
37.292470771
 30
0.0
 11
508.8482326701
 21
37.292470771
 31
0.0
  0
LINE
  5
110
330
1F
100
AcDbEntity
  8
0
  6
Continuous
 62
     8
370
    25
100
AcDbLine
 10
474.0318551509
 20
130.4529651848
 30
0.0
 11
498.6528735542
 21
130.4529651848
 31
0.0
  0
LINE
  5
111
330
1F
100
AcDbEntity
  8
0
  6
Continuous
 62
     8
370
    25
100
AcDbLine
 10
473.8523998221
 20
127.8768998456
 30
0.0
 11
498.8442103551
 21
127.8768998456
 31
0.0
  0
LINE
  5
112
330
1F
100
AcDbEntity
  8
0
  6
Continuous
 62
     8
370
    25
100
AcDbLine
 10
474.208775232
 20
125.3008345064
 30
0.0
 11
498.4819397312
 21
125.3008345064
 31
0.0
  0
SPLINE
  5
113
330
1F
100
AcDbEntity
  8
0
  6
Continuous
 62
     8
370
    25
100
AcDbSpline
210
0.0
220
0.0
230
1.0
 70
    24
 71
     3
 72
    35
 73
    31
 74
     0
 42
0.00000001
 43
0.00000001
 40
0.0
 40
0.0
 40
0.0
 40
0.0
 40
0.0090615919586697
 40
0.0465102263094301
 40
0.0839588606601907
 40
0.1214074950109511
 40
0.1588561293617115
 40
0.1963047637124728
 40
0.2337533980632332
 40
0.2712020324139935
 40
0.3086506667647544
 40
0.3460993011155147
 40
0.3835479354662756
 40
0.4209965698170365
 40
0.4584452041677969
 40
0.4958938385185573
 40
0.5333424728693177
 40
0.570791107220079
 40
0.6082397415708395
 40
0.6456883759215999
 40
0.6831370102723607
 40
0.7205856446231211
 40
0.7580342789738823
 40
0.7954829133246428
 40
0.8329315476754032
 40
0.8703801820261635
 40
0.9078288163769239
 40
0.9452774507276852
 40
0.9827260850784455
 40
0.9999999999999999
 40
0.9999999999999999
 40
0.9999999999999999
 40
0.9999999999999999
 10
474.2222513942708
 20
125.2908345063961
 30
0.0
 10
474.2644046706618
 20
125.2908345063961
 30
0.0
 10
474.4807638306829
 20
125.2908345063961
 30
0.0
 10
474.9453934699482
 20
125.2908345063961
 30
0.0
 10
475.6145210005651
 20
125.2908345063961
 30
0.0
 10
476.3559611772715
 20
125.2908345063961
 30
0.0
 10
477.1573630087965
 20
125.2908345063961
 30
0.0
 10
478.01587016838
 20
125.2908345063961
 30
0.0
 10
478.9256311118307
 20
125.2908345063961
 30
0.0
 10
479.8811865266612
 20
125.2908345063961
 30
0.0
 10
480.8766049930334
 20
125.2908345063961
 30
0.0
 10
481.9057601706417
 20
125.2908345063961
 30
0.0
 10
482.9623040963391
 20
125.2908345063961
 30
0.0
 10
484.0397235969307
 20
125.2908345063961
 30
0.0
 10
485.131375816391
 20
125.2908345063961
 30
0.0
 10
486.2305304104365
 20
125.2908345063961
 30
0.0
 10
487.3304107133721
 20
125.2908345063961
 30
0.0
 10
488.4242355911892
 20
125.2908345063961
 30
0.0
 10
489.5052612866744
 20
125.2908345063961
 30
0.0
 10
490.5668227755628
 20
125.2908345063961
 30
0.0
 10
491.6023757068771
 20
125.2908345063961
 30
0.0
 10
492.6055335793876
 20
125.2908345063961
 30
0.0
 10
493.5701189548271
 20
125.2908345063961
 30
0.0
 10
494.4901573622475
 20
125.2908345063961
 30
0.0
 10
495.3600790207287
 20
125.2908345063961
 30
0.0
 10
496.1741378080969
 20
125.2908345063961
 30
0.0
 10
496.9287432829045
 20
125.2908345063961
 30
0.0
 10
497.6139118106242
 20
125.2908345063961
 30
0.0
 10
498.1319300867477
 20
125.2908345063961
 30
0.0
 10
498.3925349019996
 20
125.2908345063961
 30
0.0
 10
498.4747983467161
 20
125.2908345063961
 30
0.0
  0
INSERT
  5
11F
330
1F
100
AcDbEntity
  8
MITTELLINIEN
100
AcDbBlockReference
  2
SW_CENTERMARKSYMBOL_1
 10
486.348248849
 20
128.292675918
 30
0.0
  0
SPLINE
  5
120
330
1F
100
AcDbEntity
  8
0
  6
Continuous
 62
     7
370
    25
100
AcDbSpline
210
0.0
220
0.0
230
1.0
 70
     8
 71
     3
 72
    38
 73
    34
 74
     0
 42
0.00000001
 43
0.00000001
 40
0.0
 40
0.0
 40
0.0
 40
0.0
 40
0.0217491681053536
 40
0.0550350093950046
 40
0.088344081375954
 40
0.121684560071306
 40
0.1550628343343329
 40
0.1884832932944289
 40
0.2219482896213845
 40
0.2554582605380893
 40
0.2890119719491583
 40
0.3226068420525794
 40
0.3562392996792372
 40
0.3899051380437249
 40
0.4235998342263838
 40
0.4573188159051743
 40
0.4910576673836724
 40
0.5248122753742488
 40
0.5585789207030974
 40
0.592354325200433
 40
0.6261356640257778
 40
0.6599205532089782
 40
0.6937070208806436
 40
0.7274930576412653
 40
0.7612774521609326
 40
0.7950593128921063
 40
0.8288379812466994
 40
0.8626129944576383
 40
0.8963840525137378
 40
0.9301509893093403
 40
0.9639137478769783
 40
0.997672359409649
 40
1.0
 40
1.0
 40
1.0
 40
1.0
 10
525.8496673385384
 20
-349.94645411866
 30
0.0
 10
525.9917269124542
 20
-350.0084320782025
 30
0.0
 10
526.3512004310385
 20
-350.1652637128279
 30
0.0
 10
526.9496321937162
 20
-350.3745946287522
 30
0.0
 10
527.6413837489478
 20
-350.5792794518296
 30
0.0
 10
528.3512689122905
 20
-350.744738083883
 30
0.0
 10
529.07753338068
 20
-350.8726290113477
 30
0.0
 10
529.819620691774
 20
-350.9622504208322
 30
0.0
 10
530.5766055036836
 20
-351.0135782982564
 30
0.0
 10
531.3476124611325
 20
-351.0264594381366
 30
0.0
 10
532.1317053390821
 20
-351.0008359912374
 30
0.0
 10
532.9279210756339
 20
-350.9366917655937
 30
0.0
 10
533.7352668177545
 20
-350.8340713306167
 30
0.0
 10
534.5527279273397
 20
-350.6930774790226
 30
0.0
 10
535.3792732502328
 20
-350.5138725159583
 30
0.0
 10
536.2138606687258
 20
-350.2966768679465
 30
0.0
 10
537.0554416904434
 20
-350.0417671985658
 30
0.0
 10
537.9029651924021
 20
-349.7494739003653
 30
0.0
 10
538.7553802558375
 20
-349.4201784014523
 30
0.0
 10
539.6116382089648
 20
-349.0543104902271
 30
0.0
 10
540.4706940139625
 20
-348.6523458039525
 30
0.0
 10
541.3315071867834
 20
-348.2148036334531
 30
0.0
 10
542.1930388179766
 20
-347.7422467316453
 30
0.0
 10
543.0542561295413
 20
-347.2352786884577
 30
0.0
 10
543.9141322928633
 20
-346.6945399556253
 30
0.0
 10
544.7716530141784
 20
-346.1207124156579
 30
0.0
 10
545.6258017549454
 20
-345.5144891761572
 30
0.0
 10
546.4756007315668
 20
-344.8766910442459
 30
0.0
 10
547.319958384646
 20
-344.2078286854799
 30
0.0
 10
548.1582409042071
 20
-343.5097325586363
 30
0.0
 10
548.9881424786831
 20
-342.7794673138101
 30
0.0
 10
549.5574767869409
 20
-342.2639711217341
 30
0.0
 10
549.8470949743621
 20
-341.9844996058663
 30
0.0
 10
549.8657759680672
 20
-341.9664730942197
 30
0.0
  0
SPLINE
  5
121
330
1F
100
AcDbEntity
  8
0
  6
Continuous
 62
     7
370
    25
100
AcDbSpline
210
0.0
220
0.0
230
1.0
 70
     8
 71
     3
 72
    38
 73
    34
 74
     0
 42
0.00000001
 43
0.00000001
 40
0.0
 40
0.0
 40
0.0
 40
0.0
 40
0.0156544015666263
 40
0.0493810083026756
 40
0.0831121310247261
 40
0.1168479205686156
 40
0.1505884663625023
 40
0.1843337803841504
 40
0.2180837778558232
 40
0.2518382542549635
 40
0.2855968582623583
 40
0.3193590603754742
 40
0.3531241171113842
 40
0.386891031049044
 40
0.4206582475798288
 40
0.4544237642973562
 40
0.4881854199777271
 40
0.5219406142786459
 40
0.5556862814322937
 40
0.5894188833402332
 40
0.6231344313645069
 40
0.656828547356492
 40
0.690496574594958
 40
0.7241337476676231
 40
0.7577354262286811
 40
0.7912973905388513
 40
0.8248161868321517
 40
0.8582894987973531
 40
0.8917165097496452
 40
0.925098211146561
 40
0.9584376099379177
 40
0.9917397921066028
 40
1.0
 40
1.0
 40
1.0
 40
1.0
 10
565.862293890759
 20
-314.2516289869046
 30
0.0
 10
565.903234238472
 20
-314.0822674406672
 30
0.0
 10
566.0323784693597
 20
-313.5480251136574
 30
0.0
 10
566.2193148079606
 20
-312.6553137220546
 30
0.0
 10
566.4240317691172
 20
-311.5748046272214
 30
0.0
 10
566.598124463843
 20
-310.5033452144949
 30
0.0
 10
566.7433708494602
 20
-309.4417969938731
 30
0.0
 10
566.859031696058
 20
-308.3915221676669
 30
0.0
 10
566.9450833888059
 20
-307.3537341615884
 30
0.0
 10
567.0013517834034
 20
-306.3296705121264
 30
0.0
 10
567.0277446552117
 20
-305.3205454888908
 30
0.0
 10
567.0241898090578
 20
-304.3275618811798
 30
0.0
 10
566.9906522044658
 20
-303.3519070534279
 30
0.0
 10
566.927130245882
 20
-302.3947557778222
 30
0.0
 10
566.8336582860481
 20
-301.4572702213457
 30
0.0
 10
566.7103076311728
 20
-300.5405970224614
 30
0.0
 10
566.5571876240559
 20
-299.64586437985
 30
0.0
 10
566.3744467599241
 20
-298.7741806111126
 30
0.0
 10
566.1622747479228
 20
-297.9266352142675
 30
0.0
 10
565.9209045249044
 20
-297.1042972140438
 30
0.0
 10
565.6506143262832
 20
-296.3082129038013
 30
0.0
 10
565.3517296706265
 20
-295.5394027853379
 30
0.0
 10
565.0246248437
 20
-294.798857874903
 30
0.0
 10
564.6697241626192
 20
-294.087534433876
 30
0.0
 10
564.2875004404941
 20
-293.4063507635555
 30
0.0
 10
563.878478615591
 20
-292.7561732590253
 30
0.0
 10
563.4432133642698
 20
-292.1378409433367
 30
0.0
 10
562.9823558190415
 20
-291.5520474163741
 30
0.0
 10
562.4963804330528
 20
-290.9997575204185
 30
0.0
 10
561.9865706577793
 20
-290.4806392355692
 30
0.0
 10
561.4513113297799
 20
-289.9988977691904
 30
0.0
 10
561.0379097699279
 20
-289.6560372818769
 30
0.0
 10
560.7960650697202
 20
-289.4852267577151
 30
0.0
 10
560.7480002808893
 20
-289.4512794693649
 30
0.0
  0
LINE
  5
122
330
1F
100
AcDbEntity
  8
0
  6
Continuous
 62
     7
370
    25
100
AcDbLine
 10
515.0852267663
 20
-343.8267948888
 30
0.0
 11
524.6311683123
 21
-349.3375496436
 31
0.0
  0
LINE
  5
123
330
1F
100
AcDbEntity
  8
0
  6
Continuous
 62
     7
370
    25
100
AcDbLine
 10
559.6283239546
 20
-288.7141292769
 30
0.0
 11
550.0823824085
 21
-283.2033745221
 31
0.0
  0
LINE
  5
124
330
1F
100
AcDbEntity
  8
0
  6
Continuous
 62
     7
370
    25
100
AcDbLine
 10
738.6153275426
 20
-275.3882112877
 30
0.0
 11
738.6153275426
 21
-392.1693590698
 31
0.0
  0
LINE
  5
125
330
1F
100
AcDbEntity
  8
0
  6
Continuous
 62
     7
370
    25
100
AcDbLine
 10
770.6153547698
 20
-392.1693471781
 30
0.0
 11
770.6153547698
 21
-275.3882111758
 31
0.0
  0
LINE
  5
126
330
1F
100
AcDbEntity
  8
0
  6
Continuous
 62
     7
370
    25
100
AcDbLine
 10
777.1153413321
 20
-266.2559360606
 30
0.0
 11
777.1153413321
 21
-254.0078216922
 31
0.0
  0
LINE
  5
127
330
1F
100
AcDbEntity
  8
0
  6
Continuous
 62
     7
370
    25
100
AcDbLine
 10
732.1153407888
 20
-254.0078216922
 30
0.0
 11
732.1153407888
 21
-266.2559360606
 31
0.0
  0
LINE
  5
128
330
1F
100
AcDbEntity
  8
0
  6
Continuous
 62
     7
370
    25
100
AcDbLine
 10
732.1153382896
 20
-389.8422670174
 30
0.0
 11
732.1153382896
 21
-402.0903813859
 31
0.0
  0
LINE
  5
129
330
1F
100
AcDbEntity
  8
0
  6
Continuous
 62
     7
370
    25
100
AcDbLine
 10
777.115338833
 20
-402.0903813859
 30
0.0
 11
777.115338833
 21
-389.8422670174
 31
0.0
  0
LINE
  5
12A
330
1F
100
AcDbEntity
  8
0
  6
Continuous
 62
     7
370
    25
100
AcDbLine
 10
732.1153547238
 20
-410.2274781024
 30
0.0
 11
548.9261125649
 21
-304.4745796178
 31
0.0
  0
LINE
  5
12B
330
1F
100
AcDbEntity
  8
0
  6
Continuous
 62
     7
370
    25
100
AcDbLine
 10
525.0175141374
 20
-290.6724395324
 30
0.0
 11
484.310802432
 21
-267.1729550655
 31
0.0
  0
LINE
  5
12C
330
1F
100
AcDbEntity
  8
0
  6
Continuous
 62
     7
370
    25
100
AcDbLine
 10
468.3120936235
 20
-294.8865344014
 30
0.0
 11
509.0188053289
 21
-318.3860188683
 31
0.0
  0
LINE
  5
12D
330
1F
100
AcDbEntity
  8
0
  6
Continuous
 62
     7
370
    25
100
AcDbLine
 10
532.9274037564
 20
-332.1881589537
 30
0.0
 11
729.2918537905
 21
-445.5469430488
 31
0.0
  0
SPLINE
  5
12E
330
1F
100
AcDbEntity
  8
0
  6
Continuous
 62
     7
370
    25
100
AcDbSpline
210
0.0
220
0.0
230
1.0
 70
     8
 71
     3
 72
    25
 73
    21
 74
     0
 42
0.00000001
 43
0.00000001
 40
0.0
 40
0.0
 40
0.0
 40
0.0
 40
0.083913114690737
 40
0.1520977948717692
 40
0.2055257951418029
 40
0.2463562068004906
 40
0.2808129434596763
 40
0.3256389943944316
 40
0.3785639566688582
 40
0.4270502762978711
 40
0.4724304451757296
 40
0.5317924907277883
 40
0.5963302090927481
 40
0.6615781545465353
 40
0.7153898071305377
 40
0.7509907361282546
 40
0.7907990054801719
 40
0.8435754058341658
 40
0.9133384725267828
 40
1.0
 40
1.0
 40
1.0
 40
1.0
 10
462.8395482569343
 20
-289.5157564852328
 30
0.0
 10
462.9534930832032
 20
-289.6996205368419
 30
0.0
 10
463.1600252430024
 20
-290.0328856874564
 30
0.0
 10
463.4618880152116
 20
-290.4701300405882
 30
0.0
 10
463.7099871278238
 20
-290.8088896063728
 30
0.0
 10
463.9130873162272
 20
-291.0724484432976
 30
0.0
 10
464.1070635049695
 20
-291.3146050791476
 30
0.0
 10
464.3259282900041
 20
-291.5768991912729
 30
0.0
 10
464.5750634128399
 20
-291.8609458463407
 30
0.0
 10
464.8323321959811
 20
-292.1395606423591
 30
0.0
 10
465.107695819606
 20
-292.4239581611756
 30
0.0
 10
465.420151571427
 20
-292.7300476342317
 30
0.0
 10
465.7798084992039
 20
-293.0609812802026
 30
0.0
 10
466.1392237832702
 20
-293.3705697840766
 30
0.0
 10
466.4496985845428
 20
-293.6221516215085
 30
0.0
 10
466.7137798037339
 20
-293.826418678034
 30
0.0
 10
466.9795297470144
 20
-294.0240605381786
 30
0.0
 10
467.3220295763772
 20
-294.2662204098416
 30
0.0
 10
467.7721005081486
 20
-294.5657863261187
 30
0.0
 10
468.119583344231
 20
-294.772186085293
 30
0.0
 10
468.3120939497801
 20
-294.8865345897308
 30
0.0
  0
SPLINE
  5
12F
330
1F
100
AcDbEntity
  8
0
  6
Continuous
 62
     7
370
    25
100
AcDbSpline
210
0.0
220
0.0
230
1.0
 70
     8
 71
     3
 72
    27
 73
    23
 74
     0
 42
0.00000001
 43
0.00000001
 40
0.0
 40
0.0
 40
0.0
 40
0.0
 40
0.0793408177119336
 40
0.1447212892801493
 40
0.1960683880510588
 40
0.2512144964111617
 40
0.2953026702558455
 40
0.3359831790497944
 40
0.3809259589623537
 40
0.4333020686374633
 40
0.4985643710002355
 40
0.5604769505391579
 40
0.6057424553876065
 40
0.6392900415829468
 40
0.6846087228844608
 40
0.7406350740651517
 40
0.7718023860264458
 40
0.7966671127202003
 40
0.8242501644974597
 40
0.8674284977282855
 40
0.9261102456104836
 40
1.0
 40
1.0
 40
1.0
 40
1.0
 10
484.3108009263946
 20
-267.1729541963467
 30
0.0
 10
484.1321281787839
 20
-267.0725076484323
 30
0.0
 10
483.8062208950033
 20
-266.8892885395659
 30
0.0
 10
483.3533369499988
 20
-266.6621745739509
 30
0.0
 10
482.9512039116025
 20
-266.4738848730768
 30
0.0
 10
482.5944633546661
 20
-266.3186687546747
 30
0.0
 10
482.2595176605863
 20
-266.182750846424
 30
0.0
 10
481.9463862137206
 20
-266.0634418403769
 30
0.0
 10
481.6105855232444
 20
-265.9437401995023
 30
0.0
 10
481.2116274934378
 20
-265.8124815554496
 30
0.0
 10
480.7668983300338
 20
-265.6806614818449
 30
0.0
 10
480.3358911257469
 20
-265.5678185053635
 30
0.0
 10
479.9817776664695
 20
-265.485269488328
 30
0.0
 10
479.6681025895053
 20
-265.4186916174437
 30
0.0
 10
479.3259183310474
 20
-265.3531421709259
 30
0.0
 10
478.9881585753588
 20
-265.2973410655418
 30
0.0
 10
478.7015741884856
 20
-265.2564360559683
 30
0.0
 10
478.4873087395267
 20
-265.2289384081167
 30
0.0
 10
478.2419598927389
 20
-265.2007122821615
 30
0.0
 10
477.9092448467583
 20
-265.1686028703088
 30
0.0
 10
477.456409734482
 20
-265.13550404697
 30
0.0
 10
477.1139685249994
 20
-265.1253393254062
 30
0.0
 10
476.9231062625377
 20
-265.119673939053
 30
0.0
  0
LINE
  5
130
330
1F
100
AcDbEntity
  8
0
  6
Continuous
 62
     7
370
    25
100
AcDbLine
 10
729.291855948
 20
-445.5469393129
 30
0.0
 11
732.1153547238
 21
-447.1769104612
 31
0.0
  0
LINE
  5
131
330
1F
100
AcDbEntity
  8
0
  6
Continuous
 62
     7
370
    25
100
AcDbLine
 10
777.1153223659
 20
-515.996542347
 30
0.0
 11
777.1153223659
 21
-402.106096101
 31
0.0
  0
LINE
  5
132
330
1F
100
AcDbEntity
  8
0
  6
Continuous
 62
     7
370
    25
100
AcDbLine
 10
732.1153547238
 20
-402.1060804081
 30
0.0
 11
732.1153547238
 21
-515.996542347
 31
0.0
  0
ARC
  5
133
330
1F
100
AcDbEntity
  8
0
  6
Continuous
 62
     7
370
    25
100
AcDbCircle
 10
553.7764020425
 20
-298.8510241758
 30
0.0
 40
11.70469276374152
100
AcDbArc
 50
53.6186563406
 51
66.5207555938
  0
ARC
  5
134
330
1F
100
AcDbEntity
  8
0
  6
Continuous
 62
     7
370
    25
100
AcDbCircle
 10
530.4832556429
 20
-339.2003333915
 30
0.0
 40
11.70505260947933
100
AcDbArc
 50
233.4927069451
 51
246.4893863661
  0
LWPOLYLINE
  5
135
330
1F
100
AcDbEntity
  8
0
  6
Continuous
 62
     7
370
    25
100
AcDbPolyline
 90
       39
 70
   128
 43
0.0
 10
518.8109943694
 20
-297.7213311033
 10
519.5711610644
 20
-296.7174790656
 10
520.3486905722
 20
-295.7360401279
 10
521.1425454324
 20
-294.7783238273
 10
521.9516664021
 20
-293.8456080478
 10
522.7749738684
 20
-292.9391373151
 10
523.6113692895
 20
-292.0601211361
 10
524.4597366602
 20
-291.2097323849
 10
525.3189440013
 20
-290.389105738
 10
526.1878448695
 20
-289.5993361602
 10
527.0652798876
 20
-288.8414774437
 10
527.9500782912
 20
-288.1165408018
 10
528.8410594909
 20
-287.4254935198
 10
529.7370346476
 20
-286.7692576643
 10
530.6368082588
 20
-286.1487088531
 10
531.5391797534
 20
-285.5646750863
 10
532.4429450944
 20
-285.0179356422
 10
533.3468983846
 20
-284.509220037
 10
534.2498334764
 20
-284.0392070516
 10
535.1505455803
 20
-283.6085238258
 10
536.0478328734
 20
-283.2177450216
 10
536.9404981022
 20
-282.8673920566
 10
537.8273501807
 20
-282.5579324077
 10
538.7072057792
 20
-282.2897789881
 10
539.5788909035
 20
-282.0632895956
 10
540.4412424614
 20
-281.8787664359
 10
541.2931098143
 20
-281.7364557188
 10
542.1333563128
 20
-281.6365473299
 10
542.9608608133
 20
-281.5791745774
 10
543.7745191739
 20
-281.5644140138
 10
544.5732457276
 20
-281.5922853343
 10
545.3559747308
 20
-281.66275135
 10
546.1216617858
 20
-281.775718038
 10
546.8692852339
 20
-281.9310346663
 10
547.5978475185
 20
-282.1284939956
 10
548.3063765167
 20
-282.3678325551
 10
548.9939268359
 20
-282.6487309948
 10
549.6595810755
 20
-282.9708145107
 10
550.0823824085
 20
-283.2033745221
  0
LWPOLYLINE
  5
136
330
1F
100
AcDbEntity
  8
0
  6
Continuous
 62
     7
370
    25
100
AcDbPolyline
 90
       50
 70
   128
 43
0.0
 10
515.0852267663
 20
-343.8267948888
 10
514.8651581239
 20
-343.6965160648
 10
514.2459301962
 20
-343.2934060473
 10
513.6511705541
 20
-342.8505627186
 10
513.0816727873
 20
-342.3685769659
 10
512.5381967786
 20
-341.8480919045
 10
512.0214676896
 20
-341.2898020192
 10
511.5321749939
 20
-340.694452238
 10
511.0709715561
 20
-340.0628369382
 10
510.6384727615
 20
-339.395798886
 10
510.2352556947
 20
-338.6942281126
 10
509.8618583696
 20
-337.959060726
 10
509.5187790114
 20
-337.1912776625
 10
509.2064753919
 20
-336.3919033776
 10
508.925364219
 20
-335.562004479
 10
508.6758205803
 20
-334.7026883035
 10
508.4581774425
 20
-333.8151014394
 10
508.2727252076
 20
-332.9004281968
 10
508.1197113252
 20
-331.9598890272
 10
507.9993399622
 20
-330.9947388951
 10
507.9117717304
 20
-330.0062656034
 10
507.8571234726
 20
-328.9957880753
 10
507.8354681059
 20
-327.9646545943
 10
507.8468345252
 20
-326.914241005
 10
507.8912075644
 20
-325.8459488778
 10
507.9685280162
 20
-324.7612036384
 10
508.0786927118
 20
-323.6614526658
 10
508.2215546581
 20
-322.5481633613
 10
508.3969232338
 20
-321.4228211906
 10
508.6045644442
 20
-320.2869277013
 10
508.8442012329
 20
-319.1419985198
 10
509.1155138517
 20
-317.9895613289
 10
509.4181402873
 20
-316.8311538292
 10
509.7516767443
 20
-315.6683216877
 10
510.1156781839
 20
-314.5026164751
 10
510.5096589178
 20
-313.3355935956
 10
510.9330932562
 20
-312.1688102117
 10
511.3854162093
 20
-311.0038231662
 10
511.8660242412
 20
-309.8421869052
 10
512.3742760749
 20
-308.6854514036
 10
512.9094935483
 20
-307.5351600976
 10
513.4709625191
 20
-306.3928478244
 10
514.0579338173
 20
-305.2600387752
 10
514.6696242454
 20
-304.1382444606
 10
515.3052176226
 20
-303.0289616945
 10
515.9638658747
 20
-301.9336705965
 10
516.6446901653
 20
-300.8538326172
 10
517.3467820682
 20
-299.7908885877
 10
518.0692047798
 20
-298.7462567979
 10
518.8109943694
 20
-297.7213311033
  0
LWPOLYLINE
  5
137
330
1F
100
AcDbEntity
  8
0
  6
Continuous
 62
     7
370
    25
100
AcDbPolyline
 90
       31
 70
   128
 43
0.0
 10
536.069105051
 20
-311.8745648106
 10
536.5923686906
 20
-311.1908568974
 10
537.1326174087
 20
-310.5303277461
 10
537.6882935285
 20
-309.8948818334
 10
538.2577948919
 20
-309.2863513142
 10
538.8394794789
 20
-308.7064907396
 10
539.4316701425
 20
-308.1569719977
 10
540.0326594436
 20
-307.6393794933
 10
540.6407145744
 20
-307.1552055797
 10
541.2540823546
 20
-306.7058462555
 10
541.8709942861
 20
-306.2925971399
 10
542.4896716521
 20
-305.9166497373
 10
543.1083306456
 20
-305.5790880011
 10
543.7251875126
 20
-305.2808852094
 10
544.3384636951
 20
-305.022901158
 10
544.946390959
 20
-304.8058796817
 10
545.5472164926
 20
-304.6304465095
 10
546.1392079605
 20
-304.4971074607
 10
546.7206584979
 20
-304.4062469864
 10
547.2898916325
 20
-304.3581270607
 10
547.8452661178
 20
-304.352886426
 10
548.3851806653
 20
-304.3905401922
 10
548.9080785616
 20
-304.4709797938
 10
549.4124521568
 20
-304.5939733027
 10
549.8968472112
 20
-304.7591660967
 10
550.3598670884
 20
-304.9660818823
 10
550.8001767823
 20
-305.2141240676
 10
551.2165067661
 20
-305.5025774828
 10
551.6076566526
 20
-305.8306104421
 10
551.9724986555
 20
-306.1972771415
 10
552.0391952917
 20
-306.2717240227
  0
LWPOLYLINE
  5
138
330
1F
100
AcDbEntity
  8
0
  6
Continuous
 62
     7
370
    25
100
AcDbPolyline
 90
       38
 70
   128
 43
0.0
 10
536.0404864832
 20
-333.9853033586
 10
535.8039259595
 20
-333.932706368
 10
535.3093633586
 20
-333.7885612562
 10
534.8354850728
 20
-333.6024398748
 10
534.3836574158
 20
-333.37487886
 10
533.9551831239
 20
-333.1065343289
 10
533.5512975991
 20
-332.7981799885
 10
533.1731653482
 20
-332.450704904
 10
532.8218766243
 20
-332.0651109361
 10
532.4984442836
 20
-331.642509852
 10
532.2038008654
 20
-331.1841201201
 10
531.9387959029
 20
-330.6912633966
 10
531.704193474
 20
-330.165360715
 10
531.5006699982
 20
-329.6079283889
 10
531.3288122865
 20
-329.02057364
 10
531.189115849
 20
-328.4049899641
 10
531.0819834669
 20
-327.7629522482
 10
531.0077240304
 20
-327.0963116534
 10
530.9665516487
 20
-326.4069902771
 10
530.9585850325
 20
-325.6969756111
 10
530.9838471517
 20
-324.9683148116
 10
531.0422651689
 20
-324.2231087963
 10
531.1336706499
 20
-323.4635061871
 10
531.2578000491
 20
-322.691697115
 10
531.4142954692
 20
-321.9099069051
 10
531.6027056934
 20
-321.1203896613
 10
531.8224874864
 20
-320.3254217659
 10
532.0730071602
 20
-319.5272953174
 10
532.3535424019
 20
-318.7283115207
 10
532.6632843556
 20
-317.9307740532
 10
533.0013399552
 20
-317.1369824216
 10
533.3667344988
 20
-316.3492253329
 10
533.7584144595
 20
-315.5697740945
 10
534.1752505223
 20
-314.8008760663
 10
534.6160408412
 20
-314.0447481802
 10
535.0795145035
 20
-313.3035705488
 10
535.5643351946
 20
-312.5794801789
 10
536.069105051
 20
-311.8745648106
  0
ARC
  5
139
330
1F
100
AcDbEntity
  8
0
  6
Continuous
 62
     7
370
    25
100
AcDbCircle
 10
547.0529493532
 20
-309.6186396136
 30
0.0
 40
5.693149874124796
100
AcDbArc
 50
41.2682755621
 51
55.5753317126
  0
ARC
  5
13A
330
1F
100
AcDbEntity
  8
0
  6
Continuous
 62
     7
370
    25
100
AcDbCircle
 10
536.4392785692
 20
-328.011721293
 30
0.0
 40
5.674191104950039
100
AcDbArc
 50
244.406017641
 51
258.761128149
  0
LWPOLYLINE
  5
13B
330
1F
100
AcDbEntity
  8
0
  6
Continuous
 62
     7
370
    25
100
AcDbPolyline
 90
       72
 70
   128
 43
0.0
 10
768.7239221503
 20
-262.9639497245
 10
768.9894441254
 20
-262.5627719902
 10
769.2503208064
 20
-262.0970683298
 10
769.465961604
 20
-261.6237147917
 10
769.6356999848
 20
-261.1441744846
 10
769.7590112973
 20
-260.65992964
 10
769.8355143932
 20
-260.1724770311
 10
769.8649728059
 20
-259.6833233459
 10
769.8472954811
 20
-259.1939805304
 10
769.7825370584
 20
-258.7059611153
 10
769.6708977023
 20
-258.2207735405
 10
769.5127224837
 20
-257.7399174931
 10
769.3085003132
 20
-257.2648792715
 10
769.0588624298
 20
-256.7971271917
 10
768.7645804498
 20
-256.3381070485
 10
768.4265639821
 20
-255.889237647
 10
768.0458578161
 20
-255.4519064166
 10
767.6236386927
 20
-255.0274651231
 10
767.1612116671
 20
-254.6172256904
 10
766.6600060748
 20
-254.2224561449
 10
766.1215711135
 20
-253.8443766967
 10
765.5475710547
 20
-253.4841559677
 10
764.9397800999
 20
-253.1429073795
 10
764.3000768959
 20
-252.821685712
 10
763.6304387288
 20
-252.521483843
 10
762.9329354117
 20
-252.2432296791
 10
762.2097228874
 20
-251.9877832881
 10
761.4630365644
 20
-251.7559342401
 10
760.6951844073
 20
-251.5483991673
 10
759.9085398032
 20
-251.3658195487
 10
759.1055342254
 20
-251.2087597273
 10
758.2886497181
 20
-251.0777051662
 10
757.4604112246
 20
-250.9730609474
 10
756.6233787825
 20
-250.8951505203
 10
755.7801396112
 20
-250.8442147014
 10
754.9333001147
 20
-250.8204109306
 10
754.0854778252
 20
-250.8238127839
 10
753.2392933129
 20
-250.8544097463
 10
752.3973620856
 20
-250.9121072444
 10
751.5622865045
 20
-250.9967269385
 10
750.7366477404
 20
-251.1080072741
 10
749.9229977954
 20
-251.2456042899
 10
749.1238516148
 20
-251.4090926815
 10
748.3416793137
 20
-251.5979671156
 10
747.5788985417
 20
-251.8116437923
 10
746.8378670107
 20
-252.049462249
 10
746.1208752065
 20
-252.3106874026
 10
745.4301393098
 20
-252.5945118212
 10
744.7677943456
 20
-252.9000582197
 10
744.1358875843
 20
-253.2263821716
 10
743.5363722134
 20
-253.5724750284
 10
742.9711013006
 20
-253.9372670369
 10
742.4418220659
 20
-254.3196306459
 10
741.950170481
 20
-254.7183839914
 10
741.4976662129
 20
-255.1322945496
 10
741.0857079264
 20
-255.5600829467
 10
740.7155689607
 20
-256.0004269134
 10
740.3883933944
 20
-256.4519653716
 10
740.1051925083
 20
-256.9133026418
 10
739.8668416601
 20
-257.383012757
 10
739.6740775786
 20
-257.8596438701
 10
739.5274960866
 20
-258.3417227418
 10
739.4275502591
 20
-258.8277592937
 10
739.3745490229
 20
-259.3162512148
 10
739.3686562017
 20
-259.8056886045
 10
739.40989001
 20
-260.29455864
 10
739.4981229964
 20
-260.7813502519
 10
739.6330824378
 20
-261.2645587954
 10
739.8143511822
 20
-261.7426907003
 10
740.0413689385
 20
-262.2142680886
 10
740.3134340077
 20
-262.6778333414
 10
740.506760162
 20
-262.9639497245
  0
LWPOLYLINE
  5
13C
330
1F
100
AcDbEntity
  8
0
  6
Continuous
 62
     7
370
    25
100
AcDbPolyline
 90
       55
 70
   128
 43
0.0
 10
769.7996043843
 20
-260.4386756167
 10
769.7825370584
 20
-260.3390427391
 10
769.6708977023
 20
-259.8538551643
 10
769.5127224837
 20
-259.3729991169
 10
769.3085003132
 20
-258.8979608953
 10
769.0588624298
 20
-258.4302088155
 10
768.7645804498
 20
-257.9711886723
 10
768.4265639821
 20
-257.5223192707
 10
768.0458578161
 20
-257.0849880403
 10
767.6236386927
 20
-256.6605467469
 10
767.1612116671
 20
-256.2503073142
 10
766.6600060748
 20
-255.8555377687
 10
766.1215711135
 20
-255.4774583205
 10
765.5475710547
 20
-255.1172375915
 10
764.9397800999
 20
-254.7759890033
 10
764.3000768959
 20
-254.4547673358
 10
763.6304387288
 20
-254.1545654667
 10
762.9329354117
 20
-253.8763113029
 10
762.2097228874
 20
-253.6208649119
 10
761.4630365644
 20
-253.3890158639
 10
760.6951844073
 20
-253.1814807911
 10
759.9085398032
 20
-252.9989011724
 10
759.1055342254
 20
-252.8418413511
 10
758.2886497181
 20
-252.71078679
 10
757.4604112246
 20
-252.6061425712
 10
756.6233787825
 20
-252.5282321441
 10
755.7801396112
 20
-252.4772963252
 10
754.9333001147
 20
-252.4534925544
 10
754.0854778252
 20
-252.4568944076
 10
753.2392933129
 20
-252.48749137
 10
752.3973620856
 20
-252.5451888681
 10
751.5622865045
 20
-252.6298085623
 10
750.7366477404
 20
-252.7410888978
 10
749.9229977954
 20
-252.8786859137
 10
749.1238516148
 20
-253.0421743053
 10
748.3416793137
 20
-253.2310487394
 10
747.5788985417
 20
-253.444725416
 10
746.8378670107
 20
-253.6825438728
 10
746.1208752065
 20
-253.9437690264
 10
745.4301393098
 20
-254.227593445
 10
744.7677943456
 20
-254.5331398434
 10
744.1358875843
 20
-254.8594637954
 10
743.5363722134
 20
-255.2055566522
 10
742.9711013006
 20
-255.5703486607
 10
742.4418220659
 20
-255.9527122697
 10
741.950170481
 20
-256.3514656152
 10
741.4976662129
 20
-256.7653761734
 10
741.0857079264
 20
-257.1931645705
 10
740.7155689607
 20
-257.6335085372
 10
740.3883933944
 20
-258.0850469953
 10
740.1051925083
 20
-258.5463842656
 10
739.8668416601
 20
-259.0160943808
 10
739.6740775786
 20
-259.4927254939
 10
739.5274960866
 20
-259.9748043655
 10
739.431077928
 20
-260.4386756167
  0
LWPOLYLINE
  5
13D
330
1F
100
AcDbEntity
  8
0
  6
Continuous
 62
     7
370
    25
100
AcDbPolyline
 90
      139
 70
   128
 43
0.0
 10
762.5022838099
 20
-241.8429826762
 10
763.4532123149
 20
-242.0628189885
 10
764.3858229822
 20
-242.3074131429
 10
765.2981828336
 20
-242.5762581808
 10
766.1884008642
 20
-242.8687968798
 10
767.054631961
 20
-243.1844229087
 10
767.8950807279
 20
-243.5224820843
 10
768.7080052064
 20
-243.8822737275
 10
769.4917204864
 20
-244.2630521151
 10
770.2446021984
 20
-244.6640280257
 10
770.9650898799
 20
-245.0843703755
 10
771.6516902103
 20
-245.5232079409
 10
772.3029801055
 20
-245.9796311639
 10
772.9176096678
 20
-246.4526940378
 10
773.4943049836
 20
-246.9414160674
 10
774.0318707636
 20
-247.4447843018
 10
774.5291928208
 20
-247.9617554334
 10
774.9852403793
 20
-248.4912579606
 10
775.3990682108
 20
-249.0321944085
 10
775.769818594
 20
-249.5834436038
 10
776.096723092
 20
-250.1438629983
 10
776.3791041455
 20
-250.7122910372
 10
776.6163764765
 20
-251.2875495667
 10
776.8080483019
 20
-251.8684462756
 10
776.9537223525
 20
-252.4537771667
 10
777.0530966968
 20
-253.0423290524
 10
777.105965366
 20
-253.632882069
 10
777.1122187819
 20
-254.2242122053
 10
777.0718439834
 20
-254.8150938392
 10
776.9849246532
 20
-255.4043022783
 10
776.8516409451
 20
-255.9906162981
 10
776.6722691099
 20
-256.5728206733
 10
776.447180923
 20
-257.1497086964
 10
776.1768429142
 20
-257.720084679
 10
775.8618154001
 20
-258.2827664296
 10
775.5027513236
 20
-258.8365877044
 10
775.1003948996
 20
-259.3804006242
 10
774.6555800733
 20
-259.9130780539
 10
774.1692287914
 20
-260.4335159379
 10
773.6423490912
 20
-260.9406355893
 10
773.0760330113
 20
-261.4333859253
 10
772.4714543282
 20
-261.9107456455
 10
771.8298661237
 20
-262.3717253489
 10
771.1525981872
 20
-262.8153695848
 10
770.4410542599
 20
-263.2407588327
 10
769.6967091253
 20
-263.6470114085
 10
768.9211055525
 20
-264.0332852916
 10
768.1158510981
 20
-264.3987798704
 10
767.282614775
 20
-264.7427376017
 10
766.4231235928
 20
-265.0644455804
 10
765.5391589782
 20
-265.3632370177
 10
764.6325530828
 20
-265.6384926227
 10
763.7051849858
 20
-265.8896418862
 10
762.7589767992
 20
-266.1161642628
 10
761.7958896839
 20
-266.3175902504
 10
760.8179197851
 20
-266.493502363
 10
759.8270940947
 20
-266.6435359956
 10
758.8254662502
 20
-266.7673801809
 10
757.8151122784
 20
-266.8647782327
 10
756.7981262922
 20
-266.9355282787
 10
755.7766161502
 20
-266.9794836787
 10
754.7526990882
 20
-266.9965533283
 10
753.7284973308
 20
-266.9867018482
 10
752.7061336924
 20
-266.949949657
 10
751.6877271778
 20
-266.8863729292
 10
750.6753885901
 20
-266.7961034374
 10
749.6712161555
 20
-266.6793282788
 10
748.6772911748
 20
-266.5362894877
 10
747.6956737093
 20
-266.367283534
 10
746.728398311
 20
-266.1726607082
 10
745.777469806
 20
-265.952824396
 10
744.8448591387
 20
-265.7082302415
 10
743.9324992872
 20
-265.4393852036
 10
743.0422812567
 20
-265.1468465047
 10
742.1760501599
 20
-264.8312204758
 10
741.335601393
 20
-264.4931613001
 10
740.5226769145
 20
-264.1333696569
 10
739.7389616344
 20
-263.7525912694
 10
738.9860799225
 20
-263.3516153587
 10
738.2655922409
 20
-262.9312730089
 10
737.5789919105
 20
-262.4924354435
 10
736.9277020153
 20
-262.0360122205
 10
736.313072453
 20
-261.5629493467
 10
735.7363771373
 20
-261.074227317
 10
735.1988113572
 20
-260.5708590827
 10
734.7014893
 20
-260.0538879511
 10
734.2454417416
 20
-259.5243854239
 10
733.8316139101
 20
-258.983448976
 10
733.4608635269
 20
-258.4321997807
 10
733.1339590288
 20
-257.8717803862
 10
732.8515779754
 20
-257.3033523472
 10
732.6143056444
 20
-256.7280938177
 10
732.422633819
 20
-256.1471971089
 10
732.2769597683
 20
-255.5618662177
 10
732.1775854241
 20
-254.973314332
 10
732.1247167548
 20
-254.3827613154
 10
732.1184633389
 20
-253.7914311791
 10
732.1588381375
 20
-253.2005495452
 10
732.2457574676
 20
-252.6113411062
 10
732.3790411757
 20
-252.0250270864
 10
732.558413011
 20
-251.4428227111
 10
732.7835011979
 20
-250.865934688
 10
733.0538392067
 20
-250.2955587055
 10
733.3688667207
 20
-249.7328769549
 10
733.7279307973
 20
-249.1790556801
 10
734.1302872213
 20
-248.6352427602
 10
734.5751020476
 20
-248.1025653306
 10
735.0614533295
 20
-247.5821274466
 10
735.5883330297
 20
-247.0750077951
 10
736.1546491096
 20
-246.5822574591
 10
736.7592277927
 20
-246.104897739
 10
737.4008159972
 20
-245.6439180355
 10
738.0780839337
 20
-245.2002737996
 10
738.789627861
 20
-244.7748845517
 10
739.5339729955
 20
-244.3686319759
 10
740.3095765684
 20
-243.9823580928
 10
741.1148310228
 20
-243.616863514
 10
741.9480673458
 20
-243.2729057827
 10
742.807558528
 20
-242.951197804
 10
743.6915231427
 20
-242.6524063667
 10
744.5981290381
 20
-242.3771507617
 10
745.5254971351
 20
-242.1260014983
 10
746.4717053217
 20
-241.8994791216
 10
747.434792437
 20
-241.698053134
 10
748.4127623358
 20
-241.5221410215
 10
749.4035880262
 20
-241.3721073888
 10
750.4052158706
 20
-241.2482632036
 10
751.4155698424
 20
-241.1508651518
 10
752.4325558287
 20
-241.0801151058
 10
753.4540659707
 20
-241.0361597058
 10
754.4779830326
 20
-241.0190900561
 10
755.5021847901
 20
-241.0289415363
 10
756.5245484285
 20
-241.0656937275
 10
757.542954943
 20
-241.1292704552
 10
758.5552935307
 20
-241.2195399471
 10
759.5594659653
 20
-241.3363151057
 10
760.553390946
 20
-241.4793538967
 10
761.5350084116
 20
-241.6483598504
 10
762.5022838099
 20
-241.8429826762
  0
LWPOLYLINE
  5
13E
330
1F
100
AcDbEntity
  8
0
  6
Continuous
 62
     7
370
    25
100
AcDbPolyline
 90
      134
 70
   128
 43
0.0
 10
747.2647106025
 20
-265.3454515389
 10
748.2003747505
 20
-265.5331956732
 10
749.1503531971
 20
-265.6952221915
 10
750.1125261686
 20
-265.8311695493
 10
751.0847466812
 20
-265.9407343948
 10
752.0648453305
 20
-266.0236722462
 10
753.0506351333
 20
-266.0797980365
 10
754.0399164071
 20
-266.1089865272
 10
755.0304816786
 20
-266.1111725874
 10
756.0201206091
 20
-266.086351339
 10
757.0066249275
 20
-266.0345781682
 10
757.9877933567
 20
-265.9559686009
 10
758.9614365263
 20
-265.8506980459
 10
759.9253818577
 20
-265.719001403
 10
760.877478412
 20
-265.5611725389
 10
761.8156016894
 20
-265.3775636314
 10
762.7376583701
 20
-265.1685843839
 10
763.6415909851
 20
-264.9347011108
 10
764.5253825072
 20
-264.676435697
 10
765.3870608521
 20
-264.3943644338
 10
766.2247032783
 20
-264.0891167325
 10
767.0364406781
 20
-263.7613737199
 10
767.8204617479
 20
-263.4118667189
 10
768.5750170302
 20
-263.0413756163
 10
769.2984228171
 20
-262.6507271226
 10
769.9890649073
 20
-262.2407929274
 10
770.6454022084
 20
-261.8124877541
 10
771.2659701752
 20
-261.3667673191
 10
771.8493840778
 20
-260.9046261989
 10
772.3943420918
 20
-260.4270956112
 10
772.8996282027
 20
-259.9352411132
 10
773.3641149196
 20
-259.4301602248
 10
773.786765791
 20
-258.912979979
 10
774.1666377177
 20
-258.384854407
 10
774.5028830567
 20
-257.8469619636
 10
774.7947515132
 20
-257.300502897
 10
775.0415918146
 20
-256.7466965713
 10
775.2428531637
 20
-256.1867787447
 10
775.3980864676
 20
-255.621998813
 10
775.5069453403
 20
-255.053617021
 10
775.5691868749
 20
-254.4829016508
 10
775.5846721863
 20
-253.9111261914
 10
775.5533667206
 20
-253.3395664976
 10
775.4753403327
 20
-252.7694979424
 10
775.3507671299
 20
-252.2021925718
 10
775.1799250837
 20
-251.6389162659
 10
774.9631954095
 20
-251.0809259143
 10
774.7010617161
 20
-250.5294666117
 10
774.394108926
 20
-249.9857688794
 10
774.0430219712
 20
-249.4510459198
 10
773.6485842638
 20
-248.9264909087
 10
773.2116759485
 20
-248.4132743336
 10
772.7332719388
 20
-247.9125413813
 10
772.2144397409
 20
-247.4254093828
 10
771.6563370725
 20
-246.95296532
 10
771.0602092788
 20
-246.4962634005
 10
770.4273865539
 20
-246.0563227048
 10
769.7592809729
 20
-245.6341249126
 10
769.0573833406
 20
-245.2306121123
 10
768.3232598649
 20
-244.8466846986
 10
767.5585486625
 20
-244.4831993639
 10
766.7649561031
 20
-244.1409671859
 10
765.944253002
 20
-243.8207518186
 10
765.0982706686
 20
-243.5232677876
 10
764.2288968205
 20
-243.2491788961
 10
763.3380713706
 20
-242.9990967436
 10
762.4277820987
 20
-242.7735793612
 10
761.5000602163
 20
-242.5731299663
 10
760.5569758335
 20
-242.3981958399
 10
759.6006333405
 20
-242.2491673284
 10
758.6331667113
 20
-242.1263769728
 10
757.6567347422
 20
-242.0300987663
 10
756.6735162347
 20
-241.9605475433
 10
755.6857051339
 20
-241.9178784997
 10
754.6955056324
 20
-241.9021868469
 10
753.7051272527
 20
-241.913507599
 10
752.7167799161
 20
-241.9518154951
 10
751.732669012
 20
-242.0170250552
 10
750.7549904767
 20
-242.1089907714
 10
749.7859258932
 20
-242.227507432
 10
748.8276376236
 20
-242.3723105803
 10
747.8822639837
 20
-242.5430771036
 10
746.9519144717
 20
-242.7394259551
 10
746.0386650613
 20
-242.9609190037
 10
745.1445535689
 20
-243.2070620119
 10
744.2715751069
 20
-243.4773057383
 10
743.4216776316
 20
-243.7710471635
 10
742.5967575966
 20
-244.0876308356
 10
741.7986557211
 20
-244.4263503325
 10
741.0291528823
 20
-244.7864498386
 10
740.2899661422
 20
-245.1671258312
 10
739.5827449152
 20
-245.5675288732
 10
738.9090672886
 20
-245.9867655089
 10
738.2704365004
 20
-246.4239002573
 10
737.6682775858
 20
-246.8779577
 10
737.1039341967
 20
-247.3479246573
 10
736.5786656039
 20
-247.8327524491
 10
736.0936438869
 20
-248.331359235
 10
735.649951319
 20
-248.8426324283
 10
735.2485779518
 20
-249.3654311786
 10
734.890419406
 20
-249.8985889175
 10
734.5762748736
 20
-250.4409159616
 10
734.3068453338
 20
-250.9912021671
 10
734.0827319893
 20
-251.5482196304
 10
733.9044349246
 20
-252.1107254277
 10
733.77235199
 20
-252.6774643886
 10
733.6867779144
 20
-253.2471718969
 10
733.647903647
 20
-253.8185767124
 10
733.6558159313
 20
-254.3904038075
 10
733.7104971121
 20
-254.9613772123
 10
733.8118251743
 20
-255.530222862
 10
733.9595740152
 20
-256.0956714393
 10
734.1534139495
 20
-256.6564612076
 10
734.3929124445
 20
-257.2113408255
 10
734.6775350853
 20
-257.7590721395
 10
735.0066467677
 20
-258.2984329471
 10
735.3795131147
 20
-258.8282197232
 10
735.7953021157
 20
-259.3472503066
 10
736.2530859828
 20
-259.8543665368
 10
736.7518432213
 20
-260.3484368395
 10
737.2904609087
 20
-260.8283587504
 10
737.8677371784
 20
-261.2930613763
 10
738.4823839013
 20
-261.7415077838
 10
739.1330295601
 20
-262.1726973136
 10
739.8182223101
 20
-262.5856678132
 10
740.5364332182
 20
-262.9794977841
 10
741.2860596751
 20
-263.3533084376
 10
742.065428971
 20
-263.7062656559
 10
742.8728020284
 20
-264.0375818534
 10
743.7063772821
 20
-264.3465177342
 10
744.5642946999
 20
-264.6323839415
 10
745.4446399325
 20
-264.894542596
 10
746.3454485854
 20
-265.1324087192
 10
747.2647106025
 20
-265.3454515389
  0
LWPOLYLINE
  5
13F
330
1F
100
AcDbEntity
  8
0
  6
Continuous
 62
     7
370
    25
100
AcDbPolyline
 90
       71
 70
   128
 43
0.0
 10
732.1153407888
 20
-266.2559360606
 10
732.1247167548
 20
-266.6308756838
 10
732.1775854241
 20
-267.2214287005
 10
732.2769597683
 20
-267.8099805862
 10
732.422633819
 20
-268.3953114773
 10
732.6143056444
 20
-268.9762081861
 10
732.8515779754
 20
-269.5514667156
 10
733.1339590288
 20
-270.1198947546
 10
733.4608635269
 20
-270.6803141491
 10
733.8316139101
 20
-271.2315633444
 10
734.2454417416
 20
-271.7724997923
 10
734.7014893
 20
-272.3020023195
 10
735.1988113572
 20
-272.8189734511
 10
735.7363771373
 20
-273.3223416854
 10
736.313072453
 20
-273.8110637151
 10
736.9277020153
 20
-274.2841265889
 10
737.5789919105
 20
-274.740549812
 10
738.265592241
 20
-275.1793873773
 10
738.9860799225
 20
-275.5997297272
 10
739.7389616344
 20
-276.0007056378
 10
740.5226769145
 20
-276.3814840254
 10
741.335601393
 20
-276.7412756685
 10
742.1760501599
 20
-277.0793348442
 10
743.0422812567
 20
-277.3949608731
 10
743.9324992872
 20
-277.687499572
 10
744.8448591387
 20
-277.9563446099
 10
745.777469806
 20
-278.2009387644
 10
746.728398311
 20
-278.4207750767
 10
747.6956737093
 20
-278.6153979024
 10
748.6772911748
 20
-278.7844038561
 10
749.6712161555
 20
-278.9274426472
 10
750.6753885901
 20
-279.0442178058
 10
751.6877271778
 20
-279.1344872976
 10
752.7061336924
 20
-279.1980640254
 10
753.7284973308
 20
-279.2348162166
 10
754.7526990882
 20
-279.2446676967
 10
755.7766161502
 20
-279.2275980471
 10
756.7981262922
 20
-279.1836426471
 10
757.8151122784
 20
-279.1128926011
 10
758.8254662502
 20
-279.0154945493
 10
759.8270940947
 20
-278.8916503641
 10
760.8179197851
 20
-278.7416167314
 10
761.7958896839
 20
-278.5657046189
 10
762.7589767992
 20
-278.3642786312
 10
763.7051849858
 20
-278.1377562546
 10
764.6325530828
 20
-277.8866069912
 10
765.5391589782
 20
-277.6113513862
 10
766.4231235928
 20
-277.3125599489
 10
767.282614775
 20
-276.9908519701
 10
768.1158510981
 20
-276.6468942389
 10
768.9211055525
 20
-276.28139966
 10
769.6967091253
 20
-275.8951257769
 10
770.4410542599
 20
-275.4888732012
 10
771.1525981872
 20
-275.0634839532
 10
771.8298661237
 20
-274.6198397173
 10
772.4714543282
 20
-274.1588600139
 10
773.0760330113
 20
-273.6815002937
 10
773.6423490912
 20
-273.1887499578
 10
774.1692287914
 20
-272.6816303063
 10
774.6555800733
 20
-272.1611924223
 10
775.1003948996
 20
-271.6285149927
 10
775.5027513236
 20
-271.0847020728
 10
775.8618154001
 20
-270.530880798
 10
776.1768429142
 20
-269.9681990474
 10
776.447180923
 20
-269.3978230648
 10
776.6722691099
 20
-268.8209350417
 10
776.8516409451
 20
-268.2387306665
 10
776.9849246532
 20
-267.6524166467
 10
777.0718439834
 20
-267.0632082076
 10
777.1122187819
 20
-266.4723265737
 10
777.1153413321
 20
-266.2559360606
  0
LWPOLYLINE
  5
140
330
1F
100
AcDbEntity
  8
0
  6
Continuous
 62
     7
370
    25
100
AcDbPolyline
 90
       96
 70
   128
 43
0.0
 10
768.8956693323
 20
-262.8727719527
 10
769.4848521308
 20
-262.4885342214
 10
770.0836703756
 20
-262.0585979425
 10
770.6452240603
 20
-261.612217316
 10
771.1681603531
 20
-261.150467712
 10
771.6512194546
 20
-260.6744615256
 10
772.0932376331
 20
-260.1853454974
 10
772.4931500281
 20
-259.6842979509
 10
772.8499932157
 20
-259.1725259535
 10
773.1629075292
 20
-258.6512624086
 10
773.4311391308
 20
-258.1217630859
 10
773.654041827
 20
-257.5853035956
 10
773.8310786257
 20
-257.0431763156
 10
773.9618230297
 20
-256.496687278
 10
774.0459600643
 20
-255.9471530228
 10
774.0832870361
 20
-255.395897426
 10
774.073714021
 20
-254.8442485108
 10
774.0172640814
 20
-254.2935352477
 10
773.91407321
 20
-253.7450843532
 10
773.7643900027
 20
-253.2002170935
 10
773.5685750596
 20
-252.6602461015
 10
773.3271001158
 20
-252.1264722148
 10
773.0405469057
 20
-251.6001813412
 10
772.7096057612
 20
-251.0826413617
 10
772.3350739483
 20
-250.5750990754
 10
771.9178537471
 20
-250.0787771962
 10
771.4589502775
 20
-249.5948714068
 10
770.9594690782
 20
-249.1245474787
 10
770.4206134432
 20
-248.6689384634
 10
769.8436815228
 20
-248.2291419631
 10
769.2300631967
 20
-247.8062174859
 10
768.5812367251
 20
-247.4011838941
 10
767.8987651877
 20
-247.0150169489
 10
767.1842927184
 20
-246.6486469603
 10
766.4395405439
 20
-246.3029565459
 10
765.6663028374
 20
-245.978778504
 10
764.8664423962
 20
-245.676893808
 10
764.0418861543
 20
-245.3980297245
 10
763.1946205398
 20
-245.1428580615
 10
762.3266866898
 20
-244.91199355
 10
761.4401755329
 20
-244.7059923627
 10
760.5372227523
 20
-244.5253507745
 10
759.6200036402
 20
-244.3705039669
 10
758.6907278579
 20
-244.2418249794
 10
757.751634112
 20
-244.139623811
 10
756.8049847616
 20
-244.0641466731
 10
755.8530603681
 20
-244.0155753969
 10
754.8981542005
 20
-243.9940269947
 10
753.9425667115
 20
-243.9995533787
 10
752.9885999952
 20
-244.0321412352
 10
752.0385522407
 20
-244.0917120572
 10
751.0947121965
 20
-244.1781223335
 10
750.1593536557
 20
-244.291163894
 10
749.2347299792
 20
-244.4305644119
 10
748.3230686663
 20
-244.5959880589
 10
747.4265659889
 20
-244.7870363151
 10
746.5473817006
 20
-245.0032489284
 10
745.6876338333
 20
-245.2441050238
 10
744.8493935949
 20
-245.5090243578
 10
744.0346803796
 20
-245.7973687166
 10
743.2454569028
 20
-246.1084434533
 10
742.4836244731
 20
-246.4414991616
 10
741.7510184115
 20
-246.7957334812
 10
741.0494036302
 20
-247.1702930306
 10
740.3804703806
 20
-247.5642754629
 10
739.7458301815
 20
-247.97673164
 10
739.1470119368
 20
-248.4066679189
 10
738.585458252
 20
-248.8530485454
 10
738.0625219593
 20
-249.3147981495
 10
737.5794628578
 20
-249.7908043359
 10
737.1374446793
 20
-250.279920364
 10
736.7375322842
 20
-250.7809679106
 10
736.3806890967
 20
-251.292739908
 10
736.0677747832
 20
-251.8140034529
 10
735.7995431816
 20
-252.3435027756
 10
735.5766404854
 20
-252.8799622659
 10
735.3996036867
 20
-253.4220895459
 10
735.2688592827
 20
-253.9685785835
 10
735.1847222481
 20
-254.5181128387
 10
735.1473952763
 20
-255.0693684354
 10
735.1569682914
 20
-255.6210173506
 10
735.213418231
 20
-256.1717306137
 10
735.3166091024
 20
-256.7201815083
 10
735.4662923096
 20
-257.265048768
 10
735.6621072528
 20
-257.8050197599
 10
735.9035821966
 20
-258.3387936467
 10
736.1901354066
 20
-258.8650845202
 10
736.5210765512
 20
-259.3826244997
 10
736.8956083641
 20
-259.890166786
 10
737.3128285653
 20
-260.3864886653
 10
737.7717320349
 20
-260.8703944547
 10
738.2712132342
 20
-261.3407183828
 10
738.8100688692
 20
-261.796327398
 10
739.3870007895
 20
-262.2361238984
 10
740.0006191157
 20
-262.6590483755
 10
740.3350129801
 20
-262.8727719527
  0
LWPOLYLINE
  5
141
330
1F
100
AcDbEntity
  8
0
  6
Continuous
 62
     7
370
    25
100
AcDbPolyline
 90
       91
 70
   128
 43
0.0
 10
776.8226931334
 20
-387.7541594167
 10
776.9643099403
 20
-388.3398220365
 10
777.0596050911
 20
-388.928598703
 10
777.1083810722
 20
-389.5192690866
 10
777.1105367879
 20
-390.1106089327
 10
777.0660677701
 20
-390.7013925992
 10
776.9750661876
 20
-391.2903955968
 10
776.8377206551
 20
-391.8763971267
 10
776.6543158422
 20
-392.4581826114
 10
776.4252318834
 20
-393.0345462115
 10
776.1509435902
 20
-393.6042933255
 10
775.832019467
 20
-394.1662430655
 10
775.4691205326
 20
-394.7192307048
 10
775.0629989506
 20
-395.2621100922
 10
774.61449647
 20
-395.7937560271
 10
774.1245426806
 20
-396.3130665922
 10
773.5941530864
 20
-396.8189654371
 10
773.024427001
 20
-397.3104040091
 10
772.4165452686
 20
-397.7863637268
 10
771.7717678169
 20
-398.2458580909
 10
771.0914310457
 20
-398.6879347293
 10
770.3769450568
 20
-399.1116773705
 10
769.6297907316
 20
-399.5162077433
 10
768.8515166614
 20
-399.9006873966
 10
768.0437359382
 20
-400.2643194377
 10
767.2081228107
 20
-400.6063501836
 10
766.346409215
 20
-400.9260707235
 10
765.4603811839
 20
-401.2228183876
 10
764.5518751458
 20
-401.4959781211
 10
763.6227741183
 20
-401.7449837587
 10
762.6750038051
 20
-401.9693191983
 10
761.710528605
 20
-402.1685194703
 10
760.7313475399
 20
-402.3421717019
 10
759.7394901124
 20
-402.4899159721
 10
758.7370120982
 20
-402.6114460585
 10
757.7259912862
 20
-402.7065100715
 10
756.7085231715
 20
-402.7749109762
 10
755.686716612
 20
-402.8165070014
 10
754.6626894578
 20
-402.831211933
 10
753.6385641617
 20
-402.8189952928
 10
752.6164633798
 20
-402.7798824016
 10
751.5985055718
 20
-402.7139543269
 10
750.586800611
 20
-402.6213477146
 10
749.5834454102
 20
-402.5022545061
 10
748.5905195763
 20
-402.3569215403
 10
747.6100810999
 20
-402.1856500419
 10
746.6441620893
 20
-401.9887949973
 10
745.6947645592
 20
-401.7667644186
 10
744.7638562809
 20
-401.5200184981
 10
743.853366704
 20
-401.2490686544
 10
742.9651829573
 20
-400.9544764723
 10
742.101145937
 20
-400.6368525393
 10
741.263046492
 20
-400.2968551794
 10
740.4526217113
 20
-399.935189089
 10
739.671551324
 20
-399.5526038764
 10
738.9214542178
 20
-399.1498925078
 10
738.2038850834
 20
-398.7278896641
 10
737.5203311925
 20
-398.2874700105
 10
736.8722093149
 20
-397.8295463841
 10
736.2608627821
 20
-397.3550679015
 10
735.6875587033
 20
-396.8650179918
 10
735.1534853385
 20
-396.3604123582
 10
734.6597496366
 20
-395.8422968731
 10
734.20737494
 20
-395.3117454099
 10
733.7972988645
 20
-394.7698576175
 10
733.4303713553
 20
-394.2177566411
 10
733.1073529257
 20
-393.6565867943
 10
732.8289130808
 20
-393.0875111872
 10
732.5956289296
 20
-392.5117093161
 10
732.4079839891
 20
-391.9303746182
 10
732.2663671823
 20
-391.3447119983
 10
732.1710720314
 20
-390.7559353319
 10
732.1222960503
 20
-390.1652649483
 10
732.1201403347
 20
-389.5739251022
 10
732.1646093525
 20
-388.9831414357
 10
732.255610935
 20
-388.3941384381
 10
732.3929564675
 20
-387.8081369082
 10
732.5763612803
 20
-387.2263514235
 10
732.8054452391
 20
-386.6499878234
 10
733.0797335323
 20
-386.0802407094
 10
733.3986576556
 20
-385.5182909694
 10
733.7615565899
 20
-384.9653033301
 10
734.1676781719
 20
-384.4224239427
 10
734.6161806526
 20
-383.8907780078
 10
735.106134442
 20
-383.3714674426
 10
735.6365240361
 20
-382.8655685978
 10
736.2062501216
 20
-382.3741300257
 10
736.814131854
 20
-381.8981703081
 10
737.4589093056
 20
-381.4386759439
 10
738.1392460768
 20
-380.9965993056
 10
738.6153275426
 20
-380.7099903312
  0
ARC
  5
142
330
1F
100
AcDbEntity
  8
0
  6
Continuous
 62
     7
370
    25
100
AcDbCircle
 10
764.8257793079
 20
-392.0688278541
 30
0.0
 40
12.74920801700348
100
AcDbArc
 50
19.7810301821
 51
62.9921508399
  0
LWPOLYLINE
  5
143
330
1F
100
AcDbEntity
  8
0
  6
Continuous
 62
     7
370
    25
100
AcDbPolyline
 90
        3
 70
   128
 43
0.0
 10
770.9007301031
 20
-388.3109882805
 10
770.7364748006
 20
-387.8127979332
 10
770.6153547698
 20
-387.5151868568
  0
LWPOLYLINE
  5
144
330
1F
100
AcDbEntity
  8
0
  6
Continuous
 62
     7
370
    25
100
AcDbPolyline
 90
       69
 70
   128
 43
0.0
 10
738.6153275426
 20
-387.515174965
 10
738.482213769
 20
-387.8447989395
 10
738.3209257427
 20
-388.3433122741
 10
738.2058259999
 20
-388.8460745587
 10
738.1372408033
 20
-389.3516606592
 10
738.115364565
 20
-389.8586374366
 10
738.1402592957
 20
-390.3655678103
 10
738.2118544286
 20
-390.871014831
 10
738.3299470194
 20
-391.3735457544
 10
738.4942023219
 20
-391.8717361017
 10
738.7041547366
 20
-392.3641736985
 10
738.9592091305
 20
-392.8494626767
 10
739.2586425242
 20
-393.3262274322
 10
739.6016061414
 20
-393.7931165233
 10
739.9871278142
 20
-394.2488065022
 10
740.4141147398
 20
-394.6920056663
 10
740.8813565771
 20
-395.1214577192
 10
741.3875288786
 20
-395.5359453325
 10
741.9311968437
 20
-395.934293596
 10
742.5108193867
 20
-396.3153733484
 10
743.1247535043
 20
-396.6781043775
 10
743.7712589337
 20
-397.021458483
 10
744.448503085
 20
-397.3444623902
 10
745.154566236
 20
-397.6462005096
 10
745.8874469741
 20
-397.9258175316
 10
746.6450678691
 20
-398.1825208515
 10
747.4252813623
 20
-398.4155828157
 10
748.2258758539
 20
-398.6243427848
 10
749.0445819717
 20
-398.808209006
 10
749.8790790043
 20
-398.9666602906
 10
750.7270014791
 20
-399.099247491
 10
751.5859458679
 20
-399.2055947746
 10
752.4534773994
 20
-399.2854006884
 10
753.3271369613
 20
-399.3384390138
 10
754.2044480705
 20
-399.3645594079
 10
755.0829238935
 20
-399.3636878298
 10
755.960074295
 20
-399.3358267498
 10
756.8334128971
 20
-399.2810551434
 10
757.7004641264
 20
-399.1995282665
 10
758.5587702321
 20
-399.0914772159
 10
759.4058982523
 20
-398.9572082742
 10
760.2394469106
 20
-398.7971020412
 10
761.0570534227
 20
-398.6116123554
 10
761.8564001942
 20
-398.4012650074
 10
762.6352213898
 20
-398.1666562498
 10
763.3913093562
 20
-397.9084511065
 10
764.1225208798
 20
-397.627381488
 10
764.8267832623
 20
-397.3242441167
 10
765.5021001953
 20
-396.9998982684
 10
766.1465574197
 20
-396.6552633367
 10
766.7583281514
 20
-396.2913162267
 10
767.3356782598
 20
-395.9090885861
 10
767.8769711833
 20
-395.5096638806
 10
768.3806725683
 20
-395.0941743229
 10
768.8453546185
 20
-394.6637976634
 10
769.2697001421
 20
-394.2197538514
 10
769.6525062857
 20
-393.7633015774
 10
769.9926879437
 20
-393.295734705
 10
770.2892808341
 20
-392.8183786031
 10
770.5414442323
 20
-392.3325863897
 10
770.7484633536
 20
-391.8397350954
 10
770.9097513799
 20
-391.3412217608
 10
771.0248511227
 20
-390.8384594761
 10
771.0934363193
 20
-390.3328733757
 10
771.1153125575
 20
-389.8258965983
 10
771.0904178268
 20
-389.3189662246
 10
771.0188226939
 20
-388.8135192038
 10
770.9007301031
 20
-388.3109882805
 10
770.9007301031
 20
-388.3109882805
  0
LWPOLYLINE
  5
145
330
1F
100
AcDbEntity
  8
0
  6
Continuous
 62
     7
370
    25
100
AcDbPolyline
 90
       71
 70
   128
 43
0.0
 10
732.1153382896
 20
-402.0903813859
 10
732.1222960503
 20
-402.4133793167
 10
732.1710720314
 20
-403.0040497003
 10
732.2663671823
 20
-403.5928263668
 10
732.4079839891
 20
-404.1784889866
 10
732.5956289296
 20
-404.7598236845
 10
732.8289130808
 20
-405.3356255557
 10
733.1073529257
 20
-405.9047011627
 10
733.4303713553
 20
-406.4658710095
 10
733.7972988645
 20
-407.0179719859
 10
734.20737494
 20
-407.5598597783
 10
734.6597496366
 20
-408.0904112416
 10
735.1534853385
 20
-408.6085267267
 10
735.6875587033
 20
-409.1131323602
 10
736.2608627821
 20
-409.6031822699
 10
736.8722093149
 20
-410.0776607525
 10
737.5203311925
 20
-410.5355843789
 10
738.2038850834
 20
-410.9760040325
 10
738.9214542178
 20
-411.3980068762
 10
739.671551324
 20
-411.8007182448
 10
740.4526217113
 20
-412.1833034575
 10
741.263046492
 20
-412.5449695478
 10
742.101145937
 20
-412.8849669077
 10
742.9651829573
 20
-413.2025908408
 10
743.853366704
 20
-413.4971830228
 10
744.7638562809
 20
-413.7681328665
 10
745.6947645592
 20
-414.014878787
 10
746.6441620893
 20
-414.2369093657
 10
747.6100810999
 20
-414.4337644103
 10
748.5905195763
 20
-414.6050359087
 10
749.5834454102
 20
-414.7503688745
 10
750.586800611
 20
-414.869462083
 10
751.5985055718
 20
-414.9620686953
 10
752.6164633798
 20
-415.02799677
 10
753.6385641617
 20
-415.0671096612
 10
754.6626894578
 20
-415.0793263015
 10
755.686716612
 20
-415.0646213698
 10
756.7085231715
 20
-415.0230253446
 10
757.7259912862
 20
-414.9546244399
 10
758.7370120982
 20
-414.859560427
 10
759.7394901124
 20
-414.7380303405
 10
760.7313475399
 20
-414.5902860703
 10
761.710528605
 20
-414.4166338387
 10
762.6750038051
 20
-414.2174335667
 10
763.6227741183
 20
-413.9930981271
 10
764.5518751458
 20
-413.7440924895
 10
765.4603811839
 20
-413.470932756
 10
766.346409215
 20
-413.1741850919
 10
767.2081228107
 20
-412.8544645521
 10
768.0437359382
 20
-412.5124338061
 10
768.8515166614
 20
-412.148801765
 10
769.6297907316
 20
-411.7643221117
 10
770.3769450568
 20
-411.3597917389
 10
771.0914310457
 20
-410.9360490977
 10
771.7717678169
 20
-410.4939724594
 10
772.4165452686
 20
-410.0344780952
 10
773.024427001
 20
-409.5585183776
 10
773.5941530864
 20
-409.0670798055
 10
774.1245426806
 20
-408.5611809607
 10
774.61449647
 20
-408.0418703955
 10
775.0629989506
 20
-407.5102244606
 10
775.4691205326
 20
-406.9673450732
 10
775.832019467
 20
-406.4143574339
 10
776.1509435902
 20
-405.8524076939
 10
776.4252318834
 20
-405.2826605799
 10
776.6543158422
 20
-404.7062969798
 10
776.8377206551
 20
-404.1245114951
 10
776.9750661876
 20
-403.5385099652
 10
777.0660677701
 20
-402.9495069676
 10
777.1105367879
 20
-402.3587233011
 10
777.115338833
 20
-402.0903813859
  0
LWPOLYLINE
  5
146
330
1F
100
AcDbEntity
  8
0
  6
Continuous
 62
     7
370
    25
100
AcDbPolyline
 90
        3
 70
   128
 43
0.0
 10
738.4251670275
 20
-391.6794838442
 10
738.482213769
 20
-391.519232593
 10
738.6153275426
 20
-391.1896086185
  0
LWPOLYLINE
  5
147
330
1F
100
AcDbEntity
  8
0
  6
Continuous
 62
     7
370
    25
100
AcDbPolyline
 90
        3
 70
   128
 43
0.0
 10
770.6153547698
 20
-391.1896205103
 10
770.7364748006
 20
-391.4872315867
 10
770.8055100951
 20
-391.6794838442
  0
LWPOLYLINE
  5
148
330
1F
100
AcDbEntity
  8
0
  6
Continuous
 62
     7
370
    25
100
AcDbPolyline
 90
       37
 70
   128
 43
0.0
 10
729.2918537905
 20
-445.5469430488
 10
729.0775021627
 20
-445.4163848381
 10
728.6683239768
 20
-445.1259204475
 10
728.284438196
 20
-444.7960466372
 10
727.9269708235
 20
-444.4277309839
 10
727.5969703726
 20
-444.0220538208
 10
727.2954047915
 20
-443.580205069
 10
727.0231586241
 20
-443.1034807469
 10
726.7810304153
 20
-442.5932791692
 10
726.5697303687
 20
-442.0510968449
 10
726.3898782639
 20
-441.4785240883
 10
726.2420016381
 20
-440.877240354
 10
726.1265342388
 20
-440.2490093106
 10
726.0438147519
 20
-439.595673668
 10
725.9940858079
 20
-438.9191497724
 10
725.9774932703
 20
-438.2214219849
 10
725.9940858079
 20
-437.5045368611
 10
726.0438147519
 20
-436.7705971489
 10
726.1265342388
 20
-436.0217556197
 10
726.2420016381
 20
-435.2602087548
 10
726.3898782639
 20
-434.4881903024
 10
726.5697303687
 20
-433.7079647256
 10
726.7810304153
 20
-432.9218205605
 10
727.0231586241
 20
-432.1320637033
 10
727.2954047915
 20
-431.341010647
 10
727.5969703726
 20
-430.5509816865
 10
727.9269708235
 20
-429.7642941129
 10
728.284438196
 20
-428.9832554163
 10
728.6683239768
 20
-428.2101565178
 10
729.0775021627
 20
-427.4472650498
 10
729.5107725636
 20
-426.6968187042
 10
729.9668643227
 20
-425.9610186696
 10
730.4444396444
 20
-425.2420231742
 10
730.9420977179
 20
-424.5419411557
 10
731.4583788264
 20
-423.8628260753
 10
731.9917686285
 20
-423.2066698945
 10
732.1153547238
 20
-423.0607866008
  0
LWPOLYLINE
  5
149
330
1F
100
AcDbEntity
  8
0
  6
Continuous
 62
     7
370
    25
100
AcDbPolyline
 90
       47
 70
   128
 43
0.0
 10
476.9329136506
 20
-265.1198693048
 10
476.6615415732
 20
-265.1199776566
 10
476.1263409928
 20
-265.1523945282
 10
475.5785543796
 20
-265.2271654343
 10
475.019905273
 20
-265.3440551181
 10
474.4521513896
 20
-265.5026958013
 10
473.8770790934
 20
-265.7025883417
 10
473.2964977744
 20
-265.9431038033
 10
472.7122341563
 20
-266.2234854356
 10
472.1261265486
 20
-266.5428510542
 10
471.5400190626
 20
-266.9001958168
 10
470.9557558094
 20
-267.2943953844
 10
470.3751750974
 20
-267.7242094594
 10
469.8001036481
 20
-268.1882856878
 10
469.2323508493
 20
-268.6851639139
 10
468.6737030611
 20
-269.2132807752
 10
468.1259179963
 20
-269.7709746205
 10
467.5907191892
 20
-270.3564907386
 10
467.0697905735
 20
-270.9679868794
 10
466.5647711831
 20
-271.6035390496
 10
466.077249996
 20
-272.261147567
 10
465.6087609342
 20
-272.9387433519
 10
465.1607780375
 20
-273.6341944374
 10
464.734710826
 20
-274.3453126769
 10
464.3318998646
 20
-275.0698606294
 10
463.9536125458
 20
-275.8055585991
 10
463.6010391013
 20
-276.5500918079
 10
463.2752888577
 20
-277.3011176788
 10
462.9773867457
 20
-278.0562732067
 10
462.7082700756
 20
-278.8131823928
 10
462.4687855881
 20
-279.5694637209
 10
462.2596867898
 20
-280.3227376501
 10
462.081631583
 20
-281.0706341019
 10
461.9351801952
 20
-281.8107999174
 10
461.8207934167
 20
-282.5409062611
 10
461.7388311507
 20
-283.2586559483
 10
461.6895512806
 20
-283.961790673
 10
461.6731088593
 20
-284.6480981131
 10
461.6895556206
 20
-285.3154188917
 10
461.738839817
 20
-285.9616533705
 10
461.8208063822
 20
-286.584768257
 10
461.9351974189
 20
-287.182803001
 10
462.0816530108
 20
-287.7538759641
 10
462.2597123543
 20
-288.2961903394
 10
462.4688152088
 20
-288.8080398052
 10
462.7083036594
 20
-289.2878138939
 10
462.8446232972
 20
-289.5241540291
  0
LWPOLYLINE
  5
14A
330
1F
100
AcDbEntity
  8
0
  6
Continuous
 62
     7
370
    25
100
AcDbPolyline
 90
       37
 70
   128
 43
0.0
 10
729.291855948
 20
-445.5469393129
 10
729.0775043779
 20
-445.4163811373
 10
728.6683263024
 20
-445.1259168251
 10
728.2844406251
 20
-444.7960431037
 10
727.926973349
 20
-444.4277275497
 10
727.5969729871
 20
-444.022050496
 10
727.2954074873
 20
-443.5802018633
 10
727.0231613933
 20
-443.1034776698
 10
726.7810332497
 20
-442.5932762296
 10
726.5697332601
 20
-442.0510940516
 10
726.3898812038
 20
-441.4785214494
 10
726.2420046179
 20
-440.8772378771
 10
726.1265372497
 20
-440.2490070031
 10
726.0438177851
 20
-439.5956715367
 10
725.9940888545
 20
-438.9191478235
 10
725.9774963214
 20
-438.2214202241
 10
725.9940888545
 20
-437.5045352937
 10
726.0438177851
 20
-436.7705957793
 10
726.1265372497
 20
-436.021754452
 10
726.2420046179
 20
-435.2602077925
 10
726.3898812038
 20
-434.4881895483
 10
726.5697332601
 20
-433.7079641819
 10
726.7810332497
 20
-432.9218202287
 10
727.0231613933
 20
-432.1320635845
 10
727.2954074873
 20
-431.3410107415
 10
727.5969729871
 20
-430.550981994
 10
727.926973349
 20
-429.7642946325
 10
728.2844406251
 20
-428.9832561465
 10
728.6683263024
 20
-428.2101574565
 10
729.0775043779
 20
-427.4472661941
 10
729.510774662
 20
-426.6968200509
 10
729.9668662982
 20
-425.9610202147
 10
730.4444414911
 20
-425.2420249132
 10
730.9420994304
 20
-424.5419430835
 10
731.4583803997
 20
-423.8628281862
 10
731.9917700579
 20
-423.2066721823
 10
732.1153547238
 20
-423.0607905633
  0
SPLINE
  5
14B
330
1F
100
AcDbEntity
  8
0
  6
Continuous
 62
     7
370
    25
100
AcDbSpline
210
0.0
220
0.0
230
1.0
 70
     8
 71
     3
 72
    12
 73
     8
 74
     0
 42
0.00000001
 43
0.00000001
 40
0.0
 40
0.0
 40
0.0
 40
0.0
 40
0.0970712187124355
 40
0.3941604796096205
 40
0.6937487694513733
 40
0.9958903762742642
 40
1.0
 40
1.0
 40
1.0
 40
1.0
 10
732.1154655688713
 20
-443.0184129777944
 30
0.0
 10
732.1154338949807
 20
-442.9390443134189
 30
0.0
 10
732.1153052822355
 20
-442.6167655655968
 30
0.0
 10
732.1157868208779
 20
-441.9857459245497
 30
0.0
 10
732.115751836837
 20
-441.1235990644202
 30
0.0
 10
732.1149474391862
 20
-440.5172438930647
 30
0.0
 10
732.1153493307468
 20
-440.1929532224024
 30
0.0
 10
732.1153547237801
 20
-440.1886015251641
 30
0.0
  0
LWPOLYLINE
  5
14C
330
1F
100
AcDbEntity
  8
0
  6
Continuous
 62
     7
370
    25
100
AcDbPolyline
 90
       71
 70
   128
 43
0.0
 10
777.1153223659
 20
-402.0903813276
 10
777.1022053786
 20
-402.5338389849
 10
777.0439384948
 20
-403.1242222669
 10
776.9391849126
 20
-403.7124627556
 10
776.7881617498
 20
-404.2973412329
 10
776.591182025
 20
-404.8776454487
 10
776.3486540087
 20
-405.4521726341
 10
776.0610803773
 20
-406.0197319935
 10
775.729057171
 20
-406.5791471737
 10
775.3532725587
 20
-407.1292587012
 10
774.9345054113
 20
-407.6689263859
 10
774.4736236878
 20
-408.1970316841
 10
773.9715826357
 20
-408.7124800168
 10
773.429422812
 20
-409.2142030388
 10
772.8482679256
 20
-409.7011608525
 10
772.2293225088
 20
-410.1723441633
 10
771.5738694204
 20
-410.6267763721
 10
770.8832671871
 20
-411.0635155985
 10
770.1589471875
 20
-411.4816566339
 10
769.4024106854
 20
-411.8803328171
 10
768.6152257181
 20
-412.2587178309
 10
767.7990238469
 20
-412.6160274145
 10
766.9554967746
 20
-412.9515209892
 10
766.0863928399
 20
-413.2645031934
 10
765.1935133935
 20
-413.5543253237
 10
764.2787090644
 20
-413.8203866795
 10
763.3438759242
 20
-414.0621358079
 10
762.3909515574
 20
-414.2790716469
 10
761.4219110453
 20
-414.470744564
 10
760.4387628722
 20
-414.6367572878
 10
759.443544763
 20
-414.7767657314
 10
758.438319459
 20
-414.8904797061
 10
757.4251704433
 20
-414.9776635222
 10
756.4061976219
 20
-415.038136478
 10
755.3835129717
 20
-415.071773234
 10
754.3592361626
 20
-415.078504073
 10
753.3354901648
 20
-415.0583150442
 10
752.3143968482
 20
-415.0112479925
 10
751.2980725846
 20
-414.9374004715
 10
750.2886238613
 20
-414.8369255416
 10
749.2881429149
 20
-414.7100314522
 10
748.298703395
 20
-414.5569812109
 10
747.322356066
 20
-414.3780920376
 10
746.3611245569
 20
-414.1737347074
 10
745.4170011667
 20
-413.9443327822
 10
744.4919427354
 20
-413.6903617324
 10
743.5878665878
 20
-413.4123479517
 10
742.7066465598
 20
-413.1108676664
 10
741.8501091145
 20
-412.7865457402
 10
741.0200295565
 20
-412.4400543798
 10
740.2181283525
 20
-412.0721117416
 10
739.4460675652
 20
-411.6834804429
 10
738.7054474084
 20
-411.2749659813
 10
737.9978029305
 20
-410.8474150655
 10
737.3246008328
 20
-410.40171386
 10
736.6872364294
 20
-409.9387861486
 10
736.0870307554
 20
-409.4595914197
 10
735.5252278287
 20
-408.9651228776
 10
735.0029920716
 20
-408.4564053838
 10
734.5214058976
 20
-407.934493333
 10
734.0814674674
 20
-407.4004684676
 10
733.6840886207
 20
-406.8554376358
 10
733.3300929857
 20
-406.3005304971
 10
733.0202142726
 20
-405.7368971813
 10
732.7550947523
 20
-405.1657059046
 10
732.5352839254
 20
-404.5881405481
 10
732.3612373835
 20
-404.0053982042
 10
732.2333158647
 20
-403.4186866953
 10
732.1517845056
 20
-402.8292220708
 10
732.1168122927
 20
-402.2382260859
 10
732.1153547238
 20
-402.0903813276
  0
LWPOLYLINE
  5
14D
330
1F
100
AcDbEntity
  8
0
  6
Continuous
 62
     7
370
    25
100
AcDbPolyline
 90
       71
 70
   128
 43
0.0
 10
732.1153547238
 20
-515.996542347
 10
732.1168122927
 20
-516.1443871054
 10
732.1517845056
 20
-516.7353830902
 10
732.2333158647
 20
-517.3248477148
 10
732.3612373835
 20
-517.9115592236
 10
732.5352839254
 20
-518.4943015675
 10
732.7550947523
 20
-519.0718669241
 10
733.0202142726
 20
-519.6430582008
 10
733.3300929857
 20
-520.2066915165
 10
733.6840886207
 20
-520.7615986552
 10
734.0814674674
 20
-521.3066294871
 10
734.5214058976
 20
-521.8406543524
 10
735.0029920716
 20
-522.3625664032
 10
735.5252278287
 20
-522.871283897
 10
736.0870307554
 20
-523.3657524391
 10
736.6872364294
 20
-523.844947168
 10
737.3246008328
 20
-524.3078748794
 10
737.9978029305
 20
-524.7535760849
 10
738.7054474084
 20
-525.1811270007
 10
739.4460675652
 20
-525.5896414623
 10
740.2181283525
 20
-525.9782727611
 10
741.0200295565
 20
-526.3462153993
 10
741.8501091145
 20
-526.6927067596
 10
742.7066465598
 20
-527.0170286858
 10
743.5878665878
 20
-527.3185089712
 10
744.4919427354
 20
-527.5965227518
 10
745.4170011667
 20
-527.8504938016
 10
746.3611245569
 20
-528.0798957269
 10
747.322356066
 20
-528.284253057
 10
748.298703395
 20
-528.4631422303
 10
749.2881429149
 20
-528.6161924717
 10
750.2886238613
 20
-528.743086561
 10
751.2980725846
 20
-528.843561491
 10
752.3143968482
 20
-528.9174090119
 10
753.3354901648
 20
-528.9644760636
 10
754.3592361626
 20
-528.9846650924
 10
755.3835129717
 20
-528.9779342535
 10
756.4061976219
 20
-528.9442974974
 10
757.4251704433
 20
-528.8838245416
 10
758.438319459
 20
-528.7966407255
 10
759.443544763
 20
-528.6829267508
 10
760.4387628722
 20
-528.5429183072
 10
761.4219110453
 20
-528.3769055835
 10
762.3909515574
 20
-528.1852326664
 10
763.3438759242
 20
-527.9682968273
 10
764.2787090644
 20
-527.7265476989
 10
765.1935133935
 20
-527.4604863431
 10
766.0863928399
 20
-527.1706642129
 10
766.9554967746
 20
-526.8576820086
 10
767.7990238469
 20
-526.5221884339
 10
768.6152257181
 20
-526.1648788503
 10
769.4024106854
 20
-525.7864938365
 10
770.1589471875
 20
-525.3878176533
 10
770.8832671871
 20
-524.9696766179
 10
771.5738694204
 20
-524.5329373915
 10
772.2293225088
 20
-524.0785051828
 10
772.8482679256
 20
-523.6073218719
 10
773.429422812
 20
-523.1203640583
 10
773.9715826357
 20
-522.6186410363
 10
774.4736236878
 20
-522.1031927035
 10
774.9345054113
 20
-521.5750874053
 10
775.3532725587
 20
-521.0354197207
 10
775.729057171
 20
-520.4853081932
 10
776.0610803773
 20
-519.925893013
 10
776.3486540087
 20
-519.3583336535
 10
776.591182025
 20
-518.7838064682
 10
776.7881617498
 20
-518.2035022523
 10
776.9391849126
 20
-517.6186237751
 10
777.0439384948
 20
-517.0303832863
 10
777.1022053786
 20
-516.4400000044
 10
777.1153223659
 20
-515.996542347
  0
LWPOLYLINE
  5
14E
330
1F
100
AcDbEntity
  8
0
  6
PHANTOM
 62
     8
370
    18
100
AcDbPolyline
 90
       37
 70
   128
 43
0.0
 10
528.3569359154
 20
-303.2320858581
 10
529.1171026105
 20
-302.2282338204
 10
529.8946321182
 20
-301.2467948827
 10
530.6884869785
 20
-300.2890785821
 10
531.4976079481
 20
-299.3563628026
 10
532.3209154144
 20
-298.4498920699
 10
533.1573108355
 20
-297.5708758909
 10
534.0056782062
 20
-296.7204871397
 10
534.8648855473
 20
-295.8998604928
 10
535.7337864155
 20
-295.110090915
 10
536.6112214336
 20
-294.3522321985
 10
537.4960198372
 20
-293.6272955566
 10
538.387001037
 20
-292.9362482746
 10
539.2829761937
 20
-292.2800124191
 10
540.1827498048
 20
-291.6594636079
 10
541.0851212994
 20
-291.0754298411
 10
541.9888866404
 20
-290.528690397
 10
542.8928399307
 20
-290.0199747918
 10
543.7957750224
 20
-289.5499618064
 10
544.6964871263
 20
-289.1192785806
 10
545.5937744194
 20
-288.7284997764
 10
546.4864396482
 20
-288.3781468114
 10
547.3732917267
 20
-288.0686871625
 10
548.2531473252
 20
-287.8005337429
 10
549.1248324495
 20
-287.5740443504
 10
549.9871840074
 20
-287.3895211907
 10
550.8390513603
 20
-287.2472104736
 10
551.6792978588
 20
-287.1473020847
 10
552.5068023594
 20
-287.0899293322
 10
553.32046072
 20
-287.0751687686
 10
554.1191872736
 20
-287.1030400891
 10
554.9019162769
 20
-287.1735061048
 10
555.6676033319
 20
-287.2864727928
 10
556.4152267799
 20
-287.4417894211
 10
557.1437890645
 20
-287.6392487504
 10
557.8523180627
 20
-287.8785873099
 10
558.4397486833
 20
-288.1154277414
  0
LWPOLYLINE
  5
14F
330
1F
100
AcDbEntity
  8
0
  6
PHANTOM
 62
     8
370
    18
100
AcDbPolyline
 90
       48
 70
   128
 43
0.0
 10
523.5196260122
 20
-348.6086339265
 10
523.1971121001
 20
-348.3613174734
 10
522.6276143334
 20
-347.8793317207
 10
522.0841383246
 20
-347.3588466593
 10
521.5674092357
 20
-346.800556774
 10
521.0781165399
 20
-346.2052069928
 10
520.6169131021
 20
-345.573591693
 10
520.1844143075
 20
-344.9065536408
 10
519.7811972408
 20
-344.2049828674
 10
519.4077999156
 20
-343.4698154808
 10
519.0647205574
 20
-342.7020324173
 10
518.7524169379
 20
-341.9026581324
 10
518.4713057651
 20
-341.0727592338
 10
518.2217621263
 20
-340.2134430583
 10
518.0041189885
 20
-339.3258561942
 10
517.8186667536
 20
-338.4111829516
 10
517.6656528712
 20
-337.470643782
 10
517.5452815082
 20
-336.5054936499
 10
517.4577132764
 20
-335.5170203582
 10
517.4030650186
 20
-334.5065428301
 10
517.3814096519
 20
-333.4754093491
 10
517.3927760713
 20
-332.4249957598
 10
517.4371491104
 20
-331.3567036326
 10
517.5144695623
 20
-330.2719583932
 10
517.6246342579
 20
-329.1722074206
 10
517.7674962041
 20
-328.0589181161
 10
517.9428647799
 20
-326.9335759454
 10
518.1505059902
 20
-325.7976824561
 10
518.3901427789
 20
-324.6527532746
 10
518.6614553977
 20
-323.5003160837
 10
518.9640818333
 20
-322.341908584
 10
519.2976182903
 20
-321.1790764425
 10
519.6616197299
 20
-320.0133712299
 10
520.0556004638
 20
-318.8463483504
 10
520.4790348022
 20
-317.6795649665
 10
520.9313577554
 20
-316.514577921
 10
521.4119657872
 20
-315.35294166
 10
521.9202176209
 20
-314.1962061585
 10
522.4554350943
 20
-313.0459148524
 10
523.0169040651
 20
-311.9036025792
 10
523.6038753634
 20
-310.77079353
 10
524.2155657914
 20
-309.6489992154
 10
524.8511591686
 20
-308.5397164493
 10
525.5098074208
 20
-307.4444253513
 10
526.1906317113
 20
-306.364587372
 10
526.8927236142
 20
-305.3016433425
 10
527.6151463259
 20
-304.2570115527
 10
528.3569359154
 20
-303.2320858581
  0
LWPOLYLINE
  5
150
330
1F
100
AcDbEntity
  8
0
  6
PHANTOM
 62
     8
370
    18
100
AcDbPolyline
 90
       79
 70
   128
 43
0.0
 10
528.9072437377
 20
-303.6618129375
 10
528.1718303693
 20
-304.6780633855
 10
527.4557368118
 20
-305.7139581851
 10
526.759929758
 20
-306.7680989273
 10
526.0853485145
 20
-307.8390625713
 10
525.4329037346
 20
-308.9254033667
 10
524.8034761878
 20
-310.0256548044
 10
524.1979155718
 20
-311.1383315967
 10
523.6170393651
 20
-312.2619316822
 10
523.0616317232
 20
-313.3949382535
 10
522.5324424203
 20
-314.535821805
 10
522.0301858371
 20
-315.6830421975
 10
521.5555399964
 20
-316.8350507375
 10
521.1091456478
 20
-317.9902922674
 10
520.6916054027
 20
-319.1472072656
 10
520.3034829208
 20
-320.304233951
 10
519.9453021492
 20
-321.4598103921
 10
519.6175466151
 20
-322.612376615
 10
519.3206587732
 20
-323.7603767093
 10
519.0550394079
 20
-324.902260929
 10
518.8210470931
 20
-326.0364877839
 10
518.6189977073
 20
-327.1615261211
 10
518.4491640077
 20
-328.2758571918
 10
518.3117752619
 20
-329.3779767012
 10
518.2070169381
 20
-330.4663968399
 10
518.1350304552
 20
-331.5396482918
 10
518.0959129916
 20
-332.5962822179
 10
518.0897173539
 20
-333.634872212
 10
518.1164519061
 20
-334.6540162264
 10
518.1760805577
 20
-335.6523384647
 10
518.2685228129
 20
-336.6284912386
 10
518.3936538789
 20
-337.5811567878
 10
518.5513048347
 20
-338.5090490585
 10
518.7412628589
 20
-339.4109154399
 10
518.9632715171
 20
-340.2855384546
 10
519.217031108
 20
-341.1317374026
 10
519.5021990682
 20
-341.9483699552
 10
519.8183904342
 20
-342.7343336968
 10
520.1651783627
 20
-343.4885676133
 10
520.542094706
 20
-344.2100535242
 10
520.948630645
 20
-344.8978174576
 10
521.3842373752
 20
-345.5509309644
 10
521.848326848
 20
-346.1685123721
 10
522.3402725644
 20
-346.7497279747
 10
522.8594104208
 20
-347.2937931586
 10
523.4050396054
 20
-347.7999734613
 10
523.9764235446
 20
-348.2675855632
 10
524.5727908968
 20
-348.6959982099
 10
525.1933365941
 20
-349.0846330644
 10
525.8372229291
 20
-349.432965488
 10
526.5035806853
 20
-349.7405252483
 10
527.1915103112
 20
-350.006897154
 10
527.900083134
 20
-350.2317216156
 10
528.6283426138
 20
-350.4146951306
 10
529.3753056345
 20
-350.5555706934
 10
530.139963831
 20
-350.6541581286
 10
530.9212849508
 20
-350.7103243477
 10
531.7182142471
 20
-350.7239935291
 10
532.5296759026
 20
-350.6951472199
 10
533.3545744824
 20
-350.6238243613
 10
534.1917964121
 20
-350.5101212359
 10
535.0402114815
 20
-350.3541913375
 10
535.8986743699
 20
-350.1562451642
 10
536.766026193
 20
-349.9165499339
 10
537.6410960664
 20
-349.635429224
 10
538.522702687
 20
-349.3132625342
 10
539.4096559273
 20
-348.9504847745
 10
540.300758442
 20
-348.5475856777
 10
541.1948072846
 20
-348.1051091388
 10
542.0905955312
 20
-347.6236524802
 10
542.9869139097
 20
-347.1038656457
 10
543.8825524325
 20
-346.5464503234
 10
544.7763020295
 20
-345.9521589975
 10
545.666956181
 20
-345.3217939335
 10
546.5533125455
 20
-344.6562060946
 10
547.4341745837
 20
-343.9562939931
 10
548.3083531732
 20
-343.2230024775
 10
549.1746682139
 20
-342.4573214569
 10
549.7679363448
 20
-341.909991482
  0
LWPOLYLINE
  5
151
330
1F
100
AcDbEntity
  8
0
  6
PHANTOM
 62
     8
370
    18
100
AcDbPolyline
 90
       69
 70
   128
 43
0.0
 10
565.7666451533
 20
-314.1964121461
 10
565.7826819232
 20
-314.1277031118
 10
566.0325299272
 20
-312.9894554857
 10
566.2505875765
 20
-311.8596322225
 10
566.4365605037
 20
-310.7397585305
 10
566.590197654
 20
-309.6313461866
 10
566.7112916245
 20
-308.5358914954
 10
566.7996789439
 20
-307.4548732693
 10
566.8552402936
 20
-306.3897508319
 10
566.8779006684
 20
-305.3419620487
 10
566.8676294777
 20
-304.3129213852
 10
566.8244405874
 20
-303.304017998
 10
566.7483923002
 20
-302.3166138592
 10
566.6395872778
 20
-301.3520419181
 10
566.498172402
 20
-300.4116043014
 10
566.3243385761
 20
-299.4965705558
 10
566.1183204676
 20
-298.6081759337
 10
565.8803961913
 20
-297.7476197263
 10
565.6108869338
 20
-296.9160636439
 10
565.3101565199
 20
-296.1146302482
 10
564.9786109216
 20
-295.3444014366
 10
564.6166977098
 20
-294.6064169818
 10
564.2249054504
 20
-293.9016731283
 10
563.8037630445
 20
-293.2311212469
 10
563.3538390146
 20
-292.5956665514
 10
562.8757407369
 20
-291.9961668757
 10
562.3701136217
 20
-291.4334315161
 10
561.8376402419
 20
-290.908220139
 10
561.2790394114
 20
-290.421241755
 10
560.6950652152
 20
-289.9731537621
 10
560.086505991
 20
-289.5645610581
 10
559.4541832651
 20
-289.1960152238
 10
558.7989506435
 20
-288.8680137789
 10
558.1216926595
 20
-288.5809995098
 10
557.4233235795
 20
-288.3353598724
 10
556.704786169
 20
-288.1314264687
 10
555.9670504197
 20
-287.969474599
 10
555.2111122402
 20
-287.849722891
 10
554.4379921115
 20
-287.7723330036
 10
553.6487337095
 20
-287.7374094097
 10
552.844402496
 20
-287.7449992545
 10
552.0260842803
 20
-287.795092292
 10
551.1948837535
 20
-287.8876208989
 10
550.3519229973
 20
-288.0224601661
 10
549.4983399691
 20
-288.1994280668
 10
548.6352869659
 20
-288.4182857027
 10
547.7639290688
 20
-288.6787376262
 10
546.8854425698
 20
-288.9804322395
 10
546.0010133845
 20
-289.322962269
 10
545.1118354509
 20
-289.7058653154
 10
544.2191091172
 20
-290.1286244774
 10
543.3240395221
 20
-290.5906690501
 10
542.4278349675
 20
-291.091375295
 10
541.5317052875
 20
-291.6300672821
 10
540.636860215
 20
-292.2060178027
 10
539.7445077488
 20
-292.8184493506
 10
538.8558525228
 20
-293.466535172
 10
537.9720941798
 20
-294.1494003814
 10
537.0944257521
 20
-294.8661231429
 10
536.2240320508
 20
-295.6157359144
 10
535.3620880665
 20
-296.397226754
 10
534.509757383
 20
-297.2095406857
 10
533.6681906069
 20
-298.0515811239
 10
532.8385238136
 20
-298.9222113535
 10
532.0218770143
 20
-299.8202560647
 10
531.219352644
 20
-300.7445029392
 10
530.4320340727
 20
-301.6937042873
 10
529.6609841435
 20
-302.6665787317
 10
528.9072437377
 20
-303.6618129375
  0
SPLINE
  5
152
330
1F
100
AcDbEntity
  8
0
  6
PHANTOM
 62
     8
370
    18
100
AcDbSpline
210
0.0
220
0.0
230
1.0
 70
     8
 71
     3
 72
    35
 73
    31
 74
     0
 42
0.00000001
 43
0.00000001
 40
0.0
 40
0.0
 40
0.0
 40
0.0
 40
0.0347458204867725
 40
0.0713678374770925
 40
0.1079898544674124
 40
0.1446118714577331
 40
0.181233888448053
 40
0.217855905438373
 40
0.254477922428693
 40
0.291099939419013
 40
0.3277219564093329
 40
0.3643439733996535
 40
0.4009659903899736
 40
0.4375880073802935
 40
0.4742100243706135
 40
0.5108320413609342
 40
0.5474540583512542
 40
0.5840760753415741
 40
0.6206980923318941
 40
0.6573201093222141
 40
0.6939421263125345
 40
0.7305641433028548
 40
0.7671861602931748
 40
0.8038081772834947
 40
0.8404301942738146
 40
0.877052211264135
 40
0.9136742282544549
 40
0.9502962452447752
 40
0.986918262235095
 40
1.0
 40
1.0
 40
1.0
 40
1.0
 10
739.435766675127
 20
-260.3308174410703
 30
0.0
 10
739.5582441443879
 20
-260.0601832824096
 30
0.0
 10
739.8098125919985
 20
-259.5043013265239
 30
0.0
 10
740.3696005576468
 20
-258.6956276050315
 30
0.0
 10
741.0644241966369
 20
-257.9069152261669
 30
0.0
 10
741.8929349495132
 20
-257.1618997216226
 30
0.0
 10
742.8431161779888
 20
-256.4671959715475
 30
0.0
 10
743.9068989962591
 20
-255.8296444114471
 30
0.0
 10
745.0737487056978
 20
-255.2553448032779
 30
0.0
 10
746.3325055811439
 20
-254.7498387399357
 30
0.0
 10
747.6710262927205
 20
-254.3179916343369
 30
0.0
 10
749.0764257310997
 20
-253.9639631836999
 30
0.0
 10
750.5351676371424
 20
-253.6911626682679
 30
0.0
 10
752.0332039291411
 20
-253.5022173616846
 30
0.0
 10
753.556107591864
 20
-253.3989468956003
 30
0.0
 10
755.0892122575772
 20
-253.3823458252654
 30
0.0
 10
756.6177532889318
 20
-253.4525740261674
 30
0.0
 10
758.1270099785203
 20
-253.6089551657117
 30
0.0
 10
759.6024474474755
 20
-253.8499831964502
 30
0.0
 10
761.0298560957167
 20
-254.1733369296675
 30
0.0
 10
762.3954904323576
 20
-254.5759021318177
 30
0.0
 10
763.6861940441144
 20
-255.0538024782865
 30
0.0
 10
764.8895539472995
 20
-255.6024332944351
 30
0.0
 10
765.9939169456549
 20
-256.2165192994668
 30
0.0
 10
766.9888869524054
 20
-256.8901154070147
 30
0.0
 10
767.8639879146257
 20
-257.6168505942426
 30
0.0
 10
768.6141283904827
 20
-258.3892928028509
 30
0.0
 10
769.2196330297322
 20
-259.2016197208969
 30
0.0
 10
769.6136842720497
 20
-259.8603456978479
 30
0.0
 10
769.7539153574279
 20
-260.2520451610973
 30
0.0
 10
769.7908233595383
 20
-260.3551381705916
 30
0.0
  0
LWPOLYLINE
  5
153
330
1F
100
AcDbEntity
  8
0
  6
PHANTOM
 62
     8
370
    18
100
AcDbPolyline
 90
       60
 70
   128
 43
0.0
 10
484.3108024889
 20
-267.1729550984
 10
484.0918556601
 20
-267.0532958305
 10
483.6357625033
 20
-266.8440907431
 10
483.1581858704
 20
-266.676494623
 10
482.6605265759
 20
-266.5509990586
 10
482.1442443402
 20
-266.4679721501
 10
481.6108535081
 20
-266.4276574296
 10
481.0619186068
 20
-266.4301731471
 10
480.499049757
 20
-266.4755119237
 10
479.92389795
 20
-266.5635407729
 10
479.3381502051
 20
-266.6940014908
 10
478.7435246214
 20
-266.8665114139
 10
478.1417653382
 20
-267.0805645406
 10
477.5346374191
 20
-267.3355330164
 10
476.9239216749
 20
-267.6306689747
 10
476.3114094402
 20
-267.9651067309
 10
475.6988973188
 20
-268.3378653215
 10
475.0881819144
 20
-268.7478513813
 10
474.4810545604
 20
-269.1938623505
 10
473.879296066
 20
-269.6745900022
 10
473.2846714925
 20
-270.1886242792
 10
472.6989249762
 20
-270.7344574305
 10
472.1237746127
 20
-271.3104884335
 10
471.560907417
 20
-271.9150276898
 10
471.0119743755
 20
-272.5463019818
 10
470.4785856036
 20
-273.2024596732
 10
469.9623056223
 20
-273.8815761404
 10
469.4646487697
 20
-274.5816594177
 10
468.9870747593
 20
-275.3006560404
 10
468.5309843978
 20
-276.0364570674
 10
468.0977154768
 20
-276.7869042676
 10
467.6885388488
 20
-277.54979645
 10
467.3046546993
 20
-278.3228959204
 10
466.9471890266
 20
-279.1039350448
 10
466.6171903392
 20
-279.890622901
 10
466.3156265801
 20
-280.6806519978
 10
466.0433822877
 20
-281.4717050439
 10
465.8012560014
 20
-282.2614617444
 10
465.5899579194
 20
-283.0476056067
 10
465.4101078154
 20
-283.8278307356
 10
465.2622332206
 20
-284.5998485961
 10
465.1467678768
 20
-285.361394727
 10
465.0640504636
 20
-286.1102353823
 10
465.0143236056
 20
-286.8441740832
 10
464.9977331602
 20
-287.5610580611
 10
465.01432779
 20
-288.2587845718
 10
465.0640588201
 20
-288.9353070632
 10
465.1467803807
 20
-289.5886411782
 10
465.2622498354
 20
-290.2168705755
 10
465.4101284923
 20
-290.8181525497
 10
465.5899825979
 20
-291.3907234375
 10
465.801284609
 20
-291.9329037896
 10
466.0434147405
 20
-292.4431032977
 10
466.3156627829
 20
-292.9198254588
 10
466.6172301858
 20
-293.3616719645
 10
466.9472324002
 20
-293.767346803
 10
467.3047014726
 20
-294.1356600601
 10
467.6885888846
 20
-294.4655314095
 10
468.0977686284
 20
-294.7559932817
 10
468.3120936804
 20
-294.8865344342
  0
ENDSEC
  0
SECTION
  2
OBJECTS
  0
DICTIONARY
  5
C
330
0
100
AcDbDictionary
281
     1
  3
ACAD_DETAILVIEWSTYLE
350
15D
  3
ACAD_GROUP
350
D
  3
ACAD_LAYOUT
350
1A
  3
ACAD_MATERIAL
350
43
  3
ACAD_MLEADERSTYLE
350
6B
  3
ACAD_MLINESTYLE
350
17
  3
ACAD_PLOTSETTINGS
350
19
  3
ACAD_PLOTSTYLENAME
350
E
  3
ACAD_SCALELIST
350
47
  3
ACAD_SECTIONVIEWSTYLE
350
15E
  3
ACAD_TABLESTYLE
350
69
  3
ACDB_RECOMPOSE_DATA
350
15A
  3
AcDbVariableDictionary
350
154
  0
DICTIONARY
  5
15D
102
{ACAD_REACTORS
330
C
102
}
330
C
100
AcDbDictionary
281
     1
  0
DICTIONARY
  5
D
102
{ACAD_REACTORS
330
C
102
}
330
C
100
AcDbDictionary
281
     1
  0
DICTIONARY
  5
1A
102
{ACAD_REACTORS
330
C
102
}
330
C
100
AcDbDictionary
281
     1
  3
Layout1
350
1E
  3
Layout2
350
26
  3
Model
350
22
  0
DICTIONARY
  5
43
102
{ACAD_REACTORS
330
C
102
}
330
C
100
AcDbDictionary
281
     1
  3
ByBlock
350
45
  3
ByLayer
350
44
  3
Global
350
46
  0
DICTIONARY
  5
6B
102
{ACAD_REACTORS
330
C
102
}
330
C
100
AcDbDictionary
281
     1
  3
Standard
350
6C
  0
DICTIONARY
  5
17
102
{ACAD_REACTORS
330
C
102
}
330
C
100
AcDbDictionary
281
     1
  3
Standard
350
18
  0
DICTIONARY
  5
19
102
{ACAD_REACTORS
330
C
102
}
330
C
100
AcDbDictionary
281
     1
  0
ACDBDICTIONARYWDFLT
  5
E
102
{ACAD_REACTORS
330
C
102
}
330
C
100
AcDbDictionary
281
     1
  3
Normal
350
F
100
AcDbDictionaryWithDefault
340
F
  0
DICTIONARY
  5
47
102
{ACAD_REACTORS
330
C
102
}
330
C
100
AcDbDictionary
281
     1
  3
A0
350
48
  3
A1
350
49
  3
A2
350
4A
  3
A3
350
4B
  3
A4
350
4C
  3
A5
350
4D
  3
A6
350
4E
  3
A7
350
4F
  3
A8
350
50
  3
A9
350
51
  3
B0
350
52
  3
B1
350
53
  3
B2
350
54
  3
B3
350
55
  3
B4
350
56
  3
B5
350
57
  3
B6
350
58
  3
B7
350
59
  3
B8
350
5A
  3
B9
350
5B
  3
C0
350
5C
  3
C1
350
5D
  3
C2
350
5E
  3
C3
350
5F
  3
C4
350
60
  3
C5
350
61
  3
C6
350
62
  3
C7
350
63
  3
C8
350
64
  3
C9
350
65
  3
D0
350
66
  3
D1
350
67
  3
D2
350
68
  0
DICTIONARY
  5
15E
102
{ACAD_REACTORS
330
C
102
}
330
C
100
AcDbDictionary
281
     1
  0
DICTIONARY
  5
69
102
{ACAD_REACTORS
330
C
102
}
330
C
100
AcDbDictionary
281
     1
  3
Standard
350
6A
  0
XRECORD
  5
15A
102
{ACAD_REACTORS
330
C
102
}
330
C
100
AcDbXrecord
280
     1
 90
        1
330
6A
  0
DICTIONARY
  5
154
102
{ACAD_REACTORS
330
C
102
}
330
C
100
AcDbDictionary
281
     1
  3
CANNOSCALE
350
155
  3
CENTEREXE
350
15F
  3
CENTERLTYPEFILE
350
160
  3
CMLEADERSTYLE
350
15C
  3
CTABLESTYLE
350
15B
  0
LAYOUT
  5
1E
102
{ACAD_REACTORS
330
1A
102
}
330
1A
100
AcDbPlotSettings
  1

  2
none_device
  4

  6

 40
0.0
 41
0.0
 42
0.0
 43
0.0
 44
0.0
 45
0.0
 46
0.0
 47
0.0
 48
0.0
 49
0.0
140
0.0
141
0.0
142
1.0
143
1.0
 70
   688
 72
     1
 73
     0
 74
     5
  7

 75
    16
 76
     0
 77
     2
 78
   300
147
1.0
148
0.0
149
0.0
100
AcDbLayout
  1
Layout1
 70
     1
 71
     1
 10
0.0
 20
0.0
 11
420.0
 21
297.0
 12
0.0
 22
0.0
 32
0.0
 14
1.0000000000E+20
 24
1.0000000000E+20
 34
1.0000000000E+20
 15
-1.0000000000E+20
 25
-1.0000000000E+20
 35
-1.0000000000E+20
146
0.0
 13
0.0
 23
0.0
 33
0.0
 16
1.0
 26
0.0
 36
0.0
 17
0.0
 27
1.0
 37
0.0
 76
     0
330
1B
  0
LAYOUT
  5
26
102
{ACAD_REACTORS
330
1A
102
}
330
1A
100
AcDbPlotSettings
  1

  2
none_device
  4

  6

 40
0.0
 41
0.0
 42
0.0
 43
0.0
 44
0.0
 45
0.0
 46
0.0
 47
0.0
 48
0.0
 49
0.0
140
0.0
141
0.0
142
1.0
143
1.0
 70
   688
 72
     1
 73
     0
 74
     5
  7

 75
    16
 76
     0
 77
     2
 78
   300
147
1.0
148
0.0
149
0.0
100
AcDbLayout
  1
Layout2
 70
     1
 71
     2
 10
0.0
 20
0.0
 11
0.0
 21
0.0
 12
0.0
 22
0.0
 32
0.0
 14
0.0
 24
0.0
 34
0.0
 15
0.0
 25
0.0
 35
0.0
146
0.0
 13
0.0
 23
0.0
 33
0.0
 16
1.0
 26
0.0
 36
0.0
 17
0.0
 27
1.0
 37
0.0
 76
     0
330
23
  0
LAYOUT
  5
22
102
{ACAD_REACTORS
330
1A
102
}
330
1A
100
AcDbPlotSettings
  1

  2
none_device
  4
Letter_(8.50_x_11.00_Inches)
  6

 40
6.35
 41
6.35
 42
6.35000508
 43
6.35000508
 44
215.9
 45
279.4
 46
0.0
 47
0.0
 48
0.0
 49
0.0
140
0.0
141
0.0
142
1.0
143
1.0
 70
  1712
 72
     1
 73
     0
 74
     0
  7

 75
     0
 76
     0
 77
     2
 78
   300
147
1.0
148
0.0
149
0.0
100
AcDbLayout
  1
Model
 70
     1
 71
     0
 10
0.0
 20
0.0
 11
210.0
 21
297.0
 12
0.0
 22
0.0
 32
0.0
 14
0.0
 24
0.0
 34
0.0
 15
210.0
 25
297.0
 35
0.0
146
0.0
 13
0.0
 23
0.0
 33
0.0
 16
1.0
 26
0.0
 36
0.0
 17
0.0
 27
1.0
 37
0.0
 76
     0
330
1F
331
29
  0
MATERIAL
  5
45
102
{ACAD_REACTORS
330
43
102
}
330
43
100
AcDbMaterial
  1
ByBlock
  0
MATERIAL
  5
44
102
{ACAD_REACTORS
330
43
102
}
330
43
100
AcDbMaterial
  1
ByLayer
  0
MATERIAL
  5
46
102
{ACAD_REACTORS
330
43
102
}
330
43
100
AcDbMaterial
  1
Global
  0
MLEADERSTYLE
  5
6C
102
{ACAD_REACTORS
330
6B
102
}
330
6B
100
AcDbMLeaderStyle
170
     2
171
     1
172
     0
 90
        2
 40
0.0
 41
0.0
173
     1
 91
-1056964608
340
14
 92
       -2
290
     1
 42
2.0
291
     1
 43
8.0
  3
Standard
341
0
 44
4.0
300

342
11
174
     1
178
     6
175
     1
176
     0
 93
-1056964608
 45
4.0
292
     0
297
     0
 46
4.0
343
0
 94
-1056964608
 47
1.0
 49
1.0
140
1.0
293
     1
141
0.0
294
     1
177
     0
142
1.0
295
     0
296
     0
143
3.75
1001
ACAD_MLEADERVER
1070
     2
  0
MLINESTYLE
  5
18
102
{ACAD_REACTORS
330
17
102
}
330
17
100
AcDbMlineStyle
  2
Standard
 70
     0
  3

 62
   256
 51
90.0
 52
90.0
 71
     2
 49
0.5
 62
   256
  6
BYLAYER
 49
-0.5
 62
   256
  6
BYLAYER
  0
ACDBPLACEHOLDER
  5
F
102
{ACAD_REACTORS
330
E
102
}
330
E
  0
SCALE
  5
48
102
{ACAD_REACTORS
330
47
102
}
330
47
100
AcDbScale
 70
     0
300
1:1
140
1.0
141
1.0
290
     1
  0
SCALE
  5
49
102
{ACAD_REACTORS
330
47
102
}
330
47
100
AcDbScale
 70
     0
300
1:2
140
1.0
141
2.0
290
     0
  0
SCALE
  5
4A
102
{ACAD_REACTORS
330
47
102
}
330
47
100
AcDbScale
 70
     0
300
1:4
140
1.0
141
4.0
290
     0
  0
SCALE
  5
4B
102
{ACAD_REACTORS
330
47
102
}
330
47
100
AcDbScale
 70
     0
300
1:5
140
1.0
141
5.0
290
     0
  0
SCALE
  5
4C
102
{ACAD_REACTORS
330
47
102
}
330
47
100
AcDbScale
 70
     0
300
1:8
140
1.0
141
8.0
290
     0
  0
SCALE
  5
4D
102
{ACAD_REACTORS
330
47
102
}
330
47
100
AcDbScale
 70
     0
300
1:10
140
1.0
141
10.0
290
     0
  0
SCALE
  5
4E
102
{ACAD_REACTORS
330
47
102
}
330
47
100
AcDbScale
 70
     0
300
1:16
140
1.0
141
16.0
290
     0
  0
SCALE
  5
4F
102
{ACAD_REACTORS
330
47
102
}
330
47
100
AcDbScale
 70
     0
300
1:20
140
1.0
141
20.0
290
     0
  0
SCALE
  5
50
102
{ACAD_REACTORS
330
47
102
}
330
47
100
AcDbScale
 70
     0
300
1:30
140
1.0
141
30.0
290
     0
  0
SCALE
  5
51
102
{ACAD_REACTORS
330
47
102
}
330
47
100
AcDbScale
 70
     0
300
1:40
140
1.0
141
40.0
290
     0
  0
SCALE
  5
52
102
{ACAD_REACTORS
330
47
102
}
330
47
100
AcDbScale
 70
     0
300
1:50
140
1.0
141
50.0
290
     0
  0
SCALE
  5
53
102
{ACAD_REACTORS
330
47
102
}
330
47
100
AcDbScale
 70
     0
300
1:100
140
1.0
141
100.0
290
     0
  0
SCALE
  5
54
102
{ACAD_REACTORS
330
47
102
}
330
47
100
AcDbScale
 70
     0
300
2:1
140
2.0
141
1.0
290
     0
  0
SCALE
  5
55
102
{ACAD_REACTORS
330
47
102
}
330
47
100
AcDbScale
 70
     0
300
4:1
140
4.0
141
1.0
290
     0
  0
SCALE
  5
56
102
{ACAD_REACTORS
330
47
102
}
330
47
100
AcDbScale
 70
     0
300
8:1
140
8.0
141
1.0
290
     0
  0
SCALE
  5
57
102
{ACAD_REACTORS
330
47
102
}
330
47
100
AcDbScale
 70
     0
300
10:1
140
10.0
141
1.0
290
     0
  0
SCALE
  5
58
102
{ACAD_REACTORS
330
47
102
}
330
47
100
AcDbScale
 70
     0
300
100:1
140
100.0
141
1.0
290
     0
  0
SCALE
  5
59
102
{ACAD_REACTORS
330
47
102
}
330
47
100
AcDbScale
 70
     0
300
1/128" = 1'-0"
140
0.0078125
141
12.0
290
     0
  0
SCALE
  5
5A
102
{ACAD_REACTORS
330
47
102
}
330
47
100
AcDbScale
 70
     0
300
1/64" = 1'-0"
140
0.015625
141
12.0
290
     0
  0
SCALE
  5
5B
102
{ACAD_REACTORS
330
47
102
}
330
47
100
AcDbScale
 70
     0
300
1/32" = 1'-0"
140
0.03125
141
12.0
290
     0
  0
SCALE
  5
5C
102
{ACAD_REACTORS
330
47
102
}
330
47
100
AcDbScale
 70
     0
300
1/16" = 1'-0"
140
0.0625
141
12.0
290
     0
  0
SCALE
  5
5D
102
{ACAD_REACTORS
330
47
102
}
330
47
100
AcDbScale
 70
     0
300
3/32" = 1'-0"
140
0.09375
141
12.0
290
     0
  0
SCALE
  5
5E
102
{ACAD_REACTORS
330
47
102
}
330
47
100
AcDbScale
 70
     0
300
1/8" = 1'-0"
140
0.125
141
12.0
290
     0
  0
SCALE
  5
5F
102
{ACAD_REACTORS
330
47
102
}
330
47
100
AcDbScale
 70
     0
300
3/16" = 1'-0"
140
0.1875
141
12.0
290
     0
  0
SCALE
  5
60
102
{ACAD_REACTORS
330
47
102
}
330
47
100
AcDbScale
 70
     0
300
1/4" = 1'-0"
140
0.25
141
12.0
290
     0
  0
SCALE
  5
61
102
{ACAD_REACTORS
330
47
102
}
330
47
100
AcDbScale
 70
     0
300
3/8" = 1'-0"
140
0.375
141
12.0
290
     0
  0
SCALE
  5
62
102
{ACAD_REACTORS
330
47
102
}
330
47
100
AcDbScale
 70
     0
300
1/2" = 1'-0"
140
0.5
141
12.0
290
     0
  0
SCALE
  5
63
102
{ACAD_REACTORS
330
47
102
}
330
47
100
AcDbScale
 70
     0
300
3/4" = 1'-0"
140
0.75
141
12.0
290
     0
  0
SCALE
  5
64
102
{ACAD_REACTORS
330
47
102
}
330
47
100
AcDbScale
 70
     0
300
1" = 1'-0"
140
1.0
141
12.0
290
     0
  0
SCALE
  5
65
102
{ACAD_REACTORS
330
47
102
}
330
47
100
AcDbScale
 70
     0
300
1-1/2" = 1'-0"
140
1.5
141
12.0
290
     0
  0
SCALE
  5
66
102
{ACAD_REACTORS
330
47
102
}
330
47
100
AcDbScale
 70
     0
300
3" = 1'-0"
140
3.0
141
12.0
290
     0
  0
SCALE
  5
67
102
{ACAD_REACTORS
330
47
102
}
330
47
100
AcDbScale
 70
     0
300
6" = 1'-0"
140
6.0
141
12.0
290
     0
  0
SCALE
  5
68
102
{ACAD_REACTORS
330
47
102
}
330
47
100
AcDbScale
 70
     0
300
1'-0" = 1'-0"
140
12.0
141
12.0
290
     0
  0
TABLESTYLE
  5
6A
102
{ACAD_REACTORS
330
69
102
}
102
{ACAD_XDICTIONARY
360
156
102
}
330
69
100
AcDbTableStyle
  3
Standard
 70
     0
 71
     0
 40
0.06
 41
0.06
280
     0
281
     0
  7
Standard
140
4.5
170
     2
 62
     0
 63
   257
283
     0
274
    -2
284
     1
 64
     0
275
    -2
285
     1
 65
     0
276
    -2
286
     1
 66
     0
277
    -2
287
     1
 67
     0
278
    -2
288
     1
 68
     0
279
    -2
289
     1
 69
     0
  7
Standard
140
6.0
170
     5
 62
     0
 63
   257
283
     0
274
    -2
284
     1
 64
     0
275
    -2
285
     1
 65
     0
276
    -2
286
     1
 66
     0
277
    -2
287
     1
 67
     0
278
    -2
288
     1
 68
     0
279
    -2
289
     1
 69
     0
  7
Standard
140
4.5
170
     5
 62
     0
 63
   257
283
     0
274
    -2
284
     1
 64
     0
275
    -2
285
     1
 65
     0
276
    -2
286
     1
 66
     0
277
    -2
287
     1
 67
     0
278
    -2
288
     1
 68
     0
279
    -2
289
     1
 69
     0
  0
DICTIONARYVAR
  5
155
102
{ACAD_REACTORS
330
154
102
}
330
154
100
DictionaryVariables
280
     0
  1
1:1
  0
DICTIONARYVAR
  5
15F
102
{ACAD_REACTORS
330
154
102
}
330
154
100
DictionaryVariables
280
     0
  1
3.500000
  0
DICTIONARYVAR
  5
160
102
{ACAD_REACTORS
330
154
102
}
330
154
100
DictionaryVariables
280
     0
  1
acadiso.lin
  0
DICTIONARYVAR
  5
15C
102
{ACAD_REACTORS
330
154
102
}
330
154
100
DictionaryVariables
280
     0
  1
Standard
  0
DICTIONARYVAR
  5
15B
102
{ACAD_REACTORS
330
154
102
}
330
154
100
DictionaryVariables
280
     0
  1
Standard
  0
DICTIONARY
  5
156
330
6A
100
AcDbDictionary
280
     1
281
     1
  3
ACAD_ROUNDTRIP_2008_TABLESTYLE_CELLSTYLEMAP
360
158
  3
ACAD_XREC_ROUNDTRIP
360
157
  0
CELLSTYLEMAP
  5
158
102
{ACAD_REACTORS
330
156
102
}
330
156
100
AcDbCellStyleMap
 90
        3
300
CELLSTYLE
  1
TABLEFORMAT_BEGIN
 90
        5
170
     1
 91
        0
 92
    32768
 62
   257
 93
        1
300
CONTENTFORMAT
  1
CONTENTFORMAT_BEGIN
 90
        0
 91
        0
 92
        4
 93
        0
300

 40
0.0
140
1.0
 94
        5
 62
     0
340
11
144
6.0
309
CONTENTFORMAT_END
171
     1
301
MARGIN
  1
CELLMARGIN_BEGIN
 40
1.5
 40
1.5
 40
1.5
 40
1.5
 40
1.5
 40
1.5
309
CELLMARGIN_END
 94
        6
 95
        1
302
GRIDFORMAT
  1
GRIDFORMAT_BEGIN
 90
        0
 91
        1
 62
     0
 92
       -2
340
14
 93
        0
 40
0.045
309
GRIDFORMAT_END
 95
        2
302
GRIDFORMAT
  1
GRIDFORMAT_BEGIN
 90
        0
 91
        1
 62
     0
 92
       -2
340
14
 93
        0
 40
0.045
309
GRIDFORMAT_END
 95
        4
302
GRIDFORMAT
  1
GRIDFORMAT_BEGIN
 90
        0
 91
        1
 62
     0
 92
       -2
340
14
 93
        0
 40
0.045
309
GRIDFORMAT_END
 95
        8
302
GRIDFORMAT
  1
GRIDFORMAT_BEGIN
 90
        0
 91
        1
 62
     0
 92
       -2
340
14
 93
        0
 40
0.045
309
GRIDFORMAT_END
 95
       16
302
GRIDFORMAT
  1
GRIDFORMAT_BEGIN
 90
        0
 91
        1
 62
     0
 92
       -2
340
14
 93
        0
 40
0.045
309
GRIDFORMAT_END
 95
       32
302
GRIDFORMAT
  1
GRIDFORMAT_BEGIN
 90
        0
 91
        1
 62
     0
 92
       -2
340
14
 93
        0
 40
0.045
309
GRIDFORMAT_END
309
TABLEFORMAT_END
  1
CELLSTYLE_BEGIN
 90
        1
 91
        1
300
_TITLE
309
CELLSTYLE_END
300
CELLSTYLE
  1
TABLEFORMAT_BEGIN
 90
        5
170
     1
 91
        0
 92
        0
 62
   257
 93
        1
300
CONTENTFORMAT
  1
CONTENTFORMAT_BEGIN
 90
        0
 91
        0
 92
        4
 93
        0
300

 40
0.0
140
1.0
 94
        5
 62
     0
340
11
144
4.5
309
CONTENTFORMAT_END
171
     1
301
MARGIN
  1
CELLMARGIN_BEGIN
 40
1.5
 40
1.5
 40
1.5
 40
1.5
 40
1.5
 40
1.5
309
CELLMARGIN_END
 94
        6
 95
        1
302
GRIDFORMAT
  1
GRIDFORMAT_BEGIN
 90
        0
 91
        1
 62
     0
 92
       -2
340
14
 93
        0
 40
0.045
309
GRIDFORMAT_END
 95
        2
302
GRIDFORMAT
  1
GRIDFORMAT_BEGIN
 90
        0
 91
        1
 62
     0
 92
       -2
340
14
 93
        0
 40
0.045
309
GRIDFORMAT_END
 95
        4
302
GRIDFORMAT
  1
GRIDFORMAT_BEGIN
 90
        0
 91
        1
 62
     0
 92
       -2
340
14
 93
        0
 40
0.045
309
GRIDFORMAT_END
 95
        8
302
GRIDFORMAT
  1
GRIDFORMAT_BEGIN
 90
        0
 91
        1
 62
     0
 92
       -2
340
14
 93
        0
 40
0.045
309
GRIDFORMAT_END
 95
       16
302
GRIDFORMAT
  1
GRIDFORMAT_BEGIN
 90
        0
 91
        1
 62
     0
 92
       -2
340
14
 93
        0
 40
0.045
309
GRIDFORMAT_END
 95
       32
302
GRIDFORMAT
  1
GRIDFORMAT_BEGIN
 90
        0
 91
        1
 62
     0
 92
       -2
340
14
 93
        0
 40
0.045
309
GRIDFORMAT_END
309
TABLEFORMAT_END
  1
CELLSTYLE_BEGIN
 90
        2
 91
        1
300
_HEADER
309
CELLSTYLE_END
300
CELLSTYLE
  1
TABLEFORMAT_BEGIN
 90
        5
170
     1
 91
        0
 92
        0
 62
   257
 93
        1
300
CONTENTFORMAT
  1
CONTENTFORMAT_BEGIN
 90
        0
 91
        0
 92
        4
 93
        0
300

 40
0.0
140
1.0
 94
        2
 62
     0
340
11
144
4.5
309
CONTENTFORMAT_END
171
     1
301
MARGIN
  1
CELLMARGIN_BEGIN
 40
1.5
 40
1.5
 40
1.5
 40
1.5
 40
1.5
 40
1.5
309
CELLMARGIN_END
 94
        6
 95
        1
302
GRIDFORMAT
  1
GRIDFORMAT_BEGIN
 90
        0
 91
        1
 62
     0
 92
       -2
340
14
 93
        0
 40
0.045
309
GRIDFORMAT_END
 95
        2
302
GRIDFORMAT
  1
GRIDFORMAT_BEGIN
 90
        0
 91
        1
 62
     0
 92
       -2
340
14
 93
        0
 40
0.045
309
GRIDFORMAT_END
 95
        4
302
GRIDFORMAT
  1
GRIDFORMAT_BEGIN
 90
        0
 91
        1
 62
     0
 92
       -2
340
14
 93
        0
 40
0.045
309
GRIDFORMAT_END
 95
        8
302
GRIDFORMAT
  1
GRIDFORMAT_BEGIN
 90
        0
 91
        1
 62
     0
 92
       -2
340
14
 93
        0
 40
0.045
309
GRIDFORMAT_END
 95
       16
302
GRIDFORMAT
  1
GRIDFORMAT_BEGIN
 90
        0
 91
        1
 62
     0
 92
       -2
340
14
 93
        0
 40
0.045
309
GRIDFORMAT_END
 95
       32
302
GRIDFORMAT
  1
GRIDFORMAT_BEGIN
 90
        0
 91
        1
 62
     0
 92
       -2
340
14
 93
        0
 40
0.045
309
GRIDFORMAT_END
309
TABLEFORMAT_END
  1
CELLSTYLE_BEGIN
 90
        3
 91
        2
300
_DATA
309
CELLSTYLE_END
  0
XRECORD
  5
157
102
{ACAD_REACTORS
330
156
102
}
330
156
100
AcDbXrecord
280
     1
102
ACAD_ROUNDTRIP_PRE2007_TABLESTYLE
 90
        4
 91
        0
  1

 92
        4
 93
        0
  2

 94
        4
 95
        0
  3

  0
ENDSEC
  0
EOF
