  0
SECTION
  2
HEADER
  9
$ACADVER
  1
AC1018
  9
$ACADMAINTVER
 70
     2
  9
$DWGCODEPAGE
  3
ANSI_1252
  9
$TITLE
  1

  9
$SUBJECT
  1

  9
$AUTHOR
  1

  9
$KEYWORDS
  1

  9
$COMMENTS
  1

  9
$LASTSAVEDBY
  1

  9
$REVISIONNUMBER
  1

  9
$CUSTOMPROPERTYTAG
  1
AmdtFileType
  9
$CUSTOMPROPERTY
  1
84
  9
$INSBASE
 10
0.0
 20
0.0
 30
0.0
  9
$EXTMIN
 10
-581.524153133307
 20
-178.831768676818
 30
0.0
  9
$EXTMAX
 10
1.482602176452832
 20
178.9404548638537
 30
0.0
  9
$LIMMIN
 10
0.0
 20
0.0
  9
$LIMMAX
 10
420.0
 20
297.0
  9
$ORTHOMODE
 70
     1
  9
$REGENMODE
 70
     1
  9
$FILLMODE
 70
     1
  9
$QTEXTMODE
 70
     0
  9
$MIRRTEXT
 70
     1
  9
$LTSCALE
 40
1.0
  9
$ATTMODE
 70
     1
  9
$TEXTSIZE
 40
2.5
  9
$TRACEWID
 40
1.0
  9
$TEXTSTYLE
  7
STANDARD
  9
$CLAYER
  8
0
  9
$CELTYPE
  6
ByLayer
  9
$CECOLOR
 62
   256
  9
$CELTSCALE
 40
1.0
  9
$DISPSILH
 70
     0
  9
$DIMSCALE
 40
1.0
  9
$DIMASZ
 40
2.5
  9
$DIMEXO
 40
1.0
  9
$DIMDLI
 40
10.0
  9
$DIMRND
 40
0.0
  9
$DIMDLE
 40
0.0
  9
$DIMEXE
 40
1.0
  9
$DIMTP
 40
0.1
  9
$DIMTM
 40
0.1
  9
$DIMTXT
 40
3.5
  9
$DIMCEN
 40
0.0
  9
$DIMTSZ
 40
0.0
  9
$DIMTOL
 70
     0
  9
$DIMLIM
 70
     0
  9
$DIMTIH
 70
     0
  9
$DIMTOH
 70
     0
  9
$DIMSE1
 70
     0
  9
$DIMSE2
 70
     0
  9
$DIMTAD
 70
     1
  9
$DIMZIN
 70
     8
  9
$DIMBLK
  1

  9
$DIMASO
 70
     1
  9
$DIMSHO
 70
     1
  9
$DIMPOST
  1

  9
$DIMAPOST
  1
"
  9
$DIMALT
 70
     0
  9
$DIMALTD
 70
     2
  9
$DIMALTF
 40
0.0393701
  9
$DIMLFAC
 40
1.0
  9
$DIMTOFL
 70
     1
  9
$DIMTVP
 40
0.0
  9
$DIMTIX
 70
     0
  9
$DIMSOXD
 70
     0
  9
$DIMSAH
 70
     0
  9
$DIMBLK1
  1

  9
$DIMBLK2
  1

  9
$DIMSTYLE
  2
AM_DIN
  9
$DIMCLRD
 70
   256
  9
$DIMCLRE
 70
   256
  9
$DIMCLRT
 70
     2
  9
$DIMTFAC
 40
0.71
  9
$DIMGAP
 40
1.5
  9
$DIMJUST
 70
     0
  9
$DIMSD1
 70
     0
  9
$DIMSD2
 70
     0
  9
$DIMTOLJ
 70
     0
  9
$DIMTZIN
 70
     8
  9
$DIMALTZ
 70
     0
  9
$DIMALTTZ
 70
     0
  9
$DIMUPT
 70
     0
  9
$DIMDEC
 70
     2
  9
$DIMTDEC
 70
     3
  9
$DIMALTU
 70
     2
  9
$DIMALTTD
 70
     4
  9
$DIMTXSTY
  7
STANDARD
  9
$DIMAUNIT
 70
     0
  9
$DIMADEC
 70
     0
  9
$DIMALTRND
 40
0.0
  9
$DIMAZIN
 70
     2
  9
$DIMDSEP
 70
    46
  9
$DIMATFIT
 70
     3
  9
$DIMFRAC
 70
     0
  9
$DIMLDRBLK
  1

  9
$DIMLUNIT
 70
     2
  9
$DIMLWD
 70
    -1
  9
$DIMLWE
 70
    -1
  9
$DIMTMOVE
 70
     0
  9
$LUNITS
 70
     2
  9
$LUPREC
 70
     2
  9
$SKETCHINC
 40
1.0
  9
$FILLETRAD
 40
10.0
  9
$AUNITS
 70
     0
  9
$AUPREC
 70
     0
  9
$MENU
  1
.
  9
$ELEVATION
 40
0.0
  9
$PELEVATION
 40
0.0
  9
$THICKNESS
 40
0.0
  9
$LIMCHECK
 70
     0
  9
$CHAMFERA
 40
2.5
  9
$CHAMFERB
 40
2.5
  9
$CHAMFERC
 40
20.0
  9
$CHAMFERD
 40
0.0
  9
$SKPOLY
 70
     0
  9
$TDCREATE
 40
2453918.221006574
  9
$TDUCREATE
 40
2453918.179339908
  9
$TDUPDATE
 40
2454064.607973067
  9
$TDUUPDATE
 40
2454064.566306401
  9
$TDINDWG
 40
0.1256396528
  9
$TDUSRTIMER
 40
0.1256354977
  9
$USRTIMER
 70
     1
  9
$ANGBASE
 50
0.0
  9
$ANGDIR
 70
     0
  9
$PDMODE
 70
     0
  9
$PDSIZE
 40
0.0
  9
$PLINEWID
 40
0.0
  9
$SPLFRAME
 70
     0
  9
$SPLINETYPE
 70
     6
  9
$SPLINESEGS
 70
     8
  9
$HANDSEED
  5
3816
  9
$SURFTAB1
 70
     6
  9
$SURFTAB2
 70
     6
  9
$SURFTYPE
 70
     6
  9
$SURFU
 70
     6
  9
$SURFV
 70
     6
  9
$UCSBASE
  2

  9
$UCSNAME
  2

  9
$UCSORG
 10
0.0
 20
0.0
 30
0.0
  9
$UCSXDIR
 10
1.0
 20
0.0
 30
0.0
  9
$UCSYDIR
 10
0.0
 20
1.0
 30
0.0
  9
$UCSORTHOREF
  2

  9
$UCSORTHOVIEW
 70
     0
  9
$UCSORGTOP
 10
0.0
 20
0.0
 30
0.0
  9
$UCSORGBOTTOM
 10
0.0
 20
0.0
 30
0.0
  9
$UCSORGLEFT
 10
0.0
 20
0.0
 30
0.0
  9
$UCSORGRIGHT
 10
0.0
 20
0.0
 30
0.0
  9
$UCSORGFRONT
 10
0.0
 20
0.0
 30
0.0
  9
$UCSORGBACK
 10
0.0
 20
0.0
 30
0.0
  9
$PUCSBASE
  2

  9
$PUCSNAME
  2

  9
$PUCSORG
 10
0.0
 20
0.0
 30
0.0
  9
$PUCSXDIR
 10
1.0
 20
0.0
 30
0.0
  9
$PUCSYDIR
 10
0.0
 20
1.0
 30
0.0
  9
$PUCSORTHOREF
  2

  9
$PUCSORTHOVIEW
 70
     0
  9
$PUCSORGTOP
 10
0.0
 20
0.0
 30
0.0
  9
$PUCSORGBOTTOM
 10
0.0
 20
0.0
 30
0.0
  9
$PUCSORGLEFT
 10
0.0
 20
0.0
 30
0.0
  9
$PUCSORGRIGHT
 10
0.0
 20
0.0
 30
0.0
  9
$PUCSORGFRONT
 10
0.0
 20
0.0
 30
0.0
  9
$PUCSORGBACK
 10
0.0
 20
0.0
 30
0.0
  9
$USERI1
 70
     0
  9
$USERI2
 70
     0
  9
$USERI3
 70
     0
  9
$USERI4
 70
     0
  9
$USERI5
 70
     0
  9
$USERR1
 40
0.0
  9
$USERR2
 40
0.0
  9
$USERR3
 40
0.0
  9
$USERR4
 40
0.0
  9
$USERR5
 40
0.0
  9
$WORLDVIEW
 70
     1
  9
$SHADEDGE
 70
     3
  9
$SHADEDIF
 70
    70
  9
$TILEMODE
 70
     1
  9
$MAXACTVP
 70
    64
  9
$PINSBASE
 10
0.0
 20
0.0
 30
0.0
  9
$PLIMCHECK
 70
     0
  9
$PEXTMIN
 10
1.000000000000000E+20
 20
1.000000000000000E+20
 30
1.000000000000000E+20
  9
$PEXTMAX
 10
-1.000000000000000E+20
 20
-1.000000000000000E+20
 30
-1.000000000000000E+20
  9
$PLIMMIN
 10
0.0
 20
0.0
  9
$PLIMMAX
 10
420.0
 20
297.0
  9
$UNITMODE
 70
     0
  9
$VISRETAIN
 70
     1
  9
$PLINEGEN
 70
     0
  9
$PSLTSCALE
 70
     1
  9
$TREEDEPTH
 70
  3020
  9
$CMLSTYLE
  2
Standard
  9
$CMLJUST
 70
     0
  9
$CMLSCALE
 40
20.0
  9
$PROXYGRAPHICS
 70
     1
  9
$MEASUREMENT
 70
     1
  9
$CELWEIGHT
370
    -1
  9
$ENDCAPS
280
     0
  9
$JOINSTYLE
280
     0
  9
$LWDISPLAY
290
     0
  9
$INSUNITS
 70
     4
  9
$HYPERLINKBASE
  1

  9
$STYLESHEET
  1

  9
$XEDIT
290
     1
  9
$CEPSNTYPE
380
     0
  9
$PSTYLEMODE
290
     1
  9
$FINGERPRINTGUID
  2
{E66C8CC1-E66B-408F-9010-06FD783B68A0}
  9
$VERSIONGUID
  2
{89EBF6CD-D909-40E4-BDB4-8D21CCEF5F20}
  9
$EXTNAMES
290
     1
  9
$PSVPSCALE
 40
0.0
  9
$OLESTARTUP
290
     0
  9
$SORTENTS
280
   127
  9
$INDEXCTL
280
     1
  9
$HIDETEXT
280
     1
  9
$XCLIPFRAME
290
     0
  9
$HALOGAP
280
     0
  9
$OBSCOLOR
 70
   257
  9
$OBSLTYPE
280
     0
  9
$INTERSECTIONDISPLAY
280
     0
  9
$INTERSECTIONCOLOR
 70
   257
  9
$DIMASSOC
280
     2
  9
$PROJECTNAME
  1

  0
ENDSEC
  0
SECTION
  2
CLASSES
  0
CLASS
  1
ACDBDICTIONARYWDFLT
  2
AcDbDictionaryWithDefault
  3
ObjectDBX Classes
 90
        0
 91
        1
280
     0
281
     0
  0
CLASS
  1
ACME_DOCUMENT
  2
AcMeDbDoc
  3
AcMeServices
 90
        0
 91
        2
280
     0
281
     0
  0
CLASS
  1
ACMESCOPE
  2
AcMeScope
  3
AcMeServices
 90
        0
 91
        1
280
     0
281
     0
  0
CLASS
  1
ACMECOMMANDHISTORY
  2
AcMeCommandHistory
  3
AcMeServices
 90
        0
 91
        1
280
     0
281
     0
  0
CLASS
  1
ACIMSYSVARMAN
  2
AcImSysVarManager
  3
AcMeServices
 90
        0
 91
        6
280
     0
281
     0
  0
CLASS
  1
ACIMREALSYSVAR
  2
AcImRealSysVar
  3
AcMeServices
 90
        0
 91
       16
280
     0
281
     0
  0
CLASS
  1
ACIMINTSYSVAR
  2
AcImIntSysVar
  3
AcMeServices
 90
        0
 91
       45
280
     0
281
     0
  0
CLASS
  1
ACMEDRAWINGMAN
  2
AcMeDrawingMan
  3
AcMeServices
 90
        0
 91
        1
280
     0
281
     0
  0
CLASS
  1
ACMEVIEW
  2
AcMeView
  3
AcMeServices
 90
        0
 91
        1
280
     0
281
     0
  0
CLASS
  1
ACDBENTITYCACHE
  2
AcMeEntityCache
  3
AcMeServices
 90
        0
 91
        1
280
     0
281
     0
  0
CLASS
  1
GSMANAGER
  2
AcMeGSManager
  3
AcMeServices
 90
        0
 91
        1
280
     0
281
     0
  0
CLASS
  1
AMDTINTERNALREACTOR
  2
AmdtInternalReactor
  3
AcMeServices
 90
        0
 91
        2
280
     0
281
     0
  0
CLASS
  1
ACMESTATEMGR
  2
AcMeStateMgr
  3
AcMeServices
 90
        0
 91
        1
280
     0
281
     0
  0
CLASS
  1
ACGREFMASTER
  2
AcGrefMaster
  3
AcAttribServices
 90
        0
 91
        1
280
     0
281
     0
  0
CLASS
  1
ACME_DATABASE
  2
AcMeDbDatabase
  3
AcMeServices
 90
        0
 91
        1
280
     0
281
     0
  0
CLASS
  1
ACRFINSADJUSTERMGR
  2
AcRfInsAdjusterMgr
  3
AcMeServices
 90
        0
 91
        1
280
     0
281
     0
  0
CLASS
  1
ACGREFACADMASTER
  2
AcGrefacadMaster
  3
AcGrefServices
 90
        0
 91
        1
280
     0
281
     0
  0
CLASS
  1
AMIMASTER
  2
AmiMaster
  3
AmiServices
 90
        0
 91
        1
280
     0
281
     0
  0
CLASS
  1
AMGSETTINGSOBJ
  2
AmgSettingsObj
  3
"AcadM|Product Description: AutoCAD Mechanical 2000|Company: Autodesk"
 90
        0
 91
        2
280
     0
281
     0
  0
CLASS
  1
ACMDATADICTIONARY
  2
AcmDataDictionary
  3
"AcmSymBB|Product Description: AutoCAD Mechanical 2004 DX|Company: Autodesk"
 90
        0
 91
        1
280
     0
281
     0
  0
CLASS
  1
ACMDATAENTRYBLOCK
  2
AcmDataEntryBlock
  3
"AcmSymBB|Product Description: AutoCAD Mechanical 2004 DX|Company: Autodesk"
 90
        0
 91
        1
280
     0
281
     0
  0
CLASS
  1
ACIMSTRSYSVAR
  2
AcImStrSysVar
  3
AcMeServices
 90
        0
 91
       11
280
     0
281
     0
  0
CLASS
  1
ACMSTANDARDDIN
  2
AcmStandardDIN
  3
"Amdt_StdImp|Product Description: AutoCAD Mechanical 2004 DX|Company: Autodesk"
 90
        0
 91
        1
280
     0
281
     0
  0
CLASS
  1
AMGOBJPROPCFG
  2
AmgObjPropCfg
  3
"AmgLay|Product Description: AutoCAD Mechanical 2000|Company: Autodesk"
 90
        1
 91
        1
280
     0
281
     0
  0
CLASS
  1
AMDTEDGESTANDARDDIN
  2
AmdtEdgeStdDIN
  3
"Amdt_StdImp|Product Description: AutoCAD Mechanical 2004 DX|Company: Autodesk"
 90
        0
 91
        1
280
     0
281
     0
  0
CLASS
  1
ACMSURFSTANDARDDIN
  2
AcmSurfTextStdDIN
  3
"Amdt_StdImp|Product Description: AutoCAD Mechanical 2004 DX|Company: Autodesk"
 90
        0
 91
        1
280
     0
281
     0
  0
CLASS
  1
ACMFCFSTANDARDDIN
  2
AcmFCFStdDIN
  3
"Amdt_StdImp|Product Description: AutoCAD Mechanical 2004 DX|Company: Autodesk"
 90
        0
 91
        1
280
     0
281
     0
  0
CLASS
  1
ACMWELDSTANDARDDIN
  2
AcmWeldingStdDIN
  3
"Amdt_StdImp|Product Description: AutoCAD Mechanical 2004 DX|Company: Autodesk"
 90
        0
 91
        1
280
     0
281
     0
  0
CLASS
  1
ACMIDSTANDARDDIN
  2
AcmIdStdDIN
  3
"Amdt_StdImp|Product Description: AutoCAD Mechanical 2004 DX|Company: Autodesk"
 90
        0
 91
        1
280
     0
281
     0
  0
CLASS
  1
ACMDATUMSTANDARDDIN
  2
AcmDatumStdDIN
  3
"Amdt_StdImp|Product Description: AutoCAD Mechanical 2004 DX|Company: Autodesk"
 90
        0
 91
        1
280
     0
281
     0
  0
CLASS
  1
ACMBOMSTANDARDDIN
  2
AcmBOMStdDIN
  3
"Amdt_StdImp|Product Description: AutoCAD Mechanical 2004 DX|Company: Autodesk"
 90
        0
 91
        1
280
     0
281
     0
  0
CLASS
  1
ACMDETAILSTANDARDDIN
  2
AmdtDetailSymStdDIN
  3
"Amdt_StdImp|Product Description: AutoCAD Mechanical 2004 DX|Company: Autodesk"
 90
        0
 91
        1
280
     0
281
     0
  0
CLASS
  1
ACMSECTIONSTANDARDDIN
  2
AmdtSectionSymStdDIN
  3
"Amdt_StdImp|Product Description: AutoCAD Mechanical 2004 DX|Company: Autodesk"
 90
        0
 91
        1
280
     0
281
     0
  0
CLASS
  1
ACMCENTERLINESTANDARDDIN
  2
AmdtCenterLineStdDIN
  3
"Amdt_StdImp|Product Description: AutoCAD Mechanical 2004 DX|Company: Autodesk"
 90
        0
 91
        1
280
     0
281
     0
  0
CLASS
  1
ACMNOTESTANDARDDIN
  2
AmdtNoteStdDIN
  3
"Amdt_StdImp|Product Description: AutoCAD Mechanical 2004 DX|Company: Autodesk"
 90
        0
 91
        1
280
     0
281
     0
  0
CLASS
  1
ACAMGLAYSTD
  2
AcAmgLayStd
  3
"AcAmgLayStd|Product Description: AutoCAD Mechanical 2000|Company: Autodesk"
 90
        0
 91
        2
280
     0
281
     0
  0
CLASS
  1
ACAMGDIMSTD
  2
AcAmgDimStd
  3
"AcAmgDimStd|Product Description: AutoCAD Mechanical 2000|Company: Autodesk"
 90
        0
 91
        2
280
     0
281
     0
  0
CLASS
  1
ACAMGHOLECHARTSTDDIN
  2
AcAmgHoleChartStdDIN
  3
ACMSYMBB_MODULE_NAME
 90
        0
 91
        1
280
     0
281
     0
  0
CLASS
  1
ACAMGTITLESTD
  2
AcAmgTitleStd
  3
"TITLEAPP"
 90
        0
 91
        2
280
     0
281
     0
  0
CLASS
  1
LAYER_INDEX
  2
AcDbLayerIndex
  3
ObjectDBX Classes
 90
        0
 91
        1
280
     0
281
     0
  0
CLASS
  1
IDBUFFER
  2
AcDbIdBuffer
  3
ObjectDBX Classes
 90
        0
 91
        2
280
     0
281
     0
  0
CLASS
  1
DICTIONARYVAR
  2
AcDbDictionaryVar
  3
ObjectDBX Classes
 90
        0
 91
        3
280
     0
281
     0
  0
CLASS
  1
ACAMGFILTERDAT
  2
AcAmgFilterDat
  3
"AcadM|Product Description: AutoCAD Mechanical 2000|Company: Autodesk"
 90
        0
 91
        6
280
     0
281
     0
  0
CLASS
  1
ACMSTANDARDANSI
  2
AcmStandardANSI
  3
"Amdt_StdImp|Product Description: AutoCAD Mechanical 2004 DX|Company: Autodesk"
 90
        0
 91
        1
280
     0
281
     0
  0
CLASS
  1
ACMSURFSTANDARDANSI
  2
AcmSurfTextStdANSI
  3
"Amdt_StdImp|Product Description: AutoCAD Mechanical 2004 DX|Company: Autodesk"
 90
        0
 91
        1
280
     0
281
     0
  0
CLASS
  1
ACMFCFSTANDARDANSI
  2
AcmFCFStdANSI
  3
"Amdt_StdImp|Product Description: AutoCAD Mechanical 2004 DX|Company: Autodesk"
 90
        0
 91
        1
280
     0
281
     0
  0
CLASS
  1
ACMWELDSTANDARDANSI
  2
AcmWeldingStdANSI
  3
"Amdt_StdImp|Product Description: AutoCAD Mechanical 2004 DX|Company: Autodesk"
 90
        0
 91
        1
280
     0
281
     0
  0
CLASS
  1
ACMIDSTANDARDANSI
  2
AcmIdStdANSI
  3
"Amdt_StdImp|Product Description: AutoCAD Mechanical 2004 DX|Company: Autodesk"
 90
        0
 91
        1
280
     0
281
     0
  0
CLASS
  1
ACMDATUMSTANDARDANSI
  2
AcmDatumStdANSI
  3
"Amdt_StdImp|Product Description: AutoCAD Mechanical 2004 DX|Company: Autodesk"
 90
        0
 91
        1
280
     0
281
     0
  0
CLASS
  1
ACMBOMSTANDARDANSI
  2
AcmBOMStdANSI
  3
"Amdt_StdImp|Product Description: AutoCAD Mechanical 2004 DX|Company: Autodesk"
 90
        0
 91
        1
280
     0
281
     0
  0
CLASS
  1
ACMDETAILSTANDARDANSI
  2
AmdtDetailSymStdANSI
  3
"Amdt_StdImp|Product Description: AutoCAD Mechanical 2004 DX|Company: Autodesk"
 90
        0
 91
        1
280
     0
281
     0
  0
CLASS
  1
ACMSECTIONSTANDARDANSI
  2
AmdtSectionSymStdANSI
  3
"Amdt_StdImp|Product Description: AutoCAD Mechanical 2004 DX|Company: Autodesk"
 90
        0
 91
        1
280
     0
281
     0
  0
CLASS
  1
ACMCENTERLINESTANDARDANSI
  2
AmdtCenterLineStdANSI
  3
"Amdt_StdImp|Product Description: AutoCAD Mechanical 2004 DX|Company: Autodesk"
 90
        0
 91
        1
280
     0
281
     0
  0
CLASS
  1
ACMNOTESTANDARDANSI
  2
AmdtNoteStdANSI
  3
"Amdt_StdImp|Product Description: AutoCAD Mechanical 2004 DX|Company: Autodesk"
 90
        0
 91
        1
280
     0
281
     0
  0
CLASS
  1
ACAMGHOLECHARTSTDANSI
  2
AcAmgHoleChartStdANSI
  3
ACMSYMBB_MODULE_NAME
 90
        0
 91
        1
280
     0
281
     0
  0
CLASS
  1
AMDTFORMULAUPDATEDISPATCHER
  2
AmdtFormulaUpdateDispatcher
  3
AcMeServices
 90
        0
 91
        1
280
     0
281
     0
  0
CLASS
  1
DIMASSOC
  2
AcDbDimAssoc
  3
"AcDbDimAssoc|Product Desc:     AcDim ARX App For Dimension|Company:          Autodesk, Inc.|WEB Address:      www.autodesk.com"
 90
        0
 91
        0
280
     0
281
     0
  0
CLASS
  1
AM_DRAWING_MGR
  2
AcDmDwgMgr
  3
AcMechDwgViewMgmt
 90
        0
 91
        1
280
     0
281
     0
  0
CLASS
  1
AM_DWG_DOCUMENT
  2
AcDmDwgDocument
  3
AcMechDwgViewMgmt
 90
        0
 91
        1
280
     0
281
     0
  0
CLASS
  1
AM_DWG_SHEET
  2
AcDmSheet
  3
AcMechDwgViewMgmt
 90
        0
 91
        2
280
     0
281
     0
  0
CLASS
  1
AM_VIEWDIMPARMAP
  2
AcDmViewDimParMap
  3
AcMechDwgViewMgmt
 90
        0
 91
        2
280
     0
281
     0
  0
CLASS
  1
AM_DWGMGR_NAME
  2
AcDmDwgMgrName
  3
AcMechDwgViewMgmt
 90
        0
 91
        1
280
     0
281
     0
  0
CLASS
  1
AMDTMENUSTATEMGR
  2
AmdtMenuStateMgr
  3
McadcomServices
 90
        0
 91
        1
280
     0
281
     0
  0
CLASS
  1
AMDTMCOMMENUSTATE
  2
AmdtMcomMenuState
  3
McadcomServices
 90
        0
 91
        1
280
     0
281
     0
  0
CLASS
  1
ASAPP
  2
AcAsAppObject
  3
AutoSurfServices
 90
        0
 91
        1
280
     0
281
     0
  0
CLASS
  1
IM_STATIC_MAN
  2
AcImStaticVarManager
  3
AcMeServices
 90
        0
 91
        1
280
     0
281
     0
  0
CLASS
  1
ACIMDBLSTATICVAR
  2
AcImDblStaticVar
  3
AcMeServices
 90
        0
 91
       20
280
     0
281
     0
  0
CLASS
  1
ACIMSTRSTATICVAR
  2
AcImStrStaticVar
  3
AcMeServices
 90
        0
 91
       12
280
     0
281
     0
  0
CLASS
  1
ACIMINTSTATICVAR
  2
AcImIntStaticVar
  3
AcMeServices
 90
        0
 91
       17
280
     0
281
     0
  0
CLASS
  1
ACASGREFMASTER
  2
AcAsGrefMaster
  3
AutoSurfResolverServices
 90
        0
 91
        1
280
     0
281
     0
  0
CLASS
  1
ACADGREFMODULE
  2
AcAdGrefModule
  3
AdGrefServices
 90
        0
 91
        1
280
     0
281
     0
  0
CLASS
  1
AMDTMAPISURFMOUDULE
  2
AmdtMApiSurfModule
  3
MApiSurfServices
 90
        0
 91
        1
280
     0
281
     0
  0
CLASS
  1
MAPIAMMOUDLE
  2
MApiAmModule
  3
MApiAmServices
 90
        0
 91
        1
280
     0
281
     0
  0
CLASS
  1
AMDTADMENUSTATE
  2
AmdtAdMenuState
  3
DesignerServices
 90
        0
 91
        1
280
     0
281
     0
  0
CLASS
  1
ADAPPL
  2
AcAdAppl
  3
DesignerServices
 90
        0
 91
        1
280
     0
281
     0
  0
CLASS
  1
DEPMGR
  2
AcAdDepMgr
  3
DesignerServices
 90
        0
 91
        1
280
     0
281
     0
  0
CLASS
  1
PARAMMGR
  2
AcAdParamMgr
  3
DesignerServices
 90
        0
 91
        1
280
     0
281
     0
  0
CLASS
  1
PARAMSCOPE
  2
AcAdParamScope
  3
DesignerServices
 90
        0
 91
        1
280
     0
281
     0
  0
CLASS
  1
NAMEDAPPL
  2
AcAdNamedAppl
  3
DesignerServices
 90
        0
 91
        1
280
     0
281
     0
  0
CLASS
  1
AMDTDMMENUSTATE
  2
AmdtDmMenuState
  3
AcMechDwgViewMgmt
 90
        0
 91
        1
280
     0
281
     0
  0
CLASS
  1
MAPIADMODULE
  2
MApiAdModule
  3
MApiAdServices
 90
        0
 91
        1
280
     0
281
     0
  0
CLASS
  1
AMDTAMMENUSTATE
  2
AmdtAmMenuState
  3
DesignerAssemblies
 90
        0
 91
        1
280
     0
281
     0
  0
CLASS
  1
ACAMPROJECT
  2
AcAmProject
  3
DesignerAssemblies
 90
        0
 91
        1
280
     0
281
     0
  0
CLASS
  1
ACAMGRCOMPDEF
  2
AcAmGrCompDef
  3
DesignerAssemblies
 90
        0
 91
        1
280
     0
281
     0
  0
CLASS
  1
ACCMCONTEXT
  2
AcCmContext
  3
DesignerAssemblies
 90
        0
 91
        1
280
     0
281
     0
  0
CLASS
  1
ACAMCOMPDEF
  2
AcAmCompDef
  3
DesignerAssemblies
 90
        0
 91
        1
280
     0
281
     0
  0
CLASS
  1
ACAMCOMPDEFMGR
  2
AcAmCompDefMgr
  3
DesignerAssemblies
 90
        0
 91
        1
280
     0
281
     0
  0
CLASS
  1
AMCONTEXTMGR
  2
AcAmContextMgr
  3
DesignerAssemblies
 90
        0
 91
        1
280
     0
281
     0
  0
CLASS
  1
ACAMCONTEXTMODELER
  2
AcAmContextModeler
  3
DesignerAssemblies
 90
        0
 91
        1
280
     0
281
     0
  0
CLASS
  1
ACMTHREADLINESTANDARDDIN
  2
AmdtThreadLineStdDIN
  3
"Amdt_StdImp|Product Description: AutoCAD Mechanical 2004 DX|Company: Autodesk"
 90
        0
 91
        1
280
     0
281
     0
  0
CLASS
  1
ACMTHREADLINESTANDARDANSI
  2
AmdtThreadLineStdANSI
  3
"Amdt_StdImp|Product Description: AutoCAD Mechanical 2004 DX|Company: Autodesk"
 90
        0
 91
        1
280
     0
281
     0
  0
CLASS
  1
CATALOGSTATE
  2
AcAmCatalogState
  3
DesignerAssemblies
 90
        0
 91
        1
280
     0
281
     0
  0
CLASS
  1
ACAMGRCOMPDEFSET
  2
AcAmGrCompDefSet
  3
DesignerAssemblies
 90
        0
 91
        1
280
     0
281
     0
  0
CLASS
  1
AMDTBROWSERDBTAB
  2
AmdtBrowserDbTab
  3
McadcomServices
 90
        0
 91
        1
280
     0
281
     0
  0
CLASS
  1
CBROWSERAPPOBJECT
  2
CBrowserAppObject
  3
McadcomServices
 90
        0
 91
        3
280
     0
281
     0
  0
CLASS
  1
DM_PLACEHOLDER
  2
AcDmSelsetPlaceholder
  3
AcMechDwgViewMgmt
 90
        0
 91
        1
280
     0
281
     0
  0
ENDSEC
  0
SECTION
  2
TABLES
  0
TABLE
  2
VPORT
  5
8
330
0
100
AcDbSymbolTable
 70
     4
  0
VPORT
  5
3815
330
8
100
AcDbSymbolTableRecord
100
AcDbViewportTableRecord
  2
*Active
 70
     0
 10
0.0
 20
0.0
 11
1.0
 21
1.0
 12
0.0
 22
0.0
 13
0.0
 23
0.0
 14
2.5
 24
2.5
 15
10.0
 25
10.0
 16
0.0
 26
0.0
 36
1.0
 17
-269.715887812631
 27
0.0495964406362077
 37
0.0
 40
361.7931057900071
 41
1.853846153846154
 42
50.0
 43
0.0
 44
0.0
 50
0.0
 51
0.0
 71
     0
 72
   100
 73
     1
 74
     3
 75
     0
 76
     0
 77
     0
 78
     0
281
     0
 65
     0
110
0.0
120
0.0
130
0.0
111
1.0
121
0.0
131
0.0
112
0.0
122
1.0
132
0.0
 79
     0
146
0.0
  0
ENDTAB
  0
TABLE
  2
LTYPE
  5
5
330
0
100
AcDbSymbolTable
 70
    18
  0
LTYPE
  5
14
330
5
100
AcDbSymbolTableRecord
100
AcDbLinetypeTableRecord
  2
ByBlock
 70
     0
  3

 72
    65
 73
     0
 40
0.0
  0
LTYPE
  5
15
330
5
100
AcDbSymbolTableRecord
100
AcDbLinetypeTableRecord
  2
ByLayer
 70
     0
  3

 72
    65
 73
     0
 40
0.0
  0
LTYPE
  5
16
330
5
100
AcDbSymbolTableRecord
100
AcDbLinetypeTableRecord
  2
Continuous
 70
     0
  3
Solid line
 72
    65
 73
     0
 40
0.0
  0
LTYPE
  5
50
330
5
100
AcDbSymbolTableRecord
100
AcDbLinetypeTableRecord
  2
Amconstr
 70
     0
  3
_______________________
 72
    65
 73
     2
 40
9999.0
 49
9999.0
 74
     0
 49
0.0
 74
     0
  0
LTYPE
  5
55
330
5
100
AcDbSymbolTableRecord
100
AcDbLinetypeTableRecord
  2
Amzigzag
 70
     0
  3
/\/-/\/-/\/-/\/-/\/-/\/
 72
    65
 73
     2
 40
11.0001
 49
0.0001
 74
     4
 75
   135
340
54
 46
0.04
 50
0.0
 44
0.0
 45
0.0
 49
-11.0
 74
     0
  0
LTYPE
  5
56
330
5
100
AcDbSymbolTableRecord
100
AcDbLinetypeTableRecord
  2
AM_DIN_F_W050
 70
     0
  3
__ __ __ __ __ __ __ __ __ __ __ __ __ __ __
 72
    65
 73
     2
 40
6.25
 49
4.75
 74
     0
 49
-1.5
 74
     0
  0
LTYPE
  5
57
330
5
100
AcDbSymbolTableRecord
100
AcDbLinetypeTableRecord
  2
AM_DIN_G_W050
 70
     0
  3
____ . ____ . ____ . ____ . ____ . ____ . ____
 72
    65
 73
     4
 40
13.75
 49
9.75
 74
     0
 49
-1.5
 74
     0
 49
1.0
 74
     0
 49
-1.5
 74
     0
  0
LTYPE
  5
58
330
5
100
AcDbSymbolTableRecord
100
AcDbLinetypeTableRecord
  2
AM_DIN_K_W050
 70
     0
  3
_____ . . _____ . . _____ . . ____ .. ____
 72
    65
 73
     6
 40
16.25
 49
9.75
 74
     0
 49
-1.5
 74
     0
 49
1.0
 74
     0
 49
-1.5
 74
     0
 49
1.0
 74
     0
 49
-1.5
 74
     0
  0
LTYPE
  5
59
330
5
100
AcDbSymbolTableRecord
100
AcDbLinetypeTableRecord
  2
AM_DIN_G_W050x2
 70
     0
  3
__ . __ . __ . __ . __ . __
 72
    65
 73
     4
 40
6.875
 49
4.75
 74
     0
 49
-0.875
 74
     0
 49
0.375
 74
     0
 49
-0.875
 74
     0
  0
LTYPE
  5
5A
330
5
100
AcDbSymbolTableRecord
100
AcDbLinetypeTableRecord
  2
AM_DIN_F_W050x2
 70
     0
  3
 _ _ _ _ _ _ _ _ _ _ _ _
 72
    65
 73
     2
 40
3.125
 49
2.25
 74
     0
 49
-0.875
 74
     0
  0
LTYPE
  5
68
330
5
100
AcDbSymbolTableRecord
100
AcDbLinetypeTableRecord
  2
ACDINWELD
 70
     0
  3
_ _ _ _ _
 72
    65
 73
     2
 40
2.0
 49
2.0
 74
     0
 49
-1.0
 74
     0
  0
LTYPE
  5
69
330
5
100
AcDbSymbolTableRecord
100
AcDbLinetypeTableRecord
  2
ACDINTGB
 70
     0
  3
__ . . __ . .
 72
    65
 73
     6
 40
9.0
 49
4.0
 74
     0
 49
-1.0
 74
     0
 49
1.0
 74
     0
 49
-1.0
 74
     0
 49
1.0
 74
     0
 49
-1.0
 74
     0
  0
LTYPE
  5
6A
330
5
100
AcDbSymbolTableRecord
100
AcDbLinetypeTableRecord
  2
ACDINTGL
 70
     0
  3
_ _ _ _ _
 72
    65
 73
     2
 40
3.0
 49
2.0
 74
     0
 49
-1.0
 74
     0
  0
LTYPE
  5
6C
330
5
100
AcDbSymbolTableRecord
100
AcDbLinetypeTableRecord
  2
CENTER
 70
     0
  3
__ . __
 72
    65
 73
     4
 40
7.0
 49
4.0
 74
     0
 49
-1.0
 74
     0
 49
1.0
 74
     0
 49
-1.0
 74
     0
  0
LTYPE
  5
33D
330
5
100
AcDbSymbolTableRecord
100
AcDbLinetypeTableRecord
  2
PHANTOM2
 70
     0
  3
Phantom (.5x) ___ _ _ ___ _ _ ___ _ _ ___ _ _
 72
    65
 73
     6
 40
1.25
 49
0.625
 74
     0
 49
-0.125
 74
     0
 49
0.125
 74
     0
 49
-0.125
 74
     0
 49
0.125
 74
     0
 49
-0.125
 74
     0
  0
LTYPE
  5
341
330
5
100
AcDbSymbolTableRecord
100
AcDbLinetypeTableRecord
  2
ACANSTGB
 70
     0
  3
__ . . __ . .
 72
    65
 73
     6
 40
0.35433070866
 49
0.15748031496
 74
     0
 49
-0.03937007874
 74
     0
 49
0.03937007874
 74
     0
 49
-0.03937007874
 74
     0
 49
0.03937007874
 74
     0
 49
-0.03937007874
 74
     0
  0
LTYPE
  5
342
330
5
100
AcDbSymbolTableRecord
100
AcDbLinetypeTableRecord
  2
ACANSTGL
 70
     0
  3
_ _ _ _ _
 72
    65
 73
     2
 40
0.11811023622
 49
0.07874015748
 74
     0
 49
-0.03937007874
 74
     0
  0
LTYPE
  5
3772
330
5
100
AcDbSymbolTableRecord
100
AcDbLinetypeTableRecord
  2
HIDDEN
 70
     0
  3
Verdeckt
 72
    65
 73
     2
 40
9.525
 49
6.349999999999999
 74
     0
 49
-3.174999999999999
 74
     0
  0
LTYPE
  5
37D1
330
5
100
AcDbSymbolTableRecord
100
AcDbLinetypeTableRecord
  2
ASULTYPE
 70
     0
  3
Ausgezogene Linie
 72
    65
 73
     2
 40
3.0
 49
2.5
 74
     0
 49
0.5
 74
     0
  0
LTYPE
  5
37D2
330
5
100
AcDbSymbolTableRecord
100
AcDbLinetypeTableRecord
  2
ASVLTYPE
 70
     0
  3
__ __ __ __ __ __ __ __ __ __ __ __ __ __ __ __ __ __ __ __ __
 72
    65
 73
     2
 40
0.75
 49
0.5
 74
     0
 49
-0.25
 74
     0
  0
ENDTAB
  0
TABLE
  2
LAYER
  5
2
330
0
100
AcDbSymbolTable
 70
     2
  0
LAYER
  5
10
330
2
100
AcDbSymbolTableRecord
100
AcDbLayerTableRecord
  2
0
 70
     0
 62
     7
  6
Continuous
370
    -3
390
F
  0
LAYER
  5
36E4
330
2
100
AcDbSymbolTableRecord
100
AcDbLayerTableRecord
  2
AM_5
 70
     0
 62
     3
  6
Continuous
370
    25
390
F
  0
ENDTAB
  0
TABLE
  2
STYLE
  5
3
330
0
100
AcDbSymbolTable
 70
     6
  0
STYLE
  5
11
330
3
100
AcDbSymbolTableRecord
100
AcDbTextStyleTableRecord
  2
STANDARD
 70
     0
 40
0.0
 41
1.0
 50
0.0
 71
     0
 42
2.5
  3
ISOCP.SHX
  4

  0
STYLE
  5
54
330
3
100
AcDbSymbolTableRecord
100
AcDbTextStyleTableRecord
  2

 70
     1
 40
0.0
 41
1.0
 50
0.0
 71
     0
 42
2.5
  3
ltypeshp.shx
  4

  0
STYLE
  5
5B
330
3
100
AcDbSymbolTableRecord
100
AcDbTextStyleTableRecord
  2
ACDINTS
 70
     0
 40
1.0
 41
1.0
 50
0.0
 71
     0
 42
2.5
  3
isocp.shx
  4

  0
STYLE
  5
67
330
3
100
AcDbSymbolTableRecord
100
AcDbTextStyleTableRecord
  2
ACDINGDT
 70
     0
 40
0.0
 41
1.0
 50
0.0
 71
     0
 42
2.5
  3
amgdt.shx
  4

  0
STYLE
  5
343
330
3
100
AcDbSymbolTableRecord
100
AcDbTextStyleTableRecord
  2
ACANSTS
 70
     0
 40
1.0
 41
1.0
 50
0.0
 71
     0
 42
0.2
  3
romans.shx
  4

  0
STYLE
  5
344
330
3
100
AcDbSymbolTableRecord
100
AcDbTextStyleTableRecord
  2
ACANSGDT
 70
     0
 40
0.0
 41
1.0
 50
0.0
 71
     0
 42
0.2
  3
amgdtans.shx
  4

  0
ENDTAB
  0
TABLE
  2
VIEW
  5
6
330
0
100
AcDbSymbolTable
 70
     0
  0
ENDTAB
  0
TABLE
  2
UCS
  5
7
330
0
100
AcDbSymbolTable
 70
     0
  0
ENDTAB
  0
TABLE
  2
APPID
  5
9
330
0
100
AcDbSymbolTable
 70
    14
  0
APPID
  5
12
330
9
100
AcDbSymbolTableRecord
100
AcDbRegAppTableRecord
  2
ACAD
 70
     0
  0
APPID
  5
2C
330
9
100
AcDbSymbolTableRecord
100
AcDbRegAppTableRecord
  2
MCAD_NO_VIS
 70
     0
  0
APPID
  5
2D
330
9
100
AcDbSymbolTableRecord
100
AcDbRegAppTableRecord
  2
ACAD_TEMP_GRAPHIC
 70
     0
  0
APPID
  5
3E
330
9
100
AcDbSymbolTableRecord
100
AcDbRegAppTableRecord
  2
ACATTRIBSERVICES
 70
     0
  0
APPID
  5
36D0
330
9
100
AcDbSymbolTableRecord
100
AcDbRegAppTableRecord
  2
DCO15
 70
     0
  0
APPID
  5
375C
330
9
100
AcDbSymbolTableRecord
100
AcDbRegAppTableRecord
  2
GENIUS_GENDIM_13
 70
     0
  0
APPID
  5
375D
330
9
100
AcDbSymbolTableRecord
100
AcDbRegAppTableRecord
  2
GENIUS_GENDTOL_13
 70
     0
  0
APPID
  5
375E
330
9
100
AcDbSymbolTableRecord
100
AcDbRegAppTableRecord
  2
GENIUS_GE3DTOL_13
 70
     0
  0
APPID
  5
3787
330
9
100
AcDbSymbolTableRecord
100
AcDbRegAppTableRecord
  2
AD_DRAW
 70
     0
  0
APPID
  5
37D3
330
9
100
AcDbSymbolTableRecord
100
AcDbRegAppTableRecord
  2
ASURF_PCURVE_APPNAME
 70
     0
  0
APPID
  5
37D8
330
9
100
AcDbSymbolTableRecord
100
AcDbRegAppTableRecord
  2
AMG_3D2D_5.0
 70
     0
  0
APPID
  5
3807
330
9
100
AcDbSymbolTableRecord
100
AcDbRegAppTableRecord
  2
DESIGNERASSEMBLIES
 70
     0
  0
APPID
  5
380D
330
9
100
AcDbSymbolTableRecord
100
AcDbRegAppTableRecord
  2
ACADM_DIM_EDIT
 70
     0
  0
APPID
  5
380E
330
9
100
AcDbSymbolTableRecord
100
AcDbRegAppTableRecord
  2
AMDT_DM_ADJ
 70
     0
  0
ENDTAB
  0
TABLE
  2
DIMSTYLE
  5
A
330
0
100
AcDbSymbolTable
 70
    14
100
AcDbDimStyleTable
 71
     1
340
6F
  0
DIMSTYLE
105
6F
330
A
100
AcDbSymbolTableRecord
100
AcDbDimStyleTableRecord
  2
AM_DIN
 70
     0
  4
"
 41
2.5
 42
1.0
 43
10.0
 44
1.0
 47
0.1
 48
0.1
 73
     0
 74
     0
 77
     1
 78
     8
 79
     2
140
3.5
141
0.0
143
0.0393701
146
0.71
147
1.5
172
     1
176
   256
177
   256
178
     2
271
     2
272
     3
274
     4
283
     0
284
     8
340
11
371
    -1
372
    -1
  0
DIMSTYLE
105
70
330
A
100
AcDbSymbolTableRecord
100
AcDbDimStyleTableRecord
  2
AM_DIN$3
 70
     0
  4
"
 41
2.5
 42
1.0
 43
10.0
 44
1.0
 47
0.1
 48
0.1
 73
     0
 77
     1
 78
     8
 79
     2
140
3.5
141
0.0
143
0.0393701
146
0.71
147
1.5
176
   256
177
   256
178
     2
271
     2
272
     3
274
     4
283
     0
284
     8
288
     1
289
     0
340
11
371
    -1
372
    -1
  0
DIMSTYLE
105
71
330
A
100
AcDbSymbolTableRecord
100
AcDbDimStyleTableRecord
  2
AM_DIN$4
 70
     0
  4
"
 41
2.5
 42
1.0
 43
10.0
 44
1.0
 47
0.1
 48
0.1
 73
     0
 77
     1
 78
     8
 79
     2
140
3.5
141
0.0
143
0.0393701
146
0.71
147
1.5
176
   256
177
   256
178
     2
271
     2
272
     3
274
     4
283
     0
284
     8
288
     1
289
     0
340
11
371
    -1
372
    -1
  0
DIMSTYLE
105
72
330
A
100
AcDbSymbolTableRecord
100
AcDbDimStyleTableRecord
  2
AM_DIN$6
 70
     0
  4
"
 41
2.5
 42
1.0
 43
10.0
 44
1.0
 47
0.1
 48
0.1
 73
     0
 74
     0
 78
     8
 79
     2
140
3.5
141
0.0
143
0.0393701
146
0.71
147
1.5
172
     1
176
   256
177
   256
178
     2
271
     2
272
     3
274
     4
283
     0
284
     8
340
11
371
    -1
372
    -1
  0
DIMSTYLE
105
73
330
A
100
AcDbSymbolTableRecord
100
AcDbDimStyleTableRecord
  2
AM_DIN$7
 70
     0
  4
"
 41
2.5
 42
1.0
 43
10.0
 44
1.0
 47
0.1
 48
0.1
 73
     0
 74
     0
 77
     1
 78
     8
 79
     2
140
5.0
141
0.0
143
0.0393701
146
0.71
147
1.5
172
     1
176
   256
177
   256
178
     2
271
     2
272
     3
274
     4
283
     0
284
     8
340
11
371
    -1
372
    -1
  0
DIMSTYLE
105
74
330
A
100
AcDbSymbolTableRecord
100
AcDbDimStyleTableRecord
  2
AM_DIN$SF
 70
     0
  4
"
 41
2.5
 42
1.0
 43
10.0
 44
1.0
 47
0.1
 48
0.1
 73
     0
 74
     0
 75
     1
 76
     1
 77
     1
 78
     8
 79
     2
140
3.5
141
0.0
143
0.0393701
146
0.71
147
1.5
172
     1
176
   256
177
   256
178
     2
271
     2
272
     3
274
     4
283
     0
284
     8
340
11
371
    -1
372
    -1
  0
DIMSTYLE
105
79
330
A
100
AcDbSymbolTableRecord
100
AcDbDimStyleTableRecord
  2
AM_DIN$SH
 70
     0
  4
"
 41
2.5
 42
1.0
 43
10.0
 44
1.0
 47
0.1
 48
0.1
 73
     0
 74
     0
 75
     1
 76
     1
 77
     1
 78
     8
 79
     2
140
3.5
141
0.0
143
0.0393701
144
2.0
146
0.71
147
1.5
172
     1
173
     1
176
   256
177
   256
178
     2
271
     2
272
     3
274
     4
283
     0
284
     8
340
11
343
75
371
    -1
372
    -1
  0
DIMSTYLE
105
92
330
A
100
AcDbSymbolTableRecord
100
AcDbDimStyleTableRecord
  2
STANDARD
 70
     0
279
     2
340
11
  0
DIMSTYLE
105
345
330
A
100
AcDbSymbolTableRecord
100
AcDbDimStyleTableRecord
  2
AM_ANSI
 70
     0
  4
mm
 41
0.1
 42
0.05
 43
0.5
 44
0.1
 47
0.1
 48
0.1
 78
     7
 79
     2
140
0.12
141
0.0
146
0.71
147
0.06
176
   256
177
   256
178
     2
274
     4
284
     7
340
11
371
    -1
372
    -1
  0
DIMSTYLE
105
346
330
A
100
AcDbSymbolTableRecord
100
AcDbDimStyleTableRecord
  2
AM_ANSI$3
 70
     0
  4
mm
 41
0.1
 42
0.05
 43
0.5
 44
0.1
 47
0.1
 48
0.1
 78
     7
 79
     2
140
0.12
141
0.0
146
0.71
147
0.06
176
   256
177
   256
178
     2
274
     4
284
     7
288
     1
289
     0
340
11
371
    -1
372
    -1
  0
DIMSTYLE
105
347
330
A
100
AcDbSymbolTableRecord
100
AcDbDimStyleTableRecord
  2
AM_ANSI$4
 70
     0
  4
mm
 41
0.1
 42
0.05
 43
0.5
 44
0.1
 47
0.1
 48
0.1
 78
     7
 79
     2
140
0.12
141
0.0
146
0.71
147
0.06
176
   256
177
   256
178
     2
274
     4
284
     7
288
     1
289
     0
340
11
371
    -1
372
    -1
  0
DIMSTYLE
105
348
330
A
100
AcDbSymbolTableRecord
100
AcDbDimStyleTableRecord
  2
AM_ANSI$7
 70
     0
  4
mm
 41
0.1
 42
0.05
 43
0.5
 44
0.1
 47
0.1
 48
0.1
 78
     7
 79
     2
140
0.24
141
0.0
146
0.71
147
0.06
176
   256
177
   256
178
     2
274
     4
284
     7
340
11
371
    -1
372
    -1
  0
DIMSTYLE
105
349
330
A
100
AcDbSymbolTableRecord
100
AcDbDimStyleTableRecord
  2
AM_ANSI$SF
 70
     0
  4
mm
 41
0.1
 42
0.05
 43
0.5
 44
0.1
 47
0.1
 48
0.1
 75
     1
 76
     1
 78
     7
 79
     2
140
0.12
141
0.0
146
0.71
147
0.06
176
   256
177
   256
178
     2
274
     4
284
     7
340
11
371
    -1
372
    -1
  0
DIMSTYLE
105
34A
330
A
100
AcDbSymbolTableRecord
100
AcDbDimStyleTableRecord
  2
AM_ANSI$SH
 70
     0
  4
mm
 41
0.1
 42
0.05
 43
0.5
 44
0.1
 47
0.1
 48
0.1
 75
     1
 76
     1
 78
     7
 79
     2
140
0.12
141
0.0
146
0.71
147
0.06
173
     1
176
   256
177
   256
178
     2
274
     4
284
     7
340
11
343
75
371
    -1
372
    -1
  0
ENDTAB
  0
TABLE
  2
BLOCK_RECORD
  5
1
330
0
100
AcDbSymbolTable
 70
     3
  0
BLOCK_RECORD
  5
1F
102
{ACAD_XDICTIONARY
360
81
102
}
330
1
100
AcDbSymbolTableRecord
100
AcDbBlockTableRecord
  2
*Model_Space
340
22
  0
BLOCK_RECORD
  5
1B
330
1
100
AcDbSymbolTableRecord
100
AcDbBlockTableRecord
  2
*Paper_Space
340
1E
  0
BLOCK_RECORD
  5
23
330
1
100
AcDbSymbolTableRecord
100
AcDbBlockTableRecord
  2
*Paper_Space0
340
26
  0
BLOCK_RECORD
  5
75
330
1
100
AcDbSymbolTableRecord
100
AcDbBlockTableRecord
  2
GENAXEH
340
0
  0
BLOCK_RECORD
  5
37FE
330
1
100
AcDbSymbolTableRecord
100
AcDbBlockTableRecord
  2
*U2
340
0
  0
ENDTAB
  0
ENDSEC
  0
SECTION
  2
BLOCKS
  0
BLOCK
  5
20
330
1F
100
AcDbEntity
  8
0
100
AcDbBlockBegin
  2
*Model_Space
 70
     0
 10
0.0
 20
0.0
 30
0.0
  3
*Model_Space
  1

  0
ENDBLK
  5
21
330
1F
100
AcDbEntity
  8
0
100
AcDbBlockEnd
  0
BLOCK
  5
1C
330
1B
100
AcDbEntity
 67
     1
  8
0
100
AcDbBlockBegin
  2
*Paper_Space
 70
     0
 10
0.0
 20
0.0
 30
0.0
  3
*Paper_Space
  1

  0
ENDBLK
  5
1D
330
1B
100
AcDbEntity
 67
     1
  8
0
100
AcDbBlockEnd
  0
BLOCK
  5
24
330
23
100
AcDbEntity
  8
0
100
AcDbBlockBegin
  2
*Paper_Space0
 70
     0
 10
0.0
 20
0.0
 30
0.0
  3
*Paper_Space0
  1

  0
ENDBLK
  5
25
330
23
100
AcDbEntity
  8
0
100
AcDbBlockEnd
  0
BLOCK
  5
77
330
75
100
AcDbEntity
  8
0
100
AcDbBlockBegin
  2
GENAXEH
 70
     0
 10
0.0
 20
0.0
 30
0.0
  3
GENAXEH
  1

  0
LINE
  5
76
330
75
100
AcDbEntity
  8
0
100
AcDbLine
 10
-1.0
 20
0.0
 30
0.0
 11
1.0
 21
0.0
 31
0.0
  0
ENDBLK
  5
78
330
75
100
AcDbEntity
  8
0
100
AcDbBlockEnd
  0
BLOCK
  5
37FF
330
37FE
100
AcDbEntity
  8
0
100
AcDbBlockBegin
  2
*U2
 70
     1
 10
0.0
 20
0.0
 30
0.0
  3
*U2
  1

  0
ENDBLK
  5
3800
330
37FE
100
AcDbEntity
  8
0
100
AcDbBlockEnd
  0
ENDSEC
  0
SECTION
  2
ENTITIES
  0
LINE
  5
35EC
330
1F
100
AcDbEntity
  8
0
100
AcDbLine
 10
-246.8485669616901
 20
129.7007274548877
 30
0.0
 11
-210.619561466165
 21
94.78862215068659
 31
0.0
  0
LINE
  5
35EF
330
1F
100
AcDbEntity
  8
0
100
AcDbLine
 10
-262.9721067459523
 20
132.4999999999999
 30
0.0
 11
-289.0101319999999
 21
82.3536742458079
 31
0.0
  0
LINE
  5
35F0
330
1F
100
AcDbEntity
  8
0
100
AcDbLine
 10
-484.6946792860542
 20
132.173956750956
 30
0.0
 11
-440.8516229999999
 21
82.3536742458079
 31
0.0
  0
LINE
  5
35F2
330
1F
100
AcDbEntity
  8
0
100
AcDbLine
 10
-268.7648009999999
 20
-48.94783624580799
 30
0.0
 11
-344.6852419999998
 21
-48.94783624580799
 31
0.0
  0
LINE
  5
35F3
330
1F
100
AcDbEntity
  8
0
100
AcDbLine
 10
-262.9721067459524
 20
-132.5
 30
0.0
 11
-289.0101319999999
 21
-82.35367424580795
 31
0.0
  0
LINE
  5
35F5
330
1F
100
AcDbEntity
  8
0
100
AcDbLine
 10
-268.7648009999999
 20
48.94783624580792
 30
0.0
 11
-344.6852419999998
 21
48.94783624580792
 31
0.0
  0
POLYLINE
  5
35F7
330
1F
100
AcDbEntity
  8
0
100
AcDb2dPolyline
 66
     1
 10
0.0
 20
0.0
 30
0.0
  0
VERTEX
  5
35F8
330
35F7
100
AcDbEntity
  8
0
100
AcDbVertex
100
AcDb2dVertex
 10
-344.6852419999999
 20
-48.94783624580799
 30
0.0
  0
VERTEX
  5
35F9
330
35F7
100
AcDbEntity
  8
0
100
AcDbVertex
100
AcDb2dVertex
 10
-344.7886269999999
 20
-48.95314624580801
 30
0.0
  0
VERTEX
  5
35FA
330
35F7
100
AcDbEntity
  8
0
100
AcDbVertex
100
AcDb2dVertex
 10
-345.087127
 20
-48.95999724580799
 30
0.0
  0
VERTEX
  5
35FB
330
35F7
100
AcDbEntity
  8
0
100
AcDbVertex
100
AcDb2dVertex
 10
-345.5632929999999
 20
-48.95468724580798
 30
0.0
  0
VERTEX
  5
35FC
330
35F7
100
AcDbEntity
  8
0
100
AcDbVertex
100
AcDb2dVertex
 10
-346.1996529999999
 20
-48.92357424580797
 30
0.0
  0
VERTEX
  5
35FD
330
35F7
100
AcDbEntity
  8
0
100
AcDbVertex
100
AcDb2dVertex
 10
-346.978752
 20
-48.85298724580799
 30
0.0
  0
VERTEX
  5
35FE
330
35F7
100
AcDbEntity
  8
0
100
AcDbVertex
100
AcDb2dVertex
 10
-347.883117
 20
-48.72925424580802
 30
0.0
  0
VERTEX
  5
35FF
330
35F7
100
AcDbEntity
  8
0
100
AcDbVertex
100
AcDb2dVertex
 10
-348.8952939999999
 20
-48.538702245808
 30
0.0
  0
VERTEX
  5
3600
330
35F7
100
AcDbEntity
  8
0
100
AcDbVertex
100
AcDb2dVertex
 10
-349.9978179999999
 20
-48.267675245808
 30
0.0
  0
VERTEX
  5
3601
330
35F7
100
AcDbEntity
  8
0
100
AcDbVertex
100
AcDb2dVertex
 10
-351.173233
 20
-47.90250224580803
 30
0.0
  0
VERTEX
  5
3602
330
35F7
100
AcDbEntity
  8
0
100
AcDbVertex
100
AcDb2dVertex
 10
-352.40406
 20
-47.429510245808
 30
0.0
  0
VERTEX
  5
3603
330
35F7
100
AcDbEntity
  8
0
100
AcDbVertex
100
AcDb2dVertex
 10
-353.6728509999999
 20
-46.83504324580798
 30
0.0
  0
VERTEX
  5
3604
330
35F7
100
AcDbEntity
  8
0
100
AcDbVertex
100
AcDb2dVertex
 10
-354.962135
 20
-46.10542924580801
 30
0.0
  0
VERTEX
  5
3605
330
35F7
100
AcDbEntity
  8
0
100
AcDbVertex
100
AcDb2dVertex
 10
-356.254455
 20
-45.22699524580799
 30
0.0
  0
VERTEX
  5
3606
330
35F7
100
AcDbEntity
  8
0
100
AcDbVertex
100
AcDb2dVertex
 10
-357.5323409999999
 20
-44.18607124580803
 30
0.0
  0
VERTEX
  5
3607
330
35F7
100
AcDbEntity
  8
0
100
AcDbVertex
100
AcDb2dVertex
 10
-358.778335
 20
-42.96901524580801
 30
0.0
  0
VERTEX
  5
3608
330
35F7
100
AcDbEntity
  8
0
100
AcDbVertex
100
AcDb2dVertex
 10
-359.9749829999999
 20
-41.56212424580798
 30
0.0
  0
VERTEX
  5
3609
330
35F7
100
AcDbEntity
  8
0
100
AcDbVertex
100
AcDb2dVertex
 10
-361.1048119999999
 20
-39.95175724580799
 30
0.0
  0
VERTEX
  5
360A
330
35F7
100
AcDbEntity
  8
0
100
AcDbVertex
100
AcDb2dVertex
 10
-362.1503599999999
 20
-38.12424324580798
 30
0.0
  0
VERTEX
  5
360B
330
35F7
100
AcDbEntity
  8
0
100
AcDbVertex
100
AcDb2dVertex
 10
-363.0941619999999
 20
-36.06590824580798
 30
0.0
  0
VERTEX
  5
360C
330
35F7
100
AcDbEntity
  8
0
100
AcDbVertex
100
AcDb2dVertex
 10
-363.9187619999999
 20
-33.763083245808
 30
0.0
  0
SEQEND
  5
360D
330
35F7
100
AcDbEntity
  8
0
  0
LINE
  5
360F
330
1F
100
AcDbEntity
  8
0
100
AcDbLine
 10
-483.8808996296725
 20
-131.2492326141768
 30
0.0
 11
-440.8516229999999
 21
-82.35367424580795
 31
0.0
  0
LINE
  5
3614
330
1F
100
AcDbEntity
  8
0
100
AcDbLine
 10
-534.9996657203604
 20
-79.79751912531923
 30
0.0
 11
-463.1217879999999
 21
-41.86241724580799
 31
0.0
  0
LINE
  5
3618
330
1F
100
AcDbEntity
  8
0
100
AcDbLine
 10
-534.9487895516424
 20
79.77066812881277
 30
0.0
 11
-463.1217879999999
 21
41.86241724580792
 31
0.0
  0
POLYLINE
  5
361B
330
1F
100
AcDbEntity
  8
0
100
AcDb2dPolyline
 66
     1
 10
0.0
 20
0.0
 30
0.0
  0
VERTEX
  5
361C
330
361B
100
AcDbEntity
  8
0
100
AcDbVertex
100
AcDb2dVertex
 10
-344.6852419999999
 20
48.94783624580792
 30
0.0
  0
VERTEX
  5
361D
330
361B
100
AcDbEntity
  8
0
100
AcDbVertex
100
AcDb2dVertex
 10
-344.7886269999999
 20
48.95314624580794
 30
0.0
  0
VERTEX
  5
361E
330
361B
100
AcDbEntity
  8
0
100
AcDbVertex
100
AcDb2dVertex
 10
-345.087127
 20
48.95999724580786
 30
0.0
  0
VERTEX
  5
361F
330
361B
100
AcDbEntity
  8
0
100
AcDbVertex
100
AcDb2dVertex
 10
-345.5632929999999
 20
48.95468724580785
 30
0.0
  0
VERTEX
  5
3620
330
361B
100
AcDbEntity
  8
0
100
AcDbVertex
100
AcDb2dVertex
 10
-346.1996529999999
 20
48.9235742458079
 30
0.0
  0
VERTEX
  5
3621
330
361B
100
AcDbEntity
  8
0
100
AcDbVertex
100
AcDb2dVertex
 10
-346.978752
 20
48.85298724580792
 30
0.0
  0
VERTEX
  5
3622
330
361B
100
AcDbEntity
  8
0
100
AcDbVertex
100
AcDb2dVertex
 10
-347.883117
 20
48.7292542458079
 30
0.0
  0
VERTEX
  5
3623
330
361B
100
AcDbEntity
  8
0
100
AcDbVertex
100
AcDb2dVertex
 10
-348.8952939999999
 20
48.53870224580793
 30
0.0
  0
VERTEX
  5
3624
330
361B
100
AcDbEntity
  8
0
100
AcDbVertex
100
AcDb2dVertex
 10
-349.9978179999999
 20
48.26767524580793
 30
0.0
  0
VERTEX
  5
3625
330
361B
100
AcDbEntity
  8
0
100
AcDbVertex
100
AcDb2dVertex
 10
-351.173233
 20
47.90250224580796
 30
0.0
  0
VERTEX
  5
3626
330
361B
100
AcDbEntity
  8
0
100
AcDbVertex
100
AcDb2dVertex
 10
-352.40406
 20
47.42951024580786
 30
0.0
  0
VERTEX
  5
3627
330
361B
100
AcDbEntity
  8
0
100
AcDbVertex
100
AcDb2dVertex
 10
-353.6728509999999
 20
46.83504324580786
 30
0.0
  0
VERTEX
  5
3628
330
361B
100
AcDbEntity
  8
0
100
AcDbVertex
100
AcDb2dVertex
 10
-354.962135
 20
46.10542924580789
 30
0.0
  0
VERTEX
  5
3629
330
361B
100
AcDbEntity
  8
0
100
AcDbVertex
100
AcDb2dVertex
 10
-356.254455
 20
45.22699524580792
 30
0.0
  0
VERTEX
  5
362A
330
361B
100
AcDbEntity
  8
0
100
AcDbVertex
100
AcDb2dVertex
 10
-357.5323409999999
 20
44.1860712458079
 30
0.0
  0
VERTEX
  5
362B
330
361B
100
AcDbEntity
  8
0
100
AcDbVertex
100
AcDb2dVertex
 10
-358.778335
 20
42.96901524580794
 30
0.0
  0
VERTEX
  5
362C
330
361B
100
AcDbEntity
  8
0
100
AcDbVertex
100
AcDb2dVertex
 10
-359.9749829999999
 20
41.56212424580791
 30
0.0
  0
VERTEX
  5
362D
330
361B
100
AcDbEntity
  8
0
100
AcDbVertex
100
AcDb2dVertex
 10
-361.1048119999999
 20
39.95175724580792
 30
0.0
  0
VERTEX
  5
362E
330
361B
100
AcDbEntity
  8
0
100
AcDbVertex
100
AcDb2dVertex
 10
-362.1503599999999
 20
38.12424324580791
 30
0.0
  0
VERTEX
  5
362F
330
361B
100
AcDbEntity
  8
0
100
AcDbVertex
100
AcDb2dVertex
 10
-363.0941619999999
 20
36.06590824580786
 30
0.0
  0
VERTEX
  5
3630
330
361B
100
AcDbEntity
  8
0
100
AcDbVertex
100
AcDb2dVertex
 10
-363.9187619999999
 20
33.76308324580787
 30
0.0
  0
SEQEND
  5
3631
330
361B
100
AcDbEntity
  8
0
  0
POLYLINE
  5
3632
330
1F
100
AcDbEntity
  8
0
100
AcDb2dPolyline
 66
     1
 10
0.0
 20
0.0
 30
0.0
  0
VERTEX
  5
3633
330
3632
100
AcDbEntity
  8
0
100
AcDbVertex
100
AcDb2dVertex
 10
-368.8535451117714
 20
-0.0000000000000639
 30
0.0
  0
VERTEX
  5
3634
330
3632
100
AcDbEntity
  8
0
100
AcDbVertex
100
AcDb2dVertex
 10
-368.829338
 20
3.333731245807875
 30
0.0
  0
VERTEX
  5
3635
330
3632
100
AcDbEntity
  8
0
100
AcDbVertex
100
AcDb2dVertex
 10
-368.6163789999999
 20
7.618582245807878
 30
0.0
  0
VERTEX
  5
3636
330
3632
100
AcDbEntity
  8
0
100
AcDbVertex
100
AcDb2dVertex
 10
-368.194633
 20
12.15776624580791
 30
0.0
  0
VERTEX
  5
3637
330
3632
100
AcDbEntity
  8
0
100
AcDbVertex
100
AcDb2dVertex
 10
-367.5390549999999
 20
16.94597424580791
 30
0.0
  0
VERTEX
  5
3638
330
3632
100
AcDbEntity
  8
0
100
AcDbVertex
100
AcDb2dVertex
 10
-366.6245879999999
 20
21.97789624580792
 30
0.0
  0
VERTEX
  5
3639
330
3632
100
AcDbEntity
  8
0
100
AcDbVertex
100
AcDb2dVertex
 10
-365.4261779999999
 20
27.24819024580796
 30
0.0
  0
VERTEX
  5
363A
330
3632
100
AcDbEntity
  8
0
100
AcDbVertex
100
AcDb2dVertex
 10
-363.9187619999999
 20
32.75157724580793
 30
0.0
  0
SEQEND
  5
363B
330
3632
100
AcDbEntity
  8
0
  0
POLYLINE
  5
363C
330
1F
100
AcDbEntity
  8
0
100
AcDb2dPolyline
 66
     1
 10
0.0
 20
0.0
 30
0.0
  0
VERTEX
  5
363D
330
363C
100
AcDbEntity
  8
0
100
AcDbVertex
100
AcDb2dVertex
 10
-368.8535451117714
 20
-0.0000000000000639
 30
0.0
  0
VERTEX
  5
363E
330
363C
100
AcDbEntity
  8
0
100
AcDbVertex
100
AcDb2dVertex
 10
-368.829338
 20
-3.333731245808003
 30
0.0
  0
VERTEX
  5
363F
330
363C
100
AcDbEntity
  8
0
100
AcDbVertex
100
AcDb2dVertex
 10
-368.6163789999999
 20
-7.618582245808006
 30
0.0
  0
VERTEX
  5
3640
330
363C
100
AcDbEntity
  8
0
100
AcDbVertex
100
AcDb2dVertex
 10
-368.194633
 20
-12.15776624580798
 30
0.0
  0
VERTEX
  5
3641
330
363C
100
AcDbEntity
  8
0
100
AcDbVertex
100
AcDb2dVertex
 10
-367.5390549999999
 20
-16.94597424580798
 30
0.0
  0
VERTEX
  5
3642
330
363C
100
AcDbEntity
  8
0
100
AcDbVertex
100
AcDb2dVertex
 10
-366.6245879999999
 20
-21.97789624580799
 30
0.0
  0
VERTEX
  5
3643
330
363C
100
AcDbEntity
  8
0
100
AcDbVertex
100
AcDb2dVertex
 10
-365.4261779999999
 20
-27.24819024580803
 30
0.0
  0
VERTEX
  5
3644
330
363C
100
AcDbEntity
  8
0
100
AcDbVertex
100
AcDb2dVertex
 10
-363.9187619999999
 20
-32.751577245808
 30
0.0
  0
SEQEND
  5
3645
330
363C
100
AcDbEntity
  8
0
  0
POLYLINE
  5
3648
330
1F
100
AcDbEntity
  8
0
100
AcDb2dPolyline
 66
     1
 10
0.0
 20
0.0
 30
0.0
  0
VERTEX
  5
3649
330
3648
100
AcDbEntity
  8
0
100
AcDbVertex
100
AcDb2dVertex
 10
-270.7890319999999
 20
-61.09503724580799
 30
0.0
  0
VERTEX
  5
364A
330
3648
100
AcDbEntity
  8
0
100
AcDbVertex
100
AcDb2dVertex
 10
-270.601379
 20
-60.71239324580797
 30
0.0
  0
VERTEX
  5
364B
330
3648
100
AcDbEntity
  8
0
100
AcDbVertex
100
AcDb2dVertex
 10
-270.0774079999999
 20
-59.58270824580797
 30
0.0
  0
VERTEX
  5
364C
330
3648
100
AcDbEntity
  8
0
100
AcDbVertex
100
AcDb2dVertex
 10
-269.275574
 20
-57.73328224580797
 30
0.0
  0
VERTEX
  5
364D
330
3648
100
AcDbEntity
  8
0
100
AcDbVertex
100
AcDb2dVertex
 10
-268.2543179999999
 20
-55.19147324580803
 30
0.0
  0
VERTEX
  5
364E
330
3648
100
AcDbEntity
  8
0
100
AcDbVertex
100
AcDb2dVertex
 10
-267.0721129999999
 20
-51.98459424580802
 30
0.0
  0
VERTEX
  5
364F
330
3648
100
AcDbEntity
  8
0
100
AcDbVertex
100
AcDb2dVertex
 10
-265.7874299999999
 20
-48.13999024580802
 30
0.0
  0
VERTEX
  5
3650
330
3648
100
AcDbEntity
  8
0
100
AcDbVertex
100
AcDb2dVertex
 10
-264.4587099999999
 20
-43.68498824580798
 30
0.0
  0
VERTEX
  5
3651
330
3648
100
AcDbEntity
  8
0
100
AcDbVertex
100
AcDb2dVertex
 10
-263.144409
 20
-38.64690224580801
 30
0.0
  0
VERTEX
  5
3652
330
3648
100
AcDbEntity
  8
0
100
AcDbVertex
100
AcDb2dVertex
 10
-261.9029999999999
 20
-33.05307624580798
 30
0.0
  0
VERTEX
  5
3653
330
3648
100
AcDbEntity
  8
0
100
AcDbVertex
100
AcDb2dVertex
 10
-260.792923
 20
-26.93085324580802
 30
0.0
  0
VERTEX
  5
3654
330
3648
100
AcDbEntity
  8
0
100
AcDbVertex
100
AcDb2dVertex
 10
-259.8726499999999
 20
-20.307547245808
 30
0.0
  0
VERTEX
  5
3655
330
3648
100
AcDbEntity
  8
0
100
AcDbVertex
100
AcDb2dVertex
 10
-259.2006379999999
 20
-13.21048524580801
 30
0.0
  0
VERTEX
  5
3656
330
3648
100
AcDbEntity
  8
0
100
AcDbVertex
100
AcDb2dVertex
 10
-258.835342
 20
-5.667013245808
 30
0.0
  0
VERTEX
  5
3657
330
3648
100
AcDbEntity
  8
0
100
AcDbVertex
100
AcDb2dVertex
 10
-258.8352658473989
 20
-0.0000000000000639
 30
0.0
  0
SEQEND
  5
3658
330
3648
100
AcDbEntity
  8
0
  0
LINE
  5
365B
330
1F
100
AcDbEntity
  8
0
100
AcDbLine
 10
-246.84856696169
 20
-129.7007274548877
 30
0.0
 11
-210.619561466165
 21
-94.78862215068673
 31
0.0
  0
LINE
  5
365D
330
1F
100
AcDbEntity
  8
0
100
AcDbLine
 10
-211.0651549999999
 20
-85.39002024580799
 30
0.0
 11
-249.5315859999999
 21
-64.13138424580797
 31
0.0
  0
LINE
  5
365F
330
1F
100
AcDbEntity
  8
0
 62
     4
100
AcDbLine
 10
-157.4142759999999
 20
-109.377325245808
 30
0.0
 11
-157.4142759999999
 21
-59.37732524580798
 31
0.0
  0
LINE
  5
3660
330
1F
100
AcDbEntity
  8
0
 62
     4
100
AcDbLine
 10
-182.4142759999999
 20
-84.37732524580798
 30
0.0
 11
-132.4142759999999
 21
-84.37732524580798
 31
0.0
  0
CIRCLE
  5
3661
330
1F
100
AcDbEntity
  8
0
100
AcDbCircle
 10
-157.4142759999999
 20
-84.37732524580798
 30
0.0
 40
10.0
  0
POLYLINE
  5
3666
330
1F
100
AcDbEntity
  8
0
100
AcDb2dPolyline
 66
     1
 10
0.0
 20
0.0
 30
0.0
  0
VERTEX
  5
3667
330
3666
100
AcDbEntity
  8
0
100
AcDbVertex
100
AcDb2dVertex
 10
-270.7890319999999
 20
61.09503724580786
 30
0.0
  0
VERTEX
  5
3668
330
3666
100
AcDbEntity
  8
0
100
AcDbVertex
100
AcDb2dVertex
 10
-270.601379
 20
60.7123932458079
 30
0.0
  0
VERTEX
  5
3669
330
3666
100
AcDbEntity
  8
0
100
AcDbVertex
100
AcDb2dVertex
 10
-270.0774079999999
 20
59.5827082458079
 30
0.0
  0
VERTEX
  5
366A
330
3666
100
AcDbEntity
  8
0
100
AcDbVertex
100
AcDb2dVertex
 10
-269.275574
 20
57.7332822458079
 30
0.0
  0
VERTEX
  5
366B
330
3666
100
AcDbEntity
  8
0
100
AcDbVertex
100
AcDb2dVertex
 10
-268.2543179999999
 20
55.1914732458079
 30
0.0
  0
VERTEX
  5
366C
330
3666
100
AcDbEntity
  8
0
100
AcDbVertex
100
AcDb2dVertex
 10
-267.0721129999999
 20
51.98459424580795
 30
0.0
  0
VERTEX
  5
366D
330
3666
100
AcDbEntity
  8
0
100
AcDbVertex
100
AcDb2dVertex
 10
-265.7874299999999
 20
48.13999024580795
 30
0.0
  0
VERTEX
  5
366E
330
3666
100
AcDbEntity
  8
0
100
AcDbVertex
100
AcDb2dVertex
 10
-264.4587099999999
 20
43.6849882458079
 30
0.0
  0
VERTEX
  5
366F
330
3666
100
AcDbEntity
  8
0
100
AcDbVertex
100
AcDb2dVertex
 10
-263.144409
 20
38.64690224580794
 30
0.0
  0
VERTEX
  5
3670
330
3666
100
AcDbEntity
  8
0
100
AcDbVertex
100
AcDb2dVertex
 10
-261.9029999999999
 20
33.05307624580791
 30
0.0
  0
VERTEX
  5
3671
330
3666
100
AcDbEntity
  8
0
100
AcDbVertex
100
AcDb2dVertex
 10
-260.792923
 20
26.93085324580789
 30
0.0
  0
VERTEX
  5
3672
330
3666
100
AcDbEntity
  8
0
100
AcDbVertex
100
AcDb2dVertex
 10
-259.8726499999999
 20
20.30754724580793
 30
0.0
  0
VERTEX
  5
3673
330
3666
100
AcDbEntity
  8
0
100
AcDbVertex
100
AcDb2dVertex
 10
-259.2006379999999
 20
13.21048524580788
 30
0.0
  0
VERTEX
  5
3674
330
3666
100
AcDbEntity
  8
0
100
AcDbVertex
100
AcDb2dVertex
 10
-258.835342
 20
5.667013245807929
 30
0.0
  0
VERTEX
  5
3675
330
3666
100
AcDbEntity
  8
0
100
AcDbVertex
100
AcDb2dVertex
 10
-258.8352658473989
 20
-0.0000000000000639
 30
0.0
  0
SEQEND
  5
3676
330
3666
100
AcDbEntity
  8
0
  0
LINE
  5
3678
330
1F
100
AcDbEntity
  8
0
100
AcDbLine
 10
-211.0651549999999
 20
85.39002024580794
 30
0.0
 11
-249.5315859999999
 21
64.1313842458079
 31
0.0
  0
LINE
  5
367A
330
1F
100
AcDbEntity
  8
0
 62
     4
100
AcDbLine
 10
-157.4142759999999
 20
109.3773252458079
 30
0.0
 11
-157.4142759999999
 21
59.37732524580791
 31
0.0
  0
CIRCLE
  5
367B
330
1F
100
AcDbEntity
  8
0
100
AcDbCircle
 10
-157.4142759999999
 20
84.37732524580793
 30
0.0
 40
10.0
  0
LINE
  5
367C
330
1F
100
AcDbEntity
  8
0
 62
     4
100
AcDbLine
 10
-182.4142759999999
 20
84.37732524580793
 30
0.0
 11
-132.4142759999999
 21
84.37732524580793
 31
0.0
  0
LWPOLYLINE
  5
3696
330
1F
100
AcDbEntity
  8
0
100
AcDbPolyline
 90
       16
 70
     1
 43
0.0
 10
-0.0000000000002274
 20
102.9121676907726
 42
0.1989100642923935
 10
-5.857739053053819
 20
117.0541779901776
 10
-60.44460388572293
 20
171.642010299405
 42
0.1989146704689522
 10
-74.58686483266934
 20
177.4999999999999
 10
-496.8735255292268
 20
177.4999999999999
 42
0.2016214630253399
 10
-511.1622311287166
 20
171.4940305949039
 10
-574.2887055994899
 20
107.038289761019
 42
0.1962060774152004
 10
-580.0000000000001
 20
93.04425916611497
 10
-580.0
 20
-94.95254918249163
 42
0.2082304125102383
 10
-573.6270572777121
 20
-109.591651270733
 10
-506.4343758926892
 20
-172.1391020882415
 42
0.189627431046019
 10
-492.8073186149771
 20
-177.5
 10
-77.18710693321179
 20
-177.5
 42
0.1928767092309056
 10
-63.37757355690678
 20
-171.9670932784965
 10
-6.190466623694874
 20
-117.379260969269
 42
0.2049619986422999
 10
0.0000000000002274
 20
-102.9121676907726
  0
LINE
  5
36BE
330
1F
100
AcDbEntity
  8
0
100
AcDbLine
 10
-253.7875527752241
 20
132.4999999999999
 30
0.0
 11
-482.1619809659552
 21
132.4999999999999
 31
0.0
  0
LINE
  5
36BF
330
1F
100
AcDbEntity
  8
0
100
AcDbLine
 10
-489.3063337657001
 20
129.4970152974519
 30
0.0
 11
-532.1443527997448
 21
85.75694782427506
 31
0.0
  0
LINE
  5
36C0
330
1F
100
AcDbEntity
  8
0
100
AcDbLine
 10
-535.0
 20
78.75993252682305
 30
0.0
 11
-535.0
 21
-79.71575433431303
 31
0.0
  0
LINE
  5
36C1
330
1F
100
AcDbEntity
  8
0
100
AcDbLine
 10
-531.813528638856
 20
-87.03530537843374
 30
0.0
 11
-485.8518123780179
 21
-129.8195510441207
 31
0.0
  0
LINE
  5
36C2
330
1F
100
AcDbEntity
  8
0
100
AcDbLine
 10
-479.0382837391619
 20
-132.5
 30
0.0
 11
-253.787552775224
 21
-132.5
 31
0.0
  0
ARC
  5
36C5
330
1F
100
AcDbEntity
  8
0
100
AcDbCircle
 10
-482.1619809659552
 20
122.4999999999999
 30
0.0
 40
10.0
100
AcDbArc
 50
90.0
 51
135.5969374069313
  0
ARC
  5
36C6
330
1F
100
AcDbEntity
  8
0
100
AcDbCircle
 10
-525.0
 20
78.75993252682305
 30
0.0
 40
10.0
100
AcDbArc
 50
135.5969374069312
 51
180.0
  0
ARC
  5
36C7
330
1F
100
AcDbEntity
  8
0
100
AcDbCircle
 10
-525.0
 20
-79.71575433431303
 30
0.0
 40
10.0
100
AcDbArc
 50
180.0
 51
227.0505487345891
  0
ARC
  5
36C8
330
1F
100
AcDbEntity
  8
0
100
AcDbCircle
 10
-479.0382837391619
 20
-122.5
 30
0.0
 40
10.0
100
AcDbArc
 50
227.0505487345891
 51
270.0
  0
ARC
  5
36C9
330
1F
100
AcDbEntity
  8
0
100
AcDbCircle
 10
-253.787552775224
 20
-122.5
 30
0.0
 40
10.0
100
AcDbArc
 50
270.0
 51
313.939513233848
  0
ARC
  5
36CA
330
1F
100
AcDbEntity
  8
0
100
AcDbCircle
 10
-253.7875527752241
 20
122.4999999999999
 30
0.0
 40
10.0
100
AcDbArc
 50
46.06048676615189
 51
90.0
  0
LINE
  5
36CB
330
1F
100
AcDbEntity
  8
0
100
AcDbLine
 10
-207.558547279699
 20
87.58789469579886
 30
0.0
 11
-207.558547279699
 21
-87.587894695799
 31
0.0
  0
ARC
  5
36CC
330
1F
100
AcDbEntity
  8
0
100
AcDbCircle
 10
-217.558547279699
 20
87.58789469579886
 30
0.0
 40
10.0
100
AcDbArc
 50
0.0
 51
46.06048676615189
  0
ARC
  5
36CD
330
1F
100
AcDbEntity
  8
0
100
AcDbCircle
 10
-217.558547279699
 20
-87.587894695799
 30
0.0
 40
10.0
100
AcDbArc
 50
313.9395132338481
 51
0.0
  0
LINE
  5
3745
330
1F
100
AcDbEntity
  8
0
100
AcDbLine
 10
-27.92886952652709
 20
103.7700472709441
 30
0.0
 11
-76.65795859998503
 21
152.4999999999999
 31
0.0
  0
LINE
  5
374B
330
1F
100
AcDbEntity
  8
0
100
AcDbLine
 10
-79.19039935835536
 20
-152.5
 30
0.0
 11
-28.09523331184724
 21
-103.7272170156053
 31
0.0
  0
LINE
  5
374C
330
1F
100
AcDbEntity
  8
0
100
AcDbLine
 10
-24.99999999999977
 20
-96.49367037635711
 30
0.0
 11
-25.00000000000021
 21
96.69904212124158
 31
0.0
  0
ARC
  5
374D
330
1F
100
AcDbEntity
  8
0
100
AcDbCircle
 10
-35.00000000000021
 20
96.69904212124157
 30
0.0
 40
10.0
100
AcDbArc
 50
0.0000000000001018
 51
44.99949226034039
  0
ARC
  5
374E
330
1F
100
AcDbEntity
  8
0
100
AcDbCircle
 10
-34.99999999999977
 20
-96.49367037635713
 30
0.0
 40
10.0
100
AcDbArc
 50
313.6678531867635
 51
0.0000000000001272
  0
ENDSEC
  0
SECTION
  2
OBJECTS
  0
DICTIONARY
  5
C
330
0
100
AcDbDictionary
281
     1
  3
ACAD_COLOR
350
3754
  3
ACAD_GROUP
350
D
  3
ACAD_LAYOUT
350
1A
  3
ACAD_MATERIAL
350
3753
  3
ACAD_MLINESTYLE
350
17
  3
ACAD_PLOTSETTINGS
350
19
  3
ACAD_PLOTSTYLENAME
350
E
  3
AcDbVariableDictionary
350
86
  3
AcmDictionary
350
45
  3
AMG
350
41
  3
AMGSNAPSETTINGS
350
332
  3
ASE_INDEX_DICTIONARY
350
36CF
  3
MAPISURF_MODULE
350
37D6
  0
DICTIONARY
  5
81
330
1F
100
AcDbDictionary
280
     1
281
     1
  3
ACAD_INDEX
360
82
  0
DICTIONARY
  5
3754
102
{ACAD_REACTORS
330
C
102
}
330
C
100
AcDbDictionary
281
     1
  0
DICTIONARY
  5
D
102
{ACAD_REACTORS
330
C
102
}
330
C
100
AcDbDictionary
281
     1
  0
DICTIONARY
  5
1A
102
{ACAD_REACTORS
330
C
102
}
330
C
100
AcDbDictionary
281
     1
  3
Layout1
350
1E
  3
Layout2
350
26
  3
Model
350
22
  0
DICTIONARY
  5
3753
102
{ACAD_REACTORS
330
C
102
}
330
C
100
AcDbDictionary
281
     1
  0
DICTIONARY
  5
17
102
{ACAD_REACTORS
330
C
102
}
330
C
100
AcDbDictionary
281
     1
  3
Standard
350
18
  0
DICTIONARY
  5
19
102
{ACAD_REACTORS
330
C
102
}
330
C
100
AcDbDictionary
281
     1
  0
ACDBDICTIONARYWDFLT
  5
E
102
{ACAD_REACTORS
330
C
102
}
330
C
100
AcDbDictionary
281
     1
  3
Normal
350
F
100
AcDbDictionaryWithDefault
340
F
  0
DICTIONARY
  5
86
102
{ACAD_REACTORS
330
C
102
}
330
C
100
AcDbDictionary
281
     1
  3
DIMASSOC
350
89
  3
HIDETEXT
350
88
  3
INDEXCTL
350
87
  0
DICTIONARY
  5
45
102
{ACAD_REACTORS
330
C
102
}
330
C
100
AcDbDictionary
281
     1
  3
AcmBOMDATA
350
46
  3
AcmStdDictionary
350
4A
  0
DICTIONARY
  5
41
102
{ACAD_REACTORS
330
C
102
}
330
C
100
AcDbDictionary
281
     1
  3
AcMgSettings
350
42
  3
AMGLAYCFG
350
4C
  0
DICTIONARY
  5
332
102
{ACAD_REACTORS
330
C
102
}
330
C
100
AcDbDictionary
281
     1
  3
DIMENSION
350
337
  3
FEA
350
336
  3
HATCH (1)
350
333
  3
HATCH (2)
350
334
  3
SIMPLE WELD
350
338
  3
SYMBOLS
350
335
  0
DICTIONARY
  5
36CF
102
{ACAD_REACTORS
330
C
102
}
330
C
100
AcDbDictionary
281
     1
  3
ASEBlockHierarchyIndexRecord
350
36D1
1001
DCO15
1040
1576487624.312
  0
DICTIONARY
  5
82
102
{ACAD_REACTORS
330
81
102
}
330
81
100
AcDbDictionary
281
     1
  3
*A1
350
83
  0
LAYOUT
  5
1E
102
{ACAD_REACTORS
330
1A
102
}
330
1A
100
AcDbPlotSettings
  1

  2
Epson Stylus COLOR 440 ESC/P 2
  4

  6

 40
0.0
 41
0.0
 42
0.0
 43
0.0
 44
0.0
 45
0.0
 46
0.0
 47
0.0
 48
0.0
 49
0.0
140
0.0
141
0.0
142
1.0
143
1.0
 70
   688
 72
     0
 73
     0
 74
     5
  7

 75
    16
147
1.0
 76
     0
 77
     2
 78
   300
148
0.0
149
0.0
100
AcDbLayout
  1
Layout1
 70
     1
 71
     1
 10
0.0
 20
0.0
 11
420.0
 21
297.0
 12
0.0
 22
0.0
 32
0.0
 14
1.000000000000000E+20
 24
1.000000000000000E+20
 34
1.000000000000000E+20
 15
-1.000000000000000E+20
 25
-1.000000000000000E+20
 35
-1.000000000000000E+20
146
0.0
 13
0.0
 23
0.0
 33
0.0
 16
1.0
 26
0.0
 36
0.0
 17
0.0
 27
1.0
 37
0.0
 76
     0
330
1B
  0
LAYOUT
  5
26
102
{ACAD_REACTORS
330
1A
102
}
330
1A
100
AcDbPlotSettings
  1

  2
Epson Stylus COLOR 440 ESC/P 2
  4

  6

 40
0.0
 41
0.0
 42
0.0
 43
0.0
 44
0.0
 45
0.0
 46
0.0
 47
0.0
 48
0.0
 49
0.0
140
0.0
141
0.0
142
1.0
143
1.0
 70
   688
 72
     0
 73
     0
 74
     5
  7

 75
    16
147
1.0
 76
     0
 77
     2
 78
   300
148
0.0
149
0.0
100
AcDbLayout
  1
Layout2
 70
     1
 71
     2
 10
0.0
 20
0.0
 11
12.0
 21
9.0
 12
0.0
 22
0.0
 32
0.0
 14
0.0
 24
0.0
 34
0.0
 15
0.0
 25
0.0
 35
0.0
146
0.0
 13
0.0
 23
0.0
 33
0.0
 16
1.0
 26
0.0
 36
0.0
 17
0.0
 27
1.0
 37
0.0
 76
     0
330
23
  0
LAYOUT
  5
22
102
{ACAD_REACTORS
330
1A
102
}
330
1A
100
AcDbPlotSettings
  1

  2
Epson Stylus COLOR 440 ESC/P 2
  4

  6

 40
0.0
 41
0.0
 42
0.0
 43
0.0
 44
0.0
 45
0.0
 46
0.0
 47
0.0
 48
0.0
 49
0.0
140
0.0
141
0.0
142
1.0
143
1.0
 70
  1712
 72
     0
 73
     0
 74
     0
  7

 75
     0
147
1.0
 76
     0
 77
     2
 78
   300
148
0.0
149
0.0
100
AcDbLayout
  1
Model
 70
     1
 71
     0
 10
0.0
 20
0.0
 11
12.0
 21
9.0
 12
0.0
 22
0.0
 32
0.0
 14
0.0
 24
0.0
 34
0.0
 15
0.0
 25
0.0
 35
0.0
146
0.0
 13
0.0
 23
0.0
 33
0.0
 16
1.0
 26
0.0
 36
0.0
 17
0.0
 27
1.0
 37
0.0
 76
     0
330
1F
  0
MLINESTYLE
  5
18
102
{ACAD_REACTORS
330
17
102
}
330
17
100
AcDbMlineStyle
  2
STANDARD
 70
     0
  3

 62
   256
 51
90.0
 52
90.0
 71
     2
 49
0.5
 62
   256
  6
BYLAYER
 49
-0.5
 62
   256
  6
BYLAYER
  0
ACDBPLACEHOLDER
  5
F
102
{ACAD_REACTORS
330
E
102
}
330
E
  0
DICTIONARYVAR
  5
89
102
{ACAD_REACTORS
330
86
102
}
330
86
100
DictionaryVariables
280
     0
  1
2
  0
DICTIONARYVAR
  5
88
102
{ACAD_REACTORS
330
86
102
}
330
86
100
DictionaryVariables
280
     0
  1
1
  0
DICTIONARYVAR
  5
87
102
{ACAD_REACTORS
330
86
102
}
330
86
100
DictionaryVariables
280
     0
  1
1
  0
ACMDATADICTIONARY
  5
46
102
{ACAD_REACTORS
330
45
102
}
330
45
100
AcDbDictionary
281
     1
  3
*A1
350
47
100
AcmDataDictionary
  0
DICTIONARY
  5
4A
102
{ACAD_REACTORS
330
45
102
}
330
45
100
AcDbDictionary
281
     1
  3
ANSI
350
360
  3
DIN
350
4B
  0
DICTIONARY
  5
42
102
{ACAD_REACTORS
330
41
102
}
330
41
100
AcDbDictionary
281
     1
  3
DWGSETTINGS
350
43
  3
TRANSSETTINGS
350
44
  0
ACAMGFILTERDAT
  5
337
102
{ACAD_REACTORS
330
332
102
}
330
332
100
AcAmgFilterDat
 70
    15
  1
DIMENSION,AMDT_*_DIM
  2
*
  3
*
  4
*
  5
*
290
     1
  0
ACAMGFILTERDAT
  5
336
102
{ACAD_REACTORS
330
332
102
}
330
332
100
AcAmgFilterDat
 70
    15
  1
*
  2
AM_FEA-AM_*
  3
*
  4
*
  5
*
290
     1
  0
ACAMGFILTERDAT
  5
333
102
{ACAD_REACTORS
330
332
102
}
330
332
100
AcAmgFilterDat
 70
    15
  1
HATCH
  2
*
  3
*
  4
*
  5
*
290
     1
  0
ACAMGFILTERDAT
  5
334
102
{ACAD_REACTORS
330
332
102
}
330
332
100
AcAmgFilterDat
 70
    15
  1
LINE
  2
8,8N,*-8,*-8N,AM_8,AM_8N,*-AM_8,*-AM_8N
  3
*
  4
*
  5
INSERT,STDPART2D
290
     1
  0
ACAMGFILTERDAT
  5
338
102
{ACAD_REACTORS
330
332
102
}
330
332
100
AcAmgFilterDat
 70
    15
  1
ARC
  2
AM_5
  3
*
  4
2
  5
INSERT
290
     0
  0
ACAMGFILTERDAT
  5
335
102
{ACAD_REACTORS
330
332
102
}
330
332
100
AcAmgFilterDat
 70
    15
  1
ACMFCFRAME,ACMDATUMTARGET,ACMDATUMID,ACMWELDSYM,ACMSURFSYM,ACMFEATID,ACMPARTREF,ACMBALLOON,AMDTEDGESYM,AMGSCREWCALCTABLE
  2
*
  3
*
  4
*
  5
*
290
     1
  0
XRECORD
  5
36D1
102
{ACAD_REACTORS
330
36CF
102
}
330
36CF
100
AcDbXrecord
280
     1
  0
LAYER_INDEX
  5
83
102
{ACAD_REACTORS
330
82
102
}
330
82
100
AcDbIndex
 40
2454064.607973067
100
AcDbLayerIndex
  8
0
360
84
 90
       44
  8
AM_5
360
374F
 90
        0
  0
ACMDATAENTRYBLOCK
  5
47
102
{ACAD_REACTORS
330
46
102
}
330
46
100
AcmDataEntry
100
AcmDataEntryBlock
  0
IDBUFFER
  5
84
330
0
100
AcDbIdBuffer
330
35EC
330
35EF
330
35F0
330
35F2
330
35F3
330
35F5
330
35F7
330
360F
330
3614
330
3618
330
361B
330
3632
330
363C
330
3648
330
365B
330
365D
330
365F
330
3660
330
3661
330
3666
330
3678
330
367A
330
367B
330
367C
330
3696
330
36BE
330
36BF
330
36C0
330
36C1
330
36C2
330
36C5
330
36C6
330
36C7
330
36C8
330
36C9
330
36CA
330
36CB
330
36CC
330
36CD
330
3745
330
374B
330
374C
330
374D
330
374E
  0
IDBUFFER
  5
374F
330
0
100
AcDbIdBuffer
  0
ENDSEC
  0
EOF
