  0
SECTION
  2
HEADER
  9
$ACADVER
  1
AC1021
  9
$ACADMAINTVER
 70
    25
  9
$DWGCODEPAGE
  3
UNDEFINED
  9
$INSBASE
 10
0.0
 20
0.0
 30
0.0
  9
$EXTMIN
 10
1.000000000000000E+20
 20
1.000000000000000E+20
 30
1.000000000000000E+20
  9
$EXTMAX
 10
-1.000000000000000E+20
 20
-1.000000000000000E+20
 30
-1.000000000000000E+20
  9
$LIMMIN
 10
0.0
 20
0.0
  9
$LIMMAX
 10
12.0
 20
9.0
  9
$ORTHOMODE
 70
     0
  9
$REGENMODE
 70
     1
  9
$FILLMODE
 70
     1
  9
$QTEXTMODE
 70
     0
  9
$MIRRTEXT
 70
     1
  9
$LTSCALE
 40
1.0
  9
$ATTMODE
 70
     1
  9
$TEXTSIZE
 40
0.2
  9
$TRACEWID
 40
0.05
  9
$TEXTSTYLE
  7
Standard
  9
$CLAYER
  8
0
  9
$CELTYPE
  6
ByLayer
  9
$CECOLOR
 62
   256
  9
$CELTSCALE
 40
1.0
  9
$DISPSILH
 70
     0
  9
$DIMSCALE
 40
1.0
  9
$DIMASZ
 40
0.18
  9
$DIMEXO
 40
0.0625
  9
$DIMDLI
 40
0.38
  9
$DIMRND
 40
0.0
  9
$DIMDLE
 40
0.0
  9
$DIMEXE
 40
0.18
  9
$DIMTP
 40
0.0
  9
$DIMTM
 40
0.0
  9
$DIMTXT
 40
0.18
  9
$DIMCEN
 40
0.09
  9
$DIMTSZ
 40
0.0
  9
$DIMTOL
 70
     0
  9
$DIMLIM
 70
     0
  9
$DIMTIH
 70
     1
  9
$DIMTOH
 70
     1
  9
$DIMSE1
 70
     0
  9
$DIMSE2
 70
     0
  9
$DIMTAD
 70
     0
  9
$DIMZIN
 70
     0
  9
$DIMBLK
  1

  9
$DIMASO
 70
     1
  9
$DIMSHO
 70
     1
  9
$DIMPOST
  1

  9
$DIMAPOST
  1

  9
$DIMALT
 70
     0
  9
$DIMALTD
 70
     2
  9
$DIMALTF
 40
25.4
  9
$DIMLFAC
 40
1.0
  9
$DIMTOFL
 70
     0
  9
$DIMTVP
 40
0.0
  9
$DIMTIX
 70
     0
  9
$DIMSOXD
 70
     0
  9
$DIMSAH
 70
     0
  9
$DIMBLK1
  1

  9
$DIMBLK2
  1

  9
$DIMSTYLE
  2
Standard
  9
$DIMCLRD
 70
     0
  9
$DIMCLRE
 70
     0
  9
$DIMCLRT
 70
     0
  9
$DIMTFAC
 40
1.0
  9
$DIMGAP
 40
0.09
  9
$DIMJUST
 70
     0
  9
$DIMSD1
 70
     0
  9
$DIMSD2
 70
     0
  9
$DIMTOLJ
 70
     1
  9
$DIMTZIN
 70
     0
  9
$DIMALTZ
 70
     0
  9
$DIMALTTZ
 70
     0
  9
$DIMUPT
 70
     0
  9
$DIMDEC
 70
     4
  9
$DIMTDEC
 70
     4
  9
$DIMALTU
 70
     2
  9
$DIMALTTD
 70
     2
  9
$DIMTXSTY
  7
Standard
  9
$DIMAUNIT
 70
     0
  9
$DIMADEC
 70
     0
  9
$DIMALTRND
 40
0.0
  9
$DIMAZIN
 70
     0
  9
$DIMDSEP
 70
    46
  9
$DIMATFIT
 70
     3
  9
$DIMFRAC
 70
     0
  9
$DIMLDRBLK
  1

  9
$DIMLUNIT
 70
     2
  9
$DIMLWD
 70
    -2
  9
$DIMLWE
 70
    -2
  9
$DIMTMOVE
 70
     0
  9
$DIMFXL
 40
1.0
  9
$DIMFXLON
 70
     0
  9
$DIMJOGANG
 40
0.7853981633974483
  9
$DIMTFILL
 70
     0
  9
$DIMTFILLCLR
 70
     0
  9
$DIMARCSYM
 70
     0
  9
$DIMLTYPE
  6

  9
$DIMLTEX1
  6

  9
$DIMLTEX2
  6

  9
$LUNITS
 70
     2
  9
$LUPREC
 70
     4
  9
$SKETCHINC
 40
0.1
  9
$FILLETRAD
 40
0.5
  9
$AUNITS
 70
     0
  9
$AUPREC
 70
     0
  9
$MENU
  1
.
  9
$ELEVATION
 40
0.0
  9
$PELEVATION
 40
0.0
  9
$THICKNESS
 40
0.0
  9
$LIMCHECK
 70
     0
  9
$CHAMFERA
 40
0.5
  9
$CHAMFERB
 40
0.5
  9
$CHAMFERC
 40
1.0
  9
$CHAMFERD
 40
0.0
  9
$SKPOLY
 70
     0
  9
$TDCREATE
 40
2460325.359143507
  9
$TDUCREATE
 40
2460325.317476852
  9
$TDUPDATE
 40
2460325.359143507
  9
$TDUUPDATE
 40
2460325.317476852
  9
$TDINDWG
 40
0.0000000116
  9
$TDUSRTIMER
 40
0.0000000116
  9
$USRTIMER
 70
     1
  9
$ANGBASE
 50
0.0
  9
$ANGDIR
 70
     0
  9
$PDMODE
 70
     0
  9
$PDSIZE
 40
0.0
  9
$PLINEWID
 40
0.0
  9
$SPLFRAME
 70
     0
  9
$SPLINETYPE
 70
     6
  9
$SPLINESEGS
 70
     8
  9
$HANDSEED
  5
258
  9
$SURFTAB1
 70
     6
  9
$SURFTAB2
 70
     6
  9
$SURFTYPE
 70
     6
  9
$SURFU
 70
     6
  9
$SURFV
 70
     6
  9
$UCSBASE
  2

  9
$UCSNAME
  2

  9
$UCSORG
 10
0.0
 20
0.0
 30
0.0
  9
$UCSXDIR
 10
1.0
 20
0.0
 30
0.0
  9
$UCSYDIR
 10
0.0
 20
1.0
 30
0.0
  9
$UCSORTHOREF
  2

  9
$UCSORTHOVIEW
 70
     0
  9
$UCSORGTOP
 10
0.0
 20
0.0
 30
0.0
  9
$UCSORGBOTTOM
 10
0.0
 20
0.0
 30
0.0
  9
$UCSORGLEFT
 10
0.0
 20
0.0
 30
0.0
  9
$UCSORGRIGHT
 10
0.0
 20
0.0
 30
0.0
  9
$UCSORGFRONT
 10
0.0
 20
0.0
 30
0.0
  9
$UCSORGBACK
 10
0.0
 20
0.0
 30
0.0
  9
$PUCSBASE
  2

  9
$PUCSNAME
  2

  9
$PUCSORG
 10
0.0
 20
0.0
 30
0.0
  9
$PUCSXDIR
 10
1.0
 20
0.0
 30
0.0
  9
$PUCSYDIR
 10
0.0
 20
1.0
 30
0.0
  9
$PUCSORTHOREF
  2

  9
$PUCSORTHOVIEW
 70
     0
  9
$PUCSORGTOP
 10
0.0
 20
0.0
 30
0.0
  9
$PUCSORGBOTTOM
 10
0.0
 20
0.0
 30
0.0
  9
$PUCSORGLEFT
 10
0.0
 20
0.0
 30
0.0
  9
$PUCSORGRIGHT
 10
0.0
 20
0.0
 30
0.0
  9
$PUCSORGFRONT
 10
0.0
 20
0.0
 30
0.0
  9
$PUCSORGBACK
 10
0.0
 20
0.0
 30
0.0
  9
$USERI1
 70
     0
  9
$USERI2
 70
     0
  9
$USERI3
 70
     0
  9
$USERI4
 70
     0
  9
$USERI5
 70
     0
  9
$USERR1
 40
0.0
  9
$USERR2
 40
0.0
  9
$USERR3
 40
0.0
  9
$USERR4
 40
0.0
  9
$USERR5
 40
0.0
  9
$WORLDVIEW
 70
     1
  9
$SHADEDGE
 70
     3
  9
$SHADEDIF
 70
    70
  9
$TILEMODE
 70
     1
  9
$MAXACTVP
 70
    64
  9
$PINSBASE
 10
0.0
 20
0.0
 30
0.0
  9
$PLIMCHECK
 70
     0
  9
$PEXTMIN
 10
1.000000000000000E+20
 20
1.000000000000000E+20
 30
1.000000000000000E+20
  9
$PEXTMAX
 10
-1.000000000000000E+20
 20
-1.000000000000000E+20
 30
-1.000000000000000E+20
  9
$PLIMMIN
 10
0.0
 20
0.0
  9
$PLIMMAX
 10
12.0
 20
9.0
  9
$UNITMODE
 70
     0
  9
$VISRETAIN
 70
     1
  9
$PLINEGEN
 70
     0
  9
$PSLTSCALE
 70
     1
  9
$TREEDEPTH
 70
  3020
  9
$CMLSTYLE
  2
Standard
  9
$CMLJUST
 70
     0
  9
$CMLSCALE
 40
1.0
  9
$PROXYGRAPHICS
 70
     1
  9
$MEASUREMENT
 70
     0
  9
$CELWEIGHT
370
    -1
  9
$ENDCAPS
280
     0
  9
$JOINSTYLE
280
     0
  9
$LWDISPLAY
290
     1
  9
$INSUNITS
 70
     1
  9
$HYPERLINKBASE
  1

  9
$STYLESHEET
  1

  9
$XEDIT
290
     1
  9
$CEPSNTYPE
380
     0
  9
$PSTYLEMODE
290
     1
  9
$FINGERPRINTGUID
  2
{49D958B2-E153-E6AD-33E8-AB969576DA4E}
  9
$VERSIONGUID
  2
{FAEB1C32-E019-11D5-929B-00C0DF256EC4}
  9
$EXTNAMES
290
     1
  9
$PSVPSCALE
 40
0.0
  9
$OLESTARTUP
290
     0
  9
$SORTENTS
280
   127
  9
$INDEXCTL
280
     0
  9
$HIDETEXT
280
     1
  9
$XCLIPFRAME
290
     0
  9
$HALOGAP
280
     0
  9
$OBSCOLOR
 70
   257
  9
$OBSLTYPE
280
     0
  9
$INTERSECTIONDISPLAY
280
     0
  9
$INTERSECTIONCOLOR
 70
   257
  9
$DIMASSOC
280
     2
  9
$PROJECTNAME
  1

  9
$CAMERADISPLAY
290
     0
  9
$LENSLENGTH
 40
50.0
  9
$CAMERAHEIGHT
 40
0.0
  9
$STEPSPERSEC
 40
2.0
  9
$STEPSIZE
 40
6.0
  9
$3DDWFPREC
 40
2.0
  9
$PSOLWIDTH
 40
0.25
  9
$PSOLHEIGHT
 40
4.0
  9
$LOFTANG1
 40
1.570796326794897
  9
$LOFTANG2
 40
1.570796326794897
  9
$LOFTMAG1
 40
0.0
  9
$LOFTMAG2
 40
0.0
  9
$LOFTPARAM
 70
     7
  9
$LOFTNORMALS
280
     1
  9
$LATITUDE
 40
37.795
  9
$LONGITUDE
 40
-122.394
  9
$NORTHDIRECTION
 40
0.0
  9
$TIMEZONE
 70
 -8000
  9
$LIGHTGLYPHDISPLAY
280
     1
  9
$TILEMODELIGHTSYNCH
280
     1
  9
$CMATERIAL
347
3C
  9
$SOLIDHIST
280
     1
  9
$SHOWHIST
280
     1
  9
$DWFFRAME
280
     2
  9
$DGNFRAME
280
     2
  9
$REALWORLDSCALE
290
     1
  9
$INTERFERECOLOR
 62
   256
  9
$CSHADOW
280
     0
  9
$SHADOWPLANELOCATION
 40
0.0
  0
ENDSEC
  0
SECTION
  2
CLASSES
  0
CLASS
  1
ACDBDICTIONARYWDFLT
  2
AcDbDictionaryWithDefault
  3
ObjectDBX Classes
 90
        0
 91
        4
280
     0
281
     0
  0
CLASS
  1
VISUALSTYLE
  2
AcDbVisualStyle
  3
ObjectDBX Classes
 90
     4095
 91
        4
280
     0
281
     0
  0
CLASS
  1
MATERIAL
  2
AcDbMaterial
  3
ObjectDBX Classes
 90
     1153
 91
        4
280
     0
281
     0
  0
CLASS
  1
SUN
  2
AcDbSun
  3
SCENEOE
 90
     1024
 91
        4
280
     0
281
     0
  0
ENDSEC
  0
SECTION
  2
TABLES
  0
TABLE
  2
VPORT
  5
8
330
0
100
AcDbSymbolTable
 70
     1
  0
VPORT
  5
29
330
8
100
AcDbSymbolTableRecord
100
AcDbViewportTableRecord
  2
*Active
 70
     0
 10
0.0
 20
0.0
 11
1.0
 21
1.0
 12
0.0
 22
0.0
 13
0.0
 23
0.0
 14
0.5
 24
0.5
 15
0.5
 25
0.5
 16
0.0
 26
0.0
 36
1.0
 17
105.0007777515277
 27
-148.5000416295416
 37
0.0
 40
297.0000832590831
 41
0.7070757462376333
 42
50.0
 43
0.0
 44
0.0
 50
0.0
 51
0.0
 71
     0
 72
   100
 73
     1
 74
     3
 75
     0
 76
     0
 77
     0
 78
     0
281
     0
 65
     1
110
0.0
120
0.0
130
0.0
111
1.0
121
0.0
131
0.0
112
0.0
122
1.0
132
0.0
 79
     0
146
0.0
 60
     3
 61
     5
292
     1
282
     1
141
0.0
142
0.0
 63
   250
361
3F
  0
ENDTAB
  0
TABLE
  2
LTYPE
  5
5
330
0
100
AcDbSymbolTable
 70
     9
  0
LTYPE
  5
14
330
5
100
AcDbSymbolTableRecord
100
AcDbLinetypeTableRecord
  2
ByBlock
 70
     0
  3

 72
    65
 73
     0
 40
0.0
  0
LTYPE
  5
15
330
5
100
AcDbSymbolTableRecord
100
AcDbLinetypeTableRecord
  2
ByLayer
 70
     0
  3

 72
    65
 73
     0
 40
0.0
  0
LTYPE
  5
16
330
5
100
AcDbSymbolTableRecord
100
AcDbLinetypeTableRecord
  2
Continuous
 70
     0
  3
Solid line
 72
    65
 73
     0
 40
0.0
  0
LTYPE
  5
1D1
330
5
100
AcDbSymbolTableRecord
100
AcDbLinetypeTableRecord
  2
AI-Linetype-1
 70
     0
  3
Adobe Illustrator Linetype No. 1
 72
    65
 73
     2
 40
7.946573652823944
 49
3.973286826411972
 74
     0
 49
-3.973286826411972
 74
     0
  0
LTYPE
  5
1D6
330
5
100
AcDbSymbolTableRecord
100
AcDbLinetypeTableRecord
  2
AI-Linetype-2
 70
     0
  3
Adobe Illustrator Linetype No. 2
 72
    65
 73
     4
 40
35.75975974831392
 49
23.839899269078
 74
     0
 49
-3.973286826411972
 74
     0
 49
3.973286826411972
 74
     0
 49
-3.973286826411972
 74
     0
  0
LTYPE
  5
1EF
330
5
100
AcDbSymbolTableRecord
100
AcDbLinetypeTableRecord
  2
AI-Linetype-3
 70
     0
  3
Adobe Illustrator Linetype No. 3
 72
    65
 73
     2
 40
6.159907434830873
 49
3.079953717415437
 74
     0
 49
-3.079953717415437
 74
     0
  0
LTYPE
  5
1F4
330
5
100
AcDbSymbolTableRecord
100
AcDbLinetypeTableRecord
  2
AI-Linetype-4
 70
     0
  3
Adobe Illustrator Linetype No. 4
 72
    65
 73
     4
 40
27.71972072226216
 49
18.47985957001586
 74
     0
 49
-3.079953717415437
 74
     0
 49
3.079953717415437
 74
     0
 49
-3.079953717415437
 74
     0
  0
LTYPE
  5
20D
330
5
100
AcDbSymbolTableRecord
100
AcDbLinetypeTableRecord
  2
AI-Linetype-5
 70
     0
  3
Adobe Illustrator Linetype No. 5
 72
    65
 73
     2
 40
6.159907434830873
 49
3.079953717415437
 74
     0
 49
-3.079953717415437
 74
     0
  0
LTYPE
  5
212
330
5
100
AcDbSymbolTableRecord
100
AcDbLinetypeTableRecord
  2
AI-Linetype-6
 70
     0
  3
Adobe Illustrator Linetype No. 6
 72
    65
 73
     4
 40
27.71972072226216
 49
18.47985957001586
 74
     0
 49
-3.079953717415437
 74
     0
 49
3.079953717415437
 74
     0
 49
-3.079953717415437
 74
     0
  0
LTYPE
  5
22B
330
5
100
AcDbSymbolTableRecord
100
AcDbLinetypeTableRecord
  2
AI-Linetype-7
 70
     0
  3
Adobe Illustrator Linetype No. 7
 72
    65
 73
     2
 40
9.583249698998163
 49
4.791624849499081
 74
     0
 49
-4.791624849499081
 74
     0
  0
LTYPE
  5
230
330
5
100
AcDbSymbolTableRecord
100
AcDbLinetypeTableRecord
  2
AI-Linetype-8
 70
     0
  3
Adobe Illustrator Linetype No. 8
 72
    65
 73
     4
 40
43.12483694534892
 49
28.74996239685168
 74
     0
 49
-4.791624849499081
 74
     0
 49
4.791624849499081
 74
     0
 49
-4.791624849499081
 74
     0
  0
ENDTAB
  0
TABLE
  2
LAYER
  5
2
330
0
100
AcDbSymbolTable
 70
     2
  0
LAYER
  5
10
330
2
100
AcDbSymbolTableRecord
100
AcDbLayerTableRecord
  2
0
 70
     0
 62
     7
  6
Continuous
370
    -3
390
F
347
3E
  0
LAYER
  5
40
330
2
100
AcDbSymbolTableRecord
100
AcDbLayerTableRecord
  2
Ebene 1
 70
     0
 62
     7
  6
Continuous
370
    -3
390
F
347
3E
  0
ENDTAB
  0
TABLE
  2
STYLE
  5
3
330
0
100
AcDbSymbolTable
 70
     1
  0
STYLE
  5
11
330
3
100
AcDbSymbolTableRecord
100
AcDbTextStyleTableRecord
  2
Standard
 70
     0
 40
0.0
 41
1.0
 50
0.0
 71
     0
 42
0.2
  3
txt
  4

  0
ENDTAB
  0
TABLE
  2
VIEW
  5
6
330
0
100
AcDbSymbolTable
 70
     0
  0
ENDTAB
  0
TABLE
  2
UCS
  5
7
330
0
100
AcDbSymbolTable
 70
     0
  0
ENDTAB
  0
TABLE
  2
APPID
  5
9
330
0
100
AcDbSymbolTable
 70
     1
  0
APPID
  5
12
330
9
100
AcDbSymbolTableRecord
100
AcDbRegAppTableRecord
  2
ACAD
 70
     0
  0
ENDTAB
  0
TABLE
  2
DIMSTYLE
  5
A
330
0
100
AcDbSymbolTable
 70
     1
100
AcDbDimStyleTable
  0
DIMSTYLE
105
27
330
A
100
AcDbSymbolTableRecord
100
AcDbDimStyleTableRecord
  2
Standard
 70
     0
178
     0
340
11
  0
ENDTAB
  0
TABLE
  2
BLOCK_RECORD
  5
1
330
0
100
AcDbSymbolTable
 70
    14
  0
BLOCK_RECORD
  5
1F
330
1
100
AcDbSymbolTableRecord
100
AcDbBlockTableRecord
  2
*Model_Space
340
22
 70
     0
280
     1
281
     0
  0
BLOCK_RECORD
  5
1B
330
1
100
AcDbSymbolTableRecord
100
AcDbBlockTableRecord
  2
*Paper_Space
340
1E
 70
     0
280
     1
281
     0
  0
BLOCK_RECORD
  5
23
330
1
100
AcDbSymbolTableRecord
100
AcDbBlockTableRecord
  2
*Paper_Space0
340
26
 70
     0
280
     1
281
     0
  0
BLOCK_RECORD
  5
41
330
1
100
AcDbSymbolTableRecord
100
AcDbBlockTableRecord
  2
block 2
340
0
102
{BLKREFS
331
42
102
}
 70
     0
280
     1
281
     0
  0
BLOCK_RECORD
  5
1BE
330
1
100
AcDbSymbolTableRecord
100
AcDbBlockTableRecord
  2
block 3
340
0
102
{BLKREFS
331
1BF
102
}
 70
     0
280
     1
281
     0
  0
BLOCK_RECORD
  5
1C2
330
1
100
AcDbSymbolTableRecord
100
AcDbBlockTableRecord
  2
block 4
340
0
102
{BLKREFS
331
1C3
102
}
 70
     0
280
     1
281
     0
  0
BLOCK_RECORD
  5
1C6
330
1
100
AcDbSymbolTableRecord
100
AcDbBlockTableRecord
  2
block 5
340
0
102
{BLKREFS
331
1C7
102
}
 70
     0
280
     1
281
     0
  0
BLOCK_RECORD
  5
1DC
330
1
100
AcDbSymbolTableRecord
100
AcDbBlockTableRecord
  2
block 6
340
0
102
{BLKREFS
331
1DD
102
}
 70
     0
280
     1
281
     0
  0
BLOCK_RECORD
  5
1E0
330
1
100
AcDbSymbolTableRecord
100
AcDbBlockTableRecord
  2
block 7
340
0
102
{BLKREFS
331
1E1
102
}
 70
     0
280
     1
281
     0
  0
BLOCK_RECORD
  5
1E4
330
1
100
AcDbSymbolTableRecord
100
AcDbBlockTableRecord
  2
block 8
340
0
102
{BLKREFS
331
1E5
102
}
 70
     0
280
     1
281
     0
  0
BLOCK_RECORD
  5
1FA
330
1
100
AcDbSymbolTableRecord
100
AcDbBlockTableRecord
  2
block 9
340
0
102
{BLKREFS
331
1FB
102
}
 70
     0
280
     1
281
     0
  0
BLOCK_RECORD
  5
1FE
330
1
100
AcDbSymbolTableRecord
100
AcDbBlockTableRecord
  2
block 10
340
0
102
{BLKREFS
331
1FF
102
}
 70
     0
280
     1
281
     0
  0
BLOCK_RECORD
  5
202
330
1
100
AcDbSymbolTableRecord
100
AcDbBlockTableRecord
  2
block 11
340
0
102
{BLKREFS
331
203
102
}
 70
     0
280
     1
281
     0
  0
BLOCK_RECORD
  5
218
330
1
100
AcDbSymbolTableRecord
100
AcDbBlockTableRecord
  2
block 12
340
0
102
{BLKREFS
331
219
102
}
 70
     0
280
     1
281
     0
  0
BLOCK_RECORD
  5
21C
330
1
100
AcDbSymbolTableRecord
100
AcDbBlockTableRecord
  2
block 13
340
0
102
{BLKREFS
331
21D
102
}
 70
     0
280
     1
281
     0
  0
BLOCK_RECORD
  5
220
330
1
100
AcDbSymbolTableRecord
100
AcDbBlockTableRecord
  2
block 14
340
0
102
{BLKREFS
331
221
102
}
 70
     0
280
     1
281
     0
  0
ENDTAB
  0
ENDSEC
  0
SECTION
  2
BLOCKS
  0
BLOCK
  5
20
330
1F
100
AcDbEntity
  8
0
100
AcDbBlockBegin
  2
*Model_Space
 70
     0
 10
0.0
 20
0.0
 30
0.0
  3
*Model_Space
  1

  0
ENDBLK
  5
21
330
1F
100
AcDbEntity
  8
0
100
AcDbBlockEnd
  0
BLOCK
  5
1C
330
1B
100
AcDbEntity
 67
     1
  8
0
100
AcDbBlockBegin
  2
*Paper_Space
 70
     0
 10
0.0
 20
0.0
 30
0.0
  3
*Paper_Space
  1

  0
ENDBLK
  5
1D
330
1B
100
AcDbEntity
 67
     1
  8
0
100
AcDbBlockEnd
  0
BLOCK
  5
24
330
23
100
AcDbEntity
  8
0
100
AcDbBlockBegin
  2
*Paper_Space0
 70
     0
 10
0.0
 20
0.0
 30
0.0
  3
*Paper_Space0
  1

  0
ENDBLK
  5
25
330
23
100
AcDbEntity
  8
0
100
AcDbBlockEnd
  0
BLOCK
  5
43
330
41
100
AcDbEntity
  8
0
100
AcDbBlockBegin
  2
block 2
 70
     0
 10
0.0
 20
0.0
 30
0.0
  3
block 2
  1

  0
SPLINE
  5
45
330
41
100
AcDbEntity
  8
Ebene 1
 62
     7
370
    35
100
AcDbSpline
210
0.0
220
0.0
230
1.0
 70
     8
 71
     3
 72
     8
 73
     4
 74
     0
 42
0.0000000001
 43
0.0000000001
 12
1.0
 22
0.0
 32
0.0
 13
1.0
 23
0.0
 33
0.0
 40
0.0
 40
0.0
 40
0.0
 40
0.0
 40
1.0
 40
1.0
 40
1.0
 40
1.0
 10
118.0347171927137
 20
-214.9969946684731
 30
0.0
 10
117.9636677482871
 20
-215.0638460573447
 30
0.0
 10
117.8908191371941
 20
-215.1284749462179
 30
0.0
 10
117.8159949705459
 20
-215.1910577239796
 30
0.0
  0
SPLINE
  5
46
330
41
100
AcDbEntity
  8
Ebene 1
 62
     7
370
    35
100
AcDbSpline
210
0.0
220
0.0
230
1.0
 70
     8
 71
     3
 72
     8
 73
     4
 74
     0
 42
0.0000000001
 43
0.0000000001
 12
1.0
 22
0.0
 32
0.0
 13
1.0
 23
0.0
 33
0.0
 40
0.0
 40
0.0
 40
0.0
 40
0.0
 40
1.0
 40
1.0
 40
1.0
 40
1.0
 10
119.6083530256535
 20
-211.3555518916054
 30
0.0
 10
119.6083530256535
 20
-212.660265224613
 30
0.0
 10
119.0983774702251
 20
-213.9132966131881
 30
0.0
 10
118.1872583037866
 20
-214.847205224066
 30
0.0
  0
SPLINE
  5
47
330
41
100
AcDbEntity
  8
Ebene 1
 62
     7
370
    35
100
AcDbSpline
210
0.0
220
0.0
230
1.0
 70
     8
 71
     3
 72
     8
 73
     4
 74
     0
 42
0.0000000001
 43
0.0000000001
 12
1.0
 22
0.0
 32
0.0
 13
1.0
 23
0.0
 33
0.0
 40
0.0
 40
0.0
 40
0.0
 40
0.0
 40
1.0
 40
1.0
 40
1.0
 40
1.0
 10
87.97988497800483
 20
-145.1779004920692
 30
0.0
 10
87.95011053356792
 20
-145.1381777153048
 30
0.0
 10
87.92005386690893
 20
-145.0986666052017
 30
0.0
 10
87.88971497802754
 20
-145.0593671617599
 30
0.0
  0
SPLINE
  5
48
330
41
100
AcDbEntity
  8
Ebene 1
 62
     7
370
    35
100
AcDbSpline
210
0.0
220
0.0
230
1.0
 70
     8
 71
     3
 72
     8
 73
     4
 74
     0
 42
0.0000000001
 43
0.0000000001
 12
1.0
 22
0.0
 32
0.0
 13
1.0
 23
0.0
 33
0.0
 40
0.0
 40
0.0
 40
0.0
 40
0.0
 40
1.0
 40
1.0
 40
1.0
 40
1.0
 10
90.08321664414564
 20
-150.8390664587519
 30
0.0
 10
90.08011219970211
 20
-150.7938403487946
 30
0.0
 10
90.0767255330365
 20
-150.7486495166142
 30
0.0
 10
90.07305664414848
 20
-150.7034586844338
 30
0.0
  0
SPLINE
  5
49
330
41
100
AcDbEntity
  8
Ebene 1
 62
     7
370
    35
100
AcDbSpline
210
0.0
220
0.0
230
1.0
 70
     8
 71
     3
 72
     8
 73
     4
 74
     0
 42
0.0000000001
 43
0.0000000001
 12
1.0
 22
0.0
 32
0.0
 13
1.0
 23
0.0
 33
0.0
 40
0.0
 40
0.0
 40
0.0
 40
0.0
 40
1.0
 40
1.0
 40
1.0
 40
1.0
 10
89.7858249775537
 20
-148.9648640065668
 30
0.0
 10
89.95113664417909
 20
-149.6209248231627
 30
0.0
 10
90.05213692193153
 20
-150.277973417511
 30
0.0
 10
90.09150692192175
 20
-150.9534017336128
 30
0.0
  0
SPLINE
  5
4A
330
41
100
AcDbEntity
  8
Ebene 1
 62
     7
370
    35
100
AcDbSpline
210
0.0
220
0.0
230
1.0
 70
     8
 71
     3
 72
     8
 73
     4
 74
     0
 42
0.0000000001
 43
0.0000000001
 12
1.0
 22
0.0
 32
0.0
 13
1.0
 23
0.0
 33
0.0
 40
0.0
 40
0.0
 40
0.0
 40
0.0
 40
1.0
 40
1.0
 40
1.0
 40
1.0
 10
119.6428546923114
 20
-150.7030353511113
 30
0.0
 10
119.642431358978
 20
-150.7080447954279
 30
0.0
 10
119.6420433034227
 20
-150.7130542397446
 30
0.0
 10
119.6416552478674
 20
-150.7180636840612
 30
0.0
  0
SPLINE
  5
4B
330
41
100
AcDbEntity
  8
Ebene 1
 62
     7
370
    35
100
AcDbSpline
210
0.0
220
0.0
230
1.0
 70
     8
 71
     3
 72
     8
 73
     4
 74
     0
 42
0.0000000001
 43
0.0000000001
 12
1.0
 22
0.0
 32
0.0
 13
1.0
 23
0.0
 33
0.0
 40
0.0
 40
0.0
 40
0.0
 40
0.0
 40
1.0
 40
1.0
 40
1.0
 40
1.0
 10
121.414610525202
 20
-145.6312552027254
 30
0.0
 10
121.4609655251905
 20
-145.562110760045
 30
0.0
 10
121.5081319140671
 20
-145.4935660395715
 30
0.0
 10
121.5561449696112
 20
-145.4255152079743
 30
0.0
  0
SPLINE
  5
4C
330
41
100
AcDbEntity
  8
Ebene 1
 62
     7
370
    35
100
AcDbSpline
210
0.0
220
0.0
230
1.0
 70
     8
 71
     3
 72
     8
 73
     4
 74
     0
 42
0.0000000001
 43
0.0000000001
 12
1.0
 22
0.0
 32
0.0
 13
1.0
 23
0.0
 33
0.0
 40
0.0
 40
0.0
 40
0.0
 40
0.0
 40
1.0
 40
1.0
 40
1.0
 40
1.0
 10
119.631777470092
 20
-150.8389959031982
 30
0.0
 10
119.67576885897
 20
-150.2029023083152
 30
0.0
 10
119.7745466367233
 20
-149.5830364907959
 30
0.0
 10
119.9304038589061
 20
-148.9647581732362
 30
0.0
  0
SPLINE
  5
4D
330
41
100
AcDbEntity
  8
Ebene 1
 62
     7
370
    35
100
AcDbSpline
210
0.0
220
0.0
230
1.0
 70
     8
 71
     3
 72
    11
 73
     7
 74
     0
 42
0.0000000001
 43
0.0000000001
 12
1.0
 22
0.0
 32
0.0
 13
1.0
 23
0.0
 33
0.0
 40
0.0
 40
0.0
 40
0.0
 40
0.0
 40
1.0
 40
1.0
 40
1.0
 40
2.0
 40
2.0
 40
2.0
 40
2.0
 10
91.76071025483749
 20
-114.8056043224866
 30
0.0
 10
100.3361735860269
 20
-108.2180086572168
 30
0.0
 10
112.4700710829935
 20
-109.0247761366345
 30
0.0
 10
120.0979380255307
 20
-116.6896492744206
 30
0.0
 10
127.7261577458462
 20
-124.3549104677524
 30
0.0
 10
128.4737644123257
 20
-136.493393769185
 30
0.0
 10
121.8437999695391
 20
-145.0367893845581
 30
0.0
  0
SPLINE
  5
4E
330
41
100
AcDbEntity
  8
Ebene 1
 62
     7
370
    35
100
AcDbSpline
210
0.0
220
0.0
230
1.0
 70
     8
 71
     3
 72
     8
 73
     4
 74
     0
 42
0.0000000001
 43
0.0000000001
 12
1.0
 22
0.0
 32
0.0
 13
1.0
 23
0.0
 33
0.0
 40
0.0
 40
0.0
 40
0.0
 40
0.0
 40
1.0
 40
1.0
 40
1.0
 40
1.0
 10
89.33063581100063
 20
-116.98478315578
 30
0.0
 10
89.40059164431648
 20
-116.911758157643
 30
0.0
 10
89.47104136652113
 20
-116.8392270483823
 30
0.0
 10
89.54202025539243
 20
-116.7671898279979
 30
0.0
  0
SPLINE
  5
4F
330
41
100
AcDbEntity
  8
Ebene 1
 62
     7
370
    35
100
AcDbSpline
210
0.0
220
0.0
230
1.0
 70
     8
 71
     3
 72
     8
 73
     4
 74
     0
 42
0.0000000001
 43
0.0000000001
 12
1.0
 22
0.0
 32
0.0
 13
1.0
 23
0.0
 33
0.0
 40
0.0
 40
0.0
 40
0.0
 40
0.0
 40
1.0
 40
1.0
 40
1.0
 40
1.0
 10
88.53808525564307
 20
-117.8592134112492
 30
0.0
 10
88.60232608896034
 20
-117.7842834131608
 30
0.0
 10
88.66709608894425
 20
-117.709776748395
 30
0.0
 10
88.73239525559481
 20
-117.6357639725054
 30
0.0
  0
SPLINE
  5
50
330
41
100
AcDbEntity
  8
Ebene 1
 62
     7
370
    35
100
AcDbSpline
210
0.0
220
0.0
230
1.0
 70
     8
 71
     3
 72
     8
 73
     4
 74
     0
 42
0.0000000001
 43
0.0000000001
 12
1.0
 22
0.0
 32
0.0
 13
1.0
 23
0.0
 33
0.0
 40
0.0
 40
0.0
 40
0.0
 40
0.0
 40
1.0
 40
1.0
 40
1.0
 40
1.0
 10
58.90182387416342
 20
-89.95858412305356
 30
0.0
 10
58.72162498531957
 20
-90.02991578790039
 30
0.0
 10
58.54386026314189
 20
-90.06385300925682
 30
0.0
 10
58.35004415207928
 20
-90.06388828703369
 30
0.0
  0
SPLINE
  5
51
330
41
100
AcDbEntity
  8
Ebene 1
 62
     7
370
    35
100
AcDbSpline
210
0.0
220
0.0
230
1.0
 70
     8
 71
     3
 72
     8
 73
     4
 74
     0
 42
0.0000000001
 43
0.0000000001
 12
1.0
 22
0.0
 32
0.0
 13
1.0
 23
0.0
 33
0.0
 40
0.0
 40
0.0
 40
0.0
 40
0.0
 40
1.0
 40
1.0
 40
1.0
 40
1.0
 10
59.41031776292508
 20
-89.62453885379799
 30
0.0
 10
59.2611280407403
 20
-89.77376384999094
 30
0.0
 10
59.09832109633644
 20
-89.88072606948433
 30
0.0
 10
58.90214137416334
 20
-89.95844301194604
 30
0.0
  0
SPLINE
  5
52
330
41
100
AcDbEntity
  8
Ebene 1
 62
     7
370
    35
100
AcDbSpline
210
0.0
220
0.0
230
1.0
 70
     8
 71
     3
 72
     8
 73
     4
 74
     0
 42
0.0000000001
 43
0.0000000001
 12
1.0
 22
0.0
 32
0.0
 13
1.0
 23
0.0
 33
0.0
 40
0.0
 40
0.0
 40
0.0
 40
0.0
 40
1.0
 40
1.0
 40
1.0
 40
1.0
 10
59.74436304061963
 20
-89.11604497788186
 30
0.0
 10
59.66668137397215
 20
-89.31225997287599
 30
0.0
 10
59.55971915177689
 20
-89.47510219094376
 30
0.0
 10
59.4105294295918
 20
-89.62436246491359
 30
0.0
  0
SPLINE
  5
53
330
41
100
AcDbEntity
  8
Ebene 1
 62
     7
370
    35
100
AcDbSpline
210
0.0
220
0.0
230
1.0
 70
     8
 71
     3
 72
     8
 73
     4
 74
     0
 42
0.0000000001
 43
0.0000000001
 12
1.0
 22
0.0
 32
0.0
 13
1.0
 23
0.0
 33
0.0
 40
0.0
 40
0.0
 40
0.0
 40
0.0
 40
1.0
 40
1.0
 40
1.0
 40
1.0
 10
59.84966720725961
 20
-88.56387721419105
 30
0.0
 10
59.84966720725961
 20
-88.75779915368813
 30
0.0
 10
59.81576526282373
 20
-88.93563442692896
 30
0.0
 10
59.74439831839715
 20
-89.11590386677435
 30
0.0
  0
SPLINE
  5
54
330
41
100
AcDbEntity
  8
Ebene 1
 62
     7
370
    35
100
AcDbSpline
210
0.0
220
0.0
230
1.0
 70
     8
 71
     3
 72
     8
 73
     4
 74
     0
 42
0.0000000001
 43
0.0000000001
 12
1.0
 22
0.0
 32
0.0
 13
1.0
 23
0.0
 33
0.0
 40
0.0
 40
0.0
 40
0.0
 40
0.0
 40
1.0
 40
1.0
 40
1.0
 40
1.0
 10
208.9018060588855
 20
-89.95858412305356
 30
0.0
 10
208.7216071700417
 20
-90.02991578790039
 30
0.0
 10
208.543842447864
 20
-90.06385300925682
 30
0.0
 10
208.3500263368014
 20
-90.06388828703369
 30
0.0
  0
SPLINE
  5
55
330
41
100
AcDbEntity
  8
Ebene 1
 62
     7
370
    35
100
AcDbSpline
210
0.0
220
0.0
230
1.0
 70
     8
 71
     3
 72
     8
 73
     4
 74
     0
 42
0.0000000001
 43
0.0000000001
 12
1.0
 22
0.0
 32
0.0
 13
1.0
 23
0.0
 33
0.0
 40
0.0
 40
0.0
 40
0.0
 40
0.0
 40
1.0
 40
1.0
 40
1.0
 40
1.0
 10
209.4103352254254
 20
-89.62453885379799
 30
0.0
 10
209.2611102254624
 20
-89.77376384999094
 30
0.0
 10
209.0983032810589
 20
-89.88072606948433
 30
0.0
 10
208.9021235588858
 20
-89.95844301194604
 30
0.0
  0
SPLINE
  5
56
330
41
100
AcDbEntity
  8
Ebene 1
 62
     7
370
    35
100
AcDbSpline
210
0.0
220
0.0
230
1.0
 70
     8
 71
     3
 72
     8
 73
     4
 74
     0
 42
0.0000000001
 43
0.0000000001
 12
1.0
 22
0.0
 32
0.0
 13
1.0
 23
0.0
 33
0.0
 40
0.0
 40
0.0
 40
0.0
 40
0.0
 40
1.0
 40
1.0
 40
1.0
 40
1.0
 10
209.7443452253418
 20
-89.11604497788186
 30
0.0
 10
209.6666635586946
 20
-89.31225997287599
 30
0.0
 10
209.5597366142765
 20
-89.47510219094376
 30
0.0
 10
209.4105116143143
 20
-89.62436246491359
 30
0.0
  0
SPLINE
  5
57
330
41
100
AcDbEntity
  8
Ebene 1
 62
     7
370
    35
100
AcDbSpline
210
0.0
220
0.0
230
1.0
 70
     8
 71
     3
 72
     8
 73
     4
 74
     0
 42
0.0000000001
 43
0.0000000001
 12
1.0
 22
0.0
 32
0.0
 13
1.0
 23
0.0
 33
0.0
 40
0.0
 40
0.0
 40
0.0
 40
0.0
 40
1.0
 40
1.0
 40
1.0
 40
1.0
 10
209.8496846697599
 20
-88.56387721419105
 30
0.0
 10
209.8496846697599
 20
-88.75779915368813
 30
0.0
 10
209.8157474475462
 20
-88.93563442692896
 30
0.0
 10
209.7444157808974
 20
-89.11590386677435
 30
0.0
  0
POLYLINE
  5
58
330
41
100
AcDbEntity
  8
Ebene 1
 62
     7
370
    35
100
AcDb2dPolyline
 66
     1
 10
0.0
 20
0.0
 30
0.0
  0
VERTEX
  5
59
330
58
100
AcDbEntity
  8
Ebene 1
 62
     7
370
    35
100
AcDbVertex
100
AcDb2dVertex
 10
13.86356694097869
 20
-104.5165937516478
 30
0.0
  0
VERTEX
  5
5A
330
58
100
AcDbEntity
  8
Ebene 1
 62
     7
370
    35
100
AcDbVertex
100
AcDb2dVertex
 10
13.85894555209091
 20
-104.5127131961912
 30
0.0
  0
SEQEND
  5
5B
330
58
100
AcDbEntity
  8
Ebene 1
 62
     7
370
    35
  0
POLYLINE
  5
5C
330
41
100
AcDbEntity
  8
Ebene 1
 62
     7
370
    35
100
AcDb2dPolyline
 66
     1
 10
0.0
 20
0.0
 30
0.0
  0
VERTEX
  5
5D
330
5C
100
AcDbEntity
  8
Ebene 1
 62
     7
370
    35
100
AcDbVertex
100
AcDb2dVertex
 10
45.83648721076302
 20
-91.31120464410088
 30
0.0
  0
VERTEX
  5
5E
330
5C
100
AcDbEntity
  8
Ebene 1
 62
     7
370
    35
100
AcDbVertex
100
AcDb2dVertex
 10
45.8411085996508
 20
-91.31504992178056
 30
0.0
  0
SEQEND
  5
5F
330
5C
100
AcDbEntity
  8
Ebene 1
 62
     7
370
    35
  0
POLYLINE
  5
60
330
41
100
AcDbEntity
  8
Ebene 1
 62
     7
370
    35
100
AcDb2dPolyline
 66
     1
 10
0.0
 20
0.0
 30
0.0
  0
VERTEX
  5
61
330
60
100
AcDbEntity
  8
Ebene 1
 62
     7
370
    35
100
AcDbVertex
100
AcDb2dVertex
 10
44.35002276669018
 20
-90.06388828703369
 30
0.0
  0
VERTEX
  5
62
330
60
100
AcDbEntity
  8
Ebene 1
 62
     7
370
    35
100
AcDbVertex
100
AcDb2dVertex
 10
45.82329332187738
 20
-91.3000921443844
 30
0.0
  0
SEQEND
  5
63
330
60
100
AcDbEntity
  8
Ebene 1
 62
     7
370
    35
  0
POLYLINE
  5
64
330
41
100
AcDbEntity
  8
Ebene 1
 62
     7
370
    35
100
AcDb2dPolyline
 66
     1
 10
0.0
 20
0.0
 30
0.0
  0
VERTEX
  5
65
330
64
100
AcDbEntity
  8
Ebene 1
 62
     7
370
    35
100
AcDbVertex
100
AcDb2dVertex
 10
45.85003387742643
 20
-104.5052343074931
 30
0.0
  0
VERTEX
  5
66
330
64
100
AcDbEntity
  8
Ebene 1
 62
     7
370
    35
100
AcDbVertex
100
AcDb2dVertex
 10
45.85003387742643
 20
-91.32252881047864
 30
0.0
  0
SEQEND
  5
67
330
64
100
AcDbEntity
  8
Ebene 1
 62
     7
370
    35
  0
POLYLINE
  5
68
330
41
100
AcDbEntity
  8
Ebene 1
 62
     7
370
    35
100
AcDb2dPolyline
 66
     1
 10
0.0
 20
0.0
 30
0.0
  0
VERTEX
  5
69
330
68
100
AcDbEntity
  8
Ebene 1
 62
     7
370
    35
100
AcDbVertex
100
AcDb2dVertex
 10
13.85002027431528
 20
-104.5052343074931
 30
0.0
  0
VERTEX
  5
6A
330
68
100
AcDbEntity
  8
Ebene 1
 62
     7
370
    35
100
AcDbVertex
100
AcDb2dVertex
 10
13.85002027431528
 20
-91.32252881047864
 30
0.0
  0
SEQEND
  5
6B
330
68
100
AcDbEntity
  8
Ebene 1
 62
     7
370
    35
  0
POLYLINE
  5
6C
330
41
100
AcDbEntity
  8
Ebene 1
 62
     7
370
    35
100
AcDb2dPolyline
 66
     1
 10
0.0
 20
0.0
 30
0.0
  0
VERTEX
  5
6D
330
6C
100
AcDbEntity
  8
Ebene 1
 62
     7
370
    35
100
AcDbVertex
100
AcDb2dVertex
 10
13.86356694097869
 20
-91.31120464410088
 30
0.0
  0
VERTEX
  5
6E
330
6C
100
AcDbEntity
  8
Ebene 1
 62
     7
370
    35
100
AcDbVertex
100
AcDb2dVertex
 10
13.85894555209091
 20
-91.31504992178056
 30
0.0
  0
SEQEND
  5
6F
330
6C
100
AcDbEntity
  8
Ebene 1
 62
     7
370
    35
  0
POLYLINE
  5
70
330
41
100
AcDbEntity
  8
Ebene 1
 62
     7
370
    35
100
AcDb2dPolyline
 66
     1
 10
0.0
 20
0.0
 30
0.0
  0
VERTEX
  5
71
330
70
100
AcDbEntity
  8
Ebene 1
 62
     7
370
    35
100
AcDbVertex
100
AcDb2dVertex
 10
15.35003138505121
 20
-90.06388828703369
 30
0.0
  0
VERTEX
  5
72
330
70
100
AcDbEntity
  8
Ebene 1
 62
     7
370
    35
100
AcDbVertex
100
AcDb2dVertex
 10
13.87679610764186
 20
-91.3000921443844
 30
0.0
  0
SEQEND
  5
73
330
70
100
AcDbEntity
  8
Ebene 1
 62
     7
370
    35
  0
POLYLINE
  5
74
330
41
100
AcDbEntity
  8
Ebene 1
 62
     7
370
    35
100
AcDb2dPolyline
 66
     1
 10
0.0
 20
0.0
 30
0.0
  0
VERTEX
  5
75
330
74
100
AcDbEntity
  8
Ebene 1
 62
     7
370
    35
100
AcDbVertex
100
AcDb2dVertex
 10
163.8635491257008
 20
-104.5165937516478
 30
0.0
  0
VERTEX
  5
76
330
74
100
AcDbEntity
  8
Ebene 1
 62
     7
370
    35
100
AcDbVertex
100
AcDb2dVertex
 10
163.8589630145912
 20
-104.5127131961912
 30
0.0
  0
SEQEND
  5
77
330
74
100
AcDbEntity
  8
Ebene 1
 62
     7
370
    35
  0
POLYLINE
  5
78
330
41
100
AcDbEntity
  8
Ebene 1
 62
     7
370
    35
100
AcDb2dPolyline
 66
     1
 10
0.0
 20
0.0
 30
0.0
  0
VERTEX
  5
79
330
78
100
AcDbEntity
  8
Ebene 1
 62
     7
370
    35
100
AcDbVertex
100
AcDb2dVertex
 10
195.836504673263
 20
-91.31120464410088
 30
0.0
  0
VERTEX
  5
7A
330
78
100
AcDbEntity
  8
Ebene 1
 62
     7
370
    35
100
AcDbVertex
100
AcDb2dVertex
 10
195.8411260621508
 20
-91.31504992178056
 30
0.0
  0
SEQEND
  5
7B
330
78
100
AcDbEntity
  8
Ebene 1
 62
     7
370
    35
  0
POLYLINE
  5
7C
330
41
100
AcDbEntity
  8
Ebene 1
 62
     7
370
    35
100
AcDb2dPolyline
 66
     1
 10
0.0
 20
0.0
 30
0.0
  0
VERTEX
  5
7D
330
7C
100
AcDbEntity
  8
Ebene 1
 62
     7
370
    35
100
AcDbVertex
100
AcDb2dVertex
 10
194.3500402291905
 20
-90.06388828703369
 30
0.0
  0
VERTEX
  5
7E
330
7C
100
AcDbEntity
  8
Ebene 1
 62
     7
370
    35
100
AcDbVertex
100
AcDb2dVertex
 10
195.8232755065995
 20
-91.3000921443844
 30
0.0
  0
SEQEND
  5
7F
330
7C
100
AcDbEntity
  8
Ebene 1
 62
     7
370
    35
  0
POLYLINE
  5
80
330
41
100
AcDbEntity
  8
Ebene 1
 62
     7
370
    35
100
AcDb2dPolyline
 66
     1
 10
0.0
 20
0.0
 30
0.0
  0
VERTEX
  5
81
330
80
100
AcDbEntity
  8
Ebene 1
 62
     7
370
    35
100
AcDbVertex
100
AcDb2dVertex
 10
195.8500160621486
 20
-104.5052343074931
 30
0.0
  0
VERTEX
  5
82
330
80
100
AcDbEntity
  8
Ebene 1
 62
     7
370
    35
100
AcDbVertex
100
AcDb2dVertex
 10
195.8500160621486
 20
-91.32252881047864
 30
0.0
  0
SEQEND
  5
83
330
80
100
AcDbEntity
  8
Ebene 1
 62
     7
370
    35
  0
POLYLINE
  5
84
330
41
100
AcDbEntity
  8
Ebene 1
 62
     7
370
    35
100
AcDb2dPolyline
 66
     1
 10
0.0
 20
0.0
 30
0.0
  0
VERTEX
  5
85
330
84
100
AcDbEntity
  8
Ebene 1
 62
     7
370
    35
100
AcDbVertex
100
AcDb2dVertex
 10
163.8500377368152
 20
-104.5052343074931
 30
0.0
  0
VERTEX
  5
86
330
84
100
AcDbEntity
  8
Ebene 1
 62
     7
370
    35
100
AcDbVertex
100
AcDb2dVertex
 10
163.8500377368152
 20
-91.32252881047864
 30
0.0
  0
SEQEND
  5
87
330
84
100
AcDbEntity
  8
Ebene 1
 62
     7
370
    35
  0
POLYLINE
  5
88
330
41
100
AcDbEntity
  8
Ebene 1
 62
     7
370
    35
100
AcDb2dPolyline
 66
     1
 10
0.0
 20
0.0
 30
0.0
  0
VERTEX
  5
89
330
88
100
AcDbEntity
  8
Ebene 1
 62
     7
370
    35
100
AcDbVertex
100
AcDb2dVertex
 10
163.8635491257008
 20
-91.31120464410088
 30
0.0
  0
VERTEX
  5
8A
330
88
100
AcDbEntity
  8
Ebene 1
 62
     7
370
    35
100
AcDbVertex
100
AcDb2dVertex
 10
163.8589630145912
 20
-91.31504992178056
 30
0.0
  0
SEQEND
  5
8B
330
88
100
AcDbEntity
  8
Ebene 1
 62
     7
370
    35
  0
POLYLINE
  5
8C
330
41
100
AcDbEntity
  8
Ebene 1
 62
     7
370
    35
100
AcDb2dPolyline
 66
     1
 10
0.0
 20
0.0
 30
0.0
  0
VERTEX
  5
8D
330
8C
100
AcDbEntity
  8
Ebene 1
 62
     7
370
    35
100
AcDbVertex
100
AcDb2dVertex
 10
165.3500488475515
 20
-90.06388828703369
 30
0.0
  0
VERTEX
  5
8E
330
8C
100
AcDbEntity
  8
Ebene 1
 62
     7
370
    35
100
AcDbVertex
100
AcDb2dVertex
 10
163.8767782923643
 20
-91.3000921443844
 30
0.0
  0
SEQEND
  5
8F
330
8C
100
AcDbEntity
  8
Ebene 1
 62
     7
370
    35
  0
POLYLINE
  5
90
330
41
100
AcDbEntity
  8
Ebene 1
 62
     7
370
    35
100
AcDb2dPolyline
 66
     1
 10
0.0
 20
0.0
 30
0.0
  0
VERTEX
  5
91
330
90
100
AcDbEntity
  8
Ebene 1
 62
     7
370
    35
100
AcDbVertex
100
AcDb2dVertex
 10
5.483789443073558
 20
-106.0785173229109
 30
0.0
  0
VERTEX
  5
92
330
90
100
AcDbEntity
  8
Ebene 1
 62
     7
370
    35
100
AcDbVertex
100
AcDb2dVertex
 10
6.175092776234115
 20
-106.0806692673005
 30
0.0
  0
SEQEND
  5
93
330
90
100
AcDbEntity
  8
Ebene 1
 62
     7
370
    35
  0
SPLINE
  5
94
330
41
100
AcDbEntity
  8
Ebene 1
 62
     7
370
    35
100
AcDbSpline
210
0.0
220
0.0
230
1.0
 70
     8
 71
     3
 72
     8
 73
     4
 74
     0
 42
0.0000000001
 43
0.0000000001
 12
1.0
 22
0.0
 32
0.0
 13
1.0
 23
0.0
 33
0.0
 40
0.0
 40
0.0
 40
0.0
 40
0.0
 40
1.0
 40
1.0
 40
1.0
 40
1.0
 10
1.393648610762671
 20
-108.7788194762427
 30
0.0
 10
1.986562221725514
 20
-107.6024467284767
 30
0.0
 10
2.755406110422187
 20
-106.8913173021747
 30
0.0
 10
3.98204972122666
 20
-106.4047662034765
 30
0.0
  0
SPLINE
  5
95
330
41
100
AcDbEntity
  8
Ebene 1
 62
     7
370
    35
100
AcDbSpline
210
0.0
220
0.0
230
1.0
 70
     8
 71
     3
 72
     8
 73
     4
 74
     0
 42
0.0000000001
 43
0.0000000001
 12
1.0
 22
0.0
 32
0.0
 13
1.0
 23
0.0
 33
0.0
 40
0.0
 40
0.0
 40
0.0
 40
0.0
 40
1.0
 40
1.0
 40
1.0
 40
1.0
 10
208.8500182811212
 20
-136.0638868356982
 30
0.0
 10
208.8500182811212
 20
-139.3775989733806
 30
0.0
 10
206.1637566151258
 20
-142.0638958492919
 30
0.0
 10
202.8500443937319
 20
-142.0638958492919
 30
0.0
  0
SPLINE
  5
96
330
41
100
AcDbEntity
  8
Ebene 1
 62
     7
370
    35
100
AcDbSpline
210
0.0
220
0.0
230
1.0
 70
     8
 71
     3
 72
     8
 73
     4
 74
     0
 42
0.0000000001
 43
0.0000000001
 12
1.0
 22
0.0
 32
0.0
 13
1.0
 23
0.0
 33
0.0
 40
0.0
 40
0.0
 40
0.0
 40
0.0
 40
1.0
 40
1.0
 40
1.0
 40
1.0
 10
119.8528633033697
 20
-243.0638888281229
 30
0.0
 10
120.0321802477698
 20
-243.0638182725673
 30
0.0
 10
120.2105799699473
 20
-243.0557396614582
 30
0.0
 10
120.3891560810137
 20
-243.0396177170176
 30
0.0
  0
SPLINE
  5
97
330
41
100
AcDbEntity
  8
Ebene 1
 62
     7
370
    35
100
AcDbSpline
210
0.0
220
0.0
230
1.0
 70
     8
 71
     3
 72
     8
 73
     4
 74
     0
 42
0.0000000001
 43
0.0000000001
 12
1.0
 22
0.0
 32
0.0
 13
1.0
 23
0.0
 33
0.0
 40
0.0
 40
0.0
 40
0.0
 40
0.0
 40
1.0
 40
1.0
 40
1.0
 40
1.0
 10
89.84720831087135
 20
-243.0638888281229
 30
0.0
 10
89.66789136647192
 20
-243.0638182725673
 30
0.0
 10
89.48949164429439
 20
-243.0557396614582
 30
0.0
 10
89.310915533228
 20
-243.0396177170176
 30
0.0
  0
POLYLINE
  5
98
330
41
100
AcDbEntity
  8
Ebene 1
 62
     7
370
    35
100
AcDb2dPolyline
 66
     1
 10
0.0
 20
0.0
 30
0.0
  0
VERTEX
  5
99
330
98
100
AcDbEntity
  8
Ebene 1
 62
     7
370
    35
100
AcDbVertex
100
AcDb2dVertex
 10
208.8359424477908
 20
-110.7759297030699
 30
0.0
  0
VERTEX
  5
9A
330
98
100
AcDbEntity
  8
Ebene 1
 62
     7
370
    35
100
AcDbVertex
100
AcDb2dVertex
 10
208.8340374477913
 20
-111.418373297791
 30
0.0
  0
SEQEND
  5
9B
330
98
100
AcDbEntity
  8
Ebene 1
 62
     7
370
    35
  0
POLYLINE
  5
9C
330
41
100
AcDbEntity
  8
Ebene 1
 62
     7
370
    35
100
AcDb2dPolyline
 66
     1
 10
0.0
 20
0.0
 30
0.0
  0
VERTEX
  5
9D
330
9C
100
AcDbEntity
  8
Ebene 1
 62
     7
370
    35
100
AcDbVertex
100
AcDb2dVertex
 10
90.10794636636197
 20
-168.7676560013555
 30
0.0
  0
VERTEX
  5
9E
330
9C
100
AcDbEntity
  8
Ebene 1
 62
     7
370
    35
100
AcDbVertex
100
AcDb2dVertex
 10
90.10794636636197
 20
-168.7126226694262
 30
0.0
  0
SEQEND
  5
9F
330
9C
100
AcDbEntity
  8
Ebene 1
 62
     7
370
    35
  0
SPLINE
  5
A0
330
41
100
AcDbEntity
  8
Ebene 1
 62
     7
370
    35
100
AcDbSpline
210
0.0
220
0.0
230
1.0
 70
     8
 71
     3
 72
     8
 73
     4
 74
     0
 42
0.0000000001
 43
0.0000000001
 12
1.0
 22
0.0
 32
0.0
 13
1.0
 23
0.0
 33
0.0
 40
0.0
 40
0.0
 40
0.0
 40
0.0
 40
1.0
 40
1.0
 40
1.0
 40
1.0
 10
118.0347171927137
 20
-214.9969946684731
 30
0.0
 10
118.0866460815894
 20
-214.9481349462634
 30
0.0
 10
118.1374813593544
 20
-214.8982168907197
 30
0.0
 10
118.1872583037866
 20
-214.847205224066
 30
0.0
  0
SPLINE
  5
A1
330
41
100
AcDbEntity
  8
Ebene 1
 62
     7
370
    35
100
AcDbSpline
210
0.0
220
0.0
230
1.0
 70
     8
 71
     3
 72
     8
 73
     4
 74
     0
 42
0.0000000001
 43
0.0000000001
 12
1.0
 22
0.0
 32
0.0
 13
1.0
 23
0.0
 33
0.0
 40
0.0
 40
0.0
 40
0.0
 40
0.0
 40
1.0
 40
1.0
 40
1.0
 40
1.0
 10
114.6083630269038
 20
-216.3555418903559
 30
0.0
 10
115.8782924710307
 20
-216.3555418903559
 30
0.0
 10
116.841799137456
 20
-216.0057627237766
 30
0.0
 10
117.8159596927684
 20
-215.1910930017578
 30
0.0
  0
POLYLINE
  5
A2
330
41
100
AcDbEntity
  8
Ebene 1
 62
     7
370
    35
100
AcDb2dPolyline
 66
     1
 10
0.0
 20
0.0
 30
0.0
  0
VERTEX
  5
A3
330
A2
100
AcDbEntity
  8
Ebene 1
 62
     7
370
    35
100
AcDbVertex
100
AcDb2dVertex
 10
95.10835969844516
 20
-216.3555418903559
 30
0.0
  0
VERTEX
  5
A4
330
A2
100
AcDbEntity
  8
Ebene 1
 62
     7
370
    35
100
AcDbVertex
100
AcDb2dVertex
 10
114.6083630269038
 20
-216.3555418903559
 30
0.0
  0
SEQEND
  5
A5
330
A2
100
AcDbEntity
  8
Ebene 1
 62
     7
370
    35
  0
SPLINE
  5
A6
330
41
100
AcDbEntity
  8
Ebene 1
 62
     7
370
    35
100
AcDbSpline
210
0.0
220
0.0
230
1.0
 70
     8
 71
     3
 72
     8
 73
     4
 74
     0
 42
0.0000000001
 43
0.0000000001
 12
1.0
 22
0.0
 32
0.0
 13
1.0
 23
0.0
 33
0.0
 40
0.0
 40
0.0
 40
0.0
 40
0.0
 40
1.0
 40
1.0
 40
1.0
 40
1.0
 10
95.10835969844516
 20
-216.3555418903559
 30
0.0
 10
92.34695636580199
 20
-216.3555418903559
 30
0.0
 10
90.10836969969509
 20
-214.1169905020268
 30
0.0
 10
90.10836969969509
 20
-211.3555518916054
 30
0.0
  0
POLYLINE
  5
A7
330
41
100
AcDbEntity
  8
Ebene 1
 62
     7
370
    35
100
AcDb2dPolyline
 66
     1
 10
0.0
 20
0.0
 30
0.0
  0
VERTEX
  5
A8
330
A7
100
AcDbEntity
  8
Ebene 1
 62
     7
370
    35
100
AcDbVertex
100
AcDb2dVertex
 10
90.10836969969509
 20
-150.4387342467431
 30
0.0
  0
VERTEX
  5
A9
330
A7
100
AcDbEntity
  8
Ebene 1
 62
     7
370
    35
100
AcDbVertex
100
AcDb2dVertex
 10
90.10836969969509
 20
-211.3555518916054
 30
0.0
  0
SEQEND
  5
AA
330
A7
100
AcDbEntity
  8
Ebene 1
 62
     7
370
    35
  0
SPLINE
  5
AB
330
41
100
AcDbEntity
  8
Ebene 1
 62
     7
370
    35
100
AcDbSpline
210
0.0
220
0.0
230
1.0
 70
     8
 71
     3
 72
     8
 73
     4
 74
     0
 42
0.0000000001
 43
0.0000000001
 12
1.0
 22
0.0
 32
0.0
 13
1.0
 23
0.0
 33
0.0
 40
0.0
 40
0.0
 40
0.0
 40
0.0
 40
1.0
 40
1.0
 40
1.0
 40
1.0
 10
90.1148960885824
 20
-150.4016925810214
 30
0.0
 10
90.09027219969958
 20
-150.4022570254514
 30
0.0
 10
90.10851081080614
 20
-150.4258931359595
 30
0.0
 10
90.10836969969509
 20
-150.4387342467431
 30
0.0
  0
SPLINE
  5
AC
330
41
100
AcDbEntity
  8
Ebene 1
 62
     7
370
    35
100
AcDbSpline
210
0.0
220
0.0
230
1.0
 70
     8
 71
     3
 72
     8
 73
     4
 74
     0
 42
0.0000000001
 43
0.0000000001
 12
1.0
 22
0.0
 32
0.0
 13
1.0
 23
0.0
 33
0.0
 40
0.0
 40
0.0
 40
0.0
 40
0.0
 40
1.0
 40
1.0
 40
1.0
 40
1.0
 10
119.6083530256535
 20
-150.4387695245199
 30
0.0
 10
119.6082119145422
 20
-150.4258931359595
 30
0.0
 10
119.6265210812044
 20
-150.4022570254514
 30
0.0
 10
119.6019324700994
 20
-150.4016925810214
 30
0.0
  0
POLYLINE
  5
AD
330
41
100
AcDbEntity
  8
Ebene 1
 62
     7
370
    35
100
AcDb2dPolyline
 66
     1
 10
0.0
 20
0.0
 30
0.0
  0
VERTEX
  5
AE
330
AD
100
AcDbEntity
  8
Ebene 1
 62
     7
370
    35
100
AcDbVertex
100
AcDb2dVertex
 10
119.6083530256535
 20
-211.3555518916054
 30
0.0
  0
VERTEX
  5
AF
330
AD
100
AcDbEntity
  8
Ebene 1
 62
     7
370
    35
100
AcDbVertex
100
AcDb2dVertex
 10
119.6083530256535
 20
-150.4387695245199
 30
0.0
  0
SEQEND
  5
B0
330
AD
100
AcDbEntity
  8
Ebene 1
 62
     7
370
    35
  0
POLYLINE
  5
B1
330
41
100
AcDbEntity
  8
Ebene 1
 62
     7
370
    35
100
AcDb2dPolyline
 66
     1
 10
0.0
 20
0.0
 30
0.0
  0
VERTEX
  5
B2
330
B1
100
AcDbEntity
  8
Ebene 1
 62
     7
370
    35
100
AcDbVertex
100
AcDb2dVertex
 10
6.175092776234115
 20
-106.0638770455066
 30
0.0
  0
VERTEX
  5
B3
330
B1
100
AcDbEntity
  8
Ebene 1
 62
     7
370
    35
100
AcDbVertex
100
AcDb2dVertex
 10
204.0514643934315
 20
-106.0638770455066
 30
0.0
  0
SEQEND
  5
B4
330
B1
100
AcDbEntity
  8
Ebene 1
 62
     7
370
    35
  0
SPLINE
  5
B5
330
41
100
AcDbEntity
  8
Ebene 1
 62
     7
370
    35
100
AcDbSpline
210
0.0
220
0.0
230
1.0
 70
     8
 71
     3
 72
     8
 73
     4
 74
     0
 42
0.0000000001
 43
0.0000000001
 12
1.0
 22
0.0
 32
0.0
 13
1.0
 23
0.0
 33
0.0
 40
0.0
 40
0.0
 40
0.0
 40
0.0
 40
1.0
 40
1.0
 40
1.0
 40
1.0
 10
89.54202025539243
 20
-116.7671898279979
 30
0.0
 10
90.23808608855147
 20
-116.0606112349131
 30
0.0
 10
90.97415692170091
 20
-115.4098068070721
 30
0.0
 10
91.76071025483749
 20
-114.8056043224866
 30
0.0
  0
SPLINE
  5
B6
330
41
100
AcDbEntity
  8
Ebene 1
 62
     7
370
    35
100
AcDbSpline
210
0.0
220
0.0
230
1.0
 70
     8
 71
     3
 72
     8
 73
     4
 74
     0
 42
0.0000000001
 43
0.0000000001
 12
1.0
 22
0.0
 32
0.0
 13
1.0
 23
0.0
 33
0.0
 40
0.0
 40
0.0
 40
0.0
 40
0.0
 40
1.0
 40
1.0
 40
1.0
 40
1.0
 10
88.73239525559481
 20
-117.6357639725054
 30
0.0
 10
88.9273755333239
 20
-117.4146075892587
 30
0.0
 10
89.12673025549621
 20
-117.1977198170142
 30
0.0
 10
89.33063581100063
 20
-116.98478315578
 30
0.0
  0
SPLINE
  5
B7
330
41
100
AcDbEntity
  8
Ebene 1
 62
     7
370
    35
100
AcDbSpline
210
0.0
220
0.0
230
1.0
 70
     8
 71
     3
 72
     8
 73
     4
 74
     0
 42
0.0000000001
 43
0.0000000001
 12
1.0
 22
0.0
 32
0.0
 13
1.0
 23
0.0
 33
0.0
 40
0.0
 40
0.0
 40
0.0
 40
0.0
 40
1.0
 40
1.0
 40
1.0
 40
1.0
 10
87.87292275580957
 20
-145.0367893845581
 30
0.0
 10
81.61224609070811
 20
-136.9692204237123
 30
0.0
 10
81.89023497952734
 20
-125.6108346023778
 30
0.0
 10
88.53808525564307
 20
-117.8592134112492
 30
0.0
  0
SPLINE
  5
B8
330
41
100
AcDbEntity
  8
Ebene 1
 62
     7
370
    35
100
AcDbSpline
210
0.0
220
0.0
230
1.0
 70
     8
 71
     3
 72
     8
 73
     4
 74
     0
 42
0.0000000001
 43
0.0000000001
 12
1.0
 22
0.0
 32
0.0
 13
1.0
 23
0.0
 33
0.0
 40
0.0
 40
0.0
 40
0.0
 40
0.0
 40
1.0
 40
1.0
 40
1.0
 40
1.0
 10
124.2524608022702
 20
-141.1355611507534
 30
0.0
 10
124.2347866356078
 20
-141.1724969831444
 30
0.0
 10
124.2170419133904
 20
-141.2093269822048
 30
0.0
 10
124.1991560800616
 20
-141.2461569812652
 30
0.0
  0
SPLINE
  5
B9
330
41
100
AcDbEntity
  8
Ebene 1
 62
     7
370
    35
100
AcDbSpline
210
0.0
220
0.0
230
1.0
 70
     8
 71
     3
 72
     8
 73
     4
 74
     0
 42
0.0000000001
 43
0.0000000001
 12
1.0
 22
0.0
 32
0.0
 13
1.0
 23
0.0
 33
0.0
 40
0.0
 40
0.0
 40
0.0
 40
0.0
 40
1.0
 40
1.0
 40
1.0
 40
1.0
 10
125.9729933018399
 20
-135.9078885063447
 30
0.0
 10
125.9472405240691
 20
-136.0421557251415
 30
0.0
 10
125.920217746298
 20
-136.1761407217232
 30
0.0
 10
125.891889690749
 20
-136.30984349609
 30
0.0
  0
SPLINE
  5
BA
330
41
100
AcDbEntity
  8
Ebene 1
 62
     7
370
    35
100
AcDbSpline
210
0.0
220
0.0
230
1.0
 70
     8
 71
     3
 72
     8
 73
     4
 74
     0
 42
0.0000000001
 43
0.0000000001
 12
1.0
 22
0.0
 32
0.0
 13
1.0
 23
0.0
 33
0.0
 40
0.0
 40
0.0
 40
0.0
 40
0.0
 40
1.0
 40
1.0
 40
1.0
 40
1.0
 10
125.2617227464622
 20
-125.0767643382252
 30
0.0
 10
125.3034210797854
 20
-125.2022826683563
 30
0.0
 10
125.3439552464421
 20
-125.3281537762562
 30
0.0
 10
125.3833252464323
 20
-125.4543776619249
 30
0.0
  0
POLYLINE
  5
BB
330
41
100
AcDbEntity
  8
Ebene 1
 62
     7
370
    35
100
AcDb2dPolyline
 66
     1
 10
0.0
 20
0.0
 30
0.0
  0
VERTEX
  5
BC
330
BB
100
AcDbEntity
  8
Ebene 1
 62
     7
370
    35
100
AcDbVertex
100
AcDb2dVertex
 10
1.350045277440275
 20
-90.06388828703369
 30
0.0
  0
VERTEX
  5
BD
330
BB
100
AcDbEntity
  8
Ebene 1
 62
     7
370
    35
100
AcDbVertex
100
AcDb2dVertex
 10
58.35004415207928
 20
-90.06388828703369
 30
0.0
  0
SEQEND
  5
BE
330
BB
100
AcDbEntity
  8
Ebene 1
 62
     7
370
    35
  0
POLYLINE
  5
BF
330
41
100
AcDbEntity
  8
Ebene 1
 62
     7
370
    35
100
AcDb2dPolyline
 66
     1
 10
0.0
 20
0.0
 30
0.0
  0
VERTEX
  5
C0
330
BF
100
AcDbEntity
  8
Ebene 1
 62
     7
370
    35
100
AcDbVertex
100
AcDb2dVertex
 10
59.82021026282263
 20
-71.06387738287546
 30
0.0
  0
VERTEX
  5
C1
330
BF
100
AcDbEntity
  8
Ebene 1
 62
     7
370
    35
100
AcDbVertex
100
AcDb2dVertex
 10
-0.1499658332959774
 20
-71.06387738287546
 30
0.0
  0
SEQEND
  5
C2
330
BF
100
AcDbEntity
  8
Ebene 1
 62
     7
370
    35
  0
POLYLINE
  5
C3
330
41
100
AcDbEntity
  8
Ebene 1
 62
     7
370
    35
100
AcDb2dPolyline
 66
     1
 10
0.0
 20
0.0
 30
0.0
  0
VERTEX
  5
C4
330
C3
100
AcDbEntity
  8
Ebene 1
 62
     7
370
    35
100
AcDbVertex
100
AcDb2dVertex
 10
59.85001998503737
 20
-88.56387721419105
 30
0.0
  0
VERTEX
  5
C5
330
C3
100
AcDbEntity
  8
Ebene 1
 62
     7
370
    35
100
AcDbVertex
100
AcDb2dVertex
 10
59.85001998503737
 20
-71.06387738287546
 30
0.0
  0
SEQEND
  5
C6
330
C3
100
AcDbEntity
  8
Ebene 1
 62
     7
370
    35
  0
POLYLINE
  5
C7
330
41
100
AcDbEntity
  8
Ebene 1
 62
     7
370
    35
100
AcDb2dPolyline
 66
     1
 10
0.0
 20
0.0
 30
0.0
  0
VERTEX
  5
C8
330
C7
100
AcDbEntity
  8
Ebene 1
 62
     7
370
    35
100
AcDbVertex
100
AcDb2dVertex
 10
-0.1499658332959774
 20
-88.56387721419105
 30
0.0
  0
VERTEX
  5
C9
330
C7
100
AcDbEntity
  8
Ebene 1
 62
     7
370
    35
100
AcDbVertex
100
AcDb2dVertex
 10
-0.1499658332959774
 20
-71.06387738287546
 30
0.0
  0
SEQEND
  5
CA
330
C7
100
AcDbEntity
  8
Ebene 1
 62
     7
370
    35
  0
SPLINE
  5
CB
330
41
100
AcDbEntity
  8
Ebene 1
 62
     7
370
    35
100
AcDbSpline
210
0.0
220
0.0
230
1.0
 70
     8
 71
     3
 72
     8
 73
     4
 74
     0
 42
0.0000000001
 43
0.0000000001
 12
1.0
 22
0.0
 32
0.0
 13
1.0
 23
0.0
 33
0.0
 40
0.0
 40
0.0
 40
0.0
 40
0.0
 40
1.0
 40
1.0
 40
1.0
 40
1.0
 10
1.350045277440275
 20
-90.06388828703369
 30
0.0
 10
0.5216172220919484
 20
-90.06388828703369
 30
0.0
 10
-0.1499658332959774
 20
-89.39230524861165
 30
0.0
 10
-0.1499658332959774
 20
-88.56387721419105
 30
0.0
  0
POLYLINE
  5
CC
330
41
100
AcDbEntity
  8
Ebene 1
 62
     7
370
    35
100
AcDb2dPolyline
 66
     1
 10
0.0
 20
0.0
 30
0.0
  0
VERTEX
  5
CD
330
CC
100
AcDbEntity
  8
Ebene 1
 62
     7
370
    35
100
AcDbVertex
100
AcDb2dVertex
 10
30.20003554800543
 20
-71.06387738287546
 30
0.0
  0
VERTEX
  5
CE
330
CC
100
AcDbEntity
  8
Ebene 1
 62
     7
370
    35
100
AcDbVertex
100
AcDb2dVertex
 10
30.20003554800543
 20
-55.06388862440252
 30
0.0
  0
SEQEND
  5
CF
330
CC
100
AcDbEntity
  8
Ebene 1
 62
     7
370
    35
  0
POLYLINE
  5
D0
330
41
100
AcDbEntity
  8
Ebene 1
 62
     7
370
    35
100
AcDb2dPolyline
 66
     1
 10
0.0
 20
0.0
 30
0.0
  0
VERTEX
  5
D1
330
D0
100
AcDbEntity
  8
Ebene 1
 62
     7
370
    35
100
AcDbVertex
100
AcDb2dVertex
 10
9.500023330958502
 20
-55.06388862440252
 30
0.0
  0
VERTEX
  5
D2
330
D0
100
AcDbEntity
  8
Ebene 1
 62
     7
370
    35
100
AcDbVertex
100
AcDb2dVertex
 10
9.500023330958502
 20
-71.06387738287546
 30
0.0
  0
SEQEND
  5
D3
330
D0
100
AcDbEntity
  8
Ebene 1
 62
     7
370
    35
  0
POLYLINE
  5
D4
330
41
100
AcDbEntity
  8
Ebene 1
 62
     7
370
    35
100
AcDb2dPolyline
 66
     1
 10
0.0
 20
0.0
 30
0.0
  0
VERTEX
  5
D5
330
D4
100
AcDbEntity
  8
Ebene 1
 62
     7
370
    35
100
AcDbVertex
100
AcDb2dVertex
 10
10.20011083078333
 20
-54.36380114226323
 30
0.0
  0
VERTEX
  5
D6
330
D4
100
AcDbEntity
  8
Ebene 1
 62
     7
370
    35
100
AcDbVertex
100
AcDb2dVertex
 10
9.520978330952977
 20
-55.042968902714
 30
0.0
  0
SEQEND
  5
D7
330
D4
100
AcDbEntity
  8
Ebene 1
 62
     7
370
    35
  0
POLYLINE
  5
D8
330
41
100
AcDbEntity
  8
Ebene 1
 62
     7
370
    35
100
AcDb2dPolyline
 66
     1
 10
0.0
 20
0.0
 30
0.0
  0
VERTEX
  5
D9
330
D8
100
AcDbEntity
  8
Ebene 1
 62
     7
370
    35
100
AcDbVertex
100
AcDb2dVertex
 10
10.50004249737496
 20
-54.06390476102534
 30
0.0
  0
VERTEX
  5
DA
330
D8
100
AcDbEntity
  8
Ebene 1
 62
     7
370
    35
100
AcDbVertex
100
AcDb2dVertex
 10
10.21940777522284
 20
-54.34450419831109
 30
0.0
  0
SEQEND
  5
DB
330
D8
100
AcDbEntity
  8
Ebene 1
 62
     7
370
    35
  0
POLYLINE
  5
DC
330
41
100
AcDbEntity
  8
Ebene 1
 62
     7
370
    35
100
AcDb2dPolyline
 66
     1
 10
0.0
 20
0.0
 30
0.0
  0
VERTEX
  5
DD
330
DC
100
AcDbEntity
  8
Ebene 1
 62
     7
370
    35
100
AcDbVertex
100
AcDb2dVertex
 10
10.50004249737496
 20
-54.06390476102534
 30
0.0
  0
VERTEX
  5
DE
330
DC
100
AcDbEntity
  8
Ebene 1
 62
     7
370
    35
100
AcDbVertex
100
AcDb2dVertex
 10
29.20001638158897
 20
-54.06390476102534
 30
0.0
  0
SEQEND
  5
DF
330
DC
100
AcDbEntity
  8
Ebene 1
 62
     7
370
    35
  0
POLYLINE
  5
E0
330
41
100
AcDbEntity
  8
Ebene 1
 62
     7
370
    35
100
AcDb2dPolyline
 66
     1
 10
0.0
 20
0.0
 30
0.0
  0
VERTEX
  5
E1
330
E0
100
AcDbEntity
  8
Ebene 1
 62
     7
370
    35
100
AcDbVertex
100
AcDb2dVertex
 10
29.48061582596326
 20
-54.34446892053422
 30
0.0
  0
VERTEX
  5
E2
330
E0
100
AcDbEntity
  8
Ebene 1
 62
     7
370
    35
100
AcDbVertex
100
AcDb2dVertex
 10
29.20001638158897
 20
-54.06390476102534
 30
0.0
  0
SEQEND
  5
E3
330
E0
100
AcDbEntity
  8
Ebene 1
 62
     7
370
    35
  0
POLYLINE
  5
E4
330
41
100
AcDbEntity
  8
Ebene 1
 62
     7
370
    35
100
AcDb2dPolyline
 66
     1
 10
0.0
 20
0.0
 30
0.0
  0
VERTEX
  5
E5
330
E4
100
AcDbEntity
  8
Ebene 1
 62
     7
370
    35
100
AcDbVertex
100
AcDb2dVertex
 10
30.17911582578848
 20
-55.042968902714
 30
0.0
  0
VERTEX
  5
E6
330
E4
100
AcDbEntity
  8
Ebene 1
 62
     7
370
    35
100
AcDbVertex
100
AcDb2dVertex
 10
29.4999480481806
 20
-54.36383642004012
 30
0.0
  0
SEQEND
  5
E7
330
E4
100
AcDbEntity
  8
Ebene 1
 62
     7
370
    35
  0
POLYLINE
  5
E8
330
41
100
AcDbEntity
  8
Ebene 1
 62
     7
370
    35
100
AcDb2dPolyline
 66
     1
 10
0.0
 20
0.0
 30
0.0
  0
VERTEX
  5
E9
330
E8
100
AcDbEntity
  8
Ebene 1
 62
     7
370
    35
100
AcDbVertex
100
AcDb2dVertex
 10
9.500023330958502
 20
-55.06388862440252
 30
0.0
  0
VERTEX
  5
EA
330
E8
100
AcDbEntity
  8
Ebene 1
 62
     7
370
    35
100
AcDbVertex
100
AcDb2dVertex
 10
30.20003554800543
 20
-55.06388862440252
 30
0.0
  0
SEQEND
  5
EB
330
E8
100
AcDbEntity
  8
Ebene 1
 62
     7
370
    35
  0
POLYLINE
  5
EC
330
41
100
AcDbEntity
  8
Ebene 1
 62
     7
370
    35
100
AcDb2dPolyline
 66
     1
 10
0.0
 20
0.0
 30
0.0
  0
VERTEX
  5
ED
330
EC
100
AcDbEntity
  8
Ebene 1
 62
     7
370
    35
100
AcDbVertex
100
AcDb2dVertex
 10
208.3500263368014
 20
-90.06388828703369
 30
0.0
  0
VERTEX
  5
EE
330
EC
100
AcDbEntity
  8
Ebene 1
 62
     7
370
    35
100
AcDbVertex
100
AcDb2dVertex
 10
151.3500274621624
 20
-90.06388828703369
 30
0.0
  0
SEQEND
  5
EF
330
EC
100
AcDbEntity
  8
Ebene 1
 62
     7
370
    35
  0
POLYLINE
  5
F0
330
41
100
AcDbEntity
  8
Ebene 1
 62
     7
370
    35
100
AcDb2dPolyline
 66
     1
 10
0.0
 20
0.0
 30
0.0
  0
VERTEX
  5
F1
330
F0
100
AcDbEntity
  8
Ebene 1
 62
     7
370
    35
100
AcDbVertex
100
AcDb2dVertex
 10
203.56953467133
 20
-106.0638770455066
 30
0.0
  0
VERTEX
  5
F2
330
F0
100
AcDbEntity
  8
Ebene 1
 62
     7
370
    35
100
AcDbVertex
100
AcDb2dVertex
 10
203.7621160601705
 20
-106.0638770455066
 30
0.0
  0
SEQEND
  5
F3
330
F0
100
AcDbEntity
  8
Ebene 1
 62
     7
370
    35
  0
POLYLINE
  5
F4
330
41
100
AcDbEntity
  8
Ebene 1
 62
     7
370
    35
100
AcDb2dPolyline
 66
     1
 10
0.0
 20
0.0
 30
0.0
  0
VERTEX
  5
F5
330
F4
100
AcDbEntity
  8
Ebene 1
 62
     7
370
    35
100
AcDbVertex
100
AcDb2dVertex
 10
209.8201924475451
 20
-71.06387738287546
 30
0.0
  0
VERTEX
  5
F6
330
F4
100
AcDbEntity
  8
Ebene 1
 62
     7
370
    35
100
AcDbVertex
100
AcDb2dVertex
 10
149.8500163514268
 20
-71.06387738287546
 30
0.0
  0
SEQEND
  5
F7
330
F4
100
AcDbEntity
  8
Ebene 1
 62
     7
370
    35
  0
POLYLINE
  5
F8
330
41
100
AcDbEntity
  8
Ebene 1
 62
     7
370
    35
100
AcDb2dPolyline
 66
     1
 10
0.0
 20
0.0
 30
0.0
  0
VERTEX
  5
F9
330
F8
100
AcDbEntity
  8
Ebene 1
 62
     7
370
    35
100
AcDbVertex
100
AcDb2dVertex
 10
209.8500374475377
 20
-88.56387721419105
 30
0.0
  0
VERTEX
  5
FA
330
F8
100
AcDbEntity
  8
Ebene 1
 62
     7
370
    35
100
AcDbVertex
100
AcDb2dVertex
 10
209.8500374475377
 20
-71.06387738287546
 30
0.0
  0
SEQEND
  5
FB
330
F8
100
AcDbEntity
  8
Ebene 1
 62
     7
370
    35
  0
POLYLINE
  5
FC
330
41
100
AcDbEntity
  8
Ebene 1
 62
     7
370
    35
100
AcDb2dPolyline
 66
     1
 10
0.0
 20
0.0
 30
0.0
  0
VERTEX
  5
FD
330
FC
100
AcDbEntity
  8
Ebene 1
 62
     7
370
    35
100
AcDbVertex
100
AcDb2dVertex
 10
149.8500163514268
 20
-88.56387721419105
 30
0.0
  0
VERTEX
  5
FE
330
FC
100
AcDbEntity
  8
Ebene 1
 62
     7
370
    35
100
AcDbVertex
100
AcDb2dVertex
 10
149.8500163514268
 20
-71.06387738287546
 30
0.0
  0
SEQEND
  5
FF
330
FC
100
AcDbEntity
  8
Ebene 1
 62
     7
370
    35
  0
SPLINE
  5
100
330
41
100
AcDbEntity
  8
Ebene 1
 62
     7
370
    35
100
AcDbSpline
210
0.0
220
0.0
230
1.0
 70
     8
 71
     3
 72
     8
 73
     4
 74
     0
 42
0.0000000001
 43
0.0000000001
 12
1.0
 22
0.0
 32
0.0
 13
1.0
 23
0.0
 33
0.0
 40
0.0
 40
0.0
 40
0.0
 40
0.0
 40
1.0
 40
1.0
 40
1.0
 40
1.0
 10
151.3500274621624
 20
-90.06388828703369
 30
0.0
 10
150.5215994068141
 20
-90.06388828703369
 30
0.0
 10
149.8500163514268
 20
-89.39230524861165
 30
0.0
 10
149.8500163514268
 20
-88.56387721419105
 30
0.0
  0
POLYLINE
  5
101
330
41
100
AcDbEntity
  8
Ebene 1
 62
     7
370
    35
100
AcDb2dPolyline
 66
     1
 10
0.0
 20
0.0
 30
0.0
  0
VERTEX
  5
102
330
101
100
AcDbEntity
  8
Ebene 1
 62
     7
370
    35
100
AcDbVertex
100
AcDb2dVertex
 10
180.2000177327279
 20
-71.06387738287546
 30
0.0
  0
VERTEX
  5
103
330
101
100
AcDbEntity
  8
Ebene 1
 62
     7
370
    35
100
AcDbVertex
100
AcDb2dVertex
 10
180.2000177327279
 20
-55.06388862440252
 30
0.0
  0
SEQEND
  5
104
330
101
100
AcDbEntity
  8
Ebene 1
 62
     7
370
    35
  0
POLYLINE
  5
105
330
41
100
AcDbEntity
  8
Ebene 1
 62
     7
370
    35
100
AcDb2dPolyline
 66
     1
 10
0.0
 20
0.0
 30
0.0
  0
VERTEX
  5
106
330
105
100
AcDbEntity
  8
Ebene 1
 62
     7
370
    35
100
AcDbVertex
100
AcDb2dVertex
 10
159.5000407934581
 20
-55.06388862440252
 30
0.0
  0
VERTEX
  5
107
330
105
100
AcDbEntity
  8
Ebene 1
 62
     7
370
    35
100
AcDbVertex
100
AcDb2dVertex
 10
159.5000407934581
 20
-71.06387738287546
 30
0.0
  0
SEQEND
  5
108
330
105
100
AcDbEntity
  8
Ebene 1
 62
     7
370
    35
  0
POLYLINE
  5
109
330
41
100
AcDbEntity
  8
Ebene 1
 62
     7
370
    35
100
AcDb2dPolyline
 66
     1
 10
0.0
 20
0.0
 30
0.0
  0
VERTEX
  5
10A
330
109
100
AcDbEntity
  8
Ebene 1
 62
     7
370
    35
100
AcDbVertex
100
AcDb2dVertex
 10
160.2000930155051
 20
-54.36380114226323
 30
0.0
  0
VERTEX
  5
10B
330
109
100
AcDbEntity
  8
Ebene 1
 62
     7
370
    35
100
AcDbVertex
100
AcDb2dVertex
 10
159.5209605156754
 20
-55.042968902714
 30
0.0
  0
SEQEND
  5
10C
330
109
100
AcDbEntity
  8
Ebene 1
 62
     7
370
    35
  0
POLYLINE
  5
10D
330
41
100
AcDbEntity
  8
Ebene 1
 62
     7
370
    35
100
AcDb2dPolyline
 66
     1
 10
0.0
 20
0.0
 30
0.0
  0
VERTEX
  5
10E
330
10D
100
AcDbEntity
  8
Ebene 1
 62
     7
370
    35
100
AcDbVertex
100
AcDb2dVertex
 10
160.5000246820971
 20
-54.06390476102534
 30
0.0
  0
VERTEX
  5
10F
330
10D
100
AcDbEntity
  8
Ebene 1
 62
     7
370
    35
100
AcDbVertex
100
AcDb2dVertex
 10
160.219389959945
 20
-54.34450419831109
 30
0.0
  0
SEQEND
  5
110
330
10D
100
AcDbEntity
  8
Ebene 1
 62
     7
370
    35
  0
POLYLINE
  5
111
330
41
100
AcDbEntity
  8
Ebene 1
 62
     7
370
    35
100
AcDb2dPolyline
 66
     1
 10
0.0
 20
0.0
 30
0.0
  0
VERTEX
  5
112
330
111
100
AcDbEntity
  8
Ebene 1
 62
     7
370
    35
100
AcDbVertex
100
AcDb2dVertex
 10
160.5000246820971
 20
-54.06390476102534
 30
0.0
  0
VERTEX
  5
113
330
111
100
AcDbEntity
  8
Ebene 1
 62
     7
370
    35
100
AcDbVertex
100
AcDb2dVertex
 10
179.2000338440889
 20
-54.06390476102534
 30
0.0
  0
SEQEND
  5
114
330
111
100
AcDbEntity
  8
Ebene 1
 62
     7
370
    35
  0
POLYLINE
  5
115
330
41
100
AcDbEntity
  8
Ebene 1
 62
     7
370
    35
100
AcDb2dPolyline
 66
     1
 10
0.0
 20
0.0
 30
0.0
  0
VERTEX
  5
116
330
115
100
AcDbEntity
  8
Ebene 1
 62
     7
370
    35
100
AcDbVertex
100
AcDb2dVertex
 10
179.4805980106854
 20
-54.34446892053422
 30
0.0
  0
VERTEX
  5
117
330
115
100
AcDbEntity
  8
Ebene 1
 62
     7
370
    35
100
AcDbVertex
100
AcDb2dVertex
 10
179.2000338440889
 20
-54.06390476102534
 30
0.0
  0
SEQEND
  5
118
330
115
100
AcDbEntity
  8
Ebene 1
 62
     7
370
    35
  0
POLYLINE
  5
119
330
41
100
AcDbEntity
  8
Ebene 1
 62
     7
370
    35
100
AcDb2dPolyline
 66
     1
 10
0.0
 20
0.0
 30
0.0
  0
VERTEX
  5
11A
330
119
100
AcDbEntity
  8
Ebene 1
 62
     7
370
    35
100
AcDbVertex
100
AcDb2dVertex
 10
180.1790980105106
 20
-55.042968902714
 30
0.0
  0
VERTEX
  5
11B
330
119
100
AcDbEntity
  8
Ebene 1
 62
     7
370
    35
100
AcDbVertex
100
AcDb2dVertex
 10
179.4999655106809
 20
-54.36383642004012
 30
0.0
  0
SEQEND
  5
11C
330
119
100
AcDbEntity
  8
Ebene 1
 62
     7
370
    35
  0
POLYLINE
  5
11D
330
41
100
AcDbEntity
  8
Ebene 1
 62
     7
370
    35
100
AcDb2dPolyline
 66
     1
 10
0.0
 20
0.0
 30
0.0
  0
VERTEX
  5
11E
330
11D
100
AcDbEntity
  8
Ebene 1
 62
     7
370
    35
100
AcDbVertex
100
AcDb2dVertex
 10
159.5000407934581
 20
-55.06388862440252
 30
0.0
  0
VERTEX
  5
11F
330
11D
100
AcDbEntity
  8
Ebene 1
 62
     7
370
    35
100
AcDbVertex
100
AcDb2dVertex
 10
180.2000177327279
 20
-55.06388862440252
 30
0.0
  0
SEQEND
  5
120
330
11D
100
AcDbEntity
  8
Ebene 1
 62
     7
370
    35
  0
SPLINE
  5
121
330
41
100
AcDbEntity
  8
Ebene 1
 62
     7
370
    35
100
AcDbSpline
210
0.0
220
0.0
230
1.0
 70
     8
 71
     3
 72
     8
 73
     4
 74
     0
 42
0.0000000001
 43
0.0000000001
 12
1.0
 22
0.0
 32
0.0
 13
1.0
 23
0.0
 33
0.0
 40
0.0
 40
0.0
 40
0.0
 40
0.0
 40
1.0
 40
1.0
 40
1.0
 40
1.0
 10
29.85004471475978
 20
-105.7638748309381
 30
0.0
 10
27.48879721535012
 20
-105.7382631649248
 30
0.0
 10
25.29857638256412
 20
-105.330699008656
 30
0.0
 10
23.0861658275618
 20
-104.5052343074931
 30
0.0
  0
SPLINE
  5
122
330
41
100
AcDbEntity
  8
Ebene 1
 62
     7
370
    35
100
AcDbSpline
210
0.0
220
0.0
230
1.0
 70
     8
 71
     3
 72
     8
 73
     4
 74
     0
 42
0.0000000001
 43
0.0000000001
 12
1.0
 22
0.0
 32
0.0
 13
1.0
 23
0.0
 33
0.0
 40
0.0
 40
0.0
 40
0.0
 40
0.0
 40
1.0
 40
1.0
 40
1.0
 40
1.0
 10
36.61392360195776
 20
-104.5052343074931
 30
0.0
 10
34.40147776917728
 20
-105.3302403975566
 30
0.0
 10
32.21111582528055
 20
-105.7378398316023
 30
0.0
 10
29.85004471475978
 20
-105.7638748309381
 30
0.0
  0
SPLINE
  5
123
330
41
100
AcDbEntity
  8
Ebene 1
 62
     7
370
    35
100
AcDbSpline
210
0.0
220
0.0
230
1.0
 70
     8
 71
     3
 72
     8
 73
     4
 74
     0
 42
0.0000000001
 43
0.0000000001
 12
1.0
 22
0.0
 32
0.0
 13
1.0
 23
0.0
 33
0.0
 40
0.0
 40
0.0
 40
0.0
 40
0.0
 40
1.0
 40
1.0
 40
1.0
 40
1.0
 10
30.94989999226252
 20
-90.09906023058082
 30
0.0
 10
32.91395499177147
 20
-90.24179411582827
 30
0.0
 10
34.76603832464178
 20
-90.64187938339902
 30
0.0
 10
36.61392360195776
 20
-91.32252881047864
 30
0.0
  0
SPLINE
  5
124
330
41
100
AcDbEntity
  8
Ebene 1
 62
     7
370
    35
100
AcDbSpline
210
0.0
220
0.0
230
1.0
 70
     8
 71
     3
 72
     8
 73
     4
 74
     0
 42
0.0000000001
 43
0.0000000001
 12
1.0
 22
0.0
 32
0.0
 13
1.0
 23
0.0
 33
0.0
 40
0.0
 40
0.0
 40
0.0
 40
0.0
 40
1.0
 40
1.0
 40
1.0
 40
1.0
 10
23.0861658275618
 20
-91.32252881047864
 30
0.0
 10
24.93408638265529
 20
-90.6422321611678
 30
0.0
 10
26.7862755488588
 20
-90.24207633804329
 30
0.0
 10
28.75022471503456
 20
-90.09888384169643
 30
0.0
  0
SPLINE
  5
125
330
41
100
AcDbEntity
  8
Ebene 1
 62
     7
370
    35
100
AcDbSpline
210
0.0
220
0.0
230
1.0
 70
     8
 71
     3
 72
     8
 73
     4
 74
     0
 42
0.0000000001
 43
0.0000000001
 12
1.0
 22
0.0
 32
0.0
 13
1.0
 23
0.0
 33
0.0
 40
0.0
 40
0.0
 40
0.0
 40
0.0
 40
1.0
 40
1.0
 40
1.0
 40
1.0
 10
42.40741665606483
 20
-105.7638748309381
 30
0.0
 10
41.05821804529111
 20
-105.7638748309381
 30
0.0
 10
40.0717102677599
 20
-105.2475140107782
 30
0.0
 10
39.02547721246599
 20
-104.5052343074931
 30
0.0
  0
SPLINE
  5
126
330
41
100
AcDbEntity
  8
Ebene 1
 62
     7
370
    35
100
AcDbSpline
210
0.0
220
0.0
230
1.0
 70
     8
 71
     3
 72
     8
 73
     4
 74
     0
 42
0.0000000001
 43
0.0000000001
 12
1.0
 22
0.0
 32
0.0
 13
1.0
 23
0.0
 33
0.0
 40
0.0
 40
0.0
 40
0.0
 40
0.0
 40
1.0
 40
1.0
 40
1.0
 40
1.0
 10
45.78935609966366
 20
-104.5052343074931
 30
0.0
 10
44.74308776659191
 20
-105.2475140107782
 30
0.0
 10
43.75657998906102
 20
-105.7638748309381
 30
0.0
 10
42.40741665606483
 20
-105.7638748309381
 30
0.0
  0
SPLINE
  5
127
330
41
100
AcDbEntity
  8
Ebene 1
 62
     7
370
    35
100
AcDbSpline
210
0.0
220
0.0
230
1.0
 70
     8
 71
     3
 72
     8
 73
     4
 74
     0
 42
0.0000000001
 43
0.0000000001
 12
1.0
 22
0.0
 32
0.0
 13
1.0
 23
0.0
 33
0.0
 40
0.0
 40
0.0
 40
0.0
 40
0.0
 40
1.0
 40
1.0
 40
1.0
 40
1.0
 10
39.02547721246599
 20
-91.32252881047864
 30
0.0
 10
39.88953582336117
 20
-90.65895382740786
 30
0.0
 10
40.78114637869349
 20
-90.27361467057202
 30
0.0
 10
41.85655415620261
 20
-90.09898967502707
 30
0.0
  0
SPLINE
  5
128
330
41
100
AcDbEntity
  8
Ebene 1
 62
     7
370
    35
100
AcDbSpline
210
0.0
220
0.0
230
1.0
 70
     8
 71
     3
 72
     8
 73
     4
 74
     0
 42
0.0000000001
 43
0.0000000001
 12
1.0
 22
0.0
 32
0.0
 13
1.0
 23
0.0
 33
0.0
 40
0.0
 40
0.0
 40
0.0
 40
0.0
 40
1.0
 40
1.0
 40
1.0
 40
1.0
 10
17.29267277345473
 20
-105.7638748309381
 30
0.0
 10
15.9434741626807
 20
-105.7638748309381
 30
0.0
 10
14.95696638514948
 20
-105.2475140107782
 30
0.0
 10
13.91073332985558
 20
-104.5052343074931
 30
0.0
  0
SPLINE
  5
129
330
41
100
AcDbEntity
  8
Ebene 1
 62
     7
370
    35
100
AcDbSpline
210
0.0
220
0.0
230
1.0
 70
     8
 71
     3
 72
     8
 73
     4
 74
     0
 42
0.0000000001
 43
0.0000000001
 12
1.0
 22
0.0
 32
0.0
 13
1.0
 23
0.0
 33
0.0
 40
0.0
 40
0.0
 40
0.0
 40
0.0
 40
1.0
 40
1.0
 40
1.0
 40
1.0
 10
20.67461221705356
 20
-104.5052343074931
 30
0.0
 10
19.62834388398181
 20
-105.2475140107782
 30
0.0
 10
18.64187138422844
 20
-105.7638748309381
 30
0.0
 10
17.29267277345473
 20
-105.7638748309381
 30
0.0
  0
SPLINE
  5
12A
330
41
100
AcDbEntity
  8
Ebene 1
 62
     7
370
    35
100
AcDbSpline
210
0.0
220
0.0
230
1.0
 70
     8
 71
     3
 72
     8
 73
     4
 74
     0
 42
0.0000000001
 43
0.0000000001
 12
1.0
 22
0.0
 32
0.0
 13
1.0
 23
0.0
 33
0.0
 40
0.0
 40
0.0
 40
0.0
 40
0.0
 40
1.0
 40
1.0
 40
1.0
 40
1.0
 10
17.70531694001804
 20
-90.08374967541587
 30
0.0
 10
18.84073221751195
 20
-90.2339624493614
 30
0.0
 10
19.76906693950223
 20
-90.62124188392552
 30
0.0
 10
20.67461221705356
 20
-91.32252881047864
 30
0.0
  0
POLYLINE
  5
12B
330
41
100
AcDbEntity
  8
Ebene 1
 62
     7
370
    35
100
AcDb2dPolyline
 66
     1
 10
0.0
 20
0.0
 30
0.0
  0
VERTEX
  5
12C
330
12B
100
AcDbEntity
  8
Ebene 1
 62
     7
370
    35
100
AcDbVertex
100
AcDb2dVertex
 10
45.78935609966366
 20
-104.5052343074931
 30
0.0
  0
VERTEX
  5
12D
330
12B
100
AcDbEntity
  8
Ebene 1
 62
     7
370
    35
100
AcDbVertex
100
AcDb2dVertex
 10
45.8348644329859
 20
-104.5052343074931
 30
0.0
  0
SEQEND
  5
12E
330
12B
100
AcDbEntity
  8
Ebene 1
 62
     7
370
    35
  0
POLYLINE
  5
12F
330
41
100
AcDbEntity
  8
Ebene 1
 62
     7
370
    35
100
AcDb2dPolyline
 66
     1
 10
0.0
 20
0.0
 30
0.0
  0
VERTEX
  5
130
330
12F
100
AcDbEntity
  8
Ebene 1
 62
     7
370
    35
100
AcDbVertex
100
AcDb2dVertex
 10
45.83482915520806
 20
-91.32252881047864
 30
0.0
  0
VERTEX
  5
131
330
12F
100
AcDbEntity
  8
Ebene 1
 62
     7
370
    35
100
AcDbVertex
100
AcDb2dVertex
 10
45.78935609966366
 20
-91.32252881047864
 30
0.0
  0
SEQEND
  5
132
330
12F
100
AcDbEntity
  8
Ebene 1
 62
     7
370
    35
  0
SPLINE
  5
133
330
41
100
AcDbEntity
  8
Ebene 1
 62
     7
370
    35
100
AcDbSpline
210
0.0
220
0.0
230
1.0
 70
    24
 71
     3
 72
    17
 73
    13
 74
     0
 42
0.0000000001
 43
0.0000000001
 12
1.0
 22
0.0
 32
0.0
 13
1.0
 23
0.0
 33
0.0
 40
0.0
 40
0.0
 40
0.0
 40
0.0
 40
1.0
 40
1.0
 40
1.0
 40
2.0
 40
2.0
 40
2.0
 40
3.0
 40
3.0
 40
3.0
 40
4.0
 40
4.0
 40
4.0
 40
4.0
 10
13.86522499653365
 20
-104.5052343074931
 30
0.0
 10
13.86204999653444
 20
-104.5052343074931
 30
0.0
 10
13.85891027431307
 20
-104.5052343074931
 30
0.0
 10
13.85573527431386
 20
-104.5052343074931
 30
0.0
 10
13.85510027431402
 20
-104.5052343074931
 30
0.0
 10
13.85252499653681
 20
-104.5052343074931
 30
0.0
 10
13.85379499653649
 20
-104.5052343074931
 30
0.0
 10
13.8601097187574
 20
-104.5052343074931
 30
0.0
 10
13.8664597187555
 20
-104.5052343074931
 30
0.0
 10
13.87277444097608
 20
-104.5052343074931
 30
0.0
 10
13.88540388541757
 20
-104.5052343074931
 30
0.0
 10
13.89806860763657
 20
-104.5052343074931
 30
0.0
 10
13.91073332985558
 20
-104.5052343074931
 30
0.0
  0
POLYLINE
  5
134
330
41
100
AcDbEntity
  8
Ebene 1
 62
     7
370
    35
100
AcDb2dPolyline
 66
     1
 10
0.0
 20
0.0
 30
0.0
  0
VERTEX
  5
135
330
134
100
AcDbEntity
  8
Ebene 1
 62
     7
370
    35
100
AcDbVertex
100
AcDb2dVertex
 10
39.02547721246599
 20
-91.32252881047864
 30
0.0
  0
VERTEX
  5
136
330
134
100
AcDbEntity
  8
Ebene 1
 62
     7
370
    35
100
AcDbVertex
100
AcDb2dVertex
 10
36.61392360195776
 20
-91.32252881047864
 30
0.0
  0
SEQEND
  5
137
330
134
100
AcDbEntity
  8
Ebene 1
 62
     7
370
    35
  0
POLYLINE
  5
138
330
41
100
AcDbEntity
  8
Ebene 1
 62
     7
370
    35
100
AcDb2dPolyline
 66
     1
 10
0.0
 20
0.0
 30
0.0
  0
VERTEX
  5
139
330
138
100
AcDbEntity
  8
Ebene 1
 62
     7
370
    35
100
AcDbVertex
100
AcDb2dVertex
 10
39.02547721246599
 20
-104.5052343074931
 30
0.0
  0
VERTEX
  5
13A
330
138
100
AcDbEntity
  8
Ebene 1
 62
     7
370
    35
100
AcDbVertex
100
AcDb2dVertex
 10
39.02547721246599
 20
-91.32252881047864
 30
0.0
  0
SEQEND
  5
13B
330
138
100
AcDbEntity
  8
Ebene 1
 62
     7
370
    35
  0
POLYLINE
  5
13C
330
41
100
AcDbEntity
  8
Ebene 1
 62
     7
370
    35
100
AcDb2dPolyline
 66
     1
 10
0.0
 20
0.0
 30
0.0
  0
VERTEX
  5
13D
330
13C
100
AcDbEntity
  8
Ebene 1
 62
     7
370
    35
100
AcDbVertex
100
AcDb2dVertex
 10
36.61392360195776
 20
-104.5052343074931
 30
0.0
  0
VERTEX
  5
13E
330
13C
100
AcDbEntity
  8
Ebene 1
 62
     7
370
    35
100
AcDbVertex
100
AcDb2dVertex
 10
39.02547721246599
 20
-104.5052343074931
 30
0.0
  0
SEQEND
  5
13F
330
13C
100
AcDbEntity
  8
Ebene 1
 62
     7
370
    35
  0
POLYLINE
  5
140
330
41
100
AcDbEntity
  8
Ebene 1
 62
     7
370
    35
100
AcDb2dPolyline
 66
     1
 10
0.0
 20
0.0
 30
0.0
  0
VERTEX
  5
141
330
140
100
AcDbEntity
  8
Ebene 1
 62
     7
370
    35
100
AcDbVertex
100
AcDb2dVertex
 10
36.61392360195776
 20
-91.32252881047864
 30
0.0
  0
VERTEX
  5
142
330
140
100
AcDbEntity
  8
Ebene 1
 62
     7
370
    35
100
AcDbVertex
100
AcDb2dVertex
 10
36.61392360195776
 20
-104.5052343074931
 30
0.0
  0
SEQEND
  5
143
330
140
100
AcDbEntity
  8
Ebene 1
 62
     7
370
    35
  0
POLYLINE
  5
144
330
41
100
AcDbEntity
  8
Ebene 1
 62
     7
370
    35
100
AcDb2dPolyline
 66
     1
 10
0.0
 20
0.0
 30
0.0
  0
VERTEX
  5
145
330
144
100
AcDbEntity
  8
Ebene 1
 62
     7
370
    35
100
AcDbVertex
100
AcDb2dVertex
 10
20.67461221705356
 20
-104.5052343074931
 30
0.0
  0
VERTEX
  5
146
330
144
100
AcDbEntity
  8
Ebene 1
 62
     7
370
    35
100
AcDbVertex
100
AcDb2dVertex
 10
23.0861658275618
 20
-104.5052343074931
 30
0.0
  0
SEQEND
  5
147
330
144
100
AcDbEntity
  8
Ebene 1
 62
     7
370
    35
  0
POLYLINE
  5
148
330
41
100
AcDbEntity
  8
Ebene 1
 62
     7
370
    35
100
AcDb2dPolyline
 66
     1
 10
0.0
 20
0.0
 30
0.0
  0
VERTEX
  5
149
330
148
100
AcDbEntity
  8
Ebene 1
 62
     7
370
    35
100
AcDbVertex
100
AcDb2dVertex
 10
20.67461221705356
 20
-91.32252881047864
 30
0.0
  0
VERTEX
  5
14A
330
148
100
AcDbEntity
  8
Ebene 1
 62
     7
370
    35
100
AcDbVertex
100
AcDb2dVertex
 10
20.67461221705356
 20
-104.5052343074931
 30
0.0
  0
SEQEND
  5
14B
330
148
100
AcDbEntity
  8
Ebene 1
 62
     7
370
    35
  0
POLYLINE
  5
14C
330
41
100
AcDbEntity
  8
Ebene 1
 62
     7
370
    35
100
AcDb2dPolyline
 66
     1
 10
0.0
 20
0.0
 30
0.0
  0
VERTEX
  5
14D
330
14C
100
AcDbEntity
  8
Ebene 1
 62
     7
370
    35
100
AcDbVertex
100
AcDb2dVertex
 10
23.0861658275618
 20
-91.32252881047864
 30
0.0
  0
VERTEX
  5
14E
330
14C
100
AcDbEntity
  8
Ebene 1
 62
     7
370
    35
100
AcDbVertex
100
AcDb2dVertex
 10
20.67461221705356
 20
-91.32252881047864
 30
0.0
  0
SEQEND
  5
14F
330
14C
100
AcDbEntity
  8
Ebene 1
 62
     7
370
    35
  0
POLYLINE
  5
150
330
41
100
AcDbEntity
  8
Ebene 1
 62
     7
370
    35
100
AcDb2dPolyline
 66
     1
 10
0.0
 20
0.0
 30
0.0
  0
VERTEX
  5
151
330
150
100
AcDbEntity
  8
Ebene 1
 62
     7
370
    35
100
AcDbVertex
100
AcDb2dVertex
 10
23.0861658275618
 20
-104.5052343074931
 30
0.0
  0
VERTEX
  5
152
330
150
100
AcDbEntity
  8
Ebene 1
 62
     7
370
    35
100
AcDbVertex
100
AcDb2dVertex
 10
23.0861658275618
 20
-91.32252881047864
 30
0.0
  0
SEQEND
  5
153
330
150
100
AcDbEntity
  8
Ebene 1
 62
     7
370
    35
  0
SPLINE
  5
154
330
41
100
AcDbEntity
  8
Ebene 1
 62
     7
370
    35
100
AcDbSpline
210
0.0
220
0.0
230
1.0
 70
    24
 71
     3
 72
    17
 73
    13
 74
     0
 42
0.0000000001
 43
0.0000000001
 12
1.0
 22
0.0
 32
0.0
 13
1.0
 23
0.0
 33
0.0
 40
0.0
 40
0.0
 40
0.0
 40
0.0
 40
1.0
 40
1.0
 40
1.0
 40
2.0
 40
2.0
 40
2.0
 40
3.0
 40
3.0
 40
3.0
 40
4.0
 40
4.0
 40
4.0
 40
4.0
 10
13.86522499653365
 20
-91.32252881047864
 30
0.0
 10
13.86204999653444
 20
-91.32252881047864
 30
0.0
 10
13.85891027431307
 20
-91.32252881047864
 30
0.0
 10
13.85573527431386
 20
-91.32252881047864
 30
0.0
 10
13.85510027431402
 20
-91.32252881047864
 30
0.0
 10
13.85252499653681
 20
-91.32252881047864
 30
0.0
 10
13.85379499653649
 20
-91.32252881047864
 30
0.0
 10
13.8601097187574
 20
-91.32252881047864
 30
0.0
 10
13.8664597187555
 20
-91.32252881047864
 30
0.0
 10
13.87277444097608
 20
-91.32252881047864
 30
0.0
 10
13.88540388541757
 20
-91.32252881047864
 30
0.0
 10
13.89806860763657
 20
-91.32252881047864
 30
0.0
 10
13.91073332985558
 20
-91.32252881047864
 30
0.0
  0
SPLINE
  5
155
330
41
100
AcDbEntity
  8
Ebene 1
 62
     7
370
    35
100
AcDbSpline
210
0.0
220
0.0
230
1.0
 70
     8
 71
     3
 72
     8
 73
     4
 74
     0
 42
0.0000000001
 43
0.0000000001
 12
1.0
 22
0.0
 32
0.0
 13
1.0
 23
0.0
 33
0.0
 40
0.0
 40
0.0
 40
0.0
 40
0.0
 40
1.0
 40
1.0
 40
1.0
 40
1.0
 10
179.8500268994816
 20
-105.7638748309381
 30
0.0
 10
177.4887794000722
 20
-105.7382631649248
 30
0.0
 10
175.2985585672862
 20
-105.330699008656
 30
0.0
 10
173.0861480122839
 20
-104.5052343074931
 30
0.0
  0
SPLINE
  5
156
330
41
100
AcDbEntity
  8
Ebene 1
 62
     7
370
    35
100
AcDbSpline
210
0.0
220
0.0
230
1.0
 70
     8
 71
     3
 72
     8
 73
     4
 74
     0
 42
0.0000000001
 43
0.0000000001
 12
1.0
 22
0.0
 32
0.0
 13
1.0
 23
0.0
 33
0.0
 40
0.0
 40
0.0
 40
0.0
 40
0.0
 40
1.0
 40
1.0
 40
1.0
 40
1.0
 10
186.6139057866799
 20
-104.5052343074931
 30
0.0
 10
184.4014952316776
 20
-105.3302403975566
 30
0.0
 10
182.2111332877809
 20
-105.7378398316023
 30
0.0
 10
179.8500268994816
 20
-105.7638748309381
 30
0.0
  0
SPLINE
  5
157
330
41
100
AcDbEntity
  8
Ebene 1
 62
     7
370
    35
100
AcDbSpline
210
0.0
220
0.0
230
1.0
 70
     8
 71
     3
 72
     8
 73
     4
 74
     0
 42
0.0000000001
 43
0.0000000001
 12
1.0
 22
0.0
 32
0.0
 13
1.0
 23
0.0
 33
0.0
 40
0.0
 40
0.0
 40
0.0
 40
0.0
 40
1.0
 40
1.0
 40
1.0
 40
1.0
 10
180.9498821769847
 20
-90.09906023058082
 30
0.0
 10
182.9139724542711
 20
-90.24179411582827
 30
0.0
 10
184.7660205093639
 20
-90.64187938339902
 30
0.0
 10
186.6139057866799
 20
-91.32252881047864
 30
0.0
  0
SPLINE
  5
158
330
41
100
AcDbEntity
  8
Ebene 1
 62
     7
370
    35
100
AcDbSpline
210
0.0
220
0.0
230
1.0
 70
     8
 71
     3
 72
     8
 73
     4
 74
     0
 42
0.0000000001
 43
0.0000000001
 12
1.0
 22
0.0
 32
0.0
 13
1.0
 23
0.0
 33
0.0
 40
0.0
 40
0.0
 40
0.0
 40
0.0
 40
1.0
 40
1.0
 40
1.0
 40
1.0
 10
173.0861480122839
 20
-91.32252881047864
 30
0.0
 10
174.9341038451549
 20
-90.6422321611678
 30
0.0
 10
176.7862577335816
 20
-90.24207633804329
 30
0.0
 10
178.7502421775349
 20
-90.09888384169643
 30
0.0
  0
SPLINE
  5
159
330
41
100
AcDbEntity
  8
Ebene 1
 62
     7
370
    35
100
AcDbSpline
210
0.0
220
0.0
230
1.0
 70
     8
 71
     3
 72
     8
 73
     4
 74
     0
 42
0.0000000001
 43
0.0000000001
 12
1.0
 22
0.0
 32
0.0
 13
1.0
 23
0.0
 33
0.0
 40
0.0
 40
0.0
 40
0.0
 40
0.0
 40
1.0
 40
1.0
 40
1.0
 40
1.0
 10
192.4073988407873
 20
-105.7638748309381
 30
0.0
 10
191.0582002300133
 20
-105.7638748309381
 30
0.0
 10
190.0717277302599
 20
-105.2475140107782
 30
0.0
 10
189.0254593971881
 20
-104.5052343074931
 30
0.0
  0
SPLINE
  5
15A
330
41
100
AcDbEntity
  8
Ebene 1
 62
     7
370
    35
100
AcDbSpline
210
0.0
220
0.0
230
1.0
 70
     8
 71
     3
 72
     8
 73
     4
 74
     0
 42
0.0000000001
 43
0.0000000001
 12
1.0
 22
0.0
 32
0.0
 13
1.0
 23
0.0
 33
0.0
 40
0.0
 40
0.0
 40
0.0
 40
0.0
 40
1.0
 40
1.0
 40
1.0
 40
1.0
 10
195.7893382843858
 20
-104.5052343074931
 30
0.0
 10
194.7431052290922
 20
-105.2475140107782
 30
0.0
 10
193.7565974515607
 20
-105.7638748309381
 30
0.0
 10
192.4073988407873
 20
-105.7638748309381
 30
0.0
  0
SPLINE
  5
15B
330
41
100
AcDbEntity
  8
Ebene 1
 62
     7
370
    35
100
AcDbSpline
210
0.0
220
0.0
230
1.0
 70
     8
 71
     3
 72
     8
 73
     4
 74
     0
 42
0.0000000001
 43
0.0000000001
 12
1.0
 22
0.0
 32
0.0
 13
1.0
 23
0.0
 33
0.0
 40
0.0
 40
0.0
 40
0.0
 40
0.0
 40
1.0
 40
1.0
 40
1.0
 40
1.0
 10
189.0254593971881
 20
-91.32252881047864
 30
0.0
 10
189.8895532858608
 20
-90.65895382740786
 30
0.0
 10
190.7811285634156
 20
-90.27361467057202
 30
0.0
 10
191.8565716187026
 20
-90.09898967502707
 30
0.0
  0
SPLINE
  5
15C
330
41
100
AcDbEntity
  8
Ebene 1
 62
     7
370
    35
100
AcDbSpline
210
0.0
220
0.0
230
1.0
 70
     8
 71
     3
 72
     8
 73
     4
 74
     0
 42
0.0000000001
 43
0.0000000001
 12
1.0
 22
0.0
 32
0.0
 13
1.0
 23
0.0
 33
0.0
 40
0.0
 40
0.0
 40
0.0
 40
0.0
 40
1.0
 40
1.0
 40
1.0
 40
1.0
 10
167.2926549581772
 20
-105.7638748309381
 30
0.0
 10
165.9434916251807
 20
-105.7638748309381
 30
0.0
 10
164.9569838476498
 20
-105.2475140107782
 30
0.0
 10
163.910715514578
 20
-104.5052343074931
 30
0.0
  0
SPLINE
  5
15D
330
41
100
AcDbEntity
  8
Ebene 1
 62
     7
370
    35
100
AcDbSpline
210
0.0
220
0.0
230
1.0
 70
     8
 71
     3
 72
     8
 73
     4
 74
     0
 42
0.0000000001
 43
0.0000000001
 12
1.0
 22
0.0
 32
0.0
 13
1.0
 23
0.0
 33
0.0
 40
0.0
 40
0.0
 40
0.0
 40
0.0
 40
1.0
 40
1.0
 40
1.0
 40
1.0
 10
170.6745944017757
 20
-104.5052343074931
 30
0.0
 10
169.6283613464815
 20
-105.2475140107782
 30
0.0
 10
168.6418535689506
 20
-105.7638748309381
 30
0.0
 10
167.2926549581772
 20
-105.7638748309381
 30
0.0
  0
SPLINE
  5
15E
330
41
100
AcDbEntity
  8
Ebene 1
 62
     7
370
    35
100
AcDbSpline
210
0.0
220
0.0
230
1.0
 70
     8
 71
     3
 72
     8
 73
     4
 74
     0
 42
0.0000000001
 43
0.0000000001
 12
1.0
 22
0.0
 32
0.0
 13
1.0
 23
0.0
 33
0.0
 40
0.0
 40
0.0
 40
0.0
 40
0.0
 40
1.0
 40
1.0
 40
1.0
 40
1.0
 10
167.7052991247402
 20
-90.08374967541587
 30
0.0
 10
168.8407496800119
 20
-90.2339624493614
 30
0.0
 10
169.7690844020019
 20
-90.62124188392552
 30
0.0
 10
170.6745944017757
 20
-91.32252881047864
 30
0.0
  0
POLYLINE
  5
15F
330
41
100
AcDbEntity
  8
Ebene 1
 62
     7
370
    35
100
AcDb2dPolyline
 66
     1
 10
0.0
 20
0.0
 30
0.0
  0
VERTEX
  5
160
330
15F
100
AcDbEntity
  8
Ebene 1
 62
     7
370
    35
100
AcDbVertex
100
AcDb2dVertex
 10
195.7893382843858
 20
-104.5052343074931
 30
0.0
  0
VERTEX
  5
161
330
15F
100
AcDbEntity
  8
Ebene 1
 62
     7
370
    35
100
AcDbVertex
100
AcDb2dVertex
 10
195.834846617708
 20
-104.5052343074931
 30
0.0
  0
SEQEND
  5
162
330
15F
100
AcDbEntity
  8
Ebene 1
 62
     7
370
    35
  0
SPLINE
  5
163
330
41
100
AcDbEntity
  8
Ebene 1
 62
     7
370
    35
100
AcDbSpline
210
0.0
220
0.0
230
1.0
 70
    24
 71
     3
 72
    17
 73
    13
 74
     0
 42
0.0000000001
 43
0.0000000001
 12
1.0
 22
0.0
 32
0.0
 13
1.0
 23
0.0
 33
0.0
 40
0.0
 40
0.0
 40
0.0
 40
0.0
 40
1.0
 40
1.0
 40
1.0
 40
2.0
 40
2.0
 40
2.0
 40
3.0
 40
3.0
 40
3.0
 40
4.0
 40
4.0
 40
4.0
 40
4.0
 10
195.834846617708
 20
-91.32252881047864
 30
0.0
 10
195.8379863399297
 20
-91.32252881047864
 30
0.0
 10
195.8411613399283
 20
-91.32252881047864
 30
0.0
 10
195.8443363399282
 20
-91.32252881047864
 30
0.0
 10
195.8449713399274
 20
-91.32252881047864
 30
0.0
 10
195.8475466177049
 20
-91.32252881047864
 30
0.0
 10
195.8462766177052
 20
-91.32252881047864
 30
0.0
 10
195.8399266177068
 20
-91.32252881047864
 30
0.0
 10
195.8336118954859
 20
-91.32252881047864
 30
0.0
 10
195.8272971732656
 20
-91.32252881047864
 30
0.0
 10
195.8146324510463
 20
-91.32252881047864
 30
0.0
 10
195.8020030066051
 20
-91.32252881047864
 30
0.0
 10
195.7893382843858
 20
-91.32252881047864
 30
0.0
  0
SPLINE
  5
164
330
41
100
AcDbEntity
  8
Ebene 1
 62
     7
370
    35
100
AcDbSpline
210
0.0
220
0.0
230
1.0
 70
    24
 71
     3
 72
    17
 73
    13
 74
     0
 42
0.0000000001
 43
0.0000000001
 12
1.0
 22
0.0
 32
0.0
 13
1.0
 23
0.0
 33
0.0
 40
0.0
 40
0.0
 40
0.0
 40
0.0
 40
1.0
 40
1.0
 40
1.0
 40
2.0
 40
2.0
 40
2.0
 40
3.0
 40
3.0
 40
3.0
 40
4.0
 40
4.0
 40
4.0
 40
4.0
 10
163.8652424590333
 20
-104.5052343074931
 30
0.0
 10
163.8620674590347
 20
-104.5052343074931
 30
0.0
 10
163.8588924590349
 20
-104.5052343074931
 30
0.0
 10
163.8557527368138
 20
-104.5052343074931
 30
0.0
 10
163.8550824590358
 20
-104.5052343074931
 30
0.0
 10
163.8525071812589
 20
-104.5052343074931
 30
0.0
 10
163.8538124590361
 20
-104.5052343074931
 30
0.0
 10
163.860127181257
 20
-104.5052343074931
 30
0.0
 10
163.8664419034779
 20
-104.5052343074931
 30
0.0
 10
163.8727566256982
 20
-104.5052343074931
 30
0.0
 10
163.8854213479175
 20
-104.5052343074931
 30
0.0
 10
163.8980860701369
 20
-104.5052343074931
 30
0.0
 10
163.910715514578
 20
-104.5052343074931
 30
0.0
  0
POLYLINE
  5
165
330
41
100
AcDbEntity
  8
Ebene 1
 62
     7
370
    35
100
AcDb2dPolyline
 66
     1
 10
0.0
 20
0.0
 30
0.0
  0
VERTEX
  5
166
330
165
100
AcDbEntity
  8
Ebene 1
 62
     7
370
    35
100
AcDbVertex
100
AcDb2dVertex
 10
189.0254593971881
 20
-91.32252881047864
 30
0.0
  0
VERTEX
  5
167
330
165
100
AcDbEntity
  8
Ebene 1
 62
     7
370
    35
100
AcDbVertex
100
AcDb2dVertex
 10
186.6139057866799
 20
-91.32252881047864
 30
0.0
  0
SEQEND
  5
168
330
165
100
AcDbEntity
  8
Ebene 1
 62
     7
370
    35
  0
POLYLINE
  5
169
330
41
100
AcDbEntity
  8
Ebene 1
 62
     7
370
    35
100
AcDb2dPolyline
 66
     1
 10
0.0
 20
0.0
 30
0.0
  0
VERTEX
  5
16A
330
169
100
AcDbEntity
  8
Ebene 1
 62
     7
370
    35
100
AcDbVertex
100
AcDb2dVertex
 10
189.0254593971881
 20
-104.5052343074931
 30
0.0
  0
VERTEX
  5
16B
330
169
100
AcDbEntity
  8
Ebene 1
 62
     7
370
    35
100
AcDbVertex
100
AcDb2dVertex
 10
189.0254593971881
 20
-91.32252881047864
 30
0.0
  0
SEQEND
  5
16C
330
169
100
AcDbEntity
  8
Ebene 1
 62
     7
370
    35
  0
POLYLINE
  5
16D
330
41
100
AcDbEntity
  8
Ebene 1
 62
     7
370
    35
100
AcDb2dPolyline
 66
     1
 10
0.0
 20
0.0
 30
0.0
  0
VERTEX
  5
16E
330
16D
100
AcDbEntity
  8
Ebene 1
 62
     7
370
    35
100
AcDbVertex
100
AcDb2dVertex
 10
186.6139057866799
 20
-104.5052343074931
 30
0.0
  0
VERTEX
  5
16F
330
16D
100
AcDbEntity
  8
Ebene 1
 62
     7
370
    35
100
AcDbVertex
100
AcDb2dVertex
 10
189.0254593971881
 20
-104.5052343074931
 30
0.0
  0
SEQEND
  5
170
330
16D
100
AcDbEntity
  8
Ebene 1
 62
     7
370
    35
  0
POLYLINE
  5
171
330
41
100
AcDbEntity
  8
Ebene 1
 62
     7
370
    35
100
AcDb2dPolyline
 66
     1
 10
0.0
 20
0.0
 30
0.0
  0
VERTEX
  5
172
330
171
100
AcDbEntity
  8
Ebene 1
 62
     7
370
    35
100
AcDbVertex
100
AcDb2dVertex
 10
186.6139057866799
 20
-91.32252881047864
 30
0.0
  0
VERTEX
  5
173
330
171
100
AcDbEntity
  8
Ebene 1
 62
     7
370
    35
100
AcDbVertex
100
AcDb2dVertex
 10
186.6139057866799
 20
-104.5052343074931
 30
0.0
  0
SEQEND
  5
174
330
171
100
AcDbEntity
  8
Ebene 1
 62
     7
370
    35
  0
POLYLINE
  5
175
330
41
100
AcDbEntity
  8
Ebene 1
 62
     7
370
    35
100
AcDb2dPolyline
 66
     1
 10
0.0
 20
0.0
 30
0.0
  0
VERTEX
  5
176
330
175
100
AcDbEntity
  8
Ebene 1
 62
     7
370
    35
100
AcDbVertex
100
AcDb2dVertex
 10
170.6745944017757
 20
-104.5052343074931
 30
0.0
  0
VERTEX
  5
177
330
175
100
AcDbEntity
  8
Ebene 1
 62
     7
370
    35
100
AcDbVertex
100
AcDb2dVertex
 10
173.0861480122839
 20
-104.5052343074931
 30
0.0
  0
SEQEND
  5
178
330
175
100
AcDbEntity
  8
Ebene 1
 62
     7
370
    35
  0
POLYLINE
  5
179
330
41
100
AcDbEntity
  8
Ebene 1
 62
     7
370
    35
100
AcDb2dPolyline
 66
     1
 10
0.0
 20
0.0
 30
0.0
  0
VERTEX
  5
17A
330
179
100
AcDbEntity
  8
Ebene 1
 62
     7
370
    35
100
AcDbVertex
100
AcDb2dVertex
 10
170.6745944017757
 20
-91.32252881047864
 30
0.0
  0
VERTEX
  5
17B
330
179
100
AcDbEntity
  8
Ebene 1
 62
     7
370
    35
100
AcDbVertex
100
AcDb2dVertex
 10
170.6745944017757
 20
-104.5052343074931
 30
0.0
  0
SEQEND
  5
17C
330
179
100
AcDbEntity
  8
Ebene 1
 62
     7
370
    35
  0
POLYLINE
  5
17D
330
41
100
AcDbEntity
  8
Ebene 1
 62
     7
370
    35
100
AcDb2dPolyline
 66
     1
 10
0.0
 20
0.0
 30
0.0
  0
VERTEX
  5
17E
330
17D
100
AcDbEntity
  8
Ebene 1
 62
     7
370
    35
100
AcDbVertex
100
AcDb2dVertex
 10
173.0861480122839
 20
-91.32252881047864
 30
0.0
  0
VERTEX
  5
17F
330
17D
100
AcDbEntity
  8
Ebene 1
 62
     7
370
    35
100
AcDbVertex
100
AcDb2dVertex
 10
170.6745944017757
 20
-91.32252881047864
 30
0.0
  0
SEQEND
  5
180
330
17D
100
AcDbEntity
  8
Ebene 1
 62
     7
370
    35
  0
POLYLINE
  5
181
330
41
100
AcDbEntity
  8
Ebene 1
 62
     7
370
    35
100
AcDb2dPolyline
 66
     1
 10
0.0
 20
0.0
 30
0.0
  0
VERTEX
  5
182
330
181
100
AcDbEntity
  8
Ebene 1
 62
     7
370
    35
100
AcDbVertex
100
AcDb2dVertex
 10
173.0861480122839
 20
-104.5052343074931
 30
0.0
  0
VERTEX
  5
183
330
181
100
AcDbEntity
  8
Ebene 1
 62
     7
370
    35
100
AcDbVertex
100
AcDb2dVertex
 10
173.0861480122839
 20
-91.32252881047864
 30
0.0
  0
SEQEND
  5
184
330
181
100
AcDbEntity
  8
Ebene 1
 62
     7
370
    35
  0
POLYLINE
  5
185
330
41
100
AcDbEntity
  8
Ebene 1
 62
     7
370
    35
100
AcDb2dPolyline
 66
     1
 10
0.0
 20
0.0
 30
0.0
  0
VERTEX
  5
186
330
185
100
AcDbEntity
  8
Ebene 1
 62
     7
370
    35
100
AcDbVertex
100
AcDb2dVertex
 10
163.8652424590333
 20
-91.32252881047864
 30
0.0
  0
VERTEX
  5
187
330
185
100
AcDbEntity
  8
Ebene 1
 62
     7
370
    35
100
AcDbVertex
100
AcDb2dVertex
 10
163.910715514578
 20
-91.32252881047864
 30
0.0
  0
SEQEND
  5
188
330
185
100
AcDbEntity
  8
Ebene 1
 62
     7
370
    35
  0
POLYLINE
  5
189
330
41
100
AcDbEntity
  8
Ebene 1
 62
     7
370
    35
100
AcDb2dPolyline
 66
     1
 10
0.0
 20
0.0
 30
0.0
  0
VERTEX
  5
18A
330
189
100
AcDbEntity
  8
Ebene 1
 62
     7
370
    35
100
AcDbVertex
100
AcDb2dVertex
 10
0.849947499787604
 20
-111.3890574652055
 30
0.0
  0
VERTEX
  5
18B
330
189
100
AcDbEntity
  8
Ebene 1
 62
     7
370
    35
100
AcDbVertex
100
AcDb2dVertex
 10
0.8500180553429638
 20
-136.0638868356982
 30
0.0
  0
SEQEND
  5
18C
330
189
100
AcDbEntity
  8
Ebene 1
 62
     7
370
    35
  0
SPLINE
  5
18D
330
41
100
AcDbEntity
  8
Ebene 1
 62
     7
370
    35
100
AcDbSpline
210
0.0
220
0.0
230
1.0
 70
     8
 71
     3
 72
     8
 73
     4
 74
     0
 42
0.0000000001
 43
0.0000000001
 12
1.0
 22
0.0
 32
0.0
 13
1.0
 23
0.0
 33
0.0
 40
0.0
 40
0.0
 40
0.0
 40
0.0
 40
1.0
 40
1.0
 40
1.0
 40
1.0
 10
0.8500180553429638
 20
-136.0638868356982
 30
0.0
 10
0.8500180553429638
 20
-139.3775989733806
 30
0.0
 10
3.536314999115864
 20
-142.0638958492919
 30
0.0
 10
6.850027220509811
 20
-142.0638958492919
 30
0.0
  0
POLYLINE
  5
18E
330
41
100
AcDbEntity
  8
Ebene 1
 62
     7
370
    35
100
AcDb2dPolyline
 66
     1
 10
0.0
 20
0.0
 30
0.0
  0
VERTEX
  5
18F
330
18E
100
AcDbEntity
  8
Ebene 1
 62
     7
370
    35
100
AcDbVertex
100
AcDb2dVertex
 10
6.850027220509811
 20
-142.0638958492919
 30
0.0
  0
VERTEX
  5
190
330
18E
100
AcDbEntity
  8
Ebene 1
 62
     7
370
    35
100
AcDbVertex
100
AcDb2dVertex
 10
76.8500283141208
 20
-142.0638958492919
 30
0.0
  0
SEQEND
  5
191
330
18E
100
AcDbEntity
  8
Ebene 1
 62
     7
370
    35
  0
SPLINE
  5
192
330
41
100
AcDbEntity
  8
Ebene 1
 62
     7
370
    35
100
AcDbSpline
210
0.0
220
0.0
230
1.0
 70
     8
 71
     3
 72
     8
 73
     4
 74
     0
 42
0.0000000001
 43
0.0000000001
 12
1.0
 22
0.0
 32
0.0
 13
1.0
 23
0.0
 33
0.0
 40
0.0
 40
0.0
 40
0.0
 40
0.0
 40
1.0
 40
1.0
 40
1.0
 40
1.0
 10
76.8500283141208
 20
-142.0638958492919
 30
0.0
 10
80.7160141464877
 20
-142.0638958492919
 30
0.0
 10
83.85002136792627
 20
-145.1979029915589
 30
0.0
 10
83.85002136792627
 20
-149.0638887262627
 30
0.0
  0
POLYLINE
  5
193
330
41
100
AcDbEntity
  8
Ebene 1
 62
     7
370
    35
100
AcDb2dPolyline
 66
     1
 10
0.0
 20
0.0
 30
0.0
  0
VERTEX
  5
194
330
193
100
AcDbEntity
  8
Ebene 1
 62
     7
370
    35
100
AcDbVertex
100
AcDb2dVertex
 10
83.85002136792627
 20
-149.0638887262627
 30
0.0
  0
VERTEX
  5
195
330
193
100
AcDbEntity
  8
Ebene 1
 62
     7
370
    35
100
AcDbVertex
100
AcDb2dVertex
 10
83.85002136792627
 20
-237.0638796629561
 30
0.0
  0
SEQEND
  5
196
330
193
100
AcDbEntity
  8
Ebene 1
 62
     7
370
    35
  0
SPLINE
  5
197
330
41
100
AcDbEntity
  8
Ebene 1
 62
     7
370
    35
100
AcDbSpline
210
0.0
220
0.0
230
1.0
 70
     8
 71
     3
 72
     8
 73
     4
 74
     0
 42
0.0000000001
 43
0.0000000001
 12
1.0
 22
0.0
 32
0.0
 13
1.0
 23
0.0
 33
0.0
 40
0.0
 40
0.0
 40
0.0
 40
0.0
 40
1.0
 40
1.0
 40
1.0
 40
1.0
 10
89.85003053309313
 20
-243.0638888281229
 30
0.0
 10
86.53631831169918
 20
-243.0638888281229
 30
0.0
 10
83.85002136792627
 20
-240.37759188435
 30
0.0
 10
83.85002136792627
 20
-237.0638796629561
 30
0.0
  0
POLYLINE
  5
198
330
41
100
AcDbEntity
  8
Ebene 1
 62
     7
370
    35
100
AcDb2dPolyline
 66
     1
 10
0.0
 20
0.0
 30
0.0
  0
VERTEX
  5
199
330
198
100
AcDbEntity
  8
Ebene 1
 62
     7
370
    35
100
AcDbVertex
100
AcDb2dVertex
 10
0.849947499787604
 20
-111.0995327503697
 30
0.0
  0
VERTEX
  5
19A
330
198
100
AcDbEntity
  8
Ebene 1
 62
     7
370
    35
100
AcDbVertex
100
AcDb2dVertex
 10
0.849947499787604
 20
-111.3890574652055
 30
0.0
  0
SEQEND
  5
19B
330
198
100
AcDbEntity
  8
Ebene 1
 62
     7
370
    35
  0
POLYLINE
  5
19C
330
41
100
AcDbEntity
  8
Ebene 1
 62
     7
370
    35
100
AcDb2dPolyline
 66
     1
 10
0.0
 20
0.0
 30
0.0
  0
VERTEX
  5
19D
330
19C
100
AcDbEntity
  8
Ebene 1
 62
     7
370
    35
100
AcDbVertex
100
AcDb2dVertex
 10
89.85003053309313
 20
-243.0638888281229
 30
0.0
  0
VERTEX
  5
19E
330
19C
100
AcDbEntity
  8
Ebene 1
 62
     7
370
    35
100
AcDbVertex
100
AcDb2dVertex
 10
119.8500410811489
 20
-243.0638888281229
 30
0.0
  0
SEQEND
  5
19F
330
19C
100
AcDbEntity
  8
Ebene 1
 62
     7
370
    35
  0
SPLINE
  5
1A0
330
41
100
AcDbEntity
  8
Ebene 1
 62
     7
370
    35
100
AcDbSpline
210
0.0
220
0.0
230
1.0
 70
     8
 71
     3
 72
     8
 73
     4
 74
     0
 42
0.0000000001
 43
0.0000000001
 12
1.0
 22
0.0
 32
0.0
 13
1.0
 23
0.0
 33
0.0
 40
0.0
 40
0.0
 40
0.0
 40
0.0
 40
1.0
 40
1.0
 40
1.0
 40
1.0
 10
119.8500410811489
 20
-243.0638888281229
 30
0.0
 10
123.1637533025422
 20
-243.0638888281229
 30
0.0
 10
125.8500502463151
 20
-240.37759188435
 30
0.0
 10
125.8500502463151
 20
-237.0638796629561
 30
0.0
  0
POLYLINE
  5
1A1
330
41
100
AcDbEntity
  8
Ebene 1
 62
     7
370
    35
100
AcDb2dPolyline
 66
     1
 10
0.0
 20
0.0
 30
0.0
  0
VERTEX
  5
1A2
330
1A1
100
AcDbEntity
  8
Ebene 1
 62
     7
370
    35
100
AcDbVertex
100
AcDb2dVertex
 10
125.8500502463151
 20
-237.0638796629561
 30
0.0
  0
VERTEX
  5
1A3
330
1A1
100
AcDbEntity
  8
Ebene 1
 62
     7
370
    35
100
AcDbVertex
100
AcDb2dVertex
 10
125.8500502463151
 20
-149.0638887262627
 30
0.0
  0
SEQEND
  5
1A4
330
1A1
100
AcDbEntity
  8
Ebene 1
 62
     7
370
    35
  0
POLYLINE
  5
1A5
330
41
100
AcDbEntity
  8
Ebene 1
 62
     7
370
    35
100
AcDb2dPolyline
 66
     1
 10
0.0
 20
0.0
 30
0.0
  0
VERTEX
  5
1A6
330
1A5
100
AcDbEntity
  8
Ebene 1
 62
     7
370
    35
100
AcDbVertex
100
AcDb2dVertex
 10
208.8500182811212
 20
-136.0638868356982
 30
0.0
  0
VERTEX
  5
1A7
330
1A5
100
AcDbEntity
  8
Ebene 1
 62
     7
370
    35
100
AcDbVertex
100
AcDb2dVertex
 10
208.8340374477913
 20
-111.418373297791
 30
0.0
  0
SEQEND
  5
1A8
330
1A5
100
AcDbEntity
  8
Ebene 1
 62
     7
370
    35
  0
SPLINE
  5
1A9
330
41
100
AcDbEntity
  8
Ebene 1
 62
     7
370
    35
100
AcDbSpline
210
0.0
220
0.0
230
1.0
 70
     8
 71
     3
 72
     8
 73
     4
 74
     0
 42
0.0000000001
 43
0.0000000001
 12
1.0
 22
0.0
 32
0.0
 13
1.0
 23
0.0
 33
0.0
 40
0.0
 40
0.0
 40
0.0
 40
0.0
 40
1.0
 40
1.0
 40
1.0
 40
1.0
 10
125.8500502463151
 20
-149.0638887262627
 30
0.0
 10
125.8500502463151
 20
-145.1979029915589
 30
0.0
 10
128.9840221899761
 20
-142.0639311270687
 30
0.0
 10
132.8499727445652
 20
-142.0638958492919
 30
0.0
  0
POLYLINE
  5
1AA
330
41
100
AcDbEntity
  8
Ebene 1
 62
     7
370
    35
100
AcDb2dPolyline
 66
     1
 10
0.0
 20
0.0
 30
0.0
  0
VERTEX
  5
1AB
330
1AA
100
AcDbEntity
  8
Ebene 1
 62
     7
370
    35
100
AcDbVertex
100
AcDb2dVertex
 10
132.8500433001209
 20
-142.0638958492919
 30
0.0
  0
VERTEX
  5
1AC
330
1AA
100
AcDbEntity
  8
Ebene 1
 62
     7
370
    35
100
AcDbVertex
100
AcDb2dVertex
 10
202.8500443937319
 20
-142.0638958492919
 30
0.0
  0
SEQEND
  5
1AD
330
1AA
100
AcDbEntity
  8
Ebene 1
 62
     7
370
    35
  0
SPLINE
  5
1AE
330
41
100
AcDbEntity
  8
Ebene 1
 62
     7
370
    35
100
AcDbSpline
210
0.0
220
0.0
230
1.0
 70
     8
 71
     3
 72
     8
 73
     4
 74
     0
 42
0.0000000001
 43
0.0000000001
 12
1.0
 22
0.0
 32
0.0
 13
1.0
 23
0.0
 33
0.0
 40
0.0
 40
0.0
 40
0.0
 40
0.0
 40
1.0
 40
1.0
 40
1.0
 40
1.0
 10
0.849947499787604
 20
-111.0995327503697
 30
0.0
 10
0.8521347220092117
 20
-108.4781117061366
 30
0.0
 10
2.862968054839773
 20
-106.2957931507011
 30
0.0
 10
5.475428609742088
 20
-106.0795051006635
 30
0.0
  0
SPLINE
  5
1AF
330
41
100
AcDbEntity
  8
Ebene 1
 62
     7
370
    35
100
AcDbSpline
210
0.0
220
0.0
230
1.0
 70
     8
 71
     3
 72
     8
 73
     4
 74
     0
 42
0.0000000001
 43
0.0000000001
 12
1.0
 22
0.0
 32
0.0
 13
1.0
 23
0.0
 33
0.0
 40
0.0
 40
0.0
 40
0.0
 40
0.0
 40
1.0
 40
1.0
 40
1.0
 40
1.0
 10
84.79169108991326
 20
-117.7957134128692
 30
0.0
 10
89.34227747766451
 20
-111.307530522841
 30
0.0
 10
96.75011692025696
 20
-107.4211895108787
 30
0.0
 10
104.6748110849425
 20
-107.364533401213
 30
0.0
  0
SPLINE
  5
1B0
330
41
100
AcDbEntity
  8
Ebene 1
 62
     7
370
    35
100
AcDbSpline
210
0.0
220
0.0
230
1.0
 70
     8
 71
     3
 72
     8
 73
     4
 74
     0
 42
0.0000000001
 43
0.0000000001
 12
1.0
 22
0.0
 32
0.0
 13
1.0
 23
0.0
 33
0.0
 40
0.0
 40
0.0
 40
0.0
 40
0.0
 40
1.0
 40
1.0
 40
1.0
 40
1.0
 10
104.6748110849425
 20
-107.364533401213
 30
0.0
 10
112.7232949718192
 20
-107.3069600693485
 30
0.0
 10
120.2867094143727
 20
-111.2061774698712
 30
0.0
 10
124.9083805243284
 20
-117.7957134128692
 30
0.0
  0
SPLINE
  5
1B1
330
41
100
AcDbEntity
  8
Ebene 1
 62
     7
370
    35
100
AcDbSpline
210
0.0
220
0.0
230
1.0
 70
     8
 71
     3
 72
     8
 73
     4
 74
     0
 42
0.0000000001
 43
0.0000000001
 12
1.0
 22
0.0
 32
0.0
 13
1.0
 23
0.0
 33
0.0
 40
0.0
 40
0.0
 40
0.0
 40
0.0
 40
1.0
 40
1.0
 40
1.0
 40
1.0
 10
124.9083805243284
 20
-117.7957134128692
 30
0.0
 10
132.4872819113227
 20
-128.6016845260748
 30
0.0
 10
130.1437791341308
 20
-143.4692919245483
 30
0.0
 10
119.6083530256535
 20
-151.420020888375
 30
0.0
  0
SPLINE
  5
1B2
330
41
100
AcDbEntity
  8
Ebene 1
 62
     7
370
    35
100
AcDbSpline
210
0.0
220
0.0
230
1.0
 70
     8
 71
     3
 72
     8
 73
     4
 74
     0
 42
0.0000000001
 43
0.0000000001
 12
1.0
 22
0.0
 32
0.0
 13
1.0
 23
0.0
 33
0.0
 40
0.0
 40
0.0
 40
0.0
 40
0.0
 40
1.0
 40
1.0
 40
1.0
 40
1.0
 10
90.10836969969509
 20
-151.4325797769435
 30
0.0
 10
79.55971442455467
 20
-143.4859430352346
 30
0.0
 10
77.20816831403121
 20
-128.6083167481278
 30
0.0
 10
84.79169108991326
 20
-117.7957134128692
 30
0.0
  0
SPLINE
  5
1B3
330
41
100
AcDbEntity
  8
Ebene 1
 62
     7
370
    35
100
AcDbSpline
210
0.0
220
0.0
230
1.0
 70
     8
 71
     3
 72
     8
 73
     4
 74
     0
 42
0.0000000001
 43
0.0000000001
 12
1.0
 22
0.0
 32
0.0
 13
1.0
 23
0.0
 33
0.0
 40
0.0
 40
0.0
 40
0.0
 40
0.0
 40
1.0
 40
1.0
 40
1.0
 40
1.0
 10
203.7621160601705
 20
-106.0638770455066
 30
0.0
 10
206.4242830039494
 20
-106.068674823162
 30
0.0
 10
208.6344357811744
 20
-108.1211711596873
 30
0.0
 10
208.8359071700133
 20
-110.7757180364087
 30
0.0
  0
POLYLINE
  5
1B4
330
41
100
AcDbEntity
  8
Ebene 1
 62
     7
370
    35
100
AcDb2dPolyline
 66
     1
 10
0.0
 20
0.0
 30
0.0
  0
VERTEX
  5
1B5
330
1B4
100
AcDbEntity
  8
Ebene 1
 62
     7
370
    35
100
AcDbVertex
100
AcDb2dVertex
 10
209.8201924475451
 20
-88.56387721419105
 30
0.0
  0
VERTEX
  5
1B6
330
1B4
100
AcDbEntity
  8
Ebene 1
 62
     7
370
    35
100
AcDbVertex
100
AcDb2dVertex
 10
149.8500163514268
 20
-88.56387721419105
 30
0.0
  0
SEQEND
  5
1B7
330
1B4
100
AcDbEntity
  8
Ebene 1
 62
     7
370
    35
  0
POLYLINE
  5
1B8
330
41
100
AcDbEntity
  8
Ebene 1
 62
     7
370
    35
100
AcDb2dPolyline
 66
     1
 10
0.0
 20
0.0
 30
0.0
  0
VERTEX
  5
1B9
330
1B8
100
AcDbEntity
  8
Ebene 1
 62
     7
370
    35
100
AcDbVertex
100
AcDb2dVertex
 10
59.82021026282263
 20
-88.56387721419105
 30
0.0
  0
VERTEX
  5
1BA
330
1B8
100
AcDbEntity
  8
Ebene 1
 62
     7
370
    35
100
AcDbVertex
100
AcDb2dVertex
 10
-0.1499658332959774
 20
-88.56387721419105
 30
0.0
  0
SEQEND
  5
1BB
330
1B8
100
AcDbEntity
  8
Ebene 1
 62
     7
370
    35
  0
SPLINE
  5
1BC
330
41
100
AcDbEntity
  8
Ebene 1
 62
     7
370
    35
100
AcDbSpline
210
0.0
220
0.0
230
1.0
 70
     8
 71
     3
 72
     8
 73
     4
 74
     0
 42
0.0000000001
 43
0.0000000001
 12
1.0
 22
0.0
 32
0.0
 13
1.0
 23
0.0
 33
0.0
 40
0.0
 40
0.0
 40
0.0
 40
0.0
 40
1.0
 40
1.0
 40
1.0
 40
1.0
 10
119.6019324700994
 20
-150.4016925810214
 30
0.0
 10
119.8881763589169
 20
-148.3586506886993
 30
0.0
 10
120.5912977476299
 20
-146.6760771205142
 30
0.0
 10
121.8437999695391
 20
-145.036824662335
 30
0.0
  0
SPLINE
  5
1BD
330
41
100
AcDbEntity
  8
Ebene 1
 62
     7
370
    35
100
AcDbSpline
210
0.0
220
0.0
230
1.0
 70
     8
 71
     3
 72
     8
 73
     4
 74
     0
 42
0.0000000001
 43
0.0000000001
 12
1.0
 22
0.0
 32
0.0
 13
1.0
 23
0.0
 33
0.0
 40
0.0
 40
0.0
 40
0.0
 40
0.0
 40
1.0
 40
1.0
 40
1.0
 40
1.0
 10
87.87292275580957
 20
-145.0367893845581
 30
0.0
 10
89.12538969994085
 20
-146.6760771205142
 30
0.0
 10
89.8285463664317
 20
-148.3586506886993
 30
0.0
 10
90.1148960885824
 20
-150.4016925810214
 30
0.0
  0
ENDBLK
  5
44
330
41
100
AcDbEntity
  8
0
100
AcDbBlockEnd
  0
BLOCK
  5
1C0
330
1BE
100
AcDbEntity
  8
0
100
AcDbBlockBegin
  2
block 3
 70
     0
 10
0.0
 20
0.0
 30
0.0
  3
block 3
  1

  0
INSERT
  5
1C3
330
1BE
100
AcDbEntity
  8
Ebene 1
100
AcDbBlockReference
  2
block 4
 10
0.0
 20
0.0
 30
0.0
  0
ENDBLK
  5
1C1
330
1BE
100
AcDbEntity
  8
0
100
AcDbBlockEnd
  0
BLOCK
  5
1C4
330
1C2
100
AcDbEntity
  8
0
100
AcDbBlockBegin
  2
block 4
 70
     0
 10
0.0
 20
0.0
 30
0.0
  3
block 4
  1

  0
INSERT
  5
1C7
330
1C2
100
AcDbEntity
  8
Ebene 1
100
AcDbBlockReference
  2
block 5
 10
0.0
 20
0.0
 30
0.0
  0
ENDBLK
  5
1C5
330
1C2
100
AcDbEntity
  8
0
100
AcDbBlockEnd
  0
BLOCK
  5
1C8
330
1C6
100
AcDbEntity
  8
0
100
AcDbBlockBegin
  2
block 5
 70
     0
 10
0.0
 20
0.0
 30
0.0
  3
block 5
  1

  0
POLYLINE
  5
1CA
330
1C6
100
AcDbEntity
  8
Ebene 1
 62
     4
370
    25
100
AcDb2dPolyline
 66
     1
 10
0.0
 20
0.0
 30
0.0
  0
VERTEX
  5
1CB
330
1CA
100
AcDbEntity
  8
Ebene 1
 62
     4
370
    25
100
AcDbVertex
100
AcDb2dVertex
 10
105.1132760526876
 20
-259.1213281619449
 30
0.0
  0
VERTEX
  5
1CC
330
1CA
100
AcDbEntity
  8
Ebene 1
 62
     4
370
    25
100
AcDbVertex
100
AcDb2dVertex
 10
105.1132760526876
 20
-247.8712396637809
 30
0.0
  0
SEQEND
  5
1CD
330
1CA
100
AcDbEntity
  8
Ebene 1
 62
     4
370
    25
  0
POLYLINE
  5
1CE
330
1C6
100
AcDbEntity
  8
Ebene 1
  6
AI-Linetype-1
 62
     4
370
    25
100
AcDb2dPolyline
 66
     1
 10
0.0
 20
0.0
 30
0.0
  0
VERTEX
  5
1CF
330
1CE
100
AcDbEntity
  8
Ebene 1
  6
AI-Linetype-1
 62
     4
370
    25
100
AcDbVertex
100
AcDb2dVertex
 10
105.1132760526876
 20
-243.8979464451019
 30
0.0
  0
VERTEX
  5
1D0
330
1CE
100
AcDbEntity
  8
Ebene 1
  6
AI-Linetype-1
 62
     4
370
    25
100
AcDbVertex
100
AcDb2dVertex
 10
105.1132760526876
 20
-237.9380173830068
 30
0.0
  0
SEQEND
  5
1D2
330
1CE
100
AcDbEntity
  8
Ebene 1
  6
AI-Linetype-1
 62
     4
370
    25
  0
POLYLINE
  5
1D3
330
1C6
100
AcDbEntity
  8
Ebene 1
  6
AI-Linetype-2
 62
     4
370
    25
100
AcDb2dPolyline
 66
     1
 10
0.0
 20
0.0
 30
0.0
  0
VERTEX
  5
1D4
330
1D3
100
AcDbEntity
  8
Ebene 1
  6
AI-Linetype-2
 62
     4
370
    25
100
AcDbVertex
100
AcDb2dVertex
 10
105.1132760526876
 20
-235.9513815395907
 30
0.0
  0
VERTEX
  5
1D5
330
1D3
100
AcDbEntity
  8
Ebene 1
  6
AI-Linetype-2
 62
     4
370
    25
100
AcDbVertex
100
AcDb2dVertex
 10
105.1132760526876
 20
-94.89898780993411
 30
0.0
  0
SEQEND
  5
1D7
330
1D3
100
AcDbEntity
  8
Ebene 1
  6
AI-Linetype-2
 62
     4
370
    25
  0
POLYLINE
  5
1D8
330
1C6
100
AcDbEntity
  8
Ebene 1
 62
     4
370
    25
100
AcDb2dPolyline
 66
     1
 10
0.0
 20
0.0
 30
0.0
  0
VERTEX
  5
1D9
330
1D8
100
AcDbEntity
  8
Ebene 1
 62
     4
370
    25
100
AcDbVertex
100
AcDb2dVertex
 10
105.1132760526876
 20
-92.91235196651802
 30
0.0
  0
VERTEX
  5
1DA
330
1D8
100
AcDbEntity
  8
Ebene 1
 62
     4
370
    25
100
AcDbVertex
100
AcDb2dVertex
 10
105.1132760526876
 20
-81.66226346835397
 30
0.0
  0
SEQEND
  5
1DB
330
1D8
100
AcDbEntity
  8
Ebene 1
 62
     4
370
    25
  0
ENDBLK
  5
1C9
330
1C6
100
AcDbEntity
  8
0
100
AcDbBlockEnd
  0
BLOCK
  5
1DE
330
1DC
100
AcDbEntity
  8
0
100
AcDbBlockBegin
  2
block 6
 70
     0
 10
0.0
 20
0.0
 30
0.0
  3
block 6
  1

  0
INSERT
  5
1E1
330
1DC
100
AcDbEntity
  8
Ebene 1
100
AcDbBlockReference
  2
block 7
 10
0.0
 20
0.0
 30
0.0
  0
ENDBLK
  5
1DF
330
1DC
100
AcDbEntity
  8
0
100
AcDbBlockEnd
  0
BLOCK
  5
1E2
330
1E0
100
AcDbEntity
  8
0
100
AcDbBlockBegin
  2
block 7
 70
     0
 10
0.0
 20
0.0
 30
0.0
  3
block 7
  1

  0
INSERT
  5
1E5
330
1E0
100
AcDbEntity
  8
Ebene 1
100
AcDbBlockReference
  2
block 8
 10
0.0
 20
0.0
 30
0.0
  0
ENDBLK
  5
1E3
330
1E0
100
AcDbEntity
  8
0
100
AcDbBlockEnd
  0
BLOCK
  5
1E6
330
1E4
100
AcDbEntity
  8
0
100
AcDbBlockBegin
  2
block 8
 70
     0
 10
0.0
 20
0.0
 30
0.0
  3
block 8
  1

  0
POLYLINE
  5
1E8
330
1E4
100
AcDbEntity
  8
Ebene 1
 62
     4
370
    25
100
AcDb2dPolyline
 66
     1
 10
0.0
 20
0.0
 30
0.0
  0
VERTEX
  5
1E9
330
1E8
100
AcDbEntity
  8
Ebene 1
 62
     4
370
    25
100
AcDbVertex
100
AcDb2dVertex
 10
19.8500292198571
 20
-95.06393252221383
 30
0.0
  0
VERTEX
  5
1EA
330
1E8
100
AcDbEntity
  8
Ebene 1
 62
     4
370
    25
100
AcDbVertex
100
AcDb2dVertex
 10
19.8500292198571
 20
-83.81384940701149
 30
0.0
  0
SEQEND
  5
1EB
330
1E8
100
AcDbEntity
  8
Ebene 1
 62
     4
370
    25
  0
POLYLINE
  5
1EC
330
1E4
100
AcDbEntity
  8
Ebene 1
  6
AI-Linetype-3
 62
     4
370
    25
100
AcDb2dPolyline
 66
     1
 10
0.0
 20
0.0
 30
0.0
  0
VERTEX
  5
1ED
330
1EC
100
AcDbEntity
  8
Ebene 1
  6
AI-Linetype-3
 62
     4
370
    25
100
AcDbVertex
100
AcDb2dVertex
 10
19.8500292198571
 20
-80.73389636246627
 30
0.0
  0
VERTEX
  5
1EE
330
1EC
100
AcDbEntity
  8
Ebene 1
  6
AI-Linetype-3
 62
     4
370
    25
100
AcDbVertex
100
AcDb2dVertex
 10
19.8500292198571
 20
-76.11396948712928
 30
0.0
  0
SEQEND
  5
1F0
330
1EC
100
AcDbEntity
  8
Ebene 1
  6
AI-Linetype-3
 62
     4
370
    25
  0
POLYLINE
  5
1F1
330
1E4
100
AcDbEntity
  8
Ebene 1
  6
AI-Linetype-4
 62
     4
370
    25
100
AcDb2dPolyline
 66
     1
 10
0.0
 20
0.0
 30
0.0
  0
VERTEX
  5
1F2
330
1F1
100
AcDbEntity
  8
Ebene 1
  6
AI-Linetype-4
 62
     4
370
    25
100
AcDbVertex
100
AcDb2dVertex
 10
19.8500292198571
 20
-74.57399027337583
 30
0.0
  0
VERTEX
  5
1F3
330
1F1
100
AcDbEntity
  8
Ebene 1
  6
AI-Linetype-4
 62
     4
370
    25
100
AcDbVertex
100
AcDb2dVertex
 10
19.8500292198571
 20
-48.39424674625648
 30
0.0
  0
SEQEND
  5
1F5
330
1F1
100
AcDbEntity
  8
Ebene 1
  6
AI-Linetype-4
 62
     4
370
    25
  0
POLYLINE
  5
1F6
330
1E4
100
AcDbEntity
  8
Ebene 1
 62
     4
370
    25
100
AcDb2dPolyline
 66
     1
 10
0.0
 20
0.0
 30
0.0
  0
VERTEX
  5
1F7
330
1F6
100
AcDbEntity
  8
Ebene 1
 62
     4
370
    25
100
AcDbVertex
100
AcDb2dVertex
 10
19.8500292198571
 20
-46.85427291546471
 30
0.0
  0
VERTEX
  5
1F8
330
1F6
100
AcDbEntity
  8
Ebene 1
 62
     4
370
    25
100
AcDbVertex
100
AcDb2dVertex
 10
19.8500292198571
 20
-35.60418710878152
 30
0.0
  0
SEQEND
  5
1F9
330
1F6
100
AcDbEntity
  8
Ebene 1
 62
     4
370
    25
  0
ENDBLK
  5
1E7
330
1E4
100
AcDbEntity
  8
0
100
AcDbBlockEnd
  0
BLOCK
  5
1FC
330
1FA
100
AcDbEntity
  8
0
100
AcDbBlockBegin
  2
block 9
 70
     0
 10
0.0
 20
0.0
 30
0.0
  3
block 9
  1

  0
INSERT
  5
1FF
330
1FA
100
AcDbEntity
  8
Ebene 1
100
AcDbBlockReference
  2
block 10
 10
0.0
 20
0.0
 30
0.0
  0
ENDBLK
  5
1FD
330
1FA
100
AcDbEntity
  8
0
100
AcDbBlockEnd
  0
BLOCK
  5
200
330
1FE
100
AcDbEntity
  8
0
100
AcDbBlockBegin
  2
block 10
 70
     0
 10
0.0
 20
0.0
 30
0.0
  3
block 10
  1

  0
INSERT
  5
203
330
1FE
100
AcDbEntity
  8
Ebene 1
100
AcDbBlockReference
  2
block 11
 10
0.0
 20
0.0
 30
0.0
  0
ENDBLK
  5
201
330
1FE
100
AcDbEntity
  8
0
100
AcDbBlockEnd
  0
BLOCK
  5
204
330
202
100
AcDbEntity
  8
0
100
AcDbBlockBegin
  2
block 11
 70
     0
 10
0.0
 20
0.0
 30
0.0
  3
block 11
  1

  0
POLYLINE
  5
206
330
202
100
AcDbEntity
  8
Ebene 1
 62
     4
370
    25
100
AcDb2dPolyline
 66
     1
 10
0.0
 20
0.0
 30
0.0
  0
VERTEX
  5
207
330
206
100
AcDbEntity
  8
Ebene 1
 62
     4
370
    25
100
AcDbVertex
100
AcDb2dVertex
 10
169.8500290434683
 20
-95.06393252221383
 30
0.0
  0
VERTEX
  5
208
330
206
100
AcDbEntity
  8
Ebene 1
 62
     4
370
    25
100
AcDbVertex
100
AcDb2dVertex
 10
169.8500290434683
 20
-83.81384940701149
 30
0.0
  0
SEQEND
  5
209
330
206
100
AcDbEntity
  8
Ebene 1
 62
     4
370
    25
  0
POLYLINE
  5
20A
330
202
100
AcDbEntity
  8
Ebene 1
  6
AI-Linetype-5
 62
     4
370
    25
100
AcDb2dPolyline
 66
     1
 10
0.0
 20
0.0
 30
0.0
  0
VERTEX
  5
20B
330
20A
100
AcDbEntity
  8
Ebene 1
  6
AI-Linetype-5
 62
     4
370
    25
100
AcDbVertex
100
AcDb2dVertex
 10
169.8500290434683
 20
-80.73389636246627
 30
0.0
  0
VERTEX
  5
20C
330
20A
100
AcDbEntity
  8
Ebene 1
  6
AI-Linetype-5
 62
     4
370
    25
100
AcDbVertex
100
AcDb2dVertex
 10
169.8500290434683
 20
-76.11396948712928
 30
0.0
  0
SEQEND
  5
20E
330
20A
100
AcDbEntity
  8
Ebene 1
  6
AI-Linetype-5
 62
     4
370
    25
  0
POLYLINE
  5
20F
330
202
100
AcDbEntity
  8
Ebene 1
  6
AI-Linetype-6
 62
     4
370
    25
100
AcDb2dPolyline
 66
     1
 10
0.0
 20
0.0
 30
0.0
  0
VERTEX
  5
210
330
20F
100
AcDbEntity
  8
Ebene 1
  6
AI-Linetype-6
 62
     4
370
    25
100
AcDbVertex
100
AcDb2dVertex
 10
169.8500290434683
 20
-74.57399027337583
 30
0.0
  0
VERTEX
  5
211
330
20F
100
AcDbEntity
  8
Ebene 1
  6
AI-Linetype-6
 62
     4
370
    25
100
AcDbVertex
100
AcDb2dVertex
 10
169.8500290434683
 20
-48.39424674625648
 30
0.0
  0
SEQEND
  5
213
330
20F
100
AcDbEntity
  8
Ebene 1
  6
AI-Linetype-6
 62
     4
370
    25
  0
POLYLINE
  5
214
330
202
100
AcDbEntity
  8
Ebene 1
 62
     4
370
    25
100
AcDb2dPolyline
 66
     1
 10
0.0
 20
0.0
 30
0.0
  0
VERTEX
  5
215
330
214
100
AcDbEntity
  8
Ebene 1
 62
     4
370
    25
100
AcDbVertex
100
AcDb2dVertex
 10
169.8500290434683
 20
-46.85427291546471
 30
0.0
  0
VERTEX
  5
216
330
214
100
AcDbEntity
  8
Ebene 1
 62
     4
370
    25
100
AcDbVertex
100
AcDb2dVertex
 10
169.8500290434683
 20
-35.60418710878152
 30
0.0
  0
SEQEND
  5
217
330
214
100
AcDbEntity
  8
Ebene 1
 62
     4
370
    25
  0
ENDBLK
  5
205
330
202
100
AcDbEntity
  8
0
100
AcDbBlockEnd
  0
BLOCK
  5
21A
330
218
100
AcDbEntity
  8
0
100
AcDbBlockBegin
  2
block 12
 70
     0
 10
0.0
 20
0.0
 30
0.0
  3
block 12
  1

  0
INSERT
  5
21D
330
218
100
AcDbEntity
  8
Ebene 1
100
AcDbBlockReference
  2
block 13
 10
0.0
 20
0.0
 30
0.0
  0
ENDBLK
  5
21B
330
218
100
AcDbEntity
  8
0
100
AcDbBlockEnd
  0
BLOCK
  5
21E
330
21C
100
AcDbEntity
  8
0
100
AcDbBlockBegin
  2
block 13
 70
     0
 10
0.0
 20
0.0
 30
0.0
  3
block 13
  1

  0
INSERT
  5
221
330
21C
100
AcDbEntity
  8
Ebene 1
100
AcDbBlockReference
  2
block 14
 10
0.0
 20
0.0
 30
0.0
  0
ENDBLK
  5
21F
330
21C
100
AcDbEntity
  8
0
100
AcDbBlockEnd
  0
BLOCK
  5
222
330
220
100
AcDbEntity
  8
0
100
AcDbBlockBegin
  2
block 14
 70
     0
 10
0.0
 20
0.0
 30
0.0
  3
block 14
  1

  0
POLYLINE
  5
224
330
220
100
AcDbEntity
  8
Ebene 1
 62
     4
370
    25
100
AcDb2dPolyline
 66
     1
 10
0.0
 20
0.0
 30
0.0
  0
VERTEX
  5
225
330
224
100
AcDbEntity
  8
Ebene 1
 62
     4
370
    25
100
AcDbVertex
100
AcDb2dVertex
 10
65.00083739967133
 20
-131.4480012259088
 30
0.0
  0
VERTEX
  5
226
330
224
100
AcDbEntity
  8
Ebene 1
 62
     4
370
    25
100
AcDbVertex
100
AcDb2dVertex
 10
76.25092051487367
 20
-131.4480012259088
 30
0.0
  0
SEQEND
  5
227
330
224
100
AcDbEntity
  8
Ebene 1
 62
     4
370
    25
  0
POLYLINE
  5
228
330
220
100
AcDbEntity
  8
Ebene 1
  6
AI-Linetype-7
 62
     4
370
    25
100
AcDb2dPolyline
 66
     1
 10
0.0
 20
0.0
 30
0.0
  0
VERTEX
  5
229
330
228
100
AcDbEntity
  8
Ebene 1
  6
AI-Linetype-7
 62
     4
370
    25
100
AcDbVertex
100
AcDb2dVertex
 10
81.0425477194185
 20
-131.4480012259088
 30
0.0
  0
VERTEX
  5
22A
330
228
100
AcDbEntity
  8
Ebene 1
  6
AI-Linetype-7
 62
     4
370
    25
100
AcDbVertex
100
AcDb2dVertex
 10
88.22998583475488
 20
-131.4480012259088
 30
0.0
  0
SEQEND
  5
22C
330
228
100
AcDbEntity
  8
Ebene 1
  6
AI-Linetype-7
 62
     4
370
    25
  0
POLYLINE
  5
22D
330
220
100
AcDbEntity
  8
Ebene 1
  6
AI-Linetype-8
 62
     4
370
    25
100
AcDb2dPolyline
 66
     1
 10
0.0
 20
0.0
 30
0.0
  0
VERTEX
  5
22E
330
22D
100
AcDbEntity
  8
Ebene 1
  6
AI-Linetype-8
 62
     4
370
    25
100
AcDbVertex
100
AcDb2dVertex
 10
90.62579674554644
 20
-131.4480012259088
 30
0.0
  0
VERTEX
  5
22F
330
22D
100
AcDbEntity
  8
Ebene 1
  6
AI-Linetype-8
 62
     4
370
    25
100
AcDbVertex
100
AcDb2dVertex
 10
131.3548190793177
 20
-131.4480012259088
 30
0.0
  0
SEQEND
  5
231
330
22D
100
AcDbEntity
  8
Ebene 1
  6
AI-Linetype-8
 62
     4
370
    25
  0
POLYLINE
  5
232
330
220
100
AcDbEntity
  8
Ebene 1
 62
     4
370
    25
100
AcDb2dPolyline
 66
     1
 10
0.0
 20
0.0
 30
0.0
  0
VERTEX
  5
233
330
232
100
AcDbEntity
  8
Ebene 1
 62
     4
370
    25
100
AcDbVertex
100
AcDb2dVertex
 10
133.7506353730709
 20
-131.4480012259088
 30
0.0
  0
VERTEX
  5
234
330
232
100
AcDbEntity
  8
Ebene 1
 62
     4
370
    25
100
AcDbVertex
100
AcDb2dVertex
 10
145.0007131053115
 20
-131.4480012259088
 30
0.0
  0
SEQEND
  5
235
330
232
100
AcDbEntity
  8
Ebene 1
 62
     4
370
    25
  0
ENDBLK
  5
223
330
220
100
AcDbEntity
  8
0
100
AcDbBlockEnd
  0
ENDSEC
  0
SECTION
  2
ENTITIES
  0
INSERT
  5
42
330
1F
100
AcDbEntity
  8
Ebene 1
100
AcDbBlockReference
  2
block 2
 10
0.0
 20
0.0
 30
0.0
  0
INSERT
  5
1BF
330
1F
100
AcDbEntity
  8
Ebene 1
100
AcDbBlockReference
  2
block 3
 10
0.0
 20
0.0
 30
0.0
  0
INSERT
  5
1DD
330
1F
100
AcDbEntity
  8
Ebene 1
100
AcDbBlockReference
  2
block 6
 10
0.0
 20
0.0
 30
0.0
  0
INSERT
  5
1FB
330
1F
100
AcDbEntity
  8
Ebene 1
100
AcDbBlockReference
  2
block 9
 10
0.0
 20
0.0
 30
0.0
  0
INSERT
  5
219
330
1F
100
AcDbEntity
  8
Ebene 1
100
AcDbBlockReference
  2
block 12
 10
0.0
 20
0.0
 30
0.0
  0
ENDSEC
  0
SECTION
  2
OBJECTS
  0
DICTIONARY
  5
C
330
0
100
AcDbDictionary
281
     1
  3
ACAD_GROUP
350
D
  3
ACAD_LAYOUT
350
1A
  3
ACAD_MATERIAL
350
3B
  3
ACAD_MLEADERSTYLE
350
257
  3
ACAD_MLINESTYLE
350
17
  3
ACAD_PLOTSETTINGS
350
19
  3
ACAD_PLOTSTYLENAME
350
E
  3
ACAD_TABLESTYLE
350
256
  3
ACAD_VISUALSTYLE
350
2A
  0
SUN
  5
3F
330
29
100
AcDbSun
 90
        1
290
     0
 63
     7
421
 16777215
 40
1.0
291
     1
 91
  2455826
 92
 54000000
292
     0
 70
     2
 71
   256
280
     1
  0
DICTIONARY
  5
D
102
{ACAD_REACTORS
330
C
102
}
330
C
100
AcDbDictionary
281
     1
  0
DICTIONARY
  5
1A
102
{ACAD_REACTORS
330
C
102
}
330
C
100
AcDbDictionary
281
     1
  3
Layout1
350
1E
  3
Layout2
350
26
  3
Model
350
22
  0
DICTIONARY
  5
3B
102
{ACAD_REACTORS
330
C
102
}
330
C
100
AcDbDictionary
281
     1
  3
ByBlock
350
3D
  3
ByLayer
350
3C
  3
Global
350
3E
  0
DICTIONARY
  5
257
102
{ACAD_REACTORS
330
C
102
}
330
C
100
AcDbDictionary
281
     1
  0
DICTIONARY
  5
17
102
{ACAD_REACTORS
330
C
102
}
330
C
100
AcDbDictionary
281
     1
  3
Standard
350
18
  0
DICTIONARY
  5
19
102
{ACAD_REACTORS
330
C
102
}
330
C
100
AcDbDictionary
281
     1
  0
ACDBDICTIONARYWDFLT
  5
E
102
{ACAD_REACTORS
330
C
102
}
330
C
100
AcDbDictionary
281
     1
  3
Normal
350
F
100
AcDbDictionaryWithDefault
340
F
  0
DICTIONARY
  5
256
102
{ACAD_REACTORS
330
C
102
}
330
C
100
AcDbDictionary
281
     1
  0
DICTIONARY
  5
2A
102
{ACAD_REACTORS
330
C
102
}
330
C
100
AcDbDictionary
281
     1
  3
2dWireframe
350
2F
  3
3D Hidden
350
31
  3
3dWireframe
350
30
  3
Basic
350
32
  3
Brighten
350
36
  3
ColorChange
350
3A
  3
Conceptual
350
34
  3
Dim
350
35
  3
Facepattern
350
39
  3
Flat
350
2B
  3
FlatWithEdges
350
2C
  3
Gouraud
350
2D
  3
GouraudWithEdges
350
2E
  3
Linepattern
350
38
  3
Realistic
350
33
  3
Thicken
350
37
  0
LAYOUT
  5
1E
102
{ACAD_REACTORS
330
1A
102
}
330
1A
100
AcDbPlotSettings
  1

  2
none_device
  4

  6

 40
0.0
 41
0.0
 42
0.0
 43
0.0
 44
0.0
 45
0.0
 46
0.0
 47
0.0
 48
0.0
 49
0.0
140
0.0
141
0.0
142
1.0
143
1.0
 70
   688
 72
     0
 73
     0
 74
     5
  7

 75
    16
 76
     0
 77
     2
 78
   300
147
1.0
148
0.0
149
0.0
100
AcDbLayout
  1
Layout1
 70
     1
 71
     1
 10
0.0
 20
0.0
 11
12.0
 21
9.0
 12
0.0
 22
0.0
 32
0.0
 14
1.000000000000000E+20
 24
1.000000000000000E+20
 34
1.000000000000000E+20
 15
-1.000000000000000E+20
 25
-1.000000000000000E+20
 35
-1.000000000000000E+20
146
0.0
 13
0.0
 23
0.0
 33
0.0
 16
1.0
 26
0.0
 36
0.0
 17
0.0
 27
1.0
 37
0.0
 76
     0
330
1B
  0
LAYOUT
  5
26
102
{ACAD_REACTORS
330
1A
102
}
330
1A
100
AcDbPlotSettings
  1

  2
none_device
  4

  6

 40
0.0
 41
0.0
 42
0.0
 43
0.0
 44
0.0
 45
0.0
 46
0.0
 47
0.0
 48
0.0
 49
0.0
140
0.0
141
0.0
142
1.0
143
1.0
 70
   688
 72
     0
 73
     0
 74
     5
  7

 75
    16
 76
     0
 77
     2
 78
   300
147
1.0
148
0.0
149
0.0
100
AcDbLayout
  1
Layout2
 70
     1
 71
     2
 10
0.0
 20
0.0
 11
0.0
 21
0.0
 12
0.0
 22
0.0
 32
0.0
 14
0.0
 24
0.0
 34
0.0
 15
0.0
 25
0.0
 35
0.0
146
0.0
 13
0.0
 23
0.0
 33
0.0
 16
1.0
 26
0.0
 36
0.0
 17
0.0
 27
1.0
 37
0.0
 76
     0
330
23
  0
LAYOUT
  5
22
102
{ACAD_REACTORS
330
1A
102
}
330
1A
100
AcDbPlotSettings
  1

  2
none_device
  4

  6

 40
0.0
 41
0.0
 42
0.0
 43
0.0
 44
0.0
 45
0.0
 46
0.0
 47
0.0
 48
0.0
 49
0.0
140
0.0
141
0.0
142
1.0
143
1.0
 70
  1712
 72
     0
 73
     0
 74
     0
  7

 75
     0
 76
     0
 77
     2
 78
   300
147
1.0
148
0.0
149
0.0
100
AcDbLayout
  1
Model
 70
     1
 71
     0
 10
0.0
 20
0.0
 11
12.0
 21
9.0
 12
0.0
 22
0.0
 32
0.0
 14
1.000000000000000E+20
 24
1.000000000000000E+20
 34
1.000000000000000E+20
 15
-1.000000000000000E+20
 25
-1.000000000000000E+20
 35
-1.000000000000000E+20
146
0.0
 13
0.0
 23
0.0
 33
0.0
 16
1.0
 26
0.0
 36
0.0
 17
0.0
 27
1.0
 37
0.0
 76
     0
330
1F
331
29
  0
MATERIAL
  5
3D
102
{ACAD_REACTORS
330
3B
102
}
330
3B
100
AcDbMaterial
  1
ByBlock
 72
     1
 94
      127
  0
MATERIAL
  5
3C
102
{ACAD_REACTORS
330
3B
102
}
330
3B
100
AcDbMaterial
  1
ByLayer
 72
     1
 94
      127
  0
MATERIAL
  5
3E
102
{ACAD_REACTORS
330
3B
102
}
330
3B
100
AcDbMaterial
  1
Global
 72
     1
 94
      127
  0
MLINESTYLE
  5
18
102
{ACAD_REACTORS
330
17
102
}
330
17
100
AcDbMlineStyle
  2
Standard
 70
     0
  3

 62
   256
 51
90.0
 52
90.0
 71
     2
 49
0.5
 62
   256
  6
BYLAYER
 49
-0.5
 62
   256
  6
BYLAYER
  0
ACDBPLACEHOLDER
  5
F
102
{ACAD_REACTORS
330
E
102
}
330
E
  0
VISUALSTYLE
  5
2F
102
{ACAD_REACTORS
330
2A
102
}
102
{ACAD_XDICTIONARY
360
23E
102
}
330
2A
100
AcDbVisualStyle
  2
2dWireframe
 70
     4
 71
     0
 72
     2
 73
     0
 90
        0
 40
-0.6
 41
-30.0
 62
     5
 63
     7
421
 16777215
 74
     1
 91
        4
 64
     7
 65
   257
 75
     1
175
     1
 42
1.0
 92
        0
 66
   257
 43
1.0
 76
     1
 77
     6
 78
     2
 67
     7
 79
     5
170
     0
171
     0
290
     0
174
     0
 93
        1
 44
0.0
173
     0
291
     0
 45
0.0
  0
VISUALSTYLE
  5
31
102
{ACAD_REACTORS
330
2A
102
}
102
{ACAD_XDICTIONARY
360
242
102
}
330
2A
100
AcDbVisualStyle
  2
3D Hidden
 70
     6
 71
     1
 72
     2
 73
     2
 90
        0
 40
-0.6
 41
-30.0
 62
     5
 63
     7
421
 16777215
 74
     2
 91
        2
 64
     7
 65
   257
 75
     2
175
     1
 42
40.0
 92
        0
 66
   257
 43
1.0
 76
     1
 77
     6
 78
     2
 67
     7
 79
     3
170
     0
171
     0
290
     0
174
     0
 93
        1
 44
0.0
173
     0
291
     0
 45
0.0
  0
VISUALSTYLE
  5
30
102
{ACAD_REACTORS
330
2A
102
}
102
{ACAD_XDICTIONARY
360
240
102
}
330
2A
100
AcDbVisualStyle
  2
3dWireframe
 70
     5
 71
     0
 72
     2
 73
     0
 90
        0
 40
-0.6
 41
-30.0
 62
     5
 63
     7
421
 16777215
 74
     1
 91
        4
 64
     7
 65
   257
 75
     1
175
     1
 42
1.0
 92
        0
 66
   257
 43
1.0
 76
     1
 77
     6
 78
     2
 67
     7
 79
     5
170
     0
171
     0
290
     0
174
     0
 93
        1
 44
0.0
173
     0
291
     0
 45
0.0
  0
VISUALSTYLE
  5
32
102
{ACAD_REACTORS
330
2A
102
}
102
{ACAD_XDICTIONARY
360
244
102
}
330
2A
100
AcDbVisualStyle
  2
Basic
 70
     7
 71
     1
 72
     0
 73
     1
 90
        0
 40
-0.6
 41
-30.0
 62
     5
 63
     7
421
 16777215
 74
     0
 91
        4
 64
     7
 65
   257
 75
     1
175
     1
 42
1.0
 92
        8
 66
     7
 43
1.0
 76
     1
 77
     6
 78
     2
 67
     7
 79
     5
170
     0
171
     0
290
     0
174
     0
 93
        1
 44
0.0
173
     0
291
     1
 45
0.0
  0
VISUALSTYLE
  5
36
102
{ACAD_REACTORS
330
2A
102
}
102
{ACAD_XDICTIONARY
360
24C
102
}
330
2A
100
AcDbVisualStyle
  2
Brighten
 70
    12
 71
     2
 72
     2
 73
     0
 90
        0
 40
-0.6
 41
-30.0
 62
     5
 63
     7
421
 16777215
 74
     1
 91
        4
 64
     7
 65
   257
 75
     1
175
     1
 42
1.0
 92
        8
 66
     7
 43
1.0
 76
     1
 77
     6
 78
     2
 67
     7
 79
     5
170
     0
171
     0
290
     0
174
     0
 93
        1
 44
50.0
173
     0
291
     1
 45
0.0
  0
VISUALSTYLE
  5
3A
102
{ACAD_REACTORS
330
2A
102
}
102
{ACAD_XDICTIONARY
360
254
102
}
330
2A
100
AcDbVisualStyle
  2
ColorChange
 70
    16
 71
     2
 72
     2
 73
     3
 90
        0
 40
-0.6
 41
-30.0
 62
     5
 63
     8
421
  8421504
 74
     1
 91
        4
 64
     7
 65
   257
 75
     1
175
     1
 42
1.0
 92
        8
 66
     8
424
  8421504
 43
1.0
 76
     1
 77
     6
 78
     2
 67
     7
 79
     5
170
     0
171
     0
290
     0
174
     0
 93
        1
 44
0.0
173
     0
291
     1
 45
0.0
  0
VISUALSTYLE
  5
34
102
{ACAD_REACTORS
330
2A
102
}
102
{ACAD_XDICTIONARY
360
248
102
}
330
2A
100
AcDbVisualStyle
  2
Conceptual
 70
     9
 71
     3
 72
     2
 73
     0
 90
        0
 40
-0.6
 41
-30.0
 62
     5
 63
     7
421
 16777215
 74
     2
 91
        2
 64
     7
 65
   257
 75
     1
175
     1
 42
40.0
 92
        8
 66
     7
 43
1.0
 76
     1
 77
     6
 78
     2
 67
     7
 79
     3
170
     0
171
     0
290
     0
174
     0
 93
        1
 44
0.0
173
     0
291
     0
 45
0.0
  0
VISUALSTYLE
  5
35
102
{ACAD_REACTORS
330
2A
102
}
102
{ACAD_XDICTIONARY
360
24A
102
}
330
2A
100
AcDbVisualStyle
  2
Dim
 70
    11
 71
     2
 72
     2
 73
     0
 90
        0
 40
-0.6
 41
-30.0
 62
     5
 63
     7
421
 16777215
 74
     1
 91
        4
 64
     7
 65
   257
 75
     1
175
     1
 42
1.0
 92
        8
 66
     7
 43
1.0
 76
     1
 77
     6
 78
     2
 67
     7
 79
     5
170
     0
171
     0
290
     0
174
     0
 93
        1
 44
-50.0
173
     0
291
     1
 45
0.0
  0
VISUALSTYLE
  5
39
102
{ACAD_REACTORS
330
2A
102
}
102
{ACAD_XDICTIONARY
360
252
102
}
330
2A
100
AcDbVisualStyle
  2
Facepattern
 70
    15
 71
     2
 72
     2
 73
     0
 90
        0
 40
-0.6
 41
-30.0
 62
     5
 63
     7
421
 16777215
 74
     1
 91
        4
 64
     7
 65
   257
 75
     1
175
     1
 42
1.0
 92
        8
 66
     7
 43
1.0
 76
     1
 77
     6
 78
     2
 67
     7
 79
     5
170
     0
171
     0
290
     0
174
     0
 93
        1
 44
0.0
173
     0
291
     1
 45
0.0
  0
VISUALSTYLE
  5
2B
102
{ACAD_REACTORS
330
2A
102
}
102
{ACAD_XDICTIONARY
360
236
102
}
330
2A
100
AcDbVisualStyle
  2
Flat
 70
     0
 71
     2
 72
     1
 73
     1
 90
        2
 40
-0.6
 41
30.0
 62
     5
 63
     7
421
 16777215
 74
     0
 91
        4
 64
     7
 65
   257
 75
     1
175
     1
 42
1.0
 92
        8
 66
     7
 43
1.0
 76
     1
 77
     6
 78
     2
 67
     7
 79
     5
170
     0
171
     0
290
     0
174
     0
 93
       13
 44
0.0
173
     0
291
     1
 45
0.0
  0
VISUALSTYLE
  5
2C
102
{ACAD_REACTORS
330
2A
102
}
102
{ACAD_XDICTIONARY
360
238
102
}
330
2A
100
AcDbVisualStyle
  2
FlatWithEdges
 70
     1
 71
     2
 72
     1
 73
     1
 90
        2
 40
-0.6
 41
30.0
 62
     5
 63
     7
421
 16777215
 74
     1
 91
        4
 64
     7
 65
   257
 75
     1
175
     1
 42
1.0
 92
        0
 66
   257
 43
1.0
 76
     1
 77
     6
 78
     2
 67
     7
 79
     5
170
     0
171
     0
290
     0
174
     0
 93
       13
 44
0.0
173
     0
291
     1
 45
0.0
  0
VISUALSTYLE
  5
2D
102
{ACAD_REACTORS
330
2A
102
}
102
{ACAD_XDICTIONARY
360
23A
102
}
330
2A
100
AcDbVisualStyle
  2
Gouraud
 70
     2
 71
     2
 72
     2
 73
     1
 90
        2
 40
-0.6
 41
30.0
 62
     5
 63
     7
421
 16777215
 74
     0
 91
        4
 64
     7
 65
   257
 75
     1
175
     1
 42
1.0
 92
        0
 66
     7
 43
1.0
 76
     1
 77
     6
 78
     2
 67
     7
 79
     5
170
     0
171
     0
290
     0
174
     0
 93
       13
 44
0.0
173
     0
291
     1
 45
0.0
  0
VISUALSTYLE
  5
2E
102
{ACAD_REACTORS
330
2A
102
}
102
{ACAD_XDICTIONARY
360
23C
102
}
330
2A
100
AcDbVisualStyle
  2
GouraudWithEdges
 70
     3
 71
     2
 72
     2
 73
     1
 90
        2
 40
-0.6
 41
30.0
 62
     5
 63
     7
421
 16777215
 74
     1
 91
        4
 64
     7
 65
   257
 75
     1
175
     1
 42
1.0
 92
        0
 66
   257
 43
1.0
 76
     1
 77
     6
 78
     2
 67
     7
 79
     5
170
     0
171
     0
290
     0
174
     0
 93
       13
 44
0.0
173
     0
291
     1
 45
0.0
  0
VISUALSTYLE
  5
38
102
{ACAD_REACTORS
330
2A
102
}
102
{ACAD_XDICTIONARY
360
250
102
}
330
2A
100
AcDbVisualStyle
  2
Linepattern
 70
    14
 71
     2
 72
     2
 73
     0
 90
        0
 40
-0.6
 41
-30.0
 62
     5
 63
     7
421
 16777215
 74
     1
 91
        4
 64
     7
 65
   257
 75
     7
175
     7
 42
1.0
 92
        8
 66
     7
 43
1.0
 76
     1
 77
     6
 78
     2
 67
     7
 79
     5
170
     0
171
     0
290
     0
174
     0
 93
        1
 44
0.0
173
     0
291
     1
 45
0.0
  0
VISUALSTYLE
  5
33
102
{ACAD_REACTORS
330
2A
102
}
102
{ACAD_XDICTIONARY
360
246
102
}
330
2A
100
AcDbVisualStyle
  2
Realistic
 70
     8
 71
     2
 72
     2
 73
     0
 90
        0
 40
-0.6
 41
-30.0
 62
     5
 63
     7
421
 16777215
 74
     1
 91
        0
 64
     7
 65
   257
 75
     1
175
     1
 42
1.0
 92
        8
 66
     8
424
  7895160
 43
1.0
 76
     1
 77
     6
 78
     2
 67
     7
 79
     5
170
     0
171
     0
290
     0
174
     0
 93
       13
 44
0.0
173
     0
291
     0
 45
0.0
  0
VISUALSTYLE
  5
37
102
{ACAD_REACTORS
330
2A
102
}
102
{ACAD_XDICTIONARY
360
24E
102
}
330
2A
100
AcDbVisualStyle
  2
Thicken
 70
    13
 71
     2
 72
     2
 73
     0
 90
        0
 40
-0.6
 41
-30.0
 62
     5
 63
     7
421
 16777215
 74
     1
 91
        4
 64
     7
 65
   257
 75
     1
175
     1
 42
1.0
 92
       12
 66
     7
 43
1.0
 76
     1
 77
     6
 78
     2
 67
     7
 79
     5
170
     0
171
     0
290
     0
174
     0
 93
        1
 44
0.0
173
     0
291
     1
 45
0.0
  0
DICTIONARY
  5
23E
330
2F
100
AcDbDictionary
280
     1
281
     1
  3
ACAD_XREC_ROUNDTRIP
360
23F
  0
DICTIONARY
  5
242
330
31
100
AcDbDictionary
280
     1
281
     1
  3
ACAD_XREC_ROUNDTRIP
360
243
  0
DICTIONARY
  5
240
330
30
100
AcDbDictionary
280
     1
281
     1
  3
ACAD_XREC_ROUNDTRIP
360
241
  0
DICTIONARY
  5
244
330
32
100
AcDbDictionary
280
     1
281
     1
  3
ACAD_XREC_ROUNDTRIP
360
245
  0
DICTIONARY
  5
24C
330
36
100
AcDbDictionary
280
     1
281
     1
  3
ACAD_XREC_ROUNDTRIP
360
24D
  0
DICTIONARY
  5
254
330
3A
100
AcDbDictionary
280
     1
281
     1
  3
ACAD_XREC_ROUNDTRIP
360
255
  0
DICTIONARY
  5
248
330
34
100
AcDbDictionary
280
     1
281
     1
  3
ACAD_XREC_ROUNDTRIP
360
249
  0
DICTIONARY
  5
24A
330
35
100
AcDbDictionary
280
     1
281
     1
  3
ACAD_XREC_ROUNDTRIP
360
24B
  0
DICTIONARY
  5
252
330
39
100
AcDbDictionary
280
     1
281
     1
  3
ACAD_XREC_ROUNDTRIP
360
253
  0
DICTIONARY
  5
236
330
2B
100
AcDbDictionary
280
     1
281
     1
  3
ACAD_XREC_ROUNDTRIP
360
237
  0
DICTIONARY
  5
238
330
2C
100
AcDbDictionary
280
     1
281
     1
  3
ACAD_XREC_ROUNDTRIP
360
239
  0
DICTIONARY
  5
23A
330
2D
100
AcDbDictionary
280
     1
281
     1
  3
ACAD_XREC_ROUNDTRIP
360
23B
  0
DICTIONARY
  5
23C
330
2E
100
AcDbDictionary
280
     1
281
     1
  3
ACAD_XREC_ROUNDTRIP
360
23D
  0
DICTIONARY
  5
250
330
38
100
AcDbDictionary
280
     1
281
     1
  3
ACAD_XREC_ROUNDTRIP
360
251
  0
DICTIONARY
  5
246
330
33
100
AcDbDictionary
280
     1
281
     1
  3
ACAD_XREC_ROUNDTRIP
360
247
  0
DICTIONARY
  5
24E
330
37
100
AcDbDictionary
280
     1
281
     1
  3
ACAD_XREC_ROUNDTRIP
360
24F
  0
XRECORD
  5
23F
102
{ACAD_REACTORS
330
23E
102
}
330
23E
100
AcDbXrecord
280
     1
102
RTVSPropertyOp0
 70
     1
102
RTVSPropertyOp1
 70
     1
102
RTVSPropertyOp2
 70
     1
102
RTVSPropertyOp3
 70
     1
102
RTVSPropertyOp4
 70
     1
102
RTVSPropertyOp5
 70
     1
102
RTVSPropertyOp6
 70
     1
102
RTVSPropertyOp7
 70
     1
102
RTVSPropertyOp8
 70
     1
102
RTVSPropertyOp9
 70
     1
102
RTVSPropertyOp10
 70
     1
102
RTVSPropertyOp11
 70
     1
102
RTVSPropertyOp12
 70
     1
102
RTVSPropertyOp13
 70
     1
102
RTVSPropertyOp14
 70
     1
102
RTVSPropertyOp15
 70
     1
102
RTVSPropertyOp16
 70
     1
102
RTVSPropertyOp17
 70
     1
102
RTVSPropertyOp18
 70
     1
102
RTVSPropertyOp19
 70
     1
102
RTVSPropertyOp20
 70
     1
102
RTVSPropertyOp21
 70
     1
102
RTVSPropertyOp22
 70
     1
102
RTVSPropertyOp23
 70
     1
102
RTVSPropertyOp24
 70
     1
102
RTVSPropertyOp25
 70
     1
102
RTVSPropertyOp26
 70
     1
102
RTVSPropertyOp27
 70
     1
102
RTVSPropertyOp28
 70
     1
102
RTVSPropertyOp29
 70
     1
102
RTVSPropertyOp30
 70
     1
102
RTVSPropertyOp31
 70
     1
102
RTVSPropertyOp32
 70
     1
  0
XRECORD
  5
243
102
{ACAD_REACTORS
330
242
102
}
330
242
100
AcDbXrecord
280
     1
102
RTVSPropertyOp0
 70
     1
102
RTVSPropertyOp1
 70
     1
102
RTVSPropertyOp2
 70
     1
102
RTVSPropertyOp3
 70
     1
102
RTVSPropertyOp4
 70
     1
102
RTVSPropertyOp5
 70
     1
102
RTVSPropertyOp6
 70
     1
102
RTVSPropertyOp7
 70
     1
102
RTVSPropertyOp8
 70
     1
102
RTVSPropertyOp9
 70
     1
102
RTVSPropertyOp10
 70
     1
102
RTVSPropertyOp11
 70
     1
102
RTVSPropertyOp12
 70
     1
102
RTVSPropertyOp13
 70
     1
102
RTVSPropertyOp14
 70
     1
102
RTVSPropertyOp15
 70
     1
102
RTVSPropertyOp16
 70
     1
102
RTVSPropertyOp17
 70
     1
102
RTVSPropertyOp18
 70
     1
102
RTVSPropertyOp19
 70
     1
102
RTVSPropertyOp20
 70
     1
102
RTVSPropertyOp21
 70
     1
102
RTVSPropertyOp22
 70
     1
102
RTVSPropertyOp23
 70
     1
102
RTVSPropertyOp24
 70
     1
102
RTVSPropertyOp25
 70
     1
102
RTVSPropertyOp26
 70
     1
102
RTVSPropertyOp27
 70
     1
102
RTVSPropertyOp28
 70
     1
102
RTVSPropertyOp29
 70
     1
102
RTVSPropertyOp30
 70
     1
102
RTVSPropertyOp31
 70
     1
102
RTVSPropertyOp32
 70
     1
  0
XRECORD
  5
241
102
{ACAD_REACTORS
330
240
102
}
330
240
100
AcDbXrecord
280
     1
102
RTVSPropertyOp0
 70
     1
102
RTVSPropertyOp1
 70
     1
102
RTVSPropertyOp2
 70
     1
102
RTVSPropertyOp3
 70
     1
102
RTVSPropertyOp4
 70
     1
102
RTVSPropertyOp5
 70
     1
102
RTVSPropertyOp6
 70
     1
102
RTVSPropertyOp7
 70
     1
102
RTVSPropertyOp8
 70
     1
102
RTVSPropertyOp9
 70
     1
102
RTVSPropertyOp10
 70
     1
102
RTVSPropertyOp11
 70
     1
102
RTVSPropertyOp12
 70
     1
102
RTVSPropertyOp13
 70
     1
102
RTVSPropertyOp14
 70
     1
102
RTVSPropertyOp15
 70
     1
102
RTVSPropertyOp16
 70
     1
102
RTVSPropertyOp17
 70
     1
102
RTVSPropertyOp18
 70
     1
102
RTVSPropertyOp19
 70
     1
102
RTVSPropertyOp20
 70
     1
102
RTVSPropertyOp21
 70
     1
102
RTVSPropertyOp22
 70
     1
102
RTVSPropertyOp23
 70
     1
102
RTVSPropertyOp24
 70
     1
102
RTVSPropertyOp25
 70
     1
102
RTVSPropertyOp26
 70
     1
102
RTVSPropertyOp27
 70
     1
102
RTVSPropertyOp28
 70
     1
102
RTVSPropertyOp29
 70
     1
102
RTVSPropertyOp30
 70
     1
102
RTVSPropertyOp31
 70
     1
102
RTVSPropertyOp32
 70
     1
  0
XRECORD
  5
245
102
{ACAD_REACTORS
330
244
102
}
330
244
100
AcDbXrecord
280
     1
102
RTVSPropertyOp0
 70
     1
102
RTVSPropertyOp1
 70
     1
102
RTVSPropertyOp2
 70
     1
102
RTVSPropertyOp3
 70
     1
102
RTVSPropertyOp4
 70
     1
102
RTVSPropertyOp5
 70
     1
102
RTVSPropertyOp6
 70
     1
102
RTVSPropertyOp7
 70
     1
102
RTVSPropertyOp8
 70
     1
102
RTVSPropertyOp9
 70
     1
102
RTVSPropertyOp10
 70
     1
102
RTVSPropertyOp11
 70
     1
102
RTVSPropertyOp12
 70
     1
102
RTVSPropertyOp13
 70
     1
102
RTVSPropertyOp14
 70
     1
102
RTVSPropertyOp15
 70
     1
102
RTVSPropertyOp16
 70
     1
102
RTVSPropertyOp17
 70
     1
102
RTVSPropertyOp18
 70
     1
102
RTVSPropertyOp19
 70
     1
102
RTVSPropertyOp20
 70
     1
102
RTVSPropertyOp21
 70
     1
102
RTVSPropertyOp22
 70
     1
102
RTVSPropertyOp23
 70
     1
102
RTVSPropertyOp24
 70
     1
102
RTVSPropertyOp25
 70
     1
102
RTVSPropertyOp26
 70
     1
102
RTVSPropertyOp27
 70
     1
102
RTVSPropertyOp28
 70
     1
102
RTVSPropertyOp29
 70
     1
102
RTVSPropertyOp30
 70
     1
102
RTVSPropertyOp31
 70
     1
102
RTVSPropertyOp32
 70
     1
  0
XRECORD
  5
24D
102
{ACAD_REACTORS
330
24C
102
}
330
24C
100
AcDbXrecord
280
     1
102
RTVSPropertyOp0
 70
     1
102
RTVSPropertyOp1
 70
     1
102
RTVSPropertyOp2
 70
     1
102
RTVSPropertyOp3
 70
     1
102
RTVSPropertyOp4
 70
     1
102
RTVSPropertyOp5
 70
     1
102
RTVSPropertyOp6
 70
     1
102
RTVSPropertyOp7
 70
     1
102
RTVSPropertyOp8
 70
     1
102
RTVSPropertyOp9
 70
     1
102
RTVSPropertyOp10
 70
     1
102
RTVSPropertyOp11
 70
     1
102
RTVSPropertyOp12
 70
     1
102
RTVSPropertyOp13
 70
     1
102
RTVSPropertyOp14
 70
     1
102
RTVSPropertyOp15
 70
     1
102
RTVSPropertyOp16
 70
     1
102
RTVSPropertyOp17
 70
     1
102
RTVSPropertyOp18
 70
     1
102
RTVSPropertyOp19
 70
     1
102
RTVSPropertyOp20
 70
     1
102
RTVSPropertyOp21
 70
     1
102
RTVSPropertyOp22
 70
     1
102
RTVSPropertyOp23
 70
     1
102
RTVSPropertyOp24
 70
     1
102
RTVSPropertyOp25
 70
     1
102
RTVSPropertyOp26
 70
     1
102
RTVSPropertyOp27
 70
     1
102
RTVSPropertyOp28
 70
     1
102
RTVSPropertyOp29
 70
     1
102
RTVSPropertyOp30
 70
     1
102
RTVSPropertyOp31
 70
     1
102
RTVSPropertyOp32
 70
     1
  0
XRECORD
  5
255
102
{ACAD_REACTORS
330
254
102
}
330
254
100
AcDbXrecord
280
     1
102
RTVSPropertyOp0
 70
     1
102
RTVSPropertyOp1
 70
     1
102
RTVSPropertyOp2
 70
     1
102
RTVSPropertyOp3
 70
     1
102
RTVSPropertyOp4
 70
     1
102
RTVSPropertyOp5
 70
     1
102
RTVSPropertyOp6
 70
     1
102
RTVSPropertyOp7
 70
     1
102
RTVSPropertyOp8
 70
     1
102
RTVSPropertyOp9
 70
     1
102
RTVSPropertyOp10
 70
     1
102
RTVSPropertyOp11
 70
     1
102
RTVSPropertyOp12
 70
     1
102
RTVSPropertyOp13
 70
     1
102
RTVSPropertyOp14
 70
     1
102
RTVSPropertyOp15
 70
     1
102
RTVSPropertyOp16
 70
     1
102
RTVSPropertyOp17
 70
     1
102
RTVSPropertyOp18
 70
     1
102
RTVSPropertyOp19
 70
     1
102
RTVSPropertyOp20
 70
     1
102
RTVSPropertyOp21
 70
     1
102
RTVSPropertyOp22
 70
     1
102
RTVSPropertyOp23
 70
     1
102
RTVSPropertyOp24
 70
     1
102
RTVSPropertyOp25
 70
     1
102
RTVSPropertyOp26
 70
     1
102
RTVSPropertyOp27
 70
     1
102
RTVSPropertyOp28
 70
     1
102
RTVSPropertyOp29
 70
     1
102
RTVSPropertyOp30
 70
     1
102
RTVSPropertyOp31
 70
     1
102
RTVSPropertyOp32
 70
     1
  0
XRECORD
  5
249
102
{ACAD_REACTORS
330
248
102
}
330
248
100
AcDbXrecord
280
     1
102
RTVSPropertyOp0
 70
     1
102
RTVSPropertyOp1
 70
     1
102
RTVSPropertyOp2
 70
     1
102
RTVSPropertyOp3
 70
     1
102
RTVSPropertyOp4
 70
     1
102
RTVSPropertyOp5
 70
     1
102
RTVSPropertyOp6
 70
     1
102
RTVSPropertyOp7
 70
     1
102
RTVSPropertyOp8
 70
     1
102
RTVSPropertyOp9
 70
     1
102
RTVSPropertyOp10
 70
     1
102
RTVSPropertyOp11
 70
     1
102
RTVSPropertyOp12
 70
     1
102
RTVSPropertyOp13
 70
     1
102
RTVSPropertyOp14
 70
     1
102
RTVSPropertyOp15
 70
     1
102
RTVSPropertyOp16
 70
     1
102
RTVSPropertyOp17
 70
     1
102
RTVSPropertyOp18
 70
     1
102
RTVSPropertyOp19
 70
     1
102
RTVSPropertyOp20
 70
     1
102
RTVSPropertyOp21
 70
     1
102
RTVSPropertyOp22
 70
     1
102
RTVSPropertyOp23
 70
     1
102
RTVSPropertyOp24
 70
     1
102
RTVSPropertyOp25
 70
     1
102
RTVSPropertyOp26
 70
     1
102
RTVSPropertyOp27
 70
     1
102
RTVSPropertyOp28
 70
     1
102
RTVSPropertyOp29
 70
     1
102
RTVSPropertyOp30
 70
     1
102
RTVSPropertyOp31
 70
     1
102
RTVSPropertyOp32
 70
     1
  0
XRECORD
  5
24B
102
{ACAD_REACTORS
330
24A
102
}
330
24A
100
AcDbXrecord
280
     1
102
RTVSPropertyOp0
 70
     1
102
RTVSPropertyOp1
 70
     1
102
RTVSPropertyOp2
 70
     1
102
RTVSPropertyOp3
 70
     1
102
RTVSPropertyOp4
 70
     1
102
RTVSPropertyOp5
 70
     1
102
RTVSPropertyOp6
 70
     1
102
RTVSPropertyOp7
 70
     1
102
RTVSPropertyOp8
 70
     1
102
RTVSPropertyOp9
 70
     1
102
RTVSPropertyOp10
 70
     1
102
RTVSPropertyOp11
 70
     1
102
RTVSPropertyOp12
 70
     1
102
RTVSPropertyOp13
 70
     1
102
RTVSPropertyOp14
 70
     1
102
RTVSPropertyOp15
 70
     1
102
RTVSPropertyOp16
 70
     1
102
RTVSPropertyOp17
 70
     1
102
RTVSPropertyOp18
 70
     1
102
RTVSPropertyOp19
 70
     1
102
RTVSPropertyOp20
 70
     1
102
RTVSPropertyOp21
 70
     1
102
RTVSPropertyOp22
 70
     1
102
RTVSPropertyOp23
 70
     1
102
RTVSPropertyOp24
 70
     1
102
RTVSPropertyOp25
 70
     1
102
RTVSPropertyOp26
 70
     1
102
RTVSPropertyOp27
 70
     1
102
RTVSPropertyOp28
 70
     1
102
RTVSPropertyOp29
 70
     1
102
RTVSPropertyOp30
 70
     1
102
RTVSPropertyOp31
 70
     1
102
RTVSPropertyOp32
 70
     1
  0
XRECORD
  5
253
102
{ACAD_REACTORS
330
252
102
}
330
252
100
AcDbXrecord
280
     1
102
RTVSPropertyOp0
 70
     1
102
RTVSPropertyOp1
 70
     1
102
RTVSPropertyOp2
 70
     1
102
RTVSPropertyOp3
 70
     1
102
RTVSPropertyOp4
 70
     1
102
RTVSPropertyOp5
 70
     1
102
RTVSPropertyOp6
 70
     1
102
RTVSPropertyOp7
 70
     1
102
RTVSPropertyOp8
 70
     1
102
RTVSPropertyOp9
 70
     1
102
RTVSPropertyOp10
 70
     1
102
RTVSPropertyOp11
 70
     1
102
RTVSPropertyOp12
 70
     1
102
RTVSPropertyOp13
 70
     1
102
RTVSPropertyOp14
 70
     1
102
RTVSPropertyOp15
 70
     1
102
RTVSPropertyOp16
 70
     1
102
RTVSPropertyOp17
 70
     1
102
RTVSPropertyOp18
 70
     1
102
RTVSPropertyOp19
 70
     1
102
RTVSPropertyOp20
 70
     1
102
RTVSPropertyOp21
 70
     1
102
RTVSPropertyOp22
 70
     1
102
RTVSPropertyOp23
 70
     1
102
RTVSPropertyOp24
 70
     1
102
RTVSPropertyOp25
 70
     1
102
RTVSPropertyOp26
 70
     1
102
RTVSPropertyOp27
 70
     1
102
RTVSPropertyOp28
 70
     1
102
RTVSPropertyOp29
 70
     1
102
RTVSPropertyOp30
 70
     1
102
RTVSPropertyOp31
 70
     1
102
RTVSPropertyOp32
 70
     1
  0
XRECORD
  5
237
102
{ACAD_REACTORS
330
236
102
}
330
236
100
AcDbXrecord
280
     1
102
RTVSPropertyOp0
 70
     1
102
RTVSPropertyOp1
 70
     1
102
RTVSPropertyOp2
 70
     1
102
RTVSPropertyOp3
 70
     1
102
RTVSPropertyOp4
 70
     1
102
RTVSPropertyOp5
 70
     1
102
RTVSPropertyOp6
 70
     1
102
RTVSPropertyOp7
 70
     1
102
RTVSPropertyOp8
 70
     1
102
RTVSPropertyOp9
 70
     1
102
RTVSPropertyOp10
 70
     1
102
RTVSPropertyOp11
 70
     1
102
RTVSPropertyOp12
 70
     1
102
RTVSPropertyOp13
 70
     1
102
RTVSPropertyOp14
 70
     1
102
RTVSPropertyOp15
 70
     1
102
RTVSPropertyOp16
 70
     1
102
RTVSPropertyOp17
 70
     1
102
RTVSPropertyOp18
 70
     1
102
RTVSPropertyOp19
 70
     1
102
RTVSPropertyOp20
 70
     1
102
RTVSPropertyOp21
 70
     1
102
RTVSPropertyOp22
 70
     1
102
RTVSPropertyOp23
 70
     1
102
RTVSPropertyOp24
 70
     1
102
RTVSPropertyOp25
 70
     1
102
RTVSPropertyOp26
 70
     1
102
RTVSPropertyOp27
 70
     1
102
RTVSPropertyOp28
 70
     1
102
RTVSPropertyOp29
 70
     1
102
RTVSPropertyOp30
 70
     1
102
RTVSPropertyOp31
 70
     1
102
RTVSPropertyOp32
 70
     1
  0
XRECORD
  5
239
102
{ACAD_REACTORS
330
238
102
}
330
238
100
AcDbXrecord
280
     1
102
RTVSPropertyOp0
 70
     1
102
RTVSPropertyOp1
 70
     1
102
RTVSPropertyOp2
 70
     1
102
RTVSPropertyOp3
 70
     1
102
RTVSPropertyOp4
 70
     1
102
RTVSPropertyOp5
 70
     1
102
RTVSPropertyOp6
 70
     1
102
RTVSPropertyOp7
 70
     1
102
RTVSPropertyOp8
 70
     1
102
RTVSPropertyOp9
 70
     1
102
RTVSPropertyOp10
 70
     1
102
RTVSPropertyOp11
 70
     1
102
RTVSPropertyOp12
 70
     1
102
RTVSPropertyOp13
 70
     1
102
RTVSPropertyOp14
 70
     1
102
RTVSPropertyOp15
 70
     1
102
RTVSPropertyOp16
 70
     1
102
RTVSPropertyOp17
 70
     1
102
RTVSPropertyOp18
 70
     1
102
RTVSPropertyOp19
 70
     1
102
RTVSPropertyOp20
 70
     1
102
RTVSPropertyOp21
 70
     1
102
RTVSPropertyOp22
 70
     1
102
RTVSPropertyOp23
 70
     1
102
RTVSPropertyOp24
 70
     1
102
RTVSPropertyOp25
 70
     1
102
RTVSPropertyOp26
 70
     1
102
RTVSPropertyOp27
 70
     1
102
RTVSPropertyOp28
 70
     1
102
RTVSPropertyOp29
 70
     1
102
RTVSPropertyOp30
 70
     1
102
RTVSPropertyOp31
 70
     1
102
RTVSPropertyOp32
 70
     1
  0
XRECORD
  5
23B
102
{ACAD_REACTORS
330
23A
102
}
330
23A
100
AcDbXrecord
280
     1
102
RTVSPropertyOp0
 70
     1
102
RTVSPropertyOp1
 70
     1
102
RTVSPropertyOp2
 70
     1
102
RTVSPropertyOp3
 70
     1
102
RTVSPropertyOp4
 70
     1
102
RTVSPropertyOp5
 70
     1
102
RTVSPropertyOp6
 70
     1
102
RTVSPropertyOp7
 70
     1
102
RTVSPropertyOp8
 70
     1
102
RTVSPropertyOp9
 70
     1
102
RTVSPropertyOp10
 70
     1
102
RTVSPropertyOp11
 70
     1
102
RTVSPropertyOp12
 70
     1
102
RTVSPropertyOp13
 70
     1
102
RTVSPropertyOp14
 70
     1
102
RTVSPropertyOp15
 70
     1
102
RTVSPropertyOp16
 70
     1
102
RTVSPropertyOp17
 70
     1
102
RTVSPropertyOp18
 70
     1
102
RTVSPropertyOp19
 70
     1
102
RTVSPropertyOp20
 70
     1
102
RTVSPropertyOp21
 70
     1
102
RTVSPropertyOp22
 70
     1
102
RTVSPropertyOp23
 70
     1
102
RTVSPropertyOp24
 70
     1
102
RTVSPropertyOp25
 70
     1
102
RTVSPropertyOp26
 70
     1
102
RTVSPropertyOp27
 70
     1
102
RTVSPropertyOp28
 70
     1
102
RTVSPropertyOp29
 70
     1
102
RTVSPropertyOp30
 70
     1
102
RTVSPropertyOp31
 70
     1
102
RTVSPropertyOp32
 70
     1
  0
XRECORD
  5
23D
102
{ACAD_REACTORS
330
23C
102
}
330
23C
100
AcDbXrecord
280
     1
102
RTVSPropertyOp0
 70
     1
102
RTVSPropertyOp1
 70
     1
102
RTVSPropertyOp2
 70
     1
102
RTVSPropertyOp3
 70
     1
102
RTVSPropertyOp4
 70
     1
102
RTVSPropertyOp5
 70
     1
102
RTVSPropertyOp6
 70
     1
102
RTVSPropertyOp7
 70
     1
102
RTVSPropertyOp8
 70
     1
102
RTVSPropertyOp9
 70
     1
102
RTVSPropertyOp10
 70
     1
102
RTVSPropertyOp11
 70
     1
102
RTVSPropertyOp12
 70
     1
102
RTVSPropertyOp13
 70
     1
102
RTVSPropertyOp14
 70
     1
102
RTVSPropertyOp15
 70
     1
102
RTVSPropertyOp16
 70
     1
102
RTVSPropertyOp17
 70
     1
102
RTVSPropertyOp18
 70
     1
102
RTVSPropertyOp19
 70
     1
102
RTVSPropertyOp20
 70
     1
102
RTVSPropertyOp21
 70
     1
102
RTVSPropertyOp22
 70
     1
102
RTVSPropertyOp23
 70
     1
102
RTVSPropertyOp24
 70
     1
102
RTVSPropertyOp25
 70
     1
102
RTVSPropertyOp26
 70
     1
102
RTVSPropertyOp27
 70
     1
102
RTVSPropertyOp28
 70
     1
102
RTVSPropertyOp29
 70
     1
102
RTVSPropertyOp30
 70
     1
102
RTVSPropertyOp31
 70
     1
102
RTVSPropertyOp32
 70
     1
  0
XRECORD
  5
251
102
{ACAD_REACTORS
330
250
102
}
330
250
100
AcDbXrecord
280
     1
102
RTVSPropertyOp0
 70
     1
102
RTVSPropertyOp1
 70
     1
102
RTVSPropertyOp2
 70
     1
102
RTVSPropertyOp3
 70
     1
102
RTVSPropertyOp4
 70
     1
102
RTVSPropertyOp5
 70
     1
102
RTVSPropertyOp6
 70
     1
102
RTVSPropertyOp7
 70
     1
102
RTVSPropertyOp8
 70
     1
102
RTVSPropertyOp9
 70
     1
102
RTVSPropertyOp10
 70
     1
102
RTVSPropertyOp11
 70
     1
102
RTVSPropertyOp12
 70
     1
102
RTVSPropertyOp13
 70
     1
102
RTVSPropertyOp14
 70
     1
102
RTVSPropertyOp15
 70
     1
102
RTVSPropertyOp16
 70
     1
102
RTVSPropertyOp17
 70
     1
102
RTVSPropertyOp18
 70
     1
102
RTVSPropertyOp19
 70
     1
102
RTVSPropertyOp20
 70
     1
102
RTVSPropertyOp21
 70
     1
102
RTVSPropertyOp22
 70
     1
102
RTVSPropertyOp23
 70
     1
102
RTVSPropertyOp24
 70
     1
102
RTVSPropertyOp25
 70
     1
102
RTVSPropertyOp26
 70
     1
102
RTVSPropertyOp27
 70
     1
102
RTVSPropertyOp28
 70
     1
102
RTVSPropertyOp29
 70
     1
102
RTVSPropertyOp30
 70
     1
102
RTVSPropertyOp31
 70
     1
102
RTVSPropertyOp32
 70
     1
  0
XRECORD
  5
247
102
{ACAD_REACTORS
330
246
102
}
330
246
100
AcDbXrecord
280
     1
102
RTVSPropertyOp0
 70
     1
102
RTVSPropertyOp1
 70
     1
102
RTVSPropertyOp2
 70
     1
102
RTVSPropertyOp3
 70
     1
102
RTVSPropertyOp4
 70
     1
102
RTVSPropertyOp5
 70
     1
102
RTVSPropertyOp6
 70
     1
102
RTVSPropertyOp7
 70
     1
102
RTVSPropertyOp8
 70
     1
102
RTVSPropertyOp9
 70
     1
102
RTVSPropertyOp10
 70
     1
102
RTVSPropertyOp11
 70
     1
102
RTVSPropertyOp12
 70
     1
102
RTVSPropertyOp13
 70
     1
102
RTVSPropertyOp14
 70
     1
102
RTVSPropertyOp15
 70
     1
102
RTVSPropertyOp16
 70
     1
102
RTVSPropertyOp17
 70
     1
102
RTVSPropertyOp18
 70
     1
102
RTVSPropertyOp19
 70
     1
102
RTVSPropertyOp20
 70
     1
102
RTVSPropertyOp21
 70
     1
102
RTVSPropertyOp22
 70
     1
102
RTVSPropertyOp23
 70
     1
102
RTVSPropertyOp24
 70
     1
102
RTVSPropertyOp25
 70
     1
102
RTVSPropertyOp26
 70
     1
102
RTVSPropertyOp27
 70
     1
102
RTVSPropertyOp28
 70
     1
102
RTVSPropertyOp29
 70
     1
102
RTVSPropertyOp30
 70
     1
102
RTVSPropertyOp31
 70
     1
102
RTVSPropertyOp32
 70
     1
  0
XRECORD
  5
24F
102
{ACAD_REACTORS
330
24E
102
}
330
24E
100
AcDbXrecord
280
     1
102
RTVSPropertyOp0
 70
     1
102
RTVSPropertyOp1
 70
     1
102
RTVSPropertyOp2
 70
     1
102
RTVSPropertyOp3
 70
     1
102
RTVSPropertyOp4
 70
     1
102
RTVSPropertyOp5
 70
     1
102
RTVSPropertyOp6
 70
     1
102
RTVSPropertyOp7
 70
     1
102
RTVSPropertyOp8
 70
     1
102
RTVSPropertyOp9
 70
     1
102
RTVSPropertyOp10
 70
     1
102
RTVSPropertyOp11
 70
     1
102
RTVSPropertyOp12
 70
     1
102
RTVSPropertyOp13
 70
     1
102
RTVSPropertyOp14
 70
     1
102
RTVSPropertyOp15
 70
     1
102
RTVSPropertyOp16
 70
     1
102
RTVSPropertyOp17
 70
     1
102
RTVSPropertyOp18
 70
     1
102
RTVSPropertyOp19
 70
     1
102
RTVSPropertyOp20
 70
     1
102
RTVSPropertyOp21
 70
     1
102
RTVSPropertyOp22
 70
     1
102
RTVSPropertyOp23
 70
     1
102
RTVSPropertyOp24
 70
     1
102
RTVSPropertyOp25
 70
     1
102
RTVSPropertyOp26
 70
     1
102
RTVSPropertyOp27
 70
     1
102
RTVSPropertyOp28
 70
     1
102
RTVSPropertyOp29
 70
     1
102
RTVSPropertyOp30
 70
     1
102
RTVSPropertyOp31
 70
     1
102
RTVSPropertyOp32
 70
     1
  0
ENDSEC
  0
EOF
