  0
SECTION
  2
HEADER
  9
$ACADVER
  1
AC1021
  9
$ACADMAINTVER
 70
    25
  9
$DWGCODEPAGE
  3
UNDEFINED
  9
$INSBASE
 10
0.0
 20
0.0
 30
0.0
  9
$EXTMIN
 10
1.000000000000000E+20
 20
1.000000000000000E+20
 30
1.000000000000000E+20
  9
$EXTMAX
 10
-1.000000000000000E+20
 20
-1.000000000000000E+20
 30
-1.000000000000000E+20
  9
$LIMMIN
 10
0.0
 20
0.0
  9
$LIMMAX
 10
12.0
 20
9.0
  9
$ORTHOMODE
 70
     0
  9
$REGENMODE
 70
     1
  9
$FILLMODE
 70
     1
  9
$QTEXTMODE
 70
     0
  9
$MIRRTEXT
 70
     1
  9
$LTSCALE
 40
1.0
  9
$ATTMODE
 70
     1
  9
$TEXTSIZE
 40
0.2
  9
$TRACEWID
 40
0.05
  9
$TEXTSTYLE
  7
Standard
  9
$CLAYER
  8
0
  9
$CELTYPE
  6
ByLayer
  9
$CECOLOR
 62
   256
  9
$CELTSCALE
 40
1.0
  9
$DISPSILH
 70
     0
  9
$DIMSCALE
 40
1.0
  9
$DIMASZ
 40
0.18
  9
$DIMEXO
 40
0.0625
  9
$DIMDLI
 40
0.38
  9
$DIMRND
 40
0.0
  9
$DIMDLE
 40
0.0
  9
$DIMEXE
 40
0.18
  9
$DIMTP
 40
0.0
  9
$DIMTM
 40
0.0
  9
$DIMTXT
 40
0.18
  9
$DIMCEN
 40
0.09
  9
$DIMTSZ
 40
0.0
  9
$DIMTOL
 70
     0
  9
$DIMLIM
 70
     0
  9
$DIMTIH
 70
     1
  9
$DIMTOH
 70
     1
  9
$DIMSE1
 70
     0
  9
$DIMSE2
 70
     0
  9
$DIMTAD
 70
     0
  9
$DIMZIN
 70
     0
  9
$DIMBLK
  1

  9
$DIMASO
 70
     1
  9
$DIMSHO
 70
     1
  9
$DIMPOST
  1

  9
$DIMAPOST
  1

  9
$DIMALT
 70
     0
  9
$DIMALTD
 70
     2
  9
$DIMALTF
 40
25.4
  9
$DIMLFAC
 40
1.0
  9
$DIMTOFL
 70
     0
  9
$DIMTVP
 40
0.0
  9
$DIMTIX
 70
     0
  9
$DIMSOXD
 70
     0
  9
$DIMSAH
 70
     0
  9
$DIMBLK1
  1

  9
$DIMBLK2
  1

  9
$DIMSTYLE
  2
Standard
  9
$DIMCLRD
 70
     0
  9
$DIMCLRE
 70
     0
  9
$DIMCLRT
 70
     0
  9
$DIMTFAC
 40
1.0
  9
$DIMGAP
 40
0.09
  9
$DIMJUST
 70
     0
  9
$DIMSD1
 70
     0
  9
$DIMSD2
 70
     0
  9
$DIMTOLJ
 70
     1
  9
$DIMTZIN
 70
     0
  9
$DIMALTZ
 70
     0
  9
$DIMALTTZ
 70
     0
  9
$DIMUPT
 70
     0
  9
$DIMDEC
 70
     4
  9
$DIMTDEC
 70
     4
  9
$DIMALTU
 70
     2
  9
$DIMALTTD
 70
     2
  9
$DIMTXSTY
  7
Standard
  9
$DIMAUNIT
 70
     0
  9
$DIMADEC
 70
     0
  9
$DIMALTRND
 40
0.0
  9
$DIMAZIN
 70
     0
  9
$DIMDSEP
 70
    46
  9
$DIMATFIT
 70
     3
  9
$DIMFRAC
 70
     0
  9
$DIMLDRBLK
  1

  9
$DIMLUNIT
 70
     2
  9
$DIMLWD
 70
    -2
  9
$DIMLWE
 70
    -2
  9
$DIMTMOVE
 70
     0
  9
$DIMFXL
 40
1.0
  9
$DIMFXLON
 70
     0
  9
$DIMJOGANG
 40
0.7853981633974483
  9
$DIMTFILL
 70
     0
  9
$DIMTFILLCLR
 70
     0
  9
$DIMARCSYM
 70
     0
  9
$DIMLTYPE
  6

  9
$DIMLTEX1
  6

  9
$DIMLTEX2
  6

  9
$LUNITS
 70
     2
  9
$LUPREC
 70
     4
  9
$SKETCHINC
 40
0.1
  9
$FILLETRAD
 40
0.5
  9
$AUNITS
 70
     0
  9
$AUPREC
 70
     0
  9
$MENU
  1
.
  9
$ELEVATION
 40
0.0
  9
$PELEVATION
 40
0.0
  9
$THICKNESS
 40
0.0
  9
$LIMCHECK
 70
     0
  9
$CHAMFERA
 40
0.5
  9
$CHAMFERB
 40
0.5
  9
$CHAMFERC
 40
1.0
  9
$CHAMFERD
 40
0.0
  9
$SKPOLY
 70
     0
  9
$TDCREATE
 40
2460340.597858796
  9
$TDUCREATE
 40
2460340.55619213
  9
$TDUPDATE
 40
2460340.597858796
  9
$TDUUPDATE
 40
2460340.55619213
  9
$TDINDWG
 40
0.0000000116
  9
$TDUSRTIMER
 40
0.0000000116
  9
$USRTIMER
 70
     1
  9
$ANGBASE
 50
0.0
  9
$ANGDIR
 70
     0
  9
$PDMODE
 70
     0
  9
$PDSIZE
 40
0.0
  9
$PLINEWID
 40
0.0
  9
$SPLFRAME
 70
     0
  9
$SPLINETYPE
 70
     6
  9
$SPLINESEGS
 70
     8
  9
$HANDSEED
  5
296
  9
$SURFTAB1
 70
     6
  9
$SURFTAB2
 70
     6
  9
$SURFTYPE
 70
     6
  9
$SURFU
 70
     6
  9
$SURFV
 70
     6
  9
$UCSBASE
  2

  9
$UCSNAME
  2

  9
$UCSORG
 10
0.0
 20
0.0
 30
0.0
  9
$UCSXDIR
 10
1.0
 20
0.0
 30
0.0
  9
$UCSYDIR
 10
0.0
 20
1.0
 30
0.0
  9
$UCSORTHOREF
  2

  9
$UCSORTHOVIEW
 70
     0
  9
$UCSORGTOP
 10
0.0
 20
0.0
 30
0.0
  9
$UCSORGBOTTOM
 10
0.0
 20
0.0
 30
0.0
  9
$UCSORGLEFT
 10
0.0
 20
0.0
 30
0.0
  9
$UCSORGRIGHT
 10
0.0
 20
0.0
 30
0.0
  9
$UCSORGFRONT
 10
0.0
 20
0.0
 30
0.0
  9
$UCSORGBACK
 10
0.0
 20
0.0
 30
0.0
  9
$PUCSBASE
  2

  9
$PUCSNAME
  2

  9
$PUCSORG
 10
0.0
 20
0.0
 30
0.0
  9
$PUCSXDIR
 10
1.0
 20
0.0
 30
0.0
  9
$PUCSYDIR
 10
0.0
 20
1.0
 30
0.0
  9
$PUCSORTHOREF
  2

  9
$PUCSORTHOVIEW
 70
     0
  9
$PUCSORGTOP
 10
0.0
 20
0.0
 30
0.0
  9
$PUCSORGBOTTOM
 10
0.0
 20
0.0
 30
0.0
  9
$PUCSORGLEFT
 10
0.0
 20
0.0
 30
0.0
  9
$PUCSORGRIGHT
 10
0.0
 20
0.0
 30
0.0
  9
$PUCSORGFRONT
 10
0.0
 20
0.0
 30
0.0
  9
$PUCSORGBACK
 10
0.0
 20
0.0
 30
0.0
  9
$USERI1
 70
     0
  9
$USERI2
 70
     0
  9
$USERI3
 70
     0
  9
$USERI4
 70
     0
  9
$USERI5
 70
     0
  9
$USERR1
 40
0.0
  9
$USERR2
 40
0.0
  9
$USERR3
 40
0.0
  9
$USERR4
 40
0.0
  9
$USERR5
 40
0.0
  9
$WORLDVIEW
 70
     1
  9
$SHADEDGE
 70
     3
  9
$SHADEDIF
 70
    70
  9
$TILEMODE
 70
     1
  9
$MAXACTVP
 70
    64
  9
$PINSBASE
 10
0.0
 20
0.0
 30
0.0
  9
$PLIMCHECK
 70
     0
  9
$PEXTMIN
 10
1.000000000000000E+20
 20
1.000000000000000E+20
 30
1.000000000000000E+20
  9
$PEXTMAX
 10
-1.000000000000000E+20
 20
-1.000000000000000E+20
 30
-1.000000000000000E+20
  9
$PLIMMIN
 10
0.0
 20
0.0
  9
$PLIMMAX
 10
12.0
 20
9.0
  9
$UNITMODE
 70
     0
  9
$VISRETAIN
 70
     1
  9
$PLINEGEN
 70
     0
  9
$PSLTSCALE
 70
     1
  9
$TREEDEPTH
 70
  3020
  9
$CMLSTYLE
  2
Standard
  9
$CMLJUST
 70
     0
  9
$CMLSCALE
 40
1.0
  9
$PROXYGRAPHICS
 70
     1
  9
$MEASUREMENT
 70
     0
  9
$CELWEIGHT
370
    -1
  9
$ENDCAPS
280
     0
  9
$JOINSTYLE
280
     0
  9
$LWDISPLAY
290
     1
  9
$INSUNITS
 70
     1
  9
$HYPERLINKBASE
  1

  9
$STYLESHEET
  1

  9
$XEDIT
290
     1
  9
$CEPSNTYPE
380
     0
  9
$PSTYLEMODE
290
     1
  9
$FINGERPRINTGUID
  2
{6F6FE0FD-3330-E156-379B-30B661934EC8}
  9
$VERSIONGUID
  2
{FAEB1C32-E019-11D5-929B-00C0DF256EC4}
  9
$EXTNAMES
290
     1
  9
$PSVPSCALE
 40
0.0
  9
$OLESTARTUP
290
     0
  9
$SORTENTS
280
   127
  9
$INDEXCTL
280
     0
  9
$HIDETEXT
280
     1
  9
$XCLIPFRAME
290
     0
  9
$HALOGAP
280
     0
  9
$OBSCOLOR
 70
   257
  9
$OBSLTYPE
280
     0
  9
$INTERSECTIONDISPLAY
280
     0
  9
$INTERSECTIONCOLOR
 70
   257
  9
$DIMASSOC
280
     2
  9
$PROJECTNAME
  1

  9
$CAMERADISPLAY
290
     0
  9
$LENSLENGTH
 40
50.0
  9
$CAMERAHEIGHT
 40
0.0
  9
$STEPSPERSEC
 40
2.0
  9
$STEPSIZE
 40
6.0
  9
$3DDWFPREC
 40
2.0
  9
$PSOLWIDTH
 40
0.25
  9
$PSOLHEIGHT
 40
4.0
  9
$LOFTANG1
 40
1.570796326794897
  9
$LOFTANG2
 40
1.570796326794897
  9
$LOFTMAG1
 40
0.0
  9
$LOFTMAG2
 40
0.0
  9
$LOFTPARAM
 70
     7
  9
$LOFTNORMALS
280
     1
  9
$LATITUDE
 40
37.795
  9
$LONGITUDE
 40
-122.394
  9
$NORTHDIRECTION
 40
0.0
  9
$TIMEZONE
 70
 -8000
  9
$LIGHTGLYPHDISPLAY
280
     1
  9
$TILEMODELIGHTSYNCH
280
     1
  9
$CMATERIAL
347
3C
  9
$SOLIDHIST
280
     1
  9
$SHOWHIST
280
     1
  9
$DWFFRAME
280
     2
  9
$DGNFRAME
280
     2
  9
$REALWORLDSCALE
290
     1
  9
$INTERFERECOLOR
 62
   256
  9
$CSHADOW
280
     0
  9
$SHADOWPLANELOCATION
 40
0.0
  0
ENDSEC
  0
SECTION
  2
CLASSES
  0
CLASS
  1
ACDBDICTIONARYWDFLT
  2
AcDbDictionaryWithDefault
  3
ObjectDBX Classes
 90
        0
 91
        4
280
     0
281
     0
  0
CLASS
  1
VISUALSTYLE
  2
AcDbVisualStyle
  3
ObjectDBX Classes
 90
     4095
 91
        4
280
     0
281
     0
  0
CLASS
  1
MATERIAL
  2
AcDbMaterial
  3
ObjectDBX Classes
 90
     1153
 91
        4
280
     0
281
     0
  0
CLASS
  1
SUN
  2
AcDbSun
  3
SCENEOE
 90
     1024
 91
        4
280
     0
281
     0
  0
ENDSEC
  0
SECTION
  2
TABLES
  0
TABLE
  2
VPORT
  5
8
330
0
100
AcDbSymbolTable
 70
     1
  0
VPORT
  5
29
330
8
100
AcDbSymbolTableRecord
100
AcDbViewportTableRecord
  2
*Active
 70
     0
 10
0.0
 20
0.0
 11
1.0
 21
1.0
 12
0.0
 22
0.0
 13
0.0
 23
0.0
 14
0.5
 24
0.5
 15
0.5
 25
0.5
 16
0.0
 26
0.0
 36
1.0
 17
105.0007777515277
 27
148.5000416295417
 37
0.0
 40
297.0000832590835
 41
0.7070757462376325
 42
50.0
 43
0.0
 44
0.0
 50
0.0
 51
0.0
 71
     0
 72
   100
 73
     1
 74
     3
 75
     0
 76
     0
 77
     0
 78
     0
281
     0
 65
     1
110
0.0
120
0.0
130
0.0
111
1.0
121
0.0
131
0.0
112
0.0
122
1.0
132
0.0
 79
     0
146
0.0
 60
     3
 61
     5
292
     1
282
     1
141
0.0
142
0.0
 63
   250
361
3F
  0
ENDTAB
  0
TABLE
  2
LTYPE
  5
5
330
0
100
AcDbSymbolTable
 70
    11
  0
LTYPE
  5
14
330
5
100
AcDbSymbolTableRecord
100
AcDbLinetypeTableRecord
  2
ByBlock
 70
     0
  3

 72
    65
 73
     0
 40
0.0
  0
LTYPE
  5
15
330
5
100
AcDbSymbolTableRecord
100
AcDbLinetypeTableRecord
  2
ByLayer
 70
     0
  3

 72
    65
 73
     0
 40
0.0
  0
LTYPE
  5
16
330
5
100
AcDbSymbolTableRecord
100
AcDbLinetypeTableRecord
  2
Continuous
 70
     0
  3
Solid line
 72
    65
 73
     0
 40
0.0
  0
LTYPE
  5
1EE
330
5
100
AcDbSymbolTableRecord
100
AcDbLinetypeTableRecord
  2
AI-Linetype-1
 70
     0
  3
Adobe Illustrator Linetype No. 1
 72
    65
 73
     2
 40
8.794727900743553
 49
4.397363950371776
 74
     0
 49
-4.397363950371776
 74
     0
  0
LTYPE
  5
1F7
330
5
100
AcDbSymbolTableRecord
100
AcDbLinetypeTableRecord
  2
AI-Linetype-2
 70
     0
  3
Adobe Illustrator Linetype No. 2
 72
    65
 73
     4
 40
39.57647135857767
 49
26.38437950746234
 74
     0
 49
-4.397363950371776
 74
     0
 49
4.397363950371776
 74
     0
 49
-4.397363950371776
 74
     0
  0
LTYPE
  5
210
330
5
100
AcDbSymbolTableRecord
100
AcDbLinetypeTableRecord
  2
AI-Linetype-3
 70
     0
  3
Adobe Illustrator Linetype No. 3
 72
    65
 73
     2
 40
8.776353833865482
 49
4.388176916932741
 74
     0
 49
-4.388176916932741
 74
     0
  0
LTYPE
  5
219
330
5
100
AcDbSymbolTableRecord
100
AcDbLinetypeTableRecord
  2
AI-Linetype-4
 70
     0
  3
Adobe Illustrator Linetype No. 4
 72
    65
 73
     4
 40
39.49378873049657
 49
26.32925797969834
 74
     0
 49
-4.388176916932741
 74
     0
 49
4.388176916932741
 74
     0
 49
-4.388176916932741
 74
     0
  0
LTYPE
  5
232
330
5
100
AcDbSymbolTableRecord
100
AcDbLinetypeTableRecord
  2
AI-Linetype-5
 70
     0
  3
Adobe Illustrator Linetype No. 5
 72
    65
 73
     2
 40
9.583279978157702
 49
4.791639989078851
 74
     0
 49
-4.791639989078851
 74
     0
  0
LTYPE
  5
23B
330
5
100
AcDbSymbolTableRecord
100
AcDbLinetypeTableRecord
  2
AI-Linetype-6
 70
     0
  3
Adobe Illustrator Linetype No. 6
 72
    65
 73
     4
 40
43.12497118295622
 49
28.75005121571966
 74
     0
 49
-4.791639989078851
 74
     0
 49
4.791639989078851
 74
     0
 49
-4.791639989078851
 74
     0
  0
LTYPE
  5
254
330
5
100
AcDbSymbolTableRecord
100
AcDbLinetypeTableRecord
  2
AI-Linetype-7
 70
     0
  3
Adobe Illustrator Linetype No. 7
 72
    65
 73
     2
 40
9.583279978157702
 49
4.791639989078851
 74
     0
 49
-4.791639989078851
 74
     0
  0
LTYPE
  5
25D
330
5
100
AcDbSymbolTableRecord
100
AcDbLinetypeTableRecord
  2
AI-Linetype-8
 70
     0
  3
Adobe Illustrator Linetype No. 8
 72
    65
 73
     4
 40
43.12497118295622
 49
28.75005121571966
 74
     0
 49
-4.791639989078851
 74
     0
 49
4.791639989078851
 74
     0
 49
-4.791639989078851
 74
     0
  0
LTYPE
  5
26C
330
5
100
AcDbSymbolTableRecord
100
AcDbLinetypeTableRecord
  2
AI-Linetype-9
 70
     0
  3
Adobe Illustrator Linetype No. 9
 72
    65
 73
     2
 40
7.270862246391072
 49
3.635375106750391
 74
     0
 49
-3.635487139640682
 74
     0
  0
LTYPE
  5
272
330
5
100
AcDbSymbolTableRecord
100
AcDbLinetypeTableRecord
  2
AI-Linetype-10
 70
     0
  3
Adobe Illustrator Linetype No. 10
 72
    65
 73
     2
 40
7.270862246391072
 49
3.635375106750391
 74
     0
 49
-3.635487139640682
 74
     0
  0
ENDTAB
  0
TABLE
  2
LAYER
  5
2
330
0
100
AcDbSymbolTable
 70
     1
  0
LAYER
  5
10
330
2
100
AcDbSymbolTableRecord
100
AcDbLayerTableRecord
  2
0
 70
     0
 62
     7
  6
Continuous
370
    -3
390
F
347
3E
  0
ENDTAB
  0
TABLE
  2
STYLE
  5
3
330
0
100
AcDbSymbolTable
 70
     1
  0
STYLE
  5
11
330
3
100
AcDbSymbolTableRecord
100
AcDbTextStyleTableRecord
  2
Standard
 70
     0
 40
0.0
 41
1.0
 50
0.0
 71
     0
 42
0.2
  3
txt
  4

  0
ENDTAB
  0
TABLE
  2
VIEW
  5
6
330
0
100
AcDbSymbolTable
 70
     0
  0
ENDTAB
  0
TABLE
  2
UCS
  5
7
330
0
100
AcDbSymbolTable
 70
     0
  0
ENDTAB
  0
TABLE
  2
APPID
  5
9
330
0
100
AcDbSymbolTable
 70
     1
  0
APPID
  5
12
330
9
100
AcDbSymbolTableRecord
100
AcDbRegAppTableRecord
  2
ACAD
 70
     0
  0
ENDTAB
  0
TABLE
  2
DIMSTYLE
  5
A
330
0
100
AcDbSymbolTable
 70
     1
100
AcDbDimStyleTable
  0
DIMSTYLE
105
27
330
A
100
AcDbSymbolTableRecord
100
AcDbDimStyleTableRecord
  2
Standard
 70
     0
178
     0
340
11
  0
ENDTAB
  0
TABLE
  2
BLOCK_RECORD
  5
1
330
0
100
AcDbSymbolTable
 70
    95
  0
BLOCK_RECORD
  5
1F
330
1
100
AcDbSymbolTableRecord
100
AcDbBlockTableRecord
  2
*Model_Space
340
22
 70
     0
280
     1
281
     0
  0
BLOCK_RECORD
  5
1B
330
1
100
AcDbSymbolTableRecord
100
AcDbBlockTableRecord
  2
*Paper_Space
340
1E
 70
     0
280
     1
281
     0
  0
BLOCK_RECORD
  5
23
330
1
100
AcDbSymbolTableRecord
100
AcDbBlockTableRecord
  2
*Paper_Space0
340
26
 70
     0
280
     1
281
     0
  0
BLOCK_RECORD
  5
40
330
1
100
AcDbSymbolTableRecord
100
AcDbBlockTableRecord
  2
block 2
340
0
102
{BLKREFS
331
41
102
}
 70
     0
280
     1
281
     0
  0
BLOCK_RECORD
  5
45
330
1
100
AcDbSymbolTableRecord
100
AcDbBlockTableRecord
  2
block 3
340
0
102
{BLKREFS
331
46
102
}
 70
     0
280
     1
281
     0
  0
BLOCK_RECORD
  5
4D
330
1
100
AcDbSymbolTableRecord
100
AcDbBlockTableRecord
  2
block 4
340
0
102
{BLKREFS
331
4E
102
}
 70
     0
280
     1
281
     0
  0
BLOCK_RECORD
  5
52
330
1
100
AcDbSymbolTableRecord
100
AcDbBlockTableRecord
  2
block 5
340
0
102
{BLKREFS
331
53
102
}
 70
     0
280
     1
281
     0
  0
BLOCK_RECORD
  5
57
330
1
100
AcDbSymbolTableRecord
100
AcDbBlockTableRecord
  2
block 6
340
0
102
{BLKREFS
331
58
102
}
 70
     0
280
     1
281
     0
  0
BLOCK_RECORD
  5
5C
330
1
100
AcDbSymbolTableRecord
100
AcDbBlockTableRecord
  2
block 7
340
0
102
{BLKREFS
331
5D
102
}
 70
     0
280
     1
281
     0
  0
BLOCK_RECORD
  5
61
330
1
100
AcDbSymbolTableRecord
100
AcDbBlockTableRecord
  2
block 8
340
0
102
{BLKREFS
331
62
102
}
 70
     0
280
     1
281
     0
  0
BLOCK_RECORD
  5
66
330
1
100
AcDbSymbolTableRecord
100
AcDbBlockTableRecord
  2
block 9
340
0
102
{BLKREFS
331
67
102
}
 70
     0
280
     1
281
     0
  0
BLOCK_RECORD
  5
6B
330
1
100
AcDbSymbolTableRecord
100
AcDbBlockTableRecord
  2
block 10
340
0
102
{BLKREFS
331
6C
102
}
 70
     0
280
     1
281
     0
  0
BLOCK_RECORD
  5
70
330
1
100
AcDbSymbolTableRecord
100
AcDbBlockTableRecord
  2
block 11
340
0
102
{BLKREFS
331
71
102
}
 70
     0
280
     1
281
     0
  0
BLOCK_RECORD
  5
75
330
1
100
AcDbSymbolTableRecord
100
AcDbBlockTableRecord
  2
block 12
340
0
102
{BLKREFS
331
76
102
}
 70
     0
280
     1
281
     0
  0
BLOCK_RECORD
  5
7D
330
1
100
AcDbSymbolTableRecord
100
AcDbBlockTableRecord
  2
block 13
340
0
102
{BLKREFS
331
7E
102
}
 70
     0
280
     1
281
     0
  0
BLOCK_RECORD
  5
82
330
1
100
AcDbSymbolTableRecord
100
AcDbBlockTableRecord
  2
block 14
340
0
102
{BLKREFS
331
83
102
}
 70
     0
280
     1
281
     0
  0
BLOCK_RECORD
  5
87
330
1
100
AcDbSymbolTableRecord
100
AcDbBlockTableRecord
  2
block 15
340
0
102
{BLKREFS
331
88
102
}
 70
     0
280
     1
281
     0
  0
BLOCK_RECORD
  5
8C
330
1
100
AcDbSymbolTableRecord
100
AcDbBlockTableRecord
  2
block 16
340
0
102
{BLKREFS
331
8D
102
}
 70
     0
280
     1
281
     0
  0
BLOCK_RECORD
  5
91
330
1
100
AcDbSymbolTableRecord
100
AcDbBlockTableRecord
  2
block 17
340
0
102
{BLKREFS
331
92
102
}
 70
     0
280
     1
281
     0
  0
BLOCK_RECORD
  5
96
330
1
100
AcDbSymbolTableRecord
100
AcDbBlockTableRecord
  2
block 18
340
0
102
{BLKREFS
331
97
102
}
 70
     0
280
     1
281
     0
  0
BLOCK_RECORD
  5
9B
330
1
100
AcDbSymbolTableRecord
100
AcDbBlockTableRecord
  2
block 19
340
0
102
{BLKREFS
331
9C
102
}
 70
     0
280
     1
281
     0
  0
BLOCK_RECORD
  5
A3
330
1
100
AcDbSymbolTableRecord
100
AcDbBlockTableRecord
  2
block 20
340
0
102
{BLKREFS
331
A4
102
}
 70
     0
280
     1
281
     0
  0
BLOCK_RECORD
  5
A8
330
1
100
AcDbSymbolTableRecord
100
AcDbBlockTableRecord
  2
block 21
340
0
102
{BLKREFS
331
A9
102
}
 70
     0
280
     1
281
     0
  0
BLOCK_RECORD
  5
AD
330
1
100
AcDbSymbolTableRecord
100
AcDbBlockTableRecord
  2
block 22
340
0
102
{BLKREFS
331
AE
102
}
 70
     0
280
     1
281
     0
  0
BLOCK_RECORD
  5
B2
330
1
100
AcDbSymbolTableRecord
100
AcDbBlockTableRecord
  2
block 23
340
0
102
{BLKREFS
331
B3
102
}
 70
     0
280
     1
281
     0
  0
BLOCK_RECORD
  5
B7
330
1
100
AcDbSymbolTableRecord
100
AcDbBlockTableRecord
  2
block 24
340
0
102
{BLKREFS
331
B8
102
}
 70
     0
280
     1
281
     0
  0
BLOCK_RECORD
  5
BC
330
1
100
AcDbSymbolTableRecord
100
AcDbBlockTableRecord
  2
block 25
340
0
102
{BLKREFS
331
BD
102
}
 70
     0
280
     1
281
     0
  0
BLOCK_RECORD
  5
C1
330
1
100
AcDbSymbolTableRecord
100
AcDbBlockTableRecord
  2
block 26
340
0
102
{BLKREFS
331
C2
102
}
 70
     0
280
     1
281
     0
  0
BLOCK_RECORD
  5
C6
330
1
100
AcDbSymbolTableRecord
100
AcDbBlockTableRecord
  2
block 27
340
0
102
{BLKREFS
331
C7
102
}
 70
     0
280
     1
281
     0
  0
BLOCK_RECORD
  5
CB
330
1
100
AcDbSymbolTableRecord
100
AcDbBlockTableRecord
  2
block 28
340
0
102
{BLKREFS
331
CC
102
}
 70
     0
280
     1
281
     0
  0
BLOCK_RECORD
  5
D2
330
1
100
AcDbSymbolTableRecord
100
AcDbBlockTableRecord
  2
block 29
340
0
102
{BLKREFS
331
D3
102
}
 70
     0
280
     1
281
     0
  0
BLOCK_RECORD
  5
D7
330
1
100
AcDbSymbolTableRecord
100
AcDbBlockTableRecord
  2
block 30
340
0
102
{BLKREFS
331
D8
102
}
 70
     0
280
     1
281
     0
  0
BLOCK_RECORD
  5
DF
330
1
100
AcDbSymbolTableRecord
100
AcDbBlockTableRecord
  2
block 31
340
0
102
{BLKREFS
331
E0
102
}
 70
     0
280
     1
281
     0
  0
BLOCK_RECORD
  5
E4
330
1
100
AcDbSymbolTableRecord
100
AcDbBlockTableRecord
  2
block 32
340
0
102
{BLKREFS
331
E5
102
}
 70
     0
280
     1
281
     0
  0
BLOCK_RECORD
  5
E9
330
1
100
AcDbSymbolTableRecord
100
AcDbBlockTableRecord
  2
block 33
340
0
102
{BLKREFS
331
EA
102
}
 70
     0
280
     1
281
     0
  0
BLOCK_RECORD
  5
EE
330
1
100
AcDbSymbolTableRecord
100
AcDbBlockTableRecord
  2
block 34
340
0
102
{BLKREFS
331
EF
102
}
 70
     0
280
     1
281
     0
  0
BLOCK_RECORD
  5
F3
330
1
100
AcDbSymbolTableRecord
100
AcDbBlockTableRecord
  2
block 35
340
0
102
{BLKREFS
331
F4
102
}
 70
     0
280
     1
281
     0
  0
BLOCK_RECORD
  5
F8
330
1
100
AcDbSymbolTableRecord
100
AcDbBlockTableRecord
  2
block 36
340
0
102
{BLKREFS
331
F9
102
}
 70
     0
280
     1
281
     0
  0
BLOCK_RECORD
  5
FD
330
1
100
AcDbSymbolTableRecord
100
AcDbBlockTableRecord
  2
block 37
340
0
102
{BLKREFS
331
FE
102
}
 70
     0
280
     1
281
     0
  0
BLOCK_RECORD
  5
102
330
1
100
AcDbSymbolTableRecord
100
AcDbBlockTableRecord
  2
block 38
340
0
102
{BLKREFS
331
103
102
}
 70
     0
280
     1
281
     0
  0
BLOCK_RECORD
  5
10A
330
1
100
AcDbSymbolTableRecord
100
AcDbBlockTableRecord
  2
block 39
340
0
102
{BLKREFS
331
10B
102
}
 70
     0
280
     1
281
     0
  0
BLOCK_RECORD
  5
112
330
1
100
AcDbSymbolTableRecord
100
AcDbBlockTableRecord
  2
block 40
340
0
102
{BLKREFS
331
113
102
}
 70
     0
280
     1
281
     0
  0
BLOCK_RECORD
  5
117
330
1
100
AcDbSymbolTableRecord
100
AcDbBlockTableRecord
  2
block 41
340
0
102
{BLKREFS
331
118
102
}
 70
     0
280
     1
281
     0
  0
BLOCK_RECORD
  5
11C
330
1
100
AcDbSymbolTableRecord
100
AcDbBlockTableRecord
  2
block 42
340
0
102
{BLKREFS
331
11D
102
}
 70
     0
280
     1
281
     0
  0
BLOCK_RECORD
  5
124
330
1
100
AcDbSymbolTableRecord
100
AcDbBlockTableRecord
  2
block 43
340
0
102
{BLKREFS
331
125
102
}
 70
     0
280
     1
281
     0
  0
BLOCK_RECORD
  5
129
330
1
100
AcDbSymbolTableRecord
100
AcDbBlockTableRecord
  2
block 44
340
0
102
{BLKREFS
331
12A
102
}
 70
     0
280
     1
281
     0
  0
BLOCK_RECORD
  5
12E
330
1
100
AcDbSymbolTableRecord
100
AcDbBlockTableRecord
  2
block 45
340
0
102
{BLKREFS
331
12F
102
}
 70
     0
280
     1
281
     0
  0
BLOCK_RECORD
  5
133
330
1
100
AcDbSymbolTableRecord
100
AcDbBlockTableRecord
  2
block 46
340
0
102
{BLKREFS
331
134
102
}
 70
     0
280
     1
281
     0
  0
BLOCK_RECORD
  5
138
330
1
100
AcDbSymbolTableRecord
100
AcDbBlockTableRecord
  2
block 47
340
0
102
{BLKREFS
331
139
102
}
 70
     0
280
     1
281
     0
  0
BLOCK_RECORD
  5
13D
330
1
100
AcDbSymbolTableRecord
100
AcDbBlockTableRecord
  2
block 48
340
0
102
{BLKREFS
331
13E
102
}
 70
     0
280
     1
281
     0
  0
BLOCK_RECORD
  5
142
330
1
100
AcDbSymbolTableRecord
100
AcDbBlockTableRecord
  2
block 49
340
0
102
{BLKREFS
331
143
102
}
 70
     0
280
     1
281
     0
  0
BLOCK_RECORD
  5
147
330
1
100
AcDbSymbolTableRecord
100
AcDbBlockTableRecord
  2
block 50
340
0
102
{BLKREFS
331
148
102
}
 70
     0
280
     1
281
     0
  0
BLOCK_RECORD
  5
14C
330
1
100
AcDbSymbolTableRecord
100
AcDbBlockTableRecord
  2
block 51
340
0
102
{BLKREFS
331
14D
102
}
 70
     0
280
     1
281
     0
  0
BLOCK_RECORD
  5
151
330
1
100
AcDbSymbolTableRecord
100
AcDbBlockTableRecord
  2
block 52
340
0
102
{BLKREFS
331
152
102
}
 70
     0
280
     1
281
     0
  0
BLOCK_RECORD
  5
156
330
1
100
AcDbSymbolTableRecord
100
AcDbBlockTableRecord
  2
block 53
340
0
102
{BLKREFS
331
157
102
}
 70
     0
280
     1
281
     0
  0
BLOCK_RECORD
  5
15B
330
1
100
AcDbSymbolTableRecord
100
AcDbBlockTableRecord
  2
block 54
340
0
102
{BLKREFS
331
15C
102
}
 70
     0
280
     1
281
     0
  0
BLOCK_RECORD
  5
163
330
1
100
AcDbSymbolTableRecord
100
AcDbBlockTableRecord
  2
block 55
340
0
102
{BLKREFS
331
164
102
}
 70
     0
280
     1
281
     0
  0
BLOCK_RECORD
  5
168
330
1
100
AcDbSymbolTableRecord
100
AcDbBlockTableRecord
  2
block 56
340
0
102
{BLKREFS
331
169
102
}
 70
     0
280
     1
281
     0
  0
BLOCK_RECORD
  5
16D
330
1
100
AcDbSymbolTableRecord
100
AcDbBlockTableRecord
  2
block 57
340
0
102
{BLKREFS
331
16E
102
}
 70
     0
280
     1
281
     0
  0
BLOCK_RECORD
  5
172
330
1
100
AcDbSymbolTableRecord
100
AcDbBlockTableRecord
  2
block 58
340
0
102
{BLKREFS
331
173
102
}
 70
     0
280
     1
281
     0
  0
BLOCK_RECORD
  5
177
330
1
100
AcDbSymbolTableRecord
100
AcDbBlockTableRecord
  2
block 59
340
0
102
{BLKREFS
331
178
102
}
 70
     0
280
     1
281
     0
  0
BLOCK_RECORD
  5
17C
330
1
100
AcDbSymbolTableRecord
100
AcDbBlockTableRecord
  2
block 60
340
0
102
{BLKREFS
331
17D
102
}
 70
     0
280
     1
281
     0
  0
BLOCK_RECORD
  5
181
330
1
100
AcDbSymbolTableRecord
100
AcDbBlockTableRecord
  2
block 61
340
0
102
{BLKREFS
331
182
102
}
 70
     0
280
     1
281
     0
  0
BLOCK_RECORD
  5
186
330
1
100
AcDbSymbolTableRecord
100
AcDbBlockTableRecord
  2
block 62
340
0
102
{BLKREFS
331
187
102
}
 70
     0
280
     1
281
     0
  0
BLOCK_RECORD
  5
18B
330
1
100
AcDbSymbolTableRecord
100
AcDbBlockTableRecord
  2
block 63
340
0
102
{BLKREFS
331
18C
102
}
 70
     0
280
     1
281
     0
  0
BLOCK_RECORD
  5
190
330
1
100
AcDbSymbolTableRecord
100
AcDbBlockTableRecord
  2
block 64
340
0
102
{BLKREFS
331
191
102
}
 70
     0
280
     1
281
     0
  0
BLOCK_RECORD
  5
198
330
1
100
AcDbSymbolTableRecord
100
AcDbBlockTableRecord
  2
block 65
340
0
102
{BLKREFS
331
199
102
}
 70
     0
280
     1
281
     0
  0
BLOCK_RECORD
  5
19D
330
1
100
AcDbSymbolTableRecord
100
AcDbBlockTableRecord
  2
block 66
340
0
102
{BLKREFS
331
19E
102
}
 70
     0
280
     1
281
     0
  0
BLOCK_RECORD
  5
1A5
330
1
100
AcDbSymbolTableRecord
100
AcDbBlockTableRecord
  2
block 67
340
0
102
{BLKREFS
331
1A6
102
}
 70
     0
280
     1
281
     0
  0
BLOCK_RECORD
  5
1AA
330
1
100
AcDbSymbolTableRecord
100
AcDbBlockTableRecord
  2
block 68
340
0
102
{BLKREFS
331
1AB
102
}
 70
     0
280
     1
281
     0
  0
BLOCK_RECORD
  5
1B2
330
1
100
AcDbSymbolTableRecord
100
AcDbBlockTableRecord
  2
block 69
340
0
102
{BLKREFS
331
1B3
102
}
 70
     0
280
     1
281
     0
  0
BLOCK_RECORD
  5
1B7
330
1
100
AcDbSymbolTableRecord
100
AcDbBlockTableRecord
  2
block 70
340
0
102
{BLKREFS
331
1B8
102
}
 70
     0
280
     1
281
     0
  0
BLOCK_RECORD
  5
1BC
330
1
100
AcDbSymbolTableRecord
100
AcDbBlockTableRecord
  2
block 71
340
0
102
{BLKREFS
331
1BD
102
}
 70
     0
280
     1
281
     0
  0
BLOCK_RECORD
  5
1C1
330
1
100
AcDbSymbolTableRecord
100
AcDbBlockTableRecord
  2
block 72
340
0
102
{BLKREFS
331
1C2
102
}
 70
     0
280
     1
281
     0
  0
BLOCK_RECORD
  5
1C6
330
1
100
AcDbSymbolTableRecord
100
AcDbBlockTableRecord
  2
block 73
340
0
102
{BLKREFS
331
1C7
102
}
 70
     0
280
     1
281
     0
  0
BLOCK_RECORD
  5
1CB
330
1
100
AcDbSymbolTableRecord
100
AcDbBlockTableRecord
  2
block 74
340
0
102
{BLKREFS
331
1CC
102
}
 70
     0
280
     1
281
     0
  0
BLOCK_RECORD
  5
1D0
330
1
100
AcDbSymbolTableRecord
100
AcDbBlockTableRecord
  2
block 75
340
0
102
{BLKREFS
331
1D1
102
}
 70
     0
280
     1
281
     0
  0
BLOCK_RECORD
  5
1D5
330
1
100
AcDbSymbolTableRecord
100
AcDbBlockTableRecord
  2
block 76
340
0
102
{BLKREFS
331
1D6
102
}
 70
     0
280
     1
281
     0
  0
BLOCK_RECORD
  5
1DA
330
1
100
AcDbSymbolTableRecord
100
AcDbBlockTableRecord
  2
block 77
340
0
102
{BLKREFS
331
1DB
102
}
 70
     0
280
     1
281
     0
  0
BLOCK_RECORD
  5
1DF
330
1
100
AcDbSymbolTableRecord
100
AcDbBlockTableRecord
  2
block 78
340
0
102
{BLKREFS
331
1E0
102
}
 70
     0
280
     1
281
     0
  0
BLOCK_RECORD
  5
1E7
330
1
100
AcDbSymbolTableRecord
100
AcDbBlockTableRecord
  2
block 79
340
0
102
{BLKREFS
331
1E8
102
}
 70
     0
280
     1
281
     0
  0
BLOCK_RECORD
  5
1F0
330
1
100
AcDbSymbolTableRecord
100
AcDbBlockTableRecord
  2
block 80
340
0
102
{BLKREFS
331
1F1
102
}
 70
     0
280
     1
281
     0
  0
BLOCK_RECORD
  5
1F9
330
1
100
AcDbSymbolTableRecord
100
AcDbBlockTableRecord
  2
block 81
340
0
102
{BLKREFS
331
1FA
102
}
 70
     0
280
     1
281
     0
  0
BLOCK_RECORD
  5
201
330
1
100
AcDbSymbolTableRecord
100
AcDbBlockTableRecord
  2
block 82
340
0
102
{BLKREFS
331
202
102
}
 70
     0
280
     1
281
     0
  0
BLOCK_RECORD
  5
209
330
1
100
AcDbSymbolTableRecord
100
AcDbBlockTableRecord
  2
block 83
340
0
102
{BLKREFS
331
20A
102
}
 70
     0
280
     1
281
     0
  0
BLOCK_RECORD
  5
212
330
1
100
AcDbSymbolTableRecord
100
AcDbBlockTableRecord
  2
block 84
340
0
102
{BLKREFS
331
213
102
}
 70
     0
280
     1
281
     0
  0
BLOCK_RECORD
  5
21B
330
1
100
AcDbSymbolTableRecord
100
AcDbBlockTableRecord
  2
block 85
340
0
102
{BLKREFS
331
21C
102
}
 70
     0
280
     1
281
     0
  0
BLOCK_RECORD
  5
223
330
1
100
AcDbSymbolTableRecord
100
AcDbBlockTableRecord
  2
block 86
340
0
102
{BLKREFS
331
224
102
}
 70
     0
280
     1
281
     0
  0
BLOCK_RECORD
  5
22B
330
1
100
AcDbSymbolTableRecord
100
AcDbBlockTableRecord
  2
block 87
340
0
102
{BLKREFS
331
22C
102
}
 70
     0
280
     1
281
     0
  0
BLOCK_RECORD
  5
234
330
1
100
AcDbSymbolTableRecord
100
AcDbBlockTableRecord
  2
block 88
340
0
102
{BLKREFS
331
235
102
}
 70
     0
280
     1
281
     0
  0
BLOCK_RECORD
  5
23D
330
1
100
AcDbSymbolTableRecord
100
AcDbBlockTableRecord
  2
block 89
340
0
102
{BLKREFS
331
23E
102
}
 70
     0
280
     1
281
     0
  0
BLOCK_RECORD
  5
245
330
1
100
AcDbSymbolTableRecord
100
AcDbBlockTableRecord
  2
block 90
340
0
102
{BLKREFS
331
246
102
}
 70
     0
280
     1
281
     0
  0
BLOCK_RECORD
  5
24D
330
1
100
AcDbSymbolTableRecord
100
AcDbBlockTableRecord
  2
block 91
340
0
102
{BLKREFS
331
24E
102
}
 70
     0
280
     1
281
     0
  0
BLOCK_RECORD
  5
256
330
1
100
AcDbSymbolTableRecord
100
AcDbBlockTableRecord
  2
block 92
340
0
102
{BLKREFS
331
257
102
}
 70
     0
280
     1
281
     0
  0
BLOCK_RECORD
  5
25F
330
1
100
AcDbSymbolTableRecord
100
AcDbBlockTableRecord
  2
block 93
340
0
102
{BLKREFS
331
260
102
}
 70
     0
280
     1
281
     0
  0
BLOCK_RECORD
  5
267
330
1
100
AcDbSymbolTableRecord
100
AcDbBlockTableRecord
  2
block 94
340
0
102
{BLKREFS
331
268
102
}
 70
     0
280
     1
281
     0
  0
BLOCK_RECORD
  5
26D
330
1
100
AcDbSymbolTableRecord
100
AcDbBlockTableRecord
  2
block 95
340
0
102
{BLKREFS
331
26E
102
}
 70
     0
280
     1
281
     0
  0
ENDTAB
  0
ENDSEC
  0
SECTION
  2
BLOCKS
  0
BLOCK
  5
20
330
1F
100
AcDbEntity
  8
0
100
AcDbBlockBegin
  2
*Model_Space
 70
     0
 10
0.0
 20
0.0
 30
0.0
  3
*Model_Space
  1

  0
ENDBLK
  5
21
330
1F
100
AcDbEntity
  8
0
100
AcDbBlockEnd
  0
BLOCK
  5
1C
330
1B
100
AcDbEntity
 67
     1
  8
0
100
AcDbBlockBegin
  2
*Paper_Space
 70
     0
 10
0.0
 20
0.0
 30
0.0
  3
*Paper_Space
  1

  0
ENDBLK
  5
1D
330
1B
100
AcDbEntity
 67
     1
  8
0
100
AcDbBlockEnd
  0
BLOCK
  5
24
330
23
100
AcDbEntity
  8
0
100
AcDbBlockBegin
  2
*Paper_Space0
 70
     0
 10
0.0
 20
0.0
 30
0.0
  3
*Paper_Space0
  1

  0
ENDBLK
  5
25
330
23
100
AcDbEntity
  8
0
100
AcDbBlockEnd
  0
BLOCK
  5
42
330
40
100
AcDbEntity
  8
0
100
AcDbBlockBegin
  2
block 2
 70
     0
 10
0.0
 20
0.0
 30
0.0
  3
block 2
  1

  0
SPLINE
  5
44
330
40
100
AcDbEntity
  8
0
 62
   250
370
    25
100
AcDbSpline
210
0.0
220
0.0
230
1.0
 70
     8
 71
     3
 72
    38
 73
    34
 74
     0
 42
0.0000000001
 43
0.0000000001
 12
1.0
 22
0.0
 32
0.0
 13
1.0
 23
0.0
 33
0.0
 40
0.0
 40
0.0
 40
0.0
 40
0.0
 40
1.0
 40
1.0
 40
1.0
 40
2.0
 40
2.0
 40
2.0
 40
3.0
 40
3.0
 40
3.0
 40
4.0
 40
4.0
 40
4.0
 40
5.0
 40
5.0
 40
5.0
 40
6.0
 40
6.0
 40
6.0
 40
7.0
 40
7.0
 40
7.0
 40
8.0
 40
8.0
 40
8.0
 40
9.0
 40
9.0
 40
9.0
 40
10.0
 40
10.0
 40
10.0
 40
11.0
 40
11.0
 40
11.0
 40
11.0
 10
105.1248171247533
 20
249.9509959142657
 30
0.0
 10
104.1917450141411
 20
249.9509959142657
 30
0.0
 10
103.2585670690316
 20
249.9666594178709
 30
0.0
 10
102.3260594090113
 20
249.9993622733438
 30
0.0
 10
101.5110985852538
 20
250.0279728621316
 30
0.0
 10
100.6966316557822
 20
250.069601092415
 30
0.0
 10
99.88315251484266
 20
250.1265400446756
 30
0.0
 10
99.11401802371273
 20
250.1803745187521
 30
0.0
 10
98.34576548664339
 20
250.2478969194009
 30
0.0
 10
97.5796649174687
 20
250.3345400834418
 30
0.0
 10
96.88870683365867
 20
250.4126812106195
 30
0.0
 10
96.19951265796851
 20
250.5063447287573
 30
0.0
 10
95.51448130539217
 20
250.6269607620867
 30
0.0
 10
94.99169422054794
 20
250.7190014848067
 30
0.0
 10
94.47130605072233
 20
250.8267057111191
 30
0.0
 10
93.96111326975368
 20
250.9720870136491
 30
0.0
 10
93.7827821601095
 20
251.0229228440196
 30
0.0
 10
93.60568578612147
 20
251.0783448353481
 30
0.0
 10
93.43201139387563
 20
251.1444561095428
 30
0.0
 10
93.2815853104824
 20
251.2017125652727
 30
0.0
 10
93.13373453292498
 20
251.2669771635863
 30
0.0
 10
92.99413884531279
 20
251.3454005160528
 30
0.0
 10
92.90068699378362
 20
251.3978591418416
 30
0.0
 10
92.8109393492867
 20
251.4562444987221
 30
0.0
 10
92.73593797656066
 20
251.5359731431575
 30
0.0
 10
92.68224461377486
 20
251.5930884862296
 30
0.0
 10
92.63610077769151
 20
251.6612106156165
 30
0.0
 10
92.62682262104775
 20
251.7355417013792
 30
0.0
 10
92.61793252417843
 20
251.8068035871172
 30
0.0
 10
92.64290946298483
 20
251.8837805349703
 30
0.0
 10
92.6849963104147
 20
251.9449881447524
 30
0.0
 10
92.74119442271703
 20
252.0266570880608
 30
0.0
 10
92.82790814528438
 20
252.0801387805229
 30
0.0
 10
92.90668428134913
 20
252.1376774615351
 30
0.0
  0
ENDBLK
  5
43
330
40
100
AcDbEntity
  8
0
100
AcDbBlockEnd
  0
BLOCK
  5
47
330
45
100
AcDbEntity
  8
0
100
AcDbBlockBegin
  2
block 3
 70
     0
 10
0.0
 20
0.0
 30
0.0
  3
block 3
  1

  0
POLYLINE
  5
49
330
45
100
AcDbEntity
  8
0
 62
   250
370
    25
100
AcDb2dPolyline
 66
     1
 10
0.0
 20
0.0
 30
0.0
  0
VERTEX
  5
4A
330
49
100
AcDbEntity
  8
0
 62
   250
370
    25
100
AcDbVertex
100
AcDb2dVertex
 10
105.1248171247533
 20
253.6050725789502
 30
0.0
  0
VERTEX
  5
4B
330
49
100
AcDbEntity
  8
0
 62
   250
370
    25
100
AcDbVertex
100
AcDb2dVertex
 10
105.1019215975223
 20
253.6050725789502
 30
0.0
  0
SEQEND
  5
4C
330
49
100
AcDbEntity
  8
0
 62
   250
370
    25
  0
ENDBLK
  5
48
330
45
100
AcDbEntity
  8
0
100
AcDbBlockEnd
  0
BLOCK
  5
4F
330
4D
100
AcDbEntity
  8
0
100
AcDbBlockBegin
  2
block 4
 70
     0
 10
0.0
 20
0.0
 30
0.0
  3
block 4
  1

  0
SPLINE
  5
51
330
4D
100
AcDbEntity
  8
0
 62
   250
370
    25
100
AcDbSpline
210
0.0
220
0.0
230
1.0
 70
     8
 71
     3
 72
    26
 73
    22
 74
     0
 42
0.0000000001
 43
0.0000000001
 12
1.0
 22
0.0
 32
0.0
 13
1.0
 23
0.0
 33
0.0
 40
0.0
 40
0.0
 40
0.0
 40
0.0
 40
1.0
 40
1.0
 40
1.0
 40
2.0
 40
2.0
 40
2.0
 40
3.0
 40
3.0
 40
3.0
 40
4.0
 40
4.0
 40
4.0
 40
5.0
 40
5.0
 40
5.0
 40
6.0
 40
6.0
 40
6.0
 40
7.0
 40
7.0
 40
7.0
 40
7.0
 10
105.1019215975223
 20
253.6050725789502
 30
0.0
 10
104.4335415375006
 20
253.6045081283778
 30
0.0
 10
103.7650203648147
 20
253.5952652501244
 30
0.0
 10
103.0968166955975
 20
253.5761092085665
 30
0.0
 10
102.4556360985706
 20
253.5577645647111
 30
0.0
 10
101.8147377268591
 20
253.530318155253
 30
0.0
 10
101.1742979712413
 20
253.4941933181274
 30
0.0
 10
99.90177938444951
 20
253.4223669818176
 30
0.0
 10
98.63098942759903
 20
253.3163208290823
 30
0.0
 10
97.36580869853867
 20
253.1621905425519
 30
0.0
 10
96.84690221151853
 20
253.0989720775776
 30
0.0
 10
96.32894823487699
 20
253.0276749136867
 30
0.0
 10
95.81300511347963
 20
252.9432895519616
 30
0.0
 10
95.35968072990282
 20
252.8691348570032
 30
0.0
 10
94.90794386360369
 20
252.7848906079232
 30
0.0
 10
94.4604403767749
 20
252.6813492046402
 30
0.0
 10
94.15383786955972
 20
252.6104401005238
 30
0.0
 10
93.84921093942202
 20
252.5304292307924
 30
0.0
 10
93.5511104692754
 20
252.4287928482167
 30
0.0
 10
93.32734108679097
 20
252.352521463581
 30
0.0
 10
93.10720535499348
 20
252.2640085569859
 30
0.0
 10
92.90668428134913
 20
252.1376774615351
 30
0.0
  0
ENDBLK
  5
50
330
4D
100
AcDbEntity
  8
0
100
AcDbBlockEnd
  0
BLOCK
  5
54
330
52
100
AcDbEntity
  8
0
100
AcDbBlockBegin
  2
block 5
 70
     0
 10
0.0
 20
0.0
 30
0.0
  3
block 5
  1

  0
SPLINE
  5
56
330
52
100
AcDbEntity
  8
0
 62
   250
370
    25
100
AcDbSpline
210
0.0
220
0.0
230
1.0
 70
     8
 71
     3
 72
    11
 73
     7
 74
     0
 42
0.0000000001
 43
0.0000000001
 12
1.0
 22
0.0
 32
0.0
 13
1.0
 23
0.0
 33
0.0
 40
0.0
 40
0.0
 40
0.0
 40
0.0
 40
1.0
 40
1.0
 40
1.0
 40
2.0
 40
2.0
 40
2.0
 40
2.0
 10
105.1247818466001
 20
339.1386434979241
 30
0.0
 10
95.459694319576
 20
339.1386434979241
 30
0.0
 10
87.62459089761168
 20
331.3035400759472
 30
0.0
 10
87.62459089761168
 20
321.6384525489357
 30
0.0
 10
87.62462617577134
 20
311.9733650219241
 30
0.0
 10
95.45972959774207
 20
304.1382615999473
 30
0.0
 10
105.1248171247533
 20
304.1382615999473
 30
0.0
  0
ENDBLK
  5
55
330
52
100
AcDbEntity
  8
0
100
AcDbBlockEnd
  0
BLOCK
  5
59
330
57
100
AcDbEntity
  8
0
100
AcDbBlockBegin
  2
block 6
 70
     0
 10
0.0
 20
0.0
 30
0.0
  3
block 6
  1

  0
SPLINE
  5
5B
330
57
100
AcDbEntity
  8
0
 62
   250
370
    25
100
AcDbSpline
210
0.0
220
0.0
230
1.0
 70
     8
 71
     3
 72
     8
 73
     4
 74
     0
 42
0.0000000001
 43
0.0000000001
 12
1.0
 22
0.0
 32
0.0
 13
1.0
 23
0.0
 33
0.0
 40
0.0
 40
0.0
 40
0.0
 40
0.0
 40
1.0
 40
1.0
 40
1.0
 40
1.0
 10
105.1248171247533
 20
194.6370615897791
 30
0.0
 10
87.65962211261784
 20
194.6370615897791
 30
0.0
 10
76.56693319801006
 20
175.9370608185874
 30
0.0
 10
84.94016970537929
 20
160.609899210538
 30
0.0
  0
ENDBLK
  5
5A
330
57
100
AcDbEntity
  8
0
100
AcDbBlockEnd
  0
BLOCK
  5
5E
330
5C
100
AcDbEntity
  8
0
100
AcDbBlockBegin
  2
block 7
 70
     0
 10
0.0
 20
0.0
 30
0.0
  3
block 7
  1

  0
SPLINE
  5
60
330
5C
100
AcDbEntity
  8
0
 62
   250
370
    25
100
AcDbSpline
210
0.0
220
0.0
230
1.0
 70
    24
 71
     3
 72
     8
 73
     4
 74
     0
 42
0.0000000001
 43
0.0000000001
 12
1.0
 22
0.0
 32
0.0
 13
1.0
 23
0.0
 33
0.0
 40
0.0
 40
0.0
 40
0.0
 40
0.0
 40
1.0
 40
1.0
 40
1.0
 40
1.0
 10
-494.1039419773615
 20
387.3023307595459
 30
0.0
 10
-493.0974560113134
 20
387.7480350601073
 30
0.0
 10
-492.0909700452659
 20
388.1937393606688
 30
0.0
 10
-491.0844840792178
 20
388.6394436612238
 30
0.0
  0
ENDBLK
  5
5F
330
5C
100
AcDbEntity
  8
0
100
AcDbBlockEnd
  0
BLOCK
  5
63
330
61
100
AcDbEntity
  8
0
100
AcDbBlockBegin
  2
block 8
 70
     0
 10
0.0
 20
0.0
 30
0.0
  3
block 8
  1

  0
SPLINE
  5
65
330
61
100
AcDbEntity
  8
0
 62
   250
370
    25
100
AcDbSpline
210
0.0
220
0.0
230
1.0
 70
     8
 71
     3
 72
    20
 73
    16
 74
     0
 42
0.0000000001
 43
0.0000000001
 12
1.0
 22
0.0
 32
0.0
 13
1.0
 23
0.0
 33
0.0
 40
0.0
 40
0.0
 40
0.0
 40
0.0
 40
1.0
 40
1.0
 40
1.0
 40
2.0
 40
2.0
 40
2.0
 40
3.0
 40
3.0
 40
3.0
 40
4.0
 40
4.0
 40
4.0
 40
5.0
 40
5.0
 40
5.0
 40
5.0
 10
-494.1039419773615
 20
387.3023307595459
 30
0.0
 10
-494.5802677226608
 20
387.0825830875364
 30
0.0
 10
-495.0561348518661
 20
386.8617770706558
 30
0.0
 10
-495.5307672453828
 20
386.6383604697864
 30
0.0
 10
-495.7681539984673
 20
386.5266698084252
 30
0.0
 10
-496.0052232480961
 20
386.4143794183188
 30
0.0
 10
-496.24151637815
 20
386.3003956764178
 30
0.0
 10
-496.3595923868641
 20
386.243421444547
 30
0.0
 10
-496.4774920047477
 20
386.1860944310614
 30
0.0
 10
-496.5948271720533
 20
386.1276032382194
 30
0.0
 10
-496.6859859430357
 20
386.0822002435388
 30
0.0
 10
-496.7771799921845
 20
386.0370441959883
 30
0.0
 10
-496.8660809608004
 20
385.9870903183876
 30
0.0
 10
-496.8895762167892
 20
385.9738962857412
 30
0.0
 10
-496.9826400085308
 20
385.9393942431673
 30
0.0
 10
-496.929652208988
 20
385.9393942431673
 30
0.0
  0
ENDBLK
  5
64
330
61
100
AcDbEntity
  8
0
100
AcDbBlockEnd
  0
BLOCK
  5
68
330
66
100
AcDbEntity
  8
0
100
AcDbBlockBegin
  2
block 9
 70
     0
 10
0.0
 20
0.0
 30
0.0
  3
block 9
  1

  0
SPLINE
  5
6A
330
66
100
AcDbEntity
  8
0
 62
   250
370
    25
100
AcDbSpline
210
0.0
220
0.0
230
1.0
 70
     8
 71
     3
 72
     8
 73
     4
 74
     0
 42
0.0000000001
 43
0.0000000001
 12
1.0
 22
0.0
 32
0.0
 13
1.0
 23
0.0
 33
0.0
 40
0.0
 40
0.0
 40
0.0
 40
0.0
 40
1.0
 40
1.0
 40
1.0
 40
1.0
 10
84.94016970537929
 20
160.609899210538
 30
0.0
 10
88.97281642036648
 20
153.2281909149552
 30
0.0
 10
96.71337436779083
 20
148.6365618367422
 30
0.0
 10
105.1248171247533
 20
148.6365618367422
 30
0.0
  0
ENDBLK
  5
69
330
66
100
AcDbEntity
  8
0
100
AcDbBlockEnd
  0
BLOCK
  5
6D
330
6B
100
AcDbEntity
  8
0
100
AcDbBlockBegin
  2
block 10
 70
     0
 10
0.0
 20
0.0
 30
0.0
  3
block 10
  1

  0
SPLINE
  5
6F
330
6B
100
AcDbEntity
  8
0
 62
   250
370
    25
100
AcDbSpline
210
0.0
220
0.0
230
1.0
 70
     8
 71
     3
 72
    32
 73
    28
 74
     0
 42
0.0000000001
 43
0.0000000001
 12
1.0
 22
0.0
 32
0.0
 13
1.0
 23
0.0
 33
0.0
 40
0.0
 40
0.0
 40
0.0
 40
0.0
 40
1.0
 40
1.0
 40
1.0
 40
2.0
 40
2.0
 40
2.0
 40
3.0
 40
3.0
 40
3.0
 40
4.0
 40
4.0
 40
4.0
 40
5.0
 40
5.0
 40
5.0
 40
6.0
 40
6.0
 40
6.0
 40
7.0
 40
7.0
 40
7.0
 40
8.0
 40
8.0
 40
8.0
 40
9.0
 40
9.0
 40
9.0
 40
9.0
 10
105.1248171247533
 20
249.9509959142657
 30
0.0
 10
105.959568997467
 20
249.951666199336
 30
0.0
 10
106.7947794863007
 20
249.9632021580646
 30
0.0
 10
107.6292844118785
 20
249.9892727192343
 30
0.0
 10
108.3723483411714
 20
250.012521027503
 30
0.0
 10
109.1148478198719
 20
250.0473052944938
 30
0.0
 10
109.856853404313
 20
250.0933080167768
 30
0.0
 10
111.1956949359447
 20
250.1763175302077
 30
0.0
 10
112.5328783939423
 20
250.2957693842195
 30
0.0
 10
113.8605014700182
 20
250.4875767469669
 30
0.0
 10
114.4110524684751
 20
250.5671290005986
 30
0.0
 10
114.9599806714757
 20
250.659099166993
 30
0.0
 10
115.5037229846518
 20
250.7768576692613
 30
0.0
 10
115.880423200046
 20
250.8584560562439
 30
0.0
 10
116.2546186659365
 20
250.9524370778311
 30
0.0
 10
116.6202062602599
 20
251.0749228537082
 30
0.0
 10
116.7748657231241
 20
251.1267464725926
 30
0.0
 10
116.9280082250043
 20
251.183685424866
 30
0.0
 10
117.0757884462299
 20
251.2524425611517
 30
0.0
 10
117.1798237464033
 20
251.3008794765548
 30
0.0
 10
117.2812131844094
 20
251.3551725667251
 30
0.0
 10
117.3759350497733
 20
251.4206841121759
 30
0.0
 10
117.4465619303901
 20
251.4695443655135
 30
0.0
 10
117.5134846039884
 20
251.5246841315584
 30
0.0
 10
117.5626976401796
 20
251.5949935069361
 30
0.0
 10
117.5982227494526
 20
251.6456882246621
 30
0.0
 10
117.6245049802598
 20
251.7043205286662
 30
0.0
 10
117.6250341526857
 20
251.7667275959259
 30
0.0
  0
ENDBLK
  5
6E
330
6B
100
AcDbEntity
  8
0
100
AcDbBlockEnd
  0
BLOCK
  5
72
330
70
100
AcDbEntity
  8
0
100
AcDbBlockBegin
  2
block 11
 70
     0
 10
0.0
 20
0.0
 30
0.0
  3
block 11
  1

  0
SPLINE
  5
74
330
70
100
AcDbEntity
  8
0
 62
   250
370
    25
100
AcDbSpline
210
0.0
220
0.0
230
1.0
 70
     8
 71
     3
 72
     8
 73
     4
 74
     0
 42
0.0000000001
 43
0.0000000001
 12
1.0
 22
0.0
 32
0.0
 13
1.0
 23
0.0
 33
0.0
 40
0.0
 40
0.0
 40
0.0
 40
0.0
 40
1.0
 40
1.0
 40
1.0
 40
1.0
 10
117.6250694308514
 20
251.7680681660606
 30
0.0
 10
117.6280327964745
 20
251.982171326717
 30
0.0
 10
117.4886840559988
 20
252.0442608905267
 30
0.0
 10
117.3429499681703
 20
252.1376774615351
 30
0.0
  0
ENDBLK
  5
73
330
70
100
AcDbEntity
  8
0
100
AcDbBlockEnd
  0
BLOCK
  5
77
330
75
100
AcDbEntity
  8
0
100
AcDbBlockBegin
  2
block 12
 70
     0
 10
0.0
 20
0.0
 30
0.0
  3
block 12
  1

  0
POLYLINE
  5
79
330
75
100
AcDbEntity
  8
0
 62
   250
370
    25
100
AcDb2dPolyline
 66
     1
 10
0.0
 20
0.0
 30
0.0
  0
VERTEX
  5
7A
330
79
100
AcDbEntity
  8
0
 62
   250
370
    25
100
AcDbVertex
100
AcDb2dVertex
 10
105.1248171247533
 20
253.6050725789502
 30
0.0
  0
VERTEX
  5
7B
330
79
100
AcDbEntity
  8
0
 62
   250
370
    25
100
AcDbVertex
100
AcDb2dVertex
 10
105.1476773738308
 20
253.6050725789502
 30
0.0
  0
SEQEND
  5
7C
330
79
100
AcDbEntity
  8
0
 62
   250
370
    25
  0
ENDBLK
  5
78
330
75
100
AcDbEntity
  8
0
100
AcDbBlockEnd
  0
BLOCK
  5
7F
330
7D
100
AcDbEntity
  8
0
100
AcDbBlockBegin
  2
block 13
 70
     0
 10
0.0
 20
0.0
 30
0.0
  3
block 13
  1

  0
SPLINE
  5
81
330
7D
100
AcDbEntity
  8
0
 62
   250
370
    25
100
AcDbSpline
210
0.0
220
0.0
230
1.0
 70
     8
 71
     3
 72
    26
 73
    22
 74
     0
 42
0.0000000001
 43
0.0000000001
 12
1.0
 22
0.0
 32
0.0
 13
1.0
 23
0.0
 33
0.0
 40
0.0
 40
0.0
 40
0.0
 40
0.0
 40
1.0
 40
1.0
 40
1.0
 40
2.0
 40
2.0
 40
2.0
 40
3.0
 40
3.0
 40
3.0
 40
4.0
 40
4.0
 40
4.0
 40
5.0
 40
5.0
 40
5.0
 40
6.0
 40
6.0
 40
6.0
 40
7.0
 40
7.0
 40
7.0
 40
7.0
 10
105.1476773738308
 20
253.6050725789502
 30
0.0
 10
105.8160574338656
 20
253.6045081283778
 30
0.0
 10
106.4846138847105
 20
253.5952652501244
 30
0.0
 10
107.1527822757688
 20
253.5761092085665
 30
0.0
 10
107.7939628727697
 20
253.5577645647111
 30
0.0
 10
108.4348612445005
 20
253.530318155253
 30
0.0
 10
109.0753010001118
 20
253.4941933181274
 30
0.0
 10
110.3478195869039
 20
253.4223669818176
 30
0.0
 10
111.618609543754
 20
253.3163208290823
 30
0.0
 10
112.8837902728266
 20
253.1621905425519
 30
0.0
 10
113.4026967598346
 20
253.0989720775776
 30
0.0
 10
113.9206507364764
 20
253.0276749136867
 30
0.0
 10
114.4365938578735
 20
252.9432895519616
 30
0.0
 10
114.8899182414506
 20
252.8691348570032
 30
0.0
 10
115.3416551077494
 20
252.7848906079232
 30
0.0
 10
115.7891585945782
 20
252.6813492046402
 30
0.0
 10
116.0957611017937
 20
252.6104401005238
 30
0.0
 10
116.4003880319314
 20
252.5304292307924
 30
0.0
 10
116.6984885020648
 20
252.4287928482167
 30
0.0
 10
116.9222578845624
 20
252.352521463581
 30
0.0
 10
117.1423936163596
 20
252.2640085569859
 30
0.0
 10
117.3429499681703
 20
252.1376774615351
 30
0.0
  0
ENDBLK
  5
80
330
7D
100
AcDbEntity
  8
0
100
AcDbBlockEnd
  0
BLOCK
  5
84
330
82
100
AcDbEntity
  8
0
100
AcDbBlockBegin
  2
block 14
 70
     0
 10
0.0
 20
0.0
 30
0.0
  3
block 14
  1

  0
SPLINE
  5
86
330
82
100
AcDbEntity
  8
0
 62
   250
370
    25
100
AcDbSpline
210
0.0
220
0.0
230
1.0
 70
     8
 71
     3
 72
    11
 73
     7
 74
     0
 42
0.0000000001
 43
0.0000000001
 12
1.0
 22
0.0
 32
0.0
 13
1.0
 23
0.0
 33
0.0
 40
0.0
 40
0.0
 40
0.0
 40
0.0
 40
1.0
 40
1.0
 40
1.0
 40
2.0
 40
2.0
 40
2.0
 40
2.0
 10
105.1247818466001
 20
339.1386434979241
 30
0.0
 10
114.7898693736113
 20
339.1386434979241
 30
0.0
 10
122.6249727955818
 20
331.3035400759472
 30
0.0
 10
122.6250080737481
 20
321.6384525489357
 30
0.0
 10
122.6250080737481
 20
311.9733650219241
 30
0.0
 10
114.7899046517642
 20
304.1382615999473
 30
0.0
 10
105.1248171247533
 20
304.1382615999473
 30
0.0
  0
ENDBLK
  5
85
330
82
100
AcDbEntity
  8
0
100
AcDbBlockEnd
  0
BLOCK
  5
89
330
87
100
AcDbEntity
  8
0
100
AcDbBlockBegin
  2
block 15
 70
     0
 10
0.0
 20
0.0
 30
0.0
  3
block 15
  1

  0
SPLINE
  5
8B
330
87
100
AcDbEntity
  8
0
 62
   250
370
    25
100
AcDbSpline
210
0.0
220
0.0
230
1.0
 70
     8
 71
     3
 72
     8
 73
     4
 74
     0
 42
0.0000000001
 43
0.0000000001
 12
1.0
 22
0.0
 32
0.0
 13
1.0
 23
0.0
 33
0.0
 40
0.0
 40
0.0
 40
0.0
 40
0.0
 40
1.0
 40
1.0
 40
1.0
 40
1.0
 10
125.3094292659738
 20
160.609899210538
 30
0.0
 10
133.6826657733433
 20
175.9370608185874
 30
0.0
 10
122.5899768587353
 20
194.6370615897791
 30
0.0
 10
105.1248171247533
 20
194.6370615897791
 30
0.0
  0
ENDBLK
  5
8A
330
87
100
AcDbEntity
  8
0
100
AcDbBlockEnd
  0
BLOCK
  5
8E
330
8C
100
AcDbEntity
  8
0
100
AcDbBlockBegin
  2
block 16
 70
     0
 10
0.0
 20
0.0
 30
0.0
  3
block 16
  1

  0
SPLINE
  5
90
330
8C
100
AcDbEntity
  8
0
 62
   250
370
    25
100
AcDbSpline
210
0.0
220
0.0
230
1.0
 70
    24
 71
     3
 72
     8
 73
     4
 74
     0
 42
0.0000000001
 43
0.0000000001
 12
1.0
 22
0.0
 32
0.0
 13
1.0
 23
0.0
 33
0.0
 40
0.0
 40
0.0
 40
0.0
 40
0.0
 40
1.0
 40
1.0
 40
1.0
 40
1.0
 10
704.3535409487149
 20
387.3023307595459
 30
0.0
 10
703.3470549826665
 20
387.7480350601073
 30
0.0
 10
702.3405690166194
 20
388.1937393606688
 30
0.0
 10
701.3340830505838
 20
388.6394436612238
 30
0.0
  0
ENDBLK
  5
8F
330
8C
100
AcDbEntity
  8
0
100
AcDbBlockEnd
  0
BLOCK
  5
93
330
91
100
AcDbEntity
  8
0
100
AcDbBlockBegin
  2
block 17
 70
     0
 10
0.0
 20
0.0
 30
0.0
  3
block 17
  1

  0
SPLINE
  5
95
330
91
100
AcDbEntity
  8
0
 62
   250
370
    25
100
AcDbSpline
210
0.0
220
0.0
230
1.0
 70
     8
 71
     3
 72
    20
 73
    16
 74
     0
 42
0.0000000001
 43
0.0000000001
 12
1.0
 22
0.0
 32
0.0
 13
1.0
 23
0.0
 33
0.0
 40
0.0
 40
0.0
 40
0.0
 40
0.0
 40
1.0
 40
1.0
 40
1.0
 40
2.0
 40
2.0
 40
2.0
 40
3.0
 40
3.0
 40
3.0
 40
4.0
 40
4.0
 40
4.0
 40
5.0
 40
5.0
 40
5.0
 40
5.0
 10
707.1792511803411
 20
385.9393942431673
 30
0.0
 10
707.2322742580499
 20
385.9393942431673
 30
0.0
 10
707.1391399099765
 20
385.9738962857412
 30
0.0
 10
707.1156446539875
 20
385.9871255965537
 30
0.0
 10
707.0267436853848
 20
386.0370441959883
 30
0.0
 10
706.9355143580698
 20
386.0822355216985
 30
0.0
 10
706.8443203089213
 20
386.1276737945452
 30
0.0
 10
706.7270204197822
 20
386.1861297092211
 30
0.0
 10
706.6091560800513
 20
386.2434567227067
 30
0.0
 10
706.4911153495027
 20
386.3003956764178
 30
0.0
 10
706.2548927757682
 20
386.4143441401527
 30
0.0
 10
706.0178588043061
 20
386.5266345302655
 30
0.0
 10
705.7805073293877
 20
386.6383251916204
 30
0.0
 10
705.3058043795385
 20
386.8617417924897
 30
0.0
 10
704.8299019721867
 20
387.0825478093703
 30
0.0
 10
704.3535409487149
 20
387.3023307595459
 30
0.0
  0
ENDBLK
  5
94
330
91
100
AcDbEntity
  8
0
100
AcDbBlockEnd
  0
BLOCK
  5
98
330
96
100
AcDbEntity
  8
0
100
AcDbBlockBegin
  2
block 18
 70
     0
 10
0.0
 20
0.0
 30
0.0
  3
block 18
  1

  0
SPLINE
  5
9A
330
96
100
AcDbEntity
  8
0
 62
   250
370
    25
100
AcDbSpline
210
0.0
220
0.0
230
1.0
 70
     8
 71
     3
 72
     8
 73
     4
 74
     0
 42
0.0000000001
 43
0.0000000001
 12
1.0
 22
0.0
 32
0.0
 13
1.0
 23
0.0
 33
0.0
 40
0.0
 40
0.0
 40
0.0
 40
0.0
 40
1.0
 40
1.0
 40
1.0
 40
1.0
 10
105.1248171247533
 20
148.6365618367422
 30
0.0
 10
113.5362246035626
 20
148.6365618367422
 30
0.0
 10
121.2767825509869
 20
153.2281909149552
 30
0.0
 10
125.3094292659738
 20
160.609899210538
 30
0.0
  0
ENDBLK
  5
99
330
96
100
AcDbEntity
  8
0
100
AcDbBlockEnd
  0
BLOCK
  5
9D
330
9B
100
AcDbEntity
  8
0
100
AcDbBlockBegin
  2
block 19
 70
     0
 10
0.0
 20
0.0
 30
0.0
  3
block 19
  1

  0
POLYLINE
  5
9F
330
9B
100
AcDbEntity
  8
0
 62
   250
370
    25
100
AcDb2dPolyline
 66
     1
 10
0.0
 20
0.0
 30
0.0
  0
VERTEX
  5
A0
330
9F
100
AcDbEntity
  8
0
 62
   250
370
    25
100
AcDbVertex
100
AcDb2dVertex
 10
701.3340830505838
 20
388.6394436612238
 30
0.0
  0
VERTEX
  5
A1
330
9F
100
AcDbEntity
  8
0
 62
   250
370
    25
100
AcDbVertex
100
AcDb2dVertex
 10
-491.0844840792178
 20
388.6391967140941
 30
0.0
  0
SEQEND
  5
A2
330
9F
100
AcDbEntity
  8
0
 62
   250
370
    25
  0
ENDBLK
  5
9E
330
9B
100
AcDbEntity
  8
0
100
AcDbBlockEnd
  0
BLOCK
  5
A5
330
A3
100
AcDbEntity
  8
0
100
AcDbBlockBegin
  2
block 20
 70
     0
 10
0.0
 20
0.0
 30
0.0
  3
block 20
  1

  0
SPLINE
  5
A7
330
A3
100
AcDbEntity
  8
0
 62
   250
370
    25
100
AcDbSpline
210
0.0
220
0.0
230
1.0
 70
     8
 71
     3
 72
    29
 73
    25
 74
     0
 42
0.0000000001
 43
0.0000000001
 12
1.0
 22
0.0
 32
0.0
 13
1.0
 23
0.0
 33
0.0
 40
0.0
 40
0.0
 40
0.0
 40
0.0
 40
1.0
 40
1.0
 40
1.0
 40
2.0
 40
2.0
 40
2.0
 40
3.0
 40
3.0
 40
3.0
 40
4.0
 40
4.0
 40
4.0
 40
5.0
 40
5.0
 40
5.0
 40
6.0
 40
6.0
 40
6.0
 40
7.0
 40
7.0
 40
7.0
 40
8.0
 40
8.0
 40
8.0
 40
8.0
 10
-367.4543520820976
 20
-90.00682859345444
 30
0.0
 10
-398.9235663399913
 20
-89.79498322976923
 30
0.0
 10
-430.392392538123
 20
-89.54055712436224
 30
0.0
 10
-461.8610423454246
 20
-89.2587904433014
 30
0.0
 10
-470.3889383156324
 20
-89.18244850040914
 30
0.0
 10
-476.8499220438284
 20
-89.3650482676769
 30
0.0
 10
-484.419839520943
 20
-83.94872147696867
 30
0.0
 10
-490.8390539051713
 20
-79.3557164344482
 30
0.0
 10
-495.3241783278536
 20
-72.26081941063255
 30
0.0
 10
-496.5201785809481
 20
-64.41760201136097
 30
0.0
 10
-497.1192017742002
 20
-60.48930810000331
 30
0.0
 10
-496.9331447470367
 20
-56.58764920106156
 30
0.0
 10
-496.933426972339
 20
-52.66179046656093
 30
0.0
 10
-496.9337091976283
 20
-48.7135644933346
 30
0.0
 10
-496.9335680849773
 20
-44.76533852009672
 30
0.0
 10
-496.9333916941732
 20
-40.81711254685755
 30
0.0
 10
-496.9330036343856
 20
-32.95209344207006
 30
0.0
 10
-496.933215303356
 20
-25.08710961544831
 30
0.0
 10
-496.933215303356
 20
-17.22209051064734
 30
0.0
 10
-496.9332505815221
 20
14.24878102584361
 30
0.0
 10
-496.9333916941732
 20
45.71965256234675
 30
0.0
 10
-496.933426972339
 20
77.1905240988377
 30
0.0
 10
-496.9334622504919
 20
108.67268464694
 30
0.0
 10
-496.933426972339
 20
140.1548804732087
 30
0.0
 10
-496.9333564160071
 20
171.6370762994768
 30
0.0
  0
ENDBLK
  5
A6
330
A3
100
AcDbEntity
  8
0
100
AcDbBlockEnd
  0
BLOCK
  5
AA
330
A8
100
AcDbEntity
  8
0
100
AcDbBlockBegin
  2
block 21
 70
     0
 10
0.0
 20
0.0
 30
0.0
  3
block 21
  1

  0
SPLINE
  5
AC
330
A8
100
AcDbEntity
  8
0
 62
   250
370
    25
100
AcDbSpline
210
0.0
220
0.0
230
1.0
 70
     8
 71
     3
 72
     8
 73
     4
 74
     0
 42
0.0000000001
 43
0.0000000001
 12
1.0
 22
0.0
 32
0.0
 13
1.0
 23
0.0
 33
0.0
 40
0.0
 40
0.0
 40
0.0
 40
0.0
 40
1.0
 40
1.0
 40
1.0
 40
1.0
 10
-496.9333564160071
 20
171.6370762994768
 30
0.0
 10
-496.933215303356
 20
239.8580903698778
 30
0.0
 10
-496.9343794827182
 20
317.7183431711978
 30
0.0
 10
-496.9339208665988
 20
385.9393942431673
 30
0.0
  0
ENDBLK
  5
AB
330
A8
100
AcDbEntity
  8
0
100
AcDbBlockEnd
  0
BLOCK
  5
AF
330
AD
100
AcDbEntity
  8
0
100
AcDbBlockBegin
  2
block 22
 70
     0
 10
0.0
 20
0.0
 30
0.0
  3
block 22
  1

  0
SPLINE
  5
B1
330
AD
100
AcDbEntity
  8
0
 62
   250
370
    25
100
AcDbSpline
210
0.0
220
0.0
230
1.0
 70
     8
 71
     3
 72
     8
 73
     4
 74
     0
 42
0.0000000001
 43
0.0000000001
 12
1.0
 22
0.0
 32
0.0
 13
1.0
 23
0.0
 33
0.0
 40
0.0
 40
0.0
 40
0.0
 40
0.0
 40
1.0
 40
1.0
 40
1.0
 40
1.0
 10
105.1248171247533
 20
-91.60055484659465
 30
0.0
 10
-52.40427726996192
 20
-91.60154263514637
 30
0.0
 10
-209.9288560599165
 20
-91.06919516833689
 30
0.0
 10
-367.4543520820976
 20
-90.00682859345444
 30
0.0
  0
ENDBLK
  5
B0
330
AD
100
AcDbEntity
  8
0
100
AcDbBlockEnd
  0
BLOCK
  5
B4
330
B2
100
AcDbEntity
  8
0
100
AcDbBlockBegin
  2
block 23
 70
     0
 10
0.0
 20
0.0
 30
0.0
  3
block 23
  1

  0
SPLINE
  5
B6
330
B2
100
AcDbEntity
  8
0
 62
   250
370
    25
100
AcDbSpline
210
0.0
220
0.0
230
1.0
 70
     8
 71
     3
 72
    26
 73
    22
 74
     0
 42
0.0000000001
 43
0.0000000001
 12
1.0
 22
0.0
 32
0.0
 13
1.0
 23
0.0
 33
0.0
 40
0.0
 40
0.0
 40
0.0
 40
0.0
 40
1.0
 40
1.0
 40
1.0
 40
2.0
 40
2.0
 40
2.0
 40
3.0
 40
3.0
 40
3.0
 40
4.0
 40
4.0
 40
4.0
 40
5.0
 40
5.0
 40
5.0
 40
6.0
 40
6.0
 40
6.0
 40
7.0
 40
7.0
 40
7.0
 40
7.0
 10
707.182955387373
 20
171.6370762994768
 30
0.0
 10
707.1830965000111
 20
108.6845028309581
 30
0.0
 10
707.182884831041
 20
45.73192936246559
 30
0.0
 10
707.1828142747222
 20
-17.22064410605255
 30
0.0
 10
707.1828142747222
 20
-25.07642033258084
 30
0.0
 10
707.1826026057387
 20
-32.93216128096263
 30
0.0
 10
707.1829906655266
 20
-40.78793750751017
 30
0.0
 10
707.1831670563438
 20
-44.76001151774265
 30
0.0
 10
707.1833081689946
 20
-48.73205024982862
 30
0.0
 10
707.1830259436923
 20
-52.70412426006752
 30
0.0
 10
707.1827437183895
 20
-56.61583645261442
 30
0.0
 10
707.3667898903097
 20
-60.5034193648623
 30
0.0
 10
706.7697422741355
 20
-64.41746089871594
 30
0.0
 10
705.5739184118578
 20
-72.25722103809208
 30
0.0
 10
701.0793041635488
 20
-79.37180327639267
 30
0.0
 10
694.6565266849522
 20
-83.95799963362592
 30
0.0
 10
687.0901017458933
 20
-89.36081488822549
 30
0.0
 10
680.6530718897862
 20
-89.18230738776413
 30
0.0
 10
672.1305382002199
 20
-89.25861405249063
 30
0.0
 10
640.6552560984414
 20
-89.54041601171721
 30
0.0
 10
609.1797976058336
 20
-89.79494795160348
 30
0.0
 10
577.7039510534507
 20
-90.00682859345444
 30
0.0
  0
ENDBLK
  5
B5
330
B2
100
AcDbEntity
  8
0
100
AcDbBlockEnd
  0
BLOCK
  5
B9
330
B7
100
AcDbEntity
  8
0
100
AcDbBlockBegin
  2
block 24
 70
     0
 10
0.0
 20
0.0
 30
0.0
  3
block 24
  1

  0
SPLINE
  5
BB
330
B7
100
AcDbEntity
  8
0
 62
   250
370
    25
100
AcDbSpline
210
0.0
220
0.0
230
1.0
 70
     8
 71
     3
 72
     8
 73
     4
 74
     0
 42
0.0000000001
 43
0.0000000001
 12
1.0
 22
0.0
 32
0.0
 13
1.0
 23
0.0
 33
0.0
 40
0.0
 40
0.0
 40
0.0
 40
0.0
 40
1.0
 40
1.0
 40
1.0
 40
1.0
 10
707.1792511803411
 20
385.9393942431673
 30
0.0
 10
707.1797097964477
 20
317.7183431711978
 30
0.0
 10
707.1828142747222
 20
239.8581256480372
 30
0.0
 10
707.182955387373
 20
171.6370762994768
 30
0.0
  0
ENDBLK
  5
BA
330
B7
100
AcDbEntity
  8
0
100
AcDbBlockEnd
  0
BLOCK
  5
BE
330
BC
100
AcDbEntity
  8
0
100
AcDbBlockBegin
  2
block 25
 70
     0
 10
0.0
 20
0.0
 30
0.0
  3
block 25
  1

  0
SPLINE
  5
C0
330
BC
100
AcDbEntity
  8
0
 62
   250
370
    25
100
AcDbSpline
210
0.0
220
0.0
230
1.0
 70
     8
 71
     3
 72
     8
 73
     4
 74
     0
 42
0.0000000001
 43
0.0000000001
 12
1.0
 22
0.0
 32
0.0
 13
1.0
 23
0.0
 33
0.0
 40
0.0
 40
0.0
 40
0.0
 40
0.0
 40
1.0
 40
1.0
 40
1.0
 40
1.0
 10
577.7039510534507
 20
-90.00682859345444
 30
0.0
 10
420.1784550312824
 20
-91.0699007315928
 30
0.0
 10
262.653876241315
 20
-91.60048429027535
 30
0.0
 10
105.1248171247533
 20
-91.60055484659465
 30
0.0
  0
ENDBLK
  5
BF
330
BC
100
AcDbEntity
  8
0
100
AcDbBlockEnd
  0
BLOCK
  5
C3
330
C1
100
AcDbEntity
  8
0
100
AcDbBlockBegin
  2
block 26
 70
     0
 10
0.0
 20
0.0
 30
0.0
  3
block 26
  1

  0
SPLINE
  5
C5
330
C1
100
AcDbEntity
  8
0
 62
   250
370
    25
100
AcDbSpline
210
0.0
220
0.0
230
1.0
 70
     8
 71
     3
 72
    17
 73
    13
 74
     0
 42
0.0000000001
 43
0.0000000001
 12
1.0
 22
0.0
 32
0.0
 13
1.0
 23
0.0
 33
0.0
 40
0.0
 40
0.0
 40
0.0
 40
0.0
 40
1.0
 40
1.0
 40
1.0
 40
2.0
 40
2.0
 40
2.0
 40
3.0
 40
3.0
 40
3.0
 40
4.0
 40
4.0
 40
4.0
 40
4.0
 10
105.1248171247533
 20
-61.34893107702519
 30
0.0
 10
122.9413120755483
 20
-61.34900163335155
 30
0.0
 10
140.7578070263432
 20
-61.34325129292894
 30
0.0
 10
158.5742666989846
 20
-61.33185644655593
 30
0.0
 10
176.3133613620348
 20
-61.32049687834226
 30
0.0
 10
194.0524560250723
 20
-61.30356336051097
 30
0.0
 10
211.7915506881225
 20
-61.28109117122075
 30
0.0
 10
248.3802965585849
 20
-61.23477094432632
 30
0.0
 10
284.9690424290602
 20
-61.16495546142484
 30
0.0
 10
321.5577177432033
 20
-61.07344390882697
 30
0.0
 10
397.2855031038941
 20
-60.88403545625852
 30
0.0
 10
473.0130415174356
 20
-60.60163376828159
 30
0.0
 10
548.7402271493684
 20
-60.24239624313817
 30
0.0
  0
ENDBLK
  5
C4
330
C1
100
AcDbEntity
  8
0
100
AcDbBlockEnd
  0
BLOCK
  5
C8
330
C6
100
AcDbEntity
  8
0
100
AcDbBlockBegin
  2
block 27
 70
     0
 10
0.0
 20
0.0
 30
0.0
  3
block 27
  1

  0
SPLINE
  5
CA
330
C6
100
AcDbEntity
  8
0
 62
   250
370
    25
100
AcDbSpline
210
0.0
220
0.0
230
1.0
 70
     8
 71
     3
 72
     8
 73
     4
 74
     0
 42
0.0000000001
 43
0.0000000001
 12
1.0
 22
0.0
 32
0.0
 13
1.0
 23
0.0
 33
0.0
 40
0.0
 40
0.0
 40
0.0
 40
0.0
 40
1.0
 40
1.0
 40
1.0
 40
1.0
 10
105.1248171247533
 20
-77.99761302628582
 30
0.0
 10
258.0509227570548
 20
-77.99771886076445
 30
0.0
 10
424.6893677904873
 20
-77.4058218562676
 30
0.0
 10
577.6122278318763
 20
-76.40420427660783
 30
0.0
  0
ENDBLK
  5
C9
330
C6
100
AcDbEntity
  8
0
100
AcDbBlockEnd
  0
BLOCK
  5
CD
330
CB
100
AcDbEntity
  8
0
100
AcDbBlockBegin
  2
block 28
 70
     0
 10
0.0
 20
0.0
 30
0.0
  3
block 28
  1

  0
POLYLINE
  5
CF
330
CB
100
AcDbEntity
  8
0
 62
   250
370
    25
100
AcDb2dPolyline
 66
     1
 10
0.0
 20
0.0
 30
0.0
  0
VERTEX
  5
D0
330
CF
100
AcDbEntity
  8
0
 62
   250
370
    25
100
AcDbVertex
100
AcDb2dVertex
 10
139.0778256667554
 20
190.1674596713559
 30
0.0
  0
VERTEX
  5
273
330
CF
100
AcDbEntity
  8
0
100
AcDbVertex
100
AcDb2dVertex
 10
139.0778256667554
 20
190.1674596713559
 30
0.0
  0
SEQEND
  5
D1
330
CF
100
AcDbEntity
  8
0
 62
   250
370
    25
  0
ENDBLK
  5
CE
330
CB
100
AcDbEntity
  8
0
100
AcDbBlockEnd
  0
BLOCK
  5
D4
330
D2
100
AcDbEntity
  8
0
100
AcDbBlockBegin
  2
block 29
 70
     0
 10
0.0
 20
0.0
 30
0.0
  3
block 29
  1

  0
SPLINE
  5
D6
330
D2
100
AcDbEntity
  8
0
 62
   250
370
    25
100
AcDbSpline
210
0.0
220
0.0
230
1.0
 70
     8
 71
     3
 72
     8
 73
     4
 74
     0
 42
0.0000000001
 43
0.0000000001
 12
1.0
 22
0.0
 32
0.0
 13
1.0
 23
0.0
 33
0.0
 40
0.0
 40
0.0
 40
0.0
 40
0.0
 40
1.0
 40
1.0
 40
1.0
 40
1.0
 10
335.1673271361608
 20
252.1377832960137
 30
0.0
 10
352.2074908507583
 20
252.1377832960137
 30
0.0
 10
369.2476898435082
 20
252.1378185741801
 30
0.0
 10
386.2878888362715
 20
252.1378185741801
 30
0.0
  0
ENDBLK
  5
D5
330
D2
100
AcDbEntity
  8
0
100
AcDbBlockEnd
  0
BLOCK
  5
D9
330
D7
100
AcDbEntity
  8
0
100
AcDbBlockBegin
  2
block 30
 70
     0
 10
0.0
 20
0.0
 30
0.0
  3
block 30
  1

  0
POLYLINE
  5
DB
330
D7
100
AcDbEntity
  8
0
 62
   250
370
    25
100
AcDb2dPolyline
 66
     1
 10
0.0
 20
0.0
 30
0.0
  0
VERTEX
  5
DC
330
DB
100
AcDbEntity
  8
0
 62
   250
370
    25
100
AcDbVertex
100
AcDb2dVertex
 10
386.2878888362715
 20
252.1378185741801
 30
0.0
  0
VERTEX
  5
DD
330
DB
100
AcDbEntity
  8
0
 62
   250
370
    25
100
AcDbVertex
100
AcDb2dVertex
 10
400.9881578901621
 20
252.1378538523394
 30
0.0
  0
SEQEND
  5
DE
330
DB
100
AcDbEntity
  8
0
 62
   250
370
    25
  0
ENDBLK
  5
DA
330
D7
100
AcDbEntity
  8
0
100
AcDbBlockEnd
  0
BLOCK
  5
E1
330
DF
100
AcDbEntity
  8
0
100
AcDbBlockBegin
  2
block 31
 70
     0
 10
0.0
 20
0.0
 30
0.0
  3
block 31
  1

  0
SPLINE
  5
E3
330
DF
100
AcDbEntity
  8
0
 62
   250
370
    25
100
AcDbSpline
210
0.0
220
0.0
230
1.0
 70
     8
 71
     3
 72
     8
 73
     4
 74
     0
 42
0.0000000001
 43
0.0000000001
 12
1.0
 22
0.0
 32
0.0
 13
1.0
 23
0.0
 33
0.0
 40
0.0
 40
0.0
 40
0.0
 40
0.0
 40
1.0
 40
1.0
 40
1.0
 40
1.0
 10
400.9881578901621
 20
252.1378538523394
 30
0.0
 10
428.243219288818
 20
252.1378538523394
 30
0.0
 10
455.498245409321
 20
252.1378185741801
 30
0.0
 10
482.753271529824
 20
252.1378185741801
 30
0.0
  0
ENDBLK
  5
E2
330
DF
100
AcDbEntity
  8
0
100
AcDbBlockEnd
  0
BLOCK
  5
E6
330
E4
100
AcDbEntity
  8
0
100
AcDbBlockBegin
  2
block 32
 70
     0
 10
0.0
 20
0.0
 30
0.0
  3
block 32
  1

  0
SPLINE
  5
E8
330
E4
100
AcDbEntity
  8
0
 62
   250
370
    25
100
AcDbSpline
210
0.0
220
0.0
230
1.0
 70
     8
 71
     3
 72
     8
 73
     4
 74
     0
 42
0.0000000001
 43
0.0000000001
 12
1.0
 22
0.0
 32
0.0
 13
1.0
 23
0.0
 33
0.0
 40
0.0
 40
0.0
 40
0.0
 40
0.0
 40
1.0
 40
1.0
 40
1.0
 40
1.0
 10
482.753271529824
 20
252.1378185741801
 30
0.0
 10
500.6203553651433
 20
252.1378538523394
 30
0.0
 10
518.4874392004499
 20
252.1378538523394
 30
0.0
 10
536.3545230357693
 20
252.1378538523394
 30
0.0
  0
ENDBLK
  5
E7
330
E4
100
AcDbEntity
  8
0
100
AcDbBlockEnd
  0
BLOCK
  5
EB
330
E9
100
AcDbEntity
  8
0
100
AcDbBlockBegin
  2
block 33
 70
     0
 10
0.0
 20
0.0
 30
0.0
  3
block 33
  1

  0
SPLINE
  5
ED
330
E9
100
AcDbEntity
  8
0
 62
   250
370
    25
100
AcDbSpline
210
0.0
220
0.0
230
1.0
 70
     8
 71
     3
 72
     8
 73
     4
 74
     0
 42
0.0000000001
 43
0.0000000001
 12
1.0
 22
0.0
 32
0.0
 13
1.0
 23
0.0
 33
0.0
 40
0.0
 40
0.0
 40
0.0
 40
0.0
 40
1.0
 40
1.0
 40
1.0
 40
1.0
 10
536.3545230357693
 20
252.1378538523394
 30
0.0
 10
545.5185548258173
 20
252.1378185741801
 30
0.0
 10
554.6825866158525
 20
252.1385594155632
 30
0.0
 10
563.8466184059007
 20
252.1377832960137
 30
0.0
  0
ENDBLK
  5
EC
330
E9
100
AcDbEntity
  8
0
100
AcDbBlockEnd
  0
BLOCK
  5
F0
330
EE
100
AcDbEntity
  8
0
100
AcDbBlockBegin
  2
block 34
 70
     0
 10
0.0
 20
0.0
 30
0.0
  3
block 34
  1

  0
SPLINE
  5
F2
330
EE
100
AcDbEntity
  8
0
 62
   250
370
    25
100
AcDbSpline
210
0.0
220
0.0
230
1.0
 70
     8
 71
     3
 72
    50
 73
    46
 74
     0
 42
0.0000000001
 43
0.0000000001
 12
1.0
 22
0.0
 32
0.0
 13
1.0
 23
0.0
 33
0.0
 40
0.0
 40
0.0
 40
0.0
 40
0.0
 40
1.0
 40
1.0
 40
1.0
 40
2.0
 40
2.0
 40
2.0
 40
3.0
 40
3.0
 40
3.0
 40
4.0
 40
4.0
 40
4.0
 40
5.0
 40
5.0
 40
5.0
 40
6.0
 40
6.0
 40
6.0
 40
7.0
 40
7.0
 40
7.0
 40
8.0
 40
8.0
 40
8.0
 40
9.0
 40
9.0
 40
9.0
 40
10.0
 40
10.0
 40
10.0
 40
11.0
 40
11.0
 40
11.0
 40
12.0
 40
12.0
 40
12.0
 40
13.0
 40
13.0
 40
13.0
 40
14.0
 40
14.0
 40
14.0
 40
15.0
 40
15.0
 40
15.0
 40
15.0
 10
608.5397811881695
 20
-59.94217908326906
 30
0.0
 10
612.767763086964
 20
-59.91840160198479
 30
0.0
 10
616.9957097076056
 20
-59.89938667259002
 30
0.0
 10
621.2236916064007
 20
-59.87172859345664
 30
0.0
 10
622.190277971054
 20
-59.86541380243533
 30
0.0
 10
623.1568290575543
 20
-59.85864039530807
 30
0.0
 10
624.1230626405861
 20
-59.83324011856691
 30
0.0
 10
625.2795513520866
 20
-59.80283034279977
 30
0.0
 10
626.4355814474676
 20
-59.74575027642531
 30
0.0
 10
627.5887187335577
 20
-59.65233370306831
 30
0.0
 10
628.5409468862277
 20
-59.57518036246012
 30
0.0
 10
629.4911994618078
 20
-59.47322647384956
 30
0.0
 10
630.4371481016101
 20
-59.33994557725097
 30
0.0
 10
632.8583236478979
 20
-58.99880574930904
 30
0.0
 10
635.2513472207987
 20
-58.45231173948637
 30
0.0
 10
637.5774128419476
 20
-57.69929936847244
 30
0.0
 10
639.8487973117657
 20
-56.96396135667424
 30
0.0
 10
642.0563283080943
 20
-56.03166626417564
 30
0.0
 10
644.1750641702923
 20
-54.93049373873455
 30
0.0
 10
646.6723699905031
 20
-53.63257490799339
 30
0.0
 10
649.0463080776769
 20
-52.1000563048891
 30
0.0
 10
651.2638227939052
 20
-50.36666385160823
 30
0.0
 10
653.6086916754659
 20
-48.53371642724384
 30
0.0
 10
655.778686707278
 20
-46.47615295018626
 30
0.0
 10
657.7107305354012
 20
-44.21193000447798
 30
0.0
 10
659.4585518007999
 20
-42.16357412750167
 30
0.0
 10
661.0116376111496
 20
-39.94613002362522
 30
0.0
 10
662.283097853077
 20
-37.57314450676625
 30
0.0
 10
663.4686204920121
 20
-35.3606040673101
 30
0.0
 10
664.4093126856583
 20
-33.01284243575201
 30
0.0
 10
665.0347239441904
 20
-30.58210656893514
 30
0.0
 10
665.4069791111689
 20
-29.13527861951851
 30
0.0
 10
665.6675436167865
 20
-27.65906396177798
 30
0.0
 10
665.8302817787655
 20
-26.17392392923917
 30
0.0
 10
666.0178910450663
 20
-24.46208643247643
 30
0.0
 10
666.0755355620081
 20
-22.73839547352927
 30
0.0
 10
666.0861542888186
 20
-21.0161156410426
 30
0.0
 10
666.0892940452461
 20
-20.5088509603531
 30
0.0
 10
666.0883768130323
 20
-20.00172739230092
 30
0.0
 10
666.087988753245
 20
-19.49453326793586
 30
0.0
 10
666.0877418061085
 20
-19.15212343478942
 30
0.0
 10
666.0877418061085
 20
-18.80967832347659
 30
0.0
 10
666.0877418061085
 20
-18.46726849032373
 30
0.0
 10
666.0878123624407
 20
44.90084643960807
 30
0.0
 10
666.0878123624407
 20
108.2689613695392
 30
0.0
 10
666.0877770842749
 20
171.6370410213111
 30
0.0
  0
ENDBLK
  5
F1
330
EE
100
AcDbEntity
  8
0
100
AcDbBlockEnd
  0
BLOCK
  5
F5
330
F3
100
AcDbEntity
  8
0
100
AcDbBlockBegin
  2
block 35
 70
     0
 10
0.0
 20
0.0
 30
0.0
  3
block 35
  1

  0
SPLINE
  5
F7
330
F3
100
AcDbEntity
  8
0
 62
   250
370
    25
100
AcDbSpline
210
0.0
220
0.0
230
1.0
 70
     8
 71
     3
 72
     8
 73
     4
 74
     0
 42
0.0000000001
 43
0.0000000001
 12
1.0
 22
0.0
 32
0.0
 13
1.0
 23
0.0
 33
0.0
 40
0.0
 40
0.0
 40
0.0
 40
0.0
 40
1.0
 40
1.0
 40
1.0
 40
1.0
 10
686.3594557296717
 20
-87.98725964504241
 30
0.0
 10
686.7517841709097
 20
-87.87433424800545
 30
0.0
 10
687.1410081338729
 20
-87.75258931045121
 30
0.0
 10
687.5277979036518
 20
-87.62184844152334
 30
0.0
  0
ENDBLK
  5
F6
330
F3
100
AcDbEntity
  8
0
100
AcDbBlockEnd
  0
BLOCK
  5
FA
330
F8
100
AcDbEntity
  8
0
100
AcDbBlockBegin
  2
block 36
 70
     0
 10
0.0
 20
0.0
 30
0.0
  3
block 36
  1

  0
SPLINE
  5
FC
330
F8
100
AcDbEntity
  8
0
 62
   250
370
    25
100
AcDbSpline
210
0.0
220
0.0
230
1.0
 70
     8
 71
     3
 72
     8
 73
     4
 74
     0
 42
0.0000000001
 43
0.0000000001
 12
1.0
 22
0.0
 32
0.0
 13
1.0
 23
0.0
 33
0.0
 40
0.0
 40
0.0
 40
0.0
 40
0.0
 40
1.0
 40
1.0
 40
1.0
 40
1.0
 10
693.0958560697477
 20
369.118307915503
 30
0.0
 10
693.6041085518043
 20
367.5839195310926
 30
0.0
 10
693.5856227948354
 20
366.0684049634322
 30
0.0
 10
693.5856227948354
 20
364.5046298699596
 30
0.0
  0
ENDBLK
  5
FB
330
F8
100
AcDbEntity
  8
0
100
AcDbBlockEnd
  0
BLOCK
  5
FF
330
FD
100
AcDbEntity
  8
0
100
AcDbBlockBegin
  2
block 37
 70
     0
 10
0.0
 20
0.0
 30
0.0
  3
block 37
  1

  0
SPLINE
  5
101
330
FD
100
AcDbEntity
  8
0
 62
   250
370
    25
100
AcDbSpline
210
0.0
220
0.0
230
1.0
 70
     8
 71
     3
 72
     8
 73
     4
 74
     0
 42
0.0000000001
 43
0.0000000001
 12
1.0
 22
0.0
 32
0.0
 13
1.0
 23
0.0
 33
0.0
 40
0.0
 40
0.0
 40
0.0
 40
0.0
 40
1.0
 40
1.0
 40
1.0
 40
1.0
 10
687.2013337911477
 20
372.1651769456313
 30
0.0
 10
689.3927779455389
 20
371.9748865390097
 30
0.0
 10
691.7245233507853
 20
370.9457519928606
 30
0.0
 10
693.0958560697477
 20
369.118307915503
 30
0.0
  0
ENDBLK
  5
100
330
FD
100
AcDbEntity
  8
0
100
AcDbBlockEnd
  0
BLOCK
  5
104
330
102
100
AcDbEntity
  8
0
100
AcDbBlockBegin
  2
block 38
 70
     0
 10
0.0
 20
0.0
 30
0.0
  3
block 38
  1

  0
POLYLINE
  5
106
330
102
100
AcDbEntity
  8
0
 62
   250
370
    25
100
AcDb2dPolyline
 66
     1
 10
0.0
 20
0.0
 30
0.0
  0
VERTEX
  5
107
330
106
100
AcDbEntity
  8
0
 62
   250
370
    25
100
AcDbVertex
100
AcDb2dVertex
 10
-476.9517348197814
 20
372.1650005548206
 30
0.0
  0
VERTEX
  5
108
330
106
100
AcDbEntity
  8
0
 62
   250
370
    25
100
AcDbVertex
100
AcDb2dVertex
 10
687.2013337911477
 20
372.1651769456313
 30
0.0
  0
SEQEND
  5
109
330
106
100
AcDbEntity
  8
0
 62
   250
370
    25
  0
ENDBLK
  5
105
330
102
100
AcDbEntity
  8
0
100
AcDbBlockEnd
  0
BLOCK
  5
10C
330
10A
100
AcDbEntity
  8
0
100
AcDbBlockBegin
  2
block 39
 70
     0
 10
0.0
 20
0.0
 30
0.0
  3
block 39
  1

  0
POLYLINE
  5
10E
330
10A
100
AcDbEntity
  8
0
 62
   250
370
    25
100
AcDb2dPolyline
 66
     1
 10
0.0
 20
0.0
 30
0.0
  0
VERTEX
  5
10F
330
10E
100
AcDbEntity
  8
0
 62
   250
370
    25
100
AcDbVertex
100
AcDb2dVertex
 10
666.0877770842749
 20
171.6370410213111
 30
0.0
  0
VERTEX
  5
110
330
10E
100
AcDbEntity
  8
0
 62
   250
370
    25
100
AcDbVertex
100
AcDb2dVertex
 10
666.0877418061085
 20
216.6375460153947
 30
0.0
  0
SEQEND
  5
111
330
10E
100
AcDbEntity
  8
0
 62
   250
370
    25
  0
ENDBLK
  5
10D
330
10A
100
AcDbEntity
  8
0
100
AcDbBlockEnd
  0
BLOCK
  5
114
330
112
100
AcDbEntity
  8
0
100
AcDbBlockBegin
  2
block 40
 70
     0
 10
0.0
 20
0.0
 30
0.0
  3
block 40
  1

  0
SPLINE
  5
116
330
112
100
AcDbEntity
  8
0
 62
   250
370
    25
100
AcDbSpline
210
0.0
220
0.0
230
1.0
 70
     8
 71
     3
 72
    17
 73
    13
 74
     0
 42
0.0000000001
 43
0.0000000001
 12
1.0
 22
0.0
 32
0.0
 13
1.0
 23
0.0
 33
0.0
 40
0.0
 40
0.0
 40
0.0
 40
0.0
 40
1.0
 40
1.0
 40
1.0
 40
2.0
 40
2.0
 40
2.0
 40
3.0
 40
3.0
 40
3.0
 40
4.0
 40
4.0
 40
4.0
 40
4.0
 10
631.9873411026554
 20
216.6375107372353
 30
0.0
 10
631.9871999900173
 20
216.2286368482855
 30
0.0
 10
631.9928444959613
 20
215.8196924030093
 30
0.0
 10
631.9943967350855
 20
215.410783235893
 30
0.0
 10
631.9963017558439
 20
214.9107858564228
 30
0.0
 10
631.9921036545519
 20
214.4108237551125
 30
0.0
 10
631.9879408314262
 20
213.9108969319558
 30
0.0
 10
631.9254279280907
 20
206.394073278762
 30
0.0
 10
631.8734631952593
 20
198.8771085129173
 30
0.0
 10
631.8421361872655
 20
191.360108468912
 30
0.0
 10
631.8147250552744
 20
184.7857761718179
 30
0.0
 10
631.8031185399313
 20
178.2114085965645
 30
0.0
 10
631.802448254854
 20
171.6370410213111
 30
0.0
  0
ENDBLK
  5
115
330
112
100
AcDbEntity
  8
0
100
AcDbBlockEnd
  0
BLOCK
  5
119
330
117
100
AcDbEntity
  8
0
100
AcDbBlockBegin
  2
block 41
 70
     0
 10
0.0
 20
0.0
 30
0.0
  3
block 41
  1

  0
SPLINE
  5
11B
330
117
100
AcDbEntity
  8
0
 62
   250
370
    25
100
AcDbSpline
210
0.0
220
0.0
230
1.0
 70
     8
 71
     3
 72
    29
 73
    25
 74
     0
 42
0.0000000001
 43
0.0000000001
 12
1.0
 22
0.0
 32
0.0
 13
1.0
 23
0.0
 33
0.0
 40
0.0
 40
0.0
 40
0.0
 40
0.0
 40
1.0
 40
1.0
 40
1.0
 40
2.0
 40
2.0
 40
2.0
 40
3.0
 40
3.0
 40
3.0
 40
4.0
 40
4.0
 40
4.0
 40
5.0
 40
5.0
 40
5.0
 40
6.0
 40
6.0
 40
6.0
 40
7.0
 40
7.0
 40
7.0
 40
8.0
 40
8.0
 40
8.0
 40
8.0
 10
105.1248171247533
 20
210.8054309529555
 30
0.0
 10
106.4806627305491
 20
210.8035964885606
 30
0.0
 10
107.8376372375154
 20
210.7456697477926
 30
0.0
 10
109.1887202914147
 20
210.6266059535495
 30
0.0
 10
110.5558901872514
 20
210.5061663110245
 30
0.0
 10
111.9170275173561
 20
210.3231432104297
 30
0.0
 10
113.2676872333017
 20
210.0789125000529
 30
0.0
 10
115.8448275344415
 20
209.6129232680374
 30
0.0
 10
118.383973254958
 20
208.9240466132001
 30
0.0
 10
120.8239167835042
 20
207.9735823926496
 30
0.0
 10
123.0341641983322
 20
207.1125483108881
 30
0.0
 10
125.163024893068
 20
206.0368818960443
 30
0.0
 10
127.1592044199837
 20
204.7560024171832
 30
0.0
 10
129.288382618188
 20
203.3898203444024
 30
0.0
 10
131.2666408387136
 20
201.7902026785908
 30
0.0
 10
133.0680496324134
 20
200.0128183582121
 30
0.0
 10
136.8126854316386
 20
196.3181718080826
 30
0.0
 10
139.793090404282
 20
191.8554491310991
 30
0.0
 10
141.7860596184381
 20
186.9882270571589
 30
0.0
 10
142.7365944193204
 20
184.6668182120663
 30
0.0
 10
143.4625131618112
 20
182.253403922413
 30
0.0
 10
143.9607466458152
 20
179.7946571955542
 30
0.0
 10
144.5061117544347
 20
177.1034626641758
 30
0.0
 10
144.7787413915147
 20
174.3579750426221
 30
0.0
 10
144.7758838603767
 20
171.6117818578502
 30
0.0
  0
ENDBLK
  5
11A
330
117
100
AcDbEntity
  8
0
100
AcDbBlockEnd
  0
BLOCK
  5
11E
330
11C
100
AcDbEntity
  8
0
100
AcDbBlockBegin
  2
block 42
 70
     0
 10
0.0
 20
0.0
 30
0.0
  3
block 42
  1

  0
POLYLINE
  5
120
330
11C
100
AcDbEntity
  8
0
 62
   250
370
    25
100
AcDb2dPolyline
 66
     1
 10
0.0
 20
0.0
 30
0.0
  0
VERTEX
  5
121
330
120
100
AcDbEntity
  8
0
 62
   250
370
    25
100
AcDbVertex
100
AcDb2dVertex
 10
117.3429499681703
 20
252.1376774615351
 30
0.0
  0
VERTEX
  5
122
330
120
100
AcDbEntity
  8
0
 62
   250
370
    25
100
AcDbVertex
100
AcDb2dVertex
 10
335.1673271361608
 20
252.1377832960137
 30
0.0
  0
SEQEND
  5
123
330
120
100
AcDbEntity
  8
0
 62
   250
370
    25
  0
ENDBLK
  5
11F
330
11C
100
AcDbEntity
  8
0
100
AcDbBlockEnd
  0
BLOCK
  5
126
330
124
100
AcDbEntity
  8
0
100
AcDbBlockBegin
  2
block 43
 70
     0
 10
0.0
 20
0.0
 30
0.0
  3
block 43
  1

  0
SPLINE
  5
128
330
124
100
AcDbEntity
  8
0
 62
   250
370
    25
100
AcDbSpline
210
0.0
220
0.0
230
1.0
 70
     8
 71
     3
 72
    35
 73
    31
 74
     0
 42
0.0000000001
 43
0.0000000001
 12
1.0
 22
0.0
 32
0.0
 13
1.0
 23
0.0
 33
0.0
 40
0.0
 40
0.0
 40
0.0
 40
0.0
 40
1.0
 40
1.0
 40
1.0
 40
2.0
 40
2.0
 40
2.0
 40
3.0
 40
3.0
 40
3.0
 40
4.0
 40
4.0
 40
4.0
 40
5.0
 40
5.0
 40
5.0
 40
6.0
 40
6.0
 40
6.0
 40
7.0
 40
7.0
 40
7.0
 40
8.0
 40
8.0
 40
8.0
 40
9.0
 40
9.0
 40
9.0
 40
10.0
 40
10.0
 40
10.0
 40
10.0
 10
661.9286581579895
 20
267.5684953807132
 30
0.0
 10
661.2970026647561
 20
268.3533286539926
 30
0.0
 10
660.61168908689
 20
269.0953342384215
 30
0.0
 10
659.8839711581257
 20
269.7923954442815
 30
0.0
 10
659.0704214608542
 20
270.5717253242555
 30
0.0
 10
658.2039192422193
 20
271.2948923701068
 30
0.0
 10
657.2933193208844
 20
271.9581923747886
 30
0.0
 10
655.6116798876747
 20
273.1831912771714
 30
0.0
 10
653.7797202055563
 20
274.2040001770432
 30
0.0
 10
651.8447482899635
 20
274.9682310036443
 30
0.0
 10
650.9558797165229
 20
275.3192487169945
 30
0.0
 10
650.0452797951885
 20
275.616149729626
 30
0.0
 10
649.1196513767809
 20
275.8539598206505
 30
0.0
 10
648.1773363876785
 20
276.0960738474655
 30
0.0
 10
647.2193931727573
 20
276.276909706632
 30
0.0
 10
646.2543237690625
 20
276.3997835453901
 30
0.0
 10
645.330706205899
 20
276.517365659825
 30
0.0
 10
644.4005269045778
 20
276.5818541402255
 30
0.0
 10
643.4698537089847
 20
276.6118052998925
 30
0.0
 10
643.0047111410815
 20
276.6267632406331
 30
0.0
 10
642.5394274605276
 20
276.6331133098272
 30
0.0
 10
642.0740026673222
 20
276.6360413972839
 30
0.0
 10
641.8333703233254
 20
276.6375230800951
 30
0.0
 10
641.5927027011624
 20
276.6381228088532
 30
0.0
 10
641.3521056353192
 20
276.6382639214976
 30
0.0
 10
641.2478939443407
 20
276.6382991996639
 30
0.0
 10
641.1436822533501
 20
276.6382991996639
 30
0.0
 10
641.0394705623723
 20
276.6382639214976
 30
0.0
 10
640.2877634833467
 20
276.6380875306868
 30
0.0
 10
639.5359505698489
 20
276.6381933651725
 30
0.0
 10
638.7842082126574
 20
276.6381228088532
 30
0.0
  0
ENDBLK
  5
127
330
124
100
AcDbEntity
  8
0
100
AcDbBlockEnd
  0
BLOCK
  5
12B
330
129
100
AcDbEntity
  8
0
100
AcDbBlockBegin
  2
block 44
 70
     0
 10
0.0
 20
0.0
 30
0.0
  3
block 44
  1

  0
SPLINE
  5
12D
330
129
100
AcDbEntity
  8
0
 62
   250
370
    25
100
AcDbSpline
210
0.0
220
0.0
230
1.0
 70
     8
 71
     3
 72
    29
 73
    25
 74
     0
 42
0.0000000001
 43
0.0000000001
 12
1.0
 22
0.0
 32
0.0
 13
1.0
 23
0.0
 33
0.0
 40
0.0
 40
0.0
 40
0.0
 40
0.0
 40
1.0
 40
1.0
 40
1.0
 40
2.0
 40
2.0
 40
2.0
 40
3.0
 40
3.0
 40
3.0
 40
4.0
 40
4.0
 40
4.0
 40
5.0
 40
5.0
 40
5.0
 40
6.0
 40
6.0
 40
6.0
 40
7.0
 40
7.0
 40
7.0
 40
8.0
 40
8.0
 40
8.0
 40
8.0
 10
666.0877418061085
 20
216.6375460153947
 30
0.0
 10
666.0870009647125
 20
229.4517383627215
 30
0.0
 10
666.0888707073053
 20
242.265930710047
 30
0.0
 10
666.087247911849
 20
255.0801230573609
 30
0.0
 10
666.0872126336826
 20
255.2875586455548
 30
0.0
 10
666.0871773555169
 20
255.4950295119015
 30
0.0
 10
666.0847078841667
 20
255.7024651000755
 30
0.0
 10
666.0818503530415
 20
255.9394990655575
 30
0.0
 10
666.0758177873103
 20
256.1764977528732
 30
0.0
 10
666.0681624261227
 20
256.4134258838638
 30
0.0
 10
666.0624120856937
 20
256.5911572602715
 30
0.0
 10
666.0557445130509
 20
256.7688533585122
 30
0.0
 10
666.047101363318
 20
256.9464083441092
 30
0.0
 10
666.0370118089462
 20
257.1533500380365
 30
0.0
 10
666.0242763924191
 20
257.3601858974787
 30
0.0
 10
666.0084012194396
 20
257.5667748097851
 30
0.0
 10
665.9371393319112
 20
258.4933909933282
 30
0.0
 10
665.8028353686216
 20
259.4157032411905
 30
0.0
 10
665.5891202623301
 20
260.3199530705003
 30
0.0
 10
665.3962192717197
 20
261.1361838874615
 30
0.0
 10
665.1386181317124
 20
261.9377126423111
 30
0.0
 10
664.8237252563985
 20
262.7151022233802
 30
0.0
 10
664.1139991903301
 20
264.4673685372074
 30
0.0
 10
663.1132635647114
 20
266.0971843502245
 30
0.0
 10
661.9286581579895
 20
267.5684953807132
 30
0.0
  0
ENDBLK
  5
12C
330
129
100
AcDbEntity
  8
0
100
AcDbBlockEnd
  0
BLOCK
  5
130
330
12E
100
AcDbEntity
  8
0
100
AcDbBlockBegin
  2
block 45
 70
     0
 10
0.0
 20
0.0
 30
0.0
  3
block 45
  1

  0
SPLINE
  5
132
330
12E
100
AcDbEntity
  8
0
 62
   250
370
    25
100
AcDbSpline
210
0.0
220
0.0
230
1.0
 70
     8
 71
     3
 72
     8
 73
     4
 74
     0
 42
0.0000000001
 43
0.0000000001
 12
1.0
 22
0.0
 32
0.0
 13
1.0
 23
0.0
 33
0.0
 40
0.0
 40
0.0
 40
0.0
 40
0.0
 40
1.0
 40
1.0
 40
1.0
 40
1.0
 10
548.7402271493684
 20
-60.24239624313817
 30
0.0
 10
568.6734118289771
 20
-60.14774493409423
 30
0.0
 10
588.6066317867394
 20
-60.04766078808859
 30
0.0
 10
608.5397811881695
 20
-59.94217908326906
 30
0.0
  0
ENDBLK
  5
131
330
12E
100
AcDbEntity
  8
0
100
AcDbBlockEnd
  0
BLOCK
  5
135
330
133
100
AcDbEntity
  8
0
100
AcDbBlockBegin
  2
block 46
 70
     0
 10
0.0
 20
0.0
 30
0.0
  3
block 46
  1

  0
SPLINE
  5
137
330
133
100
AcDbEntity
  8
0
 62
   250
370
    25
100
AcDbSpline
210
0.0
220
0.0
230
1.0
 70
     8
 71
     3
 72
     8
 73
     4
 74
     0
 42
0.0000000001
 43
0.0000000001
 12
1.0
 22
0.0
 32
0.0
 13
1.0
 23
0.0
 33
0.0
 40
0.0
 40
0.0
 40
0.0
 40
0.0
 40
1.0
 40
1.0
 40
1.0
 40
1.0
 10
693.57990773256
 20
171.6370057431517
 30
0.0
 10
693.5796607854235
 20
235.9261981853019
 30
0.0
 10
693.5856933511546
 20
300.2154358037292
 30
0.0
 10
693.5856227948354
 20
364.5046298699596
 30
0.0
  0
ENDBLK
  5
136
330
133
100
AcDbEntity
  8
0
100
AcDbBlockEnd
  0
BLOCK
  5
13A
330
138
100
AcDbEntity
  8
0
100
AcDbBlockBegin
  2
block 47
 70
     0
 10
0.0
 20
0.0
 30
0.0
  3
block 47
  1

  0
SPLINE
  5
13C
330
138
100
AcDbEntity
  8
0
 62
   250
370
    25
100
AcDbSpline
210
0.0
220
0.0
230
1.0
 70
     8
 71
     3
 72
    56
 73
    52
 74
     0
 42
0.0000000001
 43
0.0000000001
 12
1.0
 22
0.0
 32
0.0
 13
1.0
 23
0.0
 33
0.0
 40
0.0
 40
0.0
 40
0.0
 40
0.0
 40
1.0
 40
1.0
 40
1.0
 40
2.0
 40
2.0
 40
2.0
 40
3.0
 40
3.0
 40
3.0
 40
4.0
 40
4.0
 40
4.0
 40
5.0
 40
5.0
 40
5.0
 40
6.0
 40
6.0
 40
6.0
 40
7.0
 40
7.0
 40
7.0
 40
8.0
 40
8.0
 40
8.0
 40
9.0
 40
9.0
 40
9.0
 40
10.0
 40
10.0
 40
10.0
 40
11.0
 40
11.0
 40
11.0
 40
12.0
 40
12.0
 40
12.0
 40
13.0
 40
13.0
 40
13.0
 40
14.0
 40
14.0
 40
14.0
 40
15.0
 40
15.0
 40
15.0
 40
16.0
 40
16.0
 40
16.0
 40
17.0
 40
17.0
 40
17.0
 40
17.0
 10
577.6122278318763
 20
-76.40420427660783
 30
0.0
 10
610.0514504361529
 20
-76.18597356555634
 30
0.0
 10
642.490390815153
 20
-75.92685546459712
 30
0.0
 10
674.9289784125186
 20
-75.63009556461768
 30
0.0
 10
675.4963570943218
 20
-75.62490967478092
 30
0.0
 10
676.0637357761256
 20
-75.61972378493712
 30
0.0
 10
676.6310791797623
 20
-75.60977534322244
 30
0.0
 10
676.9939150774462
 20
-75.60346055219536
 30
0.0
 10
677.3567156969636
 20
-75.59517018408984
 30
0.0
 10
677.7193752038304
 20
-75.58261115836139
 30
0.0
 10
678.2710198253177
 20
-75.56352567264732
 30
0.0
 10
678.8223116651834
 20
-75.53459757967858
 30
0.0
 10
679.372262934895
 20
-75.48697206079073
 30
0.0
 10
680.1126104457006
 20
-75.42287164016473
 30
0.0
 10
680.8504884851695
 20
-75.32490418388191
 30
0.0
 10
681.5777830759802
 20
-75.17239668892552
 30
0.0
 10
682.1716203793948
 20
-75.04786477655252
 30
0.0
 10
682.75840205038
 20
-74.88699635715268
 30
0.0
 10
683.3302963369438
 20
-74.68509943518792
 30
0.0
 10
684.5211107002013
 20
-74.26468957688868
 30
0.0
 10
685.647330748572
 20
-73.6664425032054
 30
0.0
 10
686.6802047799133
 20
-72.9389715215706
 30
0.0
 10
687.8289675738941
 20
-72.12990215090034
 30
0.0
 10
688.862264943175
 20
-71.16102270569998
 30
0.0
 10
689.7654917286118
 20
-70.08387458088829
 30
0.0
 10
690.6679776726519
 20
-69.00757313194545
 30
0.0
 10
691.4405694236638
 20
-67.82324995052583
 30
0.0
 10
692.0411095778876
 20
-66.55471779604224
 30
0.0
 10
692.6010445674733
 20
-65.37194685376022
 30
0.0
 10
693.0114001495729
 20
-64.11593844683996
 30
0.0
 10
693.2468818818986
 20
-62.82860303195157
 30
0.0
 10
693.373001311575
 20
-62.13919718727207
 30
0.0
 10
693.4489551946806
 20
-61.44076013309811
 30
0.0
 10
693.4968629388712
 20
-60.7412294559002
 30
0.0
 10
693.5566947018731
 20
-59.86703659789158
 30
0.0
 10
693.5727462656447
 20
-58.99118566628021
 30
0.0
 10
693.5779674336479
 20
-58.11505250936082
 30
0.0
 10
693.5807191303008
 20
-57.65693029572782
 30
0.0
 10
693.5805074613179
 20
-57.19877280392265
 30
0.0
 10
693.5803663486794
 20
-56.7406153121239
 30
0.0
 10
693.5801546796964
 20
-56.04500140913279
 30
0.0
 10
693.5801194015429
 20
-55.34945718181375
 30
0.0
 10
693.5800841233764
 20
-54.65387767634051
 30
0.0
 10
693.5798018980748
 20
-48.87792544662521
 30
0.0
 10
693.57990773256
 20
-43.10176154793918
 30
0.0
 10
693.5799782888921
 20
-37.32566820556604
 30
0.0
 10
693.5801194015429
 20
-24.09544050255517
 30
0.0
 10
693.5800488452107
 20
-10.86528335586167
 30
0.0
 10
693.5799782888921
 20
2.364873790824124
 30
0.0
 10
693.5797313417555
 20
58.78887073738242
 30
0.0
 10
693.5801194015429
 20
115.2129029621078
 30
0.0
 10
693.57990773256
 20
171.6369351868254
 30
0.0
  0
ENDBLK
  5
13B
330
138
100
AcDbEntity
  8
0
100
AcDbBlockEnd
  0
BLOCK
  5
13F
330
13D
100
AcDbEntity
  8
0
100
AcDbBlockBegin
  2
block 48
 70
     0
 10
0.0
 20
0.0
 30
0.0
  3
block 48
  1

  0
SPLINE
  5
141
330
13D
100
AcDbEntity
  8
0
 62
   250
370
    25
100
AcDbSpline
210
0.0
220
0.0
230
1.0
 70
     8
 71
     3
 72
    59
 73
    55
 74
     0
 42
0.0000000001
 43
0.0000000001
 12
1.0
 22
0.0
 32
0.0
 13
1.0
 23
0.0
 33
0.0
 40
0.0
 40
0.0
 40
0.0
 40
0.0
 40
1.0
 40
1.0
 40
1.0
 40
2.0
 40
2.0
 40
2.0
 40
3.0
 40
3.0
 40
3.0
 40
4.0
 40
4.0
 40
4.0
 40
5.0
 40
5.0
 40
5.0
 40
6.0
 40
6.0
 40
6.0
 40
7.0
 40
7.0
 40
7.0
 40
8.0
 40
8.0
 40
8.0
 40
9.0
 40
9.0
 40
9.0
 40
10.0
 40
10.0
 40
10.0
 40
11.0
 40
11.0
 40
11.0
 40
12.0
 40
12.0
 40
12.0
 40
13.0
 40
13.0
 40
13.0
 40
14.0
 40
14.0
 40
14.0
 40
15.0
 40
15.0
 40
15.0
 40
16.0
 40
16.0
 40
16.0
 40
17.0
 40
17.0
 40
17.0
 40
18.0
 40
18.0
 40
18.0
 40
18.0
 10
539.8539756080713
 20
-21.19098948638286
 30
0.0
 10
549.3464470877013
 20
-20.98694060167597
 30
0.0
 10
558.8386010638762
 20
-20.76758099499189
 30
0.0
 10
568.3304375365825
 20
-20.53523902497157
 30
0.0
 10
571.179431355227
 20
-20.46549410016625
 30
0.0
 10
574.0284251738716
 20
-20.39458499604978
 30
0.0
 10
576.8773131580311
 20
-20.32110058614239
 30
0.0
 10
577.6045371925225
 20
-20.30236788251894
 30
0.0
 10
578.3317612270143
 20
-20.28342350991896
 30
0.0
 10
579.0588441488542
 20
-20.26049270511188
 30
0.0
 10
579.7390423932156
 20
-20.23900830490664
 30
0.0
 10
580.4191348030786
 20
-20.21399608858163
 30
0.0
 10
581.0991566566094
 20
-20.18658495728355
 30
0.0
 10
581.7945597888473
 20
-20.15850354091519
 30
0.0
 10
582.4898570866002
 20
-20.12791737510732
 30
0.0
 10
583.1849074372172
 20
-20.0934506115652
 30
0.0
 10
583.7508044362028
 20
-20.06540447336259
 30
0.0
 10
584.316525044396
 20
-20.03481830756756
 30
0.0
 10
584.8821398180921
 20
-20.00183322678597
 30
0.0
 10
588.2164553133837
 20
-19.80741528010054
 30
0.0
 10
591.5478427212313
 20
-19.52974087286114
 30
0.0
 10
594.8560876546986
 20
-19.06921975583131
 30
0.0
 10
597.5026201007868
 20
-18.70084519600019
 30
0.0
 10
600.1343357187723
 20
-18.21545297529038
 30
0.0
 10
602.7214950179517
 20
-17.54523846775085
 30
0.0
 10
605.6179732428591
 20
-16.79487197784783
 30
0.0
 10
608.4585708589073
 20
-15.81279852481618
 30
0.0
 10
611.1542810630209
 20
-14.51692582742015
 30
0.0
 10
613.5752096621851
 20
-13.35313456576338
 30
0.0
 10
615.8792969883168
 20
-11.9362577752501
 30
0.0
 10
617.9832160224121
 20
-10.26615434326287
 30
0.0
 10
620.080396927546
 20
-8.601413191775565
 30
0.0
 10
621.9786442763382
 20
-6.685068194205113
 30
0.0
 10
623.6290978142063
 20
-4.576104436198286
 30
0.0
 10
625.2360886563116
 20
-2.522633225831588
 30
0.0
 10
626.6081269385298
 20
-0.2865622528109597
 30
0.0
 10
627.7292316533959
 20
2.067443613268809
 30
0.0
 10
629.0505046602726
 20
4.841788770741125
 30
0.0
 10
630.0231941469765
 20
7.779965709065334
 30
0.0
 10
630.6669147716732
 20
10.78503004113958
 30
0.0
 10
630.9946136198585
 20
12.31490278214008
 30
0.0
 10
631.2370804282822
 20
13.86216765664853
 30
0.0
 10
631.4093436940416
 20
15.41698205766051
 30
0.0
 10
631.6186490300709
 20
17.306374540026
 30
0.0
 10
631.7242718475347
 20
19.20698547765147
 30
0.0
 10
631.769145669783
 20
21.10787864059331
 30
0.0
 10
631.8015310226408
 20
22.48058717321086
 30
0.0
 10
631.8022013077182
 20
23.85347209661994
 30
0.0
 10
631.802448254854
 20
25.22639229821465
 30
0.0
 10
631.8026246456584
 20
26.13385244018644
 30
0.0
 10
631.8026246456584
 20
27.04134786031885
 30
0.0
 10
631.8026246456584
 20
27.9488432804641
 30
0.0
 10
631.802236585871
 20
75.84490919408232
 30
0.0
 10
631.8026246456584
 20
123.7409751076928
 30
0.0
 10
631.802448254854
 20
171.6370410213111
 30
0.0
  0
ENDBLK
  5
140
330
13D
100
AcDbEntity
  8
0
100
AcDbBlockEnd
  0
BLOCK
  5
144
330
142
100
AcDbEntity
  8
0
100
AcDbBlockBegin
  2
block 49
 70
     0
 10
0.0
 20
0.0
 30
0.0
  3
block 49
  1

  0
SPLINE
  5
146
330
142
100
AcDbEntity
  8
0
 62
   250
370
    25
100
AcDbSpline
210
0.0
220
0.0
230
1.0
 70
     8
 71
     3
 72
    23
 73
    19
 74
     0
 42
0.0000000001
 43
0.0000000001
 12
1.0
 22
0.0
 32
0.0
 13
1.0
 23
0.0
 33
0.0
 40
0.0
 40
0.0
 40
0.0
 40
0.0
 40
1.0
 40
1.0
 40
1.0
 40
2.0
 40
2.0
 40
2.0
 40
3.0
 40
3.0
 40
3.0
 40
4.0
 40
4.0
 40
4.0
 40
5.0
 40
5.0
 40
5.0
 40
6.0
 40
6.0
 40
6.0
 40
6.0
 10
539.8539756080713
 20
-21.19098948638286
 30
0.0
 10
526.5446186531423
 20
-21.47765982475205
 30
0.0
 10
513.2346972476216
 20
-21.73818904562
 30
0.0
 10
499.924317225981
 20
-21.9735649375115
 30
0.0
 10
485.6297823149447
 20
-22.22636824107734
 30
0.0
 10
471.3346829533169
 20
-22.45020817424022
 30
0.0
 10
457.0392660882204
 20
-22.64674281059713
 30
0.0
 10
426.7437915631015
 20
-23.06334261685553
 30
0.0
 10
396.4466942425263
 20
-23.35752720356186
 30
0.0
 10
366.1490677495253
 20
-23.56362222162735
 30
0.0
 10
331.9611772039427
 20
-23.79617586061778
 30
0.0
 10
297.7726163732827
 20
-23.91658022498341
 30
0.0
 10
263.5840202644699
 20
-23.98371456585068
 30
0.0
 10
242.7660945563933
 20
-24.02456667659802
 30
0.0
 10
221.9481688483167
 20
-24.04566301702303
 30
0.0
 10
201.1302078620865
 20
-24.05825732058418
 30
0.0
 10
169.1284697465855
 20
-24.07758975295861
 30
0.0
 10
137.1266963529058
 20
-24.07674307708462
 30
0.0
 10
105.1249229592384
 20
-24.07780142192293
 30
0.0
  0
ENDBLK
  5
145
330
142
100
AcDbEntity
  8
0
100
AcDbBlockEnd
  0
BLOCK
  5
149
330
147
100
AcDbEntity
  8
0
100
AcDbBlockBegin
  2
block 50
 70
     0
 10
0.0
 20
0.0
 30
0.0
  3
block 50
  1

  0
SPLINE
  5
14B
330
147
100
AcDbEntity
  8
0
 62
   250
370
    25
100
AcDbSpline
210
0.0
220
0.0
230
1.0
 70
     8
 71
     3
 72
    26
 73
    22
 74
     0
 42
0.0000000001
 43
0.0000000001
 12
1.0
 22
0.0
 32
0.0
 13
1.0
 23
0.0
 33
0.0
 40
0.0
 40
0.0
 40
0.0
 40
0.0
 40
1.0
 40
1.0
 40
1.0
 40
2.0
 40
2.0
 40
2.0
 40
3.0
 40
3.0
 40
3.0
 40
4.0
 40
4.0
 40
4.0
 40
5.0
 40
5.0
 40
5.0
 40
6.0
 40
6.0
 40
6.0
 40
7.0
 40
7.0
 40
7.0
 40
7.0
 10
105.1248171247533
 20
131.5905776560123
 30
0.0
 10
106.5541471422911
 20
131.5927296238496
 30
0.0
 10
107.9830185437224
 20
131.6771855418933
 30
0.0
 10
109.4028234574806
 20
131.8410878790831
 30
0.0
 10
110.8215347482078
 20
132.0048491036285
 30
0.0
 10
112.2311442731084
 20
132.2479156346878
 30
0.0
 10
113.6226913789809
 20
132.5688410676284
 30
0.0
 10
116.5727924103422
 20
133.2491804074431
 30
0.0
 10
119.4416831124412
 20
134.2792321597777
 30
0.0
 10
122.1553146229185
 20
135.6218484208405
 30
0.0
 10
124.8583274066116
 20
136.9591729577098
 30
0.0
 10
127.407280456185
 20
138.6065925320277
 30
0.0
 10
129.7407544913856
 20
140.5169755203326
 30
0.0
 10
131.9631728721483
 20
142.3364819652483
 30
0.0
 10
133.9901502346056
 20
144.3945040584119
 30
0.0
 10
135.7772360944756
 20
146.6429223878706
 30
0.0
 10
136.3900726139654
 20
147.4884180717147
 30
0.0
 10
139.2535455692017
 20
151.491608943482
 30
0.0
 10
139.8803685774285
 20
152.6743943395614
 30
0.0
 10
143.0826731899767
 20
158.4731715396173
 30
0.0
 10
144.7667115382179
 20
164.9875309625796
 30
0.0
 10
144.7758838603767
 20
171.6117818578502
 30
0.0
  0
ENDBLK
  5
14A
330
147
100
AcDbEntity
  8
0
100
AcDbBlockEnd
  0
BLOCK
  5
14E
330
14C
100
AcDbEntity
  8
0
100
AcDbBlockBegin
  2
block 51
 70
     0
 10
0.0
 20
0.0
 30
0.0
  3
block 51
  1

  0
SPLINE
  5
150
330
14C
100
AcDbEntity
  8
0
 62
   250
370
    25
100
AcDbSpline
210
0.0
220
0.0
230
1.0
 70
     8
 71
     3
 72
    17
 73
    13
 74
     0
 42
0.0000000001
 43
0.0000000001
 12
1.0
 22
0.0
 32
0.0
 13
1.0
 23
0.0
 33
0.0
 40
0.0
 40
0.0
 40
0.0
 40
0.0
 40
1.0
 40
1.0
 40
1.0
 40
2.0
 40
2.0
 40
2.0
 40
3.0
 40
3.0
 40
3.0
 40
4.0
 40
4.0
 40
4.0
 40
4.0
 10
-338.490592899862
 20
-60.24239624313817
 30
0.0
 10
-319.1920270791224
 20
-60.3340489083939
 30
0.0
 10
-299.893425980217
 20
-60.42058624013155
 30
0.0
 10
-280.5947896031459
 20
-60.50183184755895
 30
0.0
 10
-261.4720854206936
 20
-60.58237189175033
 30
0.0
 10
-242.3493812382672
 20
-60.65769076791933
 30
0.0
 10
-223.2266417776687
 20
-60.72768264162644
 30
0.0
 10
-185.9205144799376
 20
-60.86417385097693
 30
0.0
 10
-148.6143166259
 20
-60.9802037262743
 30
0.0
 10
-111.3080834936845
 20
-61.07351446515204
 30
0.0
 10
-39.16392440019408
 20
-61.25396226452546
 30
0.0
 10
32.9804463622793
 20
-61.34938969313242
 30
0.0
 10
105.1248171247533
 20
-61.34893107702519
 30
0.0
  0
ENDBLK
  5
14F
330
14C
100
AcDbEntity
  8
0
100
AcDbBlockEnd
  0
BLOCK
  5
153
330
151
100
AcDbEntity
  8
0
100
AcDbBlockBegin
  2
block 52
 70
     0
 10
0.0
 20
0.0
 30
0.0
  3
block 52
  1

  0
SPLINE
  5
155
330
151
100
AcDbEntity
  8
0
 62
   250
370
    25
100
AcDbSpline
210
0.0
220
0.0
230
1.0
 70
     8
 71
     3
 72
     8
 73
     4
 74
     0
 42
0.0000000001
 43
0.0000000001
 12
1.0
 22
0.0
 32
0.0
 13
1.0
 23
0.0
 33
0.0
 40
0.0
 40
0.0
 40
0.0
 40
0.0
 40
1.0
 40
1.0
 40
1.0
 40
1.0
 10
105.1248171247533
 20
-77.99761302628582
 30
0.0
 10
-47.80132378570173
 20
-77.99771886076445
 30
0.0
 10
-214.4397335409679
 20
-77.4058218562676
 30
0.0
 10
-367.3625935823569
 20
-76.40420427660783
 30
0.0
  0
ENDBLK
  5
154
330
151
100
AcDbEntity
  8
0
100
AcDbBlockEnd
  0
BLOCK
  5
158
330
156
100
AcDbEntity
  8
0
100
AcDbBlockBegin
  2
block 53
 70
     0
 10
0.0
 20
0.0
 30
0.0
  3
block 53
  1

  0
SPLINE
  5
15A
330
156
100
AcDbEntity
  8
0
 62
   250
370
    25
100
AcDbSpline
210
0.0
220
0.0
230
1.0
 70
     8
 71
     3
 72
     8
 73
     4
 74
     0
 42
0.0000000001
 43
0.0000000001
 12
1.0
 22
0.0
 32
0.0
 13
1.0
 23
0.0
 33
0.0
 40
0.0
 40
0.0
 40
0.0
 40
0.0
 40
1.0
 40
1.0
 40
1.0
 40
1.0
 10
-124.9177281648077
 20
252.1377832960137
 30
0.0
 10
-141.9578918794049
 20
252.1377832960137
 30
0.0
 10
-158.9980908721679
 20
252.1378185741801
 30
0.0
 10
-176.0382898649181
 20
252.1378185741801
 30
0.0
  0
ENDBLK
  5
159
330
156
100
AcDbEntity
  8
0
100
AcDbBlockEnd
  0
BLOCK
  5
15D
330
15B
100
AcDbEntity
  8
0
100
AcDbBlockBegin
  2
block 54
 70
     0
 10
0.0
 20
0.0
 30
0.0
  3
block 54
  1

  0
POLYLINE
  5
15F
330
15B
100
AcDbEntity
  8
0
 62
   250
370
    25
100
AcDb2dPolyline
 66
     1
 10
0.0
 20
0.0
 30
0.0
  0
VERTEX
  5
160
330
15F
100
AcDbEntity
  8
0
 62
   250
370
    25
100
AcDbVertex
100
AcDb2dVertex
 10
-176.0382898649181
 20
252.1378185741801
 30
0.0
  0
VERTEX
  5
161
330
15F
100
AcDbEntity
  8
0
 62
   250
370
    25
100
AcDbVertex
100
AcDb2dVertex
 10
-190.7385589188087
 20
252.1378538523394
 30
0.0
  0
SEQEND
  5
162
330
15F
100
AcDbEntity
  8
0
 62
   250
370
    25
  0
ENDBLK
  5
15E
330
15B
100
AcDbEntity
  8
0
100
AcDbBlockEnd
  0
BLOCK
  5
165
330
163
100
AcDbEntity
  8
0
100
AcDbBlockBegin
  2
block 55
 70
     0
 10
0.0
 20
0.0
 30
0.0
  3
block 55
  1

  0
SPLINE
  5
167
330
163
100
AcDbEntity
  8
0
 62
   250
370
    25
100
AcDbSpline
210
0.0
220
0.0
230
1.0
 70
     8
 71
     3
 72
     8
 73
     4
 74
     0
 42
0.0000000001
 43
0.0000000001
 12
1.0
 22
0.0
 32
0.0
 13
1.0
 23
0.0
 33
0.0
 40
0.0
 40
0.0
 40
0.0
 40
0.0
 40
1.0
 40
1.0
 40
1.0
 40
1.0
 10
-190.7385589188087
 20
252.1378538523394
 30
0.0
 10
-217.9936203174649
 20
252.1378538523394
 30
0.0
 10
-245.2486464379679
 20
252.1378185741801
 30
0.0
 10
-272.5036725584709
 20
252.1378185741801
 30
0.0
  0
ENDBLK
  5
166
330
163
100
AcDbEntity
  8
0
100
AcDbBlockEnd
  0
BLOCK
  5
16A
330
168
100
AcDbEntity
  8
0
100
AcDbBlockBegin
  2
block 56
 70
     0
 10
0.0
 20
0.0
 30
0.0
  3
block 56
  1

  0
SPLINE
  5
16C
330
168
100
AcDbEntity
  8
0
 62
   250
370
    25
100
AcDbSpline
210
0.0
220
0.0
230
1.0
 70
     8
 71
     3
 72
     8
 73
     4
 74
     0
 42
0.0000000001
 43
0.0000000001
 12
1.0
 22
0.0
 32
0.0
 13
1.0
 23
0.0
 33
0.0
 40
0.0
 40
0.0
 40
0.0
 40
0.0
 40
1.0
 40
1.0
 40
1.0
 40
1.0
 10
-272.5036725584709
 20
252.1378185741801
 30
0.0
 10
-290.3707563937899
 20
252.1378538523394
 30
0.0
 10
-308.2378402290964
 20
252.1378538523394
 30
0.0
 10
-326.1049240644158
 20
252.1378538523394
 30
0.0
  0
ENDBLK
  5
16B
330
168
100
AcDbEntity
  8
0
100
AcDbBlockEnd
  0
BLOCK
  5
16F
330
16D
100
AcDbEntity
  8
0
100
AcDbBlockBegin
  2
block 57
 70
     0
 10
0.0
 20
0.0
 30
0.0
  3
block 57
  1

  0
SPLINE
  5
171
330
16D
100
AcDbEntity
  8
0
 62
   250
370
    25
100
AcDbSpline
210
0.0
220
0.0
230
1.0
 70
     8
 71
     3
 72
     8
 73
     4
 74
     0
 42
0.0000000001
 43
0.0000000001
 12
1.0
 22
0.0
 32
0.0
 13
1.0
 23
0.0
 33
0.0
 40
0.0
 40
0.0
 40
0.0
 40
0.0
 40
1.0
 40
1.0
 40
1.0
 40
1.0
 10
-326.1049240644158
 20
252.1378538523394
 30
0.0
 10
-335.2689558544514
 20
252.1378185741801
 30
0.0
 10
-344.4329876444928
 20
252.1385594155632
 30
0.0
 10
-353.5970194345344
 20
252.1377832960137
 30
0.0
  0
ENDBLK
  5
170
330
16D
100
AcDbEntity
  8
0
100
AcDbBlockEnd
  0
BLOCK
  5
174
330
172
100
AcDbEntity
  8
0
100
AcDbBlockBegin
  2
block 58
 70
     0
 10
0.0
 20
0.0
 30
0.0
  3
block 58
  1

  0
SPLINE
  5
176
330
172
100
AcDbEntity
  8
0
 62
   250
370
    25
100
AcDbSpline
210
0.0
220
0.0
230
1.0
 70
     8
 71
     3
 72
    50
 73
    46
 74
     0
 42
0.0000000001
 43
0.0000000001
 12
1.0
 22
0.0
 32
0.0
 13
1.0
 23
0.0
 33
0.0
 40
0.0
 40
0.0
 40
0.0
 40
0.0
 40
1.0
 40
1.0
 40
1.0
 40
2.0
 40
2.0
 40
2.0
 40
3.0
 40
3.0
 40
3.0
 40
4.0
 40
4.0
 40
4.0
 40
5.0
 40
5.0
 40
5.0
 40
6.0
 40
6.0
 40
6.0
 40
7.0
 40
7.0
 40
7.0
 40
8.0
 40
8.0
 40
8.0
 40
9.0
 40
9.0
 40
9.0
 40
10.0
 40
10.0
 40
10.0
 40
11.0
 40
11.0
 40
11.0
 40
12.0
 40
12.0
 40
12.0
 40
13.0
 40
13.0
 40
13.0
 40
14.0
 40
14.0
 40
14.0
 40
15.0
 40
15.0
 40
15.0
 40
15.0
 10
-398.2901822168162
 20
-59.94217908326906
 30
0.0
 10
-402.5181641156113
 20
-59.91840160198479
 30
0.0
 10
-406.7461107362589
 20
-59.89938667259002
 30
0.0
 10
-410.9740926350473
 20
-59.87172859345664
 30
0.0
 10
-411.940678999707
 20
-59.86541380243533
 30
0.0
 10
-412.9072300862009
 20
-59.85864039530807
 30
0.0
 10
-413.873463669233
 20
-59.83324011856691
 30
0.0
 10
-415.0299523807335
 20
-59.80283034279977
 30
0.0
 10
-416.1859824761142
 20
-59.74575027642531
 30
0.0
 10
-417.3391197622043
 20
-59.65233370306831
 30
0.0
 10
-418.291347914875
 20
-59.57518036246012
 30
0.0
 10
-419.2416004904544
 20
-59.47322647384956
 30
0.0
 10
-420.187549130257
 20
-59.33994557725097
 30
0.0
 10
-422.6087246765452
 20
-58.99880574930904
 30
0.0
 10
-425.0017482494453
 20
-58.45231173948637
 30
0.0
 10
-427.3278138705945
 20
-57.69929936847244
 30
0.0
 10
-429.5991983404126
 20
-56.96396135667424
 30
0.0
 10
-431.8067293367477
 20
-56.03166626417564
 30
0.0
 10
-433.9254651989393
 20
-54.93049373873455
 30
0.0
 10
-436.4227710191496
 20
-53.63257490799339
 30
0.0
 10
-438.7967091063235
 20
-52.1000563048891
 30
0.0
 10
-441.0142238225517
 20
-50.36666385160823
 30
0.0
 10
-443.3590927041125
 20
-48.53371642724384
 30
0.0
 10
-445.5290877359245
 20
-46.47615295018626
 30
0.0
 10
-447.4611315640481
 20
-44.21193000447798
 30
0.0
 10
-449.2089528294404
 20
-42.16357412750167
 30
0.0
 10
-450.7620386397772
 20
-39.94613002362522
 30
0.0
 10
-452.0334988817237
 20
-37.57314450676625
 30
0.0
 10
-453.2190215206587
 20
-35.3606040673101
 30
0.0
 10
-454.1597137143053
 20
-33.01284243575201
 30
0.0
 10
-454.785124972837
 20
-30.58210656893514
 30
0.0
 10
-455.1573801398155
 20
-29.13527861951851
 30
0.0
 10
-455.4179446454334
 20
-27.65906396177798
 30
0.0
 10
-455.5806828074128
 20
-26.17392392923917
 30
0.0
 10
-455.7682920737136
 20
-24.46208643247643
 30
0.0
 10
-455.8259365906546
 20
-22.73839547352927
 30
0.0
 10
-455.8365553174652
 20
-21.0161156410426
 30
0.0
 10
-455.8396950738927
 20
-20.5088509603531
 30
0.0
 10
-455.8387778416792
 20
-20.00172739230092
 30
0.0
 10
-455.8383897818919
 20
-19.49453326793586
 30
0.0
 10
-455.8381428347554
 20
-19.15212343478942
 30
0.0
 10
-455.8381428347554
 20
-18.80967832347659
 30
0.0
 10
-455.8381428347554
 20
-18.46726849032373
 30
0.0
 10
-455.8382133910879
 20
44.90084643960807
 30
0.0
 10
-455.8382133910879
 20
108.2689613695392
 30
0.0
 10
-455.8381781129219
 20
171.6370410213111
 30
0.0
  0
ENDBLK
  5
175
330
172
100
AcDbEntity
  8
0
100
AcDbBlockEnd
  0
BLOCK
  5
179
330
177
100
AcDbEntity
  8
0
100
AcDbBlockBegin
  2
block 59
 70
     0
 10
0.0
 20
0.0
 30
0.0
  3
block 59
  1

  0
SPLINE
  5
17B
330
177
100
AcDbEntity
  8
0
 62
   250
370
    25
100
AcDbSpline
210
0.0
220
0.0
230
1.0
 70
     8
 71
     3
 72
     8
 73
     4
 74
     0
 42
0.0000000001
 43
0.0000000001
 12
1.0
 22
0.0
 32
0.0
 13
1.0
 23
0.0
 33
0.0
 40
0.0
 40
0.0
 40
0.0
 40
0.0
 40
1.0
 40
1.0
 40
1.0
 40
1.0
 10
-470.0191526200169
 20
-89.05692879949018
 30
0.0
 10
-468.9593966291238
 20
-89.13746884367515
 30
0.0
 10
-467.8996406382311
 20
-89.18579992581247
 30
0.0
 10
-466.8369565598938
 20
-89.20206315856773
 30
0.0
  0
ENDBLK
  5
17A
330
177
100
AcDbEntity
  8
0
100
AcDbBlockEnd
  0
BLOCK
  5
17E
330
17C
100
AcDbEntity
  8
0
100
AcDbBlockBegin
  2
block 60
 70
     0
 10
0.0
 20
0.0
 30
0.0
  3
block 60
  1

  0
SPLINE
  5
180
330
17C
100
AcDbEntity
  8
0
 62
   250
370
    25
100
AcDbSpline
210
0.0
220
0.0
230
1.0
 70
     8
 71
     3
 72
     8
 73
     4
 74
     0
 42
0.0000000001
 43
0.0000000001
 12
1.0
 22
0.0
 32
0.0
 13
1.0
 23
0.0
 33
0.0
 40
0.0
 40
0.0
 40
0.0
 40
0.0
 40
1.0
 40
1.0
 40
1.0
 40
1.0
 10
-471.7142330329968
 20
-88.8830074601146
 30
0.0
 10
-471.1678095795127
 20
-88.95222321424586
 30
0.0
 10
-470.620539450128
 20
-89.00877410815721
 30
0.0
 10
-470.0715406908016
 20
-89.05273069820453
 30
0.0
  0
ENDBLK
  5
17F
330
17C
100
AcDbEntity
  8
0
100
AcDbBlockEnd
  0
BLOCK
  5
183
330
181
100
AcDbEntity
  8
0
100
AcDbBlockBegin
  2
block 61
 70
     0
 10
0.0
 20
0.0
 30
0.0
  3
block 61
  1

  0
SPLINE
  5
185
330
181
100
AcDbEntity
  8
0
 62
   250
370
    25
100
AcDbSpline
210
0.0
220
0.0
230
1.0
 70
     8
 71
     3
 72
     8
 73
     4
 74
     0
 42
0.0000000001
 43
0.0000000001
 12
1.0
 22
0.0
 32
0.0
 13
1.0
 23
0.0
 33
0.0
 40
0.0
 40
0.0
 40
0.0
 40
0.0
 40
1.0
 40
1.0
 40
1.0
 40
1.0
 10
65.47371511097673
 20
171.6117818578502
 30
0.0
 10
65.48288743313546
 20
164.9875309625796
 30
0.0
 10
67.16692578137673
 20
158.4731715396173
 30
0.0
 10
70.36923039391178
 20
152.6743943395614
 30
0.0
  0
ENDBLK
  5
184
330
181
100
AcDbEntity
  8
0
100
AcDbBlockEnd
  0
BLOCK
  5
188
330
186
100
AcDbEntity
  8
0
100
AcDbBlockBegin
  2
block 62
 70
     0
 10
0.0
 20
0.0
 30
0.0
  3
block 62
  1

  0
SPLINE
  5
18A
330
186
100
AcDbEntity
  8
0
 62
   250
370
    25
100
AcDbSpline
210
0.0
220
0.0
230
1.0
 70
     8
 71
     3
 72
     8
 73
     4
 74
     0
 42
0.0000000001
 43
0.0000000001
 12
1.0
 22
0.0
 32
0.0
 13
1.0
 23
0.0
 33
0.0
 40
0.0
 40
0.0
 40
0.0
 40
0.0
 40
1.0
 40
1.0
 40
1.0
 40
1.0
 10
-482.8462570983943
 20
369.118307915503
 30
0.0
 10
-483.3545095804383
 20
367.5839195310926
 30
0.0
 10
-483.3359885453162
 20
366.0684049634322
 30
0.0
 10
-483.3360238234823
 20
364.5046298699596
 30
0.0
  0
ENDBLK
  5
189
330
186
100
AcDbEntity
  8
0
100
AcDbBlockEnd
  0
BLOCK
  5
18D
330
18B
100
AcDbEntity
  8
0
100
AcDbBlockBegin
  2
block 63
 70
     0
 10
0.0
 20
0.0
 30
0.0
  3
block 63
  1

  0
SPLINE
  5
18F
330
18B
100
AcDbEntity
  8
0
 62
   250
370
    25
100
AcDbSpline
210
0.0
220
0.0
230
1.0
 70
     8
 71
     3
 72
     8
 73
     4
 74
     0
 42
0.0000000001
 43
0.0000000001
 12
1.0
 22
0.0
 32
0.0
 13
1.0
 23
0.0
 33
0.0
 40
0.0
 40
0.0
 40
0.0
 40
0.0
 40
1.0
 40
1.0
 40
1.0
 40
1.0
 10
-476.9517348197814
 20
372.1651769456313
 30
0.0
 10
-479.1431789741729
 20
371.9748865390097
 30
0.0
 10
-481.4748891012655
 20
370.9457519928606
 30
0.0
 10
-482.8462570983943
 20
369.118307915503
 30
0.0
  0
ENDBLK
  5
18E
330
18B
100
AcDbEntity
  8
0
100
AcDbBlockEnd
  0
BLOCK
  5
192
330
190
100
AcDbEntity
  8
0
100
AcDbBlockBegin
  2
block 64
 70
     0
 10
0.0
 20
0.0
 30
0.0
  3
block 64
  1

  0
POLYLINE
  5
194
330
190
100
AcDbEntity
  8
0
 62
   250
370
    25
100
AcDb2dPolyline
 66
     1
 10
0.0
 20
0.0
 30
0.0
  0
VERTEX
  5
195
330
194
100
AcDbEntity
  8
0
 62
   250
370
    25
100
AcDbVertex
100
AcDb2dVertex
 10
-428.5346092413041
 20
276.6380522525275
 30
0.0
  0
VERTEX
  5
196
330
194
100
AcDbEntity
  8
0
 62
   250
370
    25
100
AcDbVertex
100
AcDb2dVertex
 10
641.0394705623723
 20
276.6379816962024
 30
0.0
  0
SEQEND
  5
197
330
194
100
AcDbEntity
  8
0
 62
   250
370
    25
  0
ENDBLK
  5
193
330
190
100
AcDbEntity
  8
0
100
AcDbBlockEnd
  0
BLOCK
  5
19A
330
198
100
AcDbEntity
  8
0
100
AcDbBlockBegin
  2
block 65
 70
     0
 10
0.0
 20
0.0
 30
0.0
  3
block 65
  1

  0
SPLINE
  5
19C
330
198
100
AcDbEntity
  8
0
 62
   250
370
    25
100
AcDbSpline
210
0.0
220
0.0
230
1.0
 70
     8
 71
     3
 72
    17
 73
    13
 74
     0
 42
0.0000000001
 43
0.0000000001
 12
1.0
 22
0.0
 32
0.0
 13
1.0
 23
0.0
 33
0.0
 40
0.0
 40
0.0
 40
0.0
 40
0.0
 40
1.0
 40
1.0
 40
1.0
 40
2.0
 40
2.0
 40
2.0
 40
3.0
 40
3.0
 40
3.0
 40
4.0
 40
4.0
 40
4.0
 40
4.0
 10
-421.7377421313022
 20
216.6375107372353
 30
0.0
 10
-421.737601018664
 20
216.2286368482855
 30
0.0
 10
-421.7432455245951
 20
215.8196924030093
 30
0.0
 10
-421.744797763732
 20
215.410783235893
 30
0.0
 10
-421.7467027844909
 20
214.9107858564228
 30
0.0
 10
-421.7425046831924
 20
214.4108237551125
 30
0.0
 10
-421.7383418600602
 20
213.9108969319558
 30
0.0
 10
-421.6758289567373
 20
206.394073278762
 30
0.0
 10
-421.6238642238931
 20
198.8771085129173
 30
0.0
 10
-421.5925372159124
 20
191.360108468912
 30
0.0
 10
-421.5651260839213
 20
184.7857761718179
 30
0.0
 10
-421.5535195685779
 20
178.2114085965645
 30
0.0
 10
-421.5528492835012
 20
171.6370410213111
 30
0.0
  0
ENDBLK
  5
19B
330
198
100
AcDbEntity
  8
0
100
AcDbBlockEnd
  0
BLOCK
  5
19F
330
19D
100
AcDbEntity
  8
0
100
AcDbBlockBegin
  2
block 66
 70
     0
 10
0.0
 20
0.0
 30
0.0
  3
block 66
  1

  0
POLYLINE
  5
1A1
330
19D
100
AcDbEntity
  8
0
 62
   250
370
    25
100
AcDb2dPolyline
 66
     1
 10
0.0
 20
0.0
 30
0.0
  0
VERTEX
  5
1A2
330
1A1
100
AcDbEntity
  8
0
 62
   250
370
    25
100
AcDbVertex
100
AcDb2dVertex
 10
-455.8381781129219
 20
171.6370410213111
 30
0.0
  0
VERTEX
  5
1A3
330
1A1
100
AcDbEntity
  8
0
 62
   250
370
    25
100
AcDbVertex
100
AcDb2dVertex
 10
-455.8381428347554
 20
216.6375460153947
 30
0.0
  0
SEQEND
  5
1A4
330
1A1
100
AcDbEntity
  8
0
 62
   250
370
    25
  0
ENDBLK
  5
1A0
330
19D
100
AcDbEntity
  8
0
100
AcDbBlockEnd
  0
BLOCK
  5
1A7
330
1A5
100
AcDbEntity
  8
0
100
AcDbBlockBegin
  2
block 67
 70
     0
 10
0.0
 20
0.0
 30
0.0
  3
block 67
  1

  0
SPLINE
  5
1A9
330
1A5
100
AcDbEntity
  8
0
 62
   250
370
    25
100
AcDbSpline
210
0.0
220
0.0
230
1.0
 70
     8
 71
     3
 72
    29
 73
    25
 74
     0
 42
0.0000000001
 43
0.0000000001
 12
1.0
 22
0.0
 32
0.0
 13
1.0
 23
0.0
 33
0.0
 40
0.0
 40
0.0
 40
0.0
 40
0.0
 40
1.0
 40
1.0
 40
1.0
 40
2.0
 40
2.0
 40
2.0
 40
3.0
 40
3.0
 40
3.0
 40
4.0
 40
4.0
 40
4.0
 40
5.0
 40
5.0
 40
5.0
 40
6.0
 40
6.0
 40
6.0
 40
7.0
 40
7.0
 40
7.0
 40
8.0
 40
8.0
 40
8.0
 40
8.0
 10
105.1248171247533
 20
210.8054309529555
 30
0.0
 10
103.7689362408171
 20
210.8035964885606
 30
0.0
 10
102.411961733838
 20
210.7456697477926
 30
0.0
 10
101.0608786799384
 20
210.6266059535495
 30
0.0
 10
99.69370878411456
 20
210.5061663110245
 30
0.0
 10
98.33257145399695
 20
210.3231432104297
 30
0.0
 10
96.98191173805135
 20
210.0789125000529
 30
0.0
 10
94.40477143691163
 20
209.6129232680374
 30
0.0
 10
91.86562571639506
 20
208.9240466132001
 30
0.0
 10
89.4256821878492
 20
207.9735823926496
 30
0.0
 10
87.215434773034
 20
207.1125483108881
 30
0.0
 10
85.08657407828512
 20
206.0368818960443
 30
0.0
 10
83.09039455138259
 20
204.7560024171832
 30
0.0
 10
80.96121635317792
 20
203.3898203444024
 30
0.0
 10
78.98295813263947
 20
201.7902026785908
 30
0.0
 10
77.18154933894006
 20
200.0128183582121
 30
0.0
 10
73.43691353971444
 20
196.3181718080826
 30
0.0
 10
70.45650856707108
 20
191.8554491310991
 30
0.0
 10
68.46353935291498
 20
186.9882270571589
 30
0.0
 10
67.51300455203273
 20
184.6668182120663
 30
0.0
 10
66.78708580954225
 20
182.253403922413
 30
0.0
 10
66.28885232553824
 20
179.7946571955542
 30
0.0
 10
65.74348721691841
 20
177.1034626641758
 30
0.0
 10
65.47085757985151
 20
174.3579750426221
 30
0.0
 10
65.47371511097673
 20
171.6117818578502
 30
0.0
  0
ENDBLK
  5
1A8
330
1A5
100
AcDbEntity
  8
0
100
AcDbBlockEnd
  0
BLOCK
  5
1AC
330
1AA
100
AcDbEntity
  8
0
100
AcDbBlockBegin
  2
block 68
 70
     0
 10
0.0
 20
0.0
 30
0.0
  3
block 68
  1

  0
POLYLINE
  5
1AE
330
1AA
100
AcDbEntity
  8
0
 62
   250
370
    25
100
AcDb2dPolyline
 66
     1
 10
0.0
 20
0.0
 30
0.0
  0
VERTEX
  5
1AF
330
1AE
100
AcDbEntity
  8
0
 62
   250
370
    25
100
AcDbVertex
100
AcDb2dVertex
 10
92.90668428134913
 20
252.1376774615351
 30
0.0
  0
VERTEX
  5
1B0
330
1AE
100
AcDbEntity
  8
0
 62
   250
370
    25
100
AcDbVertex
100
AcDb2dVertex
 10
-124.9177281648077
 20
252.1377832960137
 30
0.0
  0
SEQEND
  5
1B1
330
1AE
100
AcDbEntity
  8
0
 62
   250
370
    25
  0
ENDBLK
  5
1AD
330
1AA
100
AcDbEntity
  8
0
100
AcDbBlockEnd
  0
BLOCK
  5
1B4
330
1B2
100
AcDbEntity
  8
0
100
AcDbBlockBegin
  2
block 69
 70
     0
 10
0.0
 20
0.0
 30
0.0
  3
block 69
  1

  0
SPLINE
  5
1B6
330
1B2
100
AcDbEntity
  8
0
 62
   250
370
    25
100
AcDbSpline
210
0.0
220
0.0
230
1.0
 70
     8
 71
     3
 72
    35
 73
    31
 74
     0
 42
0.0000000001
 43
0.0000000001
 12
1.0
 22
0.0
 32
0.0
 13
1.0
 23
0.0
 33
0.0
 40
0.0
 40
0.0
 40
0.0
 40
0.0
 40
1.0
 40
1.0
 40
1.0
 40
2.0
 40
2.0
 40
2.0
 40
3.0
 40
3.0
 40
3.0
 40
4.0
 40
4.0
 40
4.0
 40
5.0
 40
5.0
 40
5.0
 40
6.0
 40
6.0
 40
6.0
 40
7.0
 40
7.0
 40
7.0
 40
8.0
 40
8.0
 40
8.0
 40
9.0
 40
9.0
 40
9.0
 40
10.0
 40
10.0
 40
10.0
 40
10.0
 10
-451.6790591866364
 20
267.5684953807132
 30
0.0
 10
-451.0474036933902
 20
268.3533286539926
 30
0.0
 10
-450.3620901155372
 20
269.0953342384215
 30
0.0
 10
-449.6343721867727
 20
269.7923954442815
 30
0.0
 10
-448.8208224895075
 20
270.5717253242555
 30
0.0
 10
-447.9543202708534
 20
271.2948923701068
 30
0.0
 10
-447.0437203495317
 20
271.9581923747886
 30
0.0
 10
-445.3620809163212
 20
273.1831912771714
 30
0.0
 10
-443.5301212342032
 20
274.2040001770432
 30
0.0
 10
-441.5951493186229
 20
274.9682310036443
 30
0.0
 10
-440.7062807451694
 20
275.3192487169945
 30
0.0
 10
-439.7956808238352
 20
275.616149729626
 30
0.0
 10
-438.8700524054275
 20
275.8539598206505
 30
0.0
 10
-437.9277021381719
 20
276.0960738474655
 30
0.0
 10
-436.9697942013914
 20
276.276909706632
 30
0.0
 10
-436.004724797703
 20
276.3997835453901
 30
0.0
 10
-435.0811072345459
 20
276.517365659825
 30
0.0
 10
-434.1509279332246
 20
276.5818541402255
 30
0.0
 10
-433.2202547376313
 20
276.6118052998925
 30
0.0
 10
-432.7551121697282
 20
276.6267632406331
 30
0.0
 10
-432.2898284891742
 20
276.6331133098272
 30
0.0
 10
-431.8244036959752
 20
276.6360413972839
 30
0.0
 10
-431.5837713519721
 20
276.6375230800951
 30
0.0
 10
-431.3431037298092
 20
276.6381228088532
 30
0.0
 10
-431.1025066639658
 20
276.6382639214976
 30
0.0
 10
-430.998294972988
 20
276.6382991996639
 30
0.0
 10
-430.8940832820095
 20
276.6382991996639
 30
0.0
 10
-430.789871591019
 20
276.6382639214976
 30
0.0
 10
-430.0381645119933
 20
276.6380875306868
 30
0.0
 10
-429.2863515984955
 20
276.6381933651725
 30
0.0
 10
-428.5346092413041
 20
276.6381228088532
 30
0.0
  0
ENDBLK
  5
1B5
330
1B2
100
AcDbEntity
  8
0
100
AcDbBlockEnd
  0
BLOCK
  5
1B9
330
1B7
100
AcDbEntity
  8
0
100
AcDbBlockBegin
  2
block 70
 70
     0
 10
0.0
 20
0.0
 30
0.0
  3
block 70
  1

  0
SPLINE
  5
1BB
330
1B7
100
AcDbEntity
  8
0
 62
   250
370
    25
100
AcDbSpline
210
0.0
220
0.0
230
1.0
 70
     8
 71
     3
 72
    29
 73
    25
 74
     0
 42
0.0000000001
 43
0.0000000001
 12
1.0
 22
0.0
 32
0.0
 13
1.0
 23
0.0
 33
0.0
 40
0.0
 40
0.0
 40
0.0
 40
0.0
 40
1.0
 40
1.0
 40
1.0
 40
2.0
 40
2.0
 40
2.0
 40
3.0
 40
3.0
 40
3.0
 40
4.0
 40
4.0
 40
4.0
 40
5.0
 40
5.0
 40
5.0
 40
6.0
 40
6.0
 40
6.0
 40
7.0
 40
7.0
 40
7.0
 40
8.0
 40
8.0
 40
8.0
 40
8.0
 10
-455.8381428347554
 20
216.6375460153947
 30
0.0
 10
-455.8374019933466
 20
229.4517383627215
 30
0.0
 10
-455.8392717359391
 20
242.265930710047
 30
0.0
 10
-455.8376136623299
 20
255.0801230573609
 30
0.0
 10
-455.8376136623299
 20
255.2875586455548
 30
0.0
 10
-455.8375783841638
 20
255.4950295119015
 30
0.0
 10
-455.8351089128134
 20
255.7024651000755
 30
0.0
 10
-455.8322513816756
 20
255.9394990655575
 30
0.0
 10
-455.8262188159568
 20
256.1764977528732
 30
0.0
 10
-455.8185634547693
 20
256.4134258838638
 30
0.0
 10
-455.8128131143403
 20
256.5911572602715
 30
0.0
 10
-455.8061455416978
 20
256.7688533585122
 30
0.0
 10
-455.797502391965
 20
256.9464083441092
 30
0.0
 10
-455.7874128375931
 20
257.1533500380365
 30
0.0
 10
-455.7746774210532
 20
257.3601858974787
 30
0.0
 10
-455.758766969933
 20
257.5667748097851
 30
0.0
 10
-455.6875403605579
 20
258.4933909933282
 30
0.0
 10
-455.5532363972556
 20
259.4157032411905
 30
0.0
 10
-455.339521290977
 20
260.3199530705003
 30
0.0
 10
-455.1466203003538
 20
261.1361838874615
 30
0.0
 10
-454.8890191603593
 20
261.9377126423111
 30
0.0
 10
-454.5741262850518
 20
262.7151022233802
 30
0.0
 10
-453.864400218977
 20
264.4673685372074
 30
0.0
 10
-452.8636645933586
 20
266.0971843502245
 30
0.0
 10
-451.6790591866364
 20
267.5684953807132
 30
0.0
  0
ENDBLK
  5
1BA
330
1B7
100
AcDbEntity
  8
0
100
AcDbBlockEnd
  0
BLOCK
  5
1BE
330
1BC
100
AcDbEntity
  8
0
100
AcDbBlockBegin
  2
block 71
 70
     0
 10
0.0
 20
0.0
 30
0.0
  3
block 71
  1

  0
SPLINE
  5
1C0
330
1BC
100
AcDbEntity
  8
0
 62
   250
370
    25
100
AcDbSpline
210
0.0
220
0.0
230
1.0
 70
     8
 71
     3
 72
     8
 73
     4
 74
     0
 42
0.0000000001
 43
0.0000000001
 12
1.0
 22
0.0
 32
0.0
 13
1.0
 23
0.0
 33
0.0
 40
0.0
 40
0.0
 40
0.0
 40
0.0
 40
1.0
 40
1.0
 40
1.0
 40
1.0
 10
-338.490592899862
 20
-60.24239624313817
 30
0.0
 10
-358.423812857624
 20
-60.14774493409423
 30
0.0
 10
-378.3569975372199
 20
-60.04766078808859
 30
0.0
 10
-398.2901822168162
 20
-59.94217908326906
 30
0.0
  0
ENDBLK
  5
1BF
330
1BC
100
AcDbEntity
  8
0
100
AcDbBlockEnd
  0
BLOCK
  5
1C3
330
1C1
100
AcDbEntity
  8
0
100
AcDbBlockBegin
  2
block 72
 70
     0
 10
0.0
 20
0.0
 30
0.0
  3
block 72
  1

  0
SPLINE
  5
1C5
330
1C1
100
AcDbEntity
  8
0
 62
   250
370
    25
100
AcDbSpline
210
0.0
220
0.0
230
1.0
 70
     8
 71
     3
 72
    56
 73
    52
 74
     0
 42
0.0000000001
 43
0.0000000001
 12
1.0
 22
0.0
 32
0.0
 13
1.0
 23
0.0
 33
0.0
 40
0.0
 40
0.0
 40
0.0
 40
0.0
 40
1.0
 40
1.0
 40
1.0
 40
2.0
 40
2.0
 40
2.0
 40
3.0
 40
3.0
 40
3.0
 40
4.0
 40
4.0
 40
4.0
 40
5.0
 40
5.0
 40
5.0
 40
6.0
 40
6.0
 40
6.0
 40
7.0
 40
7.0
 40
7.0
 40
8.0
 40
8.0
 40
8.0
 40
9.0
 40
9.0
 40
9.0
 40
10.0
 40
10.0
 40
10.0
 40
11.0
 40
11.0
 40
11.0
 40
12.0
 40
12.0
 40
12.0
 40
13.0
 40
13.0
 40
13.0
 40
14.0
 40
14.0
 40
14.0
 40
15.0
 40
15.0
 40
15.0
 40
16.0
 40
16.0
 40
16.0
 40
17.0
 40
17.0
 40
17.0
 40
17.0
 10
-367.3625935823569
 20
-76.40420427660783
 30
0.0
 10
-399.8018161866274
 20
-76.18597356555634
 30
0.0
 10
-432.2407565656338
 20
-75.92685546459712
 30
0.0
 10
-464.6793794411527
 20
-75.63009556461768
 30
0.0
 10
-465.2467581229687
 20
-75.62490967478092
 30
0.0
 10
-465.8141368047725
 20
-75.61972378493712
 30
0.0
 10
-466.3814802084095
 20
-75.60977534322244
 30
0.0
 10
-466.7443161060928
 20
-75.60346055219536
 30
0.0
 10
-467.1071167255981
 20
-75.59517018408984
 30
0.0
 10
-467.469776232477
 20
-75.58261115836139
 30
0.0
 10
-468.0214208539646
 20
-75.56352567264732
 30
0.0
 10
-468.5727126938299
 20
-75.53459757967858
 30
0.0
 10
-469.122663963542
 20
-75.48697206079073
 30
0.0
 10
-469.8630114743476
 20
-75.42287164016473
 30
0.0
 10
-470.6008895138033
 20
-75.32490418388191
 30
0.0
 10
-471.328184104627
 20
-75.17239668892552
 30
0.0
 10
-471.9220214080414
 20
-75.04786477655252
 30
0.0
 10
-472.5088030790266
 20
-74.88699635715268
 30
0.0
 10
-473.0806973655901
 20
-74.68509943518792
 30
0.0
 10
-474.2715117288475
 20
-74.26468957688868
 30
0.0
 10
-475.3977317772189
 20
-73.6664425032054
 30
0.0
 10
-476.4306058085535
 20
-72.9389715215706
 30
0.0
 10
-477.5793686025404
 20
-72.12990215090034
 30
0.0
 10
-478.6126659718216
 20
-71.16102270569998
 30
0.0
 10
-479.5158927572583
 20
-70.08387458088829
 30
0.0
 10
-480.4183787012917
 20
-69.00757313194545
 30
0.0
 10
-481.1909704523106
 20
-67.82324995052583
 30
0.0
 10
-481.7915106065342
 20
-66.55471779604224
 30
0.0
 10
-482.3514455961203
 20
-65.37194685376022
 30
0.0
 10
-482.7618011782066
 20
-64.11593844683996
 30
0.0
 10
-482.9972829105452
 20
-62.82860303195157
 30
0.0
 10
-483.1234023402219
 20
-62.13919718727207
 30
0.0
 10
-483.1993562233146
 20
-61.44076013309811
 30
0.0
 10
-483.2472639675179
 20
-60.7412294559002
 30
0.0
 10
-483.3070957305072
 20
-59.86703659789158
 30
0.0
 10
-483.3231472942913
 20
-58.99118566628021
 30
0.0
 10
-483.3283684622945
 20
-58.11505250936082
 30
0.0
 10
-483.3311201589347
 20
-57.65693029572782
 30
0.0
 10
-483.3309084899642
 20
-57.19877280392265
 30
0.0
 10
-483.3307673773131
 20
-56.7406153121239
 30
0.0
 10
-483.3305557083427
 20
-56.04500140913279
 30
0.0
 10
-483.3305204301766
 20
-55.34945718181375
 30
0.0
 10
-483.3304851520106
 20
-54.65387767634051
 30
0.0
 10
-483.3302029267215
 20
-48.87792544662521
 30
0.0
 10
-483.3303087612068
 20
-43.10176154793918
 30
0.0
 10
-483.3303793175386
 20
-37.32566820556604
 30
0.0
 10
-483.3305204301766
 20
-24.09544050255517
 30
0.0
 10
-483.330449873858
 20
-10.86528335586167
 30
0.0
 10
-483.3303793175386
 20
2.364873790824124
 30
0.0
 10
-483.3301323704022
 20
58.78887073738242
 30
0.0
 10
-483.3305204301766
 20
115.2129029621078
 30
0.0
 10
-483.3303087612068
 20
171.6369351868254
 30
0.0
  0
ENDBLK
  5
1C4
330
1C1
100
AcDbEntity
  8
0
100
AcDbBlockEnd
  0
BLOCK
  5
1C8
330
1C6
100
AcDbEntity
  8
0
100
AcDbBlockBegin
  2
block 73
 70
     0
 10
0.0
 20
0.0
 30
0.0
  3
block 73
  1

  0
SPLINE
  5
1CA
330
1C6
100
AcDbEntity
  8
0
 62
   250
370
    25
100
AcDbSpline
210
0.0
220
0.0
230
1.0
 70
     8
 71
     3
 72
     8
 73
     4
 74
     0
 42
0.0000000001
 43
0.0000000001
 12
1.0
 22
0.0
 32
0.0
 13
1.0
 23
0.0
 33
0.0
 40
0.0
 40
0.0
 40
0.0
 40
0.0
 40
1.0
 40
1.0
 40
1.0
 40
1.0
 10
-483.3303087612068
 20
171.6370057431517
 30
0.0
 10
-483.3300618140703
 20
235.9261981853019
 30
0.0
 10
-483.3360943798013
 20
300.2154358037292
 30
0.0
 10
-483.3360238234823
 20
364.5046298699596
 30
0.0
  0
ENDBLK
  5
1C9
330
1C6
100
AcDbEntity
  8
0
100
AcDbBlockEnd
  0
BLOCK
  5
1CD
330
1CB
100
AcDbEntity
  8
0
100
AcDbBlockBegin
  2
block 74
 70
     0
 10
0.0
 20
0.0
 30
0.0
  3
block 74
  1

  0
SPLINE
  5
1CF
330
1CB
100
AcDbEntity
  8
0
 62
   250
370
    25
100
AcDbSpline
210
0.0
220
0.0
230
1.0
 70
     8
 71
     3
 72
    59
 73
    55
 74
     0
 42
0.0000000001
 43
0.0000000001
 12
1.0
 22
0.0
 32
0.0
 13
1.0
 23
0.0
 33
0.0
 40
0.0
 40
0.0
 40
0.0
 40
0.0
 40
1.0
 40
1.0
 40
1.0
 40
2.0
 40
2.0
 40
2.0
 40
3.0
 40
3.0
 40
3.0
 40
4.0
 40
4.0
 40
4.0
 40
5.0
 40
5.0
 40
5.0
 40
6.0
 40
6.0
 40
6.0
 40
7.0
 40
7.0
 40
7.0
 40
8.0
 40
8.0
 40
8.0
 40
9.0
 40
9.0
 40
9.0
 40
10.0
 40
10.0
 40
10.0
 40
11.0
 40
11.0
 40
11.0
 40
12.0
 40
12.0
 40
12.0
 40
13.0
 40
13.0
 40
13.0
 40
14.0
 40
14.0
 40
14.0
 40
15.0
 40
15.0
 40
15.0
 40
16.0
 40
16.0
 40
16.0
 40
17.0
 40
17.0
 40
17.0
 40
18.0
 40
18.0
 40
18.0
 40
18.0
 10
-329.6043766367183
 20
-21.19098948638286
 30
0.0
 10
-339.0968481163486
 20
-20.98694060167597
 30
0.0
 10
-348.5890020925103
 20
-20.76758099499189
 30
0.0
 10
-358.0808385652291
 20
-20.53523902497157
 30
0.0
 10
-360.9298323838801
 20
-20.46549410016625
 30
0.0
 10
-363.7788262025182
 20
-20.39458499604978
 30
0.0
 10
-366.6277141866777
 20
-20.32110058614239
 30
0.0
 10
-367.3549382211693
 20
-20.30236788251894
 30
0.0
 10
-368.0821622556609
 20
-20.28342350991896
 30
0.0
 10
-368.8092451775011
 20
-20.26049270511188
 30
0.0
 10
-369.4894434218493
 20
-20.23900830490664
 30
0.0
 10
-370.1695358317251
 20
-20.21399608858163
 30
0.0
 10
-370.8495576852559
 20
-20.18658495728355
 30
0.0
 10
-371.5449608174942
 20
-20.15850354091519
 30
0.0
 10
-372.240258115241
 20
-20.12791737510732
 30
0.0
 10
-372.9353084658638
 20
-20.0934506115652
 30
0.0
 10
-373.5012054648622
 20
-20.06540447336259
 30
0.0
 10
-374.066926073043
 20
-20.03481830756756
 30
0.0
 10
-374.6325408467387
 20
-20.00183322678597
 30
0.0
 10
-377.9668563420309
 20
-19.80741528010054
 30
0.0
 10
-381.2982437498779
 20
-19.52974087286114
 30
0.0
 10
-384.6064534051795
 20
-19.06921975583131
 30
0.0
 10
-387.2530211294334
 20
-18.70084519600019
 30
0.0
 10
-389.884736747406
 20
-18.21545297529038
 30
0.0
 10
-392.471896046599
 20
-17.54523846775085
 30
0.0
 10
-395.368374271506
 20
-16.79487197784783
 30
0.0
 10
-398.2089718875545
 20
-15.81279852481618
 30
0.0
 10
-400.9046820916678
 20
-14.51692582742015
 30
0.0
 10
-403.325610690832
 20
-13.35313456576338
 30
0.0
 10
-405.6296980169505
 20
-11.9362577752501
 30
0.0
 10
-407.7336170510591
 20
-10.26615434326287
 30
0.0
 10
-409.8307979561929
 20
-8.601413191775565
 30
0.0
 10
-411.7290453049851
 20
-6.685068194205113
 30
0.0
 10
-413.3794635646997
 20
-4.576104436198286
 30
0.0
 10
-414.986489684971
 20
-2.522633225831588
 30
0.0
 10
-416.3585279671765
 20
-0.2865622528109597
 30
0.0
 10
-417.4796326820426
 20
2.067443613268809
 30
0.0
 10
-418.8009056889199
 20
4.841788770741125
 30
0.0
 10
-419.7735951756298
 20
7.779965709065334
 30
0.0
 10
-420.4172805221537
 20
10.78503004113958
 30
0.0
 10
-420.7450146484929
 20
12.31490278214008
 30
0.0
 10
-420.9874814569288
 20
13.86216765664853
 30
0.0
 10
-421.1597447226885
 20
15.41698205766051
 30
0.0
 10
-421.3690500587046
 20
17.306374540026
 30
0.0
 10
-421.4746728761817
 20
19.20698547765147
 30
0.0
 10
-421.5195466984303
 20
21.10787864059331
 30
0.0
 10
-421.5519320512752
 20
22.48058717321086
 30
0.0
 10
-421.5526023363647
 20
23.85347209661994
 30
0.0
 10
-421.5528492835012
 20
25.22639229821465
 30
0.0
 10
-421.5530256743053
 20
26.13385244018644
 30
0.0
 10
-421.5530256743053
 20
27.04134786031885
 30
0.0
 10
-421.5530256743053
 20
27.9488432804641
 30
0.0
 10
-421.5526376145311
 20
75.84490919408232
 30
0.0
 10
-421.5530256743053
 20
123.7409751076928
 30
0.0
 10
-421.5528492835012
 20
171.6370410213111
 30
0.0
  0
ENDBLK
  5
1CE
330
1CB
100
AcDbEntity
  8
0
100
AcDbBlockEnd
  0
BLOCK
  5
1D2
330
1D0
100
AcDbEntity
  8
0
100
AcDbBlockBegin
  2
block 75
 70
     0
 10
0.0
 20
0.0
 30
0.0
  3
block 75
  1

  0
SPLINE
  5
1D4
330
1D0
100
AcDbEntity
  8
0
 62
   250
370
    25
100
AcDbSpline
210
0.0
220
0.0
230
1.0
 70
     8
 71
     3
 72
    23
 73
    19
 74
     0
 42
0.0000000001
 43
0.0000000001
 12
1.0
 22
0.0
 32
0.0
 13
1.0
 23
0.0
 33
0.0
 40
0.0
 40
0.0
 40
0.0
 40
0.0
 40
1.0
 40
1.0
 40
1.0
 40
2.0
 40
2.0
 40
2.0
 40
3.0
 40
3.0
 40
3.0
 40
4.0
 40
4.0
 40
4.0
 40
5.0
 40
5.0
 40
5.0
 40
6.0
 40
6.0
 40
6.0
 40
6.0
 10
-329.6043766367183
 20
-21.19098948638286
 30
0.0
 10
-316.2950196817828
 20
-21.47765982475205
 30
0.0
 10
-302.9850982762683
 20
-21.73818904562
 30
0.0
 10
-289.6747182546407
 20
-21.9735649375115
 30
0.0
 10
-275.3801833435917
 20
-22.22636824107734
 30
0.0
 10
-261.0851192601103
 20
-22.45020817424022
 30
0.0
 10
-246.7896671168673
 20
-22.64674281059713
 30
0.0
 10
-216.4941925917484
 20
-23.06334261685553
 30
0.0
 10
-186.1970952711729
 20
-23.35752720356186
 30
0.0
 10
-155.8994687781722
 20
-23.56362222162735
 30
0.0
 10
-121.7116135107554
 20
-23.79617586061778
 30
0.0
 10
-87.52305268009542
 20
-23.91658022498341
 30
0.0
 10
-53.33442129311648
 20
-23.98371456585068
 30
0.0
 10
-32.51653086320594
 20
-24.02456667659802
 30
0.0
 10
-11.69860515512934
 20
-24.04566301702303
 30
0.0
 10
9.119355831113017
 20
-24.05825732058418
 30
0.0
 10
41.12119978109977
 20
-24.07758975295861
 30
0.0
 10
73.12307900925163
 20
-24.07674307708462
 30
0.0
 10
105.1249229592384
 20
-24.07780142192293
 30
0.0
  0
ENDBLK
  5
1D3
330
1D0
100
AcDbEntity
  8
0
100
AcDbBlockEnd
  0
BLOCK
  5
1D7
330
1D5
100
AcDbEntity
  8
0
100
AcDbBlockBegin
  2
block 76
 70
     0
 10
0.0
 20
0.0
 30
0.0
  3
block 76
  1

  0
SPLINE
  5
1D9
330
1D5
100
AcDbEntity
  8
0
 62
   250
370
    25
100
AcDbSpline
210
0.0
220
0.0
230
1.0
 70
     8
 71
     3
 72
     8
 73
     4
 74
     0
 42
0.0000000001
 43
0.0000000001
 12
1.0
 22
0.0
 32
0.0
 13
1.0
 23
0.0
 33
0.0
 40
0.0
 40
0.0
 40
0.0
 40
0.0
 40
1.0
 40
1.0
 40
1.0
 40
1.0
 10
74.32363014527293
 20
146.8311666563209
 30
0.0
 10
72.86653621412854
 20
148.6862687659493
 30
0.0
 10
71.48444365569802
 20
150.5957698002259
 30
0.0
 10
70.36923039391178
 20
152.6743943395614
 30
0.0
  0
ENDBLK
  5
1D8
330
1D5
100
AcDbEntity
  8
0
100
AcDbBlockEnd
  0
BLOCK
  5
1DC
330
1DA
100
AcDbEntity
  8
0
100
AcDbBlockBegin
  2
block 77
 70
     0
 10
0.0
 20
0.0
 30
0.0
  3
block 77
  1

  0
SPLINE
  5
1DE
330
1DA
100
AcDbEntity
  8
0
 62
   250
370
    25
100
AcDbSpline
210
0.0
220
0.0
230
1.0
 70
     8
 71
     3
 72
    20
 73
    16
 74
     0
 42
0.0000000001
 43
0.0000000001
 12
1.0
 22
0.0
 32
0.0
 13
1.0
 23
0.0
 33
0.0
 40
0.0
 40
0.0
 40
0.0
 40
0.0
 40
1.0
 40
1.0
 40
1.0
 40
2.0
 40
2.0
 40
2.0
 40
3.0
 40
3.0
 40
3.0
 40
4.0
 40
4.0
 40
4.0
 40
5.0
 40
5.0
 40
5.0
 40
5.0
 10
105.1248171247533
 20
131.5905776560123
 30
0.0
 10
103.6954871072152
 20
131.5927649020089
 30
0.0
 10
102.2665804276307
 20
131.6772208200533
 30
0.0
 10
100.8467755138728
 20
131.8411231572495
 30
0.0
 10
99.42809950131172
 20
132.0048843818007
 30
0.0
 10
98.01845469824505
 20
132.2479509128478
 30
0.0
 10
96.62690759237216
 20
132.5688410676284
 30
0.0
 10
93.67680656101122
 20
133.2491451292774
 30
0.0
 10
90.80791585891835
 20
134.2792321597777
 30
0.0
 10
88.09431962658746
 20
135.6218484208405
 30
0.0
 10
85.39130684290788
 20
136.9591729577098
 30
0.0
 10
82.84231851515558
 20
138.6065925320277
 30
0.0
 10
80.50884447996752
 20
140.5169755203326
 30
0.0
 10
78.28642609920475
 20
142.3364819652483
 30
0.0
 10
76.25944873674746
 20
144.3945040584119
 30
0.0
 10
74.47236287687777
 20
146.6429223878706
 30
0.0
  0
ENDBLK
  5
1DD
330
1DA
100
AcDbEntity
  8
0
100
AcDbBlockEnd
  0
BLOCK
  5
1E1
330
1DF
100
AcDbEntity
  8
0
100
AcDbBlockBegin
  2
block 78
 70
     0
 10
0.0
 20
0.0
 30
0.0
  3
block 78
  1

  0
POLYLINE
  5
1E3
330
1DF
100
AcDbEntity
  8
0
 62
     4
370
    25
100
AcDb2dPolyline
 66
     1
 10
0.0
 20
0.0
 30
0.0
  0
VERTEX
  5
1E4
330
1E3
100
AcDbEntity
  8
0
 62
     4
370
    25
100
AcDbVertex
100
AcDb2dVertex
 10
46.99550930749925
 20
171.2443705164921
 30
0.0
  0
VERTEX
  5
1E5
330
1E3
100
AcDbEntity
  8
0
 62
     4
370
    25
100
AcDbVertex
100
AcDb2dVertex
 10
58.24555474196972
 20
171.2443705164921
 30
0.0
  0
SEQEND
  5
1E6
330
1E3
100
AcDbEntity
  8
0
 62
     4
370
    25
  0
ENDBLK
  5
1E2
330
1DF
100
AcDbEntity
  8
0
100
AcDbBlockEnd
  0
BLOCK
  5
1E9
330
1E7
100
AcDbEntity
  8
0
100
AcDbBlockBegin
  2
block 79
 70
     0
 10
0.0
 20
0.0
 30
0.0
  3
block 79
  1

  0
POLYLINE
  5
1EB
330
1E7
100
AcDbEntity
  8
0
  6
AI-Linetype-1
 62
     4
370
    25
100
AcDb2dPolyline
 66
     1
 10
0.0
 20
0.0
 30
0.0
  0
VERTEX
  5
1EC
330
1EB
100
AcDbEntity
  8
0
  6
AI-Linetype-1
 62
     4
370
    25
100
AcDbVertex
100
AcDb2dVertex
 10
62.64291768303618
 20
171.2443705164921
 30
0.0
  0
VERTEX
  5
1ED
330
1EB
100
AcDbEntity
  8
0
  6
AI-Linetype-1
 62
     4
370
    25
100
AcDbVertex
100
AcDb2dVertex
 10
69.23898362648265
 20
171.2443705164921
 30
0.0
  0
SEQEND
  5
1EF
330
1EB
100
AcDbEntity
  8
0
  6
AI-Linetype-1
 62
     4
370
    25
  0
ENDBLK
  5
1EA
330
1E7
100
AcDbEntity
  8
0
100
AcDbBlockEnd
  0
BLOCK
  5
1F2
330
1F0
100
AcDbEntity
  8
0
100
AcDbBlockBegin
  2
block 80
 70
     0
 10
0.0
 20
0.0
 30
0.0
  3
block 80
  1

  0
POLYLINE
  5
1F4
330
1F0
100
AcDbEntity
  8
0
  6
AI-Linetype-2
 62
     4
370
    25
100
AcDb2dPolyline
 66
     1
 10
0.0
 20
0.0
 30
0.0
  0
VERTEX
  5
1F5
330
1F4
100
AcDbEntity
  8
0
  6
AI-Linetype-2
 62
     4
370
    25
100
AcDbVertex
100
AcDb2dVertex
 10
71.4376435651691
 20
171.2443705164921
 30
0.0
  0
VERTEX
  5
1F6
330
1F4
100
AcDbEntity
  8
0
  6
AI-Linetype-2
 62
     4
370
    25
100
AcDbVertex
100
AcDb2dVertex
 10
148.391904138921
 20
171.2443705164921
 30
0.0
  0
SEQEND
  5
1F8
330
1F4
100
AcDbEntity
  8
0
  6
AI-Linetype-2
 62
     4
370
    25
  0
ENDBLK
  5
1F3
330
1F0
100
AcDbEntity
  8
0
100
AcDbBlockEnd
  0
BLOCK
  5
1FB
330
1F9
100
AcDbEntity
  8
0
100
AcDbBlockBegin
  2
block 81
 70
     0
 10
0.0
 20
0.0
 30
0.0
  3
block 81
  1

  0
POLYLINE
  5
1FD
330
1F9
100
AcDbEntity
  8
0
 62
     4
370
    25
100
AcDb2dPolyline
 66
     1
 10
0.0
 20
0.0
 30
0.0
  0
VERTEX
  5
1FE
330
1FD
100
AcDbEntity
  8
0
 62
     4
370
    25
100
AcDbVertex
100
AcDb2dVertex
 10
150.590607141301
 20
171.2443705164921
 30
0.0
  0
VERTEX
  5
1FF
330
1FD
100
AcDbEntity
  8
0
 62
     4
370
    25
100
AcDbVertex
100
AcDb2dVertex
 10
161.840695639465
 20
171.2443705164921
 30
0.0
  0
SEQEND
  5
200
330
1FD
100
AcDbEntity
  8
0
 62
     4
370
    25
  0
ENDBLK
  5
1FC
330
1F9
100
AcDbEntity
  8
0
100
AcDbBlockEnd
  0
BLOCK
  5
203
330
201
100
AcDbEntity
  8
0
100
AcDbBlockBegin
  2
block 82
 70
     0
 10
0.0
 20
0.0
 30
0.0
  3
block 82
  1

  0
POLYLINE
  5
205
330
201
100
AcDbEntity
  8
0
 62
     4
370
    25
100
AcDb2dPolyline
 66
     1
 10
0.0
 20
0.0
 30
0.0
  0
VERTEX
  5
206
330
205
100
AcDbEntity
  8
0
 62
     4
370
    25
100
AcDbVertex
100
AcDb2dVertex
 10
104.4181024734821
 20
227.8504760524708
 30
0.0
  0
VERTEX
  5
207
330
205
100
AcDbEntity
  8
0
 62
     4
370
    25
100
AcDbVertex
100
AcDb2dVertex
 10
104.4181024734821
 20
216.6003875543068
 30
0.0
  0
SEQEND
  5
208
330
205
100
AcDbEntity
  8
0
 62
     4
370
    25
  0
ENDBLK
  5
204
330
201
100
AcDbEntity
  8
0
100
AcDbBlockEnd
  0
BLOCK
  5
20B
330
209
100
AcDbEntity
  8
0
100
AcDbBlockBegin
  2
block 83
 70
     0
 10
0.0
 20
0.0
 30
0.0
  3
block 83
  1

  0
POLYLINE
  5
20D
330
209
100
AcDbEntity
  8
0
  6
AI-Linetype-3
 62
     4
370
    25
100
AcDb2dPolyline
 66
     1
 10
0.0
 20
0.0
 30
0.0
  0
VERTEX
  5
20E
330
20D
100
AcDbEntity
  8
0
  6
AI-Linetype-3
 62
     4
370
    25
100
AcDbVertex
100
AcDb2dVertex
 10
104.4181024734821
 20
212.2121971799698
 30
0.0
  0
VERTEX
  5
20F
330
20D
100
AcDbEntity
  8
0
  6
AI-Linetype-3
 62
     4
370
    25
100
AcDbVertex
100
AcDb2dVertex
 10
104.4181024734821
 20
205.6299331503111
 30
0.0
  0
SEQEND
  5
211
330
20D
100
AcDbEntity
  8
0
  6
AI-Linetype-3
 62
     4
370
    25
  0
ENDBLK
  5
20C
330
209
100
AcDbEntity
  8
0
100
AcDbBlockEnd
  0
BLOCK
  5
214
330
212
100
AcDbEntity
  8
0
100
AcDbBlockBegin
  2
block 84
 70
     0
 10
0.0
 20
0.0
 30
0.0
  3
block 84
  1

  0
POLYLINE
  5
216
330
212
100
AcDbEntity
  8
0
  6
AI-Linetype-4
 62
     4
370
    25
100
AcDb2dPolyline
 66
     1
 10
0.0
 20
0.0
 30
0.0
  0
VERTEX
  5
217
330
216
100
AcDbEntity
  8
0
  6
AI-Linetype-4
 62
     4
370
    25
100
AcDbVertex
100
AcDb2dVertex
 10
104.4181024734821
 20
203.4358594949894
 30
0.0
  0
VERTEX
  5
218
330
216
100
AcDbEntity
  8
0
  6
AI-Linetype-4
 62
     4
370
    25
100
AcDbVertex
100
AcDb2dVertex
 10
104.4181024734821
 20
126.642355689318
 30
0.0
  0
SEQEND
  5
21A
330
216
100
AcDbEntity
  8
0
  6
AI-Linetype-4
 62
     4
370
    25
  0
ENDBLK
  5
215
330
212
100
AcDbEntity
  8
0
100
AcDbBlockEnd
  0
BLOCK
  5
21D
330
21B
100
AcDbEntity
  8
0
100
AcDbBlockBegin
  2
block 85
 70
     0
 10
0.0
 20
0.0
 30
0.0
  3
block 85
  1

  0
POLYLINE
  5
21F
330
21B
100
AcDbEntity
  8
0
 62
     4
370
    25
100
AcDb2dPolyline
 66
     1
 10
0.0
 20
0.0
 30
0.0
  0
VERTEX
  5
220
330
21F
100
AcDbEntity
  8
0
 62
     4
370
    25
100
AcDbVertex
100
AcDb2dVertex
 10
104.4181024734821
 20
124.4482605021495
 30
0.0
  0
VERTEX
  5
221
330
21F
100
AcDbEntity
  8
0
 62
     4
370
    25
100
AcDbVertex
100
AcDb2dVertex
 10
104.4181024734821
 20
113.198215067679
 30
0.0
  0
SEQEND
  5
222
330
21F
100
AcDbEntity
  8
0
 62
     4
370
    25
  0
ENDBLK
  5
21E
330
21B
100
AcDbEntity
  8
0
100
AcDbBlockEnd
  0
BLOCK
  5
225
330
223
100
AcDbEntity
  8
0
100
AcDbBlockBegin
  2
block 86
 70
     0
 10
0.0
 20
0.0
 30
0.0
  3
block 86
  1

  0
POLYLINE
  5
227
330
223
100
AcDbEntity
  8
0
 62
     4
370
    25
100
AcDb2dPolyline
 66
     1
 10
0.0
 20
0.0
 30
0.0
  0
VERTEX
  5
228
330
227
100
AcDbEntity
  8
0
 62
     4
370
    25
100
AcDbVertex
100
AcDb2dVertex
 10
144.8491832603579
 20
321.4389064761223
 30
0.0
  0
VERTEX
  5
229
330
227
100
AcDbEntity
  8
0
 62
     4
370
    25
100
AcDbVertex
100
AcDb2dVertex
 10
133.5990947621938
 20
321.4389064761223
 30
0.0
  0
SEQEND
  5
22A
330
227
100
AcDbEntity
  8
0
 62
     4
370
    25
  0
ENDBLK
  5
226
330
223
100
AcDbEntity
  8
0
100
AcDbBlockEnd
  0
BLOCK
  5
22D
330
22B
100
AcDbEntity
  8
0
100
AcDbBlockBegin
  2
block 87
 70
     0
 10
0.0
 20
0.0
 30
0.0
  3
block 87
  1

  0
POLYLINE
  5
22F
330
22B
100
AcDbEntity
  8
0
  6
AI-Linetype-5
 62
     4
370
    25
100
AcDb2dPolyline
 66
     1
 10
0.0
 20
0.0
 30
0.0
  0
VERTEX
  5
230
330
22F
100
AcDbEntity
  8
0
  6
AI-Linetype-5
 62
     4
370
    25
100
AcDbVertex
100
AcDb2dVertex
 10
128.8074406428405
 20
321.4389064761223
 30
0.0
  0
VERTEX
  5
231
330
22F
100
AcDbEntity
  8
0
  6
AI-Linetype-5
 62
     4
370
    25
100
AcDbVertex
100
AcDb2dVertex
 10
121.6199809956574
 20
321.4389064761223
 30
0.0
  0
SEQEND
  5
233
330
22F
100
AcDbEntity
  8
0
  6
AI-Linetype-5
 62
     4
370
    25
  0
ENDBLK
  5
22E
330
22B
100
AcDbEntity
  8
0
100
AcDbBlockEnd
  0
BLOCK
  5
236
330
234
100
AcDbEntity
  8
0
100
AcDbBlockBegin
  2
block 88
 70
     0
 10
0.0
 20
0.0
 30
0.0
  3
block 88
  1

  0
POLYLINE
  5
238
330
234
100
AcDbEntity
  8
0
  6
AI-Linetype-6
 62
     4
370
    25
100
AcDb2dPolyline
 66
     1
 10
0.0
 20
0.0
 30
0.0
  0
VERTEX
  5
239
330
238
100
AcDbEntity
  8
0
  6
AI-Linetype-6
 62
     4
370
    25
100
AcDbVertex
100
AcDb2dVertex
 10
119.2241754678275
 20
321.4389064761223
 30
0.0
  0
VERTEX
  5
23A
330
238
100
AcDbEntity
  8
0
  6
AI-Linetype-6
 62
     4
370
    25
100
AcDbVertex
100
AcDb2dVertex
 10
78.49500779409051
 20
321.4389064761223
 30
0.0
  0
SEQEND
  5
23C
330
238
100
AcDbEntity
  8
0
  6
AI-Linetype-6
 62
     4
370
    25
  0
ENDBLK
  5
237
330
234
100
AcDbEntity
  8
0
100
AcDbBlockEnd
  0
BLOCK
  5
23F
330
23D
100
AcDbEntity
  8
0
100
AcDbBlockBegin
  2
block 89
 70
     0
 10
0.0
 20
0.0
 30
0.0
  3
block 89
  1

  0
POLYLINE
  5
241
330
23D
100
AcDbEntity
  8
0
 62
     4
370
    25
100
AcDb2dPolyline
 66
     1
 10
0.0
 20
0.0
 30
0.0
  0
VERTEX
  5
242
330
241
100
AcDbEntity
  8
0
 62
     4
370
    25
100
AcDbVertex
100
AcDb2dVertex
 10
76.09920226626065
 20
321.4389064761223
 30
0.0
  0
VERTEX
  5
243
330
241
100
AcDbEntity
  8
0
 62
     4
370
    25
100
AcDbVertex
100
AcDb2dVertex
 10
64.84911376809661
 20
321.4389064761223
 30
0.0
  0
SEQEND
  5
244
330
241
100
AcDbEntity
  8
0
 62
     4
370
    25
  0
ENDBLK
  5
240
330
23D
100
AcDbEntity
  8
0
100
AcDbBlockEnd
  0
BLOCK
  5
247
330
245
100
AcDbEntity
  8
0
100
AcDbBlockBegin
  2
block 90
 70
     0
 10
0.0
 20
0.0
 30
0.0
  3
block 90
  1

  0
POLYLINE
  5
249
330
245
100
AcDbEntity
  8
0
 62
     4
370
    25
100
AcDb2dPolyline
 66
     1
 10
0.0
 20
0.0
 30
0.0
  0
VERTEX
  5
24A
330
249
100
AcDbEntity
  8
0
 62
     4
370
    25
100
AcDbVertex
100
AcDb2dVertex
 10
104.8496006830097
 20
361.43839216016
 30
0.0
  0
VERTEX
  5
24B
330
249
100
AcDbEntity
  8
0
 62
     4
370
    25
100
AcDbVertex
100
AcDb2dVertex
 10
104.8496006830097
 20
350.188303661996
 30
0.0
  0
SEQEND
  5
24C
330
249
100
AcDbEntity
  8
0
 62
     4
370
    25
  0
ENDBLK
  5
248
330
245
100
AcDbEntity
  8
0
100
AcDbBlockEnd
  0
BLOCK
  5
24F
330
24D
100
AcDbEntity
  8
0
100
AcDbBlockBegin
  2
block 91
 70
     0
 10
0.0
 20
0.0
 30
0.0
  3
block 91
  1

  0
POLYLINE
  5
251
330
24D
100
AcDbEntity
  8
0
  6
AI-Linetype-7
 62
     4
370
    25
100
AcDb2dPolyline
 66
     1
 10
0.0
 20
0.0
 30
0.0
  0
VERTEX
  5
252
330
251
100
AcDbEntity
  8
0
  6
AI-Linetype-7
 62
     4
370
    25
100
AcDbVertex
100
AcDb2dVertex
 10
104.8496006830097
 20
345.396660308566
 30
0.0
  0
VERTEX
  5
253
330
251
100
AcDbEntity
  8
0
  6
AI-Linetype-7
 62
     4
370
    25
100
AcDbVertex
100
AcDb2dVertex
 10
104.8496006830097
 20
338.2092006613829
 30
0.0
  0
SEQEND
  5
255
330
251
100
AcDbEntity
  8
0
  6
AI-Linetype-7
 62
     4
370
    25
  0
ENDBLK
  5
250
330
24D
100
AcDbEntity
  8
0
100
AcDbBlockEnd
  0
BLOCK
  5
258
330
256
100
AcDbEntity
  8
0
100
AcDbBlockBegin
  2
block 92
 70
     0
 10
0.0
 20
0.0
 30
0.0
  3
block 92
  1

  0
POLYLINE
  5
25A
330
256
100
AcDbEntity
  8
0
  6
AI-Linetype-8
 62
     4
370
    25
100
AcDb2dPolyline
 66
     1
 10
0.0
 20
0.0
 30
0.0
  0
VERTEX
  5
25B
330
25A
100
AcDbEntity
  8
0
  6
AI-Linetype-8
 62
     4
370
    25
100
AcDbVertex
100
AcDb2dVertex
 10
104.8496006830097
 20
335.8133843676296
 30
0.0
  0
VERTEX
  5
25C
330
25A
100
AcDbEntity
  8
0
  6
AI-Linetype-8
 62
     4
370
    25
100
AcDbVertex
100
AcDb2dVertex
 10
104.8496006830097
 20
295.084227459816
 30
0.0
  0
SEQEND
  5
25E
330
25A
100
AcDbEntity
  8
0
  6
AI-Linetype-8
 62
     4
370
    25
  0
ENDBLK
  5
259
330
256
100
AcDbEntity
  8
0
100
AcDbBlockEnd
  0
BLOCK
  5
261
330
25F
100
AcDbEntity
  8
0
100
AcDbBlockBegin
  2
block 93
 70
     0
 10
0.0
 20
0.0
 30
0.0
  3
block 93
  1

  0
POLYLINE
  5
263
330
25F
100
AcDbEntity
  8
0
 62
     4
370
    25
100
AcDb2dPolyline
 66
     1
 10
0.0
 20
0.0
 30
0.0
  0
VERTEX
  5
264
330
263
100
AcDbEntity
  8
0
 62
     4
370
    25
100
AcDbVertex
100
AcDb2dVertex
 10
104.8496006830097
 20
292.6884219319862
 30
0.0
  0
VERTEX
  5
265
330
263
100
AcDbEntity
  8
0
 62
     4
370
    25
100
AcDbVertex
100
AcDb2dVertex
 10
104.8496006830097
 20
281.4383334338222
 30
0.0
  0
SEQEND
  5
266
330
263
100
AcDbEntity
  8
0
 62
     4
370
    25
  0
ENDBLK
  5
262
330
25F
100
AcDbEntity
  8
0
100
AcDbBlockEnd
  0
BLOCK
  5
269
330
267
100
AcDbEntity
  8
0
100
AcDbBlockBegin
  2
block 94
 70
     0
 10
0.0
 20
0.0
 30
0.0
  3
block 94
  1

  0
SPLINE
  5
26B
330
267
100
AcDbEntity
  8
0
  6
AI-Linetype-9
 62
     6
370
    25
100
AcDbSpline
210
0.0
220
0.0
230
1.0
 70
    11
 71
     3
 72
    17
 73
    13
 74
     0
 42
0.0000000001
 43
0.0000000001
 12
1.0
 22
0.0
 32
0.0
 13
1.0
 23
0.0
 33
0.0
 40
0.0
 40
0.0
 40
0.0
 40
0.0
 40
1.0
 40
1.0
 40
1.0
 40
2.0
 40
2.0
 40
2.0
 40
3.0
 40
3.0
 40
3.0
 40
4.0
 40
4.0
 40
4.0
 40
4.0
 10
371.8982740093675
 20
302.5809889833841
 30
0.0
 10
381.5623687634043
 20
302.5809889833841
 30
0.0
 10
389.4000473329541
 20
310.4154924040727
 30
0.0
 10
389.4000473329541
 20
320.0795871580968
 30
0.0
 10
389.4000473329541
 20
329.7468570610013
 30
0.0
 10
381.5623687634043
 20
337.581360481677
 30
0.0
 10
371.8982740093675
 20
337.581360481677
 30
0.0
 10
362.2341792553428
 20
337.581360481677
 30
0.0
 10
354.396500685793
 20
329.7468570610013
 30
0.0
 10
354.396500685793
 20
320.0795871580968
 30
0.0
 10
354.396500685793
 20
310.4154924040727
 30
0.0
 10
362.2341792553428
 20
302.5809889833841
 30
0.0
 10
371.8982740093675
 20
302.5809889833841
 30
0.0
  0
ENDBLK
  5
26A
330
267
100
AcDbEntity
  8
0
100
AcDbBlockEnd
  0
BLOCK
  5
26F
330
26D
100
AcDbEntity
  8
0
100
AcDbBlockBegin
  2
block 95
 70
     0
 10
0.0
 20
0.0
 30
0.0
  3
block 95
  1

  0
SPLINE
  5
271
330
26D
100
AcDbEntity
  8
0
  6
AI-Linetype-10
 62
     6
370
    25
100
AcDbSpline
210
0.0
220
0.0
230
1.0
 70
    11
 71
     3
 72
    17
 73
    13
 74
     0
 42
0.0000000001
 43
0.0000000001
 12
1.0
 22
0.0
 32
0.0
 13
1.0
 23
0.0
 33
0.0
 40
0.0
 40
0.0
 40
0.0
 40
0.0
 40
1.0
 40
1.0
 40
1.0
 40
2.0
 40
2.0
 40
2.0
 40
3.0
 40
3.0
 40
3.0
 40
4.0
 40
4.0
 40
4.0
 40
4.0
 10
-163.2453835830838
 20
303.5412522603089
 30
0.0
 10
-153.5812888290533
 20
303.5412522603089
 30
0.0
 10
-145.7436102595036
 20
311.3757556809911
 30
0.0
 10
-145.7436102595036
 20
321.0398504350222
 30
0.0
 10
-145.7436102595036
 20
330.7071203379267
 30
0.0
 10
-153.5812888290533
 20
338.5416237586018
 30
0.0
 10
-163.2453835830838
 20
338.5416237586018
 30
0.0
 10
-172.9094783371017
 20
338.5416237586018
 30
0.0
 10
-180.7471569066644
 20
330.7071203379267
 30
0.0
 10
-180.7471569066644
 20
321.0398504350222
 30
0.0
 10
-180.7471569066644
 20
311.3757556809911
 30
0.0
 10
-172.9094783371017
 20
303.5412522603089
 30
0.0
 10
-163.2453835830838
 20
303.5412522603089
 30
0.0
  0
ENDBLK
  5
270
330
26D
100
AcDbEntity
  8
0
100
AcDbBlockEnd
  0
ENDSEC
  0
SECTION
  2
ENTITIES
  0
INSERT
  5
41
330
1F
100
AcDbEntity
  8
0
100
AcDbBlockReference
  2
block 2
 10
0.0
 20
0.0
 30
0.0
  0
INSERT
  5
46
330
1F
100
AcDbEntity
  8
0
100
AcDbBlockReference
  2
block 3
 10
0.0
 20
0.0
 30
0.0
  0
INSERT
  5
4E
330
1F
100
AcDbEntity
  8
0
100
AcDbBlockReference
  2
block 4
 10
0.0
 20
0.0
 30
0.0
  0
INSERT
  5
53
330
1F
100
AcDbEntity
  8
0
100
AcDbBlockReference
  2
block 5
 10
0.0
 20
0.0
 30
0.0
  0
INSERT
  5
58
330
1F
100
AcDbEntity
  8
0
100
AcDbBlockReference
  2
block 6
 10
0.0
 20
0.0
 30
0.0
  0
INSERT
  5
5D
330
1F
100
AcDbEntity
  8
0
100
AcDbBlockReference
  2
block 7
 10
0.0
 20
0.0
 30
0.0
  0
INSERT
  5
62
330
1F
100
AcDbEntity
  8
0
100
AcDbBlockReference
  2
block 8
 10
0.0
 20
0.0
 30
0.0
  0
INSERT
  5
67
330
1F
100
AcDbEntity
  8
0
100
AcDbBlockReference
  2
block 9
 10
0.0
 20
0.0
 30
0.0
  0
INSERT
  5
6C
330
1F
100
AcDbEntity
  8
0
100
AcDbBlockReference
  2
block 10
 10
0.0
 20
0.0
 30
0.0
  0
INSERT
  5
71
330
1F
100
AcDbEntity
  8
0
100
AcDbBlockReference
  2
block 11
 10
0.0
 20
0.0
 30
0.0
  0
INSERT
  5
76
330
1F
100
AcDbEntity
  8
0
100
AcDbBlockReference
  2
block 12
 10
0.0
 20
0.0
 30
0.0
  0
INSERT
  5
7E
330
1F
100
AcDbEntity
  8
0
100
AcDbBlockReference
  2
block 13
 10
0.0
 20
0.0
 30
0.0
  0
INSERT
  5
83
330
1F
100
AcDbEntity
  8
0
100
AcDbBlockReference
  2
block 14
 10
0.0
 20
0.0
 30
0.0
  0
INSERT
  5
88
330
1F
100
AcDbEntity
  8
0
100
AcDbBlockReference
  2
block 15
 10
0.0
 20
0.0
 30
0.0
  0
INSERT
  5
8D
330
1F
100
AcDbEntity
  8
0
100
AcDbBlockReference
  2
block 16
 10
0.0
 20
0.0
 30
0.0
  0
INSERT
  5
92
330
1F
100
AcDbEntity
  8
0
100
AcDbBlockReference
  2
block 17
 10
0.0
 20
0.0
 30
0.0
  0
INSERT
  5
97
330
1F
100
AcDbEntity
  8
0
100
AcDbBlockReference
  2
block 18
 10
0.0
 20
0.0
 30
0.0
  0
INSERT
  5
9C
330
1F
100
AcDbEntity
  8
0
100
AcDbBlockReference
  2
block 19
 10
0.0
 20
0.0
 30
0.0
  0
INSERT
  5
A4
330
1F
100
AcDbEntity
  8
0
100
AcDbBlockReference
  2
block 20
 10
0.0
 20
0.0
 30
0.0
  0
INSERT
  5
A9
330
1F
100
AcDbEntity
  8
0
100
AcDbBlockReference
  2
block 21
 10
0.0
 20
0.0
 30
0.0
  0
INSERT
  5
AE
330
1F
100
AcDbEntity
  8
0
100
AcDbBlockReference
  2
block 22
 10
0.0
 20
0.0
 30
0.0
  0
INSERT
  5
B3
330
1F
100
AcDbEntity
  8
0
100
AcDbBlockReference
  2
block 23
 10
0.0
 20
0.0
 30
0.0
  0
INSERT
  5
B8
330
1F
100
AcDbEntity
  8
0
100
AcDbBlockReference
  2
block 24
 10
0.0
 20
0.0
 30
0.0
  0
INSERT
  5
BD
330
1F
100
AcDbEntity
  8
0
100
AcDbBlockReference
  2
block 25
 10
0.0
 20
0.0
 30
0.0
  0
INSERT
  5
C2
330
1F
100
AcDbEntity
  8
0
100
AcDbBlockReference
  2
block 26
 10
0.0
 20
0.0
 30
0.0
  0
INSERT
  5
C7
330
1F
100
AcDbEntity
  8
0
100
AcDbBlockReference
  2
block 27
 10
0.0
 20
0.0
 30
0.0
  0
INSERT
  5
CC
330
1F
100
AcDbEntity
  8
0
100
AcDbBlockReference
  2
block 28
 10
0.0
 20
0.0
 30
0.0
  0
INSERT
  5
D3
330
1F
100
AcDbEntity
  8
0
100
AcDbBlockReference
  2
block 29
 10
0.0
 20
0.0
 30
0.0
  0
INSERT
  5
D8
330
1F
100
AcDbEntity
  8
0
100
AcDbBlockReference
  2
block 30
 10
0.0
 20
0.0
 30
0.0
  0
INSERT
  5
E0
330
1F
100
AcDbEntity
  8
0
100
AcDbBlockReference
  2
block 31
 10
0.0
 20
0.0
 30
0.0
  0
INSERT
  5
E5
330
1F
100
AcDbEntity
  8
0
100
AcDbBlockReference
  2
block 32
 10
0.0
 20
0.0
 30
0.0
  0
INSERT
  5
EA
330
1F
100
AcDbEntity
  8
0
100
AcDbBlockReference
  2
block 33
 10
0.0
 20
0.0
 30
0.0
  0
INSERT
  5
EF
330
1F
100
AcDbEntity
  8
0
100
AcDbBlockReference
  2
block 34
 10
0.0
 20
0.0
 30
0.0
  0
INSERT
  5
F4
330
1F
100
AcDbEntity
  8
0
100
AcDbBlockReference
  2
block 35
 10
0.0
 20
0.0
 30
0.0
  0
INSERT
  5
F9
330
1F
100
AcDbEntity
  8
0
100
AcDbBlockReference
  2
block 36
 10
0.0
 20
0.0
 30
0.0
  0
INSERT
  5
FE
330
1F
100
AcDbEntity
  8
0
100
AcDbBlockReference
  2
block 37
 10
0.0
 20
0.0
 30
0.0
  0
INSERT
  5
103
330
1F
100
AcDbEntity
  8
0
100
AcDbBlockReference
  2
block 38
 10
0.0
 20
0.0
 30
0.0
  0
INSERT
  5
10B
330
1F
100
AcDbEntity
  8
0
100
AcDbBlockReference
  2
block 39
 10
0.0
 20
0.0
 30
0.0
  0
INSERT
  5
113
330
1F
100
AcDbEntity
  8
0
100
AcDbBlockReference
  2
block 40
 10
0.0
 20
0.0
 30
0.0
  0
INSERT
  5
118
330
1F
100
AcDbEntity
  8
0
100
AcDbBlockReference
  2
block 41
 10
0.0
 20
0.0
 30
0.0
  0
INSERT
  5
11D
330
1F
100
AcDbEntity
  8
0
100
AcDbBlockReference
  2
block 42
 10
0.0
 20
0.0
 30
0.0
  0
INSERT
  5
125
330
1F
100
AcDbEntity
  8
0
100
AcDbBlockReference
  2
block 43
 10
0.0
 20
0.0
 30
0.0
  0
INSERT
  5
12A
330
1F
100
AcDbEntity
  8
0
100
AcDbBlockReference
  2
block 44
 10
0.0
 20
0.0
 30
0.0
  0
INSERT
  5
12F
330
1F
100
AcDbEntity
  8
0
100
AcDbBlockReference
  2
block 45
 10
0.0
 20
0.0
 30
0.0
  0
INSERT
  5
134
330
1F
100
AcDbEntity
  8
0
100
AcDbBlockReference
  2
block 46
 10
0.0
 20
0.0
 30
0.0
  0
INSERT
  5
139
330
1F
100
AcDbEntity
  8
0
100
AcDbBlockReference
  2
block 47
 10
0.0
 20
0.0
 30
0.0
  0
INSERT
  5
13E
330
1F
100
AcDbEntity
  8
0
100
AcDbBlockReference
  2
block 48
 10
0.0
 20
0.0
 30
0.0
  0
INSERT
  5
143
330
1F
100
AcDbEntity
  8
0
100
AcDbBlockReference
  2
block 49
 10
0.0
 20
0.0
 30
0.0
  0
INSERT
  5
148
330
1F
100
AcDbEntity
  8
0
100
AcDbBlockReference
  2
block 50
 10
0.0
 20
0.0
 30
0.0
  0
INSERT
  5
14D
330
1F
100
AcDbEntity
  8
0
100
AcDbBlockReference
  2
block 51
 10
0.0
 20
0.0
 30
0.0
  0
INSERT
  5
152
330
1F
100
AcDbEntity
  8
0
100
AcDbBlockReference
  2
block 52
 10
0.0
 20
0.0
 30
0.0
  0
INSERT
  5
157
330
1F
100
AcDbEntity
  8
0
100
AcDbBlockReference
  2
block 53
 10
0.0
 20
0.0
 30
0.0
  0
INSERT
  5
15C
330
1F
100
AcDbEntity
  8
0
100
AcDbBlockReference
  2
block 54
 10
0.0
 20
0.0
 30
0.0
  0
INSERT
  5
164
330
1F
100
AcDbEntity
  8
0
100
AcDbBlockReference
  2
block 55
 10
0.0
 20
0.0
 30
0.0
  0
INSERT
  5
169
330
1F
100
AcDbEntity
  8
0
100
AcDbBlockReference
  2
block 56
 10
0.0
 20
0.0
 30
0.0
  0
INSERT
  5
16E
330
1F
100
AcDbEntity
  8
0
100
AcDbBlockReference
  2
block 57
 10
0.0
 20
0.0
 30
0.0
  0
INSERT
  5
173
330
1F
100
AcDbEntity
  8
0
100
AcDbBlockReference
  2
block 58
 10
0.0
 20
0.0
 30
0.0
  0
INSERT
  5
178
330
1F
100
AcDbEntity
  8
0
100
AcDbBlockReference
  2
block 59
 10
0.0
 20
0.0
 30
0.0
  0
INSERT
  5
17D
330
1F
100
AcDbEntity
  8
0
100
AcDbBlockReference
  2
block 60
 10
0.0
 20
0.0
 30
0.0
  0
INSERT
  5
182
330
1F
100
AcDbEntity
  8
0
100
AcDbBlockReference
  2
block 61
 10
0.0
 20
0.0
 30
0.0
  0
INSERT
  5
187
330
1F
100
AcDbEntity
  8
0
100
AcDbBlockReference
  2
block 62
 10
0.0
 20
0.0
 30
0.0
  0
INSERT
  5
18C
330
1F
100
AcDbEntity
  8
0
100
AcDbBlockReference
  2
block 63
 10
0.0
 20
0.0
 30
0.0
  0
INSERT
  5
191
330
1F
100
AcDbEntity
  8
0
100
AcDbBlockReference
  2
block 64
 10
0.0
 20
0.0
 30
0.0
  0
INSERT
  5
199
330
1F
100
AcDbEntity
  8
0
100
AcDbBlockReference
  2
block 65
 10
0.0
 20
0.0
 30
0.0
  0
INSERT
  5
19E
330
1F
100
AcDbEntity
  8
0
100
AcDbBlockReference
  2
block 66
 10
0.0
 20
0.0
 30
0.0
  0
INSERT
  5
1A6
330
1F
100
AcDbEntity
  8
0
100
AcDbBlockReference
  2
block 67
 10
0.0
 20
0.0
 30
0.0
  0
INSERT
  5
1AB
330
1F
100
AcDbEntity
  8
0
100
AcDbBlockReference
  2
block 68
 10
0.0
 20
0.0
 30
0.0
  0
INSERT
  5
1B3
330
1F
100
AcDbEntity
  8
0
100
AcDbBlockReference
  2
block 69
 10
0.0
 20
0.0
 30
0.0
  0
INSERT
  5
1B8
330
1F
100
AcDbEntity
  8
0
100
AcDbBlockReference
  2
block 70
 10
0.0
 20
0.0
 30
0.0
  0
INSERT
  5
1BD
330
1F
100
AcDbEntity
  8
0
100
AcDbBlockReference
  2
block 71
 10
0.0
 20
0.0
 30
0.0
  0
INSERT
  5
1C2
330
1F
100
AcDbEntity
  8
0
100
AcDbBlockReference
  2
block 72
 10
0.0
 20
0.0
 30
0.0
  0
INSERT
  5
1C7
330
1F
100
AcDbEntity
  8
0
100
AcDbBlockReference
  2
block 73
 10
0.0
 20
0.0
 30
0.0
  0
INSERT
  5
1CC
330
1F
100
AcDbEntity
  8
0
100
AcDbBlockReference
  2
block 74
 10
0.0
 20
0.0
 30
0.0
  0
INSERT
  5
1D1
330
1F
100
AcDbEntity
  8
0
100
AcDbBlockReference
  2
block 75
 10
0.0
 20
0.0
 30
0.0
  0
INSERT
  5
1D6
330
1F
100
AcDbEntity
  8
0
100
AcDbBlockReference
  2
block 76
 10
0.0
 20
0.0
 30
0.0
  0
INSERT
  5
1DB
330
1F
100
AcDbEntity
  8
0
100
AcDbBlockReference
  2
block 77
 10
0.0
 20
0.0
 30
0.0
  0
INSERT
  5
1E0
330
1F
100
AcDbEntity
  8
0
100
AcDbBlockReference
  2
block 78
 10
0.0
 20
0.0
 30
0.0
  0
INSERT
  5
1E8
330
1F
100
AcDbEntity
  8
0
100
AcDbBlockReference
  2
block 79
 10
0.0
 20
0.0
 30
0.0
  0
INSERT
  5
1F1
330
1F
100
AcDbEntity
  8
0
100
AcDbBlockReference
  2
block 80
 10
0.0
 20
0.0
 30
0.0
  0
INSERT
  5
1FA
330
1F
100
AcDbEntity
  8
0
100
AcDbBlockReference
  2
block 81
 10
0.0
 20
0.0
 30
0.0
  0
INSERT
  5
202
330
1F
100
AcDbEntity
  8
0
100
AcDbBlockReference
  2
block 82
 10
0.0
 20
0.0
 30
0.0
  0
INSERT
  5
20A
330
1F
100
AcDbEntity
  8
0
100
AcDbBlockReference
  2
block 83
 10
0.0
 20
0.0
 30
0.0
  0
INSERT
  5
213
330
1F
100
AcDbEntity
  8
0
100
AcDbBlockReference
  2
block 84
 10
0.0
 20
0.0
 30
0.0
  0
INSERT
  5
21C
330
1F
100
AcDbEntity
  8
0
100
AcDbBlockReference
  2
block 85
 10
0.0
 20
0.0
 30
0.0
  0
INSERT
  5
224
330
1F
100
AcDbEntity
  8
0
100
AcDbBlockReference
  2
block 86
 10
0.0
 20
0.0
 30
0.0
  0
INSERT
  5
22C
330
1F
100
AcDbEntity
  8
0
100
AcDbBlockReference
  2
block 87
 10
0.0
 20
0.0
 30
0.0
  0
INSERT
  5
235
330
1F
100
AcDbEntity
  8
0
100
AcDbBlockReference
  2
block 88
 10
0.0
 20
0.0
 30
0.0
  0
INSERT
  5
23E
330
1F
100
AcDbEntity
  8
0
100
AcDbBlockReference
  2
block 89
 10
0.0
 20
0.0
 30
0.0
  0
INSERT
  5
246
330
1F
100
AcDbEntity
  8
0
100
AcDbBlockReference
  2
block 90
 10
0.0
 20
0.0
 30
0.0
  0
INSERT
  5
24E
330
1F
100
AcDbEntity
  8
0
100
AcDbBlockReference
  2
block 91
 10
0.0
 20
0.0
 30
0.0
  0
INSERT
  5
257
330
1F
100
AcDbEntity
  8
0
100
AcDbBlockReference
  2
block 92
 10
0.0
 20
0.0
 30
0.0
  0
INSERT
  5
260
330
1F
100
AcDbEntity
  8
0
100
AcDbBlockReference
  2
block 93
 10
0.0
 20
0.0
 30
0.0
  0
INSERT
  5
268
330
1F
100
AcDbEntity
  8
0
100
AcDbBlockReference
  2
block 94
 10
0.0
 20
0.0
 30
0.0
  0
INSERT
  5
26E
330
1F
100
AcDbEntity
  8
0
100
AcDbBlockReference
  2
block 95
 10
0.0
 20
0.0
 30
0.0
  0
ENDSEC
  0
SECTION
  2
OBJECTS
  0
DICTIONARY
  5
C
330
0
100
AcDbDictionary
281
     1
  3
ACAD_GROUP
350
D
  3
ACAD_LAYOUT
350
1A
  3
ACAD_MATERIAL
350
3B
  3
ACAD_MLEADERSTYLE
350
295
  3
ACAD_MLINESTYLE
350
17
  3
ACAD_PLOTSETTINGS
350
19
  3
ACAD_PLOTSTYLENAME
350
E
  3
ACAD_TABLESTYLE
350
294
  3
ACAD_VISUALSTYLE
350
2A
  0
SUN
  5
3F
330
29
100
AcDbSun
 90
        1
290
     0
 63
     7
421
 16777215
 40
1.0
291
     1
 91
  2455826
 92
 54000000
292
     0
 70
     2
 71
   256
280
     1
  0
DICTIONARY
  5
D
102
{ACAD_REACTORS
330
C
102
}
330
C
100
AcDbDictionary
281
     1
  0
DICTIONARY
  5
1A
102
{ACAD_REACTORS
330
C
102
}
330
C
100
AcDbDictionary
281
     1
  3
Layout1
350
1E
  3
Layout2
350
26
  3
Model
350
22
  0
DICTIONARY
  5
3B
102
{ACAD_REACTORS
330
C
102
}
330
C
100
AcDbDictionary
281
     1
  3
ByBlock
350
3D
  3
ByLayer
350
3C
  3
Global
350
3E
  0
DICTIONARY
  5
295
102
{ACAD_REACTORS
330
C
102
}
330
C
100
AcDbDictionary
281
     1
  0
DICTIONARY
  5
17
102
{ACAD_REACTORS
330
C
102
}
330
C
100
AcDbDictionary
281
     1
  3
Standard
350
18
  0
DICTIONARY
  5
19
102
{ACAD_REACTORS
330
C
102
}
330
C
100
AcDbDictionary
281
     1
  0
ACDBDICTIONARYWDFLT
  5
E
102
{ACAD_REACTORS
330
C
102
}
330
C
100
AcDbDictionary
281
     1
  3
Normal
350
F
100
AcDbDictionaryWithDefault
340
F
  0
DICTIONARY
  5
294
102
{ACAD_REACTORS
330
C
102
}
330
C
100
AcDbDictionary
281
     1
  0
DICTIONARY
  5
2A
102
{ACAD_REACTORS
330
C
102
}
330
C
100
AcDbDictionary
281
     1
  3
2dWireframe
350
2F
  3
3D Hidden
350
31
  3
3dWireframe
350
30
  3
Basic
350
32
  3
Brighten
350
36
  3
ColorChange
350
3A
  3
Conceptual
350
34
  3
Dim
350
35
  3
Facepattern
350
39
  3
Flat
350
2B
  3
FlatWithEdges
350
2C
  3
Gouraud
350
2D
  3
GouraudWithEdges
350
2E
  3
Linepattern
350
38
  3
Realistic
350
33
  3
Thicken
350
37
  0
LAYOUT
  5
1E
102
{ACAD_REACTORS
330
1A
102
}
330
1A
100
AcDbPlotSettings
  1

  2
none_device
  4

  6

 40
0.0
 41
0.0
 42
0.0
 43
0.0
 44
0.0
 45
0.0
 46
0.0
 47
0.0
 48
0.0
 49
0.0
140
0.0
141
0.0
142
1.0
143
1.0
 70
   688
 72
     0
 73
     0
 74
     5
  7

 75
    16
 76
     0
 77
     2
 78
   300
147
1.0
148
0.0
149
0.0
100
AcDbLayout
  1
Layout1
 70
     1
 71
     1
 10
0.0
 20
0.0
 11
12.0
 21
9.0
 12
0.0
 22
0.0
 32
0.0
 14
1.000000000000000E+20
 24
1.000000000000000E+20
 34
1.000000000000000E+20
 15
-1.000000000000000E+20
 25
-1.000000000000000E+20
 35
-1.000000000000000E+20
146
0.0
 13
0.0
 23
0.0
 33
0.0
 16
1.0
 26
0.0
 36
0.0
 17
0.0
 27
1.0
 37
0.0
 76
     0
330
1B
  0
LAYOUT
  5
26
102
{ACAD_REACTORS
330
1A
102
}
330
1A
100
AcDbPlotSettings
  1

  2
none_device
  4

  6

 40
0.0
 41
0.0
 42
0.0
 43
0.0
 44
0.0
 45
0.0
 46
0.0
 47
0.0
 48
0.0
 49
0.0
140
0.0
141
0.0
142
1.0
143
1.0
 70
   688
 72
     0
 73
     0
 74
     5
  7

 75
    16
 76
     0
 77
     2
 78
   300
147
1.0
148
0.0
149
0.0
100
AcDbLayout
  1
Layout2
 70
     1
 71
     2
 10
0.0
 20
0.0
 11
0.0
 21
0.0
 12
0.0
 22
0.0
 32
0.0
 14
0.0
 24
0.0
 34
0.0
 15
0.0
 25
0.0
 35
0.0
146
0.0
 13
0.0
 23
0.0
 33
0.0
 16
1.0
 26
0.0
 36
0.0
 17
0.0
 27
1.0
 37
0.0
 76
     0
330
23
  0
LAYOUT
  5
22
102
{ACAD_REACTORS
330
1A
102
}
330
1A
100
AcDbPlotSettings
  1

  2
none_device
  4

  6

 40
0.0
 41
0.0
 42
0.0
 43
0.0
 44
0.0
 45
0.0
 46
0.0
 47
0.0
 48
0.0
 49
0.0
140
0.0
141
0.0
142
1.0
143
1.0
 70
  1712
 72
     0
 73
     0
 74
     0
  7

 75
     0
 76
     0
 77
     2
 78
   300
147
1.0
148
0.0
149
0.0
100
AcDbLayout
  1
Model
 70
     1
 71
     0
 10
0.0
 20
0.0
 11
12.0
 21
9.0
 12
0.0
 22
0.0
 32
0.0
 14
1.000000000000000E+20
 24
1.000000000000000E+20
 34
1.000000000000000E+20
 15
-1.000000000000000E+20
 25
-1.000000000000000E+20
 35
-1.000000000000000E+20
146
0.0
 13
0.0
 23
0.0
 33
0.0
 16
1.0
 26
0.0
 36
0.0
 17
0.0
 27
1.0
 37
0.0
 76
     0
330
1F
331
29
  0
MATERIAL
  5
3D
102
{ACAD_REACTORS
330
3B
102
}
330
3B
100
AcDbMaterial
  1
ByBlock
 72
     1
 94
      127
  0
MATERIAL
  5
3C
102
{ACAD_REACTORS
330
3B
102
}
330
3B
100
AcDbMaterial
  1
ByLayer
 72
     1
 94
      127
  0
MATERIAL
  5
3E
102
{ACAD_REACTORS
330
3B
102
}
330
3B
100
AcDbMaterial
  1
Global
 72
     1
 94
      127
  0
MLINESTYLE
  5
18
102
{ACAD_REACTORS
330
17
102
}
330
17
100
AcDbMlineStyle
  2
Standard
 70
     0
  3

 62
   256
 51
90.0
 52
90.0
 71
     2
 49
0.5
 62
   256
  6
BYLAYER
 49
-0.5
 62
   256
  6
BYLAYER
  0
ACDBPLACEHOLDER
  5
F
102
{ACAD_REACTORS
330
E
102
}
330
E
  0
VISUALSTYLE
  5
2F
102
{ACAD_REACTORS
330
2A
102
}
102
{ACAD_XDICTIONARY
360
27C
102
}
330
2A
100
AcDbVisualStyle
  2
2dWireframe
 70
     4
 71
     0
 72
     2
 73
     0
 90
        0
 40
-0.6
 41
-30.0
 62
     5
 63
     7
421
 16777215
 74
     1
 91
        4
 64
     7
 65
   257
 75
     1
175
     1
 42
1.0
 92
        0
 66
   257
 43
1.0
 76
     1
 77
     6
 78
     2
 67
     7
 79
     5
170
     0
171
     0
290
     0
174
     0
 93
        1
 44
0.0
173
     0
291
     0
 45
0.0
  0
VISUALSTYLE
  5
31
102
{ACAD_REACTORS
330
2A
102
}
102
{ACAD_XDICTIONARY
360
280
102
}
330
2A
100
AcDbVisualStyle
  2
3D Hidden
 70
     6
 71
     1
 72
     2
 73
     2
 90
        0
 40
-0.6
 41
-30.0
 62
     5
 63
     7
421
 16777215
 74
     2
 91
        2
 64
     7
 65
   257
 75
     2
175
     1
 42
40.0
 92
        0
 66
   257
 43
1.0
 76
     1
 77
     6
 78
     2
 67
     7
 79
     3
170
     0
171
     0
290
     0
174
     0
 93
        1
 44
0.0
173
     0
291
     0
 45
0.0
  0
VISUALSTYLE
  5
30
102
{ACAD_REACTORS
330
2A
102
}
102
{ACAD_XDICTIONARY
360
27E
102
}
330
2A
100
AcDbVisualStyle
  2
3dWireframe
 70
     5
 71
     0
 72
     2
 73
     0
 90
        0
 40
-0.6
 41
-30.0
 62
     5
 63
     7
421
 16777215
 74
     1
 91
        4
 64
     7
 65
   257
 75
     1
175
     1
 42
1.0
 92
        0
 66
   257
 43
1.0
 76
     1
 77
     6
 78
     2
 67
     7
 79
     5
170
     0
171
     0
290
     0
174
     0
 93
        1
 44
0.0
173
     0
291
     0
 45
0.0
  0
VISUALSTYLE
  5
32
102
{ACAD_REACTORS
330
2A
102
}
102
{ACAD_XDICTIONARY
360
282
102
}
330
2A
100
AcDbVisualStyle
  2
Basic
 70
     7
 71
     1
 72
     0
 73
     1
 90
        0
 40
-0.6
 41
-30.0
 62
     5
 63
     7
421
 16777215
 74
     0
 91
        4
 64
     7
 65
   257
 75
     1
175
     1
 42
1.0
 92
        8
 66
     7
 43
1.0
 76
     1
 77
     6
 78
     2
 67
     7
 79
     5
170
     0
171
     0
290
     0
174
     0
 93
        1
 44
0.0
173
     0
291
     1
 45
0.0
  0
VISUALSTYLE
  5
36
102
{ACAD_REACTORS
330
2A
102
}
102
{ACAD_XDICTIONARY
360
28A
102
}
330
2A
100
AcDbVisualStyle
  2
Brighten
 70
    12
 71
     2
 72
     2
 73
     0
 90
        0
 40
-0.6
 41
-30.0
 62
     5
 63
     7
421
 16777215
 74
     1
 91
        4
 64
     7
 65
   257
 75
     1
175
     1
 42
1.0
 92
        8
 66
     7
 43
1.0
 76
     1
 77
     6
 78
     2
 67
     7
 79
     5
170
     0
171
     0
290
     0
174
     0
 93
        1
 44
50.0
173
     0
291
     1
 45
0.0
  0
VISUALSTYLE
  5
3A
102
{ACAD_REACTORS
330
2A
102
}
102
{ACAD_XDICTIONARY
360
292
102
}
330
2A
100
AcDbVisualStyle
  2
ColorChange
 70
    16
 71
     2
 72
     2
 73
     3
 90
        0
 40
-0.6
 41
-30.0
 62
     5
 63
     8
421
  8421504
 74
     1
 91
        4
 64
     7
 65
   257
 75
     1
175
     1
 42
1.0
 92
        8
 66
     8
424
  8421504
 43
1.0
 76
     1
 77
     6
 78
     2
 67
     7
 79
     5
170
     0
171
     0
290
     0
174
     0
 93
        1
 44
0.0
173
     0
291
     1
 45
0.0
  0
VISUALSTYLE
  5
34
102
{ACAD_REACTORS
330
2A
102
}
102
{ACAD_XDICTIONARY
360
286
102
}
330
2A
100
AcDbVisualStyle
  2
Conceptual
 70
     9
 71
     3
 72
     2
 73
     0
 90
        0
 40
-0.6
 41
-30.0
 62
     5
 63
     7
421
 16777215
 74
     2
 91
        2
 64
     7
 65
   257
 75
     1
175
     1
 42
40.0
 92
        8
 66
     7
 43
1.0
 76
     1
 77
     6
 78
     2
 67
     7
 79
     3
170
     0
171
     0
290
     0
174
     0
 93
        1
 44
0.0
173
     0
291
     0
 45
0.0
  0
VISUALSTYLE
  5
35
102
{ACAD_REACTORS
330
2A
102
}
102
{ACAD_XDICTIONARY
360
288
102
}
330
2A
100
AcDbVisualStyle
  2
Dim
 70
    11
 71
     2
 72
     2
 73
     0
 90
        0
 40
-0.6
 41
-30.0
 62
     5
 63
     7
421
 16777215
 74
     1
 91
        4
 64
     7
 65
   257
 75
     1
175
     1
 42
1.0
 92
        8
 66
     7
 43
1.0
 76
     1
 77
     6
 78
     2
 67
     7
 79
     5
170
     0
171
     0
290
     0
174
     0
 93
        1
 44
-50.0
173
     0
291
     1
 45
0.0
  0
VISUALSTYLE
  5
39
102
{ACAD_REACTORS
330
2A
102
}
102
{ACAD_XDICTIONARY
360
290
102
}
330
2A
100
AcDbVisualStyle
  2
Facepattern
 70
    15
 71
     2
 72
     2
 73
     0
 90
        0
 40
-0.6
 41
-30.0
 62
     5
 63
     7
421
 16777215
 74
     1
 91
        4
 64
     7
 65
   257
 75
     1
175
     1
 42
1.0
 92
        8
 66
     7
 43
1.0
 76
     1
 77
     6
 78
     2
 67
     7
 79
     5
170
     0
171
     0
290
     0
174
     0
 93
        1
 44
0.0
173
     0
291
     1
 45
0.0
  0
VISUALSTYLE
  5
2B
102
{ACAD_REACTORS
330
2A
102
}
102
{ACAD_XDICTIONARY
360
274
102
}
330
2A
100
AcDbVisualStyle
  2
Flat
 70
     0
 71
     2
 72
     1
 73
     1
 90
        2
 40
-0.6
 41
30.0
 62
     5
 63
     7
421
 16777215
 74
     0
 91
        4
 64
     7
 65
   257
 75
     1
175
     1
 42
1.0
 92
        8
 66
     7
 43
1.0
 76
     1
 77
     6
 78
     2
 67
     7
 79
     5
170
     0
171
     0
290
     0
174
     0
 93
       13
 44
0.0
173
     0
291
     1
 45
0.0
  0
VISUALSTYLE
  5
2C
102
{ACAD_REACTORS
330
2A
102
}
102
{ACAD_XDICTIONARY
360
276
102
}
330
2A
100
AcDbVisualStyle
  2
FlatWithEdges
 70
     1
 71
     2
 72
     1
 73
     1
 90
        2
 40
-0.6
 41
30.0
 62
     5
 63
     7
421
 16777215
 74
     1
 91
        4
 64
     7
 65
   257
 75
     1
175
     1
 42
1.0
 92
        0
 66
   257
 43
1.0
 76
     1
 77
     6
 78
     2
 67
     7
 79
     5
170
     0
171
     0
290
     0
174
     0
 93
       13
 44
0.0
173
     0
291
     1
 45
0.0
  0
VISUALSTYLE
  5
2D
102
{ACAD_REACTORS
330
2A
102
}
102
{ACAD_XDICTIONARY
360
278
102
}
330
2A
100
AcDbVisualStyle
  2
Gouraud
 70
     2
 71
     2
 72
     2
 73
     1
 90
        2
 40
-0.6
 41
30.0
 62
     5
 63
     7
421
 16777215
 74
     0
 91
        4
 64
     7
 65
   257
 75
     1
175
     1
 42
1.0
 92
        0
 66
     7
 43
1.0
 76
     1
 77
     6
 78
     2
 67
     7
 79
     5
170
     0
171
     0
290
     0
174
     0
 93
       13
 44
0.0
173
     0
291
     1
 45
0.0
  0
VISUALSTYLE
  5
2E
102
{ACAD_REACTORS
330
2A
102
}
102
{ACAD_XDICTIONARY
360
27A
102
}
330
2A
100
AcDbVisualStyle
  2
GouraudWithEdges
 70
     3
 71
     2
 72
     2
 73
     1
 90
        2
 40
-0.6
 41
30.0
 62
     5
 63
     7
421
 16777215
 74
     1
 91
        4
 64
     7
 65
   257
 75
     1
175
     1
 42
1.0
 92
        0
 66
   257
 43
1.0
 76
     1
 77
     6
 78
     2
 67
     7
 79
     5
170
     0
171
     0
290
     0
174
     0
 93
       13
 44
0.0
173
     0
291
     1
 45
0.0
  0
VISUALSTYLE
  5
38
102
{ACAD_REACTORS
330
2A
102
}
102
{ACAD_XDICTIONARY
360
28E
102
}
330
2A
100
AcDbVisualStyle
  2
Linepattern
 70
    14
 71
     2
 72
     2
 73
     0
 90
        0
 40
-0.6
 41
-30.0
 62
     5
 63
     7
421
 16777215
 74
     1
 91
        4
 64
     7
 65
   257
 75
     7
175
     7
 42
1.0
 92
        8
 66
     7
 43
1.0
 76
     1
 77
     6
 78
     2
 67
     7
 79
     5
170
     0
171
     0
290
     0
174
     0
 93
        1
 44
0.0
173
     0
291
     1
 45
0.0
  0
VISUALSTYLE
  5
33
102
{ACAD_REACTORS
330
2A
102
}
102
{ACAD_XDICTIONARY
360
284
102
}
330
2A
100
AcDbVisualStyle
  2
Realistic
 70
     8
 71
     2
 72
     2
 73
     0
 90
        0
 40
-0.6
 41
-30.0
 62
     5
 63
     7
421
 16777215
 74
     1
 91
        0
 64
     7
 65
   257
 75
     1
175
     1
 42
1.0
 92
        8
 66
     8
424
  7895160
 43
1.0
 76
     1
 77
     6
 78
     2
 67
     7
 79
     5
170
     0
171
     0
290
     0
174
     0
 93
       13
 44
0.0
173
     0
291
     0
 45
0.0
  0
VISUALSTYLE
  5
37
102
{ACAD_REACTORS
330
2A
102
}
102
{ACAD_XDICTIONARY
360
28C
102
}
330
2A
100
AcDbVisualStyle
  2
Thicken
 70
    13
 71
     2
 72
     2
 73
     0
 90
        0
 40
-0.6
 41
-30.0
 62
     5
 63
     7
421
 16777215
 74
     1
 91
        4
 64
     7
 65
   257
 75
     1
175
     1
 42
1.0
 92
       12
 66
     7
 43
1.0
 76
     1
 77
     6
 78
     2
 67
     7
 79
     5
170
     0
171
     0
290
     0
174
     0
 93
        1
 44
0.0
173
     0
291
     1
 45
0.0
  0
DICTIONARY
  5
27C
330
2F
100
AcDbDictionary
280
     1
281
     1
  3
ACAD_XREC_ROUNDTRIP
360
27D
  0
DICTIONARY
  5
280
330
31
100
AcDbDictionary
280
     1
281
     1
  3
ACAD_XREC_ROUNDTRIP
360
281
  0
DICTIONARY
  5
27E
330
30
100
AcDbDictionary
280
     1
281
     1
  3
ACAD_XREC_ROUNDTRIP
360
27F
  0
DICTIONARY
  5
282
330
32
100
AcDbDictionary
280
     1
281
     1
  3
ACAD_XREC_ROUNDTRIP
360
283
  0
DICTIONARY
  5
28A
330
36
100
AcDbDictionary
280
     1
281
     1
  3
ACAD_XREC_ROUNDTRIP
360
28B
  0
DICTIONARY
  5
292
330
3A
100
AcDbDictionary
280
     1
281
     1
  3
ACAD_XREC_ROUNDTRIP
360
293
  0
DICTIONARY
  5
286
330
34
100
AcDbDictionary
280
     1
281
     1
  3
ACAD_XREC_ROUNDTRIP
360
287
  0
DICTIONARY
  5
288
330
35
100
AcDbDictionary
280
     1
281
     1
  3
ACAD_XREC_ROUNDTRIP
360
289
  0
DICTIONARY
  5
290
330
39
100
AcDbDictionary
280
     1
281
     1
  3
ACAD_XREC_ROUNDTRIP
360
291
  0
DICTIONARY
  5
274
330
2B
100
AcDbDictionary
280
     1
281
     1
  3
ACAD_XREC_ROUNDTRIP
360
275
  0
DICTIONARY
  5
276
330
2C
100
AcDbDictionary
280
     1
281
     1
  3
ACAD_XREC_ROUNDTRIP
360
277
  0
DICTIONARY
  5
278
330
2D
100
AcDbDictionary
280
     1
281
     1
  3
ACAD_XREC_ROUNDTRIP
360
279
  0
DICTIONARY
  5
27A
330
2E
100
AcDbDictionary
280
     1
281
     1
  3
ACAD_XREC_ROUNDTRIP
360
27B
  0
DICTIONARY
  5
28E
330
38
100
AcDbDictionary
280
     1
281
     1
  3
ACAD_XREC_ROUNDTRIP
360
28F
  0
DICTIONARY
  5
284
330
33
100
AcDbDictionary
280
     1
281
     1
  3
ACAD_XREC_ROUNDTRIP
360
285
  0
DICTIONARY
  5
28C
330
37
100
AcDbDictionary
280
     1
281
     1
  3
ACAD_XREC_ROUNDTRIP
360
28D
  0
XRECORD
  5
27D
102
{ACAD_REACTORS
330
27C
102
}
330
27C
100
AcDbXrecord
280
     1
102
RTVSPropertyOp0
 70
     1
102
RTVSPropertyOp1
 70
     1
102
RTVSPropertyOp2
 70
     1
102
RTVSPropertyOp3
 70
     1
102
RTVSPropertyOp4
 70
     1
102
RTVSPropertyOp5
 70
     1
102
RTVSPropertyOp6
 70
     1
102
RTVSPropertyOp7
 70
     1
102
RTVSPropertyOp8
 70
     1
102
RTVSPropertyOp9
 70
     1
102
RTVSPropertyOp10
 70
     1
102
RTVSPropertyOp11
 70
     1
102
RTVSPropertyOp12
 70
     1
102
RTVSPropertyOp13
 70
     1
102
RTVSPropertyOp14
 70
     1
102
RTVSPropertyOp15
 70
     1
102
RTVSPropertyOp16
 70
     1
102
RTVSPropertyOp17
 70
     1
102
RTVSPropertyOp18
 70
     1
102
RTVSPropertyOp19
 70
     1
102
RTVSPropertyOp20
 70
     1
102
RTVSPropertyOp21
 70
     1
102
RTVSPropertyOp22
 70
     1
102
RTVSPropertyOp23
 70
     1
102
RTVSPropertyOp24
 70
     1
102
RTVSPropertyOp25
 70
     1
102
RTVSPropertyOp26
 70
     1
102
RTVSPropertyOp27
 70
     1
102
RTVSPropertyOp28
 70
     1
102
RTVSPropertyOp29
 70
     1
102
RTVSPropertyOp30
 70
     1
102
RTVSPropertyOp31
 70
     1
102
RTVSPropertyOp32
 70
     1
  0
XRECORD
  5
281
102
{ACAD_REACTORS
330
280
102
}
330
280
100
AcDbXrecord
280
     1
102
RTVSPropertyOp0
 70
     1
102
RTVSPropertyOp1
 70
     1
102
RTVSPropertyOp2
 70
     1
102
RTVSPropertyOp3
 70
     1
102
RTVSPropertyOp4
 70
     1
102
RTVSPropertyOp5
 70
     1
102
RTVSPropertyOp6
 70
     1
102
RTVSPropertyOp7
 70
     1
102
RTVSPropertyOp8
 70
     1
102
RTVSPropertyOp9
 70
     1
102
RTVSPropertyOp10
 70
     1
102
RTVSPropertyOp11
 70
     1
102
RTVSPropertyOp12
 70
     1
102
RTVSPropertyOp13
 70
     1
102
RTVSPropertyOp14
 70
     1
102
RTVSPropertyOp15
 70
     1
102
RTVSPropertyOp16
 70
     1
102
RTVSPropertyOp17
 70
     1
102
RTVSPropertyOp18
 70
     1
102
RTVSPropertyOp19
 70
     1
102
RTVSPropertyOp20
 70
     1
102
RTVSPropertyOp21
 70
     1
102
RTVSPropertyOp22
 70
     1
102
RTVSPropertyOp23
 70
     1
102
RTVSPropertyOp24
 70
     1
102
RTVSPropertyOp25
 70
     1
102
RTVSPropertyOp26
 70
     1
102
RTVSPropertyOp27
 70
     1
102
RTVSPropertyOp28
 70
     1
102
RTVSPropertyOp29
 70
     1
102
RTVSPropertyOp30
 70
     1
102
RTVSPropertyOp31
 70
     1
102
RTVSPropertyOp32
 70
     1
  0
XRECORD
  5
27F
102
{ACAD_REACTORS
330
27E
102
}
330
27E
100
AcDbXrecord
280
     1
102
RTVSPropertyOp0
 70
     1
102
RTVSPropertyOp1
 70
     1
102
RTVSPropertyOp2
 70
     1
102
RTVSPropertyOp3
 70
     1
102
RTVSPropertyOp4
 70
     1
102
RTVSPropertyOp5
 70
     1
102
RTVSPropertyOp6
 70
     1
102
RTVSPropertyOp7
 70
     1
102
RTVSPropertyOp8
 70
     1
102
RTVSPropertyOp9
 70
     1
102
RTVSPropertyOp10
 70
     1
102
RTVSPropertyOp11
 70
     1
102
RTVSPropertyOp12
 70
     1
102
RTVSPropertyOp13
 70
     1
102
RTVSPropertyOp14
 70
     1
102
RTVSPropertyOp15
 70
     1
102
RTVSPropertyOp16
 70
     1
102
RTVSPropertyOp17
 70
     1
102
RTVSPropertyOp18
 70
     1
102
RTVSPropertyOp19
 70
     1
102
RTVSPropertyOp20
 70
     1
102
RTVSPropertyOp21
 70
     1
102
RTVSPropertyOp22
 70
     1
102
RTVSPropertyOp23
 70
     1
102
RTVSPropertyOp24
 70
     1
102
RTVSPropertyOp25
 70
     1
102
RTVSPropertyOp26
 70
     1
102
RTVSPropertyOp27
 70
     1
102
RTVSPropertyOp28
 70
     1
102
RTVSPropertyOp29
 70
     1
102
RTVSPropertyOp30
 70
     1
102
RTVSPropertyOp31
 70
     1
102
RTVSPropertyOp32
 70
     1
  0
XRECORD
  5
283
102
{ACAD_REACTORS
330
282
102
}
330
282
100
AcDbXrecord
280
     1
102
RTVSPropertyOp0
 70
     1
102
RTVSPropertyOp1
 70
     1
102
RTVSPropertyOp2
 70
     1
102
RTVSPropertyOp3
 70
     1
102
RTVSPropertyOp4
 70
     1
102
RTVSPropertyOp5
 70
     1
102
RTVSPropertyOp6
 70
     1
102
RTVSPropertyOp7
 70
     1
102
RTVSPropertyOp8
 70
     1
102
RTVSPropertyOp9
 70
     1
102
RTVSPropertyOp10
 70
     1
102
RTVSPropertyOp11
 70
     1
102
RTVSPropertyOp12
 70
     1
102
RTVSPropertyOp13
 70
     1
102
RTVSPropertyOp14
 70
     1
102
RTVSPropertyOp15
 70
     1
102
RTVSPropertyOp16
 70
     1
102
RTVSPropertyOp17
 70
     1
102
RTVSPropertyOp18
 70
     1
102
RTVSPropertyOp19
 70
     1
102
RTVSPropertyOp20
 70
     1
102
RTVSPropertyOp21
 70
     1
102
RTVSPropertyOp22
 70
     1
102
RTVSPropertyOp23
 70
     1
102
RTVSPropertyOp24
 70
     1
102
RTVSPropertyOp25
 70
     1
102
RTVSPropertyOp26
 70
     1
102
RTVSPropertyOp27
 70
     1
102
RTVSPropertyOp28
 70
     1
102
RTVSPropertyOp29
 70
     1
102
RTVSPropertyOp30
 70
     1
102
RTVSPropertyOp31
 70
     1
102
RTVSPropertyOp32
 70
     1
  0
XRECORD
  5
28B
102
{ACAD_REACTORS
330
28A
102
}
330
28A
100
AcDbXrecord
280
     1
102
RTVSPropertyOp0
 70
     1
102
RTVSPropertyOp1
 70
     1
102
RTVSPropertyOp2
 70
     1
102
RTVSPropertyOp3
 70
     1
102
RTVSPropertyOp4
 70
     1
102
RTVSPropertyOp5
 70
     1
102
RTVSPropertyOp6
 70
     1
102
RTVSPropertyOp7
 70
     1
102
RTVSPropertyOp8
 70
     1
102
RTVSPropertyOp9
 70
     1
102
RTVSPropertyOp10
 70
     1
102
RTVSPropertyOp11
 70
     1
102
RTVSPropertyOp12
 70
     1
102
RTVSPropertyOp13
 70
     1
102
RTVSPropertyOp14
 70
     1
102
RTVSPropertyOp15
 70
     1
102
RTVSPropertyOp16
 70
     1
102
RTVSPropertyOp17
 70
     1
102
RTVSPropertyOp18
 70
     1
102
RTVSPropertyOp19
 70
     1
102
RTVSPropertyOp20
 70
     1
102
RTVSPropertyOp21
 70
     1
102
RTVSPropertyOp22
 70
     1
102
RTVSPropertyOp23
 70
     1
102
RTVSPropertyOp24
 70
     1
102
RTVSPropertyOp25
 70
     1
102
RTVSPropertyOp26
 70
     1
102
RTVSPropertyOp27
 70
     1
102
RTVSPropertyOp28
 70
     1
102
RTVSPropertyOp29
 70
     1
102
RTVSPropertyOp30
 70
     1
102
RTVSPropertyOp31
 70
     1
102
RTVSPropertyOp32
 70
     1
  0
XRECORD
  5
293
102
{ACAD_REACTORS
330
292
102
}
330
292
100
AcDbXrecord
280
     1
102
RTVSPropertyOp0
 70
     1
102
RTVSPropertyOp1
 70
     1
102
RTVSPropertyOp2
 70
     1
102
RTVSPropertyOp3
 70
     1
102
RTVSPropertyOp4
 70
     1
102
RTVSPropertyOp5
 70
     1
102
RTVSPropertyOp6
 70
     1
102
RTVSPropertyOp7
 70
     1
102
RTVSPropertyOp8
 70
     1
102
RTVSPropertyOp9
 70
     1
102
RTVSPropertyOp10
 70
     1
102
RTVSPropertyOp11
 70
     1
102
RTVSPropertyOp12
 70
     1
102
RTVSPropertyOp13
 70
     1
102
RTVSPropertyOp14
 70
     1
102
RTVSPropertyOp15
 70
     1
102
RTVSPropertyOp16
 70
     1
102
RTVSPropertyOp17
 70
     1
102
RTVSPropertyOp18
 70
     1
102
RTVSPropertyOp19
 70
     1
102
RTVSPropertyOp20
 70
     1
102
RTVSPropertyOp21
 70
     1
102
RTVSPropertyOp22
 70
     1
102
RTVSPropertyOp23
 70
     1
102
RTVSPropertyOp24
 70
     1
102
RTVSPropertyOp25
 70
     1
102
RTVSPropertyOp26
 70
     1
102
RTVSPropertyOp27
 70
     1
102
RTVSPropertyOp28
 70
     1
102
RTVSPropertyOp29
 70
     1
102
RTVSPropertyOp30
 70
     1
102
RTVSPropertyOp31
 70
     1
102
RTVSPropertyOp32
 70
     1
  0
XRECORD
  5
287
102
{ACAD_REACTORS
330
286
102
}
330
286
100
AcDbXrecord
280
     1
102
RTVSPropertyOp0
 70
     1
102
RTVSPropertyOp1
 70
     1
102
RTVSPropertyOp2
 70
     1
102
RTVSPropertyOp3
 70
     1
102
RTVSPropertyOp4
 70
     1
102
RTVSPropertyOp5
 70
     1
102
RTVSPropertyOp6
 70
     1
102
RTVSPropertyOp7
 70
     1
102
RTVSPropertyOp8
 70
     1
102
RTVSPropertyOp9
 70
     1
102
RTVSPropertyOp10
 70
     1
102
RTVSPropertyOp11
 70
     1
102
RTVSPropertyOp12
 70
     1
102
RTVSPropertyOp13
 70
     1
102
RTVSPropertyOp14
 70
     1
102
RTVSPropertyOp15
 70
     1
102
RTVSPropertyOp16
 70
     1
102
RTVSPropertyOp17
 70
     1
102
RTVSPropertyOp18
 70
     1
102
RTVSPropertyOp19
 70
     1
102
RTVSPropertyOp20
 70
     1
102
RTVSPropertyOp21
 70
     1
102
RTVSPropertyOp22
 70
     1
102
RTVSPropertyOp23
 70
     1
102
RTVSPropertyOp24
 70
     1
102
RTVSPropertyOp25
 70
     1
102
RTVSPropertyOp26
 70
     1
102
RTVSPropertyOp27
 70
     1
102
RTVSPropertyOp28
 70
     1
102
RTVSPropertyOp29
 70
     1
102
RTVSPropertyOp30
 70
     1
102
RTVSPropertyOp31
 70
     1
102
RTVSPropertyOp32
 70
     1
  0
XRECORD
  5
289
102
{ACAD_REACTORS
330
288
102
}
330
288
100
AcDbXrecord
280
     1
102
RTVSPropertyOp0
 70
     1
102
RTVSPropertyOp1
 70
     1
102
RTVSPropertyOp2
 70
     1
102
RTVSPropertyOp3
 70
     1
102
RTVSPropertyOp4
 70
     1
102
RTVSPropertyOp5
 70
     1
102
RTVSPropertyOp6
 70
     1
102
RTVSPropertyOp7
 70
     1
102
RTVSPropertyOp8
 70
     1
102
RTVSPropertyOp9
 70
     1
102
RTVSPropertyOp10
 70
     1
102
RTVSPropertyOp11
 70
     1
102
RTVSPropertyOp12
 70
     1
102
RTVSPropertyOp13
 70
     1
102
RTVSPropertyOp14
 70
     1
102
RTVSPropertyOp15
 70
     1
102
RTVSPropertyOp16
 70
     1
102
RTVSPropertyOp17
 70
     1
102
RTVSPropertyOp18
 70
     1
102
RTVSPropertyOp19
 70
     1
102
RTVSPropertyOp20
 70
     1
102
RTVSPropertyOp21
 70
     1
102
RTVSPropertyOp22
 70
     1
102
RTVSPropertyOp23
 70
     1
102
RTVSPropertyOp24
 70
     1
102
RTVSPropertyOp25
 70
     1
102
RTVSPropertyOp26
 70
     1
102
RTVSPropertyOp27
 70
     1
102
RTVSPropertyOp28
 70
     1
102
RTVSPropertyOp29
 70
     1
102
RTVSPropertyOp30
 70
     1
102
RTVSPropertyOp31
 70
     1
102
RTVSPropertyOp32
 70
     1
  0
XRECORD
  5
291
102
{ACAD_REACTORS
330
290
102
}
330
290
100
AcDbXrecord
280
     1
102
RTVSPropertyOp0
 70
     1
102
RTVSPropertyOp1
 70
     1
102
RTVSPropertyOp2
 70
     1
102
RTVSPropertyOp3
 70
     1
102
RTVSPropertyOp4
 70
     1
102
RTVSPropertyOp5
 70
     1
102
RTVSPropertyOp6
 70
     1
102
RTVSPropertyOp7
 70
     1
102
RTVSPropertyOp8
 70
     1
102
RTVSPropertyOp9
 70
     1
102
RTVSPropertyOp10
 70
     1
102
RTVSPropertyOp11
 70
     1
102
RTVSPropertyOp12
 70
     1
102
RTVSPropertyOp13
 70
     1
102
RTVSPropertyOp14
 70
     1
102
RTVSPropertyOp15
 70
     1
102
RTVSPropertyOp16
 70
     1
102
RTVSPropertyOp17
 70
     1
102
RTVSPropertyOp18
 70
     1
102
RTVSPropertyOp19
 70
     1
102
RTVSPropertyOp20
 70
     1
102
RTVSPropertyOp21
 70
     1
102
RTVSPropertyOp22
 70
     1
102
RTVSPropertyOp23
 70
     1
102
RTVSPropertyOp24
 70
     1
102
RTVSPropertyOp25
 70
     1
102
RTVSPropertyOp26
 70
     1
102
RTVSPropertyOp27
 70
     1
102
RTVSPropertyOp28
 70
     1
102
RTVSPropertyOp29
 70
     1
102
RTVSPropertyOp30
 70
     1
102
RTVSPropertyOp31
 70
     1
102
RTVSPropertyOp32
 70
     1
  0
XRECORD
  5
275
102
{ACAD_REACTORS
330
274
102
}
330
274
100
AcDbXrecord
280
     1
102
RTVSPropertyOp0
 70
     1
102
RTVSPropertyOp1
 70
     1
102
RTVSPropertyOp2
 70
     1
102
RTVSPropertyOp3
 70
     1
102
RTVSPropertyOp4
 70
     1
102
RTVSPropertyOp5
 70
     1
102
RTVSPropertyOp6
 70
     1
102
RTVSPropertyOp7
 70
     1
102
RTVSPropertyOp8
 70
     1
102
RTVSPropertyOp9
 70
     1
102
RTVSPropertyOp10
 70
     1
102
RTVSPropertyOp11
 70
     1
102
RTVSPropertyOp12
 70
     1
102
RTVSPropertyOp13
 70
     1
102
RTVSPropertyOp14
 70
     1
102
RTVSPropertyOp15
 70
     1
102
RTVSPropertyOp16
 70
     1
102
RTVSPropertyOp17
 70
     1
102
RTVSPropertyOp18
 70
     1
102
RTVSPropertyOp19
 70
     1
102
RTVSPropertyOp20
 70
     1
102
RTVSPropertyOp21
 70
     1
102
RTVSPropertyOp22
 70
     1
102
RTVSPropertyOp23
 70
     1
102
RTVSPropertyOp24
 70
     1
102
RTVSPropertyOp25
 70
     1
102
RTVSPropertyOp26
 70
     1
102
RTVSPropertyOp27
 70
     1
102
RTVSPropertyOp28
 70
     1
102
RTVSPropertyOp29
 70
     1
102
RTVSPropertyOp30
 70
     1
102
RTVSPropertyOp31
 70
     1
102
RTVSPropertyOp32
 70
     1
  0
XRECORD
  5
277
102
{ACAD_REACTORS
330
276
102
}
330
276
100
AcDbXrecord
280
     1
102
RTVSPropertyOp0
 70
     1
102
RTVSPropertyOp1
 70
     1
102
RTVSPropertyOp2
 70
     1
102
RTVSPropertyOp3
 70
     1
102
RTVSPropertyOp4
 70
     1
102
RTVSPropertyOp5
 70
     1
102
RTVSPropertyOp6
 70
     1
102
RTVSPropertyOp7
 70
     1
102
RTVSPropertyOp8
 70
     1
102
RTVSPropertyOp9
 70
     1
102
RTVSPropertyOp10
 70
     1
102
RTVSPropertyOp11
 70
     1
102
RTVSPropertyOp12
 70
     1
102
RTVSPropertyOp13
 70
     1
102
RTVSPropertyOp14
 70
     1
102
RTVSPropertyOp15
 70
     1
102
RTVSPropertyOp16
 70
     1
102
RTVSPropertyOp17
 70
     1
102
RTVSPropertyOp18
 70
     1
102
RTVSPropertyOp19
 70
     1
102
RTVSPropertyOp20
 70
     1
102
RTVSPropertyOp21
 70
     1
102
RTVSPropertyOp22
 70
     1
102
RTVSPropertyOp23
 70
     1
102
RTVSPropertyOp24
 70
     1
102
RTVSPropertyOp25
 70
     1
102
RTVSPropertyOp26
 70
     1
102
RTVSPropertyOp27
 70
     1
102
RTVSPropertyOp28
 70
     1
102
RTVSPropertyOp29
 70
     1
102
RTVSPropertyOp30
 70
     1
102
RTVSPropertyOp31
 70
     1
102
RTVSPropertyOp32
 70
     1
  0
XRECORD
  5
279
102
{ACAD_REACTORS
330
278
102
}
330
278
100
AcDbXrecord
280
     1
102
RTVSPropertyOp0
 70
     1
102
RTVSPropertyOp1
 70
     1
102
RTVSPropertyOp2
 70
     1
102
RTVSPropertyOp3
 70
     1
102
RTVSPropertyOp4
 70
     1
102
RTVSPropertyOp5
 70
     1
102
RTVSPropertyOp6
 70
     1
102
RTVSPropertyOp7
 70
     1
102
RTVSPropertyOp8
 70
     1
102
RTVSPropertyOp9
 70
     1
102
RTVSPropertyOp10
 70
     1
102
RTVSPropertyOp11
 70
     1
102
RTVSPropertyOp12
 70
     1
102
RTVSPropertyOp13
 70
     1
102
RTVSPropertyOp14
 70
     1
102
RTVSPropertyOp15
 70
     1
102
RTVSPropertyOp16
 70
     1
102
RTVSPropertyOp17
 70
     1
102
RTVSPropertyOp18
 70
     1
102
RTVSPropertyOp19
 70
     1
102
RTVSPropertyOp20
 70
     1
102
RTVSPropertyOp21
 70
     1
102
RTVSPropertyOp22
 70
     1
102
RTVSPropertyOp23
 70
     1
102
RTVSPropertyOp24
 70
     1
102
RTVSPropertyOp25
 70
     1
102
RTVSPropertyOp26
 70
     1
102
RTVSPropertyOp27
 70
     1
102
RTVSPropertyOp28
 70
     1
102
RTVSPropertyOp29
 70
     1
102
RTVSPropertyOp30
 70
     1
102
RTVSPropertyOp31
 70
     1
102
RTVSPropertyOp32
 70
     1
  0
XRECORD
  5
27B
102
{ACAD_REACTORS
330
27A
102
}
330
27A
100
AcDbXrecord
280
     1
102
RTVSPropertyOp0
 70
     1
102
RTVSPropertyOp1
 70
     1
102
RTVSPropertyOp2
 70
     1
102
RTVSPropertyOp3
 70
     1
102
RTVSPropertyOp4
 70
     1
102
RTVSPropertyOp5
 70
     1
102
RTVSPropertyOp6
 70
     1
102
RTVSPropertyOp7
 70
     1
102
RTVSPropertyOp8
 70
     1
102
RTVSPropertyOp9
 70
     1
102
RTVSPropertyOp10
 70
     1
102
RTVSPropertyOp11
 70
     1
102
RTVSPropertyOp12
 70
     1
102
RTVSPropertyOp13
 70
     1
102
RTVSPropertyOp14
 70
     1
102
RTVSPropertyOp15
 70
     1
102
RTVSPropertyOp16
 70
     1
102
RTVSPropertyOp17
 70
     1
102
RTVSPropertyOp18
 70
     1
102
RTVSPropertyOp19
 70
     1
102
RTVSPropertyOp20
 70
     1
102
RTVSPropertyOp21
 70
     1
102
RTVSPropertyOp22
 70
     1
102
RTVSPropertyOp23
 70
     1
102
RTVSPropertyOp24
 70
     1
102
RTVSPropertyOp25
 70
     1
102
RTVSPropertyOp26
 70
     1
102
RTVSPropertyOp27
 70
     1
102
RTVSPropertyOp28
 70
     1
102
RTVSPropertyOp29
 70
     1
102
RTVSPropertyOp30
 70
     1
102
RTVSPropertyOp31
 70
     1
102
RTVSPropertyOp32
 70
     1
  0
XRECORD
  5
28F
102
{ACAD_REACTORS
330
28E
102
}
330
28E
100
AcDbXrecord
280
     1
102
RTVSPropertyOp0
 70
     1
102
RTVSPropertyOp1
 70
     1
102
RTVSPropertyOp2
 70
     1
102
RTVSPropertyOp3
 70
     1
102
RTVSPropertyOp4
 70
     1
102
RTVSPropertyOp5
 70
     1
102
RTVSPropertyOp6
 70
     1
102
RTVSPropertyOp7
 70
     1
102
RTVSPropertyOp8
 70
     1
102
RTVSPropertyOp9
 70
     1
102
RTVSPropertyOp10
 70
     1
102
RTVSPropertyOp11
 70
     1
102
RTVSPropertyOp12
 70
     1
102
RTVSPropertyOp13
 70
     1
102
RTVSPropertyOp14
 70
     1
102
RTVSPropertyOp15
 70
     1
102
RTVSPropertyOp16
 70
     1
102
RTVSPropertyOp17
 70
     1
102
RTVSPropertyOp18
 70
     1
102
RTVSPropertyOp19
 70
     1
102
RTVSPropertyOp20
 70
     1
102
RTVSPropertyOp21
 70
     1
102
RTVSPropertyOp22
 70
     1
102
RTVSPropertyOp23
 70
     1
102
RTVSPropertyOp24
 70
     1
102
RTVSPropertyOp25
 70
     1
102
RTVSPropertyOp26
 70
     1
102
RTVSPropertyOp27
 70
     1
102
RTVSPropertyOp28
 70
     1
102
RTVSPropertyOp29
 70
     1
102
RTVSPropertyOp30
 70
     1
102
RTVSPropertyOp31
 70
     1
102
RTVSPropertyOp32
 70
     1
  0
XRECORD
  5
285
102
{ACAD_REACTORS
330
284
102
}
330
284
100
AcDbXrecord
280
     1
102
RTVSPropertyOp0
 70
     1
102
RTVSPropertyOp1
 70
     1
102
RTVSPropertyOp2
 70
     1
102
RTVSPropertyOp3
 70
     1
102
RTVSPropertyOp4
 70
     1
102
RTVSPropertyOp5
 70
     1
102
RTVSPropertyOp6
 70
     1
102
RTVSPropertyOp7
 70
     1
102
RTVSPropertyOp8
 70
     1
102
RTVSPropertyOp9
 70
     1
102
RTVSPropertyOp10
 70
     1
102
RTVSPropertyOp11
 70
     1
102
RTVSPropertyOp12
 70
     1
102
RTVSPropertyOp13
 70
     1
102
RTVSPropertyOp14
 70
     1
102
RTVSPropertyOp15
 70
     1
102
RTVSPropertyOp16
 70
     1
102
RTVSPropertyOp17
 70
     1
102
RTVSPropertyOp18
 70
     1
102
RTVSPropertyOp19
 70
     1
102
RTVSPropertyOp20
 70
     1
102
RTVSPropertyOp21
 70
     1
102
RTVSPropertyOp22
 70
     1
102
RTVSPropertyOp23
 70
     1
102
RTVSPropertyOp24
 70
     1
102
RTVSPropertyOp25
 70
     1
102
RTVSPropertyOp26
 70
     1
102
RTVSPropertyOp27
 70
     1
102
RTVSPropertyOp28
 70
     1
102
RTVSPropertyOp29
 70
     1
102
RTVSPropertyOp30
 70
     1
102
RTVSPropertyOp31
 70
     1
102
RTVSPropertyOp32
 70
     1
  0
XRECORD
  5
28D
102
{ACAD_REACTORS
330
28C
102
}
330
28C
100
AcDbXrecord
280
     1
102
RTVSPropertyOp0
 70
     1
102
RTVSPropertyOp1
 70
     1
102
RTVSPropertyOp2
 70
     1
102
RTVSPropertyOp3
 70
     1
102
RTVSPropertyOp4
 70
     1
102
RTVSPropertyOp5
 70
     1
102
RTVSPropertyOp6
 70
     1
102
RTVSPropertyOp7
 70
     1
102
RTVSPropertyOp8
 70
     1
102
RTVSPropertyOp9
 70
     1
102
RTVSPropertyOp10
 70
     1
102
RTVSPropertyOp11
 70
     1
102
RTVSPropertyOp12
 70
     1
102
RTVSPropertyOp13
 70
     1
102
RTVSPropertyOp14
 70
     1
102
RTVSPropertyOp15
 70
     1
102
RTVSPropertyOp16
 70
     1
102
RTVSPropertyOp17
 70
     1
102
RTVSPropertyOp18
 70
     1
102
RTVSPropertyOp19
 70
     1
102
RTVSPropertyOp20
 70
     1
102
RTVSPropertyOp21
 70
     1
102
RTVSPropertyOp22
 70
     1
102
RTVSPropertyOp23
 70
     1
102
RTVSPropertyOp24
 70
     1
102
RTVSPropertyOp25
 70
     1
102
RTVSPropertyOp26
 70
     1
102
RTVSPropertyOp27
 70
     1
102
RTVSPropertyOp28
 70
     1
102
RTVSPropertyOp29
 70
     1
102
RTVSPropertyOp30
 70
     1
102
RTVSPropertyOp31
 70
     1
102
RTVSPropertyOp32
 70
     1
  0
ENDSEC
  0
EOF
