  0
SECTION
  2
HEADER
  9
$ACADVER
  1
AC1021
  9
$ACADMAINTVER
 70
    25
  9
$DWGCODEPAGE
  3
UNDEFINED
  9
$INSBASE
 10
0.0
 20
0.0
 30
0.0
  9
$EXTMIN
 10
1.000000000000000E+20
 20
1.000000000000000E+20
 30
1.000000000000000E+20
  9
$EXTMAX
 10
-1.000000000000000E+20
 20
-1.000000000000000E+20
 30
-1.000000000000000E+20
  9
$LIMMIN
 10
0.0
 20
0.0
  9
$LIMMAX
 10
12.0
 20
9.0
  9
$ORTHOMODE
 70
     0
  9
$REGENMODE
 70
     1
  9
$FILLMODE
 70
     1
  9
$QTEXTMODE
 70
     0
  9
$MIRRTEXT
 70
     1
  9
$LTSCALE
 40
1.0
  9
$ATTMODE
 70
     1
  9
$TEXTSIZE
 40
0.2
  9
$TRACEWID
 40
0.05
  9
$TEXTSTYLE
  7
Standard
  9
$CLAYER
  8
0
  9
$CELTYPE
  6
ByLayer
  9
$CECOLOR
 62
   256
  9
$CELTSCALE
 40
1.0
  9
$DISPSILH
 70
     0
  9
$DIMSCALE
 40
1.0
  9
$DIMASZ
 40
0.18
  9
$DIMEXO
 40
0.0625
  9
$DIMDLI
 40
0.38
  9
$DIMRND
 40
0.0
  9
$DIMDLE
 40
0.0
  9
$DIMEXE
 40
0.18
  9
$DIMTP
 40
0.0
  9
$DIMTM
 40
0.0
  9
$DIMTXT
 40
0.18
  9
$DIMCEN
 40
0.09
  9
$DIMTSZ
 40
0.0
  9
$DIMTOL
 70
     0
  9
$DIMLIM
 70
     0
  9
$DIMTIH
 70
     1
  9
$DIMTOH
 70
     1
  9
$DIMSE1
 70
     0
  9
$DIMSE2
 70
     0
  9
$DIMTAD
 70
     0
  9
$DIMZIN
 70
     0
  9
$DIMBLK
  1

  9
$DIMASO
 70
     1
  9
$DIMSHO
 70
     1
  9
$DIMPOST
  1

  9
$DIMAPOST
  1

  9
$DIMALT
 70
     0
  9
$DIMALTD
 70
     2
  9
$DIMALTF
 40
25.4
  9
$DIMLFAC
 40
1.0
  9
$DIMTOFL
 70
     0
  9
$DIMTVP
 40
0.0
  9
$DIMTIX
 70
     0
  9
$DIMSOXD
 70
     0
  9
$DIMSAH
 70
     0
  9
$DIMBLK1
  1

  9
$DIMBLK2
  1

  9
$DIMSTYLE
  2
Standard
  9
$DIMCLRD
 70
     0
  9
$DIMCLRE
 70
     0
  9
$DIMCLRT
 70
     0
  9
$DIMTFAC
 40
1.0
  9
$DIMGAP
 40
0.09
  9
$DIMJUST
 70
     0
  9
$DIMSD1
 70
     0
  9
$DIMSD2
 70
     0
  9
$DIMTOLJ
 70
     1
  9
$DIMTZIN
 70
     0
  9
$DIMALTZ
 70
     0
  9
$DIMALTTZ
 70
     0
  9
$DIMUPT
 70
     0
  9
$DIMDEC
 70
     4
  9
$DIMTDEC
 70
     4
  9
$DIMALTU
 70
     2
  9
$DIMALTTD
 70
     2
  9
$DIMTXSTY
  7
Standard
  9
$DIMAUNIT
 70
     0
  9
$DIMADEC
 70
     0
  9
$DIMALTRND
 40
0.0
  9
$DIMAZIN
 70
     0
  9
$DIMDSEP
 70
    46
  9
$DIMATFIT
 70
     3
  9
$DIMFRAC
 70
     0
  9
$DIMLDRBLK
  1

  9
$DIMLUNIT
 70
     2
  9
$DIMLWD
 70
    -2
  9
$DIMLWE
 70
    -2
  9
$DIMTMOVE
 70
     0
  9
$DIMFXL
 40
1.0
  9
$DIMFXLON
 70
     0
  9
$DIMJOGANG
 40
0.7853981633974483
  9
$DIMTFILL
 70
     0
  9
$DIMTFILLCLR
 70
     0
  9
$DIMARCSYM
 70
     0
  9
$DIMLTYPE
  6

  9
$DIMLTEX1
  6

  9
$DIMLTEX2
  6

  9
$LUNITS
 70
     2
  9
$LUPREC
 70
     4
  9
$SKETCHINC
 40
0.1
  9
$FILLETRAD
 40
0.5
  9
$AUNITS
 70
     0
  9
$AUPREC
 70
     0
  9
$MENU
  1
.
  9
$ELEVATION
 40
0.0
  9
$PELEVATION
 40
0.0
  9
$THICKNESS
 40
0.0
  9
$LIMCHECK
 70
     0
  9
$CHAMFERA
 40
0.5
  9
$CHAMFERB
 40
0.5
  9
$CHAMFERC
 40
1.0
  9
$CHAMFERD
 40
0.0
  9
$SKPOLY
 70
     0
  9
$TDCREATE
 40
2459377.573495359
  9
$TDUCREATE
 40
2459377.531828704
  9
$TDUPDATE
 40
2459377.573495359
  9
$TDUUPDATE
 40
2459377.531828704
  9
$TDINDWG
 40
0.0000000116
  9
$TDUSRTIMER
 40
0.0000000116
  9
$USRTIMER
 70
     1
  9
$ANGBASE
 50
0.0
  9
$ANGDIR
 70
     0
  9
$PDMODE
 70
     0
  9
$PDSIZE
 40
0.0
  9
$PLINEWID
 40
0.0
  9
$SPLFRAME
 70
     0
  9
$SPLINETYPE
 70
     6
  9
$SPLINESEGS
 70
     8
  9
$HANDSEED
  5
160
  9
$SURFTAB1
 70
     6
  9
$SURFTAB2
 70
     6
  9
$SURFTYPE
 70
     6
  9
$SURFU
 70
     6
  9
$SURFV
 70
     6
  9
$UCSBASE
  2

  9
$UCSNAME
  2

  9
$UCSORG
 10
0.0
 20
0.0
 30
0.0
  9
$UCSXDIR
 10
1.0
 20
0.0
 30
0.0
  9
$UCSYDIR
 10
0.0
 20
1.0
 30
0.0
  9
$UCSORTHOREF
  2

  9
$UCSORTHOVIEW
 70
     0
  9
$UCSORGTOP
 10
0.0
 20
0.0
 30
0.0
  9
$UCSORGBOTTOM
 10
0.0
 20
0.0
 30
0.0
  9
$UCSORGLEFT
 10
0.0
 20
0.0
 30
0.0
  9
$UCSORGRIGHT
 10
0.0
 20
0.0
 30
0.0
  9
$UCSORGFRONT
 10
0.0
 20
0.0
 30
0.0
  9
$UCSORGBACK
 10
0.0
 20
0.0
 30
0.0
  9
$PUCSBASE
  2

  9
$PUCSNAME
  2

  9
$PUCSORG
 10
0.0
 20
0.0
 30
0.0
  9
$PUCSXDIR
 10
1.0
 20
0.0
 30
0.0
  9
$PUCSYDIR
 10
0.0
 20
1.0
 30
0.0
  9
$PUCSORTHOREF
  2

  9
$PUCSORTHOVIEW
 70
     0
  9
$PUCSORGTOP
 10
0.0
 20
0.0
 30
0.0
  9
$PUCSORGBOTTOM
 10
0.0
 20
0.0
 30
0.0
  9
$PUCSORGLEFT
 10
0.0
 20
0.0
 30
0.0
  9
$PUCSORGRIGHT
 10
0.0
 20
0.0
 30
0.0
  9
$PUCSORGFRONT
 10
0.0
 20
0.0
 30
0.0
  9
$PUCSORGBACK
 10
0.0
 20
0.0
 30
0.0
  9
$USERI1
 70
     0
  9
$USERI2
 70
     0
  9
$USERI3
 70
     0
  9
$USERI4
 70
     0
  9
$USERI5
 70
     0
  9
$USERR1
 40
0.0
  9
$USERR2
 40
0.0
  9
$USERR3
 40
0.0
  9
$USERR4
 40
0.0
  9
$USERR5
 40
0.0
  9
$WORLDVIEW
 70
     1
  9
$SHADEDGE
 70
     3
  9
$SHADEDIF
 70
    70
  9
$TILEMODE
 70
     1
  9
$MAXACTVP
 70
    64
  9
$PINSBASE
 10
0.0
 20
0.0
 30
0.0
  9
$PLIMCHECK
 70
     0
  9
$PEXTMIN
 10
1.000000000000000E+20
 20
1.000000000000000E+20
 30
1.000000000000000E+20
  9
$PEXTMAX
 10
-1.000000000000000E+20
 20
-1.000000000000000E+20
 30
-1.000000000000000E+20
  9
$PLIMMIN
 10
0.0
 20
0.0
  9
$PLIMMAX
 10
12.0
 20
9.0
  9
$UNITMODE
 70
     0
  9
$VISRETAIN
 70
     1
  9
$PLINEGEN
 70
     0
  9
$PSLTSCALE
 70
     1
  9
$TREEDEPTH
 70
  3020
  9
$CMLSTYLE
  2
Standard
  9
$CMLJUST
 70
     0
  9
$CMLSCALE
 40
1.0
  9
$PROXYGRAPHICS
 70
     1
  9
$MEASUREMENT
 70
     0
  9
$CELWEIGHT
370
    -1
  9
$ENDCAPS
280
     0
  9
$JOINSTYLE
280
     0
  9
$LWDISPLAY
290
     1
  9
$INSUNITS
 70
     1
  9
$HYPERLINKBASE
  1

  9
$STYLESHEET
  1

  9
$XEDIT
290
     1
  9
$CEPSNTYPE
380
     0
  9
$PSTYLEMODE
290
     1
  9
$FINGERPRINTGUID
  2
{B7D708C8-17CA-124F-6D84-2141EE4827C4}
  9
$VERSIONGUID
  2
{FAEB1C32-E019-11D5-929B-00C0DF256EC4}
  9
$EXTNAMES
290
     1
  9
$PSVPSCALE
 40
0.0
  9
$OLESTARTUP
290
     0
  9
$SORTENTS
280
   127
  9
$INDEXCTL
280
     0
  9
$HIDETEXT
280
     1
  9
$XCLIPFRAME
290
     0
  9
$HALOGAP
280
     0
  9
$OBSCOLOR
 70
   257
  9
$OBSLTYPE
280
     0
  9
$INTERSECTIONDISPLAY
280
     0
  9
$INTERSECTIONCOLOR
 70
   257
  9
$DIMASSOC
280
     2
  9
$PROJECTNAME
  1

  9
$CAMERADISPLAY
290
     0
  9
$LENSLENGTH
 40
50.0
  9
$CAMERAHEIGHT
 40
0.0
  9
$STEPSPERSEC
 40
2.0
  9
$STEPSIZE
 40
6.0
  9
$3DDWFPREC
 40
2.0
  9
$PSOLWIDTH
 40
0.25
  9
$PSOLHEIGHT
 40
4.0
  9
$LOFTANG1
 40
1.570796326794897
  9
$LOFTANG2
 40
1.570796326794897
  9
$LOFTMAG1
 40
0.0
  9
$LOFTMAG2
 40
0.0
  9
$LOFTPARAM
 70
     7
  9
$LOFTNORMALS
280
     1
  9
$LATITUDE
 40
37.795
  9
$LONGITUDE
 40
-122.394
  9
$NORTHDIRECTION
 40
0.0
  9
$TIMEZONE
 70
 -8000
  9
$LIGHTGLYPHDISPLAY
280
     1
  9
$TILEMODELIGHTSYNCH
280
     1
  9
$CMATERIAL
347
3C
  9
$SOLIDHIST
280
     1
  9
$SHOWHIST
280
     1
  9
$DWFFRAME
280
     2
  9
$DGNFRAME
280
     2
  9
$REALWORLDSCALE
290
     1
  9
$INTERFERECOLOR
 62
   256
  9
$CSHADOW
280
     0
  9
$SHADOWPLANELOCATION
 40
0.0
  0
ENDSEC
  0
SECTION
  2
CLASSES
  0
CLASS
  1
ACDBDICTIONARYWDFLT
  2
AcDbDictionaryWithDefault
  3
ObjectDBX Classes
 90
        0
 91
        4
280
     0
281
     0
  0
CLASS
  1
VISUALSTYLE
  2
AcDbVisualStyle
  3
ObjectDBX Classes
 90
     4095
 91
        4
280
     0
281
     0
  0
CLASS
  1
MATERIAL
  2
AcDbMaterial
  3
ObjectDBX Classes
 90
     1153
 91
        4
280
     0
281
     0
  0
CLASS
  1
SUN
  2
AcDbSun
  3
SCENEOE
 90
     1024
 91
        4
280
     0
281
     0
  0
ENDSEC
  0
SECTION
  2
TABLES
  0
TABLE
  2
VPORT
  5
8
330
0
100
AcDbSymbolTable
 70
     1
  0
VPORT
  5
29
330
8
100
AcDbSymbolTableRecord
100
AcDbViewportTableRecord
  2
*Active
 70
     0
 10
0.0
 20
0.0
 11
1.0
 21
1.0
 12
0.0
 22
0.0
 13
0.0
 23
0.0
 14
0.5
 24
0.5
 15
0.5
 25
0.5
 16
0.0
 26
0.0
 36
1.0
 17
105.0007777515277
 27
-148.5000416295416
 37
0.0
 40
297.0000832590831
 41
0.7070757462376333
 42
50.0
 43
0.0
 44
0.0
 50
0.0
 51
0.0
 71
     0
 72
   100
 73
     1
 74
     3
 75
     0
 76
     0
 77
     0
 78
     0
281
     0
 65
     1
110
0.0
120
0.0
130
0.0
111
1.0
121
0.0
131
0.0
112
0.0
122
1.0
132
0.0
 79
     0
146
0.0
 60
     3
 61
     5
292
     1
282
     1
141
0.0
142
0.0
 63
   250
361
3F
  0
ENDTAB
  0
TABLE
  2
LTYPE
  5
5
330
0
100
AcDbSymbolTable
 70
    27
  0
LTYPE
  5
14
330
5
100
AcDbSymbolTableRecord
100
AcDbLinetypeTableRecord
  2
ByBlock
 70
     0
  3

 72
    65
 73
     0
 40
0.0
  0
LTYPE
  5
15
330
5
100
AcDbSymbolTableRecord
100
AcDbLinetypeTableRecord
  2
ByLayer
 70
     0
  3

 72
    65
 73
     0
 40
0.0
  0
LTYPE
  5
16
330
5
100
AcDbSymbolTableRecord
100
AcDbLinetypeTableRecord
  2
Continuous
 70
     0
  3
Solid line
 72
    65
 73
     0
 40
0.0
  0
LTYPE
  5
BA
330
5
100
AcDbSymbolTableRecord
100
AcDbLinetypeTableRecord
  2
AI-Linetype-1
 70
     0
  3
Adobe Illustrator Linetype No. 1
 72
    65
 73
     4
 40
33.75016590970075
 49
22.50016623040469
 74
     0
 49
-3.749999893098687
 74
     0
 49
3.749999893098687
 74
     0
 49
-3.749999893098687
 74
     0
  0
LTYPE
  5
BF
330
5
100
AcDbSymbolTableRecord
100
AcDbLinetypeTableRecord
  2
AI-Linetype-2
 70
     0
  3
Adobe Illustrator Linetype No. 2
 72
    65
 73
     4
 40
33.75016590970075
 49
22.50016623040469
 74
     0
 49
-3.749999893098687
 74
     0
 49
3.749999893098687
 74
     0
 49
-3.749999893098687
 74
     0
  0
LTYPE
  5
C4
330
5
100
AcDbSymbolTableRecord
100
AcDbLinetypeTableRecord
  2
AI-Linetype-3
 70
     0
  3
Adobe Illustrator Linetype No. 3
 72
    65
 73
     4
 40
33.75016590970075
 49
22.50016623040469
 74
     0
 49
-3.749999893098687
 74
     0
 49
3.749999893098687
 74
     0
 49
-3.749999893098687
 74
     0
  0
LTYPE
  5
C9
330
5
100
AcDbSymbolTableRecord
100
AcDbLinetypeTableRecord
  2
AI-Linetype-4
 70
     0
  3
Adobe Illustrator Linetype No. 4
 72
    65
 73
     4
 40
33.75016590970075
 49
22.50016623040469
 74
     0
 49
-3.749999893098687
 74
     0
 49
3.749999893098687
 74
     0
 49
-3.749999893098687
 74
     0
  0
LTYPE
  5
CF
330
5
100
AcDbSymbolTableRecord
100
AcDbLinetypeTableRecord
  2
AI-Linetype-5
 70
     0
  3
Adobe Illustrator Linetype No. 5
 72
    65
 73
     4
 40
33.75016590970075
 49
22.50016623040469
 74
     0
 49
-3.749999893098687
 74
     0
 49
3.749999893098687
 74
     0
 49
-3.749999893098687
 74
     0
  0
LTYPE
  5
D4
330
5
100
AcDbSymbolTableRecord
100
AcDbLinetypeTableRecord
  2
AI-Linetype-6
 70
     0
  3
Adobe Illustrator Linetype No. 6
 72
    65
 73
     4
 40
33.75016590970075
 49
22.50016623040469
 74
     0
 49
-3.749999893098687
 74
     0
 49
3.749999893098687
 74
     0
 49
-3.749999893098687
 74
     0
  0
LTYPE
  5
D9
330
5
100
AcDbSymbolTableRecord
100
AcDbLinetypeTableRecord
  2
AI-Linetype-7
 70
     0
  3
Adobe Illustrator Linetype No. 7
 72
    65
 73
     4
 40
33.75016590970075
 49
22.50016623040469
 74
     0
 49
-3.749999893098687
 74
     0
 49
3.749999893098687
 74
     0
 49
-3.749999893098687
 74
     0
  0
LTYPE
  5
DE
330
5
100
AcDbSymbolTableRecord
100
AcDbLinetypeTableRecord
  2
AI-Linetype-8
 70
     0
  3
Adobe Illustrator Linetype No. 8
 72
    65
 73
     4
 40
33.75016590970075
 49
22.50016623040469
 74
     0
 49
-3.749999893098687
 74
     0
 49
3.749999893098687
 74
     0
 49
-3.749999893098687
 74
     0
  0
LTYPE
  5
E4
330
5
100
AcDbSymbolTableRecord
100
AcDbLinetypeTableRecord
  2
AI-Linetype-9
 70
     0
  3
Adobe Illustrator Linetype No. 9
 72
    65
 73
     4
 40
33.75016590970075
 49
22.50016623040469
 74
     0
 49
-3.749999893098687
 74
     0
 49
3.749999893098687
 74
     0
 49
-3.749999893098687
 74
     0
  0
LTYPE
  5
E9
330
5
100
AcDbSymbolTableRecord
100
AcDbLinetypeTableRecord
  2
AI-Linetype-10
 70
     0
  3
Adobe Illustrator Linetype No. 10
 72
    65
 73
     4
 40
33.75016590970075
 49
22.50016623040469
 74
     0
 49
-3.749999893098687
 74
     0
 49
3.749999893098687
 74
     0
 49
-3.749999893098687
 74
     0
  0
LTYPE
  5
EE
330
5
100
AcDbSymbolTableRecord
100
AcDbLinetypeTableRecord
  2
AI-Linetype-11
 70
     0
  3
Adobe Illustrator Linetype No. 11
 72
    65
 73
     4
 40
33.75016590970075
 49
22.50016623040469
 74
     0
 49
-3.749999893098687
 74
     0
 49
3.749999893098687
 74
     0
 49
-3.749999893098687
 74
     0
  0
LTYPE
  5
F3
330
5
100
AcDbSymbolTableRecord
100
AcDbLinetypeTableRecord
  2
AI-Linetype-12
 70
     0
  3
Adobe Illustrator Linetype No. 12
 72
    65
 73
     4
 40
33.75016590970075
 49
22.50016623040469
 74
     0
 49
-3.749999893098687
 74
     0
 49
3.749999893098687
 74
     0
 49
-3.749999893098687
 74
     0
  0
LTYPE
  5
F9
330
5
100
AcDbSymbolTableRecord
100
AcDbLinetypeTableRecord
  2
AI-Linetype-13
 70
     0
  3
Adobe Illustrator Linetype No. 13
 72
    65
 73
     4
 40
33.75016590970075
 49
22.50016623040469
 74
     0
 49
-3.749999893098687
 74
     0
 49
3.749999893098687
 74
     0
 49
-3.749999893098687
 74
     0
  0
LTYPE
  5
FE
330
5
100
AcDbSymbolTableRecord
100
AcDbLinetypeTableRecord
  2
AI-Linetype-14
 70
     0
  3
Adobe Illustrator Linetype No. 14
 72
    65
 73
     4
 40
33.75016590970075
 49
22.50016623040469
 74
     0
 49
-3.749999893098687
 74
     0
 49
3.749999893098687
 74
     0
 49
-3.749999893098687
 74
     0
  0
LTYPE
  5
103
330
5
100
AcDbSymbolTableRecord
100
AcDbLinetypeTableRecord
  2
AI-Linetype-15
 70
     0
  3
Adobe Illustrator Linetype No. 15
 72
    65
 73
     4
 40
33.75016590970075
 49
22.50016623040469
 74
     0
 49
-3.749999893098687
 74
     0
 49
3.749999893098687
 74
     0
 49
-3.749999893098687
 74
     0
  0
LTYPE
  5
108
330
5
100
AcDbSymbolTableRecord
100
AcDbLinetypeTableRecord
  2
AI-Linetype-16
 70
     0
  3
Adobe Illustrator Linetype No. 16
 72
    65
 73
     4
 40
33.75016590970075
 49
22.50016623040469
 74
     0
 49
-3.749999893098687
 74
     0
 49
3.749999893098687
 74
     0
 49
-3.749999893098687
 74
     0
  0
LTYPE
  5
10D
330
5
100
AcDbSymbolTableRecord
100
AcDbLinetypeTableRecord
  2
AI-Linetype-17
 70
     0
  3
Adobe Illustrator Linetype No. 17
 72
    65
 73
     4
 40
33.75016590970075
 49
22.50016623040469
 74
     0
 49
-3.749999893098687
 74
     0
 49
3.749999893098687
 74
     0
 49
-3.749999893098687
 74
     0
  0
LTYPE
  5
112
330
5
100
AcDbSymbolTableRecord
100
AcDbLinetypeTableRecord
  2
AI-Linetype-18
 70
     0
  3
Adobe Illustrator Linetype No. 18
 72
    65
 73
     4
 40
33.75016590970075
 49
22.50016623040469
 74
     0
 49
-3.749999893098687
 74
     0
 49
3.749999893098687
 74
     0
 49
-3.749999893098687
 74
     0
  0
LTYPE
  5
117
330
5
100
AcDbSymbolTableRecord
100
AcDbLinetypeTableRecord
  2
AI-Linetype-19
 70
     0
  3
Adobe Illustrator Linetype No. 19
 72
    65
 73
     4
 40
33.75016590970075
 49
22.50016623040469
 74
     0
 49
-3.749999893098687
 74
     0
 49
3.749999893098687
 74
     0
 49
-3.749999893098687
 74
     0
  0
LTYPE
  5
11D
330
5
100
AcDbSymbolTableRecord
100
AcDbLinetypeTableRecord
  2
AI-Linetype-20
 70
     0
  3
Adobe Illustrator Linetype No. 20
 72
    65
 73
     4
 40
33.75016590970075
 49
22.50016623040469
 74
     0
 49
-3.749999893098687
 74
     0
 49
3.749999893098687
 74
     0
 49
-3.749999893098687
 74
     0
  0
LTYPE
  5
122
330
5
100
AcDbSymbolTableRecord
100
AcDbLinetypeTableRecord
  2
AI-Linetype-21
 70
     0
  3
Adobe Illustrator Linetype No. 21
 72
    65
 73
     4
 40
33.75016590970075
 49
22.50016623040469
 74
     0
 49
-3.749999893098687
 74
     0
 49
3.749999893098687
 74
     0
 49
-3.749999893098687
 74
     0
  0
LTYPE
  5
127
330
5
100
AcDbSymbolTableRecord
100
AcDbLinetypeTableRecord
  2
AI-Linetype-22
 70
     0
  3
Adobe Illustrator Linetype No. 22
 72
    65
 73
     4
 40
33.75016590970075
 49
22.50016623040469
 74
     0
 49
-3.749999893098687
 74
     0
 49
3.749999893098687
 74
     0
 49
-3.749999893098687
 74
     0
  0
LTYPE
  5
12D
330
5
100
AcDbSymbolTableRecord
100
AcDbLinetypeTableRecord
  2
AI-Linetype-23
 70
     0
  3
Adobe Illustrator Linetype No. 23
 72
    65
 73
     4
 40
33.75016590970075
 49
22.50016623040469
 74
     0
 49
-3.749999893098687
 74
     0
 49
3.749999893098687
 74
     0
 49
-3.749999893098687
 74
     0
  0
LTYPE
  5
132
330
5
100
AcDbSymbolTableRecord
100
AcDbLinetypeTableRecord
  2
AI-Linetype-24
 70
     0
  3
Adobe Illustrator Linetype No. 24
 72
    65
 73
     4
 40
33.75016590970075
 49
22.50016623040469
 74
     0
 49
-3.749999893098687
 74
     0
 49
3.749999893098687
 74
     0
 49
-3.749999893098687
 74
     0
  0
LTYPE
  5
137
330
5
100
AcDbSymbolTableRecord
100
AcDbLinetypeTableRecord
  2
AI-Linetype-25
 70
     0
  3
Adobe Illustrator Linetype No. 25
 72
    65
 73
     4
 40
33.75016590970075
 49
22.50016623040469
 74
     0
 49
-3.749999893098687
 74
     0
 49
3.749999893098687
 74
     0
 49
-3.749999893098687
 74
     0
  0
LTYPE
  5
13C
330
5
100
AcDbSymbolTableRecord
100
AcDbLinetypeTableRecord
  2
AI-Linetype-26
 70
     0
  3
Adobe Illustrator Linetype No. 26
 72
    65
 73
     4
 40
33.75016590970075
 49
22.50016623040469
 74
     0
 49
-3.749999893098687
 74
     0
 49
3.749999893098687
 74
     0
 49
-3.749999893098687
 74
     0
  0
ENDTAB
  0
TABLE
  2
LAYER
  5
2
330
0
100
AcDbSymbolTable
 70
     1
  0
LAYER
  5
10
330
2
100
AcDbSymbolTableRecord
100
AcDbLayerTableRecord
  2
0
 70
     0
 62
     7
  6
Continuous
370
    -3
390
F
347
3E
  0
ENDTAB
  0
TABLE
  2
STYLE
  5
3
330
0
100
AcDbSymbolTable
 70
     1
  0
STYLE
  5
11
330
3
100
AcDbSymbolTableRecord
100
AcDbTextStyleTableRecord
  2
Standard
 70
     0
 40
0.0
 41
1.0
 50
0.0
 71
     0
 42
0.2
  3
txt
  4

  0
ENDTAB
  0
TABLE
  2
VIEW
  5
6
330
0
100
AcDbSymbolTable
 70
     0
  0
ENDTAB
  0
TABLE
  2
UCS
  5
7
330
0
100
AcDbSymbolTable
 70
     0
  0
ENDTAB
  0
TABLE
  2
APPID
  5
9
330
0
100
AcDbSymbolTable
 70
     1
  0
APPID
  5
12
330
9
100
AcDbSymbolTableRecord
100
AcDbRegAppTableRecord
  2
ACAD
 70
     0
  0
ENDTAB
  0
TABLE
  2
DIMSTYLE
  5
A
330
0
100
AcDbSymbolTable
 70
     1
100
AcDbDimStyleTable
  0
DIMSTYLE
105
27
330
A
100
AcDbSymbolTableRecord
100
AcDbDimStyleTableRecord
  2
Standard
 70
     0
178
     0
340
11
  0
ENDTAB
  0
TABLE
  2
BLOCK_RECORD
  5
1
330
0
100
AcDbSymbolTable
 70
     1
  0
BLOCK_RECORD
  5
1F
330
1
100
AcDbSymbolTableRecord
100
AcDbBlockTableRecord
  2
*Model_Space
340
22
 70
     0
280
     1
281
     0
  0
BLOCK_RECORD
  5
1B
330
1
100
AcDbSymbolTableRecord
100
AcDbBlockTableRecord
  2
*Paper_Space
340
1E
 70
     0
280
     1
281
     0
  0
BLOCK_RECORD
  5
23
330
1
100
AcDbSymbolTableRecord
100
AcDbBlockTableRecord
  2
*Paper_Space0
340
26
 70
     0
280
     1
281
     0
  0
ENDTAB
  0
ENDSEC
  0
SECTION
  2
BLOCKS
  0
BLOCK
  5
20
330
1F
100
AcDbEntity
  8
0
100
AcDbBlockBegin
  2
*Model_Space
 70
     0
 10
0.0
 20
0.0
 30
0.0
  3
*Model_Space
  1

  0
ENDBLK
  5
21
330
1F
100
AcDbEntity
  8
0
100
AcDbBlockEnd
  0
BLOCK
  5
1C
330
1B
100
AcDbEntity
 67
     1
  8
0
100
AcDbBlockBegin
  2
*Paper_Space
 70
     0
 10
0.0
 20
0.0
 30
0.0
  3
*Paper_Space
  1

  0
ENDBLK
  5
1D
330
1B
100
AcDbEntity
 67
     1
  8
0
100
AcDbBlockEnd
  0
BLOCK
  5
24
330
23
100
AcDbEntity
  8
0
100
AcDbBlockBegin
  2
*Paper_Space0
 70
     0
 10
0.0
 20
0.0
 30
0.0
  3
*Paper_Space0
  1

  0
ENDBLK
  5
25
330
23
100
AcDbEntity
  8
0
100
AcDbBlockEnd
  0
ENDSEC
  0
SECTION
  2
ENTITIES
  0
SPLINE
  5
40
330
1F
100
AcDbEntity
  8
0
 62
   250
370
    25
100
AcDbSpline
210
0.0
220
0.0
230
1.0
 70
     8
 71
     3
 72
    11
 73
     7
 74
     0
 42
0.0000000001
 43
0.0000000001
 12
1.0
 22
0.0
 32
0.0
 13
1.0
 23
0.0
 33
0.0
 40
0.0
 40
0.0
 40
0.0
 40
0.0
 40
1.0
 40
1.0
 40
1.0
 40
2.0
 40
2.0
 40
2.0
 40
2.0
 10
239.3226177971292
 20
3.814096182440613
 30
0.0
 10
239.5596161034739
 20
9.124579681888504
 30
0.0
 10
243.9099355656358
 20
13.32161567376759
 30
0.0
 10
249.2255345243908
 20
13.36800638007497
 30
0.0
 10
252.0282820326416
 20
13.39981385546505
 30
0.0
 10
387.3643894064264
 20
13.74591803675713
 30
0.0
 10
387.3643894064264
 20
13.74591803675713
 30
0.0
  0
SPLINE
  5
41
330
1F
100
AcDbEntity
  8
0
 62
   250
370
    25
100
AcDbSpline
210
0.0
220
0.0
230
1.0
 70
     8
 71
     3
 72
     8
 73
     4
 74
     0
 42
0.0000000001
 43
0.0000000001
 12
1.0
 22
0.0
 32
0.0
 13
1.0
 23
0.0
 33
0.0
 40
0.0
 40
0.0
 40
0.0
 40
0.0
 40
1.0
 40
1.0
 40
1.0
 40
1.0
 10
235.8531220492951
 20
-151.7670329254721
 30
0.0
 10
235.8531220492951
 20
-99.86796823582866
 30
0.0
 10
237.0090444228599
 20
-48.03335664155844
 30
0.0
 10
239.3226177971292
 20
3.814096182440613
 30
0.0
  0
SPLINE
  5
42
330
1F
100
AcDbEntity
  8
0
 62
   250
370
    25
100
AcDbSpline
210
0.0
220
0.0
230
1.0
 70
     8
 71
     3
 72
     8
 73
     4
 74
     0
 42
0.0000000001
 43
0.0000000001
 12
1.0
 22
0.0
 32
0.0
 13
1.0
 23
0.0
 33
0.0
 40
0.0
 40
0.0
 40
0.0
 40
0.0
 40
1.0
 40
1.0
 40
1.0
 40
1.0
 10
-262.1515107939516
 20
-151.7670329254721
 30
0.0
 10
-262.1514755158484
 20
-74.95150223939218
 30
0.0
 10
-213.4700901527062
 20
-6.575622846993435
 30
0.0
 10
-140.8836966991481
 20
18.56077584897061
 30
0.0
  0
SPLINE
  5
43
330
1F
100
AcDbEntity
  8
0
 62
   250
370
    25
100
AcDbSpline
210
0.0
220
0.0
230
1.0
 70
     8
 71
     3
 72
    29
 73
    25
 74
     0
 42
0.0000000001
 43
0.0000000001
 12
1.0
 22
0.0
 32
0.0
 13
1.0
 23
0.0
 33
0.0
 40
0.0
 40
0.0
 40
0.0
 40
0.0
 40
1.0
 40
1.0
 40
1.0
 40
2.0
 40
2.0
 40
2.0
 40
3.0
 40
3.0
 40
3.0
 40
4.0
 40
4.0
 40
4.0
 40
5.0
 40
5.0
 40
5.0
 40
6.0
 40
6.0
 40
6.0
 40
7.0
 40
7.0
 40
7.0
 40
8.0
 40
8.0
 40
8.0
 40
8.0
 10
-140.8836966991481
 20
18.56077584897061
 30
0.0
 10
-138.3888644237174
 20
19.42480718552457
 30
0.0
 10
-135.8750525280462
 20
20.23383995708969
 30
0.0
 10
-133.3446599232328
 20
20.98734499209997
 30
0.0
 10
-130.8142673184222
 20
21.74088530521343
 30
0.0
 10
-128.2673645606822
 20
22.43886260366951
 30
0.0
 10
-125.7063152830225
 20
23.08053604726705
 30
0.0
 10
-119.7305571538801
 20
24.57770352611746
 30
0.0
 10
-113.6779985911443
 20
25.76816316404026
 30
0.0
 10
-107.5803898888964
 20
26.64588240516294
 30
0.0
 10
-102.353868144115
 20
27.39822326271977
 30
0.0
 10
-97.09429081537448
 20
27.92083310347287
 30
0.0
 10
-91.82190753468035
 20
28.21127773820259
 30
0.0
 10
-90.58777360332769
 20
28.27922336755995
 30
0.0
 10
-89.3529693879902
 20
28.33450415738322
 30
0.0
 10
-88.1177418353959
 20
28.37719066388485
 30
0.0
 10
-87.64346299787233
 20
28.39359498249899
 30
0.0
 10
-87.16914888224525
 20
28.40812956157488
 30
0.0
 10
-86.69476421040603
 20
28.42061801058377
 30
0.0
 10
-86.10177455108492
 20
28.43621093279137
 30
0.0
 10
-85.508714335551
 20
28.44859354748782
 30
0.0
 10
-84.91561884191424
 20
28.46090560597503
 30
0.0
 10
-80.64763847576646
 20
28.54959476080474
 30
0.0
 10
-76.37958755341263
 20
28.63563805779282
 30
0.0
 10
-72.11153663105561
 20
28.72238691687502
 30
0.0
  0
SPLINE
  5
44
330
1F
100
AcDbEntity
  8
0
 62
   250
370
    25
100
AcDbSpline
210
0.0
220
0.0
230
1.0
 70
     8
 71
     3
 72
     8
 73
     4
 74
     0
 42
0.0000000001
 43
0.0000000001
 12
1.0
 22
0.0
 32
0.0
 13
1.0
 23
0.0
 33
0.0
 40
0.0
 40
0.0
 40
0.0
 40
0.0
 40
1.0
 40
1.0
 40
1.0
 40
1.0
 10
-72.11153663105561
 20
28.72238691687502
 30
0.0
 10
80.17702035362991
 20
31.79870818954337
 30
0.0
 10
232.4653656696867
 20
33.63211128282639
 30
0.0
 10
384.7838384870196
 20
34.22294897777514
 30
0.0
  0
SPLINE
  5
45
330
1F
100
AcDbEntity
  8
0
 62
   250
370
    25
100
AcDbSpline
210
0.0
220
0.0
230
1.0
 70
     8
 71
     3
 72
    11
 73
     7
 74
     0
 42
0.0000000001
 43
0.0000000001
 12
1.0
 22
0.0
 32
0.0
 13
1.0
 23
0.0
 33
0.0
 40
0.0
 40
0.0
 40
0.0
 40
0.0
 40
1.0
 40
1.0
 40
1.0
 40
2.0
 40
2.0
 40
2.0
 40
2.0
 10
265.8533752089514
 20
-151.7670329254721
 30
0.0
 10
265.8533752089514
 20
-129.6754258011389
 30
0.0
 10
283.7621638695925
 20
-111.7666728710145
 30
0.0
 10
305.8537715520031
 20
-111.7666728710145
 30
0.0
 10
327.945343956314
 20
-111.7666728710145
 30
0.0
 10
345.8541326169557
 20
-129.6754258011389
 30
0.0
 10
345.8541326169557
 20
-151.7670329254721
 30
0.0
  0
POLYLINE
  5
46
330
1F
100
AcDbEntity
  8
0
 62
   250
370
    25
100
AcDb2dPolyline
 66
     1
 10
0.0
 20
0.0
 30
0.0
  0
VERTEX
  5
47
330
46
100
AcDbEntity
  8
0
 62
   250
370
    25
100
AcDbVertex
100
AcDb2dVertex
 10
387.9723441321502
 20
-317.9320742098394
 30
0.0
  0
VERTEX
  5
48
330
46
100
AcDbEntity
  8
0
 62
   250
370
    25
100
AcDbVertex
100
AcDb2dVertex
 10
387.8937797933276
 20
-151.7670329254721
 30
0.0
  0
SEQEND
  5
49
330
46
100
AcDbEntity
  8
0
 62
   250
370
    25
  0
POLYLINE
  5
4A
330
1F
100
AcDbEntity
  8
0
 62
   250
370
    25
100
AcDb2dPolyline
 66
     1
 10
0.0
 20
0.0
 30
0.0
  0
VERTEX
  5
4B
330
4A
100
AcDbEntity
  8
0
 62
   250
370
    25
100
AcDbVertex
100
AcDb2dVertex
 10
387.8937797933276
 20
-151.7670329254721
 30
0.0
  0
VERTEX
  5
4C
330
4A
100
AcDbEntity
  8
0
 62
   250
370
    25
100
AcDbVertex
100
AcDb2dVertex
 10
387.8291150276887
 20
28.54663140002197
 30
0.0
  0
SEQEND
  5
4D
330
4A
100
AcDbEntity
  8
0
 62
   250
370
    25
  0
POLYLINE
  5
4E
330
1F
100
AcDbEntity
  8
0
 62
   250
370
    25
100
AcDb2dPolyline
 66
     1
 10
0.0
 20
0.0
 30
0.0
  0
VERTEX
  5
4F
330
4E
100
AcDbEntity
  8
0
 62
   250
370
    25
100
AcDbVertex
100
AcDb2dVertex
 10
387.885242492022
 20
-325.5605180154586
 30
0.0
  0
VERTEX
  5
50
330
4E
100
AcDbEntity
  8
0
 62
   250
370
    25
100
AcDbVertex
100
AcDb2dVertex
 10
387.9723441321502
 20
-317.768854732888
 30
0.0
  0
SEQEND
  5
51
330
4E
100
AcDbEntity
  8
0
 62
   250
370
    25
  0
SPLINE
  5
52
330
1F
100
AcDbEntity
  8
0
 62
   250
370
    25
100
AcDbSpline
210
0.0
220
0.0
230
1.0
 70
     8
 71
     3
 72
     8
 73
     4
 74
     0
 42
0.0000000001
 43
0.0000000001
 12
1.0
 22
0.0
 32
0.0
 13
1.0
 23
0.0
 33
0.0
 40
0.0
 40
0.0
 40
0.0
 40
0.0
 40
1.0
 40
1.0
 40
1.0
 40
1.0
 10
239.3226177971292
 20
-307.3481612651908
 30
0.0
 10
239.5596161034739
 20
-312.6586448987936
 30
0.0
 10
243.9099355656358
 20
-316.8556809967013
 30
0.0
 10
249.2255345243908
 20
-316.9020717041733
 30
0.0
  0
SPLINE
  5
53
330
1F
100
AcDbEntity
  8
0
 62
   250
370
    25
100
AcDbSpline
210
0.0
220
0.0
230
1.0
 70
     8
 71
     3
 72
     8
 73
     4
 74
     0
 42
0.0000000001
 43
0.0000000001
 12
1.0
 22
0.0
 32
0.0
 13
1.0
 23
0.0
 33
0.0
 40
0.0
 40
0.0
 40
0.0
 40
0.0
 40
1.0
 40
1.0
 40
1.0
 40
1.0
 10
249.2255345243908
 20
-316.9020717041733
 30
0.0
 10
295.4738948512756
 20
-317.3056884982915
 30
0.0
 10
341.7225374029852
 20
-317.5946161745296
 30
0.0
 10
387.9723441321502
 20
-317.768854732888
 30
0.0
  0
SPLINE
  5
54
330
1F
100
AcDbEntity
  8
0
 62
   250
370
    25
100
AcDbSpline
210
0.0
220
0.0
230
1.0
 70
     8
 71
     3
 72
     8
 73
     4
 74
     0
 42
0.0000000001
 43
0.0000000001
 12
1.0
 22
0.0
 32
0.0
 13
1.0
 23
0.0
 33
0.0
 40
0.0
 40
0.0
 40
0.0
 40
0.0
 40
1.0
 40
1.0
 40
1.0
 40
1.0
 10
235.8531220492951
 20
-151.7670329254721
 30
0.0
 10
235.8531220492951
 20
-203.6660976151181
 30
0.0
 10
237.0090444228599
 20
-255.5007092093889
 30
0.0
 10
239.3226177971292
 20
-307.3481612651908
 30
0.0
  0
SPLINE
  5
55
330
1F
100
AcDbEntity
  8
0
 62
   250
370
    25
100
AcDbSpline
210
0.0
220
0.0
230
1.0
 70
     8
 71
     3
 72
     8
 73
     4
 74
     0
 42
0.0000000001
 43
0.0000000001
 12
1.0
 22
0.0
 32
0.0
 13
1.0
 23
0.0
 33
0.0
 40
0.0
 40
0.0
 40
0.0
 40
0.0
 40
1.0
 40
1.0
 40
1.0
 40
1.0
 10
-262.1515107939516
 20
-151.7670329254721
 30
0.0
 10
-262.1514755158484
 20
-228.5825636115456
 30
0.0
 10
-213.4700901527062
 20
-296.9584430039501
 30
0.0
 10
-140.8836966991481
 20
-322.0948323029074
 30
0.0
  0
SPLINE
  5
56
330
1F
100
AcDbEntity
  8
0
 62
   250
370
    25
100
AcDbSpline
210
0.0
220
0.0
230
1.0
 70
     8
 71
     3
 72
    29
 73
    25
 74
     0
 42
0.0000000001
 43
0.0000000001
 12
1.0
 22
0.0
 32
0.0
 13
1.0
 23
0.0
 33
0.0
 40
0.0
 40
0.0
 40
0.0
 40
0.0
 40
1.0
 40
1.0
 40
1.0
 40
2.0
 40
2.0
 40
2.0
 40
3.0
 40
3.0
 40
3.0
 40
4.0
 40
4.0
 40
4.0
 40
5.0
 40
5.0
 40
5.0
 40
6.0
 40
6.0
 40
6.0
 40
7.0
 40
7.0
 40
7.0
 40
8.0
 40
8.0
 40
8.0
 40
8.0
 10
-140.8836966991481
 20
-322.0948323029074
 30
0.0
 10
-138.3888644237174
 20
-322.9588636394643
 30
0.0
 10
-135.8750525280462
 20
-323.7678964110262
 30
0.0
 10
-133.3446599232328
 20
-324.5214367241429
 30
0.0
 10
-130.8142673184222
 20
-325.2749417591534
 30
0.0
 10
-128.2673645606822
 20
-325.9729190576057
 30
0.0
 10
-125.7063152830225
 20
-326.6145925012
 30
0.0
 10
-119.7305571538801
 20
-328.1117599800539
 30
0.0
 10
-113.6779985911443
 20
-329.3022196179796
 30
0.0
 10
-107.5803898888964
 20
-330.1799388590997
 30
0.0
 10
-102.353868144115
 20
-330.9322797166531
 30
0.0
 10
-97.09429081537448
 20
-331.454889557409
 30
0.0
 10
-91.82190753468035
 20
-331.7453341921426
 30
0.0
 10
-90.58777360332769
 20
-331.8133150995999
 30
0.0
 10
-89.3529693879902
 20
-331.86856061132
 30
0.0
 10
-88.1177418353959
 20
-331.911247117821
 30
0.0
 10
-87.64346299787233
 20
-331.9276514364354
 30
0.0
 10
-87.16914888224525
 20
-331.942186015511
 30
0.0
 10
-86.69476421040603
 20
-331.9546744645167
 30
0.0
 10
-86.10177455108492
 20
-331.9702673867307
 30
0.0
 10
-85.508714335551
 20
-331.982650001424
 30
0.0
 10
-84.91561884191424
 20
-331.9949620599115
 30
0.0
 10
-80.64763847576646
 20
-332.0836512147415
 30
0.0
 10
-76.37958755341263
 20
-332.1696945117325
 30
0.0
 10
-72.11153663105561
 20
-332.2564433708115
 30
0.0
  0
SPLINE
  5
57
330
1F
100
AcDbEntity
  8
0
 62
   250
370
    25
100
AcDbSpline
210
0.0
220
0.0
230
1.0
 70
     8
 71
     3
 72
     8
 73
     4
 74
     0
 42
0.0000000001
 43
0.0000000001
 12
1.0
 22
0.0
 32
0.0
 13
1.0
 23
0.0
 33
0.0
 40
0.0
 40
0.0
 40
0.0
 40
0.0
 40
1.0
 40
1.0
 40
1.0
 40
1.0
 10
-72.11153663105561
 20
-332.2564433708115
 30
0.0
 10
80.17702035362991
 20
-335.3327646434894
 30
0.0
 10
232.4653656696867
 20
-337.1661677367664
 30
0.0
 10
384.7838384870196
 20
-337.7570054317113
 30
0.0
  0
SPLINE
  5
58
330
1F
100
AcDbEntity
  8
0
 62
   250
370
    25
100
AcDbSpline
210
0.0
220
0.0
230
1.0
 70
     8
 71
     3
 72
    11
 73
     7
 74
     0
 42
0.0000000001
 43
0.0000000001
 12
1.0
 22
0.0
 32
0.0
 13
1.0
 23
0.0
 33
0.0
 40
0.0
 40
0.0
 40
0.0
 40
0.0
 40
1.0
 40
1.0
 40
1.0
 40
2.0
 40
2.0
 40
2.0
 40
2.0
 10
345.8541326169557
 20
-151.7670329254721
 30
0.0
 10
345.8541326169557
 20
-173.8586400498053
 30
0.0
 10
327.945343956314
 20
-191.7673929799329
 30
0.0
 10
305.8537715520031
 20
-191.7673929799329
 30
0.0
 10
283.7621638695925
 20
-191.7673929799329
 30
0.0
 10
265.8533752089514
 20
-173.8586400498053
 30
0.0
 10
265.8533752089514
 20
-151.7670329254721
 30
0.0
  0
SPLINE
  5
59
330
1F
100
AcDbEntity
  8
0
 62
   250
370
    25
100
AcDbSpline
210
0.0
220
0.0
230
1.0
 70
     8
 71
     3
 72
     8
 73
     4
 74
     0
 42
0.0000000001
 43
0.0000000001
 12
1.0
 22
0.0
 32
0.0
 13
1.0
 23
0.0
 33
0.0
 40
0.0
 40
0.0
 40
0.0
 40
0.0
 40
1.0
 40
1.0
 40
1.0
 40
1.0
 10
85.43977271177843
 20
-62.75734348609402
 30
0.0
 10
85.19469571949257
 20
-62.2337811497413
 30
0.0
 10
84.94192810042145
 20
-61.71420523910617
 30
0.0
 10
84.6812581859219
 20
-61.19822769504564
 30
0.0
  0
SPLINE
  5
5A
330
1F
100
AcDbEntity
  8
0
 62
   250
370
    25
100
AcDbSpline
210
0.0
220
0.0
230
1.0
 70
     8
 71
     3
 72
     8
 73
     4
 74
     0
 42
0.0000000001
 43
0.0000000001
 12
1.0
 22
0.0
 32
0.0
 13
1.0
 23
0.0
 33
0.0
 40
0.0
 40
0.0
 40
0.0
 40
0.0
 40
1.0
 40
1.0
 40
1.0
 40
1.0
 10
94.63772707589061
 20
-93.81798512755444
 30
0.0
 10
92.07805364430342
 20
-83.30094742202708
 30
0.0
 10
90.109394298187
 20
-72.75663974237352
 30
0.0
 10
85.43977271177843
 20
-62.75734348609402
 30
0.0
  0
SPLINE
  5
5B
330
1F
100
AcDbEntity
  8
0
 62
   250
370
    25
100
AcDbSpline
210
0.0
220
0.0
230
1.0
 70
     8
 71
     3
 72
     8
 73
     4
 74
     0
 42
0.0000000001
 43
0.0000000001
 12
1.0
 22
0.0
 32
0.0
 13
1.0
 23
0.0
 33
0.0
 40
0.0
 40
0.0
 40
0.0
 40
0.0
 40
1.0
 40
1.0
 40
1.0
 40
1.0
 10
101.625402355839
 20
-151.7670329254721
 30
0.0
 10
101.6254376339518
 20
-132.0318972910068
 30
0.0
 10
99.32004877993646
 20
-112.9875069261116
 30
0.0
 10
94.63772707589061
 20
-93.81798512755444
 30
0.0
  0
SPLINE
  5
5C
330
1F
100
AcDbEntity
  8
0
 62
   250
370
    25
100
AcDbSpline
210
0.0
220
0.0
230
1.0
 70
     8
 71
     3
 72
    11
 73
     7
 74
     0
 42
0.0000000001
 43
0.0000000001
 12
1.0
 22
0.0
 32
0.0
 13
1.0
 23
0.0
 33
0.0
 40
0.0
 40
0.0
 40
0.0
 40
0.0
 40
1.0
 40
1.0
 40
1.0
 40
2.0
 40
2.0
 40
2.0
 40
2.0
 10
384.7877896347338
 20
34.22294897777514
 30
0.0
 10
386.0660917529773
 20
34.2278879124086
 30
0.0
 10
387.1960141634983
 20
33.4282391166543
 30
0.0
 10
387.6247842461557
 20
32.22617298233232
 30
0.0
 10
387.8718720904051
 20
31.53355795576969
 30
0.0
 10
387.8301028146208
 20
29.22958022593932
 30
0.0
 10
387.8291150276887
 20
28.54663140002197
 30
0.0
  0
SPLINE
  5
5D
330
1F
100
AcDbEntity
  8
0
 62
   250
370
    25
100
AcDbSpline
210
0.0
220
0.0
230
1.0
 70
     8
 71
     3
 72
     8
 73
     4
 74
     0
 42
0.0000000001
 43
0.0000000001
 12
1.0
 22
0.0
 32
0.0
 13
1.0
 23
0.0
 33
0.0
 40
0.0
 40
0.0
 40
0.0
 40
0.0
 40
1.0
 40
1.0
 40
1.0
 40
1.0
 10
84.6812581859219
 20
-242.3358381559049
 30
0.0
 10
84.94192810042145
 20
-241.8198606118348
 30
0.0
 10
85.19469571949257
 20
-241.3002847012029
 30
0.0
 10
85.43977271177843
 20
-240.7767223648527
 30
0.0
  0
SPLINE
  5
5E
330
1F
100
AcDbEntity
  8
0
 62
   250
370
    25
100
AcDbSpline
210
0.0
220
0.0
230
1.0
 70
     8
 71
     3
 72
     8
 73
     4
 74
     0
 42
0.0000000001
 43
0.0000000001
 12
1.0
 22
0.0
 32
0.0
 13
1.0
 23
0.0
 33
0.0
 40
0.0
 40
0.0
 40
0.0
 40
0.0
 40
1.0
 40
1.0
 40
1.0
 40
1.0
 10
85.43977271177843
 20
-240.7767223648527
 30
0.0
 10
90.109394298187
 20
-230.7774261085706
 30
0.0
 10
92.07805364430342
 20
-220.2331184289171
 30
0.0
 10
94.63772707589061
 20
-209.7160807233897
 30
0.0
  0
SPLINE
  5
5F
330
1F
100
AcDbEntity
  8
0
 62
   250
370
    25
100
AcDbSpline
210
0.0
220
0.0
230
1.0
 70
     8
 71
     3
 72
     8
 73
     4
 74
     0
 42
0.0000000001
 43
0.0000000001
 12
1.0
 22
0.0
 32
0.0
 13
1.0
 23
0.0
 33
0.0
 40
0.0
 40
0.0
 40
0.0
 40
0.0
 40
1.0
 40
1.0
 40
1.0
 40
1.0
 10
387.8865125037867
 20
-325.5185723491511
 30
0.0
 10
387.8871475096677
 20
-325.509576432491
 30
0.0
 10
387.8873239001935
 20
-325.5006157939363
 30
0.0
 10
387.8878883498688
 20
-325.4916198772756
 30
0.0
  0
SPLINE
  5
60
330
1F
100
AcDbEntity
  8
0
 62
   250
370
    25
100
AcDbSpline
210
0.0
220
0.0
230
1.0
 70
     8
 71
     3
 72
     8
 73
     4
 74
     0
 42
0.0000000001
 43
0.0000000001
 12
1.0
 22
0.0
 32
0.0
 13
1.0
 23
0.0
 33
0.0
 40
0.0
 40
0.0
 40
0.0
 40
0.0
 40
1.0
 40
1.0
 40
1.0
 40
1.0
 10
387.8859127760123
 20
-325.5408328331183
 30
0.0
 10
387.8857011073836
 20
-325.5473945605648
 30
0.0
 10
387.8854541606533
 20
-325.5539562880114
 30
0.0
 10
387.885242492022
 20
-325.5605180154586
 30
0.0
  0
SPLINE
  5
61
330
1F
100
AcDbEntity
  8
0
 62
   250
370
    25
100
AcDbSpline
210
0.0
220
0.0
230
1.0
 70
     8
 71
     3
 72
     8
 73
     4
 74
     0
 42
0.0000000001
 43
0.0000000001
 12
1.0
 22
0.0
 32
0.0
 13
1.0
 23
0.0
 33
0.0
 40
0.0
 40
0.0
 40
0.0
 40
0.0
 40
1.0
 40
1.0
 40
1.0
 40
1.0
 10
387.885242492022
 20
-325.5605180154586
 30
0.0
 10
387.8849955452918
 20
-325.567361967737
 30
0.0
 10
387.8847485985614
 20
-325.5742059200213
 30
0.0
 10
387.8845369299366
 20
-325.5810498722997
 30
0.0
  0
SPLINE
  5
62
330
1F
100
AcDbEntity
  8
0
 62
   250
370
    25
100
AcDbSpline
210
0.0
220
0.0
230
1.0
 70
     8
 71
     3
 72
     8
 73
     4
 74
     0
 42
0.0000000001
 43
0.0000000001
 12
1.0
 22
0.0
 32
0.0
 13
1.0
 23
0.0
 33
0.0
 40
0.0
 40
0.0
 40
0.0
 40
0.0
 40
1.0
 40
1.0
 40
1.0
 40
1.0
 10
387.8837960897418
 20
-325.6033103562727
 30
0.0
 10
387.8148979515594
 20
-327.7494891244683
 30
0.0
 10
387.8327859305392
 20
-330.140469550456
 30
0.0
 10
387.8271414338107
 20
-332.2866130405449
 30
0.0
  0
SPLINE
  5
63
330
1F
100
AcDbEntity
  8
0
 62
   250
370
    25
100
AcDbSpline
210
0.0
220
0.0
230
1.0
 70
     8
 71
     3
 72
     8
 73
     4
 74
     0
 42
0.0000000001
 43
0.0000000001
 12
1.0
 22
0.0
 32
0.0
 13
1.0
 23
0.0
 33
0.0
 40
0.0
 40
0.0
 40
0.0
 40
0.0
 40
1.0
 40
1.0
 40
1.0
 40
1.0
 10
94.63772707589061
 20
-209.7160807233897
 30
0.0
 10
99.32004877993646
 20
-190.5465589248261
 30
0.0
 10
101.6254376339518
 20
-171.5021685599406
 30
0.0
 10
101.625402355839
 20
-151.7670329254721
 30
0.0
  0
SPLINE
  5
64
330
1F
100
AcDbEntity
  8
0
 62
   250
370
    25
100
AcDbSpline
210
0.0
220
0.0
230
1.0
 70
     8
 71
     3
 72
    11
 73
     7
 74
     0
 42
0.0000000001
 43
0.0000000001
 12
1.0
 22
0.0
 32
0.0
 13
1.0
 23
0.0
 33
0.0
 40
0.0
 40
0.0
 40
0.0
 40
0.0
 40
1.0
 40
1.0
 40
1.0
 40
2.0
 40
2.0
 40
2.0
 40
2.0
 10
387.8291150276887
 20
-332.0806878539588
 30
0.0
 10
387.8302086489352
 20
-332.7605674847841
 30
0.0
 10
387.8717309779853
 20
-335.0706483267014
 30
0.0
 10
387.6249253585723
 20
-335.7602647143752
 30
0.0
 10
387.1947441517376
 20
-336.9622250143809
 30
0.0
 10
386.0673970428479
 20
-337.7619443663448
 30
0.0
 10
384.7877896347338
 20
-337.7570054317113
 30
0.0
  0
SPLINE
  5
65
330
1F
100
AcDbEntity
  8
0
 62
   250
370
    25
100
AcDbSpline
210
0.0
220
0.0
230
1.0
 70
     8
 71
     3
 72
    11
 73
     7
 74
     0
 42
0.0000000001
 43
0.0000000001
 12
1.0
 22
0.0
 32
0.0
 13
1.0
 23
0.0
 33
0.0
 40
0.0
 40
0.0
 40
0.0
 40
0.0
 40
1.0
 40
1.0
 40
1.0
 40
2.0
 40
2.0
 40
2.0
 40
2.0
 10
363.6827341459644
 20
-151.7670329254721
 30
0.0
 10
363.6827341459644
 20
-175.3748576668091
 30
0.0
 10
349.3325890033503
 20
-196.6124524578512
 30
0.0
 10
327.4293663992173
 20
-205.4203718755853
 30
0.0
 10
305.5261437950844
 20
-214.2283265714312
 30
0.0
 10
280.4681414137665
 20
-208.837938167197
 30
0.0
 10
264.1242189146054
 20
-191.8024594149634
 30
0.0
  0
SPLINE
  5
66
330
1F
100
AcDbEntity
  8
0
 62
   250
370
    25
100
AcDbSpline
210
0.0
220
0.0
230
1.0
 70
     8
 71
     3
 72
   101
 73
    97
 74
     0
 42
0.0000000001
 43
0.0000000001
 12
1.0
 22
0.0
 32
0.0
 13
1.0
 23
0.0
 33
0.0
 40
0.0
 40
0.0
 40
0.0
 40
0.0
 40
1.0
 40
1.0
 40
1.0
 40
2.0
 40
2.0
 40
2.0
 40
3.0
 40
3.0
 40
3.0
 40
4.0
 40
4.0
 40
4.0
 40
5.0
 40
5.0
 40
5.0
 40
6.0
 40
6.0
 40
6.0
 40
7.0
 40
7.0
 40
7.0
 40
8.0
 40
8.0
 40
8.0
 40
9.0
 40
9.0
 40
9.0
 40
10.0
 40
10.0
 40
10.0
 40
11.0
 40
11.0
 40
11.0
 40
12.0
 40
12.0
 40
12.0
 40
13.0
 40
13.0
 40
13.0
 40
14.0
 40
14.0
 40
14.0
 40
15.0
 40
15.0
 40
15.0
 40
16.0
 40
16.0
 40
16.0
 40
17.0
 40
17.0
 40
17.0
 40
18.0
 40
18.0
 40
18.0
 40
19.0
 40
19.0
 40
19.0
 40
20.0
 40
20.0
 40
20.0
 40
21.0
 40
21.0
 40
21.0
 40
22.0
 40
22.0
 40
22.0
 40
23.0
 40
23.0
 40
23.0
 40
24.0
 40
24.0
 40
24.0
 40
25.0
 40
25.0
 40
25.0
 40
26.0
 40
26.0
 40
26.0
 40
27.0
 40
27.0
 40
27.0
 40
28.0
 40
28.0
 40
28.0
 40
29.0
 40
29.0
 40
29.0
 40
30.0
 40
30.0
 40
30.0
 40
31.0
 40
31.0
 40
31.0
 40
32.0
 40
32.0
 40
32.0
 40
32.0
 10
74.41250751450985
 20
-258.4656574311003
 30
0.0
 10
70.19377538231733
 20
-262.7806986797088
 30
0.0
 10
65.58186877493915
 20
-266.7116319357103
 30
0.0
 10
60.65245922664973
 20
-270.1929457606298
 30
0.0
 10
56.0269705490281
 20
-273.4596276029064
 30
0.0
 10
51.12190289287576
 20
-276.3303832878603
 30
0.0
 10
46.00880025421097
 20
-278.7641843809434
 30
0.0
 10
43.62110758229074
 20
-279.9007390464084
 30
0.0
 10
41.18804726792408
 20
-280.9419722757962
 30
0.0
 10
38.71748632842339
 20
-281.8848501521902
 30
0.0
 10
35.89273321927531
 20
-282.9629137217964
 30
0.0
 10
33.01894354480681
 20
-283.9123533254701
 30
0.0
 10
30.10779435762696
 20
-284.7288650345736
 30
0.0
 10
27.19548099299623
 20
-285.5456942466087
 30
0.0
 10
24.24573755943848
 20
-286.229454451661
 30
0.0
 10
21.27129945269996
 20
-286.7784523007437
 30
0.0
 10
19.78362178397314
 20
-287.0530217814946
 30
0.0
 10
18.28977044694919
 20
-287.2939006732516
 30
0.0
 10
16.79112128770387
 20
-287.5003834139455
 30
0.0
 10
15.47778801164444
 20
-287.6813600857004
 30
0.0
 10
14.16078581271454
 20
-287.8359134578106
 30
0.0
 10
12.84124359025513
 20
-287.9641140864999
 30
0.0
 10
11.50794290702064
 20
-288.0936200050142
 30
0.0
 10
10.17203164405347
 20
-288.196279286652
 30
0.0
 10
8.834603422592062
 20
-288.2721272095137
 30
0.0
 10
7.488002893941484
 20
-288.3485395820314
 30
0.0
 10
6.139814850590296
 20
-288.3977878147353
 30
0.0
 10
4.79120346998264
 20
-288.4200482981372
 30
0.0
 10
4.035969807852927
 20
-288.4325367468348
 30
0.0
 10
3.280595033300863
 20
-288.4365231725467
 30
0.0
 10
2.525326093064439
 20
-288.4293264393975
 30
0.0
 10
2.221758003441292
 20
-288.4264336348988
 30
0.0
 10
1.918225191921005
 20
-288.4217416471117
 30
0.0
 10
1.614692380403927
 20
-288.416979103119
 30
0.0
 10
-2.153538356732922
 20
-288.3579235576041
 30
0.0
 10
-5.921592703353864
 20
-288.2895898708232
 30
0.0
 10
-9.689647049971917
 20
-288.2211856278352
 30
0.0
 10
-16.45178940756305
 20
-288.0984531052204
 30
0.0
 10
-23.21389648704427
 20
-287.9754736358726
 30
0.0
 10
-29.97596828842583
 20
-287.8493544153087
 30
0.0
 10
-42.12504193217149
 20
-287.6227631555304
 30
0.0
 10
-54.27397446349513
 20
-287.386047080004
 30
0.0
 10
-66.42273060429355
 20
-287.1426987209844
 30
0.0
 10
-71.97536314750258
 20
-287.0315021382675
 30
0.0
 10
-77.52799569071804
 20
-286.9188944314002
 30
0.0
 10
-83.08059295582133
 20
-286.8057928310769
 30
0.0
 10
-83.43235093625485
 20
-286.7986313760344
 30
0.0
 10
-83.7841089166887
 20
-286.7914699209919
 30
0.0
 10
-84.13583161901968
 20
-286.7837087381867
 30
0.0
 10
-84.57320955918836
 20
-286.7740425377885
 30
0.0
 10
-85.01055222125031
 20
-286.7634591066902
 30
0.0
 10
-85.44785960520942
 20
-286.7514645514487
 30
0.0
 10
-85.71276289224862
 20
-286.7441972620938
 30
0.0
 10
-85.97763090118497
 20
-286.7364360792892
 30
0.0
 10
-86.242498910121
 20
-286.7279340563092
 30
0.0
 10
-86.59976027486391
 20
-286.7164333945179
 30
0.0
 10
-86.95695108339694
 20
-286.703627442888
 30
0.0
 10
-87.3141418919306
 20
-286.689480923329
 30
0.0
 10
-87.76873554711997
 20
-286.6715243685634
 30
0.0
 10
-88.22325864609655
 20
-286.6514864056854
 30
0.0
 10
-88.6776759107607
 20
-286.6289789755583
 30
0.0
 10
-89.52043455027342
 20
-286.5872097008278
 30
0.0
 10
-90.36276985253255
 20
-286.5369031250187
 30
0.0
 10
-91.20454070511639
 20
-286.4787295320914
 30
0.0
 10
-97.60353025450225
 20
-286.036377390352
 30
0.0
 10
-103.9710517346324
 20
-285.1380557588756
 30
0.0
 10
-110.2424403798759
 20
-283.7917727671797
 30
0.0
 10
-116.507126185254
 20
-282.4469361777333
 30
0.0
 10
-122.675855546264
 20
-280.6551260149725
 30
0.0
 10
-128.6863626083825
 20
-278.4349338395273
 30
0.0
 10
-135.4178130150181
 20
-275.9484978157913
 30
0.0
 10
-141.9507888054711
 20
-272.9247762733899
 30
0.0
 10
-148.2021747654364
 20
-269.401375670809
 30
0.0
 10
-154.125580187429
 20
-266.0628323313825
 30
0.0
 10
-159.7961121560319
 20
-262.2756220696736
 30
0.0
 10
-165.1495645209743
 20
-258.0835602904064
 30
0.0
 10
-170.5029463297036
 20
-253.8915337892522
 30
0.0
 10
-175.5392132566656
 20
-249.2946557705449
 30
0.0
 10
-180.200897269555
 20
-244.3448556028692
 30
0.0
 10
-184.8632162883226
 20
-239.3943851512194
 30
0.0
 10
-189.1508465587018
 20
-234.0909572725079
 30
0.0
 10
-193.0150690183125
 20
-228.4952503049987
 30
0.0
 10
-194.9472155262241
 20
-225.6973791822001
 30
0.0
 10
-196.7734571642853
 20
-222.8264471067274
 30
0.0
 10
-198.4888902759652
 20
-219.8906738767346
 30
0.0
 10
-200.2043233876482
 20
-216.9549359248485
 30
0.0
 10
-201.8088774167379
 20
-213.954356818443
 30
0.0
 10
-203.2977545410216
 20
-210.8974738586035
 30
0.0
 10
-206.2755440676898
 20
-204.7836021046121
 30
0.0
 10
-208.7905554189211
 20
-198.444373824467
 30
0.0
 10
-210.8143191643391
 20
-191.951968018249
 30
0.0
 10
-212.8380476316511
 20
-185.4595622120386
 30
0.0
 10
-214.3704932150494
 20
-178.8139788797546
 30
0.0
 10
-215.3940874184671
 20
-172.0908895537347
 30
0.0
 10
-216.4176110656756
 20
-165.3679413401397
 30
0.0
 10
-216.9323186110122
 20
-158.567487132803
 30
0.0
 10
-216.9324597234249
 20
-151.7670329254721
 30
0.0
  0
SPLINE
  5
67
330
1F
100
AcDbEntity
  8
0
 62
   250
370
    25
100
AcDbSpline
210
0.0
220
0.0
230
1.0
 70
     8
 71
     3
 72
    23
 73
    19
 74
     0
 42
0.0000000001
 43
0.0000000001
 12
1.0
 22
0.0
 32
0.0
 13
1.0
 23
0.0
 33
0.0
 40
0.0
 40
0.0
 40
0.0
 40
0.0
 40
1.0
 40
1.0
 40
1.0
 40
2.0
 40
2.0
 40
2.0
 40
3.0
 40
3.0
 40
3.0
 40
4.0
 40
4.0
 40
4.0
 40
5.0
 40
5.0
 40
5.0
 40
6.0
 40
6.0
 40
6.0
 40
6.0
 10
-140.3330051462798
 20
-264.0714050995775
 30
0.0
 10
-145.0016389457627
 20
-261.577913455112
 30
0.0
 10
-151.1143822957544
 20
-257.9481629285808
 30
0.0
 10
-155.4294589314684
 20
-254.8840832355928
 30
0.0
 10
-160.1740464900411
 20
-251.5149890584034
 30
0.0
 10
-164.6859043929182
 20
-247.8172087894598
 30
0.0
 10
-168.9189241574585
 20
-243.8243624615379
 30
0.0
 10
-177.2300222513749
 20
-235.9848622672434
 30
0.0
 10
-184.4662317778609
 20
-227.0079254548899
 30
0.0
 10
-190.376160963916
 20
-217.2300698552555
 30
0.0
 10
-193.2752450393434
 20
-212.4336236041652
 30
0.0
 10
-195.8551328248337
 20
-207.4444883509225
 30
0.0
 10
-198.0944810671357
 20
-202.3067264469682
 30
0.0
 10
-200.5401003867212
 20
-196.6957087824741
 30
0.0
 10
-202.5795276105564
 20
-190.9074539252245
 30
0.0
 10
-204.1891616867012
 20
-185.0021463200452
 30
0.0
 10
-207.1372470493462
 20
-174.1864089108653
 30
0.0
 10
-208.6435868353787
 20
-162.9779556517935
 30
0.0
 10
-208.6407293089119
 20
-151.7670329254721
 30
0.0
  0
SPLINE
  5
68
330
1F
100
AcDbEntity
  8
0
 62
   250
370
    25
100
AcDbSpline
210
0.0
220
0.0
230
1.0
 70
     8
 71
     3
 72
    35
 73
    31
 74
     0
 42
0.0000000001
 43
0.0000000001
 12
1.0
 22
0.0
 32
0.0
 13
1.0
 23
0.0
 33
0.0
 40
0.0
 40
0.0
 40
0.0
 40
0.0
 40
1.0
 40
1.0
 40
1.0
 40
2.0
 40
2.0
 40
2.0
 40
3.0
 40
3.0
 40
3.0
 40
4.0
 40
4.0
 40
4.0
 40
5.0
 40
5.0
 40
5.0
 40
6.0
 40
6.0
 40
6.0
 40
7.0
 40
7.0
 40
7.0
 40
8.0
 40
8.0
 40
8.0
 40
9.0
 40
9.0
 40
9.0
 40
10.0
 40
10.0
 40
10.0
 40
10.0
 10
-30.33820386590828
 20
-202.3986611850887
 30
0.0
 10
-34.58875684841018
 20
-201.7920541927353
 30
0.0
 10
-38.81750796230161
 20
-201.0018246708586
 30
0.0
 10
-42.97781955337284
 20
-199.9357909345995
 30
0.0
 10
-46.64702465104988
 20
-198.99559419408
 30
0.0
 10
-50.26299508896359
 20
-197.840871305231
 30
0.0
 10
-53.76748671651821
 20
-196.4024066286895
 30
0.0
 10
-56.88339002249011
 20
-195.1234342587686
 30
0.0
 10
-59.91120390140694
 20
-193.6201637058003
 30
0.0
 10
-62.75765304484983
 20
-191.8205570821353
 30
0.0
 10
-65.31789092610589
 20
-190.201856574013
 30
0.0
 10
-67.73144244866035
 20
-188.3434413515526
 30
0.0
 10
-69.90062254101986
 20
-186.2296126586252
 30
0.0
 10
-71.95497240307746
 20
-184.2277213886031
 30
0.0
 10
-73.79017467969591
 20
-181.9967693915402
 30
0.0
 10
-75.34258767026671
 20
-179.5847701665167
 30
0.0
 10
-76.13338166177941
 20
-178.3561043724118
 30
0.0
 10
-76.85079719584101
 20
-177.0804481442342
 30
0.0
 10
-77.49543400022132
 20
-175.7689493627375
 30
0.0
 10
-78.12666512487024
 20
-174.4846852772681
 30
0.0
 10
-78.68804560251971
 20
-173.1660250407418
 30
0.0
 10
-79.18557271094227
 20
-171.8242576463071
 30
0.0
 10
-79.752668241526
 20
-170.2947754623318
 30
0.0
 10
-80.23675439211367
 20
-168.735271612143
 30
0.0
 10
-80.65321241628799
 20
-167.1581287101316
 30
0.0
 10
-81.09510595383718
 20
-165.4846765851315
 30
0.0
 10
-81.46086934177416
 20
-163.7913276096725
 30
0.0
 10
-81.75533568042445
 20
-162.0856665760411
 30
0.0
 10
-82.34342168321209
 20
-158.6793539994954
 30
0.0
 10
-82.64713088525727
 20
-155.2240048588707
 30
0.0
 10
-82.64564920486589
 20
-151.7670329254721
 30
0.0
  0
SPLINE
  5
69
330
1F
100
AcDbEntity
  8
0
 62
   250
370
    25
100
AcDbSpline
210
0.0
220
0.0
230
1.0
 70
     8
 71
     3
 72
    23
 73
    19
 74
     0
 42
0.0000000001
 43
0.0000000001
 12
1.0
 22
0.0
 32
0.0
 13
1.0
 23
0.0
 33
0.0
 40
0.0
 40
0.0
 40
0.0
 40
0.0
 40
1.0
 40
1.0
 40
1.0
 40
2.0
 40
2.0
 40
2.0
 40
3.0
 40
3.0
 40
3.0
 40
4.0
 40
4.0
 40
4.0
 40
5.0
 40
5.0
 40
5.0
 40
6.0
 40
6.0
 40
6.0
 40
6.0
 10
42.29062914742018
 20
-197.3374527660712
 30
0.0
 10
41.95255907155218
 20
-197.2088993563509
 30
0.0
 10
41.61851069959833
 20
-197.0663405394828
 30
0.0
 10
41.29275268221785
 20
-196.9081888007987
 30
0.0
 10
41.03663364320746
 20
-196.7838687635082
 30
0.0
 10
40.78559465125641
 20
-196.649917803932
 30
0.0
 10
40.54344574164694
 20
-196.5001975320215
 30
0.0
 10
40.10388055899919
 20
-196.2284150214576
 30
0.0
 10
39.69356092501847
 20
-195.9047384204219
 30
0.0
 10
39.33936875537076
 20
-195.5292382851144
 30
0.0
 10
38.99297304682685
 20
-195.1619932260612
 30
0.0
 10
38.70027061340238
 20
-194.7451824313737
 30
0.0
 10
38.43706067538327
 20
-194.3132373302138
 30
0.0
 10
38.27700391505313
 20
-194.0505565703978
 30
0.0
 10
38.12784808903191
 20
-193.782266592096
 30
0.0
 10
37.98066783686458
 20
-193.5125302115512
 30
0.0
 10
37.69124626716371
 20
-192.9819828106768
 30
0.0
 10
37.40951532425389
 20
-192.4457909132239
 30
0.0
 10
37.12527963592415
 20
-191.9127034888818
 30
0.0
  0
SPLINE
  5
6A
330
1F
100
AcDbEntity
  8
0
 62
   250
370
    25
100
AcDbSpline
210
0.0
220
0.0
230
1.0
 70
     8
 71
     3
 72
     8
 73
     4
 74
     0
 42
0.0000000001
 43
0.0000000001
 12
1.0
 22
0.0
 32
0.0
 13
1.0
 23
0.0
 33
0.0
 40
0.0
 40
0.0
 40
0.0
 40
0.0
 40
1.0
 40
1.0
 40
1.0
 40
1.0
 10
33.02053105951384
 20
-151.767174037888
 30
0.0
 10
33.01527462193666
 20
-155.3894591650101
 30
0.0
 10
33.02815113009563
 20
-159.011532623517
 30
0.0
 10
33.05905474967606
 20
-162.6336766382244
 30
0.0
  0
SPLINE
  5
6B
330
1F
100
AcDbEntity
  8
0
 62
   250
370
    25
100
AcDbSpline
210
0.0
220
0.0
230
1.0
 70
     8
 71
     3
 72
     8
 73
     4
 74
     0
 42
0.0000000001
 43
0.0000000001
 12
1.0
 22
0.0
 32
0.0
 13
1.0
 23
0.0
 33
0.0
 40
0.0
 40
0.0
 40
0.0
 40
0.0
 40
1.0
 40
1.0
 40
1.0
 40
1.0
 10
101.6582815492798
 20
-151.7670329254721
 30
0.0
 10
101.6583168273862
 20
-171.5048144177148
 30
0.0
 10
99.36157110898816
 20
-190.5518859184813
 30
0.0
 10
94.66965376049924
 20
-209.723877184301
 30
0.0
  0
SPLINE
  5
6C
330
1F
100
AcDbEntity
  8
0
 62
   250
370
    25
100
AcDbSpline
210
0.0
220
0.0
230
1.0
 70
     8
 71
     3
 72
     8
 73
     4
 74
     0
 42
0.0000000001
 43
0.0000000001
 12
1.0
 22
0.0
 32
0.0
 13
1.0
 23
0.0
 33
0.0
 40
0.0
 40
0.0
 40
0.0
 40
0.0
 40
1.0
 40
1.0
 40
1.0
 40
1.0
 10
107.2871853545227
 20
-151.7670329254721
 30
0.0
 10
107.287150076416
 20
-171.9595491738267
 30
0.0
 10
104.9376283136111
 20
-191.4455155621778
 30
0.0
 10
100.1379716338467
 20
-211.0593297981741
 30
0.0
  0
SPLINE
  5
6D
330
1F
100
AcDbEntity
  8
0
 62
   250
370
    25
100
AcDbSpline
210
0.0
220
0.0
230
1.0
 70
     8
 71
     3
 72
     8
 73
     4
 74
     0
 42
0.0000000001
 43
0.0000000001
 12
1.0
 22
0.0
 32
0.0
 13
1.0
 23
0.0
 33
0.0
 40
0.0
 40
0.0
 40
0.0
 40
0.0
 40
1.0
 40
1.0
 40
1.0
 40
1.0
 10
225.4145425825894
 20
-151.7670329254721
 30
0.0
 10
225.4145425825894
 20
-203.8213212712032
 30
0.0
 10
226.5739574885127
 20
-255.8109801310327
 30
0.0
 10
228.8944453712725
 20
-307.8134794641639
 30
0.0
  0
SPLINE
  5
6E
330
1F
100
AcDbEntity
  8
0
 62
   250
370
    25
100
AcDbSpline
210
0.0
220
0.0
230
1.0
 70
     8
 71
     3
 72
     8
 73
     4
 74
     0
 42
0.0000000001
 43
0.0000000001
 12
1.0
 22
0.0
 32
0.0
 13
1.0
 23
0.0
 33
0.0
 40
0.0
 40
0.0
 40
0.0
 40
0.0
 40
1.0
 40
1.0
 40
1.0
 40
1.0
 10
264.1242189146054
 20
-191.8024594149634
 30
0.0
 10
262.771762220596
 20
-190.3927816709981
 30
0.0
 10
260.9027282417265
 20
-189.5958140313222
 30
0.0
 10
258.9491679243545
 20
-189.5958140313222
 30
0.0
  0
SPLINE
  5
6F
330
1F
100
AcDbEntity
  8
0
 62
   250
370
    25
100
AcDbSpline
210
0.0
220
0.0
230
1.0
 70
     8
 71
     3
 72
    32
 73
    28
 74
     0
 42
0.0000000001
 43
0.0000000001
 12
1.0
 22
0.0
 32
0.0
 13
1.0
 23
0.0
 33
0.0
 40
0.0
 40
0.0
 40
0.0
 40
0.0
 40
1.0
 40
1.0
 40
1.0
 40
2.0
 40
2.0
 40
2.0
 40
3.0
 40
3.0
 40
3.0
 40
4.0
 40
4.0
 40
4.0
 40
5.0
 40
5.0
 40
5.0
 40
6.0
 40
6.0
 40
6.0
 40
7.0
 40
7.0
 40
7.0
 40
8.0
 40
8.0
 40
8.0
 40
9.0
 40
9.0
 40
9.0
 40
9.0
 10
241.327366644201
 20
-189.5960256999407
 30
0.0
 10
241.0083467447859
 20
-189.6027638177392
 30
0.0
 10
240.6893268453708
 20
-189.6143350357374
 30
0.0
 10
240.3706597269997
 20
-189.6318682532526
 30
0.0
 10
240.0651513416284
 20
-189.6486959086997
 30
0.0
 10
239.7599957373011
 20
-189.6709563921087
 30
0.0
 10
239.4552987483302
 20
-189.6986849815785
 30
0.0
 10
238.9435192856729
 20
-189.7452873565075
 30
0.0
 10
238.433009834779
 20
-189.8073415408336
 30
0.0
 10
237.9269454250617
 20
-189.8969126460174
 30
0.0
 10
237.7146770700039
 20
-189.9344838264113
 30
0.0
 10
237.5032201113528
 20
-189.9769233851033
 30
0.0
 10
237.2939503951838
 20
-190.0283235821318
 30
0.0
 10
237.1309302740683
 20
-190.0683642297741
 30
0.0
 10
236.9692859990408
 20
-190.1139082616045
 30
0.0
 10
236.81102842204
 20
-190.170494339869
 30
0.0
 10
236.6968684757296
 20
-190.2113111057928
 30
0.0
 10
236.5845077127512
 20
-190.2579134807218
 30
0.0
 10
236.4823423219834
 20
-190.3233543630034
 30
0.0
 10
236.449992300118
 20
-190.3440626098499
 30
0.0
 10
236.4186653432779
 20
-190.3666405961897
 30
0.0
 10
236.3925948240156
 20
-190.3948278010102
 30
0.0
 10
236.3801769312156
 20
-190.4081982022948
 30
0.0
 10
236.3689584939662
 20
-190.4228386153106
 30
0.0
 10
236.3590453465932
 20
-190.4380787560892
 30
0.0
 10
236.352483619146
 20
-190.4482035718438
 30
0.0
 10
236.3465216194808
 20
-190.4585753343172
 30
0.0
 10
236.3434524243792
 20
-190.4705698895524
 30
0.0
  0
POLYLINE
  5
70
330
1F
100
AcDbEntity
  8
0
 62
   250
370
    25
100
AcDb2dPolyline
 66
     1
 10
0.0
 20
0.0
 30
0.0
  0
VERTEX
  5
71
330
70
100
AcDbEntity
  8
0
 62
   250
370
    25
100
AcDbVertex
100
AcDb2dVertex
 10
258.9491679243545
 20
-189.5958140313222
 30
0.0
  0
VERTEX
  5
72
330
70
100
AcDbEntity
  8
0
 62
   250
370
    25
100
AcDbVertex
100
AcDb2dVertex
 10
241.3788021206254
 20
-189.5958140313222
 30
0.0
  0
SEQEND
  5
73
330
70
100
AcDbEntity
  8
0
 62
   250
370
    25
  0
SPLINE
  5
74
330
1F
100
AcDbEntity
  8
0
 62
   250
370
    25
100
AcDbSpline
210
0.0
220
0.0
230
1.0
 70
     8
 71
     3
 72
     8
 73
     4
 74
     0
 42
0.0000000001
 43
0.0000000001
 12
1.0
 22
0.0
 32
0.0
 13
1.0
 23
0.0
 33
0.0
 40
0.0
 40
0.0
 40
0.0
 40
0.0
 40
1.0
 40
1.0
 40
1.0
 40
1.0
 10
387.8820321845096
 20
-325.5616469148034
 30
0.0
 10
387.7158017558855
 20
-327.0878482736954
 30
0.0
 10
386.4231414490937
 20
-328.2416539609974
 30
0.0
 10
384.8879088954388
 20
-328.2340691685191
 30
0.0
  0
SPLINE
  5
75
330
1F
100
AcDbEntity
  8
0
 62
   250
370
    25
100
AcDbSpline
210
0.0
220
0.0
230
1.0
 70
     8
 71
     3
 72
     8
 73
     4
 74
     0
 42
0.0000000001
 43
0.0000000001
 12
1.0
 22
0.0
 32
0.0
 13
1.0
 23
0.0
 33
0.0
 40
0.0
 40
0.0
 40
0.0
 40
0.0
 40
1.0
 40
1.0
 40
1.0
 40
1.0
 10
249.13409367741
 20
-327.3786104113656
 30
0.0
 10
294.3847892077109
 20
-327.7730548983049
 30
0.0
 10
339.6358022409497
 20
-328.0582078173533
 30
0.0
 10
384.8879088954388
 20
-328.2340691685191
 30
0.0
  0
SPLINE
  5
76
330
1F
100
AcDbEntity
  8
0
 62
   250
370
    25
100
AcDbSpline
210
0.0
220
0.0
230
1.0
 70
     8
 71
     3
 72
     8
 73
     4
 74
     0
 42
0.0000000001
 43
0.0000000001
 12
1.0
 22
0.0
 32
0.0
 13
1.0
 23
0.0
 33
0.0
 40
0.0
 40
0.0
 40
0.0
 40
0.0
 40
1.0
 40
1.0
 40
1.0
 40
1.0
 10
238.0230782599452
 20
-323.9399830050087
 30
0.0
 10
241.3245443958368
 20
-326.1276841022487
 30
0.0
 10
245.1610735433782
 20
-327.343896756493
 30
0.0
 10
249.13409367741
 20
-327.3786104113656
 30
0.0
  0
SPLINE
  5
77
330
1F
100
AcDbEntity
  8
0
 62
   250
370
    25
100
AcDbSpline
210
0.0
220
0.0
230
1.0
 70
     8
 71
     3
 72
    23
 73
    19
 74
     0
 42
0.0000000001
 43
0.0000000001
 12
1.0
 22
0.0
 32
0.0
 13
1.0
 23
0.0
 33
0.0
 40
0.0
 40
0.0
 40
0.0
 40
0.0
 40
1.0
 40
1.0
 40
1.0
 40
2.0
 40
2.0
 40
2.0
 40
3.0
 40
3.0
 40
3.0
 40
4.0
 40
4.0
 40
4.0
 40
5.0
 40
5.0
 40
5.0
 40
6.0
 40
6.0
 40
6.0
 40
6.0
 10
100.1379716338467
 20
-211.0594709105868
 30
0.0
 10
99.86220269060847
 20
-212.1855127011593
 30
0.0
 10
99.58322343984982
 20
-213.31091948587
 30
0.0
 10
99.28593485283879
 20
-214.4314931703823
 30
0.0
 10
99.02462993246401
 20
-215.4163519901304
 30
0.0
 10
98.74917849216341
 20
-216.3975066089921
 30
0.0
 10
98.45972164436257
 20
-217.3744631335172
 30
0.0
 10
97.86754338144189
 20
-219.373073539902
 30
0.0
 10
97.2166976306616
 20
-221.3542565630847
 30
0.0
 10
96.50778411979759
 20
-223.3145196708025
 30
0.0
 10
95.0989882928364
 20
-227.2101042669417
 30
0.0
 10
93.4608495082151
 20
-231.0230675443198
 30
0.0
 10
91.59308554110316
 20
-234.7206361446449
 30
0.0
 10
89.74066754946692
 20
-238.3877950196251
 30
0.0
 10
87.66239913252261
 20
-241.9414642351376
 30
0.0
 10
85.36089087000927
 20
-245.3447428947717
 30
0.0
 10
83.06668517513693
 20
-248.7372264546821
 30
0.0
 10
80.28006942533169
 20
-251.9803072456199
 30
0.0
 10
77.55674086675378
 20
-255.0391305011591
 30
0.0
  0
SPLINE
  5
78
330
1F
100
AcDbEntity
  8
0
 62
   250
370
    25
100
AcDbSpline
210
0.0
220
0.0
230
1.0
 70
     8
 71
     3
 72
    26
 73
    22
 74
     0
 42
0.0000000001
 43
0.0000000001
 12
1.0
 22
0.0
 32
0.0
 13
1.0
 23
0.0
 33
0.0
 40
0.0
 40
0.0
 40
0.0
 40
0.0
 40
1.0
 40
1.0
 40
1.0
 40
2.0
 40
2.0
 40
2.0
 40
3.0
 40
3.0
 40
3.0
 40
4.0
 40
4.0
 40
4.0
 40
5.0
 40
5.0
 40
5.0
 40
6.0
 40
6.0
 40
6.0
 40
7.0
 40
7.0
 40
7.0
 40
7.0
 10
-33.04205891077363
 20
-278.2908227860968
 30
0.0
 10
-28.58636375033601
 20
-278.337107658088
 30
0.0
 10
-24.1297513591791
 20
-278.2514171443099
 30
0.0
 10
-19.67920680200686
 20
-278.0365734930488
 30
0.0
 10
-15.06899354365136
 20
-277.8140744932948
 30
0.0
 10
-10.46530673463699
 20
-277.4530031023847
 30
0.0
 10
-5.876083948488612
 20
-276.9602738286293
 30
0.0
 10
3.556258142226321
 20
-275.9475805850976
 30
0.0
 10
12.92742799966204
 20
-274.3786574812357
 30
0.0
 10
22.18595486927816
 20
-272.3105492106434
 30
0.0
 10
26.95689517194447
 20
-271.2448682554224
 30
0.0
 10
31.69791964195634
 20
-270.0465769085623
 30
0.0
 10
36.40327794827278
 20
-268.7211785542311
 30
0.0
 10
40.99324157461493
 20
-267.4282713333688
 30
0.0
 10
45.54926766438494
 20
-266.0143602169601
 30
0.0
 10
50.06521782738856
 20
-264.4825849562469
 30
0.0
 10
54.56405810969066
 20
-262.9565953045331
 30
0.0
 10
58.9444081366305
 20
-261.1018313743893
 30
0.0
 10
63.43566461958046
 20
-259.5537867650375
 30
0.0
 10
67.73485548023237
 20
-258.07195311853
 30
0.0
 10
74.88558838816623
 20
-254.9783196450331
 30
0.0
 10
79.83916194638677
 20
-250.1956585379016
 30
0.0
  0
SPLINE
  5
79
330
1F
100
AcDbEntity
  8
0
 62
   250
370
    25
100
AcDbSpline
210
0.0
220
0.0
230
1.0
 70
     8
 71
     3
 72
    41
 73
    37
 74
     0
 42
0.0000000001
 43
0.0000000001
 12
1.0
 22
0.0
 32
0.0
 13
1.0
 23
0.0
 33
0.0
 40
0.0
 40
0.0
 40
0.0
 40
0.0
 40
1.0
 40
1.0
 40
1.0
 40
2.0
 40
2.0
 40
2.0
 40
3.0
 40
3.0
 40
3.0
 40
4.0
 40
4.0
 40
4.0
 40
5.0
 40
5.0
 40
5.0
 40
6.0
 40
6.0
 40
6.0
 40
7.0
 40
7.0
 40
7.0
 40
8.0
 40
8.0
 40
8.0
 40
9.0
 40
9.0
 40
9.0
 40
10.0
 40
10.0
 40
10.0
 40
11.0
 40
11.0
 40
11.0
 40
12.0
 40
12.0
 40
12.0
 40
12.0
 10
-33.04205891077363
 20
-278.2908227860968
 30
0.0
 10
-38.17054280302339
 20
-278.2376586838874
 30
0.0
 10
-43.29902669527058
 20
-278.181107883729
 30
0.0
 10
-48.42754586562032
 20
-278.1313304794687
 30
0.0
 10
-53.22219305454206
 20
-278.084798660746
 30
0.0
 10
-58.01691079967305
 20
-278.0441582853346
 30
0.0
 10
-62.8116991010165
 20
-278.0147716249899
 30
0.0
 10
-67.26383117289608
 20
-277.9875016508636
 30
0.0
 10
-71.71603380098811
 20
-277.9699331552482
 30
0.0
 10
-76.16820115096799
 20
-277.9792112965085
 30
0.0
 10
-78.17496084999306
 20
-277.9833741127397
 30
0.0
 10
-80.18168527091879
 20
-277.9930050350376
 30
0.0
 10
-82.1884096918381
 20
-277.9953686679806
 30
0.0
 10
-82.65739681368133
 20
-277.9958978395371
 30
0.0
 10
-83.1264192136274
 20
-277.9960742300559
 30
0.0
 10
-83.59540633547063
 20
-277.9917703014067
 30
0.0
 10
-84.06220621482802
 20
-277.9875016508636
 30
0.0
 10
-84.52897081608577
 20
-277.9788232373654
 30
0.0
 10
-84.99570013923392
 20
-277.968451474892
 30
0.0
 10
-85.81602190425772
 20
-277.950283251508
 30
0.0
 10
-86.63616727875599
 20
-277.926893868787
 30
0.0
 10
-87.45599515031375
 20
-277.8947907944616
 30
0.0
 10
-88.99948278043338
 20
-277.834288846691
 30
0.0
 10
-90.54177095499928
 20
-277.7428127239142
 30
0.0
 10
-92.08201299950171
 20
-277.6250191358102
 30
0.0
 10
-93.25631526554452
 20
-277.5352010839012
 30
0.0
 10
-94.42945335413387
 20
-277.4301076131134
 30
0.0
 10
-95.60089809371019
 20
-277.3088214927415
 30
0.0
 10
-96.76355858525062
 20
-277.1884173249693
 30
0.0
 10
-97.92456100587766
 20
-277.0520674543376
 30
0.0
 10
-99.08348201833516
 20
-276.8998071589653
 30
0.0
 10
-106.1259089165473
 20
-275.9747094468124
 30
0.0
 10
-113.0917823278923
 20
-274.4631485394889
 30
0.0
 10
-119.8814768851304
 20
-272.3770484360377
 30
0.0
 10
-126.9465876045659
 20
-270.206351440021
 30
0.0
 10
-133.8209496127166
 20
-267.4135250860406
 30
0.0
 10
-140.3965766315652
 20
-264.0388216903642
 30
0.0
  0
SPLINE
  5
7A
330
1F
100
AcDbEntity
  8
0
 62
   250
370
    25
100
AcDbSpline
210
0.0
220
0.0
230
1.0
 70
     8
 71
     3
 72
    29
 73
    25
 74
     0
 42
0.0000000001
 43
0.0000000001
 12
1.0
 22
0.0
 32
0.0
 13
1.0
 23
0.0
 33
0.0
 40
0.0
 40
0.0
 40
0.0
 40
0.0
 40
1.0
 40
1.0
 40
1.0
 40
2.0
 40
2.0
 40
2.0
 40
3.0
 40
3.0
 40
3.0
 40
4.0
 40
4.0
 40
4.0
 40
5.0
 40
5.0
 40
5.0
 40
6.0
 40
6.0
 40
6.0
 40
7.0
 40
7.0
 40
7.0
 40
8.0
 40
8.0
 40
8.0
 40
8.0
 10
54.25727971255348
 20
-203.8920185909278
 30
0.0
 10
52.20017815834117
 20
-203.9432423974369
 30
0.0
 10
50.14325299464798
 20
-204.0020509962266
 30
0.0
 10
48.08625727474843
 20
-204.0564145539608
 30
0.0
 10
47.05186797134126
 20
-204.0837550842934
 30
0.0
 10
46.0174433898245
 20
-204.1099667153075
 30
0.0
 10
44.98301880830773
 20
-204.1355786185652
 30
0.0
 10
42.34347574803279
 20
-204.200913666535
 30
0.0
 10
39.70382685343868
 20
-204.2624386793053
 30
0.0
 10
37.06407212453566
 20
-204.3193069824011
 30
0.0
 10
32.17152819549508
 20
-204.4247179561256
 30
0.0
 10
27.2786667635143
 20
-204.5142537831976
 30
0.0
 10
22.38534671617676
 20
-204.5762021332176
 30
0.0
 10
18.2615126852075
 20
-204.6284137266273
 30
0.0
 10
14.13732587319069
 20
-204.660975416302
 30
0.0
 10
10.0131743392806
 20
-204.6636918302826
 30
0.0
 10
6.633955260973621
 20
-204.6659496289202
 30
0.0
 10
3.254771460772712
 20
-204.6481341865731
 30
0.0
 10
-0.123953724068224
 20
-204.5867150081095
 30
0.0
 10
-5.427522849180112
 20
-204.4903352289201
 30
0.0
 10
-10.72992779684144
 20
-204.2865689022069
 30
0.0
 10
-16.02065569189722
 20
-203.9063415010063
 30
0.0
 10
-20.80810614749364
 20
-203.562238877956
 30
0.0
 10
-25.58599623675402
 20
-203.0737076985373
 30
0.0
 10
-30.33820386590828
 20
-202.3986611850887
 30
0.0
  0
SPLINE
  5
7B
330
1F
100
AcDbEntity
  8
0
 62
   250
370
    25
100
AcDbSpline
210
0.0
220
0.0
230
1.0
 70
     8
 71
     3
 72
     8
 73
     4
 74
     0
 42
0.0000000001
 43
0.0000000001
 12
1.0
 22
0.0
 32
0.0
 13
1.0
 23
0.0
 33
0.0
 40
0.0
 40
0.0
 40
0.0
 40
0.0
 40
1.0
 40
1.0
 40
1.0
 40
1.0
 10
54.29199336742609
 20
-200.6959282340627
 30
0.0
 10
54.28331495370971
 20
-200.6966337961315
 30
0.0
 10
54.27467181809618
 20
-200.6973040801063
 30
0.0
 10
54.26599340437626
 20
-200.6979743640755
 30
0.0
  0
SPLINE
  5
7C
330
1F
100
AcDbEntity
  8
0
 62
   250
370
    25
100
AcDbSpline
210
0.0
220
0.0
230
1.0
 70
     8
 71
     3
 72
     8
 73
     4
 74
     0
 42
0.0000000001
 43
0.0000000001
 12
1.0
 22
0.0
 32
0.0
 13
1.0
 23
0.0
 33
0.0
 40
0.0
 40
0.0
 40
0.0
 40
0.0
 40
1.0
 40
1.0
 40
1.0
 40
1.0
 10
51.39590793088782
 20
-199.7214058986877
 30
0.0
 10
52.36192826768436
 20
-200.0442711033357
 30
0.0
 10
53.32583191821074
 20
-200.3734158104458
 30
0.0
 10
54.29199336742609
 20
-200.6959282340627
 30
0.0
  0
SPLINE
  5
7D
330
1F
100
AcDbEntity
  8
0
 62
   250
370
    25
100
AcDbSpline
210
0.0
220
0.0
230
1.0
 70
     8
 71
     3
 72
     8
 73
     4
 74
     0
 42
0.0000000001
 43
0.0000000001
 12
1.0
 22
0.0
 32
0.0
 13
1.0
 23
0.0
 33
0.0
 40
0.0
 40
0.0
 40
0.0
 40
0.0
 40
1.0
 40
1.0
 40
1.0
 40
1.0
 10
54.26599340437626
 20
-200.6979743640755
 30
0.0
 10
53.28840184928693
 20
-200.3746152659706
 30
0.0
 10
52.31190391543858
 20
-200.0480458604355
 30
0.0
 10
51.33332457342359
 20
-199.7276148449304
 30
0.0
  0
SPLINE
  5
7E
330
1F
100
AcDbEntity
  8
0
 62
   250
370
    25
100
AcDbSpline
210
0.0
220
0.0
230
1.0
 70
     8
 71
     3
 72
    26
 73
    22
 74
     0
 42
0.0000000001
 43
0.0000000001
 12
1.0
 22
0.0
 32
0.0
 13
1.0
 23
0.0
 33
0.0
 40
0.0
 40
0.0
 40
0.0
 40
0.0
 40
1.0
 40
1.0
 40
1.0
 40
2.0
 40
2.0
 40
2.0
 40
3.0
 40
3.0
 40
3.0
 40
4.0
 40
4.0
 40
4.0
 40
5.0
 40
5.0
 40
5.0
 40
6.0
 40
6.0
 40
6.0
 40
7.0
 40
7.0
 40
7.0
 40
7.0
 10
37.12527963592415
 20
-191.9127034888818
 30
0.0
 10
36.72903596565647
 20
-191.1564820589292
 30
0.0
 10
36.37307989078005
 20
-190.3799051631625
 30
0.0
 10
36.05804641717943
 20
-189.5867122805736
 30
0.0
 10
35.74061403247132
 20
-188.7873104517413
 30
0.0
 10
35.46477453302033
 20
-187.9710456893693
 30
0.0
 10
35.22375452275823
 20
-187.1453616733115
 30
0.0
 10
34.67503888464608
 20
-185.2654268076226
 30
0.0
 10
34.30691186369806
 20
-183.3367023245812
 30
0.0
 10
34.03527045868997
 20
-181.3969005169854
 30
0.0
 10
33.86505360425237
 20
-180.1811112307097
 30
0.0
 10
33.73272543409855
 20
-178.9609474595784
 30
0.0
 10
33.62551527438134
 20
-177.7383142211975
 30
0.0
 10
33.50669861826847
 20
-176.3833880941031
 30
0.0
 10
33.41871502552935
 20
-175.025463328209
 30
0.0
 10
33.34897021283977
 20
-173.6668682783336
 30
0.0
 10
33.26557277369362
 20
-172.0429113327684
 30
0.0
 10
33.20814001949125
 20
-170.4180724346098
 30
0.0
 10
33.16517128815518
 20
-168.7927043648948
 30
0.0
 10
33.11091356336012
 20
-166.740153738019
 30
0.0
 10
33.07969244083597
 20
-164.6867211585492
 30
0.0
 10
33.05905474967606
 20
-162.6336766382244
 30
0.0
  0
SPLINE
  5
7F
330
1F
100
AcDbEntity
  8
0
 62
   250
370
    25
100
AcDbSpline
210
0.0
220
0.0
230
1.0
 70
     8
 71
     3
 72
    26
 73
    22
 74
     0
 42
0.0000000001
 43
0.0000000001
 12
1.0
 22
0.0
 32
0.0
 13
1.0
 23
0.0
 33
0.0
 40
0.0
 40
0.0
 40
0.0
 40
0.0
 40
1.0
 40
1.0
 40
1.0
 40
2.0
 40
2.0
 40
2.0
 40
3.0
 40
3.0
 40
3.0
 40
4.0
 40
4.0
 40
4.0
 40
5.0
 40
5.0
 40
5.0
 40
6.0
 40
6.0
 40
6.0
 40
7.0
 40
7.0
 40
7.0
 40
7.0
 10
94.66965376049924
 20
-209.723877184301
 30
0.0
 10
94.53700808741165
 20
-210.2650080162667
 30
0.0
 10
94.40852523064967
 20
-210.8071619132442
 30
0.0
 10
94.28131238565774
 20
-211.3496333131468
 30
0.0
 10
93.97760318361865
 20
-212.6446219421337
 30
0.0
 10
93.68116127110773
 20
-213.9412333638823
 30
0.0
 10
93.37928653050757
 20
-215.2366453301067
 30
0.0
 10
93.21598418455412
 20
-215.9375154154244
 30
0.0
 10
93.05105904580041
 20
-216.6380327197116
 30
0.0
 10
92.88493445149585
 20
-217.3382325210609
 30
0.0
 10
92.5601642210404
 20
-218.7070934990966
 30
0.0
 10
92.23073728078303
 20
-220.0747902997141
 30
0.0
 10
91.89033885000781
 20
-221.4398412425503
 30
0.0
 10
91.27156089626172
 20
-223.9212677755685
 30
0.0
 10
90.61648177294207
 20
-226.3940158950815
 30
0.0
 10
89.88650723366169
 20
-228.8450679808485
 30
0.0
 10
89.26547148122725
 20
-230.9304272441242
 30
0.0
 10
88.59017800399134
 20
-233.0000877512725
 30
0.0
 10
87.83505017618049
 20
-235.0406791010128
 30
0.0
 10
87.11580018067995
 20
-236.984467334314
 30
0.0
 10
86.32408895844507
 20
-238.9018675460888
 30
0.0
 10
85.44531137419358
 20
-240.77901544159
 30
0.0
  0
SPLINE
  5
80
330
1F
100
AcDbEntity
  8
0
 62
   250
370
    25
100
AcDbSpline
210
0.0
220
0.0
230
1.0
 70
     8
 71
     3
 72
     8
 73
     4
 74
     0
 42
0.0000000001
 43
0.0000000001
 12
1.0
 22
0.0
 32
0.0
 13
1.0
 23
0.0
 33
0.0
 40
0.0
 40
0.0
 40
0.0
 40
0.0
 40
1.0
 40
1.0
 40
1.0
 40
1.0
 10
94.63804457882823
 20
-209.7161512795961
 30
0.0
 10
94.64859273208961
 20
-209.7187265811646
 30
0.0
 10
94.65914088534426
 20
-209.7213018827261
 30
0.0
 10
94.66965376049924
 20
-209.723877184301
 30
0.0
  0
SPLINE
  5
81
330
1F
100
AcDbEntity
  8
0
 62
   250
370
    25
100
AcDbSpline
210
0.0
220
0.0
230
1.0
 70
     8
 71
     3
 72
     8
 73
     4
 74
     0
 42
0.0000000001
 43
0.0000000001
 12
1.0
 22
0.0
 32
0.0
 13
1.0
 23
0.0
 33
0.0
 40
0.0
 40
0.0
 40
0.0
 40
0.0
 40
1.0
 40
1.0
 40
1.0
 40
1.0
 10
228.8944453712725
 20
-307.8134794641639
 30
0.0
 10
229.1856308461989
 20
-314.3388351840348
 30
0.0
 10
232.5781497699155
 20
-320.3319854187135
 30
0.0
 10
238.0230782599452
 20
-323.9399830050087
 30
0.0
  0
SPLINE
  5
82
330
1F
100
AcDbEntity
  8
0
 62
   250
370
    25
100
AcDbSpline
210
0.0
220
0.0
230
1.0
 70
     8
 71
     3
 72
    20
 73
    16
 74
     0
 42
0.0000000001
 43
0.0000000001
 12
1.0
 22
0.0
 32
0.0
 13
1.0
 23
0.0
 33
0.0
 40
0.0
 40
0.0
 40
0.0
 40
0.0
 40
1.0
 40
1.0
 40
1.0
 40
2.0
 40
2.0
 40
2.0
 40
3.0
 40
3.0
 40
3.0
 40
4.0
 40
4.0
 40
4.0
 40
5.0
 40
5.0
 40
5.0
 40
5.0
 10
51.33332457342359
 20
-199.7276148449304
 30
0.0
 10
51.04213909849369
 20
-199.6342689826596
 30
0.0
 10
50.74922499644404
 20
-199.5465676169691
 30
0.0
 10
50.45465282348452
 20
-199.4645460259778
 30
0.0
 10
50.14794498255339
 20
-199.3791024589179
 30
0.0
 10
49.83947323639644
 20
-199.2998325600069
 30
0.0
 10
49.53004898142053
 20
-199.2247607554268
 30
0.0
 10
48.4272907113992
 20
-198.9572116173062
 30
0.0
 10
47.31232621720664
 20
-198.7431440843195
 30
0.0
 10
46.20607541483331
 20
-198.4906586964652
 30
0.0
 10
45.78136231420228
 20
-198.3937144676198
 30
0.0
 10
45.357954503431
 20
-198.2911257421883
 30
0.0
 10
44.93676921324808
 20
-198.1797174908459
 30
0.0
 10
44.04148147606679
 20
-197.9429661372127
 30
0.0
 10
43.15638911109678
 20
-197.6665269169691
 30
0.0
 10
42.29062914742018
 20
-197.3374527660712
 30
0.0
  0
POLYLINE
  5
83
330
1F
100
AcDbEntity
  8
0
 62
   250
370
    25
100
AcDb2dPolyline
 66
     1
 10
0.0
 20
0.0
 30
0.0
  0
VERTEX
  5
84
330
83
100
AcDbEntity
  8
0
 62
   250
370
    25
100
AcDbVertex
100
AcDb2dVertex
 10
51.39590793088782
 20
-199.7214058986877
 30
0.0
  0
VERTEX
  5
85
330
83
100
AcDbEntity
  8
0
 62
   250
370
    25
100
AcDbVertex
100
AcDb2dVertex
 10
51.33332457342359
 20
-199.7276148449304
 30
0.0
  0
SEQEND
  5
86
330
83
100
AcDbEntity
  8
0
 62
   250
370
    25
  0
SPLINE
  5
87
330
1F
100
AcDbEntity
  8
0
 62
   250
370
    25
100
AcDbSpline
210
0.0
220
0.0
230
1.0
 70
     8
 71
     3
 72
    17
 73
    13
 74
     0
 42
0.0000000001
 43
0.0000000001
 12
1.0
 22
0.0
 32
0.0
 13
1.0
 23
0.0
 33
0.0
 40
0.0
 40
0.0
 40
0.0
 40
0.0
 40
1.0
 40
1.0
 40
1.0
 40
2.0
 40
2.0
 40
2.0
 40
3.0
 40
3.0
 40
3.0
 40
4.0
 40
4.0
 40
4.0
 40
4.0
 10
85.445064427462
 20
-240.7795093350403
 30
0.0
 10
85.24591952729176
 20
-241.2042577030518
 30
0.0
 10
85.04169458007536
 20
-241.6266071600134
 30
0.0
 10
84.83231902958778
 20
-242.0464165935127
 30
0.0
 10
84.6240723784572
 20
-242.4640035064816
 30
0.0
 10
84.4107456802612
 20
-242.8790856740949
 30
0.0
 10
84.19230365690652
 20
-243.2914514277211
 30
0.0
 10
83.7439542262232
 20
-244.1378789687193
 30
0.0
 10
83.27415570798017
 20
-244.9729116822445
 30
0.0
 10
82.78259059922601
 20
-245.794997331722
 30
0.0
 10
81.8765077620553
 20
-247.3102977180322
 30
0.0
 10
75.46972175155922
 20
-257.0515346460732
 30
0.0
 10
74.41250751450985
 20
-258.4656574311003
 30
0.0
  0
SPLINE
  5
88
330
1F
100
AcDbEntity
  8
0
 62
   250
370
    25
100
AcDbSpline
210
0.0
220
0.0
230
1.0
 70
     8
 71
     3
 72
     8
 73
     4
 74
     0
 42
0.0000000001
 43
0.0000000001
 12
1.0
 22
0.0
 32
0.0
 13
1.0
 23
0.0
 33
0.0
 40
0.0
 40
0.0
 40
0.0
 40
0.0
 40
1.0
 40
1.0
 40
1.0
 40
1.0
 10
85.43980798988483
 20
-240.7767576429594
 30
0.0
 10
85.43684462910205
 20
-240.7741117851845
 30
0.0
 10
85.44347691275497
 20
-240.7782040452088
 30
0.0
 10
85.44347691275497
 20
-240.7782040452088
 30
0.0
  0
SPLINE
  5
89
330
1F
100
AcDbEntity
  8
0
 62
   250
370
    25
100
AcDbSpline
210
0.0
220
0.0
230
1.0
 70
     8
 71
     3
 72
     8
 73
     4
 74
     0
 42
0.0000000001
 43
0.0000000001
 12
1.0
 22
0.0
 32
0.0
 13
1.0
 23
0.0
 33
0.0
 40
0.0
 40
0.0
 40
0.0
 40
0.0
 40
1.0
 40
1.0
 40
1.0
 40
1.0
 10
241.3788021206254
 20
-113.9382518196284
 30
0.0
 10
241.3616569618169
 20
-113.9384634882468
 30
0.0
 10
241.3445118030089
 20
-113.9383929320372
 30
0.0
 10
241.327366644201
 20
-113.9380401510035
 30
0.0
  0
SPLINE
  5
8A
330
1F
100
AcDbEntity
  8
0
 62
   250
370
    25
100
AcDbSpline
210
0.0
220
0.0
230
1.0
 70
     8
 71
     3
 72
     8
 73
     4
 74
     0
 42
0.0000000001
 43
0.0000000001
 12
1.0
 22
0.0
 32
0.0
 13
1.0
 23
0.0
 33
0.0
 40
0.0
 40
0.0
 40
0.0
 40
0.0
 40
1.0
 40
1.0
 40
1.0
 40
1.0
 10
241.3788021206254
 20
-189.5958140313222
 30
0.0
 10
241.3616569618169
 20
-189.5956023626967
 30
0.0
 10
241.3445118030089
 20
-189.5956729189031
 30
0.0
 10
241.327366644201
 20
-189.5960256999407
 30
0.0
  0
SPLINE
  5
8B
330
1F
100
AcDbEntity
  8
0
 62
   250
370
    25
100
AcDbSpline
210
0.0
220
0.0
230
1.0
 70
     8
 71
     3
 72
    11
 73
     7
 74
     0
 42
0.0000000001
 43
0.0000000001
 12
1.0
 22
0.0
 32
0.0
 13
1.0
 23
0.0
 33
0.0
 40
0.0
 40
0.0
 40
0.0
 40
0.0
 40
1.0
 40
1.0
 40
1.0
 40
2.0
 40
2.0
 40
2.0
 40
2.0
 10
264.1242189146054
 20
-111.7316064359802
 30
0.0
 10
280.4681414137665
 20
-94.69612768374331
 30
0.0
 10
305.5261437950844
 20
-89.30573927951622
 30
0.0
 10
327.4293663992173
 20
-98.11369397535569
 30
0.0
 10
349.3325890033503
 20
-106.9216133930923
 30
0.0
 10
363.6827341459644
 20
-128.1592081841351
 30
0.0
 10
363.6827341459644
 20
-151.7670329254721
 30
0.0
  0
POLYLINE
  5
8C
330
1F
100
AcDbEntity
  8
0
 62
   250
370
    25
100
AcDb2dPolyline
 66
     1
 10
0.0
 20
0.0
 30
0.0
  0
VERTEX
  5
8D
330
8C
100
AcDbEntity
  8
0
 62
   250
370
    25
100
AcDbVertex
100
AcDb2dVertex
 10
-216.9324597234249
 20
-151.7670329254721
 30
0.0
  0
VERTEX
  5
8E
330
8C
100
AcDbEntity
  8
0
 62
   250
370
    25
100
AcDbVertex
100
AcDb2dVertex
 10
-216.9981122759907
 20
-151.7670329254721
 30
0.0
  0
SEQEND
  5
8F
330
8C
100
AcDbEntity
  8
0
 62
   250
370
    25
  0
SPLINE
  5
90
330
1F
100
AcDbEntity
  8
0
 62
   250
370
    25
100
AcDbSpline
210
0.0
220
0.0
230
1.0
 70
     8
 71
     3
 72
    71
 73
    67
 74
     0
 42
0.0000000001
 43
0.0000000001
 12
1.0
 22
0.0
 32
0.0
 13
1.0
 23
0.0
 33
0.0
 40
0.0
 40
0.0
 40
0.0
 40
0.0
 40
1.0
 40
1.0
 40
1.0
 40
2.0
 40
2.0
 40
2.0
 40
3.0
 40
3.0
 40
3.0
 40
4.0
 40
4.0
 40
4.0
 40
5.0
 40
5.0
 40
5.0
 40
6.0
 40
6.0
 40
6.0
 40
7.0
 40
7.0
 40
7.0
 40
8.0
 40
8.0
 40
8.0
 40
9.0
 40
9.0
 40
9.0
 40
10.0
 40
10.0
 40
10.0
 40
11.0
 40
11.0
 40
11.0
 40
12.0
 40
12.0
 40
12.0
 40
13.0
 40
13.0
 40
13.0
 40
14.0
 40
14.0
 40
14.0
 40
15.0
 40
15.0
 40
15.0
 40
16.0
 40
16.0
 40
16.0
 40
17.0
 40
17.0
 40
17.0
 40
18.0
 40
18.0
 40
18.0
 40
19.0
 40
19.0
 40
19.0
 40
20.0
 40
20.0
 40
20.0
 40
21.0
 40
21.0
 40
21.0
 40
22.0
 40
22.0
 40
22.0
 40
22.0
 10
-216.9981122759907
 20
-151.7670329254721
 30
0.0
 10
-216.9980769978811
 20
-145.4271696394646
 30
0.0
 10
-216.5512092475956
 20
-139.0871652410418
 30
0.0
 10
-215.661460172826
 20
-132.8099911452298
 30
0.0
 10
-214.5493179269945
 20
-124.9634000521018
 30
0.0
 10
-212.7451603823814
 20
-117.2149879214447
 30
0.0
 10
-210.2767514072569
 20
-109.6842416903443
 30
0.0
 10
-208.3020242271593
 20
-103.6596588167026
 30
0.0
 10
-205.90223116538
 20
-97.77438917439775
 30
0.0
 10
-203.1015377235342
 20
-92.0865710782519
 30
0.0
 10
-200.3008795597913
 20
-86.39882353831175
 30
0.0
 10
-197.0993562940849
 20
-80.90852754453411
 30
0.0
 10
-193.5282243270487
 20
-75.67018776706023
 30
0.0
 10
-189.2126537978658
 20
-69.33995540335128
 30
0.0
 10
-184.3572929910181
 20
-63.37767366076694
 30
0.0
 10
-179.0325217250775
 20
-57.86945639032979
 30
0.0
 10
-174.3197550168041
 20
-52.99426941188488
 30
0.0
 10
-169.2392846248459
 20
-48.47475627449175
 30
0.0
 10
-163.8486138596113
 20
-44.36164689121042
 30
0.0
 10
-158.4578372600608
 20
-40.24843167361987
 30
0.0
 10
-152.7568602872307
 20
-36.54158493202799
 30
0.0
 10
-146.8100302038174
 20
-33.28372261566803
 30
0.0
 10
-140.5110188027167
 20
-29.83292435041185
 30
0.0
 10
-133.9361326240625
 20
-26.88586212724948
 30
0.0
 10
-127.1690513318382
 20
-24.47918989588115
 30
0.0
 10
-120.7353834056794
 20
-22.19108737089705
 30
0.0
 10
-114.1280060927378
 20
-20.39141019102312
 30
0.0
 10
-107.4225203710524
 20
-19.10132521845136
 30
0.0
 10
-101.5463523310445
 20
-17.97080310871031
 30
0.0
 10
-95.5948655378322
 20
-17.23162100282128
 30
0.0
 10
-89.62076547960261
 20
-16.89058757478531
 30
0.0
 10
-88.07396170765651
 20
-16.80228648133527
 30
0.0
 10
-86.52560569910625
 20
-16.74069091235282
 30
0.0
 10
-84.97675579709379
 20
-16.70230833557517
 30
0.0
 10
-84.425711804077
 20
-16.68865570946192
 30
0.0
 10
-83.87463253295734
 20
-16.67793116594837
 30
0.0
 10
-83.32355326183446
 20
-16.66713606623166
 30
0.0
 10
-78.81166008085107
 20
-16.57876441657525
 30
0.0
 10
-74.2999080122865
 20
-16.48545383240474
 30
0.0
 10
-69.78812066561908
 20
-16.39376604100561
 30
0.0
 10
-56.74901572226994
 20
-16.12886276065611
 30
0.0
 10
-43.70962855408541
 20
-15.8777179407323
 30
0.0
 10
-30.67017082969227
 20
-15.63299373568253
 30
0.0
 10
-23.32696281211713
 20
-15.49519746280083
 30
0.0
 10
-15.98371951643914
 20
-15.35944731993447
 30
0.0
 10
-8.640405664548037
 20
-15.22754249036786
 30
0.0
 10
-5.458179522032177
 20
-15.17039196244663
 30
0.0
 10
-2.275953379513109
 20
-15.11398227469767
 30
0.0
 10
0.9063433192120022
 20
-15.0595128826574
 30
0.0
 10
1.422744213565119
 20
-15.05065807864039
 30
0.0
 10
1.939145107918557
 20
-15.04187383083232
 30
0.0
 10
2.455581280374856
 20
-15.03721712114559
 30
0.0
 10
7.220665417688405
 20
-14.99417783468764
 30
0.0
 10
11.98888930630352
 20
-15.30222623580431
 30
0.0
 10
16.71107526848737
 20
-15.94608690561997
 30
0.0
 10
21.90284808029292
 20
-16.6539773335713
 30
0.0
 10
27.03891676501519
 20
-17.76781290027799
 30
0.0
 10
32.05563962205859
 20
-19.27898574846038
 30
0.0
 10
38.32459407808856
 20
-21.16738735902768
 30
0.0
 10
44.40717430779484
 20
-23.67626025668447
 30
0.0
 10
50.18593950115314
 20
-26.75469813785771
 30
0.0
 10
55.96361107326018
 20
-29.83257156937426
 30
0.0
 10
61.43757344333167
 20
-33.47979831578304
 30
0.0
 10
66.50248619118544
 20
-37.62691579098973
 30
0.0
 10
70.55474094802716
 20
-40.94489199598246
 30
0.0
 10
79.83916194638677
 20
-50.04981175087077
 30
0.0
 10
84.19230365690652
 20
-60.24261442322308
 30
0.0
  0
SPLINE
  5
91
330
1F
100
AcDbEntity
  8
0
 62
   250
370
    25
100
AcDbSpline
210
0.0
220
0.0
230
1.0
 70
     8
 71
     3
 72
    26
 73
    22
 74
     0
 42
0.0000000001
 43
0.0000000001
 12
1.0
 22
0.0
 32
0.0
 13
1.0
 23
0.0
 33
0.0
 40
0.0
 40
0.0
 40
0.0
 40
0.0
 40
1.0
 40
1.0
 40
1.0
 40
2.0
 40
2.0
 40
2.0
 40
3.0
 40
3.0
 40
3.0
 40
4.0
 40
4.0
 40
4.0
 40
5.0
 40
5.0
 40
5.0
 40
6.0
 40
6.0
 40
6.0
 40
7.0
 40
7.0
 40
7.0
 40
7.0
 10
-208.6407293089119
 20
-151.7670329254721
 30
0.0
 10
-208.6393534628329
 20
-148.9383992962819
 30
0.0
 10
-208.5450903674881
 20
-146.109624554677
 30
0.0
 10
-208.3553999993379
 20
-143.287305706042
 30
0.0
 10
-208.1670854772696
 20
-140.4856951042509
 30
0.0
 10
-207.8847548065817
 20
-137.6903992830143
 30
0.0
 10
-207.5096074428332
 20
-134.9076271885757
 30
0.0
 10
-206.7649219339617
 20
-129.3838875525313
 30
0.0
 10
-205.6545435933585
 20
-123.9094667053976
 30
0.0
 10
-204.1885972370294
 20
-118.5319900871111
 30
0.0
 10
-202.5787514922591
 20
-112.6267177600295
 30
0.0
 10
-200.5401003867212
 20
-106.8383923465697
 30
0.0
 10
-198.0947280138673
 20
-101.2273394039759
 30
0.0
 10
-195.8556267182962
 20
-96.08954222192203
 30
0.0
 10
-193.2754919860744
 20
-91.10037169056618
 30
0.0
 10
-190.3762667982317
 20
-86.30396071758582
 30
0.0
 10
-184.4659848311261
 20
-76.52614039605037
 30
0.0
 10
-177.2297047484337
 20
-67.54937997421952
 30
0.0
 10
-168.9189594355646
 20
-59.70970338940559
 30
0.0
 10
-160.8364987372174
 20
-52.085364349307
 30
0.0
 10
-151.7378169592963
 20
-45.53647829914065
 30
0.0
 10
-141.9382298002527
 20
-40.3001846516789
 30
0.0
  0
SPLINE
  5
92
330
1F
100
AcDbEntity
  8
0
 62
   250
370
    25
100
AcDbSpline
210
0.0
220
0.0
230
1.0
 70
     8
 71
     3
 72
    35
 73
    31
 74
     0
 42
0.0000000001
 43
0.0000000001
 12
1.0
 22
0.0
 32
0.0
 13
1.0
 23
0.0
 33
0.0
 40
0.0
 40
0.0
 40
0.0
 40
0.0
 40
1.0
 40
1.0
 40
1.0
 40
2.0
 40
2.0
 40
2.0
 40
3.0
 40
3.0
 40
3.0
 40
4.0
 40
4.0
 40
4.0
 40
5.0
 40
5.0
 40
5.0
 40
6.0
 40
6.0
 40
6.0
 40
7.0
 40
7.0
 40
7.0
 40
8.0
 40
8.0
 40
8.0
 40
9.0
 40
9.0
 40
9.0
 40
10.0
 40
10.0
 40
10.0
 40
10.0
 10
-30.33820386590828
 20
-101.1354046658517
 30
0.0
 10
-34.58875684841018
 20
-101.7420116582056
 30
0.0
 10
-38.81750796230161
 20
-102.5322411800855
 30
0.0
 10
-42.97781955337284
 20
-103.5982749163383
 30
0.0
 10
-46.64702465104988
 20
-104.5384716568603
 30
0.0
 10
-50.26299508896359
 20
-105.6932298238129
 30
0.0
 10
-53.76748671651821
 20
-107.1316592222546
 30
0.0
 10
-56.88339002249011
 20
-108.4106315921788
 30
0.0
 10
-59.91120390140694
 20
-109.9139021451375
 30
0.0
 10
-62.75765304484983
 20
-111.7135087688051
 30
0.0
 10
-65.31789092610589
 20
-113.3322092769273
 30
0.0
 10
-67.73144244866035
 20
-115.1906244993909
 30
0.0
 10
-69.90062254101986
 20
-117.3044531923183
 30
0.0
 10
-71.95497240307746
 20
-119.3063444623411
 30
0.0
 10
-73.79017467969591
 20
-121.537296459404
 30
0.0
 10
-75.34258767026671
 20
-123.9492956844243
 30
0.0
 10
-76.13338166177941
 20
-125.1779614785324
 30
0.0
 10
-76.85079719584101
 20
-126.4536177067093
 30
0.0
 10
-77.49543400022132
 20
-127.7651164882028
 30
0.0
 10
-78.12666512487024
 20
-129.0493805736729
 30
0.0
 10
-78.68804560251971
 20
-130.3680408102049
 30
0.0
 10
-79.18557271094227
 20
-131.7098082046332
 30
0.0
 10
-79.752668241526
 20
-133.2392903886117
 30
0.0
 10
-80.23675439211367
 20
-134.7987942387986
 30
0.0
 10
-80.65321241628799
 20
-136.3759371408151
 30
0.0
 10
-81.09510595383718
 20
-138.0493892658159
 30
0.0
 10
-81.46086934177416
 20
-139.7427382412678
 30
0.0
 10
-81.75533568042445
 20
-141.4483992749031
 30
0.0
 10
-82.34342168321209
 20
-144.8547118514487
 30
0.0
 10
-82.64713088525727
 20
-148.310060992076
 30
0.0
 10
-82.64564920486589
 20
-151.7670329254721
 30
0.0
  0
SPLINE
  5
93
330
1F
100
AcDbEntity
  8
0
 62
   250
370
    25
100
AcDbSpline
210
0.0
220
0.0
230
1.0
 70
     8
 71
     3
 72
    23
 73
    19
 74
     0
 42
0.0000000001
 43
0.0000000001
 12
1.0
 22
0.0
 32
0.0
 13
1.0
 23
0.0
 33
0.0
 40
0.0
 40
0.0
 40
0.0
 40
0.0
 40
1.0
 40
1.0
 40
1.0
 40
2.0
 40
2.0
 40
2.0
 40
3.0
 40
3.0
 40
3.0
 40
4.0
 40
4.0
 40
4.0
 40
5.0
 40
5.0
 40
5.0
 40
6.0
 40
6.0
 40
6.0
 40
6.0
 10
42.29062914742018
 20
-106.1966130848726
 30
0.0
 10
41.95255907155218
 20
-106.3251664945901
 30
0.0
 10
41.61851069959833
 20
-106.4677253114613
 30
0.0
 10
41.29275268221785
 20
-106.6258770501487
 30
0.0
 10
41.03663364320746
 20
-106.7501970874295
 30
0.0
 10
40.78559465125641
 20
-106.8841480470089
 30
0.0
 10
40.54344574164694
 20
-107.033868318922
 30
0.0
 10
40.10388055899919
 20
-107.3056508294801
 30
0.0
 10
39.69356092501847
 20
-107.6293274305223
 30
0.0
 10
39.33936875537076
 20
-108.0048275658298
 30
0.0
 10
38.99297304682685
 20
-108.3720726248824
 30
0.0
 10
38.70027061340238
 20
-108.7888834195704
 30
0.0
 10
38.43706067538327
 20
-109.2208285207272
 30
0.0
 10
38.27700391505313
 20
-109.4835092805425
 30
0.0
 10
38.12784808903191
 20
-109.7517992588411
 30
0.0
 10
37.98066783686458
 20
-110.0215356393929
 30
0.0
 10
37.69124626716371
 20
-110.5520830402636
 30
0.0
 10
37.40951532425389
 20
-111.0882749377241
 30
0.0
 10
37.12527963592415
 20
-111.6213623620598
 30
0.0
  0
SPLINE
  5
94
330
1F
100
AcDbEntity
  8
0
 62
   250
370
    25
100
AcDbSpline
210
0.0
220
0.0
230
1.0
 70
     8
 71
     3
 72
     8
 73
     4
 74
     0
 42
0.0000000001
 43
0.0000000001
 12
1.0
 22
0.0
 32
0.0
 13
1.0
 23
0.0
 33
0.0
 40
0.0
 40
0.0
 40
0.0
 40
0.0
 40
1.0
 40
1.0
 40
1.0
 40
1.0
 10
33.02053105951384
 20
-151.767174037888
 30
0.0
 10
33.01527462193666
 20
-148.1448183545525
 30
0.0
 10
33.02815113009563
 20
-144.522639061739
 30
0.0
 10
33.05905474967606
 20
-140.9003892127198
 30
0.0
  0
SPLINE
  5
95
330
1F
100
AcDbEntity
  8
0
 62
   250
370
    25
100
AcDbSpline
210
0.0
220
0.0
230
1.0
 70
     8
 71
     3
 72
     8
 73
     4
 74
     0
 42
0.0000000001
 43
0.0000000001
 12
1.0
 22
0.0
 32
0.0
 13
1.0
 23
0.0
 33
0.0
 40
0.0
 40
0.0
 40
0.0
 40
0.0
 40
1.0
 40
1.0
 40
1.0
 40
1.0
 10
101.6582815492798
 20
-151.7670329254721
 30
0.0
 10
101.6583168273862
 20
-132.0292514332319
 30
0.0
 10
99.36157110898816
 20
-112.9822152105657
 30
0.0
 10
94.66965376049924
 20
-93.81018866664635
 30
0.0
  0
SPLINE
  5
96
330
1F
100
AcDbEntity
  8
0
 62
   250
370
    25
100
AcDbSpline
210
0.0
220
0.0
230
1.0
 70
    24
 71
     3
 72
     8
 73
     4
 74
     0
 42
0.0000000001
 43
0.0000000001
 12
1.0
 22
0.0
 32
0.0
 13
1.0
 23
0.0
 33
0.0
 40
0.0
 40
0.0
 40
0.0
 40
0.0
 40
1.0
 40
1.0
 40
1.0
 40
1.0
 10
101.6582815492798
 20
-151.7670329254721
 30
0.0
 10
101.6473453368747
 20
-151.7670329254721
 30
0.0
 10
101.6364444025694
 20
-151.7670329254721
 30
0.0
 10
101.6255081901585
 20
-151.7670329254721
 30
0.0
  0
SPLINE
  5
97
330
1F
100
AcDbEntity
  8
0
 62
   250
370
    25
100
AcDbSpline
210
0.0
220
0.0
230
1.0
 70
     8
 71
     3
 72
     8
 73
     4
 74
     0
 42
0.0000000001
 43
0.0000000001
 12
1.0
 22
0.0
 32
0.0
 13
1.0
 23
0.0
 33
0.0
 40
0.0
 40
0.0
 40
0.0
 40
0.0
 40
1.0
 40
1.0
 40
1.0
 40
1.0
 10
107.2871853545227
 20
-151.7670329254721
 30
0.0
 10
107.287150076416
 20
-131.5745166771136
 30
0.0
 10
104.9376283136111
 20
-112.0885502887664
 30
0.0
 10
100.1379716338467
 20
-92.47473605277264
 30
0.0
  0
SPLINE
  5
98
330
1F
100
AcDbEntity
  8
0
 62
   250
370
    25
100
AcDbSpline
210
0.0
220
0.0
230
1.0
 70
     8
 71
     3
 72
     8
 73
     4
 74
     0
 42
0.0000000001
 43
0.0000000001
 12
1.0
 22
0.0
 32
0.0
 13
1.0
 23
0.0
 33
0.0
 40
0.0
 40
0.0
 40
0.0
 40
0.0
 40
1.0
 40
1.0
 40
1.0
 40
1.0
 10
225.4145425825894
 20
-151.7670329254721
 30
0.0
 10
225.4145425825894
 20
-99.71274457974096
 30
0.0
 10
226.5739574885127
 20
-47.72312099800792
 30
0.0
 10
228.8944453712725
 20
4.279414369653908
 30
0.0
  0
POLYLINE
  5
99
330
1F
100
AcDbEntity
  8
0
 62
   250
370
    25
100
AcDb2dPolyline
 66
     1
 10
0.0
 20
0.0
 30
0.0
  0
VERTEX
  5
9A
330
99
100
AcDbEntity
  8
0
 62
   250
370
    25
100
AcDbVertex
100
AcDb2dVertex
 10
235.8531220492951
 20
-151.7670329254721
 30
0.0
  0
VERTEX
  5
9B
330
99
100
AcDbEntity
  8
0
 62
   250
370
    25
100
AcDbVertex
100
AcDb2dVertex
 10
236.024044465814
 20
-151.7670329254721
 30
0.0
  0
SEQEND
  5
9C
330
99
100
AcDbEntity
  8
0
 62
   250
370
    25
  0
SPLINE
  5
9D
330
1F
100
AcDbEntity
  8
0
 62
   250
370
    25
100
AcDbSpline
210
0.0
220
0.0
230
1.0
 70
     8
 71
     3
 72
     8
 73
     4
 74
     0
 42
0.0000000001
 43
0.0000000001
 12
1.0
 22
0.0
 32
0.0
 13
1.0
 23
0.0
 33
0.0
 40
0.0
 40
0.0
 40
0.0
 40
0.0
 40
1.0
 40
1.0
 40
1.0
 40
1.0
 10
258.9491679243545
 20
-113.9382518196284
 30
0.0
 10
260.9027282417265
 20
-113.9382518196284
 30
0.0
 10
262.771762220596
 20
-113.1412841799499
 30
0.0
 10
264.1242189146054
 20
-111.7316064359802
 30
0.0
  0
SPLINE
  5
9E
330
1F
100
AcDbEntity
  8
0
 62
   250
370
    25
100
AcDbSpline
210
0.0
220
0.0
230
1.0
 70
     8
 71
     3
 72
    32
 73
    28
 74
     0
 42
0.0000000001
 43
0.0000000001
 12
1.0
 22
0.0
 32
0.0
 13
1.0
 23
0.0
 33
0.0
 40
0.0
 40
0.0
 40
0.0
 40
0.0
 40
1.0
 40
1.0
 40
1.0
 40
2.0
 40
2.0
 40
2.0
 40
3.0
 40
3.0
 40
3.0
 40
4.0
 40
4.0
 40
4.0
 40
5.0
 40
5.0
 40
5.0
 40
6.0
 40
6.0
 40
6.0
 40
7.0
 40
7.0
 40
7.0
 40
8.0
 40
8.0
 40
8.0
 40
9.0
 40
9.0
 40
9.0
 40
9.0
 10
241.327366644201
 20
-113.9380401510035
 30
0.0
 10
241.0083467447859
 20
-113.9313020332043
 30
0.0
 10
240.6893268453708
 20
-113.9197308152067
 30
0.0
 10
240.3706597269997
 20
-113.9021975976883
 30
0.0
 10
240.0651513416284
 20
-113.8853699422441
 30
0.0
 10
239.7599957373011
 20
-113.8631094588387
 30
0.0
 10
239.4552987483302
 20
-113.8353808693657
 30
0.0
 10
238.9435192856729
 20
-113.7887784944366
 30
0.0
 10
238.433009834779
 20
-113.7267243101067
 30
0.0
 10
237.9269454250617
 20
-113.6371532049261
 30
0.0
 10
237.7146770700039
 20
-113.5995820245329
 30
0.0
 10
237.5032201113528
 20
-113.5571424658338
 30
0.0
 10
237.2939503951838
 20
-113.5057422688092
 30
0.0
 10
237.1309302740683
 20
-113.4657016211598
 30
0.0
 10
236.9692859990408
 20
-113.4201575893436
 30
0.0
 10
236.81102842204
 20
-113.3635715110784
 30
0.0
 10
236.6968684757296
 20
-113.3227547451481
 30
0.0
 10
236.5845077127512
 20
-113.2761523702223
 30
0.0
 10
236.4823423219834
 20
-113.2107114879401
 30
0.0
 10
236.449992300118
 20
-113.1900032410936
 30
0.0
 10
236.4186653432779
 20
-113.1674252547538
 30
0.0
 10
236.3925948240156
 20
-113.1392380499343
 30
0.0
 10
236.3801769312156
 20
-113.1258676486494
 30
0.0
 10
236.3689584939662
 20
-113.1112272356329
 30
0.0
 10
236.3590453465932
 20
-113.0959870948511
 30
0.0
 10
236.352483619146
 20
-113.0858622791029
 30
0.0
 10
236.3465216194808
 20
-113.0754905166295
 30
0.0
 10
236.3434524243792
 20
-113.0634959613847
 30
0.0
  0
POLYLINE
  5
9F
330
1F
100
AcDbEntity
  8
0
 62
   250
370
    25
100
AcDb2dPolyline
 66
     1
 10
0.0
 20
0.0
 30
0.0
  0
VERTEX
  5
A0
330
9F
100
AcDbEntity
  8
0
 62
   250
370
    25
100
AcDbVertex
100
AcDb2dVertex
 10
241.3788021206254
 20
-113.9382518196284
 30
0.0
  0
VERTEX
  5
A1
330
9F
100
AcDbEntity
  8
0
 62
   250
370
    25
100
AcDbVertex
100
AcDb2dVertex
 10
258.9491679243545
 20
-113.9382518196284
 30
0.0
  0
SEQEND
  5
A2
330
9F
100
AcDbEntity
  8
0
 62
   250
370
    25
  0
SPLINE
  5
A3
330
1F
100
AcDbEntity
  8
0
 62
   250
370
    25
100
AcDbSpline
210
0.0
220
0.0
230
1.0
 70
     8
 71
     3
 72
     8
 73
     4
 74
     0
 42
0.0000000001
 43
0.0000000001
 12
1.0
 22
0.0
 32
0.0
 13
1.0
 23
0.0
 33
0.0
 40
0.0
 40
0.0
 40
0.0
 40
0.0
 40
1.0
 40
1.0
 40
1.0
 40
1.0
 10
236.3939001138843
 20
-90.1225332134478
 30
0.0
 10
236.354035855747
 20
-91.639491670629
 30
0.0
 10
236.3141363195029
 20
-93.15648540590985
 30
0.0
 10
236.2742720613713
 20
-94.67347914119455
 30
0.0
  0
SPLINE
  5
A4
330
1F
100
AcDbEntity
  8
0
 62
   250
370
    25
100
AcDbSpline
210
0.0
220
0.0
230
1.0
 70
     8
 71
     3
 72
    14
 73
    10
 74
     0
 42
0.0000000001
 43
0.0000000001
 12
1.0
 22
0.0
 32
0.0
 13
1.0
 23
0.0
 33
0.0
 40
0.0
 40
0.0
 40
0.0
 40
0.0
 40
1.0
 40
1.0
 40
1.0
 40
2.0
 40
2.0
 40
2.0
 40
3.0
 40
3.0
 40
3.0
 40
3.0
 10
238.0230782599452
 20
20.40592655106875
 30
0.0
 10
241.3245443958368
 20
22.59362764831512
 30
0.0
 10
245.1610735433782
 20
23.80984030255651
 30
0.0
 10
249.13409367741
 20
23.84455395742944
 30
0.0
 10
251.8118329480003
 20
24.11404354519455
 30
0.0
 10
383.0740918931434
 20
24.10555471814948
 30
0.0
 10
384.4537543449687
 20
23.72529867324919
 30
0.0
 10
385.8334167967953
 20
23.3450426283489
 30
0.0
 10
387.0335653977344
 20
22.83755823568487
 30
0.0
 10
387.3643894064264
 20
21.84957510212919
 30
0.0
  0
SPLINE
  5
A5
330
1F
100
AcDbEntity
  8
0
 62
   250
370
    25
100
AcDbSpline
210
0.0
220
0.0
230
1.0
 70
     8
 71
     3
 72
    23
 73
    19
 74
     0
 42
0.0000000001
 43
0.0000000001
 12
1.0
 22
0.0
 32
0.0
 13
1.0
 23
0.0
 33
0.0
 40
0.0
 40
0.0
 40
0.0
 40
0.0
 40
1.0
 40
1.0
 40
1.0
 40
2.0
 40
2.0
 40
2.0
 40
3.0
 40
3.0
 40
3.0
 40
4.0
 40
4.0
 40
4.0
 40
5.0
 40
5.0
 40
5.0
 40
6.0
 40
6.0
 40
6.0
 40
6.0
 10
100.1379716338467
 20
-92.47459494035735
 30
0.0
 10
99.86220269060847
 20
-91.34855314978422
 30
0.0
 10
99.58322343984982
 20
-90.2231463650735
 30
0.0
 10
99.28593485283879
 20
-89.10257268056509
 30
0.0
 10
99.02462993246401
 20
-88.11771386081634
 30
0.0
 10
98.74917849216341
 20
-87.13655924195459
 30
0.0
 10
98.45972164436257
 20
-86.15960271742698
 30
0.0
 10
97.86754338144189
 20
-84.1609923110415
 30
0.0
 10
97.2166976306616
 20
-82.17980928785975
 30
0.0
 10
96.50778411979759
 20
-80.21954618014487
 30
0.0
 10
95.0989882928364
 20
-76.32396158400245
 30
0.0
 10
93.4608495082151
 20
-72.5109983066205
 30
0.0
 10
91.59308554110316
 20
-68.8134297062928
 30
0.0
 10
89.74066754946692
 20
-65.14627083131906
 30
0.0
 10
87.66239913252261
 20
-61.59260161580595
 30
0.0
 10
85.36089087000927
 20
-58.18932295617245
 30
0.0
 10
83.06668517513693
 20
-54.79683939625886
 30
0.0
 10
85.36544174549907
 20
-58.17985645984351
 30
0.0
 10
82.64211318692118
 20
-55.12103320430465
 30
0.0
  0
SPLINE
  5
A6
330
1F
100
AcDbEntity
  8
0
 62
   250
370
    25
100
AcDbSpline
210
0.0
220
0.0
230
1.0
 70
     8
 71
     3
 72
    41
 73
    37
 74
     0
 42
0.0000000001
 43
0.0000000001
 12
1.0
 22
0.0
 32
0.0
 13
1.0
 23
0.0
 33
0.0
 40
0.0
 40
0.0
 40
0.0
 40
0.0
 40
1.0
 40
1.0
 40
1.0
 40
2.0
 40
2.0
 40
2.0
 40
3.0
 40
3.0
 40
3.0
 40
4.0
 40
4.0
 40
4.0
 40
5.0
 40
5.0
 40
5.0
 40
6.0
 40
6.0
 40
6.0
 40
7.0
 40
7.0
 40
7.0
 40
8.0
 40
8.0
 40
8.0
 40
9.0
 40
9.0
 40
9.0
 40
10.0
 40
10.0
 40
10.0
 40
11.0
 40
11.0
 40
11.0
 40
12.0
 40
12.0
 40
12.0
 40
12.0
 10
-33.04205891077363
 20
-25.24324306484729
 30
0.0
 10
-38.17054280302339
 20
-25.29640716705669
 30
0.0
 10
-43.29902669527058
 20
-25.35295796721838
 30
0.0
 10
-48.42754586562032
 20
-25.40273537147484
 30
0.0
 10
-53.22219305454206
 20
-25.44926719019495
 30
0.0
 10
-58.01691079967305
 20
-25.48990756560574
 30
0.0
 10
-62.8116991010165
 20
-25.51929422595109
 30
0.0
 10
-67.26383117289608
 20
-25.5465642000773
 30
0.0
 10
-71.71603380098811
 20
-25.56413269569923
 30
0.0
 10
-76.16820115096799
 20
-25.55485455443505
 30
0.0
 10
-78.17496084999306
 20
-25.55069173820442
 30
0.0
 10
-80.18168527091879
 20
-25.54106081590651
 30
0.0
 10
-82.1884096918381
 20
-25.53869718296285
 30
0.0
 10
-82.65739681368133
 20
-25.53816801140647
 30
0.0
 10
-83.1264192136274
 20
-25.53799162088831
 30
0.0
 10
-83.59540633547063
 20
-25.54229554953423
 30
0.0
 10
-84.06220621482802
 20
-25.5465642000773
 30
0.0
 10
-84.52897081608577
 20
-25.55524261357551
 30
0.0
 10
-84.99570013923392
 20
-25.56561437605211
 30
0.0
 10
-85.81602190425772
 20
-25.58378259943294
 30
0.0
 10
-86.63616727875599
 20
-25.60717198215654
 30
0.0
 10
-87.45599515031375
 20
-25.63927505648249
 30
0.0
 10
-88.99948278043338
 20
-25.69977700425315
 30
0.0
 10
-90.54177095499928
 20
-25.79128840513348
 30
0.0
 10
-92.08201299950171
 20
-25.90904671514037
 30
0.0
 10
-93.25631526554452
 20
-25.99886476704295
 30
0.0
 10
-94.42945335413387
 20
-26.10395823783017
 30
0.0
 10
-95.60089809371019
 20
-26.22524435819951
 30
0.0
 10
-96.76355858525062
 20
-26.34564852597743
 30
0.0
 10
-97.92456100587766
 20
-26.48199839660334
 30
0.0
 10
-99.08348201833516
 20
-26.63425869197885
 30
0.0
 10
-106.1260147508603
 20
-27.5593916822385
 30
0.0
 10
-113.091958718414
 20
-29.07095258955814
 30
0.0
 10
-119.8817238318616
 20
-31.15708797111533
 30
0.0
 10
-126.9473637228667
 20
-33.32799663575435
 30
0.0
 10
-133.8222196244799
 20
-36.12106993645933
 30
0.0
 10
-140.398269980585
 20
-39.49609083506727
 30
0.0
  0
SPLINE
  5
A7
330
1F
100
AcDbEntity
  8
0
 62
   250
370
    25
100
AcDbSpline
210
0.0
220
0.0
230
1.0
 70
     8
 71
     3
 72
    29
 73
    25
 74
     0
 42
0.0000000001
 43
0.0000000001
 12
1.0
 22
0.0
 32
0.0
 13
1.0
 23
0.0
 33
0.0
 40
0.0
 40
0.0
 40
0.0
 40
0.0
 40
1.0
 40
1.0
 40
1.0
 40
2.0
 40
2.0
 40
2.0
 40
3.0
 40
3.0
 40
3.0
 40
4.0
 40
4.0
 40
4.0
 40
5.0
 40
5.0
 40
5.0
 40
6.0
 40
6.0
 40
6.0
 40
7.0
 40
7.0
 40
7.0
 40
8.0
 40
8.0
 40
8.0
 40
8.0
 10
54.25727971255348
 20
-99.64204726001634
 30
0.0
 10
52.20017815834117
 20
-99.59082345350986
 30
0.0
 10
50.14325299464798
 20
-99.53201485471374
 30
0.0
 10
48.08625727474843
 20
-99.47765129698332
 30
0.0
 10
47.05186797134126
 20
-99.45031076665076
 30
0.0
 10
46.0174433898245
 20
-99.42409913563348
 30
0.0
 10
44.98301880830773
 20
-99.39848723237832
 30
0.0
 10
42.34347574803279
 20
-99.33315218440919
 30
0.0
 10
39.70382685343868
 20
-99.27162717163567
 30
0.0
 10
37.06407212453566
 20
-99.21475886854246
 30
0.0
 10
32.17152819549508
 20
-99.10934789482116
 30
0.0
 10
27.2786667635143
 20
-99.0198120677437
 30
0.0
 10
22.38534671617676
 20
-98.95786371772334
 30
0.0
 10
18.2615126852075
 20
-98.90568740241716
 30
0.0
 10
14.13732587319069
 20
-98.87309043464153
 30
0.0
 10
10.0131743392806
 20
-98.8703740206577
 30
0.0
 10
6.633955260973621
 20
-98.86811622202391
 30
0.0
 10
3.254771460772712
 20
-98.88593166437036
 30
0.0
 10
-0.123953724068224
 20
-98.94735084283465
 30
0.0
 10
-5.427522849180112
 20
-99.04373062202016
 30
0.0
 10
-10.72992779684144
 20
-99.24749694873724
 30
0.0
 10
-16.02065569189722
 20
-99.62772434993141
 30
0.0
 10
-20.80810614749364
 20
-99.97182697298558
 30
0.0
 10
-25.58599623675402
 20
-100.4603581524069
 30
0.0
 10
-30.33820386590828
 20
-101.1354046658517
 30
0.0
  0
SPLINE
  5
A8
330
1F
100
AcDbEntity
  8
0
 62
   250
370
    25
100
AcDbSpline
210
0.0
220
0.0
230
1.0
 70
     8
 71
     3
 72
     8
 73
     4
 74
     0
 42
0.0000000001
 43
0.0000000001
 12
1.0
 22
0.0
 32
0.0
 13
1.0
 23
0.0
 33
0.0
 40
0.0
 40
0.0
 40
0.0
 40
0.0
 40
1.0
 40
1.0
 40
1.0
 40
1.0
 10
54.29199336742609
 20
-102.8381376168808
 30
0.0
 10
54.28331495370971
 20
-102.8374320548089
 30
0.0
 10
54.27467181809618
 20
-102.836761770834
 30
0.0
 10
54.26599340437626
 20
-102.8360914868687
 30
0.0
  0
SPLINE
  5
A9
330
1F
100
AcDbEntity
  8
0
 62
   250
370
    25
100
AcDbSpline
210
0.0
220
0.0
230
1.0
 70
     8
 71
     3
 72
     8
 73
     4
 74
     0
 42
0.0000000001
 43
0.0000000001
 12
1.0
 22
0.0
 32
0.0
 13
1.0
 23
0.0
 33
0.0
 40
0.0
 40
0.0
 40
0.0
 40
0.0
 40
1.0
 40
1.0
 40
1.0
 40
1.0
 10
51.39590793088782
 20
-103.8126599522559
 30
0.0
 10
52.36192826768436
 20
-103.4897947476014
 30
0.0
 10
53.32583191821074
 20
-103.1606500404977
 30
0.0
 10
54.29199336742609
 20
-102.8381376168808
 30
0.0
  0
SPLINE
  5
AA
330
1F
100
AcDbEntity
  8
0
 62
   250
370
    25
100
AcDbSpline
210
0.0
220
0.0
230
1.0
 70
     8
 71
     3
 72
     8
 73
     4
 74
     0
 42
0.0000000001
 43
0.0000000001
 12
1.0
 22
0.0
 32
0.0
 13
1.0
 23
0.0
 33
0.0
 40
0.0
 40
0.0
 40
0.0
 40
0.0
 40
1.0
 40
1.0
 40
1.0
 40
1.0
 10
54.26599340437626
 20
-102.8360914868687
 30
0.0
 10
53.28840184928693
 20
-103.1594505849767
 30
0.0
 10
52.31190391543858
 20
-103.4860199905112
 30
0.0
 10
51.33332457342359
 20
-103.8064510060131
 30
0.0
  0
SPLINE
  5
AB
330
1F
100
AcDbEntity
  8
0
 62
   250
370
    25
100
AcDbSpline
210
0.0
220
0.0
230
1.0
 70
     8
 71
     3
 72
    26
 73
    22
 74
     0
 42
0.0000000001
 43
0.0000000001
 12
1.0
 22
0.0
 32
0.0
 13
1.0
 23
0.0
 33
0.0
 40
0.0
 40
0.0
 40
0.0
 40
0.0
 40
1.0
 40
1.0
 40
1.0
 40
2.0
 40
2.0
 40
2.0
 40
3.0
 40
3.0
 40
3.0
 40
4.0
 40
4.0
 40
4.0
 40
5.0
 40
5.0
 40
5.0
 40
6.0
 40
6.0
 40
6.0
 40
7.0
 40
7.0
 40
7.0
 40
7.0
 10
37.12527963592415
 20
-111.6213623620598
 30
0.0
 10
36.72903596565647
 20
-112.3775837920143
 30
0.0
 10
36.37307989078005
 20
-113.1541606877816
 30
0.0
 10
36.05804641717943
 20
-113.9473535703673
 30
0.0
 10
35.74061403247132
 20
-114.746755399199
 30
0.0
 10
35.46477453302033
 20
-115.5630201615748
 30
0.0
 10
35.22375452275823
 20
-116.3887041776301
 30
0.0
 10
34.67503888464608
 20
-118.2686390433177
 30
0.0
 10
34.30691186369806
 20
-120.1973635263655
 30
0.0
 10
34.03527045868997
 20
-122.1371653339587
 30
0.0
 10
33.86505360425237
 20
-123.3529546202345
 30
0.0
 10
33.73272543409855
 20
-124.5731183913626
 30
0.0
 10
33.62551527438134
 20
-125.7957516297467
 30
0.0
 10
33.50669861826847
 20
-127.1506777568347
 30
0.0
 10
33.41871502552935
 20
-128.5086378008419
 30
0.0
 10
33.34897021283977
 20
-129.8671975726105
 30
0.0
 10
33.26557277369362
 20
-131.4911545181758
 30
0.0
 10
33.20814001949125
 20
-133.1159934163344
 30
0.0
 10
33.16517128815518
 20
-134.7413614860487
 30
0.0
 10
33.11091356336012
 20
-136.7939121129245
 30
0.0
 10
33.07969244083597
 20
-138.8473446923911
 30
0.0
 10
33.05905474967606
 20
-140.9003892127198
 30
0.0
  0
SPLINE
  5
AC
330
1F
100
AcDbEntity
  8
0
 62
   250
370
    25
100
AcDbSpline
210
0.0
220
0.0
230
1.0
 70
     8
 71
     3
 72
    26
 73
    22
 74
     0
 42
0.0000000001
 43
0.0000000001
 12
1.0
 22
0.0
 32
0.0
 13
1.0
 23
0.0
 33
0.0
 40
0.0
 40
0.0
 40
0.0
 40
0.0
 40
1.0
 40
1.0
 40
1.0
 40
2.0
 40
2.0
 40
2.0
 40
3.0
 40
3.0
 40
3.0
 40
4.0
 40
4.0
 40
4.0
 40
5.0
 40
5.0
 40
5.0
 40
6.0
 40
6.0
 40
6.0
 40
7.0
 40
7.0
 40
7.0
 40
7.0
 10
94.66965376049924
 20
-93.81018866664635
 30
0.0
 10
94.53700808741165
 20
-93.26905783467748
 30
0.0
 10
94.40852523064967
 20
-92.72690393769996
 30
0.0
 10
94.28131238565774
 20
-92.18443253779027
 30
0.0
 10
93.97760318361865
 20
-90.88947918691335
 30
0.0
 10
93.68116127110773
 20
-89.59283248706123
 30
0.0
 10
93.37928653050757
 20
-88.29742052083749
 30
0.0
 10
93.21598418455412
 20
-87.5965504355159
 30
0.0
 10
93.05105904580041
 20
-86.89603313123254
 30
0.0
 10
92.88493445149585
 20
-86.19583332988006
 30
0.0
 10
92.5601642210404
 20
-84.82697235184374
 30
0.0
 10
92.23073728078303
 20
-83.45927555123006
 30
0.0
 10
91.89033885000781
 20
-82.09422460839
 30
0.0
 10
91.27156089626172
 20
-79.61279807537564
 30
0.0
 10
90.61648177294207
 20
-77.14004995586271
 30
0.0
 10
89.88650723366169
 20
-74.68899787009562
 30
0.0
 10
89.26547148122725
 20
-72.60363860681997
 30
0.0
 10
88.59017800399134
 20
-70.5339780996652
 30
0.0
 10
87.83505017618049
 20
-68.49338674993133
 30
0.0
 10
87.11580018067995
 20
-66.54959851663013
 30
0.0
 10
86.32408895844507
 20
-64.63219830485473
 30
0.0
 10
85.44531137419358
 20
-62.75505040935448
 30
0.0
  0
SPLINE
  5
AD
330
1F
100
AcDbEntity
  8
0
 62
   250
370
    25
100
AcDbSpline
210
0.0
220
0.0
230
1.0
 70
     8
 71
     3
 72
     8
 73
     4
 74
     0
 42
0.0000000001
 43
0.0000000001
 12
1.0
 22
0.0
 32
0.0
 13
1.0
 23
0.0
 33
0.0
 40
0.0
 40
0.0
 40
0.0
 40
0.0
 40
1.0
 40
1.0
 40
1.0
 40
1.0
 10
94.63804457882823
 20
-93.81791457134487
 30
0.0
 10
94.64859273208961
 20
-93.81533926977956
 30
0.0
 10
94.65914088534426
 20
-93.81276396821457
 30
0.0
 10
94.66965376049924
 20
-93.81018866664635
 30
0.0
  0
SPLINE
  5
AE
330
1F
100
AcDbEntity
  8
0
 62
   250
370
    25
100
AcDbSpline
210
0.0
220
0.0
230
1.0
 70
     8
 71
     3
 72
     8
 73
     4
 74
     0
 42
0.0000000001
 43
0.0000000001
 12
1.0
 22
0.0
 32
0.0
 13
1.0
 23
0.0
 33
0.0
 40
0.0
 40
0.0
 40
0.0
 40
0.0
 40
1.0
 40
1.0
 40
1.0
 40
1.0
 10
228.8944453712725
 20
4.279414369653908
 30
0.0
 10
229.1856308461989
 20
10.80476992468457
 30
0.0
 10
232.5781497699155
 20
16.79792896477731
 30
0.0
 10
238.0230782599452
 20
20.40592655106875
 30
0.0
  0
SPLINE
  5
AF
330
1F
100
AcDbEntity
  8
0
 62
   250
370
    25
100
AcDbSpline
210
0.0
220
0.0
230
1.0
 70
     8
 71
     3
 72
    23
 73
    19
 74
     0
 42
0.0000000001
 43
0.0000000001
 12
1.0
 22
0.0
 32
0.0
 13
1.0
 23
0.0
 33
0.0
 40
0.0
 40
0.0
 40
0.0
 40
0.0
 40
1.0
 40
1.0
 40
1.0
 40
2.0
 40
2.0
 40
2.0
 40
3.0
 40
3.0
 40
3.0
 40
4.0
 40
4.0
 40
4.0
 40
5.0
 40
5.0
 40
5.0
 40
6.0
 40
6.0
 40
6.0
 40
6.0
 10
-33.04350531306151
 20
-25.10213065022865
 30
0.0
 10
-13.63490331572802
 20
-24.89988128197117
 30
0.0
 10
5.082966496651228
 20
-27.18109023555272
 30
0.0
 10
24.02831860111874
 20
-31.35210532812078
 30
0.0
 10
35.81919261124881
 20
-33.94798811666131
 30
0.0
 10
71.28893439866364
 20
-46.80763807490088
 30
0.0
 10
74.88558838816623
 20
-49.50554525542918
 30
0.0
 10
77.17847473691441
 20
-51.22547565810259
 30
0.0
 10
78.75920761042359
 20
-53.02173324775198
 30
0.0
 10
82.31116206395963
 20
-57.18938561443106
 30
0.0
 10
82.93248315386894
 20
-57.91840687433098
 30
0.0
 10
83.7439542262232
 20
-59.39618688222163
 30
0.0
 10
84.19230365690652
 20
-60.24261442322308
 30
0.0
 10
84.4107456802612
 20
-60.65498017685184
 30
0.0
 10
84.6240723784572
 20
-61.0700623444625
 30
0.0
 10
84.83231902958778
 20
-61.48764925743082
 30
0.0
 10
85.04169458007536
 20
-61.90745869092783
 30
0.0
 10
85.24591952729176
 20
-62.32980814788921
 30
0.0
 10
85.445064427462
 20
-62.75455651590064
 30
0.0
  0
SPLINE
  5
B0
330
1F
100
AcDbEntity
  8
0
 62
   250
370
    25
100
AcDbSpline
210
0.0
220
0.0
230
1.0
 70
     8
 71
     3
 72
    20
 73
    16
 74
     0
 42
0.0000000001
 43
0.0000000001
 12
1.0
 22
0.0
 32
0.0
 13
1.0
 23
0.0
 33
0.0
 40
0.0
 40
0.0
 40
0.0
 40
0.0
 40
1.0
 40
1.0
 40
1.0
 40
2.0
 40
2.0
 40
2.0
 40
3.0
 40
3.0
 40
3.0
 40
4.0
 40
4.0
 40
4.0
 40
5.0
 40
5.0
 40
5.0
 40
5.0
 10
51.33332457342359
 20
-103.8064510060131
 30
0.0
 10
51.04213909849369
 20
-103.8997968682842
 30
0.0
 10
50.74922499644404
 20
-103.9874982339712
 30
0.0
 10
50.45465282348452
 20
-104.0695198249728
 30
0.0
 10
50.14794498255339
 20
-104.1549633920224
 30
0.0
 10
49.83947323639644
 20
-104.2342332909366
 30
0.0
 10
49.53004898142053
 20
-104.3093050955171
 30
0.0
 10
48.4272907113992
 20
-104.5768542336379
 30
0.0
 10
47.31232621720664
 20
-104.7909217666182
 30
0.0
 10
46.20607541483331
 20
-105.043407154479
 30
0.0
 10
45.78136231420228
 20
-105.1403513833243
 30
0.0
 10
45.357954503431
 20
-105.2429401087558
 30
0.0
 10
44.93676921324808
 20
-105.3543483601015
 30
0.0
 10
44.04148147606679
 20
-105.5910997137314
 30
0.0
 10
43.15638911109678
 20
-105.867538933975
 30
0.0
 10
42.29062914742018
 20
-106.1966130848726
 30
0.0
  0
POLYLINE
  5
B1
330
1F
100
AcDbEntity
  8
0
 62
   250
370
    25
100
AcDb2dPolyline
 66
     1
 10
0.0
 20
0.0
 30
0.0
  0
VERTEX
  5
B2
330
B1
100
AcDbEntity
  8
0
 62
   250
370
    25
100
AcDbVertex
100
AcDb2dVertex
 10
51.39590793088782
 20
-103.8126599522559
 30
0.0
  0
VERTEX
  5
B3
330
B1
100
AcDbEntity
  8
0
 62
   250
370
    25
100
AcDbVertex
100
AcDb2dVertex
 10
51.33332457342359
 20
-103.8064510060131
 30
0.0
  0
SEQEND
  5
B4
330
B1
100
AcDbEntity
  8
0
 62
   250
370
    25
  0
SPLINE
  5
B5
330
1F
100
AcDbEntity
  8
0
 62
   250
370
    25
100
AcDbSpline
210
0.0
220
0.0
230
1.0
 70
     8
 71
     3
 72
     8
 73
     4
 74
     0
 42
0.0000000001
 43
0.0000000001
 12
1.0
 22
0.0
 32
0.0
 13
1.0
 23
0.0
 33
0.0
 40
0.0
 40
0.0
 40
0.0
 40
0.0
 40
1.0
 40
1.0
 40
1.0
 40
1.0
 10
85.43980798988483
 20
-62.75730820798827
 30
0.0
 10
85.44171300752915
 20
-62.75670848022841
 30
0.0
 10
85.44351219086136
 20
-62.7559676400478
 30
0.0
 10
85.44351219086136
 20
-62.7559676400478
 30
0.0
  0
SPLINE
  5
B6
330
1F
100
AcDbEntity
  8
0
 62
   250
370
    25
100
AcDbSpline
210
0.0
220
0.0
230
1.0
 70
    11
 71
     3
 72
    17
 73
    13
 74
     0
 42
0.0000000001
 43
0.0000000001
 12
1.0
 22
0.0
 32
0.0
 13
1.0
 23
0.0
 33
0.0
 40
0.0
 40
0.0
 40
0.0
 40
0.0
 40
1.0
 40
1.0
 40
1.0
 40
2.0
 40
2.0
 40
2.0
 40
3.0
 40
3.0
 40
3.0
 40
4.0
 40
4.0
 40
4.0
 40
4.0
 10
153.2992706396843
 20
-59.93978549545168
 30
0.0
 10
153.2992706396843
 20
-55.77290890039165
 30
0.0
 10
156.6776446463234
 20
-52.39496553416097
 30
0.0
 10
160.844090600975
 20
-52.39496553416097
 30
0.0
 10
165.0113978364435
 20
-52.39496553416097
 30
0.0
 10
168.3893412026748
 20
-55.77290890039165
 30
0.0
 10
168.3893412026748
 20
-59.93978549545168
 30
0.0
 10
168.3893412026748
 20
-64.10666209051172
 30
0.0
 10
165.0113978364435
 20
-67.48460545674239
 30
0.0
 10
160.844090600975
 20
-67.48460545674239
 30
0.0
 10
156.6776446463234
 20
-67.48460545674239
 30
0.0
 10
153.2992706396843
 20
-64.10666209051172
 30
0.0
 10
153.2992706396843
 20
-59.93978549545168
 30
0.0
  0
POLYLINE
  5
B7
330
1F
100
AcDbEntity
  8
0
  6
AI-Linetype-1
 62
     4
370
    25
100
AcDb2dPolyline
 66
     1
 10
0.0
 20
0.0
 30
0.0
  0
VERTEX
  5
B8
330
B7
100
AcDbEntity
  8
0
  6
AI-Linetype-1
 62
     4
370
    25
100
AcDbVertex
100
AcDb2dVertex
 10
173.1914124006396
 20
-59.93978549545168
 30
0.0
  0
VERTEX
  5
B9
330
B7
100
AcDbEntity
  8
0
  6
AI-Linetype-1
 62
     4
370
    25
100
AcDbVertex
100
AcDb2dVertex
 10
184.2158068646264
 20
-59.93978549545168
 30
0.0
  0
SEQEND
  5
BB
330
B7
100
AcDbEntity
  8
0
  6
AI-Linetype-1
 62
     4
370
    25
  0
POLYLINE
  5
BC
330
1F
100
AcDbEntity
  8
0
  6
AI-Linetype-2
 62
     4
370
    25
100
AcDb2dPolyline
 66
     1
 10
0.0
 20
0.0
 30
0.0
  0
VERTEX
  5
BD
330
BC
100
AcDbEntity
  8
0
  6
AI-Linetype-2
 62
     4
370
    25
100
AcDbVertex
100
AcDb2dVertex
 10
137.5757280354231
 20
-59.9354790913638
 30
0.0
  0
VERTEX
  5
BE
330
BC
100
AcDbEntity
  8
0
  6
AI-Linetype-2
 62
     4
370
    25
100
AcDbVertex
100
AcDb2dVertex
 10
148.6001224994098
 20
-59.9354790913638
 30
0.0
  0
SEQEND
  5
C0
330
BC
100
AcDbEntity
  8
0
  6
AI-Linetype-2
 62
     4
370
    25
  0
POLYLINE
  5
C1
330
1F
100
AcDbEntity
  8
0
  6
AI-Linetype-3
 62
     4
370
    25
100
AcDb2dPolyline
 66
     1
 10
0.0
 20
0.0
 30
0.0
  0
VERTEX
  5
C2
330
C1
100
AcDbEntity
  8
0
  6
AI-Linetype-3
 62
     4
370
    25
100
AcDbVertex
100
AcDb2dVertex
 10
160.8914610459371
 20
-47.63811157911385
 30
0.0
  0
VERTEX
  5
C3
330
C1
100
AcDbEntity
  8
0
  6
AI-Linetype-3
 62
     4
370
    25
100
AcDbVertex
100
AcDb2dVertex
 10
160.8914610459371
 20
-36.61371711512772
 30
0.0
  0
SEQEND
  5
C5
330
C1
100
AcDbEntity
  8
0
  6
AI-Linetype-3
 62
     4
370
    25
  0
POLYLINE
  5
C6
330
1F
100
AcDbEntity
  8
0
  6
AI-Linetype-4
 62
     4
370
    25
100
AcDb2dPolyline
 66
     1
 10
0.0
 20
0.0
 30
0.0
  0
VERTEX
  5
C7
330
C6
100
AcDbEntity
  8
0
  6
AI-Linetype-4
 62
     4
370
    25
100
AcDbVertex
100
AcDb2dVertex
 10
160.8884465630761
 20
-83.25465722514805
 30
0.0
  0
VERTEX
  5
C8
330
C6
100
AcDbEntity
  8
0
  6
AI-Linetype-4
 62
     4
370
    25
100
AcDbVertex
100
AcDb2dVertex
 10
160.8884465630761
 20
-72.23026276116192
 30
0.0
  0
SEQEND
  5
CA
330
C6
100
AcDbEntity
  8
0
  6
AI-Linetype-4
 62
     4
370
    25
  0
SPLINE
  5
CB
330
1F
100
AcDbEntity
  8
0
 62
   250
370
    25
100
AcDbSpline
210
0.0
220
0.0
230
1.0
 70
    11
 71
     3
 72
    17
 73
    13
 74
     0
 42
0.0000000001
 43
0.0000000001
 12
1.0
 22
0.0
 32
0.0
 13
1.0
 23
0.0
 33
0.0
 40
0.0
 40
0.0
 40
0.0
 40
0.0
 40
1.0
 40
1.0
 40
1.0
 40
2.0
 40
2.0
 40
2.0
 40
3.0
 40
3.0
 40
3.0
 40
4.0
 40
4.0
 40
4.0
 40
4.0
 10
153.2953948760055
 20
-244.7696079730491
 30
0.0
 10
153.2953948760055
 20
-240.6027313779891
 30
0.0
 10
156.6737688826454
 20
-237.2247880117584
 30
0.0
 10
160.8402148372963
 20
-237.2247880117584
 30
0.0
 10
165.0079527131734
 20
-237.2247880117584
 30
0.0
 10
168.3858960794047
 20
-240.6027313779891
 30
0.0
 10
168.3858960794047
 20
-244.7696079730491
 30
0.0
 10
168.3858960794047
 20
-248.9364845681085
 30
0.0
 10
165.0079527131734
 20
-252.3144279343398
 30
0.0
 10
160.8402148372963
 20
-252.3144279343398
 30
0.0
 10
156.6737688826454
 20
-252.3144279343398
 30
0.0
 10
153.2953948760055
 20
-248.9364845681085
 30
0.0
 10
153.2953948760055
 20
-244.7696079730491
 30
0.0
  0
POLYLINE
  5
CC
330
1F
100
AcDbEntity
  8
0
  6
AI-Linetype-5
 62
     4
370
    25
100
AcDb2dPolyline
 66
     1
 10
0.0
 20
0.0
 30
0.0
  0
VERTEX
  5
CD
330
CC
100
AcDbEntity
  8
0
  6
AI-Linetype-5
 62
     4
370
    25
100
AcDbVertex
100
AcDb2dVertex
 10
173.1875366369609
 20
-244.7696079730491
 30
0.0
  0
VERTEX
  5
CE
330
CC
100
AcDbEntity
  8
0
  6
AI-Linetype-5
 62
     4
370
    25
100
AcDbVertex
100
AcDb2dVertex
 10
184.2119311009477
 20
-244.7696079730491
 30
0.0
  0
SEQEND
  5
D0
330
CC
100
AcDbEntity
  8
0
  6
AI-Linetype-5
 62
     4
370
    25
  0
POLYLINE
  5
D1
330
1F
100
AcDbEntity
  8
0
  6
AI-Linetype-6
 62
     4
370
    25
100
AcDb2dPolyline
 66
     1
 10
0.0
 20
0.0
 30
0.0
  0
VERTEX
  5
D2
330
D1
100
AcDbEntity
  8
0
  6
AI-Linetype-6
 62
     4
370
    25
100
AcDbVertex
100
AcDb2dVertex
 10
137.5718522717444
 20
-244.766162849779
 30
0.0
  0
VERTEX
  5
D3
330
D1
100
AcDbEntity
  8
0
  6
AI-Linetype-6
 62
     4
370
    25
100
AcDbVertex
100
AcDb2dVertex
 10
148.5962467357311
 20
-244.766162849779
 30
0.0
  0
SEQEND
  5
D5
330
D1
100
AcDbEntity
  8
0
  6
AI-Linetype-6
 62
     4
370
    25
  0
POLYLINE
  5
D6
330
1F
100
AcDbEntity
  8
0
  6
AI-Linetype-7
 62
     4
370
    25
100
AcDb2dPolyline
 66
     1
 10
0.0
 20
0.0
 30
0.0
  0
VERTEX
  5
D7
330
D6
100
AcDbEntity
  8
0
  6
AI-Linetype-7
 62
     4
370
    25
100
AcDbVertex
100
AcDb2dVertex
 10
160.8884465630761
 20
-232.468795337529
 30
0.0
  0
VERTEX
  5
D8
330
D6
100
AcDbEntity
  8
0
  6
AI-Linetype-7
 62
     4
370
    25
100
AcDbVertex
100
AcDb2dVertex
 10
160.8884465630761
 20
-221.4444008735422
 30
0.0
  0
SEQEND
  5
DA
330
D6
100
AcDbEntity
  8
0
  6
AI-Linetype-7
 62
     4
370
    25
  0
POLYLINE
  5
DB
330
1F
100
AcDbEntity
  8
0
  6
AI-Linetype-8
 62
     4
370
    25
100
AcDb2dPolyline
 66
     1
 10
0.0
 20
0.0
 30
0.0
  0
VERTEX
  5
DC
330
DB
100
AcDbEntity
  8
0
  6
AI-Linetype-8
 62
     4
370
    25
100
AcDbVertex
100
AcDb2dVertex
 10
160.8845707993974
 20
-268.0853409835632
 30
0.0
  0
VERTEX
  5
DD
330
DB
100
AcDbEntity
  8
0
  6
AI-Linetype-8
 62
     4
370
    25
100
AcDbVertex
100
AcDb2dVertex
 10
160.8845707993974
 20
-257.0609465195764
 30
0.0
  0
SEQEND
  5
DF
330
DB
100
AcDbEntity
  8
0
  6
AI-Linetype-8
 62
     4
370
    25
  0
SPLINE
  5
E0
330
1F
100
AcDbEntity
  8
0
 62
   250
370
    25
100
AcDbSpline
210
0.0
220
0.0
230
1.0
 70
    11
 71
     3
 72
    17
 73
    13
 74
     0
 42
0.0000000001
 43
0.0000000001
 12
1.0
 22
0.0
 32
0.0
 13
1.0
 23
0.0
 33
0.0
 40
0.0
 40
0.0
 40
0.0
 40
0.0
 40
1.0
 40
1.0
 40
1.0
 40
2.0
 40
2.0
 40
2.0
 40
3.0
 40
3.0
 40
3.0
 40
4.0
 40
4.0
 40
4.0
 40
4.0
 10
299.0403180371874
 20
-52.62922093685891
 30
0.0
 10
299.0403180371874
 20
-49.04543145524627
 30
0.0
 10
301.9454182346113
 20
-46.14033125782181
 30
0.0
 10
305.5292077162246
 20
-46.14033125782181
 30
0.0
 10
309.1129971978372
 20
-46.14033125782181
 30
0.0
 10
312.018097395261
 20
-49.04543145524627
 30
0.0
 10
312.018097395261
 20
-52.62922093685891
 30
0.0
 10
312.018097395261
 20
-56.21301041847221
 30
0.0
 10
309.1129971978372
 20
-59.11811061589602
 30
0.0
 10
305.5292077162246
 20
-59.11811061589602
 30
0.0
 10
301.9454182346113
 20
-59.11811061589602
 30
0.0
 10
299.0403180371874
 20
-56.21301041847221
 30
0.0
 10
299.0403180371874
 20
-52.62922093685891
 30
0.0
  0
POLYLINE
  5
E1
330
1F
100
AcDbEntity
  8
0
  6
AI-Linetype-9
 62
     4
370
    25
100
AcDb2dPolyline
 66
     1
 10
0.0
 20
0.0
 30
0.0
  0
VERTEX
  5
E2
330
E1
100
AcDbEntity
  8
0
  6
AI-Linetype-9
 62
     4
370
    25
100
AcDbVertex
100
AcDb2dVertex
 10
316.1479389151688
 20
-52.62922093685891
 30
0.0
  0
VERTEX
  5
E3
330
E1
100
AcDbEntity
  8
0
  6
AI-Linetype-9
 62
     4
370
    25
100
AcDbVertex
100
AcDb2dVertex
 10
325.6289181541973
 20
-52.62922093685891
 30
0.0
  0
SEQEND
  5
E5
330
E1
100
AcDbEntity
  8
0
  6
AI-Linetype-9
 62
     4
370
    25
  0
POLYLINE
  5
E6
330
1F
100
AcDbEntity
  8
0
  6
AI-Linetype-10
 62
     4
370
    25
100
AcDb2dPolyline
 66
     1
 10
0.0
 20
0.0
 30
0.0
  0
VERTEX
  5
E7
330
E6
100
AcDbEntity
  8
0
  6
AI-Linetype-10
 62
     4
370
    25
100
AcDbVertex
100
AcDb2dVertex
 10
285.5173479216359
 20
-52.62577581358939
 30
0.0
  0
VERTEX
  5
E8
330
E6
100
AcDbEntity
  8
0
  6
AI-Linetype-10
 62
     4
370
    25
100
AcDbVertex
100
AcDb2dVertex
 10
294.9983271606644
 20
-52.62577581358939
 30
0.0
  0
SEQEND
  5
EA
330
E6
100
AcDbEntity
  8
0
  6
AI-Linetype-10
 62
     4
370
    25
  0
POLYLINE
  5
EB
330
1F
100
AcDbEntity
  8
0
  6
AI-Linetype-11
 62
     4
370
    25
100
AcDb2dPolyline
 66
     1
 10
0.0
 20
0.0
 30
0.0
  0
VERTEX
  5
EC
330
EB
100
AcDbEntity
  8
0
  6
AI-Linetype-11
 62
     4
370
    25
100
AcDbVertex
100
AcDb2dVertex
 10
305.5696879146464
 20
-42.05010865551952
 30
0.0
  0
VERTEX
  5
ED
330
EB
100
AcDbEntity
  8
0
  6
AI-Linetype-11
 62
     4
370
    25
100
AcDbVertex
100
AcDb2dVertex
 10
305.5696879146464
 20
-32.56912941649098
 30
0.0
  0
SEQEND
  5
EF
330
EB
100
AcDbEntity
  8
0
  6
AI-Linetype-11
 62
     4
370
    25
  0
POLYLINE
  5
F0
330
1F
100
AcDbEntity
  8
0
  6
AI-Linetype-12
 62
     4
370
    25
100
AcDb2dPolyline
 66
     1
 10
0.0
 20
0.0
 30
0.0
  0
VERTEX
  5
F1
330
F0
100
AcDbEntity
  8
0
  6
AI-Linetype-12
 62
     4
370
    25
100
AcDbVertex
100
AcDb2dVertex
 10
305.567104072194
 20
-72.68069964905237
 30
0.0
  0
VERTEX
  5
F2
330
F0
100
AcDbEntity
  8
0
  6
AI-Linetype-12
 62
     4
370
    25
100
AcDbVertex
100
AcDb2dVertex
 10
305.567104072194
 20
-63.19972041002384
 30
0.0
  0
SEQEND
  5
F4
330
F0
100
AcDbEntity
  8
0
  6
AI-Linetype-12
 62
     4
370
    25
  0
SPLINE
  5
F5
330
1F
100
AcDbEntity
  8
0
 62
   250
370
    25
100
AcDbSpline
210
0.0
220
0.0
230
1.0
 70
    11
 71
     3
 72
    17
 73
    13
 74
     0
 42
0.0000000001
 43
0.0000000001
 12
1.0
 22
0.0
 32
0.0
 13
1.0
 23
0.0
 33
0.0
 40
0.0
 40
0.0
 40
0.0
 40
0.0
 40
1.0
 40
1.0
 40
1.0
 40
2.0
 40
2.0
 40
2.0
 40
3.0
 40
3.0
 40
3.0
 40
4.0
 40
4.0
 40
4.0
 40
4.0
 10
298.7319795045224
 20
-252.3202514693542
 30
0.0
 10
298.7319795045224
 20
-248.7364619877409
 30
0.0
 10
301.6370797019462
 20
-245.8313617903171
 30
0.0
 10
305.2208691835595
 20
-245.8313617903171
 30
0.0
 10
308.8046586651728
 20
-245.8313617903171
 30
0.0
 10
311.7097588625966
 20
-248.7364619877409
 30
0.0
 10
311.7097588625966
 20
-252.3202514693542
 30
0.0
 10
311.7097588625966
 20
-255.9031796701498
 30
0.0
 10
308.8046586651728
 20
-258.8082798675736
 30
0.0
 10
305.2208691835595
 20
-258.8082798675736
 30
0.0
 10
301.6370797019462
 20
-258.8082798675736
 30
0.0
 10
298.7319795045224
 20
-255.9031796701498
 30
0.0
 10
298.7319795045224
 20
-252.3202514693542
 30
0.0
  0
POLYLINE
  5
F6
330
1F
100
AcDbEntity
  8
0
  6
AI-Linetype-13
 62
     4
370
    25
100
AcDb2dPolyline
 66
     1
 10
0.0
 20
0.0
 30
0.0
  0
VERTEX
  5
F7
330
F6
100
AcDbEntity
  8
0
  6
AI-Linetype-13
 62
     4
370
    25
100
AcDbVertex
100
AcDb2dVertex
 10
315.8396003825043
 20
-252.3202514693542
 30
0.0
  0
VERTEX
  5
F8
330
F6
100
AcDbEntity
  8
0
  6
AI-Linetype-13
 62
     4
370
    25
100
AcDbVertex
100
AcDb2dVertex
 10
325.3205796215328
 20
-252.3202514693542
 30
0.0
  0
SEQEND
  5
FA
330
F6
100
AcDbEntity
  8
0
  6
AI-Linetype-13
 62
     4
370
    25
  0
POLYLINE
  5
FB
330
1F
100
AcDbEntity
  8
0
  6
AI-Linetype-14
 62
     4
370
    25
100
AcDb2dPolyline
 66
     1
 10
0.0
 20
0.0
 30
0.0
  0
VERTEX
  5
FC
330
FB
100
AcDbEntity
  8
0
  6
AI-Linetype-14
 62
     4
370
    25
100
AcDbVertex
100
AcDb2dVertex
 10
285.2098706697892
 20
-252.316806346084
 30
0.0
  0
VERTEX
  5
FD
330
FB
100
AcDbEntity
  8
0
  6
AI-Linetype-14
 62
     4
370
    25
100
AcDbVertex
100
AcDb2dVertex
 10
294.6908499088177
 20
-252.316806346084
 30
0.0
  0
SEQEND
  5
FF
330
FB
100
AcDbEntity
  8
0
  6
AI-Linetype-14
 62
     4
370
    25
  0
POLYLINE
  5
100
330
1F
100
AcDbEntity
  8
0
  6
AI-Linetype-15
 62
     4
370
    25
100
AcDb2dPolyline
 66
     1
 10
0.0
 20
0.0
 30
0.0
  0
VERTEX
  5
101
330
100
100
AcDbEntity
  8
0
  6
AI-Linetype-15
 62
     4
370
    25
100
AcDbVertex
100
AcDb2dVertex
 10
305.261349381982
 20
-241.7411391880148
 30
0.0
  0
VERTEX
  5
102
330
100
100
AcDbEntity
  8
0
  6
AI-Linetype-15
 62
     4
370
    25
100
AcDbVertex
100
AcDb2dVertex
 10
305.261349381982
 20
-232.2601599489863
 30
0.0
  0
SEQEND
  5
104
330
100
100
AcDbEntity
  8
0
  6
AI-Linetype-15
 62
     4
370
    25
  0
POLYLINE
  5
105
330
1F
100
AcDbEntity
  8
0
  6
AI-Linetype-16
 62
     4
370
    25
100
AcDb2dPolyline
 66
     1
 10
0.0
 20
0.0
 30
0.0
  0
VERTEX
  5
106
330
105
100
AcDbEntity
  8
0
  6
AI-Linetype-16
 62
     4
370
    25
100
AcDbVertex
100
AcDb2dVertex
 10
305.2587655395295
 20
-272.3708689007299
 30
0.0
  0
VERTEX
  5
107
330
105
100
AcDbEntity
  8
0
  6
AI-Linetype-16
 62
     4
370
    25
100
AcDbVertex
100
AcDb2dVertex
 10
305.2587655395295
 20
-262.8898896617007
 30
0.0
  0
SEQEND
  5
109
330
105
100
AcDbEntity
  8
0
  6
AI-Linetype-16
 62
     4
370
    25
  0
POLYLINE
  5
10A
330
1F
100
AcDbEntity
  8
0
  6
AI-Linetype-17
 62
     4
370
    25
100
AcDb2dPolyline
 66
     1
 10
0.0
 20
0.0
 30
0.0
  0
VERTEX
  5
10B
330
10A
100
AcDbEntity
  8
0
  6
AI-Linetype-17
 62
     4
370
    25
100
AcDbVertex
100
AcDb2dVertex
 10
344.8343079276483
 20
-27.13943526424289
 30
0.0
  0
VERTEX
  5
10C
330
10A
100
AcDbEntity
  8
0
  6
AI-Linetype-17
 62
     4
370
    25
100
AcDbVertex
100
AcDb2dVertex
 10
344.8343079276483
 20
-17.65845602521499
 30
0.0
  0
SEQEND
  5
10E
330
10A
100
AcDbEntity
  8
0
  6
AI-Linetype-17
 62
     4
370
    25
  0
POLYLINE
  5
10F
330
1F
100
AcDbEntity
  8
0
  6
AI-Linetype-18
 62
     4
370
    25
100
AcDb2dPolyline
 66
     1
 10
0.0
 20
0.0
 30
0.0
  0
VERTEX
  5
110
330
10F
100
AcDbEntity
  8
0
  6
AI-Linetype-18
 62
     4
370
    25
100
AcDbVertex
100
AcDb2dVertex
 10
345.3841162651703
 20
-86.1261544910285
 30
0.0
  0
VERTEX
  5
111
330
10F
100
AcDbEntity
  8
0
  6
AI-Linetype-18
 62
     4
370
    25
100
AcDbVertex
100
AcDb2dVertex
 10
345.3841162651703
 20
-76.64517525199996
 30
0.0
  0
SEQEND
  5
113
330
10F
100
AcDbEntity
  8
0
  6
AI-Linetype-18
 62
     4
370
    25
  0
POLYLINE
  5
114
330
1F
100
AcDbEntity
  8
0
  6
AI-Linetype-19
 62
     4
370
    25
100
AcDb2dPolyline
 66
     1
 10
0.0
 20
0.0
 30
0.0
  0
VERTEX
  5
115
330
114
100
AcDbEntity
  8
0
  6
AI-Linetype-19
 62
     4
370
    25
100
AcDbVertex
100
AcDb2dVertex
 10
377.7682750031294
 20
-52.85659907267902
 30
0.0
  0
VERTEX
  5
116
330
114
100
AcDbEntity
  8
0
  6
AI-Linetype-19
 62
     4
370
    25
100
AcDbVertex
100
AcDb2dVertex
 10
368.2872957641014
 20
-52.85659907267902
 30
0.0
  0
SEQEND
  5
118
330
114
100
AcDbEntity
  8
0
  6
AI-Linetype-19
 62
     4
370
    25
  0
SPLINE
  5
119
330
1F
100
AcDbEntity
  8
0
 62
   250
370
    25
100
AcDbSpline
210
0.0
220
0.0
230
1.0
 70
    11
 71
     3
 72
    17
 73
    13
 74
     0
 42
0.0000000001
 43
0.0000000001
 12
1.0
 22
0.0
 32
0.0
 13
1.0
 23
0.0
 33
0.0
 40
0.0
 40
0.0
 40
0.0
 40
0.0
 40
1.0
 40
1.0
 40
1.0
 40
2.0
 40
2.0
 40
2.0
 40
3.0
 40
3.0
 40
3.0
 40
4.0
 40
4.0
 40
4.0
 40
4.0
 10
326.3033010342989
 20
-52.9556463666913
 30
0.0
 10
326.3033010342989
 20
-42.41701428377375
 30
0.0
 10
334.8454841822534
 20
-33.87483113581924
 30
0.0
 10
345.3841162651703
 20
-33.87483113581924
 30
0.0
 10
355.9218870672714
 20
-33.87483113581924
 30
0.0
 10
364.4649314960411
 20
-42.41701428377375
 30
0.0
 10
364.4649314960411
 20
-52.9556463666913
 30
0.0
 10
364.4649314960411
 20
-63.49341716879115
 30
0.0
 10
355.9218870672714
 20
-72.03646159756336
 30
0.0
 10
345.3841162651703
 20
-72.03646159756336
 30
0.0
 10
334.8454841822534
 20
-72.03646159756336
 30
0.0
 10
326.3033010342989
 20
-63.49341716879115
 30
0.0
 10
326.3033010342989
 20
-52.9556463666913
 30
0.0
  0
POLYLINE
  5
11A
330
1F
100
AcDbEntity
  8
0
  6
AI-Linetype-20
 62
     4
370
    25
100
AcDb2dPolyline
 66
     1
 10
0.0
 20
0.0
 30
0.0
  0
VERTEX
  5
11B
330
11A
100
AcDbEntity
  8
0
  6
AI-Linetype-20
 62
     4
370
    25
100
AcDbVertex
100
AcDb2dVertex
 10
345.079222855776
 20
-229.6444501062419
 30
0.0
  0
VERTEX
  5
11C
330
11A
100
AcDbEntity
  8
0
  6
AI-Linetype-20
 62
     4
370
    25
100
AcDbVertex
100
AcDb2dVertex
 10
345.079222855776
 20
-220.1634708672134
 30
0.0
  0
SEQEND
  5
11E
330
11A
100
AcDbEntity
  8
0
  6
AI-Linetype-20
 62
     4
370
    25
  0
POLYLINE
  5
11F
330
1F
100
AcDbEntity
  8
0
  6
AI-Linetype-21
 62
     4
370
    25
100
AcDb2dPolyline
 66
     1
 10
0.0
 20
0.0
 30
0.0
  0
VERTEX
  5
120
330
11F
100
AcDbEntity
  8
0
  6
AI-Linetype-21
 62
     4
370
    25
100
AcDbVertex
100
AcDb2dVertex
 10
345.0757777325059
 20
-285.8171850235232
 30
0.0
  0
VERTEX
  5
121
330
11F
100
AcDbEntity
  8
0
  6
AI-Linetype-21
 62
     4
370
    25
100
AcDbVertex
100
AcDb2dVertex
 10
345.0757777325059
 20
-276.3362057844946
 30
0.0
  0
SEQEND
  5
123
330
11F
100
AcDbEntity
  8
0
  6
AI-Linetype-21
 62
     4
370
    25
  0
POLYLINE
  5
124
330
1F
100
AcDbEntity
  8
0
  6
AI-Linetype-22
 62
     4
370
    25
100
AcDb2dPolyline
 66
     1
 10
0.0
 20
0.0
 30
0.0
  0
VERTEX
  5
125
330
124
100
AcDbEntity
  8
0
  6
AI-Linetype-22
 62
     4
370
    25
100
AcDbVertex
100
AcDb2dVertex
 10
377.4599364704655
 20
-252.5467683243566
 30
0.0
  0
VERTEX
  5
126
330
124
100
AcDbEntity
  8
0
  6
AI-Linetype-22
 62
     4
370
    25
100
AcDbVertex
100
AcDb2dVertex
 10
367.9789572314376
 20
-252.5467683243566
 30
0.0
  0
SEQEND
  5
128
330
124
100
AcDbEntity
  8
0
  6
AI-Linetype-22
 62
     4
370
    25
  0
SPLINE
  5
129
330
1F
100
AcDbEntity
  8
0
 62
   250
370
    25
100
AcDbSpline
210
0.0
220
0.0
230
1.0
 70
    11
 71
     3
 72
    17
 73
    13
 74
     0
 42
0.0000000001
 43
0.0000000001
 12
1.0
 22
0.0
 32
0.0
 13
1.0
 23
0.0
 33
0.0
 40
0.0
 40
0.0
 40
0.0
 40
0.0
 40
1.0
 40
1.0
 40
1.0
 40
2.0
 40
2.0
 40
2.0
 40
3.0
 40
3.0
 40
3.0
 40
4.0
 40
4.0
 40
4.0
 40
4.0
 10
325.9949625016345
 20
-252.6458156183689
 30
0.0
 10
325.9949625016345
 20
-242.108044816269
 30
0.0
 10
334.538006930406
 20
-233.5650003874968
 30
0.0
 10
345.0757777325059
 20
-233.5650003874968
 30
0.0
 10
355.6135485346038
 20
-233.5650003874968
 30
0.0
 10
364.1565929633773
 20
-242.108044816269
 30
0.0
 10
364.1565929633773
 20
-252.6458156183689
 30
0.0
 10
364.1565929633773
 20
-263.1844477012858
 30
0.0
 10
355.6135485346038
 20
-271.7266308492403
 30
0.0
 10
345.0757777325059
 20
-271.7266308492403
 30
0.0
 10
334.538006930406
 20
-271.7266308492403
 30
0.0
 10
325.9949625016345
 20
-263.1844477012858
 30
0.0
 10
325.9949625016345
 20
-252.6458156183689
 30
0.0
  0
POLYLINE
  5
12A
330
1F
100
AcDbEntity
  8
0
  6
AI-Linetype-23
 62
     4
370
    25
100
AcDb2dPolyline
 66
     1
 10
0.0
 20
0.0
 30
0.0
  0
VERTEX
  5
12B
330
12A
100
AcDbEntity
  8
0
  6
AI-Linetype-23
 62
     4
370
    25
100
AcDbVertex
100
AcDb2dVertex
 10
303.2897729541172
 20
-152.2503725501478
 30
0.0
  0
VERTEX
  5
12C
330
12A
100
AcDbEntity
  8
0
  6
AI-Linetype-23
 62
     4
370
    25
100
AcDbVertex
100
AcDb2dVertex
 10
245.0809701842675
 20
-152.2503725501478
 30
0.0
  0
SEQEND
  5
12E
330
12A
100
AcDbEntity
  8
0
  6
AI-Linetype-23
 62
     4
370
    25
  0
POLYLINE
  5
12F
330
1F
100
AcDbEntity
  8
0
  6
AI-Linetype-24
 62
     4
370
    25
100
AcDb2dPolyline
 66
     1
 10
0.0
 20
0.0
 30
0.0
  0
VERTEX
  5
130
330
12F
100
AcDbEntity
  8
0
  6
AI-Linetype-24
 62
     4
370
    25
100
AcDbVertex
100
AcDb2dVertex
 10
369.2190969720251
 20
-152.2460661460605
 30
0.0
  0
VERTEX
  5
131
330
12F
100
AcDbEntity
  8
0
  6
AI-Linetype-24
 62
     4
370
    25
100
AcDbVertex
100
AcDb2dVertex
 10
308.8054153093804
 20
-152.2460661460605
 30
0.0
  0
SEQEND
  5
133
330
12F
100
AcDbEntity
  8
0
  6
AI-Linetype-24
 62
     4
370
    25
  0
POLYLINE
  5
134
330
1F
100
AcDbEntity
  8
0
  6
AI-Linetype-25
 62
     4
370
    25
100
AcDb2dPolyline
 66
     1
 10
0.0
 20
0.0
 30
0.0
  0
VERTEX
  5
135
330
134
100
AcDbEntity
  8
0
  6
AI-Linetype-25
 62
     4
370
    25
100
AcDbVertex
100
AcDb2dVertex
 10
306.3533488219608
 20
-155.0013034812397
 30
0.0
  0
VERTEX
  5
136
330
134
100
AcDbEntity
  8
0
  6
AI-Linetype-25
 62
     4
370
    25
100
AcDbVertex
100
AcDb2dVertex
 10
306.3533488219608
 20
-215.4149851438862
 30
0.0
  0
SEQEND
  5
138
330
134
100
AcDbEntity
  8
0
  6
AI-Linetype-25
 62
     4
370
    25
  0
POLYLINE
  5
139
330
1F
100
AcDbEntity
  8
0
  6
AI-Linetype-26
 62
     4
370
    25
100
AcDb2dPolyline
 66
     1
 10
0.0
 20
0.0
 30
0.0
  0
VERTEX
  5
13A
330
139
100
AcDbEntity
  8
0
  6
AI-Linetype-26
 62
     4
370
    25
100
AcDbVertex
100
AcDb2dVertex
 10
306.3490424178729
 20
-89.07197946333054
 30
0.0
  0
VERTEX
  5
13B
330
139
100
AcDbEntity
  8
0
  6
AI-Linetype-26
 62
     4
370
    25
100
AcDbVertex
100
AcDb2dVertex
 10
306.3490424178729
 20
-149.4856611259765
 30
0.0
  0
SEQEND
  5
13D
330
139
100
AcDbEntity
  8
0
  6
AI-Linetype-26
 62
     4
370
    25
  0
ENDSEC
  0
SECTION
  2
OBJECTS
  0
DICTIONARY
  5
C
330
0
100
AcDbDictionary
281
     1
  3
ACAD_GROUP
350
D
  3
ACAD_LAYOUT
350
1A
  3
ACAD_MATERIAL
350
3B
  3
ACAD_MLEADERSTYLE
350
15F
  3
ACAD_MLINESTYLE
350
17
  3
ACAD_PLOTSETTINGS
350
19
  3
ACAD_PLOTSTYLENAME
350
E
  3
ACAD_TABLESTYLE
350
15E
  3
ACAD_VISUALSTYLE
350
2A
  0
SUN
  5
3F
330
29
100
AcDbSun
 90
        1
290
     0
 63
     7
421
 16777215
 40
1.0
291
     1
 91
  2455826
 92
 54000000
292
     0
 70
     2
 71
   256
280
     1
  0
DICTIONARY
  5
D
102
{ACAD_REACTORS
330
C
102
}
330
C
100
AcDbDictionary
281
     1
  0
DICTIONARY
  5
1A
102
{ACAD_REACTORS
330
C
102
}
330
C
100
AcDbDictionary
281
     1
  3
Layout1
350
1E
  3
Layout2
350
26
  3
Model
350
22
  0
DICTIONARY
  5
3B
102
{ACAD_REACTORS
330
C
102
}
330
C
100
AcDbDictionary
281
     1
  3
ByBlock
350
3D
  3
ByLayer
350
3C
  3
Global
350
3E
  0
DICTIONARY
  5
15F
102
{ACAD_REACTORS
330
C
102
}
330
C
100
AcDbDictionary
281
     1
  0
DICTIONARY
  5
17
102
{ACAD_REACTORS
330
C
102
}
330
C
100
AcDbDictionary
281
     1
  3
Standard
350
18
  0
DICTIONARY
  5
19
102
{ACAD_REACTORS
330
C
102
}
330
C
100
AcDbDictionary
281
     1
  0
ACDBDICTIONARYWDFLT
  5
E
102
{ACAD_REACTORS
330
C
102
}
330
C
100
AcDbDictionary
281
     1
  3
Normal
350
F
100
AcDbDictionaryWithDefault
340
F
  0
DICTIONARY
  5
15E
102
{ACAD_REACTORS
330
C
102
}
330
C
100
AcDbDictionary
281
     1
  0
DICTIONARY
  5
2A
102
{ACAD_REACTORS
330
C
102
}
330
C
100
AcDbDictionary
281
     1
  3
2dWireframe
350
2F
  3
3D Hidden
350
31
  3
3dWireframe
350
30
  3
Basic
350
32
  3
Brighten
350
36
  3
ColorChange
350
3A
  3
Conceptual
350
34
  3
Dim
350
35
  3
Facepattern
350
39
  3
Flat
350
2B
  3
FlatWithEdges
350
2C
  3
Gouraud
350
2D
  3
GouraudWithEdges
350
2E
  3
Linepattern
350
38
  3
Realistic
350
33
  3
Thicken
350
37
  0
LAYOUT
  5
1E
102
{ACAD_REACTORS
330
1A
102
}
330
1A
100
AcDbPlotSettings
  1

  2
none_device
  4

  6

 40
0.0
 41
0.0
 42
0.0
 43
0.0
 44
0.0
 45
0.0
 46
0.0
 47
0.0
 48
0.0
 49
0.0
140
0.0
141
0.0
142
1.0
143
1.0
 70
   688
 72
     0
 73
     0
 74
     5
  7

 75
    16
 76
     0
 77
     2
 78
   300
147
1.0
148
0.0
149
0.0
100
AcDbLayout
  1
Layout1
 70
     1
 71
     1
 10
0.0
 20
0.0
 11
12.0
 21
9.0
 12
0.0
 22
0.0
 32
0.0
 14
1.000000000000000E+20
 24
1.000000000000000E+20
 34
1.000000000000000E+20
 15
-1.000000000000000E+20
 25
-1.000000000000000E+20
 35
-1.000000000000000E+20
146
0.0
 13
0.0
 23
0.0
 33
0.0
 16
1.0
 26
0.0
 36
0.0
 17
0.0
 27
1.0
 37
0.0
 76
     0
330
1B
  0
LAYOUT
  5
26
102
{ACAD_REACTORS
330
1A
102
}
330
1A
100
AcDbPlotSettings
  1

  2
none_device
  4

  6

 40
0.0
 41
0.0
 42
0.0
 43
0.0
 44
0.0
 45
0.0
 46
0.0
 47
0.0
 48
0.0
 49
0.0
140
0.0
141
0.0
142
1.0
143
1.0
 70
   688
 72
     0
 73
     0
 74
     5
  7

 75
    16
 76
     0
 77
     2
 78
   300
147
1.0
148
0.0
149
0.0
100
AcDbLayout
  1
Layout2
 70
     1
 71
     2
 10
0.0
 20
0.0
 11
0.0
 21
0.0
 12
0.0
 22
0.0
 32
0.0
 14
0.0
 24
0.0
 34
0.0
 15
0.0
 25
0.0
 35
0.0
146
0.0
 13
0.0
 23
0.0
 33
0.0
 16
1.0
 26
0.0
 36
0.0
 17
0.0
 27
1.0
 37
0.0
 76
     0
330
23
  0
LAYOUT
  5
22
102
{ACAD_REACTORS
330
1A
102
}
330
1A
100
AcDbPlotSettings
  1

  2
none_device
  4

  6

 40
0.0
 41
0.0
 42
0.0
 43
0.0
 44
0.0
 45
0.0
 46
0.0
 47
0.0
 48
0.0
 49
0.0
140
0.0
141
0.0
142
1.0
143
1.0
 70
  1712
 72
     0
 73
     0
 74
     0
  7

 75
     0
 76
     0
 77
     2
 78
   300
147
1.0
148
0.0
149
0.0
100
AcDbLayout
  1
Model
 70
     1
 71
     0
 10
0.0
 20
0.0
 11
12.0
 21
9.0
 12
0.0
 22
0.0
 32
0.0
 14
1.000000000000000E+20
 24
1.000000000000000E+20
 34
1.000000000000000E+20
 15
-1.000000000000000E+20
 25
-1.000000000000000E+20
 35
-1.000000000000000E+20
146
0.0
 13
0.0
 23
0.0
 33
0.0
 16
1.0
 26
0.0
 36
0.0
 17
0.0
 27
1.0
 37
0.0
 76
     0
330
1F
331
29
  0
MATERIAL
  5
3D
102
{ACAD_REACTORS
330
3B
102
}
330
3B
100
AcDbMaterial
  1
ByBlock
 72
     1
 94
      127
  0
MATERIAL
  5
3C
102
{ACAD_REACTORS
330
3B
102
}
330
3B
100
AcDbMaterial
  1
ByLayer
 72
     1
 94
      127
  0
MATERIAL
  5
3E
102
{ACAD_REACTORS
330
3B
102
}
330
3B
100
AcDbMaterial
  1
Global
 72
     1
 94
      127
  0
MLINESTYLE
  5
18
102
{ACAD_REACTORS
330
17
102
}
330
17
100
AcDbMlineStyle
  2
Standard
 70
     0
  3

 62
   256
 51
90.0
 52
90.0
 71
     2
 49
0.5
 62
   256
  6
BYLAYER
 49
-0.5
 62
   256
  6
BYLAYER
  0
ACDBPLACEHOLDER
  5
F
102
{ACAD_REACTORS
330
E
102
}
330
E
  0
VISUALSTYLE
  5
2F
102
{ACAD_REACTORS
330
2A
102
}
102
{ACAD_XDICTIONARY
360
146
102
}
330
2A
100
AcDbVisualStyle
  2
2dWireframe
 70
     4
 71
     0
 72
     2
 73
     0
 90
        0
 40
-0.6
 41
-30.0
 62
     5
 63
     7
421
 16777215
 74
     1
 91
        4
 64
     7
 65
   257
 75
     1
175
     1
 42
1.0
 92
        0
 66
   257
 43
1.0
 76
     1
 77
     6
 78
     2
 67
     7
 79
     5
170
     0
171
     0
290
     0
174
     0
 93
        1
 44
0.0
173
     0
291
     0
 45
0.0
  0
VISUALSTYLE
  5
31
102
{ACAD_REACTORS
330
2A
102
}
102
{ACAD_XDICTIONARY
360
14A
102
}
330
2A
100
AcDbVisualStyle
  2
3D Hidden
 70
     6
 71
     1
 72
     2
 73
     2
 90
        0
 40
-0.6
 41
-30.0
 62
     5
 63
     7
421
 16777215
 74
     2
 91
        2
 64
     7
 65
   257
 75
     2
175
     1
 42
40.0
 92
        0
 66
   257
 43
1.0
 76
     1
 77
     6
 78
     2
 67
     7
 79
     3
170
     0
171
     0
290
     0
174
     0
 93
        1
 44
0.0
173
     0
291
     0
 45
0.0
  0
VISUALSTYLE
  5
30
102
{ACAD_REACTORS
330
2A
102
}
102
{ACAD_XDICTIONARY
360
148
102
}
330
2A
100
AcDbVisualStyle
  2
3dWireframe
 70
     5
 71
     0
 72
     2
 73
     0
 90
        0
 40
-0.6
 41
-30.0
 62
     5
 63
     7
421
 16777215
 74
     1
 91
        4
 64
     7
 65
   257
 75
     1
175
     1
 42
1.0
 92
        0
 66
   257
 43
1.0
 76
     1
 77
     6
 78
     2
 67
     7
 79
     5
170
     0
171
     0
290
     0
174
     0
 93
        1
 44
0.0
173
     0
291
     0
 45
0.0
  0
VISUALSTYLE
  5
32
102
{ACAD_REACTORS
330
2A
102
}
102
{ACAD_XDICTIONARY
360
14C
102
}
330
2A
100
AcDbVisualStyle
  2
Basic
 70
     7
 71
     1
 72
     0
 73
     1
 90
        0
 40
-0.6
 41
-30.0
 62
     5
 63
     7
421
 16777215
 74
     0
 91
        4
 64
     7
 65
   257
 75
     1
175
     1
 42
1.0
 92
        8
 66
     7
 43
1.0
 76
     1
 77
     6
 78
     2
 67
     7
 79
     5
170
     0
171
     0
290
     0
174
     0
 93
        1
 44
0.0
173
     0
291
     1
 45
0.0
  0
VISUALSTYLE
  5
36
102
{ACAD_REACTORS
330
2A
102
}
102
{ACAD_XDICTIONARY
360
154
102
}
330
2A
100
AcDbVisualStyle
  2
Brighten
 70
    12
 71
     2
 72
     2
 73
     0
 90
        0
 40
-0.6
 41
-30.0
 62
     5
 63
     7
421
 16777215
 74
     1
 91
        4
 64
     7
 65
   257
 75
     1
175
     1
 42
1.0
 92
        8
 66
     7
 43
1.0
 76
     1
 77
     6
 78
     2
 67
     7
 79
     5
170
     0
171
     0
290
     0
174
     0
 93
        1
 44
50.0
173
     0
291
     1
 45
0.0
  0
VISUALSTYLE
  5
3A
102
{ACAD_REACTORS
330
2A
102
}
102
{ACAD_XDICTIONARY
360
15C
102
}
330
2A
100
AcDbVisualStyle
  2
ColorChange
 70
    16
 71
     2
 72
     2
 73
     3
 90
        0
 40
-0.6
 41
-30.0
 62
     5
 63
     8
421
  8421504
 74
     1
 91
        4
 64
     7
 65
   257
 75
     1
175
     1
 42
1.0
 92
        8
 66
     8
424
  8421504
 43
1.0
 76
     1
 77
     6
 78
     2
 67
     7
 79
     5
170
     0
171
     0
290
     0
174
     0
 93
        1
 44
0.0
173
     0
291
     1
 45
0.0
  0
VISUALSTYLE
  5
34
102
{ACAD_REACTORS
330
2A
102
}
102
{ACAD_XDICTIONARY
360
150
102
}
330
2A
100
AcDbVisualStyle
  2
Conceptual
 70
     9
 71
     3
 72
     2
 73
     0
 90
        0
 40
-0.6
 41
-30.0
 62
     5
 63
     7
421
 16777215
 74
     2
 91
        2
 64
     7
 65
   257
 75
     1
175
     1
 42
40.0
 92
        8
 66
     7
 43
1.0
 76
     1
 77
     6
 78
     2
 67
     7
 79
     3
170
     0
171
     0
290
     0
174
     0
 93
        1
 44
0.0
173
     0
291
     0
 45
0.0
  0
VISUALSTYLE
  5
35
102
{ACAD_REACTORS
330
2A
102
}
102
{ACAD_XDICTIONARY
360
152
102
}
330
2A
100
AcDbVisualStyle
  2
Dim
 70
    11
 71
     2
 72
     2
 73
     0
 90
        0
 40
-0.6
 41
-30.0
 62
     5
 63
     7
421
 16777215
 74
     1
 91
        4
 64
     7
 65
   257
 75
     1
175
     1
 42
1.0
 92
        8
 66
     7
 43
1.0
 76
     1
 77
     6
 78
     2
 67
     7
 79
     5
170
     0
171
     0
290
     0
174
     0
 93
        1
 44
-50.0
173
     0
291
     1
 45
0.0
  0
VISUALSTYLE
  5
39
102
{ACAD_REACTORS
330
2A
102
}
102
{ACAD_XDICTIONARY
360
15A
102
}
330
2A
100
AcDbVisualStyle
  2
Facepattern
 70
    15
 71
     2
 72
     2
 73
     0
 90
        0
 40
-0.6
 41
-30.0
 62
     5
 63
     7
421
 16777215
 74
     1
 91
        4
 64
     7
 65
   257
 75
     1
175
     1
 42
1.0
 92
        8
 66
     7
 43
1.0
 76
     1
 77
     6
 78
     2
 67
     7
 79
     5
170
     0
171
     0
290
     0
174
     0
 93
        1
 44
0.0
173
     0
291
     1
 45
0.0
  0
VISUALSTYLE
  5
2B
102
{ACAD_REACTORS
330
2A
102
}
102
{ACAD_XDICTIONARY
360
13E
102
}
330
2A
100
AcDbVisualStyle
  2
Flat
 70
     0
 71
     2
 72
     1
 73
     1
 90
        2
 40
-0.6
 41
30.0
 62
     5
 63
     7
421
 16777215
 74
     0
 91
        4
 64
     7
 65
   257
 75
     1
175
     1
 42
1.0
 92
        8
 66
     7
 43
1.0
 76
     1
 77
     6
 78
     2
 67
     7
 79
     5
170
     0
171
     0
290
     0
174
     0
 93
       13
 44
0.0
173
     0
291
     1
 45
0.0
  0
VISUALSTYLE
  5
2C
102
{ACAD_REACTORS
330
2A
102
}
102
{ACAD_XDICTIONARY
360
140
102
}
330
2A
100
AcDbVisualStyle
  2
FlatWithEdges
 70
     1
 71
     2
 72
     1
 73
     1
 90
        2
 40
-0.6
 41
30.0
 62
     5
 63
     7
421
 16777215
 74
     1
 91
        4
 64
     7
 65
   257
 75
     1
175
     1
 42
1.0
 92
        0
 66
   257
 43
1.0
 76
     1
 77
     6
 78
     2
 67
     7
 79
     5
170
     0
171
     0
290
     0
174
     0
 93
       13
 44
0.0
173
     0
291
     1
 45
0.0
  0
VISUALSTYLE
  5
2D
102
{ACAD_REACTORS
330
2A
102
}
102
{ACAD_XDICTIONARY
360
142
102
}
330
2A
100
AcDbVisualStyle
  2
Gouraud
 70
     2
 71
     2
 72
     2
 73
     1
 90
        2
 40
-0.6
 41
30.0
 62
     5
 63
     7
421
 16777215
 74
     0
 91
        4
 64
     7
 65
   257
 75
     1
175
     1
 42
1.0
 92
        0
 66
     7
 43
1.0
 76
     1
 77
     6
 78
     2
 67
     7
 79
     5
170
     0
171
     0
290
     0
174
     0
 93
       13
 44
0.0
173
     0
291
     1
 45
0.0
  0
VISUALSTYLE
  5
2E
102
{ACAD_REACTORS
330
2A
102
}
102
{ACAD_XDICTIONARY
360
144
102
}
330
2A
100
AcDbVisualStyle
  2
GouraudWithEdges
 70
     3
 71
     2
 72
     2
 73
     1
 90
        2
 40
-0.6
 41
30.0
 62
     5
 63
     7
421
 16777215
 74
     1
 91
        4
 64
     7
 65
   257
 75
     1
175
     1
 42
1.0
 92
        0
 66
   257
 43
1.0
 76
     1
 77
     6
 78
     2
 67
     7
 79
     5
170
     0
171
     0
290
     0
174
     0
 93
       13
 44
0.0
173
     0
291
     1
 45
0.0
  0
VISUALSTYLE
  5
38
102
{ACAD_REACTORS
330
2A
102
}
102
{ACAD_XDICTIONARY
360
158
102
}
330
2A
100
AcDbVisualStyle
  2
Linepattern
 70
    14
 71
     2
 72
     2
 73
     0
 90
        0
 40
-0.6
 41
-30.0
 62
     5
 63
     7
421
 16777215
 74
     1
 91
        4
 64
     7
 65
   257
 75
     7
175
     7
 42
1.0
 92
        8
 66
     7
 43
1.0
 76
     1
 77
     6
 78
     2
 67
     7
 79
     5
170
     0
171
     0
290
     0
174
     0
 93
        1
 44
0.0
173
     0
291
     1
 45
0.0
  0
VISUALSTYLE
  5
33
102
{ACAD_REACTORS
330
2A
102
}
102
{ACAD_XDICTIONARY
360
14E
102
}
330
2A
100
AcDbVisualStyle
  2
Realistic
 70
     8
 71
     2
 72
     2
 73
     0
 90
        0
 40
-0.6
 41
-30.0
 62
     5
 63
     7
421
 16777215
 74
     1
 91
        0
 64
     7
 65
   257
 75
     1
175
     1
 42
1.0
 92
        8
 66
     8
424
  7895160
 43
1.0
 76
     1
 77
     6
 78
     2
 67
     7
 79
     5
170
     0
171
     0
290
     0
174
     0
 93
       13
 44
0.0
173
     0
291
     0
 45
0.0
  0
VISUALSTYLE
  5
37
102
{ACAD_REACTORS
330
2A
102
}
102
{ACAD_XDICTIONARY
360
156
102
}
330
2A
100
AcDbVisualStyle
  2
Thicken
 70
    13
 71
     2
 72
     2
 73
     0
 90
        0
 40
-0.6
 41
-30.0
 62
     5
 63
     7
421
 16777215
 74
     1
 91
        4
 64
     7
 65
   257
 75
     1
175
     1
 42
1.0
 92
       12
 66
     7
 43
1.0
 76
     1
 77
     6
 78
     2
 67
     7
 79
     5
170
     0
171
     0
290
     0
174
     0
 93
        1
 44
0.0
173
     0
291
     1
 45
0.0
  0
DICTIONARY
  5
146
330
2F
100
AcDbDictionary
280
     1
281
     1
  3
ACAD_XREC_ROUNDTRIP
360
147
  0
DICTIONARY
  5
14A
330
31
100
AcDbDictionary
280
     1
281
     1
  3
ACAD_XREC_ROUNDTRIP
360
14B
  0
DICTIONARY
  5
148
330
30
100
AcDbDictionary
280
     1
281
     1
  3
ACAD_XREC_ROUNDTRIP
360
149
  0
DICTIONARY
  5
14C
330
32
100
AcDbDictionary
280
     1
281
     1
  3
ACAD_XREC_ROUNDTRIP
360
14D
  0
DICTIONARY
  5
154
330
36
100
AcDbDictionary
280
     1
281
     1
  3
ACAD_XREC_ROUNDTRIP
360
155
  0
DICTIONARY
  5
15C
330
3A
100
AcDbDictionary
280
     1
281
     1
  3
ACAD_XREC_ROUNDTRIP
360
15D
  0
DICTIONARY
  5
150
330
34
100
AcDbDictionary
280
     1
281
     1
  3
ACAD_XREC_ROUNDTRIP
360
151
  0
DICTIONARY
  5
152
330
35
100
AcDbDictionary
280
     1
281
     1
  3
ACAD_XREC_ROUNDTRIP
360
153
  0
DICTIONARY
  5
15A
330
39
100
AcDbDictionary
280
     1
281
     1
  3
ACAD_XREC_ROUNDTRIP
360
15B
  0
DICTIONARY
  5
13E
330
2B
100
AcDbDictionary
280
     1
281
     1
  3
ACAD_XREC_ROUNDTRIP
360
13F
  0
DICTIONARY
  5
140
330
2C
100
AcDbDictionary
280
     1
281
     1
  3
ACAD_XREC_ROUNDTRIP
360
141
  0
DICTIONARY
  5
142
330
2D
100
AcDbDictionary
280
     1
281
     1
  3
ACAD_XREC_ROUNDTRIP
360
143
  0
DICTIONARY
  5
144
330
2E
100
AcDbDictionary
280
     1
281
     1
  3
ACAD_XREC_ROUNDTRIP
360
145
  0
DICTIONARY
  5
158
330
38
100
AcDbDictionary
280
     1
281
     1
  3
ACAD_XREC_ROUNDTRIP
360
159
  0
DICTIONARY
  5
14E
330
33
100
AcDbDictionary
280
     1
281
     1
  3
ACAD_XREC_ROUNDTRIP
360
14F
  0
DICTIONARY
  5
156
330
37
100
AcDbDictionary
280
     1
281
     1
  3
ACAD_XREC_ROUNDTRIP
360
157
  0
XRECORD
  5
147
102
{ACAD_REACTORS
330
146
102
}
330
146
100
AcDbXrecord
280
     1
102
RTVSPropertyOp0
 70
     1
102
RTVSPropertyOp1
 70
     1
102
RTVSPropertyOp2
 70
     1
102
RTVSPropertyOp3
 70
     1
102
RTVSPropertyOp4
 70
     1
102
RTVSPropertyOp5
 70
     1
102
RTVSPropertyOp6
 70
     1
102
RTVSPropertyOp7
 70
     1
102
RTVSPropertyOp8
 70
     1
102
RTVSPropertyOp9
 70
     1
102
RTVSPropertyOp10
 70
     1
102
RTVSPropertyOp11
 70
     1
102
RTVSPropertyOp12
 70
     1
102
RTVSPropertyOp13
 70
     1
102
RTVSPropertyOp14
 70
     1
102
RTVSPropertyOp15
 70
     1
102
RTVSPropertyOp16
 70
     1
102
RTVSPropertyOp17
 70
     1
102
RTVSPropertyOp18
 70
     1
102
RTVSPropertyOp19
 70
     1
102
RTVSPropertyOp20
 70
     1
102
RTVSPropertyOp21
 70
     1
102
RTVSPropertyOp22
 70
     1
102
RTVSPropertyOp23
 70
     1
102
RTVSPropertyOp24
 70
     1
102
RTVSPropertyOp25
 70
     1
102
RTVSPropertyOp26
 70
     1
102
RTVSPropertyOp27
 70
     1
102
RTVSPropertyOp28
 70
     1
102
RTVSPropertyOp29
 70
     1
102
RTVSPropertyOp30
 70
     1
102
RTVSPropertyOp31
 70
     1
102
RTVSPropertyOp32
 70
     1
  0
XRECORD
  5
14B
102
{ACAD_REACTORS
330
14A
102
}
330
14A
100
AcDbXrecord
280
     1
102
RTVSPropertyOp0
 70
     1
102
RTVSPropertyOp1
 70
     1
102
RTVSPropertyOp2
 70
     1
102
RTVSPropertyOp3
 70
     1
102
RTVSPropertyOp4
 70
     1
102
RTVSPropertyOp5
 70
     1
102
RTVSPropertyOp6
 70
     1
102
RTVSPropertyOp7
 70
     1
102
RTVSPropertyOp8
 70
     1
102
RTVSPropertyOp9
 70
     1
102
RTVSPropertyOp10
 70
     1
102
RTVSPropertyOp11
 70
     1
102
RTVSPropertyOp12
 70
     1
102
RTVSPropertyOp13
 70
     1
102
RTVSPropertyOp14
 70
     1
102
RTVSPropertyOp15
 70
     1
102
RTVSPropertyOp16
 70
     1
102
RTVSPropertyOp17
 70
     1
102
RTVSPropertyOp18
 70
     1
102
RTVSPropertyOp19
 70
     1
102
RTVSPropertyOp20
 70
     1
102
RTVSPropertyOp21
 70
     1
102
RTVSPropertyOp22
 70
     1
102
RTVSPropertyOp23
 70
     1
102
RTVSPropertyOp24
 70
     1
102
RTVSPropertyOp25
 70
     1
102
RTVSPropertyOp26
 70
     1
102
RTVSPropertyOp27
 70
     1
102
RTVSPropertyOp28
 70
     1
102
RTVSPropertyOp29
 70
     1
102
RTVSPropertyOp30
 70
     1
102
RTVSPropertyOp31
 70
     1
102
RTVSPropertyOp32
 70
     1
  0
XRECORD
  5
149
102
{ACAD_REACTORS
330
148
102
}
330
148
100
AcDbXrecord
280
     1
102
RTVSPropertyOp0
 70
     1
102
RTVSPropertyOp1
 70
     1
102
RTVSPropertyOp2
 70
     1
102
RTVSPropertyOp3
 70
     1
102
RTVSPropertyOp4
 70
     1
102
RTVSPropertyOp5
 70
     1
102
RTVSPropertyOp6
 70
     1
102
RTVSPropertyOp7
 70
     1
102
RTVSPropertyOp8
 70
     1
102
RTVSPropertyOp9
 70
     1
102
RTVSPropertyOp10
 70
     1
102
RTVSPropertyOp11
 70
     1
102
RTVSPropertyOp12
 70
     1
102
RTVSPropertyOp13
 70
     1
102
RTVSPropertyOp14
 70
     1
102
RTVSPropertyOp15
 70
     1
102
RTVSPropertyOp16
 70
     1
102
RTVSPropertyOp17
 70
     1
102
RTVSPropertyOp18
 70
     1
102
RTVSPropertyOp19
 70
     1
102
RTVSPropertyOp20
 70
     1
102
RTVSPropertyOp21
 70
     1
102
RTVSPropertyOp22
 70
     1
102
RTVSPropertyOp23
 70
     1
102
RTVSPropertyOp24
 70
     1
102
RTVSPropertyOp25
 70
     1
102
RTVSPropertyOp26
 70
     1
102
RTVSPropertyOp27
 70
     1
102
RTVSPropertyOp28
 70
     1
102
RTVSPropertyOp29
 70
     1
102
RTVSPropertyOp30
 70
     1
102
RTVSPropertyOp31
 70
     1
102
RTVSPropertyOp32
 70
     1
  0
XRECORD
  5
14D
102
{ACAD_REACTORS
330
14C
102
}
330
14C
100
AcDbXrecord
280
     1
102
RTVSPropertyOp0
 70
     1
102
RTVSPropertyOp1
 70
     1
102
RTVSPropertyOp2
 70
     1
102
RTVSPropertyOp3
 70
     1
102
RTVSPropertyOp4
 70
     1
102
RTVSPropertyOp5
 70
     1
102
RTVSPropertyOp6
 70
     1
102
RTVSPropertyOp7
 70
     1
102
RTVSPropertyOp8
 70
     1
102
RTVSPropertyOp9
 70
     1
102
RTVSPropertyOp10
 70
     1
102
RTVSPropertyOp11
 70
     1
102
RTVSPropertyOp12
 70
     1
102
RTVSPropertyOp13
 70
     1
102
RTVSPropertyOp14
 70
     1
102
RTVSPropertyOp15
 70
     1
102
RTVSPropertyOp16
 70
     1
102
RTVSPropertyOp17
 70
     1
102
RTVSPropertyOp18
 70
     1
102
RTVSPropertyOp19
 70
     1
102
RTVSPropertyOp20
 70
     1
102
RTVSPropertyOp21
 70
     1
102
RTVSPropertyOp22
 70
     1
102
RTVSPropertyOp23
 70
     1
102
RTVSPropertyOp24
 70
     1
102
RTVSPropertyOp25
 70
     1
102
RTVSPropertyOp26
 70
     1
102
RTVSPropertyOp27
 70
     1
102
RTVSPropertyOp28
 70
     1
102
RTVSPropertyOp29
 70
     1
102
RTVSPropertyOp30
 70
     1
102
RTVSPropertyOp31
 70
     1
102
RTVSPropertyOp32
 70
     1
  0
XRECORD
  5
155
102
{ACAD_REACTORS
330
154
102
}
330
154
100
AcDbXrecord
280
     1
102
RTVSPropertyOp0
 70
     1
102
RTVSPropertyOp1
 70
     1
102
RTVSPropertyOp2
 70
     1
102
RTVSPropertyOp3
 70
     1
102
RTVSPropertyOp4
 70
     1
102
RTVSPropertyOp5
 70
     1
102
RTVSPropertyOp6
 70
     1
102
RTVSPropertyOp7
 70
     1
102
RTVSPropertyOp8
 70
     1
102
RTVSPropertyOp9
 70
     1
102
RTVSPropertyOp10
 70
     1
102
RTVSPropertyOp11
 70
     1
102
RTVSPropertyOp12
 70
     1
102
RTVSPropertyOp13
 70
     1
102
RTVSPropertyOp14
 70
     1
102
RTVSPropertyOp15
 70
     1
102
RTVSPropertyOp16
 70
     1
102
RTVSPropertyOp17
 70
     1
102
RTVSPropertyOp18
 70
     1
102
RTVSPropertyOp19
 70
     1
102
RTVSPropertyOp20
 70
     1
102
RTVSPropertyOp21
 70
     1
102
RTVSPropertyOp22
 70
     1
102
RTVSPropertyOp23
 70
     1
102
RTVSPropertyOp24
 70
     1
102
RTVSPropertyOp25
 70
     1
102
RTVSPropertyOp26
 70
     1
102
RTVSPropertyOp27
 70
     1
102
RTVSPropertyOp28
 70
     1
102
RTVSPropertyOp29
 70
     1
102
RTVSPropertyOp30
 70
     1
102
RTVSPropertyOp31
 70
     1
102
RTVSPropertyOp32
 70
     1
  0
XRECORD
  5
15D
102
{ACAD_REACTORS
330
15C
102
}
330
15C
100
AcDbXrecord
280
     1
102
RTVSPropertyOp0
 70
     1
102
RTVSPropertyOp1
 70
     1
102
RTVSPropertyOp2
 70
     1
102
RTVSPropertyOp3
 70
     1
102
RTVSPropertyOp4
 70
     1
102
RTVSPropertyOp5
 70
     1
102
RTVSPropertyOp6
 70
     1
102
RTVSPropertyOp7
 70
     1
102
RTVSPropertyOp8
 70
     1
102
RTVSPropertyOp9
 70
     1
102
RTVSPropertyOp10
 70
     1
102
RTVSPropertyOp11
 70
     1
102
RTVSPropertyOp12
 70
     1
102
RTVSPropertyOp13
 70
     1
102
RTVSPropertyOp14
 70
     1
102
RTVSPropertyOp15
 70
     1
102
RTVSPropertyOp16
 70
     1
102
RTVSPropertyOp17
 70
     1
102
RTVSPropertyOp18
 70
     1
102
RTVSPropertyOp19
 70
     1
102
RTVSPropertyOp20
 70
     1
102
RTVSPropertyOp21
 70
     1
102
RTVSPropertyOp22
 70
     1
102
RTVSPropertyOp23
 70
     1
102
RTVSPropertyOp24
 70
     1
102
RTVSPropertyOp25
 70
     1
102
RTVSPropertyOp26
 70
     1
102
RTVSPropertyOp27
 70
     1
102
RTVSPropertyOp28
 70
     1
102
RTVSPropertyOp29
 70
     1
102
RTVSPropertyOp30
 70
     1
102
RTVSPropertyOp31
 70
     1
102
RTVSPropertyOp32
 70
     1
  0
XRECORD
  5
151
102
{ACAD_REACTORS
330
150
102
}
330
150
100
AcDbXrecord
280
     1
102
RTVSPropertyOp0
 70
     1
102
RTVSPropertyOp1
 70
     1
102
RTVSPropertyOp2
 70
     1
102
RTVSPropertyOp3
 70
     1
102
RTVSPropertyOp4
 70
     1
102
RTVSPropertyOp5
 70
     1
102
RTVSPropertyOp6
 70
     1
102
RTVSPropertyOp7
 70
     1
102
RTVSPropertyOp8
 70
     1
102
RTVSPropertyOp9
 70
     1
102
RTVSPropertyOp10
 70
     1
102
RTVSPropertyOp11
 70
     1
102
RTVSPropertyOp12
 70
     1
102
RTVSPropertyOp13
 70
     1
102
RTVSPropertyOp14
 70
     1
102
RTVSPropertyOp15
 70
     1
102
RTVSPropertyOp16
 70
     1
102
RTVSPropertyOp17
 70
     1
102
RTVSPropertyOp18
 70
     1
102
RTVSPropertyOp19
 70
     1
102
RTVSPropertyOp20
 70
     1
102
RTVSPropertyOp21
 70
     1
102
RTVSPropertyOp22
 70
     1
102
RTVSPropertyOp23
 70
     1
102
RTVSPropertyOp24
 70
     1
102
RTVSPropertyOp25
 70
     1
102
RTVSPropertyOp26
 70
     1
102
RTVSPropertyOp27
 70
     1
102
RTVSPropertyOp28
 70
     1
102
RTVSPropertyOp29
 70
     1
102
RTVSPropertyOp30
 70
     1
102
RTVSPropertyOp31
 70
     1
102
RTVSPropertyOp32
 70
     1
  0
XRECORD
  5
153
102
{ACAD_REACTORS
330
152
102
}
330
152
100
AcDbXrecord
280
     1
102
RTVSPropertyOp0
 70
     1
102
RTVSPropertyOp1
 70
     1
102
RTVSPropertyOp2
 70
     1
102
RTVSPropertyOp3
 70
     1
102
RTVSPropertyOp4
 70
     1
102
RTVSPropertyOp5
 70
     1
102
RTVSPropertyOp6
 70
     1
102
RTVSPropertyOp7
 70
     1
102
RTVSPropertyOp8
 70
     1
102
RTVSPropertyOp9
 70
     1
102
RTVSPropertyOp10
 70
     1
102
RTVSPropertyOp11
 70
     1
102
RTVSPropertyOp12
 70
     1
102
RTVSPropertyOp13
 70
     1
102
RTVSPropertyOp14
 70
     1
102
RTVSPropertyOp15
 70
     1
102
RTVSPropertyOp16
 70
     1
102
RTVSPropertyOp17
 70
     1
102
RTVSPropertyOp18
 70
     1
102
RTVSPropertyOp19
 70
     1
102
RTVSPropertyOp20
 70
     1
102
RTVSPropertyOp21
 70
     1
102
RTVSPropertyOp22
 70
     1
102
RTVSPropertyOp23
 70
     1
102
RTVSPropertyOp24
 70
     1
102
RTVSPropertyOp25
 70
     1
102
RTVSPropertyOp26
 70
     1
102
RTVSPropertyOp27
 70
     1
102
RTVSPropertyOp28
 70
     1
102
RTVSPropertyOp29
 70
     1
102
RTVSPropertyOp30
 70
     1
102
RTVSPropertyOp31
 70
     1
102
RTVSPropertyOp32
 70
     1
  0
XRECORD
  5
15B
102
{ACAD_REACTORS
330
15A
102
}
330
15A
100
AcDbXrecord
280
     1
102
RTVSPropertyOp0
 70
     1
102
RTVSPropertyOp1
 70
     1
102
RTVSPropertyOp2
 70
     1
102
RTVSPropertyOp3
 70
     1
102
RTVSPropertyOp4
 70
     1
102
RTVSPropertyOp5
 70
     1
102
RTVSPropertyOp6
 70
     1
102
RTVSPropertyOp7
 70
     1
102
RTVSPropertyOp8
 70
     1
102
RTVSPropertyOp9
 70
     1
102
RTVSPropertyOp10
 70
     1
102
RTVSPropertyOp11
 70
     1
102
RTVSPropertyOp12
 70
     1
102
RTVSPropertyOp13
 70
     1
102
RTVSPropertyOp14
 70
     1
102
RTVSPropertyOp15
 70
     1
102
RTVSPropertyOp16
 70
     1
102
RTVSPropertyOp17
 70
     1
102
RTVSPropertyOp18
 70
     1
102
RTVSPropertyOp19
 70
     1
102
RTVSPropertyOp20
 70
     1
102
RTVSPropertyOp21
 70
     1
102
RTVSPropertyOp22
 70
     1
102
RTVSPropertyOp23
 70
     1
102
RTVSPropertyOp24
 70
     1
102
RTVSPropertyOp25
 70
     1
102
RTVSPropertyOp26
 70
     1
102
RTVSPropertyOp27
 70
     1
102
RTVSPropertyOp28
 70
     1
102
RTVSPropertyOp29
 70
     1
102
RTVSPropertyOp30
 70
     1
102
RTVSPropertyOp31
 70
     1
102
RTVSPropertyOp32
 70
     1
  0
XRECORD
  5
13F
102
{ACAD_REACTORS
330
13E
102
}
330
13E
100
AcDbXrecord
280
     1
102
RTVSPropertyOp0
 70
     1
102
RTVSPropertyOp1
 70
     1
102
RTVSPropertyOp2
 70
     1
102
RTVSPropertyOp3
 70
     1
102
RTVSPropertyOp4
 70
     1
102
RTVSPropertyOp5
 70
     1
102
RTVSPropertyOp6
 70
     1
102
RTVSPropertyOp7
 70
     1
102
RTVSPropertyOp8
 70
     1
102
RTVSPropertyOp9
 70
     1
102
RTVSPropertyOp10
 70
     1
102
RTVSPropertyOp11
 70
     1
102
RTVSPropertyOp12
 70
     1
102
RTVSPropertyOp13
 70
     1
102
RTVSPropertyOp14
 70
     1
102
RTVSPropertyOp15
 70
     1
102
RTVSPropertyOp16
 70
     1
102
RTVSPropertyOp17
 70
     1
102
RTVSPropertyOp18
 70
     1
102
RTVSPropertyOp19
 70
     1
102
RTVSPropertyOp20
 70
     1
102
RTVSPropertyOp21
 70
     1
102
RTVSPropertyOp22
 70
     1
102
RTVSPropertyOp23
 70
     1
102
RTVSPropertyOp24
 70
     1
102
RTVSPropertyOp25
 70
     1
102
RTVSPropertyOp26
 70
     1
102
RTVSPropertyOp27
 70
     1
102
RTVSPropertyOp28
 70
     1
102
RTVSPropertyOp29
 70
     1
102
RTVSPropertyOp30
 70
     1
102
RTVSPropertyOp31
 70
     1
102
RTVSPropertyOp32
 70
     1
  0
XRECORD
  5
141
102
{ACAD_REACTORS
330
140
102
}
330
140
100
AcDbXrecord
280
     1
102
RTVSPropertyOp0
 70
     1
102
RTVSPropertyOp1
 70
     1
102
RTVSPropertyOp2
 70
     1
102
RTVSPropertyOp3
 70
     1
102
RTVSPropertyOp4
 70
     1
102
RTVSPropertyOp5
 70
     1
102
RTVSPropertyOp6
 70
     1
102
RTVSPropertyOp7
 70
     1
102
RTVSPropertyOp8
 70
     1
102
RTVSPropertyOp9
 70
     1
102
RTVSPropertyOp10
 70
     1
102
RTVSPropertyOp11
 70
     1
102
RTVSPropertyOp12
 70
     1
102
RTVSPropertyOp13
 70
     1
102
RTVSPropertyOp14
 70
     1
102
RTVSPropertyOp15
 70
     1
102
RTVSPropertyOp16
 70
     1
102
RTVSPropertyOp17
 70
     1
102
RTVSPropertyOp18
 70
     1
102
RTVSPropertyOp19
 70
     1
102
RTVSPropertyOp20
 70
     1
102
RTVSPropertyOp21
 70
     1
102
RTVSPropertyOp22
 70
     1
102
RTVSPropertyOp23
 70
     1
102
RTVSPropertyOp24
 70
     1
102
RTVSPropertyOp25
 70
     1
102
RTVSPropertyOp26
 70
     1
102
RTVSPropertyOp27
 70
     1
102
RTVSPropertyOp28
 70
     1
102
RTVSPropertyOp29
 70
     1
102
RTVSPropertyOp30
 70
     1
102
RTVSPropertyOp31
 70
     1
102
RTVSPropertyOp32
 70
     1
  0
XRECORD
  5
143
102
{ACAD_REACTORS
330
142
102
}
330
142
100
AcDbXrecord
280
     1
102
RTVSPropertyOp0
 70
     1
102
RTVSPropertyOp1
 70
     1
102
RTVSPropertyOp2
 70
     1
102
RTVSPropertyOp3
 70
     1
102
RTVSPropertyOp4
 70
     1
102
RTVSPropertyOp5
 70
     1
102
RTVSPropertyOp6
 70
     1
102
RTVSPropertyOp7
 70
     1
102
RTVSPropertyOp8
 70
     1
102
RTVSPropertyOp9
 70
     1
102
RTVSPropertyOp10
 70
     1
102
RTVSPropertyOp11
 70
     1
102
RTVSPropertyOp12
 70
     1
102
RTVSPropertyOp13
 70
     1
102
RTVSPropertyOp14
 70
     1
102
RTVSPropertyOp15
 70
     1
102
RTVSPropertyOp16
 70
     1
102
RTVSPropertyOp17
 70
     1
102
RTVSPropertyOp18
 70
     1
102
RTVSPropertyOp19
 70
     1
102
RTVSPropertyOp20
 70
     1
102
RTVSPropertyOp21
 70
     1
102
RTVSPropertyOp22
 70
     1
102
RTVSPropertyOp23
 70
     1
102
RTVSPropertyOp24
 70
     1
102
RTVSPropertyOp25
 70
     1
102
RTVSPropertyOp26
 70
     1
102
RTVSPropertyOp27
 70
     1
102
RTVSPropertyOp28
 70
     1
102
RTVSPropertyOp29
 70
     1
102
RTVSPropertyOp30
 70
     1
102
RTVSPropertyOp31
 70
     1
102
RTVSPropertyOp32
 70
     1
  0
XRECORD
  5
145
102
{ACAD_REACTORS
330
144
102
}
330
144
100
AcDbXrecord
280
     1
102
RTVSPropertyOp0
 70
     1
102
RTVSPropertyOp1
 70
     1
102
RTVSPropertyOp2
 70
     1
102
RTVSPropertyOp3
 70
     1
102
RTVSPropertyOp4
 70
     1
102
RTVSPropertyOp5
 70
     1
102
RTVSPropertyOp6
 70
     1
102
RTVSPropertyOp7
 70
     1
102
RTVSPropertyOp8
 70
     1
102
RTVSPropertyOp9
 70
     1
102
RTVSPropertyOp10
 70
     1
102
RTVSPropertyOp11
 70
     1
102
RTVSPropertyOp12
 70
     1
102
RTVSPropertyOp13
 70
     1
102
RTVSPropertyOp14
 70
     1
102
RTVSPropertyOp15
 70
     1
102
RTVSPropertyOp16
 70
     1
102
RTVSPropertyOp17
 70
     1
102
RTVSPropertyOp18
 70
     1
102
RTVSPropertyOp19
 70
     1
102
RTVSPropertyOp20
 70
     1
102
RTVSPropertyOp21
 70
     1
102
RTVSPropertyOp22
 70
     1
102
RTVSPropertyOp23
 70
     1
102
RTVSPropertyOp24
 70
     1
102
RTVSPropertyOp25
 70
     1
102
RTVSPropertyOp26
 70
     1
102
RTVSPropertyOp27
 70
     1
102
RTVSPropertyOp28
 70
     1
102
RTVSPropertyOp29
 70
     1
102
RTVSPropertyOp30
 70
     1
102
RTVSPropertyOp31
 70
     1
102
RTVSPropertyOp32
 70
     1
  0
XRECORD
  5
159
102
{ACAD_REACTORS
330
158
102
}
330
158
100
AcDbXrecord
280
     1
102
RTVSPropertyOp0
 70
     1
102
RTVSPropertyOp1
 70
     1
102
RTVSPropertyOp2
 70
     1
102
RTVSPropertyOp3
 70
     1
102
RTVSPropertyOp4
 70
     1
102
RTVSPropertyOp5
 70
     1
102
RTVSPropertyOp6
 70
     1
102
RTVSPropertyOp7
 70
     1
102
RTVSPropertyOp8
 70
     1
102
RTVSPropertyOp9
 70
     1
102
RTVSPropertyOp10
 70
     1
102
RTVSPropertyOp11
 70
     1
102
RTVSPropertyOp12
 70
     1
102
RTVSPropertyOp13
 70
     1
102
RTVSPropertyOp14
 70
     1
102
RTVSPropertyOp15
 70
     1
102
RTVSPropertyOp16
 70
     1
102
RTVSPropertyOp17
 70
     1
102
RTVSPropertyOp18
 70
     1
102
RTVSPropertyOp19
 70
     1
102
RTVSPropertyOp20
 70
     1
102
RTVSPropertyOp21
 70
     1
102
RTVSPropertyOp22
 70
     1
102
RTVSPropertyOp23
 70
     1
102
RTVSPropertyOp24
 70
     1
102
RTVSPropertyOp25
 70
     1
102
RTVSPropertyOp26
 70
     1
102
RTVSPropertyOp27
 70
     1
102
RTVSPropertyOp28
 70
     1
102
RTVSPropertyOp29
 70
     1
102
RTVSPropertyOp30
 70
     1
102
RTVSPropertyOp31
 70
     1
102
RTVSPropertyOp32
 70
     1
  0
XRECORD
  5
14F
102
{ACAD_REACTORS
330
14E
102
}
330
14E
100
AcDbXrecord
280
     1
102
RTVSPropertyOp0
 70
     1
102
RTVSPropertyOp1
 70
     1
102
RTVSPropertyOp2
 70
     1
102
RTVSPropertyOp3
 70
     1
102
RTVSPropertyOp4
 70
     1
102
RTVSPropertyOp5
 70
     1
102
RTVSPropertyOp6
 70
     1
102
RTVSPropertyOp7
 70
     1
102
RTVSPropertyOp8
 70
     1
102
RTVSPropertyOp9
 70
     1
102
RTVSPropertyOp10
 70
     1
102
RTVSPropertyOp11
 70
     1
102
RTVSPropertyOp12
 70
     1
102
RTVSPropertyOp13
 70
     1
102
RTVSPropertyOp14
 70
     1
102
RTVSPropertyOp15
 70
     1
102
RTVSPropertyOp16
 70
     1
102
RTVSPropertyOp17
 70
     1
102
RTVSPropertyOp18
 70
     1
102
RTVSPropertyOp19
 70
     1
102
RTVSPropertyOp20
 70
     1
102
RTVSPropertyOp21
 70
     1
102
RTVSPropertyOp22
 70
     1
102
RTVSPropertyOp23
 70
     1
102
RTVSPropertyOp24
 70
     1
102
RTVSPropertyOp25
 70
     1
102
RTVSPropertyOp26
 70
     1
102
RTVSPropertyOp27
 70
     1
102
RTVSPropertyOp28
 70
     1
102
RTVSPropertyOp29
 70
     1
102
RTVSPropertyOp30
 70
     1
102
RTVSPropertyOp31
 70
     1
102
RTVSPropertyOp32
 70
     1
  0
XRECORD
  5
157
102
{ACAD_REACTORS
330
156
102
}
330
156
100
AcDbXrecord
280
     1
102
RTVSPropertyOp0
 70
     1
102
RTVSPropertyOp1
 70
     1
102
RTVSPropertyOp2
 70
     1
102
RTVSPropertyOp3
 70
     1
102
RTVSPropertyOp4
 70
     1
102
RTVSPropertyOp5
 70
     1
102
RTVSPropertyOp6
 70
     1
102
RTVSPropertyOp7
 70
     1
102
RTVSPropertyOp8
 70
     1
102
RTVSPropertyOp9
 70
     1
102
RTVSPropertyOp10
 70
     1
102
RTVSPropertyOp11
 70
     1
102
RTVSPropertyOp12
 70
     1
102
RTVSPropertyOp13
 70
     1
102
RTVSPropertyOp14
 70
     1
102
RTVSPropertyOp15
 70
     1
102
RTVSPropertyOp16
 70
     1
102
RTVSPropertyOp17
 70
     1
102
RTVSPropertyOp18
 70
     1
102
RTVSPropertyOp19
 70
     1
102
RTVSPropertyOp20
 70
     1
102
RTVSPropertyOp21
 70
     1
102
RTVSPropertyOp22
 70
     1
102
RTVSPropertyOp23
 70
     1
102
RTVSPropertyOp24
 70
     1
102
RTVSPropertyOp25
 70
     1
102
RTVSPropertyOp26
 70
     1
102
RTVSPropertyOp27
 70
     1
102
RTVSPropertyOp28
 70
     1
102
RTVSPropertyOp29
 70
     1
102
RTVSPropertyOp30
 70
     1
102
RTVSPropertyOp31
 70
     1
102
RTVSPropertyOp32
 70
     1
  0
ENDSEC
  0
EOF
