  0
SECTION
  2
HEADER
  9
$ACADVER
  1
AC1021
  9
$ACADMAINTVER
 70
    25
  9
$DWGCODEPAGE
  3
ANSI_1252
  9
$INSBASE
 10
0.0
 20
0.0
 30
0.0
  9
$EXTMIN
 10
0.0
 20
0.0
 30
0.0
  9
$EXTMAX
 10
3000.0
 20
4500.0
 30
0.0
  9
$LIMMIN
 10
0.0
 20
0.0
  9
$LIMMAX
 10
3000.0
 20
4500.0
  9
$ORTHOMODE
 70
     0
  9
$REGENMODE
 70
     1
  9
$FILLMODE
 70
     1
  9
$QTEXTMODE
 70
     0
  9
$MIRRTEXT
 70
     1
  9
$LTSCALE
 40
1.0
  9
$ATTMODE
 70
     1
  9
$TEXTSIZE
 40
10.0
  9
$TRACEWID
 40
1.0
  9
$TEXTSTYLE
  7
Standard
  9
$CLAYER
  8
0
  9
$CELTYPE
  6
ByLayer
  9
$CECOLOR
 62
   256
  9
$CELTSCALE
 40
1.0
  9
$DISPSILH
 70
     0
  9
$DIMSCALE
 40
1.0
  9
$DIMASZ
 40
2.5
  9
$DIMEXO
 40
0.625
  9
$DIMDLI
 40
3.75
  9
$DIMRND
 40
0.0
  9
$DIMDLE
 40
0.0
  9
$DIMEXE
 40
1.25
  9
$DIMTP
 40
0.0
  9
$DIMTM
 40
0.0
  9
$DIMTXT
 40
2.5
  9
$DIMCEN
 40
2.5
  9
$DIMTSZ
 40
0.0
  9
$DIMTOL
 70
     0
  9
$DIMLIM
 70
     0
  9
$DIMTIH
 70
     0
  9
$DIMTOH
 70
     0
  9
$DIMSE1
 70
     0
  9
$DIMSE2
 70
     0
  9
$DIMTAD
 70
     1
  9
$DIMZIN
 70
     8
  9
$DIMBLK
  1

  9
$DIMASO
 70
     1
  9
$DIMSHO
 70
     1
  9
$DIMPOST
  1

  9
$DIMAPOST
  1

  9
$DIMALT
 70
     0
  9
$DIMALTD
 70
     3
  9
$DIMALTF
 40
0.0393700787
  9
$DIMLFAC
 40
1.0
  9
$DIMTOFL
 70
     1
  9
$DIMTVP
 40
0.0
  9
$DIMTIX
 70
     0
  9
$DIMSOXD
 70
     0
  9
$DIMSAH
 70
     0
  9
$DIMBLK1
  1

  9
$DIMBLK2
  1

  9
$DIMSTYLE
  2
ISO-25
  9
$DIMCLRD
 70
     0
  9
$DIMCLRE
 70
     0
  9
$DIMCLRT
 70
     0
  9
$DIMTFAC
 40
1.0
  9
$DIMGAP
 40
0.625
  9
$DIMJUST
 70
     0
  9
$DIMSD1
 70
     0
  9
$DIMSD2
 70
     0
  9
$DIMTOLJ
 70
     0
  9
$DIMTZIN
 70
     8
  9
$DIMALTZ
 70
     0
  9
$DIMALTTZ
 70
     0
  9
$DIMUPT
 70
     0
  9
$DIMDEC
 70
     2
  9
$DIMTDEC
 70
     2
  9
$DIMALTU
 70
     2
  9
$DIMALTTD
 70
     3
  9
$DIMTXSTY
  7
Standard
  9
$DIMAUNIT
 70
     0
  9
$DIMADEC
 70
     0
  9
$DIMALTRND
 40
0.0
  9
$DIMAZIN
 70
     0
  9
$DIMDSEP
 70
    44
  9
$DIMATFIT
 70
     3
  9
$DIMFRAC
 70
     0
  9
$DIMLDRBLK
  1

  9
$DIMLUNIT
 70
     2
  9
$DIMLWD
 70
    -2
  9
$DIMLWE
 70
    -2
  9
$DIMTMOVE
 70
     0
  9
$DIMFXL
 40
1.0
  9
$DIMFXLON
 70
     0
  9
$DIMJOGANG
 40
0.7853981634
  9
$DIMTFILL
 70
     0
  9
$DIMTFILLCLR
 70
     0
  9
$DIMARCSYM
 70
     0
  9
$DIMLTYPE
  6

  9
$DIMLTEX1
  6

  9
$DIMLTEX2
  6

  9
$LUNITS
 70
     2
  9
$LUPREC
 70
     4
  9
$SKETCHINC
 40
1.0
  9
$FILLETRAD
 40
10.0
  9
$AUNITS
 70
     0
  9
$AUPREC
 70
     0
  9
$MENU
  1
.
  9
$ELEVATION
 40
0.0
  9
$PELEVATION
 40
0.0
  9
$THICKNESS
 40
0.0
  9
$LIMCHECK
 70
     0
  9
$CHAMFERA
 40
0.0
  9
$CHAMFERB
 40
0.0
  9
$CHAMFERC
 40
0.0
  9
$CHAMFERD
 40
0.0
  9
$SKPOLY
 70
     0
  9
$TDCREATE
 40
2459711.616850417
  9
$TDUCREATE
 40
2459711.533517083
  9
$TDUPDATE
 40
2459711.616853079
  9
$TDUUPDATE
 40
2459711.533519745
  9
$TDINDWG
 40
0.0000000116
  9
$TDUSRTIMER
 40
0.0000000116
  9
$USRTIMER
 70
     1
  9
$ANGBASE
 50
0.0
  9
$ANGDIR
 70
     0
  9
$PDMODE
 70
     0
  9
$PDSIZE
 40
0.0
  9
$PLINEWID
 40
0.0
  9
$SPLFRAME
 70
     0
  9
$SPLINETYPE
 70
     6
  9
$SPLINESEGS
 70
     8
  9
$HANDSEED
  5
27A
  9
$SURFTAB1
 70
     6
  9
$SURFTAB2
 70
     6
  9
$SURFTYPE
 70
     6
  9
$SURFU
 70
     6
  9
$SURFV
 70
     6
  9
$UCSBASE
  2

  9
$UCSNAME
  2

  9
$UCSORG
 10
0.0
 20
0.0
 30
0.0
  9
$UCSXDIR
 10
1.0
 20
0.0
 30
0.0
  9
$UCSYDIR
 10
0.0
 20
1.0
 30
0.0
  9
$UCSORTHOREF
  2

  9
$UCSORTHOVIEW
 70
     0
  9
$UCSORGTOP
 10
0.0
 20
0.0
 30
0.0
  9
$UCSORGBOTTOM
 10
0.0
 20
0.0
 30
0.0
  9
$UCSORGLEFT
 10
0.0
 20
0.0
 30
0.0
  9
$UCSORGRIGHT
 10
0.0
 20
0.0
 30
0.0
  9
$UCSORGFRONT
 10
0.0
 20
0.0
 30
0.0
  9
$UCSORGBACK
 10
0.0
 20
0.0
 30
0.0
  9
$PUCSBASE
  2

  9
$PUCSNAME
  2

  9
$PUCSORG
 10
0.0
 20
0.0
 30
0.0
  9
$PUCSXDIR
 10
1.0
 20
0.0
 30
0.0
  9
$PUCSYDIR
 10
0.0
 20
1.0
 30
0.0
  9
$PUCSORTHOREF
  2

  9
$PUCSORTHOVIEW
 70
     0
  9
$PUCSORGTOP
 10
0.0
 20
0.0
 30
0.0
  9
$PUCSORGBOTTOM
 10
0.0
 20
0.0
 30
0.0
  9
$PUCSORGLEFT
 10
0.0
 20
0.0
 30
0.0
  9
$PUCSORGRIGHT
 10
0.0
 20
0.0
 30
0.0
  9
$PUCSORGFRONT
 10
0.0
 20
0.0
 30
0.0
  9
$PUCSORGBACK
 10
0.0
 20
0.0
 30
0.0
  9
$USERI1
 70
     0
  9
$USERI2
 70
     0
  9
$USERI3
 70
     0
  9
$USERI4
 70
     0
  9
$USERI5
 70
     0
  9
$USERR1
 40
0.0
  9
$USERR2
 40
0.0
  9
$USERR3
 40
0.0
  9
$USERR4
 40
0.0
  9
$USERR5
 40
0.0
  9
$WORLDVIEW
 70
     1
  9
$SHADEDGE
 70
     3
  9
$SHADEDIF
 70
    70
  9
$TILEMODE
 70
     1
  9
$MAXACTVP
 70
    64
  9
$PINSBASE
 10
0.0
 20
0.0
 30
0.0
  9
$PLIMCHECK
 70
     0
  9
$PEXTMIN
 10
0.0
 20
0.0
 30
0.0
  9
$PEXTMAX
 10
3000.0
 20
4500.0
 30
0.0
  9
$PLIMMIN
 10
0.0
 20
0.0
  9
$PLIMMAX
 10
3000.0
 20
4500.0
  9
$UNITMODE
 70
     0
  9
$VISRETAIN
 70
     1
  9
$PLINEGEN
 70
     0
  9
$PSLTSCALE
 70
     1
  9
$TREEDEPTH
 70
  3020
  9
$CMLSTYLE
  2
Standard
  9
$CMLJUST
 70
     0
  9
$CMLSCALE
 40
20.0
  9
$PROXYGRAPHICS
 70
     1
  9
$MEASUREMENT
 70
     1
  9
$CELWEIGHT
370
    -1
  9
$ENDCAPS
280
     0
  9
$JOINSTYLE
280
     0
  9
$LWDISPLAY
290
     0
  9
$INSUNITS
 70
     4
  9
$HYPERLINKBASE
  1

  9
$STYLESHEET
  1

  9
$XEDIT
290
     1
  9
$CEPSNTYPE
380
     0
  9
$PSTYLEMODE
290
     1
  9
$FINGERPRINTGUID
  2
{A223D065-96A3-4BC2-B3B3-7D942505400E}
  9
$VERSIONGUID
  2
{FAEB1C32-E019-11D5-929B-00C0DF256EC4}
  9
$EXTNAMES
290
     1
  9
$PSVPSCALE
 40
0.0
  9
$OLESTARTUP
290
     0
  9
$SORTENTS
280
   127
  9
$INDEXCTL
280
     0
  9
$HIDETEXT
280
     1
  9
$XCLIPFRAME
290
     0
  9
$HALOGAP
280
     0
  9
$OBSCOLOR
 70
   257
  9
$OBSLTYPE
280
     0
  9
$INTERSECTIONDISPLAY
280
     0
  9
$INTERSECTIONCOLOR
 70
   257
  9
$DIMASSOC
280
     2
  9
$PROJECTNAME
  1

  9
$CAMERADISPLAY
290
     0
  9
$LENSLENGTH
 40
50.0
  9
$CAMERAHEIGHT
 40
0.0
  9
$STEPSPERSEC
 40
2.0
  9
$STEPSIZE
 40
6.0
  9
$3DDWFPREC
 40
2.0
  9
$PSOLWIDTH
 40
5.0
  9
$PSOLHEIGHT
 40
80.0
  9
$LOFTANG1
 40
1.5707963268
  9
$LOFTANG2
 40
1.5707963268
  9
$LOFTMAG1
 40
0.0
  9
$LOFTMAG2
 40
0.0
  9
$LOFTPARAM
 70
     7
  9
$LOFTNORMALS
280
     1
  9
$LATITUDE
 40
37.795
  9
$LONGITUDE
 40
-122.394
  9
$NORTHDIRECTION
 40
0.0
  9
$TIMEZONE
 70
 -8000
  9
$LIGHTGLYPHDISPLAY
280
     1
  9
$TILEMODELIGHTSYNCH
280
     1
  9
$CMATERIAL
347
44
  9
$SOLIDHIST
280
     0
  9
$SHOWHIST
280
     1
  9
$DWFFRAME
280
     2
  9
$DGNFRAME
280
     2
  9
$REALWORLDSCALE
290
     1
  9
$INTERFERECOLOR
 62
   256
  9
$CSHADOW
280
     0
  9
$SHADOWPLANELOCATION
 40
0.0
  0
ENDSEC
  0
SECTION
  2
CLASSES
  0
CLASS
  1
ACDBDICTIONARYWDFLT
  2
AcDbDictionaryWithDefault
  3
ObjectDBX Classes
 90
        0
 91
        4
280
     0
281
     0
  0
CLASS
  1
VISUALSTYLE
  2
AcDbVisualStyle
  3
ObjectDBX Classes
 90
     4095
 91
        4
280
     0
281
     0
  0
CLASS
  1
MATERIAL
  2
AcDbMaterial
  3
ObjectDBX Classes
 90
     1153
 91
        4
280
     0
281
     0
  0
CLASS
  1
SCALE
  2
AcDbScale
  3
ObjectDBX Classes
 90
     1153
 91
        4
280
     0
281
     0
  0
CLASS
  1
TABLESTYLE
  2
AcDbTableStyle
  3
ObjectDBX Classes
 90
     4095
 91
        4
280
     0
281
     0
  0
CLASS
  1
MLEADERSTYLE
  2
AcDbMLeaderStyle
  3
ACDB_MLEADERSTYLE_CLASS
 90
     4095
 91
        4
280
     0
281
     0
  0
CLASS
  1
SUN
  2
AcDbSun
  3
SCENEOE
 90
     1153
 91
        4
280
     0
281
     0
  0
CLASS
  1
DICTIONARYVAR
  2
AcDbDictionaryVar
  3
ObjectDBX Classes
 90
        0
 91
        4
280
     0
281
     0
  0
CLASS
  1
CELLSTYLEMAP
  2
AcDbCellStyleMap
  3
ObjectDBX Classes
 90
     1152
 91
        4
280
     0
281
     0
  0
ENDSEC
  0
SECTION
  2
TABLES
  0
TABLE
  2
VPORT
  5
8
330
0
100
AcDbSymbolTable
 70
     1
  0
VPORT
  5
29
330
8
100
AcDbSymbolTableRecord
100
AcDbViewportTableRecord
  2
*Active
 70
     0
 10
0.0
 20
0.0
 11
1.0
 21
1.0
 12
344.1869158879
 22
148.5
 13
0.0
 23
0.0
 14
10.0
 24
10.0
 15
10.0
 25
10.0
 16
0.0
 26
0.0
 36
1.0
 17
0.0
 27
0.0
 37
0.0
 40
297.0
 41
1.9729729729
 42
50.0
 43
0.0
 44
0.0
 50
0.0
 51
0.0
 71
     0
 72
   100
 73
     1
 74
     3
 75
     0
 76
     0
 77
     0
 78
     0
281
     0
 65
     1
110
0.0
120
0.0
130
0.0
111
1.0
121
0.0
131
0.0
112
0.0
122
1.0
132
0.0
 79
     0
146
0.0
348
2F
 60
     3
 61
     5
292
     1
282
     1
141
0.0
142
0.0
 63
   250
361
6D
  0
ENDTAB
  0
TABLE
  2
LTYPE
  5
5
330
0
100
AcDbSymbolTable
 70
     1
  0
LTYPE
  5
14
330
5
100
AcDbSymbolTableRecord
100
AcDbLinetypeTableRecord
  2
ByBlock
 70
     0
  3

 72
    65
 73
     0
 40
0.0
  0
LTYPE
  5
15
330
5
100
AcDbSymbolTableRecord
100
AcDbLinetypeTableRecord
  2
ByLayer
 70
     0
  3

 72
    65
 73
     0
 40
0.0
  0
LTYPE
  5
16
330
5
100
AcDbSymbolTableRecord
100
AcDbLinetypeTableRecord
  2
Continuous
 70
     0
  3
Solid line
 72
    65
 73
     0
 40
0.0
  0
ENDTAB
  0
TABLE
  2
LAYER
  5
2
330
0
100
AcDbSymbolTable
 70
     5
  0
LAYER
  5
10
330
2
100
AcDbSymbolTableRecord
100
AcDbLayerTableRecord
  2
0
 70
     0
 62
     7
  6
Continuous
370
    -3
390
F
347
46
  0
LAYER
  5
6E
330
2
100
AcDbSymbolTableRecord
100
AcDbLayerTableRecord
  2
Default
 70
     0
 62
     7
  6
Continuous
370
    -3
390
F
347
46
  0
LAYER
  5
71
330
2
100
AcDbSymbolTableRecord
100
AcDbLayerTableRecord
  2
DV1_Default
 70
     0
 62
     7
  6
Continuous
370
    -3
390
F
347
46
  0
LAYER
  5
19F
330
2
100
AcDbSymbolTableRecord
100
AcDbLayerTableRecord
  2
DV2_Default
 70
     0
 62
     7
  6
Continuous
370
    -3
390
F
347
46
  0
LAYER
  5
1D7
330
2
100
AcDbSymbolTableRecord
100
AcDbLayerTableRecord
  2
DV3_Default
 70
     0
 62
     7
  6
Continuous
370
    -3
390
F
347
46
  0
ENDTAB
  0
TABLE
  2
STYLE
  5
3
330
0
100
AcDbSymbolTable
 70
     1
  0
STYLE
  5
11
330
3
100
AcDbSymbolTableRecord
100
AcDbTextStyleTableRecord
  2
Standard
 70
     0
 40
0.0
 41
1.0
 50
0.0
 71
     0
 42
10.0
  3
txt
  4

  0
ENDTAB
  0
TABLE
  2
VIEW
  5
6
330
0
100
AcDbSymbolTable
 70
     0
  0
ENDTAB
  0
TABLE
  2
UCS
  5
7
330
0
100
AcDbSymbolTable
 70
     0
  0
ENDTAB
  0
TABLE
  2
APPID
  5
9
330
0
100
AcDbSymbolTable
 70
     2
  0
APPID
  5
12
330
9
100
AcDbSymbolTableRecord
100
AcDbRegAppTableRecord
  2
ACAD
 70
     0
  0
APPID
  5
270
330
9
100
AcDbSymbolTableRecord
100
AcDbRegAppTableRecord
  2
ACAD_MLEADERVER
 70
     0
  0
ENDTAB
  0
TABLE
  2
DIMSTYLE
  5
A
330
0
100
AcDbSymbolTable
 70
     1
100
AcDbDimStyleTable
  0
DIMSTYLE
105
27
330
A
100
AcDbSymbolTableRecord
100
AcDbDimStyleTableRecord
  2
ISO-25
 70
     0
 41
2.5
 42
0.625
 43
3.75
 44
1.25
 73
     0
 74
     0
 77
     1
 78
     8
140
2.5
141
2.5
143
0.0393700787
147
0.625
171
     3
172
     1
178
     0
271
     2
272
     2
274
     3
278
    44
283
     0
284
     8
340
11
  0
ENDTAB
  0
TABLE
  2
BLOCK_RECORD
  5
1
330
0
100
AcDbSymbolTable
 70
     4
  0
BLOCK_RECORD
  5
1F
330
1
100
AcDbSymbolTableRecord
100
AcDbBlockTableRecord
  2
*Model_Space
340
22
 70
     0
280
     1
281
     0
  0
BLOCK_RECORD
  5
1B
330
1
100
AcDbSymbolTableRecord
100
AcDbBlockTableRecord
  2
*Paper_Space
340
1E
 70
     0
280
     1
281
     0
  0
BLOCK_RECORD
  5
6F
330
1
100
AcDbSymbolTableRecord
100
AcDbBlockTableRecord
  2
SE
340
0
102
{BLKREFS
331
70
102
}
 70
     0
280
     1
281
     0
  0
BLOCK_RECORD
  5
19D
330
1
100
AcDbSymbolTableRecord
100
AcDbBlockTableRecord
  2
SE1
340
0
102
{BLKREFS
331
19E
102
}
 70
     0
280
     1
281
     0
  0
BLOCK_RECORD
  5
1D5
330
1
100
AcDbSymbolTableRecord
100
AcDbBlockTableRecord
  2
SE2
340
0
102
{BLKREFS
331
1D6
102
}
 70
     0
280
     1
281
     0
  0
ENDTAB
  0
ENDSEC
  0
SECTION
  2
BLOCKS
  0
BLOCK
  5
20
330
1F
100
AcDbEntity
  8
0
100
AcDbBlockBegin
  2
*Model_Space
 70
     0
 10
0.0
 20
0.0
 30
0.0
  3
*Model_Space
  1

  0
ENDBLK
  5
21
330
1F
100
AcDbEntity
  8
0
100
AcDbBlockEnd
  0
BLOCK
  5
1C
330
1B
100
AcDbEntity
 67
     1
  8
0
100
AcDbBlockBegin
  2
*Paper_Space
 70
     0
 10
0.0
 20
0.0
 30
0.0
  3
*Paper_Space
  1

  0
ENDBLK
  5
1D
330
1B
100
AcDbEntity
 67
     1
  8
0
100
AcDbBlockEnd
  0
BLOCK
  5
19B
330
6F
100
AcDbEntity
  8
0
100
AcDbBlockBegin
  2
SE
 70
     0
 10
0.0
 20
0.0
 30
0.0
  3
SE
  1

  0
LINE
  5
72
330
6F
100
AcDbEntity
  8
DV1_Default
 62
     7
100
AcDbLine
 10
112.5083641045
 20
983.7574745728
 30
0.0
 11
160.5083641045
 21
983.7574745728
 31
0.0
  0
SPLINE
  5
73
330
6F
100
AcDbEntity
  8
DV1_Default
 62
     7
100
AcDbSpline
210
0.0
220
0.0
230
1.0
 70
     8
 71
     3
 72
    10
 73
     6
 74
     0
 42
0.000000001
 43
0.0000000001
 40
0.0
 40
0.0
 40
0.0
 40
0.0
 40
0.7219148184216622
 40
0.9971467127340865
 40
1.0
 40
1.0
 40
1.0
 40
1.0
 10
162.3615454553201
 20
1031.858633447833
 30
0.0
 10
162.4081120910142
 20
1031.810261847577
 30
0.0
 10
162.4491419893821
 20
1031.76773878085
 30
0.0
 10
162.4581900527963
 20
1031.758306943612
 30
0.0
 10
162.4581032690591
 20
1031.758389120418
 30
0.0
 10
162.4581021046372
 20
1031.75839024832
 30
0.0
  0
SPLINE
  5
74
330
6F
100
AcDbEntity
  8
DV1_Default
 62
     7
100
AcDbSpline
210
0.0
220
0.0
230
1.0
 70
     8
 71
     3
 72
    33
 73
    29
 74
     0
 42
0.000000001
 43
0.0000000001
 40
0.0
 40
0.0
 40
0.0
 40
0.0
 40
0.0688776010321532
 40
0.1450153418285003
 40
0.2176349852264316
 40
0.2867683444250167
 40
0.3205312303292041
 40
0.3533842230828821
 40
0.3854471214040507
 40
0.4166558162136165
 40
0.4465605548642583
 40
0.4735679640058792
 40
0.4954431528920925
 40
0.5040885911331354
 40
0.5116619062297852
 40
0.5266803002851222
 40
0.5356965895187125
 40
0.5463340766974614
 40
0.571540147782906
 40
0.6002822482185589
 40
0.6310726714281634
 40
0.6628455845736677
 40
0.6952033988352307
 40
0.7281900688374385
 40
0.7966724719937888
 40
0.8680002070891997
 40
0.9332728185940518
 40
1.0
 40
1.0
 40
1.0
 40
1.0
 10
162.4577305414075
 20
1071.758004525513
 30
0.0
 10
162.4550719050627
 20
1071.755289010526
 30
0.0
 10
162.0598995118324
 20
1071.344520053711
 30
0.0
 10
160.3881787331271
 20
1069.600090845464
 30
0.0
 10
157.9865672132187
 20
1067.067103439266
 30
0.0
 10
155.7132740442547
 20
1064.623903618942
 30
0.0
 10
153.8570370516613
 20
1062.572496458504
 30
0.0
 10
152.4791727937429
 20
1061.00898994462
 30
0.0
 10
151.1316215421948
 20
1059.418166607556
 30
0.0
 10
149.8469615168316
 20
1057.804098613714
 30
0.0
 10
148.6991371508649
 20
1056.188914260575
 30
0.0
 10
147.8043411413597
 20
1054.631396577666
 30
0.0
 10
147.4040619107632
 20
1053.357707113888
 30
0.0
 10
147.3333609455877
 20
1052.483535749783
 30
0.0
 10
147.3260754261655
 20
1051.765388772631
 30
0.0
 10
147.3228628531783
 20
1051.037269760422
 30
0.0
 10
147.411675040834
 20
1050.244217169831
 30
0.0
 10
147.6720334960805
 20
1049.246014551666
 30
0.0
 10
148.328895771774
 20
1047.915336479292
 30
0.0
 10
149.3917753063952
 20
1046.323778396645
 30
0.0
 10
150.6316723586584
 20
1044.710194125489
 30
0.0
 10
151.957830406082
 20
1043.112860729352
 30
0.0
 10
153.3188443455704
 20
1041.547977551245
 30
0.0
 10
155.1671694008364
 20
1039.48660464371
 30
0.0
 10
157.450761427579
 20
1037.019443824629
 30
0.0
 10
159.8122627066742
 20
1034.521322494612
 30
0.0
 10
161.5865417465997
 20
1032.665076155796
 30
0.0
 10
162.2139050638761
 20
1032.011996513257
 30
0.0
 10
162.3615454553201
 20
1031.858633447833
 30
0.0
  0
SPLINE
  5
75
330
6F
100
AcDbEntity
  8
DV1_Default
 62
     7
100
AcDbSpline
210
0.0
220
0.0
230
1.0
 70
     8
 71
     3
 72
     8
 73
     4
 74
     0
 42
0.000000001
 43
0.0000000001
 40
0.0
 40
0.0
 40
0.0
 40
0.0
 40
1.0
 40
1.0
 40
1.0
 40
1.0
 10
157.5051287661299
 20
1026.811052084117
 30
0.0
 10
157.5059585045759
 20
1026.810225114014
 30
0.0
 10
157.4754470077082
 20
1026.842021660223
 30
0.0
 10
157.4129095671465
 20
1026.907124259471
 30
0.0
  0
LINE
  5
76
330
6F
100
AcDbEntity
  8
DV1_Default
 62
     7
100
AcDbLine
 10
116.2083641045
 20
1090.7574745728
 30
0.0
 11
156.8083641045
 21
1090.7574745728
 31
0.0
  0
LINE
  5
77
330
6F
100
AcDbEntity
  8
DV1_Default
 62
     7
100
AcDbLine
 10
187.5184796424
 20
1071.0583877188
 30
0.0
 11
187.5184796424
 21
1032.4583877188
 31
0.0
  0
LINE
  5
78
330
6F
100
AcDbEntity
  8
DV1_Default
 62
     7
100
AcDbLine
 10
113.2022555296
 20
987.7635300715
 30
0.0
 11
159.8144726793
 21
987.7635300715
 31
0.0
  0
LINE
  5
79
330
6F
100
AcDbEntity
  8
DV1_Default
 62
     7
100
AcDbLine
 10
186.8184796424
 20
1071.7583877188
 30
0.0
 11
162.4403486703
 21
1071.7583877188
 31
0.0
  0
LINE
  5
7A
330
6F
100
AcDbEntity
  8
DV1_Default
 62
     7
100
AcDbLine
 10
162.4298624786
 20
1031.7583877188
 30
0.0
 11
186.8184796424
 21
1031.7583877188
 31
0.0
  0
SPLINE
  5
7B
330
6F
100
AcDbEntity
  8
DV1_Default
 62
     7
100
AcDbSpline
210
0.0
220
0.0
230
1.0
 70
     8
 71
     3
 72
    14
 73
    10
 74
     0
 42
0.000000001
 43
0.0000000001
 40
0.0
 40
0.0
 40
0.0
 40
0.0
 40
0.23177129228196
 40
0.3523034056569193
 40
0.4706327213164485
 40
0.5903956486177736
 40
0.7200350756118962
 40
0.8585754960066522
 40
1.0
 40
1.0
 40
1.0
 40
1.0
 10
162.4581024029651
 20
1071.757465029617
 30
0.0
 10
161.758887144914
 20
1071.754776224173
 30
0.0
 10
160.8612862320871
 20
1071.776235330409
 30
0.0
 10
159.5938899101182
 20
1072.134630801124
 30
0.0
 10
158.7348033423938
 20
1072.638647800401
 30
0.0
 10
158.0772122918681
 20
1073.432431713203
 30
0.0
 10
157.6840530295843
 20
1074.429821363134
 30
0.0
 10
157.513734588845
 20
1075.568166726033
 30
0.0
 10
157.5055971377278
 20
1076.280563863483
 30
0.0
 10
157.5083546429596
 20
1076.707212194523
 30
0.0
  0
SPLINE
  5
7C
330
6F
100
AcDbEntity
  8
DV1_Default
 62
     7
100
AcDbSpline
210
0.0
220
0.0
230
1.0
 70
     8
 71
     3
 72
    14
 73
    10
 74
     0
 42
0.000000001
 43
0.0000000001
 40
0.0
 40
0.0
 40
0.0
 40
0.0
 40
0.2317711642736839
 40
0.352303293842668
 40
0.4706326795470258
 40
0.5903956951533954
 40
0.7200351748902123
 40
0.8585755792899353
 40
1.0
 40
1.0
 40
1.0
 40
1.0
 10
157.508355954009
 20
1026.80773537066
 30
0.0
 10
157.5056682845209
 20
1027.506949697678
 30
0.0
 10
157.5271287631753
 20
1028.40454956124
 30
0.0
 10
157.8855252921549
 20
1029.67194450904
 30
0.0
 10
158.3895426729376
 20
1030.531030495367
 30
0.0
 10
159.1833262714941
 20
1031.18862151879
 30
0.0
 10
160.1807151675302
 20
1031.581781467227
 30
0.0
 10
161.3190594289343
 20
1031.752101104846
 30
0.0
 10
162.031455754568
 20
1031.76023960292
 30
0.0
 10
162.4581035112847
 20
1031.757482748156
 30
0.0
  0
ARC
  5
7D
330
6F
100
AcDbEntity
  8
DV1_Default
 62
     7
100
AcDbCircle
 10
116.2083641045
 20
1090.0574745728
 30
0.0
 40
0.7000000000000062
100
AcDbArc
 50
90.0
 51
180.0
  0
ARC
  5
7E
330
6F
100
AcDbEntity
  8
DV1_Default
 62
     7
100
AcDbCircle
 10
156.8083641045
 20
1090.0574745728
 30
0.0
 40
0.6999999999999993
100
AcDbArc
 50
0.0
 51
90.0
  0
ARC
  5
7F
330
6F
100
AcDbEntity
  8
DV1_Default
 62
     7
100
AcDbCircle
 10
186.8184796424
 20
1071.0583877188
 30
0.0
 40
0.6999999999999993
100
AcDbArc
 50
0.0
 51
90.0
  0
ARC
  5
80
330
6F
100
AcDbEntity
  8
DV1_Default
 62
     7
100
AcDbCircle
 10
186.8184796424
 20
1032.4583877188
 30
0.0
 40
0.6999999999999993
100
AcDbArc
 50
270.0
 51
0.0
  0
LINE
  5
81
330
6F
100
AcDbEntity
  8
DV1_Default
 62
     7
100
AcDbLine
 10
160.5083641045
 20
983.7574745728
 30
0.0
 11
160.5083641045
 21
987.0635567254
 31
0.0
  0
LINE
  5
82
330
6F
100
AcDbEntity
  8
DV1_Default
 62
     7
100
AcDbLine
 10
112.5083641045
 20
987.0635567254
 30
0.0
 11
112.5083641045
 21
983.7574745728
 31
0.0
  0
LINE
  5
83
330
6F
100
AcDbEntity
  8
DV1_Default
 62
     7
100
AcDbLine
 10
157.5083641045
 20
1076.674219477
 30
0.0
 11
157.5083641045
 21
1090.0574745728
 31
0.0
  0
LINE
  5
84
330
6F
100
AcDbEntity
  8
DV1_Default
 62
     7
100
AcDbLine
 10
157.5083641045
 20
989.2706219921
 30
0.0
 11
157.5083641045
 21
1026.8374928875
 31
0.0
  0
LINE
  5
85
330
6F
100
AcDbEntity
  8
DV1_Default
 62
     7
100
AcDbLine
 10
115.5083641045
 20
1090.0574745728
 30
0.0
 11
115.5083641045
 21
989.2706219921
 31
0.0
  0
LINE
  5
86
330
6F
100
AcDbEntity
  8
DV1_Default
 62
     7
100
AcDbLine
 10
159.8144726793
 20
987.7635300715
 30
0.0
 11
158.9952743012
 21
987.7706791075
 31
0.0
  0
LINE
  5
87
330
6F
100
AcDbEntity
  8
DV1_Default
 62
     7
100
AcDbLine
 10
114.0214539078
 20
987.7706791075
 30
0.0
 11
113.2022555296
 21
987.7635300715
 31
0.0
  0
ARC
  5
88
330
6F
100
AcDbEntity
  8
DV1_Default
 62
     7
100
AcDbCircle
 10
159.0083641045
 20
989.2706219921
 30
0.0
 40
1.499999999999999
100
AcDbArc
 50
180.0
 51
269.5
  0
ARC
  5
89
330
6F
100
AcDbEntity
  8
DV1_Default
 62
     7
100
AcDbCircle
 10
114.0083641045
 20
989.2706219921
 30
0.0
 40
1.500000000000001
100
AcDbArc
 50
270.5
 51
0.0
  0
ARC
  5
8A
330
6F
100
AcDbEntity
  8
DV1_Default
 62
     7
100
AcDbCircle
 10
113.2083641045
 20
987.0635567254
 30
0.0
 40
0.699999999999998
100
AcDbArc
 50
90.5
 51
180.0
  0
ARC
  5
8B
330
6F
100
AcDbEntity
  8
DV1_Default
 62
     7
100
AcDbCircle
 10
159.8083641045
 20
987.0635567254
 30
0.0
 40
0.6999999999999993
100
AcDbArc
 50
0.0
 51
89.5
  0
ELLIPSE
  5
8C
330
6F
100
AcDbEntity
  8
DV1_Default
 62
     7
100
AcDbEllipse
 10
136.5083641045
 20
1231.3385574411
 30
0.0
 11
12.50000000000001
 21
0.0
 31
0.0
210
0.0
220
0.0
230
1.0
 40
0.1736481777
 41
0.0
 42
0.0100728745231096
  0
ELLIPSE
  5
8D
330
6F
100
AcDbEntity
  8
DV1_Default
 62
     7
100
AcDbEllipse
 10
136.5083641045
 20
1193.2264973996
 30
0.0
 11
12.50000000000001
 21
0.0
 31
0.0
210
0.0
220
0.0
230
1.0
 40
0.1736481777
 41
0.0
 42
3.140451159416301
  0
ELLIPSE
  5
8E
330
6F
100
AcDbEntity
  8
DV1_Default
 62
     7
100
AcDbEllipse
 10
136.5083641045
 20
1192.2416896466
 30
0.0
 11
11.50000000000001
 21
0.0
 31
0.0
210
0.0
220
0.0
230
1.0
 40
0.1736481777
 41
0.0
 42
0.8293902013852689
  0
ELLIPSE
  5
8F
330
6F
100
AcDbEntity
  8
DV1_Default
 62
     7
100
AcDbEllipse
 10
136.5083641045
 20
1192.2416896466
 30
0.0
 11
11.50000000000001
 21
0.0
 31
0.0
210
0.0
220
0.0
230
1.0
 40
0.1736481777
 41
0.8293902013852685
 42
2.462246492982572
  0
ELLIPSE
  5
90
330
6F
100
AcDbEntity
  8
DV1_Default
 62
     7
100
AcDbEllipse
 10
136.5083641045
 20
1192.2416896466
 30
0.0
 11
11.50000000000001
 21
0.0
 31
0.0
210
0.0
220
0.0
230
1.0
 40
0.1736481777
 41
2.462246492982572
 42
4.356134344988719
  0
ELLIPSE
  5
91
330
6F
100
AcDbEntity
  8
DV1_Default
 62
     7
100
AcDbEllipse
 10
136.5083641045
 20
1192.2416896466
 30
0.0
 11
11.50000000000001
 21
0.0
 31
0.0
210
0.0
220
0.0
230
1.0
 40
0.1736481777
 41
4.356134344988719
 42
5.148413146562947
  0
ELLIPSE
  5
92
330
6F
100
AcDbEntity
  8
DV1_Default
 62
     7
100
AcDbEllipse
 10
136.5083641045
 20
1192.2416896466
 30
0.0
 11
11.50000000000001
 21
0.0
 31
0.0
210
0.0
220
0.0
230
1.0
 40
0.1736481777
 41
5.148413146562947
 42
6.283185307179586
  0
ELLIPSE
  5
93
330
6F
100
AcDbEntity
  8
DV1_Default
 62
     7
100
AcDbEllipse
 10
136.5083641045
 20
1192.2416896466
 30
0.0
 11
9.904382473088253
 21
0.0
 31
0.0
210
0.0
220
0.0
230
1.0
 40
0.1736481777
 41
5.761209100626208
 42
6.283185307179586
  0
ELLIPSE
  5
94
330
6F
100
AcDbEntity
  8
DV1_Default
 62
     7
100
AcDbEllipse
 10
136.5083641045
 20
1192.2416896466
 30
0.0
 11
9.904382473088253
 21
0.0
 31
0.0
210
0.0
220
0.0
230
1.0
 40
0.1736481777
 41
3.514853803996525
 42
5.761209100626208
  0
ELLIPSE
  5
95
330
6F
100
AcDbEntity
  8
DV1_Default
 62
     7
100
AcDbEllipse
 10
136.5083641045
 20
1192.2416896466
 30
0.0
 11
9.904382473088253
 21
0.0
 31
0.0
210
0.0
220
0.0
230
1.0
 40
0.1736481777
 41
2.83666878719873
 42
3.514853803996525
  0
ELLIPSE
  5
96
330
6F
100
AcDbEntity
  8
DV1_Default
 62
     7
100
AcDbEllipse
 10
136.5083641045
 20
1192.2416896466
 30
0.0
 11
9.904382473088253
 21
0.0
 31
0.0
210
0.0
220
0.0
230
1.0
 40
0.1736481777
 41
0.3099612934169178
 42
2.83666878719873
  0
ELLIPSE
  5
97
330
6F
100
AcDbEntity
  8
DV1_Default
 62
     7
100
AcDbEllipse
 10
136.5083641045
 20
1192.2416896466
 30
0.0
 11
9.904382473088253
 21
0.0
 31
0.0
210
0.0
220
0.0
230
1.0
 40
0.1736481777
 41
0.0
 42
0.3099612934169176
  0
ELLIPSE
  5
98
330
6F
100
AcDbEntity
  8
DV1_Default
 62
     7
100
AcDbEllipse
 10
136.5083641045
 20
1192.738390503
 30
0.0
 11
9.404401511556161
 21
0.0
 31
0.0
210
0.0
220
0.0
230
1.0
 40
0.1736481777
 41
3.160062344207383
 42
3.440500727809229
  0
ELLIPSE
  5
99
330
6F
100
AcDbEntity
  8
DV1_Default
 62
     7
100
AcDbEllipse
 10
136.5083641045
 20
1192.738390503
 30
0.0
 11
9.404401511556161
 21
0.0
 31
0.0
210
0.0
220
0.0
230
1.0
 40
0.1736481777
 41
5.984277232960146
 42
6.283185307179586
  0
LINE
  5
9A
330
6F
100
AcDbEntity
  8
DV1_Default
 62
     7
100
AcDbLine
 10
124.0083641045
 20
1231.3385574411
 30
0.0
 11
124.0083641045
 21
1193.2264973996
 31
0.0
  0
LINE
  5
9B
330
6F
100
AcDbEntity
  8
DV1_Default
 62
     7
100
AcDbLine
 10
149.0083641045
 20
1193.2264973996
 30
0.0
 11
149.0083641045
 21
1231.3385574411
 31
0.0
  0
ARC
  5
9C
330
6F
100
AcDbEntity
  8
DV1_Default
 62
     7
100
AcDbCircle
 10
124.8824108779
 20
1231.2876412718
 30
0.0
 40
0.8755285366301383
100
AcDbArc
 50
151.0285149742
 51
176.6660955498
  0
SPLINE
  5
9D
330
6F
100
AcDbEntity
  8
DV1_Default
 62
     7
100
AcDbSpline
210
0.0
220
0.0
230
1.0
 70
     8
 71
     3
 72
     9
 73
     5
 74
     0
 42
0.000000001
 43
0.0000000001
 40
0.0
 40
0.0
 40
0.0
 40
0.0
 40
0.2649953322698804
 40
1.0
 40
1.0
 40
1.0
 40
1.0
 10
149.0077247625052
 20
1231.360362030164
 30
0.0
 10
149.0092479521915
 20
1231.397736247119
 30
0.0
 10
149.0135763033501
 20
1231.517737583149
 30
0.0
 10
148.9541438262734
 20
1231.637803620729
 30
0.0
 10
148.8986529091828
 20
1231.719201291922
 30
0.0
  0
SPLINE
  5
9E
330
6F
100
AcDbEntity
  8
DV1_Default
 62
     7
100
AcDbSpline
210
0.0
220
0.0
230
1.0
 70
     8
 71
     3
 72
    18
 73
    14
 74
     0
 42
0.000000001
 43
0.0000000001
 40
0.0
 40
0.0
 40
0.0
 40
0.0
 40
0.0679511758644797
 40
0.1729091812640063
 40
0.2783393002040171
 40
0.3845289264068196
 40
0.491997169057204
 40
0.6017797363714095
 40
0.7161784044209696
 40
0.8106879730333048
 40
0.8798332697662259
 40
0.9420426934568237
 40
1.0
 40
1.0
 40
1.0
 40
1.0
 10
141.4771569565147
 20
1190.426003512874
 30
0.0
 10
141.7865189607332
 20
1190.450894369708
 30
0.0
 10
142.4528009361076
 20
1190.505382294222
 30
0.0
 10
143.5407001115417
 20
1190.631866988565
 30
0.0
 10
144.6495843169287
 20
1190.794286898532
 30
0.0
 10
145.6595376170502
 20
1190.984411246871
 30
0.0
 10
146.553026196708
 20
1191.200826735634
 30
0.0
 10
147.332444907859
 20
1191.45023590362
 30
0.0
 10
147.9511870950289
 20
1191.725705276287
 30
0.0
 10
148.410822830658
 20
1192.030279881943
 30
0.0
 10
148.7369709554699
 20
1192.369966072149
 30
0.0
 10
148.9624673189533
 20
1192.776717562376
 30
0.0
 10
148.9925932006496
 20
1193.062019449746
 30
0.0
 10
149.0083641044958
 20
1193.226497399563
 30
0.0
  0
SPLINE
  5
9F
330
6F
100
AcDbEntity
  8
DV1_Default
 62
     7
100
AcDbSpline
210
0.0
220
0.0
230
1.0
 70
     8
 71
     3
 72
    19
 73
    15
 74
     0
 42
0.000000001
 43
0.0000000001
 40
0.0
 40
0.0
 40
0.0
 40
0.0
 40
0.0320307898655163
 40
0.0896104205675845
 40
0.1478294765585304
 40
0.2146689488509572
 40
0.30014064047872
 40
0.4101224260453012
 40
0.5193794737408294
 40
0.6228643561442522
 40
0.7235879749573486
 40
0.8229189983005266
 40
0.921473617308446
 40
1.0
 40
1.0
 40
1.0
 40
1.0
 10
124.0322685536268
 20
1193.2352560248
 30
0.0
 10
124.0266335338189
 20
1193.137908917332
 30
0.0
 10
124.0146675426008
 20
1192.907893274038
 30
0.0
 10
124.1782749128862
 20
1192.529262966436
 30
0.0
 10
124.4356720392532
 20
1192.190417935955
 30
0.0
 10
124.787149149782
 20
1191.899265541199
 30
0.0
 10
125.2754576195141
 20
1191.621833208427
 30
0.0
 10
125.9513716734963
 20
1191.354521090235
 30
0.0
 10
126.8186852584246
 20
1191.106886236752
 30
0.0
 10
127.8055135506038
 20
1190.893779232759
 30
0.0
 10
128.8905798637311
 20
1190.712130252227
 30
0.0
 10
130.0602944051602
 20
1190.560380614966
 30
0.0
 10
131.2581845750295
 20
1190.439659310148
 30
0.0
 10
132.005674700655
 20
1190.388275466072
 30
0.0
 10
132.3982414391299
 20
1190.361879848949
 30
0.0
  0
SPLINE
  5
A0
330
6F
100
AcDbEntity
  8
DV1_Default
 62
     7
100
AcDbSpline
210
0.0
220
0.0
230
1.0
 70
     8
 71
     3
 72
    10
 73
     6
 74
     0
 42
0.000000001
 43
0.0000000001
 40
0.0
 40
0.0
 40
0.0
 40
0.0
 40
0.3249573228723291
 40
0.8396460749394301
 40
1.0
 40
1.0
 40
1.0
 40
1.0
 10
145.6870664523971
 20
1192.821396771282
 30
0.0
 10
145.745483459655
 20
1192.790065397226
 30
0.0
 10
145.8706141609174
 20
1192.724789705954
 30
0.0
 10
145.9262666903089
 20
1192.661801686004
 30
0.0
 10
145.9297374833239
 20
1192.655881707537
 30
0.0
 10
145.9293967619191
 20
1192.656407816348
 30
0.0
  0
SPLINE
  5
A1
330
6F
100
AcDbEntity
  8
DV1_Default
 62
     7
100
AcDbSpline
210
0.0
220
0.0
230
1.0
 70
     8
 71
     3
 72
    10
 73
     6
 74
     0
 42
0.000000001
 43
0.0000000001
 40
0.0
 40
0.0
 40
0.0
 40
0.0
 40
0.0447449828685096
 40
0.6262236302841212
 40
1.0
 40
1.0
 40
1.0
 40
1.0
 10
127.0863001609739
 20
1192.655522137957
 30
0.0
 10
127.0860906342942
 20
1192.655154843434
 30
0.0
 10
127.0847167705567
 20
1192.652551774536
 30
0.0
 10
127.1245432253591
 20
1192.710208284589
 30
0.0
 10
127.2546055840839
 20
1192.780233041722
 30
0.0
 10
127.3161878843441
 20
1192.815107994343
 30
0.0
  0
LINE
  5
A2
330
6F
100
AcDbEntity
  8
DV1_Default
 62
     7
100
AcDbLine
 10
216.3087932457
 20
1040.5159492999
 30
0.0
 11
217.2503564269
 21
1040.5159492999
 31
0.0
  0
SPLINE
  5
A3
330
6F
100
AcDbEntity
  8
DV1_Default
 62
     7
100
AcDbSpline
210
0.0
220
0.0
230
1.0
 70
     8
 71
     3
 72
    24
 73
    20
 74
     0
 42
0.000000001
 43
0.0000000001
 40
0.0
 40
0.0
 40
0.0
 40
0.0
 40
0.0312742629967828
 40
0.0625588372403781
 40
0.1250931301596226
 40
0.1876247527952436
 40
0.250154127063152
 40
0.3126746582480835
 40
0.375188158146436
 40
0.4998280629908718
 40
0.5623331752651148
 40
0.624841332170158
 40
0.687355858961157
 40
0.7498723595000371
 40
0.8123977318377641
 40
0.842068971080429
 40
0.8749528664878585
 40
0.930529878714767
 40
1.0
 40
1.0
 40
1.0
 40
1.0
 10
216.3087932456575
 20
1040.515949299883
 30
0.0
 10
215.8975851751277
 20
1040.606561870744
 30
0.0
 10
215.0750334571592
 20
1040.787816887786
 30
0.0
 10
213.464255425676
 20
1041.251871918688
 30
0.0
 10
211.5089833254144
 20
1041.978923907905
 30
0.0
 10
209.2924745089827
 20
1043.109381058874
 30
0.0
 10
207.2346778624686
 20
1044.501288621295
 30
0.0
 10
205.3687228694639
 20
1046.158531093744
 30
0.0
 10
203.18469256524
 20
1048.696650129462
 30
0.0
 10
201.5032534267319
 20
1051.709514299335
 30
0.0
 10
200.3779296978691
 20
1054.909337685273
 30
0.0
 10
199.7752198507276
 20
1057.337696040201
 30
0.0
 10
199.3783984449553
 20
1059.715938765497
 30
0.0
 10
199.139323404915
 20
1061.983615176504
 30
0.0
 10
199.0330549821287
 20
1063.722555195309
 30
0.0
 10
198.9815493930794
 20
1065.030014790744
 30
0.0
 10
198.9494233195464
 20
1066.194964452683
 30
0.0
 10
198.9287753159257
 20
1067.631879433189
 30
0.0
 10
198.9266182295738
 20
1068.542305268843
 30
0.0
 10
198.9254198570379
 20
1069.048093697956
 30
0.0
  0
SPLINE
  5
A4
330
6F
100
AcDbEntity
  8
DV1_Default
 62
     7
100
AcDbSpline
210
0.0
220
0.0
230
1.0
 70
     8
 71
     3
 72
    15
 73
    11
 74
     0
 42
0.000000001
 43
0.0000000001
 40
0.0
 40
0.0
 40
0.0
 40
0.0
 40
0.1421371280904044
 40
0.2707279390268238
 40
0.3857723401180387
 40
0.487271021377601
 40
0.6153401240007099
 40
0.7309054267439176
 40
0.9744088377524879
 40
1.0
 40
1.0
 40
1.0
 40
1.0
 10
198.9254198570379
 20
1069.048093697956
 30
0.0
 10
198.9257625860257
 20
1069.287142389845
 30
0.0
 10
198.9264153803642
 20
1069.742457342044
 30
0.0
 10
198.9323375640072
 20
1070.281809271074
 30
0.0
 10
198.9419562946723
 20
1070.698217156971
 30
0.0
 10
198.9573696568562
 20
1071.047854917782
 30
0.0
 10
198.9815696675462
 20
1071.328475473858
 30
0.0
 10
199.0330422039926
 20
1071.617940306917
 30
0.0
 10
199.100891906616
 20
1071.721408319099
 30
0.0
 10
199.1707935554881
 20
1071.72759292736
 30
0.0
 10
199.1776533979897
 20
1071.727583880861
 30
0.0
  0
ARC
  5
A5
330
6F
100
AcDbEntity
  8
DV1_Default
 62
     7
100
AcDbCircle
 10
-336.6941911036
 20
1110.6320323777
 30
0.0
 40
554.6194605658981
100
AcDbArc
 50
359.0433658517
 51
1.0079139429
  0
ARC
  5
A6
330
6F
100
AcDbEntity
  8
DV1_Default
 62
     7
100
AcDbCircle
 10
-20872.0140672924
 20
1072.0816945205
 30
0.0
 40
21089.88237292762
100
AcDbArc
 50
359.9807946066
 51
0.0795750732
  0
ARC
  5
A7
330
6F
100
AcDbEntity
  8
DV1_Default
 62
     7
100
AcDbCircle
 10
-18188.431232265
 20
1066.8048670018
 30
0.0
 40
18406.29844037565
100
AcDbArc
 50
359.919137798
 51
359.9944204135
  0
ELLIPSE
  5
A8
330
6F
100
AcDbEntity
  8
DV1_Default
 62
     7
100
AcDbEllipse
 10
217.2503564277
 20
1040.8522987721
 30
0.0
 11
0.5999987108070981
 21
-0.00124379652864659
 31
0.0
210
0.0
220
0.0
230
1.0
 40
0.5605809704
 41
4.71355106350748
 42
6.214136331393143
  0
LINE
  5
A9
330
6F
100
AcDbEntity
  8
DV1_Default
 62
     7
100
AcDbLine
 10
189.3087932457
 20
1047.6849848933
 30
0.0
 11
189.3087932457
 21
1071.1275856223
 31
0.0
  0
ARC
  5
AA
330
6F
100
AcDbEntity
  8
DV1_Default
 62
     7
100
AcDbCircle
 10
204.2521540703
 20
1047.2248280668
 30
0.0
 40
14.95044404162268
100
AcDbArc
 50
178.2362257246
 51
210.2156171478
  0
ELLIPSE
  5
AB
330
6F
100
AcDbEntity
  8
DV1_Default
 62
     7
100
AcDbEllipse
 10
191.8721887475
 20
1039.9287191469
 30
0.0
 11
0.5123964267572806
 21
0.3121696683638028
 31
0.0
210
0.0
220
0.0
230
1.0
 40
0.5475238677
 41
2.876564792895961
 42
3.145432445359315
  0
ARC
  5
AC
330
6F
100
AcDbEntity
  8
DV1_Default
 62
     7
100
AcDbCircle
 10
-1489.705657454
 20
1071.3870191819
 30
0.0
 40
1708.10841950235
100
AcDbArc
 50
0.0764709232
 51
1.0740274039
  0
SPLINE
  5
AD
330
6F
100
AcDbEntity
  8
DV1_Default
 62
     7
100
AcDbSpline
210
0.0
220
0.0
230
1.0
 70
     8
 71
     3
 72
    24
 73
    20
 74
     0
 42
0.000000001
 43
0.0000000001
 40
0.0
 40
0.0
 40
0.0
 40
0.0
 40
0.1250000000000005
 40
0.1250000000000005
 40
0.2500000000000011
 40
0.2500000000000011
 40
0.3750000000000016
 40
0.3750000000000016
 40
0.4375000000000017
 40
0.4375000000000017
 40
0.5000000000000019
 40
0.5000000000000019
 40
0.6250000000000014
 40
0.6250000000000014
 40
0.7500000000000009
 40
0.7500000000000009
 40
0.8750000000000004
 40
0.8750000000000004
 40
1.0
 40
1.0
 40
1.0
 40
1.0
 10
218.6355086499224
 20
1071.505298207954
 30
0.0
 10
218.6224439905367
 20
1071.400855460708
 30
0.0
 10
218.6087045578832
 20
1071.304300461177
 30
0.0
 10
218.5799987110672
 20
1071.135196295516
 30
0.0
 10
218.5650295382513
 20
1071.06251273962
 30
0.0
 10
218.5341612849754
 20
1070.96299086664
 30
0.0
 10
218.5183972156441
 20
1070.937255396577
 30
0.0
 10
218.4955800412767
 20
1070.959772978677
 30
0.0
 10
218.4880281512011
 20
1070.977841761161
 30
0.0
 10
218.4738105267586
 20
1071.036959224516
 30
0.0
 10
218.467118564652
 20
1071.077814995944
 30
0.0
 10
218.4484764646411
 20
1071.235170979478
 30
0.0
 10
218.4379758475881
 20
1071.390012125394
 30
0.0
 10
218.4221420821578
 20
1071.759311525104
 30
0.0
 10
218.416527563468
 20
1071.975992125296
 30
0.0
 10
218.4085379127705
 20
1072.429278696615
 30
0.0
 10
218.4060378250426
 20
1072.668176677402
 30
0.0
 10
218.4026008895543
 20
1073.15884022131
 30
0.0
 10
218.4016682771074
 20
1073.410665272396
 30
0.0
 10
218.40124068566
 20
1073.666778531586
 30
0.0
  0
ARC
  5
AE
330
6F
100
AcDbEntity
  8
DV1_Default
 62
     7
100
AcDbCircle
 10
376.1916207625
 20
1107.3374693182
 30
0.0
 40
158.1378764752857
100
AcDbArc
 50
179.798595347
 51
181.4252404222
  0
ARC
  5
AF
330
6F
100
AcDbEntity
  8
DV1_Default
 62
     7
100
AcDbCircle
 10
191.8777663111
 20
1074.5615288271
 30
0.0
 40
26.93171588789564
100
AcDbArc
 50
353.4839967067
 51
0.4984435435
  0
ARC
  5
B0
330
6F
100
AcDbEntity
  8
DV1_Default
 62
     7
100
AcDbCircle
 10
-613.8993677617
 20
1110.8806992576
 30
0.0
 40
831.9594524709893
100
AcDbArc
 50
359.7942653934
 51
0.0178922741
  0
ARC
  5
B1
330
6F
100
AcDbEntity
  8
DV1_Default
 62
     7
100
AcDbCircle
 10
159.4663378977
 20
1074.5275256637
 30
0.0
 40
59.34273168442897
100
AcDbArc
 50
0.2590386432
 51
4.3831430918
  0
ARC
  5
B2
330
6F
100
AcDbEntity
  8
DV1_Default
 62
     7
100
AcDbCircle
 10
281.8788314215
 20
1084.5257043897
 30
0.0
 40
63.47882175916697
100
AcDbArc
 50
179.6431741313
 51
184.9368753227
  0
ARC
  5
B3
330
6F
100
AcDbEntity
  8
DV1_Default
 62
     7
100
AcDbCircle
 10
-1246.0613904408
 20
1082.8378547934
 30
0.0
 40
1464.464112769979
100
AcDbArc
 50
0.0815024669
 51
1.1598610923
  0
ARC
  5
B4
330
6F
100
AcDbEntity
  8
DV1_Default
 62
     7
100
AcDbCircle
 10
234.0395269539
 20
1113.8004702186
 30
0.0
 40
15.99134218969259
100
AcDbArc
 50
178.5982423596
 51
184.7309467204
  0
ELLIPSE
  5
B5
330
6F
100
AcDbEntity
  8
DV1_Default
 62
     7
100
AcDbEllipse
 10
217.8027529002
 20
1084.8966735759
 30
0.0
 11
-0.5999990295532942
 21
-0.001079138376547384
 31
0.0
210
0.0
220
0.0
230
1.0
 40
0.5548471674
 41
2.680463577044689
 42
3.211591991791387
  0
ARC
  5
B6
330
6F
100
AcDbEntity
  8
DV1_Default
 62
     7
100
AcDbCircle
 10
197.7691655197
 20
1085.3372649101
 30
0.0
 40
16.02635955069581
100
AcDbArc
 50
345.1166219957
 51
359.1256787989
  0
ARC
  5
B7
330
6F
100
AcDbEntity
  8
DV1_Default
 62
     7
100
AcDbCircle
 10
3447.7031760689
 20
964.705534527
 30
0.0
 40
3236.149538725477
100
AcDbArc
 50
177.4541516125
 51
177.8680622643
  0
ARC
  5
B8
330
6F
100
AcDbEntity
  8
DV1_Default
 62
     7
100
AcDbCircle
 10
229.7485178872
 20
1111.4517649984
 30
0.0
 40
15.1462116220072
100
AcDbArc
 50
172.2049805472
 51
180.6996894872
  0
ARC
  5
B9
330
6F
100
AcDbEntity
  8
DV1_Default
 62
     7
100
AcDbCircle
 10
244.1597055981
 20
1111.3877618409
 30
0.0
 40
29.55651746774854
100
AcDbArc
 50
180.2344758712
 51
185.7205344187
  0
ARC
  5
BA
330
6F
100
AcDbEntity
  8
DV1_Default
 62
     7
100
AcDbCircle
 10
192.1984663759
 20
1105.0301253274
 30
0.0
 40
22.79309858435874
100
AcDbArc
 50
355.9090674458
 51
7.3544727937
  0
ARC
  5
BB
330
6F
100
AcDbEntity
  8
DV1_Default
 62
     7
100
AcDbCircle
 10
4033.5129648609
 20
941.9851029266
 30
0.0
 40
3821.989702977917
100
AcDbArc
 50
177.5794342017
 51
178.0249947106
  0
SPLINE
  5
BC
330
6F
100
AcDbEntity
  8
DV1_Default
 62
     7
100
AcDbSpline
210
0.0
220
0.0
230
1.0
 70
     8
 71
     3
 72
    18
 73
    14
 74
     0
 42
0.000000001
 43
0.0000000001
 40
0.0
 40
0.0
 40
0.0
 40
0.0
 40
0.25
 40
0.25
 40
0.5
 40
0.5
 40
0.625
 40
0.625
 40
0.75
 40
0.75
 40
0.875
 40
0.875
 40
1.0
 40
1.0
 40
1.0
 40
1.0
 10
213.7936900986236
 20
1073.704318226182
 30
0.0
 10
213.7820787890452
 20
1073.388828838605
 30
0.0
 10
213.7669541531151
 20
1073.078073353277
 30
0.0
 10
213.7242882570866
 20
1072.480472989287
 30
0.0
 10
213.6968210276176
 20
1072.194514067816
 30
0.0
 10
213.6366142142077
 20
1071.806344049839
 30
0.0
 10
213.6130689841008
 20
1071.683215802063
 30
0.0
 10
213.5591691506715
 20
1071.463719524489
 30
0.0
 10
213.5287414427023
 20
1071.366528431385
 30
0.0
 10
213.4602432401996
 20
1071.201502828886
 30
0.0
 10
213.4223718936036
 20
1071.134777676757
 30
0.0
 10
213.3430370506365
 20
1071.036763139293
 30
0.0
 10
213.3012169435294
 20
1071.00450758974
 30
0.0
 10
213.2578646191766
 20
1070.987284742463
 30
0.0
  0
SPLINE
  5
BD
330
6F
100
AcDbEntity
  8
DV1_Default
 62
     7
100
AcDbSpline
210
0.0
220
0.0
230
1.0
 70
     8
 71
     3
 72
    12
 73
     8
 74
     0
 42
0.000000001
 43
0.0000000001
 40
0.0
 40
0.0
 40
0.0
 40
0.0
 40
0.6383387348320538
 40
0.6383387348320538
 40
0.9575081022480793
 40
0.9575081022480793
 40
1.0
 40
1.0
 40
1.0
 40
1.0
 10
213.1246501033321
 20
1072.090752466966
 30
0.0
 10
213.218333257726
 20
1071.949916584577
 30
0.0
 10
213.3177014163289
 20
1071.824904826935
 30
0.0
 10
213.4787792692067
 20
1071.689652513239
 30
0.0
 10
213.5345245590939
 20
1071.653690350296
 30
0.0
 10
213.6010051129967
 20
1071.631000779213
 30
0.0
 10
213.6088603994224
 20
1071.62862588834
 30
0.0
 10
213.6167579116857
 20
1071.626565277873
 30
0.0
  0
ARC
  5
BE
330
6F
100
AcDbEntity
  8
DV1_Default
 62
     7
100
AcDbCircle
 10
189.5316337876
 20
1088.0612079187
 30
0.0
 40
24.69258589976202
100
AcDbArc
 50
339.0595298322
 51
343.917541248
  0
ARC
  5
BF
330
6F
100
AcDbEntity
  8
DV1_Default
 62
     7
100
AcDbCircle
 10
224.3241567554
 20
1074.5051917796
 30
0.0
 40
12.64887708158658
100
AcDbArc
 50
170.5668250853
 51
178.2947750324
  0
ARC
  5
C0
330
6F
100
AcDbEntity
  8
DV1_Default
 62
     7
100
AcDbCircle
 10
217.7904250474
 20
1074.7391505265
 30
0.0
 40
6.111204022565569
100
AcDbArc
 50
178.6644387494
 51
211.7424221645
  0
SPLINE
  5
C1
330
6F
100
AcDbEntity
  8
DV1_Default
 62
     7
100
AcDbSpline
210
0.0
220
0.0
230
1.0
 70
     8
 71
     3
 72
    14
 73
    10
 74
     0
 42
0.000000001
 43
0.0000000001
 40
0.0
 40
0.0
 40
0.0
 40
0.0
 40
0.1249999999999993
 40
0.1249999999999993
 40
0.2499999999999987
 40
0.2499999999999987
 40
0.4999999999999988
 40
0.4999999999999988
 40
1.0
 40
1.0
 40
1.0
 40
1.0
 10
213.2578646191766
 20
1070.987284742463
 30
0.0
 10
213.2298694357904
 20
1070.976110198698
 30
0.0
 10
213.2007786864407
 20
1070.971395453822
 30
0.0
 10
213.1431055246575
 20
1070.973776317199
 30
0.0
 10
213.1140167888079
 20
1070.980731443124
 30
0.0
 10
213.0270145847863
 20
1071.015655559944
 30
0.0
 10
212.9698783613784
 20
1071.057065537216
 30
0.0
 10
212.8018347758461
 20
1071.213922826175
 30
0.0
 10
212.6943144912667
 20
1071.359869179399
 30
0.0
 10
212.593323838916
 20
1071.524037210579
 30
0.0
  0
ARC
  5
C2
330
6F
100
AcDbEntity
  8
DV1_Default
 62
     7
100
AcDbCircle
 10
217.8191889105
 20
1075.1474532306
 30
0.0
 40
5.601974131496276
100
AcDbArc
 50
178.3406866654
 51
213.0688931367
  0
ARC
  5
C3
330
6F
100
AcDbEntity
  8
DV1_Default
 62
     7
100
AcDbCircle
 10
224.7170092811
 20
1074.9063430629
 30
0.0
 40
12.50395187748248
100
AcDbArc
 50
157.9864358272
 51
178.1515655736
  0
ARC
  5
C4
330
6F
100
AcDbEntity
  8
DV1_Default
 62
     7
100
AcDbCircle
 10
136.6528314616
 20
1108.6313543784
 30
0.0
 40
81.79949432475134
100
AcDbArc
 50
339.2070175162
 51
340.5322234466
  0
ARC
  5
C5
330
6F
100
AcDbEntity
  8
DV1_Default
 62
     7
100
AcDbCircle
 10
204.3809690871
 20
1084.6527741142
 30
0.0
 40
9.951999017245031
100
AcDbArc
 50
340.7365773053
 51
348.5827084181
  0
LINE
  5
C6
330
6F
100
AcDbEntity
  8
DV1_Default
 62
     7
100
AcDbLine
 10
217.230224618
 20
1121.5071962397
 30
0.0
 11
216.5429859801
 21
1121.5071962397
 31
0.0
  0
ARC
  5
C7
330
6F
100
AcDbEntity
  8
DV1_Default
 62
     7
100
AcDbCircle
 10
283.3483562799
 20
1104.1444405538
 30
0.0
 40
69.24507415420628
100
AcDbArc
 50
165.6874144494
 51
172.2398735356
  0
SPLINE
  5
C8
330
6F
100
AcDbEntity
  8
DV1_Default
 62
     7
100
AcDbSpline
210
0.0
220
0.0
230
1.0
 70
     8
 71
     3
 72
    22
 73
    18
 74
     0
 42
0.000000001
 43
0.0000000001
 40
0.0
 40
0.0
 40
0.0
 40
0.0
 40
0.0242897849731277
 40
0.0923685465111065
 40
0.1455998366698147
 40
0.2154052642070434
 40
0.2936414782616128
 40
0.3823411286664506
 40
0.4647160372450868
 40
0.5316937432035539
 40
0.5819937258949268
 40
0.6707606851139454
 40
0.716247345092302
 40
0.7752294959700203
 40
0.8338850157202751
 40
0.9084938657930011
 40
1.0
 40
1.0
 40
1.0
 40
1.0
 10
211.8541295687452
 20
1076.624746779163
 30
0.0
 10
211.8412608906525
 20
1076.579148328839
 30
0.0
 10
211.7887749347555
 20
1076.409163699026
 30
0.0
 10
211.6928528893098
 20
1076.167956314846
 30
0.0
 10
211.5247975899643
 20
1075.862729646763
 30
0.0
 10
211.1721497814608
 20
1075.349907706471
 30
0.0
 10
210.5387573988785
 20
1074.684100880368
 30
0.0
 10
209.632039960863
 20
1073.988492364477
 30
0.0
 10
208.6333301289275
 20
1073.423972132858
 30
0.0
 10
207.6986132299121
 20
1073.003346180293
 30
0.0
 10
206.5778075222854
 20
1072.588461759186
 30
0.0
 10
205.4896004468393
 20
1072.288993959933
 30
0.0
 10
204.3339021987493
 20
1072.061092352236
 30
0.0
 10
203.3397066433526
 20
1071.916795052769
 30
0.0
 10
202.1621232081984
 20
1071.804383468714
 30
0.0
 10
200.7443648631067
 20
1071.735689583543
 30
0.0
 10
199.797317748072
 20
1071.729134059189
 30
0.0
 10
199.1776241993377
 20
1071.727597488989
 30
0.0
  0
SPLINE
  5
C9
330
6F
100
AcDbEntity
  8
DV1_Default
 62
     7
100
AcDbSpline
210
0.0
220
0.0
230
1.0
 70
     8
 71
     3
 72
    18
 73
    14
 74
     0
 42
0.000000001
 43
0.0000000001
 40
0.0
 40
0.0
 40
0.0
 40
0.0
 40
0.0552584009530398
 40
0.1603364750706069
 40
0.2649421965046047
 40
0.3689349144808957
 40
0.4722616717141642
 40
0.574981841388217
 40
0.6773129515236619
 40
0.7796196355527071
 40
0.8821285048914916
 40
0.9665348299284704
 40
1.0
 40
1.0
 40
1.0
 40
1.0
 10
191.3597923206964
 20
1039.61654947857
 30
0.0
 10
191.5312675256022
 20
1039.337635208
 30
0.0
 10
191.9537917227502
 20
1038.652408570673
 30
0.0
 10
192.7121105955639
 20
1037.486945863773
 30
0.0
 10
193.5649580860981
 20
1036.264051261365
 30
0.0
 10
194.3979613748614
 20
1035.16077706785
 30
0.0
 10
195.1963724405191
 20
1034.199291207794
 30
0.0
 10
195.9595461573412
 20
1033.381487145715
 30
0.0
 10
196.6857011553211
 20
1032.713886302145
 30
0.0
 10
197.3811638878016
 20
1032.196550526001
 30
0.0
 10
198.0090773634854
 20
1031.872561534703
 30
0.0
 10
198.5077965271673
 20
1031.714855397031
 30
0.0
 10
198.7559571612548
 20
1031.724028661915
 30
0.0
 10
198.8385589780426
 20
1031.727632894774
 30
0.0
  0
ARC
  5
CA
330
6F
100
AcDbEntity
  8
DV1_Default
 62
     7
100
AcDbCircle
 10
189.9087932457
 20
1071.1275856223
 30
0.0
 40
0.6000000000000033
100
AcDbArc
 50
90.0
 51
180.0
  0
LINE
  5
CB
330
6F
100
AcDbEntity
  8
DV1_Default
 62
     7
100
AcDbLine
 10
198.8382585261
 20
1031.7275856223
 30
0.0
 11
217.2341064469
 21
1031.7275856223
 31
0.0
  0
LINE
  5
CC
330
6F
100
AcDbEntity
  8
DV1_Default
 62
     7
100
AcDbLine
 10
199.1812410011
 20
1071.7275856223
 30
0.0
 11
189.9087932457
 21
1071.7275856223
 31
0.0
  0
ARC
  5
CD
330
6F
100
AcDbEntity
  8
DV1_Default
 62
     7
100
AcDbCircle
 10
-520.8578739622
 20
1091.8331995501
 30
0.0
 40
739.2490283784352
100
AcDbArc
 50
1.7331629755
 51
2.2137070107
  0
ARC
  5
CE
330
6F
100
AcDbEntity
  8
DV1_Default
 62
     7
100
AcDbCircle
 10
-779.561710954
 20
1076.4490848351
 30
0.0
 40
998.3713113881199
100
AcDbArc
 50
357.4688267811
 51
359.9033756285
  0
ARC
  5
CF
330
6F
100
AcDbEntity
  8
DV1_Default
 62
     7
100
AcDbCircle
 10
178.9905662174
 20
1051.7583858363
 30
0.0
 40
20.19999999999999
100
AcDbArc
 50
59.2826468085
 51
64.1580672368
  0
ARC
  5
D0
330
6F
100
AcDbEntity
  8
DV1_Default
 62
     7
100
AcDbCircle
 10
178.9905662174
 20
1051.7583858363
 30
0.0
 40
20.2
100
AcDbArc
 50
295.8419327632
 51
313.7044129291
  0
ARC
  5
D1
330
6F
100
AcDbEntity
  8
DV1_Default
 62
     7
100
AcDbCircle
 10
187.7083641045
 20
1033.7583858363
 30
0.0
 40
0.1999999999999988
100
AcDbArc
 50
198.3005778897
 51
295.8419327653
  0
ARC
  5
D2
330
6F
100
AcDbEntity
  8
DV1_Default
 62
     7
100
AcDbCircle
 10
187.7083641045
 20
1069.7583858363
 30
0.0
 40
0.2000000000000082
100
AcDbArc
 50
64.1580672347
 51
161.6994221102
  0
ELLIPSE
  5
D3
330
6F
100
AcDbEntity
  8
DV1_Default
 62
     7
100
AcDbEllipse
 10
136.5083641045
 20
1232.6188075201
 30
0.0
 11
12.4
 21
2.775557561562891E-14
 31
0.0
210
0.0
220
0.0
230
1.0
 40
0.1736481777
 41
0.0
 42
3.141592653589793
  0
ELLIPSE
  5
D4
330
6F
100
AcDbEntity
  8
DV1_Default
 62
     7
100
AcDbEllipse
 10
136.5083641045
 20
1231.633999767
 30
0.0
 11
12.4
 21
2.775557561562891E-14
 31
0.0
210
0.0
220
0.0
230
1.0
 40
0.1736481777
 41
0.0395793672819567
 42
3.105487997857247
  0
LINE
  5
D5
330
6F
100
AcDbEntity
  8
DV1_Default
 62
     7
100
AcDbLine
 10
148.9083641045
 20
1231.7042690263
 30
0.0
 11
148.9083641045
 21
1232.6188075201
 31
0.0
  0
LINE
  5
D6
330
6F
100
AcDbEntity
  8
DV1_Default
 62
     7
100
AcDbLine
 10
124.1083641045
 20
1232.6188075201
 30
0.0
 11
124.1083641045
 21
1231.6967889358
 31
0.0
  0
LINE
  5
D7
330
6F
100
AcDbEntity
  8
DV1_Default
 62
     7
100
AcDbLine
 10
136.0083641045
 20
1090.8074745728
 30
0.0
 11
136.0083641045
 21
1090.7574745728
 31
0.0
  0
LINE
  5
D8
330
6F
100
AcDbEntity
  8
DV1_Default
 62
     7
100
AcDbLine
 10
137.0083641045
 20
1090.7574745728
 30
0.0
 11
137.0083641045
 21
1090.8074745728
 31
0.0
  0
LINE
  5
D9
330
6F
100
AcDbEntity
  8
DV1_Default
 62
     7
100
AcDbLine
 10
148.7583641045
 20
1090.7574745728
 30
0.0
 11
148.7583641045
 21
1090.8074745728
 31
0.0
  0
LINE
  5
DA
330
6F
100
AcDbEntity
  8
DV1_Default
 62
     7
100
AcDbLine
 10
124.2583641045
 20
1090.8074745728
 30
0.0
 11
124.2583641045
 21
1090.7574745728
 31
0.0
  0
LINE
  5
DB
330
6F
100
AcDbEntity
  8
DV1_Default
 62
     7
100
AcDbLine
 10
124.1083641045
 20
1090.8074745728
 30
0.0
 11
148.9083641045
 21
1090.8074745728
 31
0.0
  0
LINE
  5
DC
330
6F
100
AcDbEntity
  8
DV1_Default
 62
     7
100
AcDbLine
 10
124.1083641045
 20
1192.7647699326
 30
0.0
 11
124.1083641045
 21
1090.8074745728
 31
0.0
  0
LINE
  5
DD
330
6F
100
AcDbEntity
  8
DV1_Default
 62
     7
100
AcDbLine
 10
148.9083641045
 20
1090.8074745728
 30
0.0
 11
148.9083641045
 21
1192.7367578743
 31
0.0
  0
ARC
  5
DE
330
6F
100
AcDbEntity
  8
DV1_Default
 62
     7
100
AcDbCircle
 10
136.5083641045
 20
1328.4074745728
 30
0.0
 40
12.4
100
AcDbArc
 50
0.0
 51
180.0
  0
LINE
  5
DF
330
6F
100
AcDbEntity
  8
DV1_Default
 62
     7
100
AcDbLine
 10
124.1083641045
 20
1328.4074745728
 30
0.0
 11
124.1083641045
 21
1242.4668850502
 31
0.0
  0
LINE
  5
E0
330
6F
100
AcDbEntity
  8
DV1_Default
 62
     7
100
AcDbLine
 10
148.9083641045
 20
1242.4668850502
 30
0.0
 11
148.9083641045
 21
1328.4074745728
 31
0.0
  0
LINE
  5
E1
330
6F
100
AcDbEntity
  8
DV1_Default
 62
     7
100
AcDbLine
 10
148.9083641045
 20
1232.6188075201
 30
0.0
 11
148.9083641045
 21
1242.4668850502
 31
0.0
  0
LINE
  5
E2
330
6F
100
AcDbEntity
  8
DV1_Default
 62
     7
100
AcDbLine
 10
124.1083641045
 20
1242.4668850502
 30
0.0
 11
124.1083641045
 21
1232.6188075201
 31
0.0
  0
ELLIPSE
  5
E3
330
6F
100
AcDbEntity
  8
DV1_Default
 62
     7
100
AcDbEllipse
 10
136.5083641045
 20
1192.3401704219
 30
0.0
 11
-9.0
 21
0.0
 31
0.0
210
0.0
220
0.0
230
1.0
 40
0.1736481777
 41
0.0
 42
6.283185307179586
  0
ELLIPSE
  5
E4
330
6F
100
AcDbEntity
  8
DV1_Default
 62
     7
100
AcDbEllipse
 10
136.5083641045
 20
1192.3401704219
 30
0.0
 11
5.250000000000002
 21
0.0
 31
0.0
210
0.0
220
0.0
230
1.0
 40
0.1736481777
 41
0.0
 42
6.283185307179586
  0
ELLIPSE
  5
E5
330
6F
100
AcDbEntity
  8
DV1_Default
 62
     7
100
AcDbEllipse
 10
136.5083641045
 20
1192.3401704219
 30
0.0
 11
-6.250000000000001
 21
0.0
 31
0.0
210
0.0
220
0.0
230
1.0
 40
0.1736481777
 41
0.0
 42
6.283185307179586
  0
ELLIPSE
  5
E6
330
6F
100
AcDbEntity
  8
DV1_Default
 62
     7
100
AcDbEllipse
 10
136.5083641045
 20
1192.3401704219
 30
0.0
 11
-2.750000000000001
 21
-2.775557561562891E-14
 31
0.0
210
0.0
220
0.0
230
1.0
 40
0.1736481777
 41
0.0
 42
6.283185307179586
  0
ELLIPSE
  5
E7
330
6F
100
AcDbEntity
  8
DV1_Default
 62
     7
100
AcDbEllipse
 10
136.5083641045
 20
1192.3401704219
 30
0.0
 11
2.150000000000001
 21
0.0
 31
0.0
210
0.0
220
0.0
230
1.0
 40
0.1736481777
 41
0.0
 42
6.283185307179586
  0
ELLIPSE
  5
E8
330
6F
100
AcDbEntity
  8
DV1_Default
 62
     7
100
AcDbEllipse
 10
136.5083641045
 20
1192.5371319725
 30
0.0
 11
0.5196299438963558
 21
0.0
 31
0.0
210
0.0
220
0.0
230
1.0
 40
0.1736481777
 41
0.0
 42
6.283185307179586
  0
ELLIPSE
  5
E9
330
6F
100
AcDbEntity
  8
DV1_Default
 62
     7
100
AcDbEllipse
 10
136.5083641045
 20
1192.3401704219
 30
0.0
 11
8.700000000000005
 21
0.0
 31
0.0
210
0.0
220
0.0
230
1.0
 40
0.1736481777
 41
0.0
 42
6.283185307179586
  0
ARC
  5
EA
330
6F
100
AcDbEntity
  8
DV1_Default
 62
     7
100
AcDbCircle
 10
128.2652409837
 20
1192.5371319725
 30
0.0
 40
0.256876225979309
100
AcDbArc
 50
176.1238526717
 51
183.8761473283
  0
ARC
  5
EB
330
6F
100
AcDbEntity
  8
DV1_Default
 62
     7
100
AcDbCircle
 10
130.4476005913
 20
1192.5371319725
 30
0.0
 40
0.1892348465220835
100
AcDbArc
 50
174.7349422715
 51
180.0
  0
ELLIPSE
  5
EC
330
6F
100
AcDbEntity
  8
DV1_Default
 62
     7
100
AcDbEllipse
 10
136.5083641045
 20
1192.5371319725
 30
0.0
 11
-8.50000000003029
 21
-1.304512053934559E-12
 31
0.0
210
0.0
220
0.0
230
1.0
 40
0.1736481777
 41
0.0117649772882631
 42
0.250034410510601
  0
LINE
  5
ED
330
6F
100
AcDbEntity
  8
DV1_Default
 62
     7
100
AcDbLine
 10
130.2591641557
 20
1192.5544967902
 30
0.0
 11
130.2591641557
 21
1192.8099229208
 31
0.0
  0
LINE
  5
EE
330
6F
100
AcDbEntity
  8
DV1_Default
 62
     7
100
AcDbLine
 10
130.2591641557
 20
1192.5544967902
 30
0.0
 11
128.0089523601
 21
1192.5544967902
 31
0.0
  0
LINE
  5
EF
330
6F
100
AcDbEntity
  8
DV1_Default
 62
     7
100
AcDbLine
 10
130.2583641045
 20
1192.5197671547
 30
0.0
 11
128.0089523601
 21
1192.5197671547
 31
0.0
  0
LINE
  5
F0
330
6F
100
AcDbEntity
  8
DV1_Default
 62
     7
100
AcDbLine
 10
137.7925782806
 20
1192.4812472377
 30
0.0
 11
137.0622267251
 21
1192.7009132246
 31
0.0
  0
LINE
  5
F1
330
6F
100
AcDbEntity
  8
DV1_Default
 62
     7
100
AcDbLine
 10
137.7925782806
 20
1192.639596177
 30
0.0
 11
137.7925782806
 21
1192.4812472377
 31
0.0
  0
LINE
  5
F2
330
6F
100
AcDbEntity
  8
DV1_Default
 62
     7
100
AcDbLine
 10
137.3595655788
 20
1192.4378351933
 30
0.0
 11
137.0279940484
 21
1192.5375611224
 31
0.0
  0
ELLIPSE
  5
F3
330
6F
100
AcDbEntity
  8
DV1_Default
 62
     7
100
AcDbEllipse
 10
136.5083641045
 20
1192.7806729929
 30
0.0
 11
2.150000000001532
 21
-7.771561172376096E-13
 31
0.0
210
0.0
220
0.0
230
1.0
 40
0.1736481777
 41
-1.16374025964551
 42
-0.9306548427469803
  0
ELLIPSE
  5
F4
330
6F
100
AcDbEntity
  8
DV1_Default
 62
     7
100
AcDbEllipse
 10
136.5083641045
 20
1192.5371319725
 30
0.0
 11
-8.500000000026468
 21
1.193489751472043E-12
 31
0.0
210
0.0
220
0.0
230
1.0
 40
0.1736481777
 41
6.171271384236254
 42
6.271420329891739
  0
ELLIPSE
  5
F5
330
6F
100
AcDbEntity
  8
DV1_Default
 62
     7
100
AcDbEllipse
 10
136.5083640828
 20
1192.5371319734
 30
0.0
 11
-6.249999978293154
 21
-9.846012893888201E-10
 31
0.0
210
0.0
220
0.0
230
1.0
 40
0.1736481779
 41
-0.2778000710498434
 42
-0.2457987055017004
  0
LINE
  5
F6
330
6F
100
AcDbEntity
  8
DV1_Default
 62
     7
100
AcDbLine
 10
130.4979823848
 20
1192.8347657384
 30
0.0
 11
130.4979823848
 21
1193.1196565686
 31
0.0
  0
LINE
  5
F7
330
6F
100
AcDbEntity
  8
DV1_Default
 62
     7
100
AcDbLine
 10
130.4979823848
 20
1192.8347657384
 30
0.0
 11
128.4939882074
 21
1192.928009361
 31
0.0
  0
LINE
  5
F8
330
6F
100
AcDbEntity
  8
DV1_Default
 62
     7
100
AcDbLine
 10
130.4462185758
 20
1192.8012194865
 30
0.0
 11
128.4176993174
 21
1192.8956042338
 31
0.0
  0
ELLIPSE
  5
F9
330
6F
100
AcDbEntity
  8
DV1_Default
 62
     7
100
AcDbEllipse
 10
136.5083641093
 20
1192.537131972
 30
0.0
 11
-6.250000004833228
 21
3.871625242624077E-10
 31
0.0
210
0.0
220
0.0
230
1.0
 40
0.1736481776
 41
-0.5395994581341101
 42
-0.5075980926576564
  0
LINE
  5
FA
330
6F
100
AcDbEntity
  8
DV1_Default
 62
     7
100
AcDbLine
 10
131.1463981955
 20
1193.0947514373
 30
0.0
 11
131.1463981955
 21
1193.4436700205
 31
0.0
  0
LINE
  5
FB
330
6F
100
AcDbEntity
  8
DV1_Default
 62
     7
100
AcDbLine
 10
131.1463981955
 20
1193.0947514373
 30
0.0
 11
129.5736183644
 21
1193.2524317722
 31
0.0
  0
LINE
  5
FC
330
6F
100
AcDbEntity
  8
DV1_Default
 62
     7
100
AcDbLine
 10
131.0463981955
 20
1193.0646746906
 30
0.0
 11
129.4539350297
 21
1193.2243283945
 31
0.0
  0
ELLIPSE
  5
FD
330
6F
100
AcDbEntity
  8
DV1_Default
 62
     7
100
AcDbEllipse
 10
136.5083641264
 20
1192.5371319686
 30
0.0
 11
-6.2500000232598
 21
2.774780405445654E-9
 31
0.0
210
0.0
220
0.0
230
1.0
 40
0.1736481777
 41
-0.8013988447850267
 42
-0.7693974793737386
  0
LINE
  5
FE
330
6F
100
AcDbEntity
  8
DV1_Default
 62
     7
100
AcDbLine
 10
132.1602231218
 20
1193.3167362911
 30
0.0
 11
132.1602231218
 21
1193.6486952247
 31
0.0
  0
LINE
  5
FF
330
6F
100
AcDbEntity
  8
DV1_Default
 62
     7
100
AcDbLine
 10
132.1602231218
 20
1193.3167362911
 30
0.0
 11
131.027529776
 21
1193.5134264265
 31
0.0
  0
LINE
  5
100
330
6F
100
AcDbEntity
  8
DV1_Default
 62
     7
100
AcDbLine
 10
132.0188017656
 20
1193.2921787303
 30
0.0
 11
130.873014354
 21
1193.4911426264
 31
0.0
  0
ELLIPSE
  5
101
330
6F
100
AcDbEntity
  8
DV1_Default
 62
     7
100
AcDbEllipse
 10
136.5083641333
 20
1192.5371319638
 30
0.0
 11
-6.250000036048723
 21
4.471062409194815E-9
 31
0.0
210
0.0
220
0.0
230
1.0
 40
0.1736481781
 41
-1.063198231744282
 42
-1.031196866401314
  0
LINE
  5
102
330
6F
100
AcDbEntity
  8
DV1_Default
 62
     7
100
AcDbLine
 10
133.4703666705
 20
1193.485592399
 30
0.0
 11
133.4703666705
 21
1193.7558085984
 31
0.0
  0
LINE
  5
103
330
6F
100
AcDbEntity
  8
DV1_Default
 62
     7
100
AcDbLine
 10
133.4703666705
 20
1193.485592399
 30
0.0
 11
132.748921994
 21
1193.7025794865
 31
0.0
  0
LINE
  5
104
330
6F
100
AcDbEntity
  8
DV1_Default
 62
     7
100
AcDbLine
 10
133.2971615897
 20
1193.4682275813
 30
0.0
 11
132.5691838687
 21
1193.687179596
 31
0.0
  0
ELLIPSE
  5
105
330
6F
100
AcDbEntity
  8
DV1_Default
 62
     7
100
AcDbEllipse
 10
136.5083641228
 20
1192.5371319606
 30
0.0
 11
-6.250000037555838
 21
3.165107065328243E-9
 31
0.0
210
0.0
220
0.0
230
1.0
 40
0.1736481785
 41
-1.324997620146734
 42
-1.292996254836238
  0
LINE
  5
106
330
6F
100
AcDbEntity
  8
DV1_Default
 62
     7
100
AcDbLine
 10
134.9875447237
 20
1193.5898124963
 30
0.0
 11
134.9875447237
 21
1193.8276483381
 31
0.0
  0
LINE
  5
107
330
6F
100
AcDbEntity
  8
DV1_Default
 62
     7
100
AcDbLine
 10
134.9875447237
 20
1193.5898124963
 30
0.0
 11
134.6391002773
 21
1193.8156267359
 31
0.0
  0
LINE
  5
108
330
6F
100
AcDbEntity
  8
DV1_Default
 62
     7
100
AcDbLine
 10
134.7943595585
 20
1193.5808238052
 30
0.0
 11
134.4441673167
 21
1193.8077707277
 31
0.0
  0
ARC
  5
109
330
6F
100
AcDbEntity
  8
DV1_Default
 62
     7
100
AcDbCircle
 10
136.5083641045
 20
1157.6345859476
 30
0.0
 40
35.98784714392372
100
AcDbArc
 50
89.8407911065
 51
90.1592088935
  0
LINE
  5
10A
330
6F
100
AcDbEntity
  8
DV1_Default
 62
     7
100
AcDbLine
 10
136.6083641045
 20
1193.6222941554
 30
0.0
 11
136.6083641045
 21
1193.8508097665
 31
0.0
  0
LINE
  5
10B
330
6F
100
AcDbEntity
  8
DV1_Default
 62
     7
100
AcDbLine
 10
136.4083641045
 20
1193.6222941554
 30
0.0
 11
136.4083641045
 21
1193.8508097665
 31
0.0
  0
ELLIPSE
  5
10C
330
6F
100
AcDbEntity
  8
DV1_Default
 62
     7
100
AcDbEllipse
 10
136.5083640877
 20
1192.5371319615
 30
0.0
 11
6.250000034782332
 21
2.920386155125243E-9
 31
0.0
210
0.0
220
0.0
230
1.0
 40
0.1736481785
 41
1.292996254953447
 42
1.324997620277174
  0
LINE
  5
10D
330
6F
100
AcDbEntity
  8
DV1_Default
 62
     7
100
AcDbLine
 10
138.2223686505
 20
1193.5808238052
 30
0.0
 11
138.5725608923
 21
1193.8077707277
 31
0.0
  0
LINE
  5
10E
330
6F
100
AcDbEntity
  8
DV1_Default
 62
     7
100
AcDbLine
 10
138.0291834853
 20
1193.5898124963
 30
0.0
 11
138.3776279317
 21
1193.8156267359
 31
0.0
  0
LINE
  5
10F
330
6F
100
AcDbEntity
  8
DV1_Default
 62
     7
100
AcDbLine
 10
138.0291834853
 20
1193.5898124963
 30
0.0
 11
138.0291834853
 21
1193.8276483381
 31
0.0
  0
ELLIPSE
  5
110
330
6F
100
AcDbEntity
  8
DV1_Default
 62
     7
100
AcDbEllipse
 10
136.5083640752
 20
1192.5371319637
 30
0.0
 11
6.25000003657331
 21
4.536176989589080E-9
 31
0.0
210
0.0
220
0.0
230
1.0
 40
0.1736481781
 41
1.03119686637525
 42
1.063198231715991
  0
LINE
  5
111
330
6F
100
AcDbEntity
  8
DV1_Default
 62
     7
100
AcDbLine
 10
139.7195666193
 20
1193.4682275813
 30
0.0
 11
140.4475443403
 21
1193.687179596
 31
0.0
  0
LINE
  5
112
330
6F
100
AcDbEntity
  8
DV1_Default
 62
     7
100
AcDbLine
 10
139.5463615385
 20
1193.485592399
 30
0.0
 11
140.267806215
 21
1193.7025794865
 31
0.0
  0
LINE
  5
113
330
6F
100
AcDbEntity
  8
DV1_Default
 62
     7
100
AcDbLine
 10
139.5463615385
 20
1193.485592399
 30
0.0
 11
139.5463615385
 21
1193.7558085984
 31
0.0
  0
ELLIPSE
  5
114
330
6F
100
AcDbEntity
  8
DV1_Default
 62
     7
100
AcDbEllipse
 10
136.5083641005
 20
1192.5371319718
 30
0.0
 11
6.250000004199784
 21
4.987399382372359E-10
 31
0.0
210
0.0
220
0.0
230
1.0
 40
0.1736481777
 41
0.7693974804220503
 42
0.8013988458983398
  0
LINE
  5
115
330
6F
100
AcDbEntity
  8
DV1_Default
 62
     7
100
AcDbLine
 10
140.9979264434
 20
1193.2921787303
 30
0.0
 11
142.143713855
 21
1193.4911426264
 31
0.0
  0
LINE
  5
116
330
6F
100
AcDbEntity
  8
DV1_Default
 62
     7
100
AcDbLine
 10
140.8565050872
 20
1193.3167362911
 30
0.0
 11
141.989198433
 21
1193.5134264265
 31
0.0
  0
LINE
  5
117
330
6F
100
AcDbEntity
  8
DV1_Default
 62
     7
100
AcDbLine
 10
140.8565050872
 20
1193.3167362911
 30
0.0
 11
140.8565050872
 21
1193.6486952247
 31
0.0
  0
ELLIPSE
  5
118
330
6F
100
AcDbEntity
  8
DV1_Default
 62
     7
100
AcDbEllipse
 10
136.5083640762
 20
1192.5371319697
 30
0.0
 11
6.250000028610873
 21
2.494116024820414E-9
 31
0.0
210
0.0
220
0.0
230
1.0
 40
0.1736481774
 41
0.5075980916929081
 42
0.5395994570997843
  0
LINE
  5
119
330
6F
100
AcDbEntity
  8
DV1_Default
 62
     7
100
AcDbLine
 10
141.9703300135
 20
1193.0646746906
 30
0.0
 11
143.5627931793
 21
1193.2243283945
 31
0.0
  0
LINE
  5
11A
330
6F
100
AcDbEntity
  8
DV1_Default
 62
     7
100
AcDbLine
 10
141.8703300135
 20
1193.0947514373
 30
0.0
 11
143.4431098446
 21
1193.2524317722
 31
0.0
  0
LINE
  5
11B
330
6F
100
AcDbEntity
  8
DV1_Default
 62
     7
100
AcDbLine
 10
141.8703300135
 20
1193.0947514373
 30
0.0
 11
141.8703300135
 21
1193.4436700205
 31
0.0
  0
ELLIPSE
  5
11C
330
6F
100
AcDbEntity
  8
DV1_Default
 62
     7
100
AcDbEllipse
 10
136.5083640738
 20
1192.537131971
 30
0.0
 11
6.250000030690036
 21
1.442457264744235E-9
 31
0.0
210
0.0
220
0.0
230
1.0
 40
0.1736481773
 41
0.2457987044192489
 42
0.2778000698286082
  0
LINE
  5
11D
330
6F
100
AcDbEntity
  8
DV1_Default
 62
     7
100
AcDbLine
 10
142.5705096332
 20
1192.8012194865
 30
0.0
 11
144.5990288916
 21
1192.8956042338
 31
0.0
  0
LINE
  5
11E
330
6F
100
AcDbEntity
  8
DV1_Default
 62
     7
100
AcDbLine
 10
142.5187458242
 20
1192.8347657384
 30
0.0
 11
144.5227400016
 21
1192.928009361
 31
0.0
  0
LINE
  5
11F
330
6F
100
AcDbEntity
  8
DV1_Default
 62
     7
100
AcDbLine
 10
142.5187458242
 20
1192.8347657384
 30
0.0
 11
142.5187458242
 21
1193.1196565686
 31
0.0
  0
ARC
  5
120
330
6F
100
AcDbEntity
  8
DV1_Default
 62
     7
100
AcDbCircle
 10
144.7514872253
 20
1192.5371319725
 30
0.0
 40
0.2568762259794977
100
AcDbArc
 50
356.1238526717
 51
3.8761473283
  0
ELLIPSE
  5
121
330
6F
100
AcDbEntity
  8
DV1_Default
 62
     7
100
AcDbEllipse
 10
136.5083641045
 20
1192.5371319725
 30
0.0
 11
8.500000000035403
 21
1.415534356397075E-12
 31
0.0
210
0.0
220
0.0
230
1.0
 40
0.1736481777
 41
0.0117649772882062
 42
0.1119139229433102
  0
ARC
  5
122
330
6F
100
AcDbEntity
  8
DV1_Default
 62
     7
100
AcDbCircle
 10
142.5691276177
 20
1192.5371319725
 30
0.0
 40
0.1892348465220819
100
AcDbArc
 50
0.0
 51
5.2650577285
  0
LINE
  5
123
330
6F
100
AcDbEntity
  8
DV1_Default
 62
     7
100
AcDbLine
 10
142.7583641045
 20
1192.5197671547
 30
0.0
 11
145.0077758488
 21
1192.5197671547
 31
0.0
  0
LINE
  5
124
330
6F
100
AcDbEntity
  8
DV1_Default
 62
     7
100
AcDbLine
 10
142.7575640533
 20
1192.5544967902
 30
0.0
 11
145.0077758488
 21
1192.5544967902
 31
0.0
  0
LINE
  5
125
330
6F
100
AcDbEntity
  8
DV1_Default
 62
     7
100
AcDbLine
 10
142.7575640533
 20
1192.5544967902
 30
0.0
 11
142.7575640533
 21
1192.8099229208
 31
0.0
  0
ELLIPSE
  5
126
330
6F
100
AcDbEntity
  8
DV1_Default
 62
     7
100
AcDbEllipse
 10
136.508364495
 20
1192.5371319544
 30
0.0
 11
8.499999609235827
 21
1.798430848687360E-8
 31
0.0
210
0.0
220
0.0
230
1.0
 40
0.1736481812
 41
-0.273564371681271
 42
-0.2500344165455459
  0
ELLIPSE
  5
127
330
6F
100
AcDbEntity
  8
DV1_Default
 62
     7
100
AcDbEllipse
 10
136.5083641045
 20
1192.5371319725
 30
0.0
 11
8.500000000025572
 21
-1.193489751472043E-12
 31
0.0
210
0.0
220
0.0
230
1.0
 40
0.1736481777
 41
6.033150896668927
 42
6.271420329891314
  0
LINE
  5
128
330
6F
100
AcDbEntity
  8
DV1_Default
 62
     7
100
AcDbLine
 10
144.7440473211
 20
1192.1719121647
 30
0.0
 11
144.7440473211
 21
1192.5197671547
 31
0.0
  0
LINE
  5
129
330
6F
100
AcDbEntity
  8
DV1_Default
 62
     7
100
AcDbLine
 10
142.7259938119
 20
1192.2298551879
 30
0.0
 11
144.6922835121
 21
1192.1383659128
 31
0.0
  0
LINE
  5
12A
330
6F
100
AcDbEntity
  8
DV1_Default
 62
     7
100
AcDbLine
 10
142.7433554893
 20
1192.2650021328
 30
0.0
 11
144.7440473211
 21
1192.1719121647
 31
0.0
  0
ELLIPSE
  5
12B
330
6F
100
AcDbEntity
  8
DV1_Default
 62
     7
100
AcDbEllipse
 10
136.5083645131
 20
1192.5371319314
 30
0.0
 11
8.499999587160357
 21
3.664360481714368E-8
 31
0.0
210
0.0
220
0.0
230
1.0
 40
0.1736481801
 41
-0.535363765980124
 42
-0.5118338107508658
  0
ELLIPSE
  5
12C
330
6F
100
AcDbEntity
  8
DV1_Default
 62
     7
100
AcDbEllipse
 10
136.5083641045
 20
1192.5371319725
 30
0.0
 11
8.500000000024709
 21
-1.998401444325282E-12
 31
0.0
210
0.0
220
0.0
230
1.0
 40
0.1736481777
 41
-0.5118337983094143
 42
-0.2735643650868118
  0
LINE
  5
12D
330
6F
100
AcDbEntity
  8
DV1_Default
 62
     7
100
AcDbLine
 10
143.9190705923
 20
1191.8142166654
 30
0.0
 11
143.9190705923
 21
1192.1743426509
 31
0.0
  0
LINE
  5
12E
330
6F
100
AcDbEntity
  8
DV1_Default
 62
     7
100
AcDbLine
 10
142.307966694
 20
1191.9356368825
 30
0.0
 11
143.8190705923
 21
1191.7841399188
 31
0.0
  0
LINE
  5
12F
330
6F
100
AcDbEntity
  8
DV1_Default
 62
     7
100
AcDbLine
 10
142.3803982571
 20
1191.9684775254
 30
0.0
 11
143.9190705923
 21
1191.8142166654
 31
0.0
  0
ELLIPSE
  5
130
330
6F
100
AcDbEntity
  8
DV1_Default
 62
     7
100
AcDbEllipse
 10
136.5083644383
 20
1192.5371319146
 30
0.0
 11
8.499999645910652
 21
4.219979921060713E-8
 31
0.0
210
0.0
220
0.0
230
1.0
 40
0.1736481777
 41
-0.7971631557616936
 42
-0.7736332005320214
  0
ELLIPSE
  5
131
330
6F
100
AcDbEntity
  8
DV1_Default
 62
     7
100
AcDbEllipse
 10
136.5083641045
 20
1192.5371319725
 30
0.0
 11
8.50000000001498
 21
-1.165734175856415E-12
 31
0.0
210
0.0
220
0.0
230
1.0
 40
0.1736481777
 41
-0.7736331861086656
 42
-0.5353637528859432
  0
LINE
  5
132
330
6F
100
AcDbEntity
  8
DV1_Default
 62
     7
100
AcDbLine
 10
142.5890664631
 20
1191.5057866497
 30
0.0
 11
142.5890664631
 21
1191.907454994
 31
0.0
  0
LINE
  5
133
330
6F
100
AcDbEntity
  8
DV1_Default
 62
     7
100
AcDbLine
 10
141.396230078
 20
1191.6638053927
 30
0.0
 11
142.4476451069
 21
1191.4812290889
 31
0.0
  0
LINE
  5
134
330
6F
100
AcDbEntity
  8
DV1_Default
 62
     7
100
AcDbLine
 10
141.5193496107
 20
1191.6915410318
 30
0.0
 11
142.5890664631
 21
1191.5057866497
 31
0.0
  0
ELLIPSE
  5
135
330
6F
100
AcDbEntity
  8
DV1_Default
 62
     7
100
AcDbEllipse
 10
136.5083643234
 20
1192.5371319066
 30
0.0
 11
8.499999726415128
 21
3.396075087813699E-8
 31
0.0
210
0.0
220
0.0
230
1.0
 40
0.1736481754
 41
-1.058962540638207
 42
-1.035432585456222
  0
ELLIPSE
  5
136
330
6F
100
AcDbEntity
  8
DV1_Default
 62
     7
100
AcDbEllipse
 10
136.5083641045
 20
1192.5371319725
 30
0.0
 11
8.500000000017188
 21
-1.443289932012704E-12
 31
0.0
210
0.0
220
0.0
230
1.0
 40
0.1736481777
 41
-1.035432573907622
 42
-0.797163140684999
  0
LINE
  5
137
330
6F
100
AcDbEntity
  8
DV1_Default
 62
     7
100
AcDbLine
 10
140.844672517
 20
1191.2676411134
 30
0.0
 11
140.844672517
 21
1191.5585813563
 31
0.0
  0
LINE
  5
138
330
6F
100
AcDbEntity
  8
DV1_Default
 62
     7
100
AcDbLine
 10
140.0291684037
 20
1191.4434589483
 30
0.0
 11
140.6714674363
 21
1191.2502762956
 31
0.0
  0
LINE
  5
139
330
6F
100
AcDbEntity
  8
DV1_Default
 62
     7
100
AcDbLine
 10
140.1932606582
 20
1191.4635646077
 30
0.0
 11
140.844672517
 21
1191.2676411134
 31
0.0
  0
ELLIPSE
  5
13A
330
6F
100
AcDbEntity
  8
DV1_Default
 62
     7
100
AcDbEllipse
 10
136.5083642171
 20
1192.5371318996
 30
0.0
 11
8.499999768015117
 21
1.945787975188296E-8
 31
0.0
210
0.0
220
0.0
230
1.0
 40
0.1736481738
 41
-1.320761923387496
 42
-1.297231968209477
  0
ELLIPSE
  5
13B
330
6F
100
AcDbEntity
  8
DV1_Default
 62
     7
100
AcDbEllipse
 10
136.5083641045
 20
1192.5371319725
 30
0.0
 11
8.499999999997979
 21
1.387778780781446E-13
 31
0.0
210
0.0
220
0.0
230
1.0
 40
0.1736481777
 41
-1.297231961707775
 42
-1.058962528484778
  0
LINE
  5
13C
330
6F
100
AcDbEntity
  8
DV1_Default
 62
     7
100
AcDbLine
 10
138.8047663187
 20
1191.1160092811
 30
0.0
 11
138.8047663187
 21
1191.3307824241
 31
0.0
  0
LINE
  5
13D
330
6F
100
AcDbEntity
  8
DV1_Default
 62
     7
100
AcDbLine
 10
138.3121786591
 20
1191.3010525148
 30
0.0
 11
138.6115811535
 21
1191.10702059
 31
0.0
  0
LINE
  5
13E
330
6F
100
AcDbEntity
  8
DV1_Default
 62
     7
100
AcDbLine
 10
138.5029294401
 20
1191.3116188422
 30
0.0
 11
138.8047663187
 21
1191.1160092811
 31
0.0
  0
ARC
  5
13F
330
6F
100
AcDbEntity
  8
DV1_Default
 62
     7
100
AcDbCircle
 10
136.5083641045
 20
1240.0073860871
 30
0.0
 40
48.94626362829068
100
AcDbArc
 50
269.8829413828
 51
270.1170586172
  0
ELLIPSE
  5
140
330
6F
100
AcDbEntity
  8
DV1_Default
 62
     7
100
AcDbEllipse
 10
136.5083641045
 20
1192.5371319725
 30
0.0
 11
8.499999999991202
 21
3.608224830031759E-13
 31
0.0
210
0.0
220
0.0
230
1.0
 40
0.1736481777
 41
4.724153957672553
 42
4.962423390895769
  0
LINE
  5
141
330
6F
100
AcDbEntity
  8
DV1_Default
 62
     7
100
AcDbLine
 10
136.4083641045
 20
1191.2550082389
 30
0.0
 11
136.4083641045
 21
1191.0612246118
 31
0.0
  0
LINE
  5
142
330
6F
100
AcDbEntity
  8
DV1_Default
 62
     7
100
AcDbLine
 10
136.6083641045
 20
1191.2550082389
 30
0.0
 11
136.6083641045
 21
1191.0612246118
 31
0.0
  0
ELLIPSE
  5
143
330
6F
100
AcDbEntity
  8
DV1_Default
 62
     7
100
AcDbEllipse
 10
136.5083639909
 20
1192.5371318987
 30
0.0
 11
-8.499999765681528
 21
1.967387364132378E-8
 31
0.0
210
0.0
220
0.0
230
1.0
 40
0.1736481738
 41
1.297231968256984
 42
1.320761923441149
  0
ELLIPSE
  5
144
330
6F
100
AcDbEntity
  8
DV1_Default
 62
     7
100
AcDbEllipse
 10
136.5083641045
 20
1192.5371319725
 30
0.0
 11
-8.49999999998877
 21
4.718447854656915E-13
 31
0.0
210
0.0
220
0.0
230
1.0
 40
0.1736481777
 41
1.320761916283857
 42
1.559031349507139
  0
LINE
  5
145
330
6F
100
AcDbEntity
  8
DV1_Default
 62
     7
100
AcDbLine
 10
134.2119618903
 20
1191.1160092811
 30
0.0
 11
134.2119618903
 21
1191.3307824241
 31
0.0
  0
LINE
  5
146
330
6F
100
AcDbEntity
  8
DV1_Default
 62
     7
100
AcDbLine
 10
134.5137987689
 20
1191.3116188422
 30
0.0
 11
134.2119618903
 21
1191.1160092811
 31
0.0
  0
LINE
  5
147
330
6F
100
AcDbEntity
  8
DV1_Default
 62
     7
100
AcDbLine
 10
134.7045495499
 20
1191.3010525148
 30
0.0
 11
134.4051470555
 21
1191.10702059
 31
0.0
  0
ELLIPSE
  5
148
330
6F
100
AcDbEntity
  8
DV1_Default
 62
     7
100
AcDbEllipse
 10
136.5083638692
 20
1192.5371319017
 30
0.0
 11
-8.499999705944909
 21
3.649261448579466E-8
 31
0.0
210
0.0
220
0.0
230
1.0
 40
0.1736481753
 41
1.035432586313517
 42
1.058962541540911
  0
ELLIPSE
  5
149
330
6F
100
AcDbEntity
  8
DV1_Default
 62
     7
100
AcDbEllipse
 10
136.5083641045
 20
1192.5371319725
 30
0.0
 11
-8.500000000000101
 21
-1.387778780781446E-13
 31
0.0
210
0.0
220
0.0
230
1.0
 40
0.1736481777
 41
1.058962528484663
 42
1.297231961707627
  0
LINE
  5
14A
330
6F
100
AcDbEntity
  8
DV1_Default
 62
     7
100
AcDbLine
 10
132.1720556919
 20
1191.2676411134
 30
0.0
 11
132.1720556919
 21
1191.5585813563
 31
0.0
  0
LINE
  5
14B
330
6F
100
AcDbEntity
  8
DV1_Default
 62
     7
100
AcDbLine
 10
132.8234675508
 20
1191.4635646077
 30
0.0
 11
132.1720556919
 21
1191.2676411134
 31
0.0
  0
LINE
  5
14C
330
6F
100
AcDbEntity
  8
DV1_Default
 62
     7
100
AcDbLine
 10
132.9875598052
 20
1191.4434589483
 30
0.0
 11
132.3452607727
 21
1191.2502762956
 31
0.0
  0
ELLIPSE
  5
14D
330
6F
100
AcDbEntity
  8
DV1_Default
 62
     7
100
AcDbEllipse
 10
136.508363819
 20
1192.5371319229
 30
0.0
 11
-8.499999697139847
 21
3.615110988341996E-8
 31
0.0
210
0.0
220
0.0
230
1.0
 40
0.1736481777
 41
0.7736331984383105
 42
0.7971631535735901
  0
ELLIPSE
  5
14E
330
6F
100
AcDbEntity
  8
DV1_Default
 62
     7
100
AcDbEllipse
 10
136.5083641045
 20
1192.5371319725
 30
0.0
 11
-8.500000000009731
 21
-1.693090112553364E-12
 31
0.0
210
0.0
220
0.0
230
1.0
 40
0.1736481777
 41
0.7971631406852167
 42
1.035432573907971
  0
LINE
  5
14F
330
6F
100
AcDbEntity
  8
DV1_Default
 62
     7
100
AcDbLine
 10
130.4276617459
 20
1191.5057866497
 30
0.0
 11
130.4276617459
 21
1191.907454994
 31
0.0
  0
LINE
  5
150
330
6F
100
AcDbEntity
  8
DV1_Default
 62
     7
100
AcDbLine
 10
131.4973785983
 20
1191.6915410318
 30
0.0
 11
130.4276617459
 21
1191.5057866497
 31
0.0
  0
LINE
  5
151
330
6F
100
AcDbEntity
  8
DV1_Default
 62
     7
100
AcDbLine
 10
131.620498131
 20
1191.6638053927
 30
0.0
 11
130.5690831021
 21
1191.4812290889
 31
0.0
  0
ELLIPSE
  5
152
330
6F
100
AcDbEntity
  8
DV1_Default
 62
     7
100
AcDbEllipse
 10
136.5083637553
 20
1192.5371319374
 30
0.0
 11
-8.499999647146904
 21
3.132694104124312E-8
 31
0.0
210
0.0
220
0.0
230
1.0
 40
0.1736481797
 41
0.511833808940195
 42
0.5353637640746518
  0
ELLIPSE
  5
153
330
6F
100
AcDbEntity
  8
DV1_Default
 62
     7
100
AcDbEllipse
 10
136.5083641045
 20
1192.5371319725
 30
0.0
 11
-8.500000000041537
 21
-4.912736883966318E-12
 31
0.0
210
0.0
220
0.0
230
1.0
 40
0.1736481777
 41
0.5353637528851758
 42
0.7736331861074426
  0
LINE
  5
154
330
6F
100
AcDbEntity
  8
DV1_Default
 62
     7
100
AcDbLine
 10
129.0976576167
 20
1191.8142166654
 30
0.0
 11
129.0976576167
 21
1192.1743426509
 31
0.0
  0
LINE
  5
155
330
6F
100
AcDbEntity
  8
DV1_Default
 62
     7
100
AcDbLine
 10
130.6363299519
 20
1191.9684775254
 30
0.0
 11
129.0976576167
 21
1191.8142166654
 31
0.0
  0
LINE
  5
156
330
6F
100
AcDbEntity
  8
DV1_Default
 62
     7
100
AcDbLine
 10
130.708761515
 20
1191.9356368825
 30
0.0
 11
129.1976576167
 21
1191.7841399188
 31
0.0
  0
ELLIPSE
  5
157
330
6F
100
AcDbEntity
  8
DV1_Default
 62
     7
100
AcDbEllipse
 10
136.5083635827
 20
1192.5371319483
 30
0.0
 11
-8.499999477851247
 21
2.406963517387339E-8
 31
0.0
210
0.0
220
0.0
230
1.0
 40
0.1736481825
 41
0.2500344185752787
 42
0.2735643738991315
  0
ELLIPSE
  5
158
330
6F
100
AcDbEntity
  8
DV1_Default
 62
     7
100
AcDbEllipse
 10
136.5083641045
 20
1192.5371319725
 30
0.0
 11
-8.500000000024754
 21
-1.998401444325282E-12
 31
0.0
210
0.0
220
0.0
230
1.0
 40
0.1736481777
 41
0.2735643650868189
 42
0.5118337983094436
  0
LINE
  5
159
330
6F
100
AcDbEntity
  8
DV1_Default
 62
     7
100
AcDbLine
 10
128.2726808879
 20
1192.1719121647
 30
0.0
 11
128.2726808879
 21
1192.5197671547
 31
0.0
  0
LINE
  5
15A
330
6F
100
AcDbEntity
  8
DV1_Default
 62
     7
100
AcDbLine
 10
130.2733727197
 20
1192.2650021328
 30
0.0
 11
128.2726808879
 21
1192.1719121647
 31
0.0
  0
LINE
  5
15B
330
6F
100
AcDbEntity
  8
DV1_Default
 62
     7
100
AcDbLine
 10
130.2907343971
 20
1192.2298551879
 30
0.0
 11
128.3244446969
 21
1192.1383659128
 31
0.0
  0
LINE
  5
15C
330
6F
100
AcDbEntity
  8
DV1_Default
 62
     7
100
AcDbLine
 10
133.763937935
 20
1192.7771871366
 30
0.0
 11
133.763937935
 21
1192.5675204035
 31
0.0
  0
ELLIPSE
  5
15D
330
6F
100
AcDbEntity
  8
DV1_Default
 62
     7
100
AcDbEllipse
 10
136.5083641045
 20
1192.5371319725
 30
0.0
 11
2.750000000002432
 21
0.0
 31
0.0
210
0.0
220
0.0
230
1.0
 40
0.1736481777
 41
3.077913261332979
 42
3.141592653589793
  0
LINE
  5
15E
330
6F
100
AcDbEntity
  8
DV1_Default
 62
     7
100
AcDbLine
 10
133.763937935
 20
1192.5675204035
 30
0.0
 11
131.4242370631
 21
1192.5675204035
 31
0.0
  0
LINE
  5
15F
330
6F
100
AcDbEntity
  8
DV1_Default
 62
     7
100
AcDbLine
 10
133.7583641045
 20
1192.5067435414
 30
0.0
 11
131.3467435035
 21
1192.5067435414
 31
0.0
  0
LINE
  5
160
330
6F
100
AcDbEntity
  8
DV1_Default
 62
     7
100
AcDbLine
 10
134.2191213229
 20
1193.1605890124
 30
0.0
 11
134.2191213229
 21
1192.8017314273
 31
0.0
  0
ELLIPSE
  5
161
330
6F
100
AcDbEntity
  8
DV1_Default
 62
     7
100
AcDbEllipse
 10
136.5083641046
 20
1192.5371319725
 30
0.0
 11
-2.750000000080073
 21
3.358424649491099E-12
 31
0.0
210
0.0
220
0.0
230
1.0
 40
0.1736481777
 41
-0.5872781678468924
 42
-0.4599193833349098
  0
LINE
  5
162
330
6F
100
AcDbEntity
  8
DV1_Default
 62
     7
100
AcDbLine
 10
134.2191213229
 20
1192.8017314273
 30
0.0
 11
132.6522199196
 21
1192.9588224157
 31
0.0
  0
LINE
  5
163
330
6F
100
AcDbEntity
  8
DV1_Default
 62
     7
100
AcDbLine
 10
134.0441213229
 20
1192.7490971207
 30
0.0
 11
132.4194530815
 21
1192.9119795709
 31
0.0
  0
LINE
  5
164
330
6F
100
AcDbEntity
  8
DV1_Default
 62
     7
100
AcDbLine
 10
135.2877054654
 20
1193.2268393825
 30
0.0
 11
135.2877054654
 21
1192.9650432408
 31
0.0
  0
ELLIPSE
  5
165
330
6F
100
AcDbEntity
  8
DV1_Default
 62
     7
100
AcDbEllipse
 10
136.5083641045
 20
1192.5371319724
 30
0.0
 11
-2.750000000058291
 21
7.355227538141662E-12
 31
0.0
210
0.0
220
0.0
230
1.0
 40
0.1736481777
 41
-1.110876943444667
 42
-0.9835181589327924
  0
LINE
  5
166
330
6F
100
AcDbEntity
  8
DV1_Default
 62
     7
100
AcDbLine
 10
135.2877054654
 20
1192.9650432408
 30
0.0
 11
134.5524246948
 21
1193.1861917752
 31
0.0
  0
LINE
  5
167
330
6F
100
AcDbEntity
  8
DV1_Default
 62
     7
100
AcDbLine
 10
134.9845965741
 20
1192.9346548097
 30
0.0
 11
134.2302894319
 21
1193.1615258577
 31
0.0
  0
ARC
  5
168
330
6F
100
AcDbEntity
  8
DV1_Default
 62
     7
100
AcDbCircle
 10
136.5083641045
 20
1177.2091761572
 30
0.0
 40
15.80548925698495
100
AcDbArc
 50
89.3656022836
 51
90.6343977164
  0
LINE
  5
169
330
6F
100
AcDbEntity
  8
DV1_Default
 62
     7
100
AcDbLine
 10
136.6833641045
 20
1193.0136965755
 30
0.0
 11
136.6833641045
 21
1193.25131674
 31
0.0
  0
LINE
  5
16A
330
6F
100
AcDbEntity
  8
DV1_Default
 62
     7
100
AcDbLine
 10
136.3333641045
 20
1193.0136965755
 30
0.0
 11
136.3333641045
 21
1193.25131674
 31
0.0
  0
ELLIPSE
  5
16B
330
6F
100
AcDbEntity
  8
DV1_Default
 62
     7
100
AcDbEllipse
 10
136.5083641045
 20
1192.5371319725
 30
0.0
 11
2.749999999998534
 21
-1.387778780781446E-13
 31
0.0
210
0.0
220
0.0
230
1.0
 40
0.1736481777
 41
0.983518158939833
 42
1.110876943453915
  0
LINE
  5
16C
330
6F
100
AcDbEntity
  8
DV1_Default
 62
     7
100
AcDbLine
 10
137.7290227436
 20
1193.2268393825
 30
0.0
 11
137.7290227436
 21
1192.9650432408
 31
0.0
  0
LINE
  5
16D
330
6F
100
AcDbEntity
  8
DV1_Default
 62
     7
100
AcDbLine
 10
138.0321316349
 20
1192.9346548097
 30
0.0
 11
138.7864387771
 21
1193.1615258577
 31
0.0
  0
LINE
  5
16E
330
6F
100
AcDbEntity
  8
DV1_Default
 62
     7
100
AcDbLine
 10
137.7290227436
 20
1192.9650432408
 30
0.0
 11
138.4643035142
 21
1193.1861917752
 31
0.0
  0
ELLIPSE
  5
16F
330
6F
100
AcDbEntity
  8
DV1_Default
 62
     7
100
AcDbEllipse
 10
136.5083641045
 20
1192.5371319725
 30
0.0
 11
2.749999999995302
 21
1.942890293094024E-12
 31
0.0
210
0.0
220
0.0
230
1.0
 40
0.1736481777
 41
0.459919383341596
 42
0.5872781678556948
  0
LINE
  5
170
330
6F
100
AcDbEntity
  8
DV1_Default
 62
     7
100
AcDbLine
 10
138.7976068861
 20
1193.1605890124
 30
0.0
 11
138.7976068861
 21
1192.8017314273
 31
0.0
  0
LINE
  5
171
330
6F
100
AcDbEntity
  8
DV1_Default
 62
     7
100
AcDbLine
 10
138.9726068861
 20
1192.7490971207
 30
0.0
 11
140.5972751274
 21
1192.9119795709
 31
0.0
  0
LINE
  5
172
330
6F
100
AcDbEntity
  8
DV1_Default
 62
     7
100
AcDbLine
 10
138.7976068861
 20
1192.8017314273
 30
0.0
 11
140.3645082894
 21
1192.9588224157
 31
0.0
  0
ELLIPSE
  5
173
330
6F
100
AcDbEntity
  8
DV1_Default
 62
     7
100
AcDbEllipse
 10
136.5083641045
 20
1192.5371319725
 30
0.0
 11
-2.750000000010395
 21
0.0
 31
0.0
210
0.0
220
0.0
230
1.0
 40
0.1736481777
 41
3.141592653589793
 42
3.205272045846867
  0
LINE
  5
174
330
6F
100
AcDbEntity
  8
DV1_Default
 62
     7
100
AcDbLine
 10
139.252790274
 20
1192.7771871366
 30
0.0
 11
139.252790274
 21
1192.5675204035
 31
0.0
  0
LINE
  5
175
330
6F
100
AcDbEntity
  8
DV1_Default
 62
     7
100
AcDbLine
 10
139.2583641045
 20
1192.5067435414
 30
0.0
 11
141.6699847055
 21
1192.5067435414
 31
0.0
  0
LINE
  5
176
330
6F
100
AcDbEntity
  8
DV1_Default
 62
     7
100
AcDbLine
 10
139.252790274
 20
1192.5675204035
 30
0.0
 11
141.5924911459
 21
1192.5675204035
 31
0.0
  0
ELLIPSE
  5
177
330
6F
100
AcDbEntity
  8
DV1_Default
 62
     7
100
AcDbEllipse
 10
136.508364105
 20
1192.5371319724
 30
0.0
 11
5.249999999465013
 21
5.229150445984487E-11
 31
0.0
210
0.0
220
0.0
230
1.0
 40
0.1736481777
 41
-0.5569382848885231
 42
-0.4902592663620231
  0
LINE
  5
178
330
6F
100
AcDbEntity
  8
DV1_Default
 62
     7
100
AcDbLine
 10
139.1886496744
 20
1192.2333282014
 30
0.0
 11
140.9649708649
 21
1192.0552416601
 31
0.0
  0
LINE
  5
179
330
6F
100
AcDbEntity
  8
DV1_Default
 62
     7
100
AcDbLine
 10
139.2474227085
 20
1192.297614938
 30
0.0
 11
141.1399708649
 21
1192.1078759667
 31
0.0
  0
LINE
  5
17A
330
6F
100
AcDbEntity
  8
DV1_Default
 62
     7
100
AcDbLine
 10
141.1399708649
 20
1192.5067435414
 30
0.0
 11
141.1399708649
 21
1192.1078759667
 31
0.0
  0
ELLIPSE
  5
17B
330
6F
100
AcDbEntity
  8
DV1_Default
 62
     7
100
AcDbEllipse
 10
136.5083641042
 20
1192.5371319726
 30
0.0
 11
5.250000000420864
 21
-5.095923683029469E-11
 31
0.0
210
0.0
220
0.0
230
1.0
 40
0.1736481777
 41
-1.08053706042616
 42
-1.013858041907818
  0
LINE
  5
17C
330
6F
100
AcDbEntity
  8
DV1_Default
 62
     7
100
AcDbLine
 10
138.2089066931
 20
1191.9648872245
 30
0.0
 11
138.9803509202
 21
1191.7328618988
 31
0.0
  0
LINE
  5
17D
330
6F
100
AcDbEntity
  8
DV1_Default
 62
     7
100
AcDbLine
 10
138.4750510234
 20
1192.0063933929
 30
0.0
 11
139.2834598115
 21
1191.7632503299
 31
0.0
  0
LINE
  5
17E
330
6F
100
AcDbEntity
  8
DV1_Default
 62
     7
100
AcDbLine
 10
139.2834598115
 20
1192.2238229331
 30
0.0
 11
139.2834598115
 21
1191.7632503299
 31
0.0
  0
ARC
  5
17F
330
6F
100
AcDbEntity
  8
DV1_Default
 62
     7
100
AcDbCircle
 10
136.5083641045
 20
1221.842729609
 30
0.0
 40
30.21725070590837
100
AcDbArc
 50
269.6681757198
 51
270.3318242802
  0
LINE
  5
180
330
6F
100
AcDbEntity
  8
DV1_Default
 62
     7
100
AcDbLine
 10
136.3333641045
 20
1191.8636058188
 30
0.0
 11
136.3333641045
 21
1191.6259856543
 31
0.0
  0
LINE
  5
181
330
6F
100
AcDbEntity
  8
DV1_Default
 62
     7
100
AcDbLine
 10
136.6833641045
 20
1191.8636058188
 30
0.0
 11
136.6833641045
 21
1191.6259856543
 31
0.0
  0
ELLIPSE
  5
182
330
6F
100
AcDbEntity
  8
DV1_Default
 62
     7
100
AcDbEllipse
 10
136.5083641027
 20
1192.5371319719
 30
0.0
 11
-5.24999999779866
 21
2.748634653215731E-10
 31
0.0
210
0.0
220
0.0
230
1.0
 40
0.1736481776
 41
1.013858042079018
 42
1.080537060623998
  0
LINE
  5
183
330
6F
100
AcDbEntity
  8
DV1_Default
 62
     7
100
AcDbLine
 10
134.5416771856
 20
1192.0063933929
 30
0.0
 11
133.7332683975
 21
1191.7632503299
 31
0.0
  0
LINE
  5
184
330
6F
100
AcDbEntity
  8
DV1_Default
 62
     7
100
AcDbLine
 10
134.8078215159
 20
1191.9648872245
 30
0.0
 11
134.0363772888
 21
1191.7328618988
 31
0.0
  0
LINE
  5
185
330
6F
100
AcDbEntity
  8
DV1_Default
 62
     7
100
AcDbLine
 10
133.7332683975
 20
1192.2238229331
 30
0.0
 11
133.7332683975
 21
1191.7632503299
 31
0.0
  0
ELLIPSE
  5
186
330
6F
100
AcDbEntity
  8
DV1_Default
 62
     7
100
AcDbEllipse
 10
136.5083641036
 20
1192.5371319724
 30
0.0
 11
-5.249999999079108
 21
8.659739592076222E-11
 31
0.0
210
0.0
220
0.0
230
1.0
 40
0.1736481777
 41
0.4902592663800531
 42
0.5569382849093022
  0
LINE
  5
187
330
6F
100
AcDbEntity
  8
DV1_Default
 62
     7
100
AcDbLine
 10
133.7693055005
 20
1192.297614938
 30
0.0
 11
131.8767573441
 21
1192.1078759667
 31
0.0
  0
LINE
  5
188
330
6F
100
AcDbEntity
  8
DV1_Default
 62
     7
100
AcDbLine
 10
133.8280785346
 20
1192.2333282014
 30
0.0
 11
132.0517573441
 21
1192.0552416601
 31
0.0
  0
LINE
  5
189
330
6F
100
AcDbEntity
  8
DV1_Default
 62
     7
100
AcDbLine
 10
131.8767573441
 20
1192.5067435414
 30
0.0
 11
131.8767573441
 21
1192.1078759667
 31
0.0
  0
LINE
  5
18A
330
6F
100
AcDbEntity
  8
DV1_Default
 62
     7
100
AcDbLine
 10
127.5083641045
 20
1192.959694775
 30
0.0
 11
127.5083641045
 21
1192.3401704219
 31
0.0
  0
LINE
  5
18B
330
6F
100
AcDbEntity
  8
DV1_Default
 62
     7
100
AcDbLine
 10
145.5083641045
 20
1192.3401704219
 30
0.0
 11
145.5083641045
 21
1192.959694775
 31
0.0
  0
LINE
  5
18C
330
6F
100
AcDbEntity
  8
DV1_Default
 62
     7
100
AcDbLine
 10
130.2583641045
 20
1192.5371319725
 30
0.0
 11
130.2583641045
 21
1192.3401704219
 31
0.0
  0
LINE
  5
18D
330
6F
100
AcDbEntity
  8
DV1_Default
 62
     7
100
AcDbLine
 10
142.7583641045
 20
1192.3401704219
 30
0.0
 11
142.7583641045
 21
1192.5371319725
 31
0.0
  0
LINE
  5
18E
330
6F
100
AcDbEntity
  8
DV1_Default
 62
     7
100
AcDbLine
 10
133.7583641045
 20
1192.5371319725
 30
0.0
 11
133.7583641045
 21
1192.3401704219
 31
0.0
  0
LINE
  5
18F
330
6F
100
AcDbEntity
  8
DV1_Default
 62
     7
100
AcDbLine
 10
139.2583641045
 20
1192.3401704219
 30
0.0
 11
139.2583641045
 21
1192.5371319725
 31
0.0
  0
LINE
  5
190
330
6F
100
AcDbEntity
  8
DV1_Default
 62
     7
100
AcDbLine
 10
135.9887341606
 20
1192.7024458327
 30
0.0
 11
135.9887341606
 21
1192.5371319725
 31
0.0
  0
LINE
  5
191
330
6F
100
AcDbEntity
  8
DV1_Default
 62
     7
100
AcDbLine
 10
137.0279940484
 20
1192.5371319725
 30
0.0
 11
137.0279940484
 21
1192.7024458327
 31
0.0
  0
ARC
  5
192
330
6F
100
AcDbEntity
  8
DV1_Default
 62
     7
100
AcDbCircle
 10
217.2224356395
 20
1032.3412724125
 30
0.0
 40
0.6138014587286105
100
AcDbArc
 50
271.1075220994
 51
2.2667217634
  0
ARC
  5
193
330
6F
100
AcDbEntity
  8
DV1_Default
 62
     7
100
AcDbCircle
 10
244.1597055981
 20
1111.3877618409
 30
0.0
 40
29.55651746774854
100
AcDbArc
 50
185.7205344187
 51
186.6835395242
  0
ARC
  5
194
330
6F
100
AcDbEntity
  8
DV1_Default
 62
     7
100
AcDbCircle
 10
216.546677479
 20
1121.2079608417
 30
0.0
 40
0.2992386048274309
100
AcDbArc
 50
90.2652594674
 51
169.5643692629
  0
ARC
  5
195
330
6F
100
AcDbEntity
  8
DV1_Default
 62
     7
100
AcDbCircle
 10
217.2207027387
 20
1120.8973593883
 30
0.0
 40
0.6099031309116472
100
AcDbArc
 50
2.5768342027
 51
89.1143091613
  0
ARC
  5
196
330
6F
100
AcDbEntity
  8
DV1_Default
 62
     7
100
AcDbCircle
 10
-336.6941911036
 20
1110.6320323777
 30
0.0
 40
554.6194605658981
100
AcDbArc
 50
1.0079139429
 51
1.0634388666
  0
ARC
  5
197
330
6F
100
AcDbEntity
  8
DV1_Default
 62
     7
100
AcDbCircle
 10
224.3241567554
 20
1074.5051917796
 30
0.0
 40
12.64887708158658
100
AcDbArc
 50
158.0362056329
 51
168.3924664326
  0
ARC
  5
198
330
6F
100
AcDbEntity
  8
DV1_Default
 62
     7
100
AcDbCircle
 10
224.3241567554
 20
1074.5051917796
 30
0.0
 40
12.64887708158658
100
AcDbArc
 50
168.3924664326
 51
170.5668250853
  0
LINE
  5
199
330
6F
100
AcDbEntity
  8
DV1_Default
 62
     7
100
AcDbLine
 10
156.5083636575
 20
983.7574745728
 30
0.0
 11
116.5083645515
 21
983.7574745728
 31
0.0
  0
LINE
  5
19A
330
6F
100
AcDbEntity
  8
DV1_Default
 62
     7
100
AcDbLine
 10
136.5083641045
 20
1003.7574741258
 30
0.0
 11
136.5083641045
 21
963.7574750198
 31
0.0
  0
ENDBLK
  5
19C
330
6F
100
AcDbEntity
  8
0
100
AcDbBlockEnd
  0
BLOCK
  5
1D3
330
19D
100
AcDbEntity
  8
0
100
AcDbBlockBegin
  2
SE1
 70
     0
 10
0.0
 20
0.0
 30
0.0
  3
SE1
  1

  0
LINE
  5
1A0
330
19D
100
AcDbEntity
  8
DV2_Default
 62
     7
100
AcDbLine
 10
313.0669959201
 20
983.7574745728
 30
0.0
 11
361.0669959201
 21
983.7574745728
 31
0.0
  0
LINE
  5
1A1
330
19D
100
AcDbEntity
  8
DV2_Default
 62
     7
100
AcDbLine
 10
316.7669959201
 20
1090.7574745728
 30
0.0
 11
357.3669959201
 21
1090.7574745728
 31
0.0
  0
LINE
  5
1A2
330
19D
100
AcDbEntity
  8
DV2_Default
 62
     7
100
AcDbLine
 10
359.5539061169
 20
987.7706791075
 30
0.0
 11
314.5800857234
 21
987.7706791075
 31
0.0
  0
ARC
  5
1A3
330
19D
100
AcDbEntity
  8
DV2_Default
 62
     7
100
AcDbCircle
 10
316.7669959201
 20
1090.0574745728
 30
0.0
 40
0.7000000000000062
100
AcDbArc
 50
90.0
 51
180.0
  0
ARC
  5
1A4
330
19D
100
AcDbEntity
  8
DV2_Default
 62
     7
100
AcDbCircle
 10
357.3669959201
 20
1090.0574745728
 30
0.0
 40
0.6999999999999993
100
AcDbArc
 50
0.0
 51
90.0
  0
LINE
  5
1A5
330
19D
100
AcDbEntity
  8
DV2_Default
 62
     7
100
AcDbLine
 10
361.0669959201
 20
983.7574745728
 30
0.0
 11
361.0669959201
 21
987.0635567254
 31
0.0
  0
LINE
  5
1A6
330
19D
100
AcDbEntity
  8
DV2_Default
 62
     7
100
AcDbLine
 10
313.0669959201
 20
987.0635567254
 30
0.0
 11
313.0669959201
 21
983.7574745728
 31
0.0
  0
LINE
  5
1A7
330
19D
100
AcDbEntity
  8
DV2_Default
 62
     7
100
AcDbLine
 10
358.0669959201
 20
989.2706219921
 30
0.0
 11
358.0669959201
 21
1090.0574745728
 31
0.0
  0
LINE
  5
1A8
330
19D
100
AcDbEntity
  8
DV2_Default
 62
     7
100
AcDbLine
 10
316.0669959201
 20
1090.0574745728
 30
0.0
 11
316.0669959201
 21
989.2706219921
 31
0.0
  0
LINE
  5
1A9
330
19D
100
AcDbEntity
  8
DV2_Default
 62
     7
100
AcDbLine
 10
360.373104495
 20
987.7635300715
 30
0.0
 11
359.5539061168
 21
987.7706791075
 31
0.0
  0
LINE
  5
1AA
330
19D
100
AcDbEntity
  8
DV2_Default
 62
     7
100
AcDbLine
 10
314.5800857234
 20
987.7706791075
 30
0.0
 11
313.7608873453
 21
987.7635300715
 31
0.0
  0
ARC
  5
1AB
330
19D
100
AcDbEntity
  8
DV2_Default
 62
     7
100
AcDbCircle
 10
359.5669959201
 20
989.2706219921
 30
0.0
 40
1.499999999999999
100
AcDbArc
 50
180.0
 51
269.5
  0
ARC
  5
1AC
330
19D
100
AcDbEntity
  8
DV2_Default
 62
     7
100
AcDbCircle
 10
314.5669959201
 20
989.2706219921
 30
0.0
 40
1.500000000000001
100
AcDbArc
 50
270.5
 51
0.0
  0
ARC
  5
1AD
330
19D
100
AcDbEntity
  8
DV2_Default
 62
     7
100
AcDbCircle
 10
313.7669959201
 20
987.0635567254
 30
0.0
 40
0.699999999999998
100
AcDbArc
 50
90.5
 51
180.0
  0
ARC
  5
1AE
330
19D
100
AcDbEntity
  8
DV2_Default
 62
     7
100
AcDbCircle
 10
360.3669959201
 20
987.0635567254
 30
0.0
 40
0.6999999999999993
100
AcDbArc
 50
0.0
 51
89.5
  0
LINE
  5
1AF
330
19D
100
AcDbEntity
  8
DV2_Default
 62
     7
100
AcDbLine
 10
563.668348454
 20
1194.2386436897
 30
0.0
 11
541.0177701348
 21
1190.2447356034
 31
0.0
  0
LINE
  5
1B0
330
19D
100
AcDbEntity
  8
DV2_Default
 62
     7
100
AcDbLine
 10
533.1391297284
 20
1229.1679552203
 30
0.0
 11
539.8593142041
 21
1191.0558951787
 31
0.0
  0
LINE
  5
1B1
330
19D
100
AcDbEntity
  8
DV2_Default
 62
     7
100
AcDbLine
 10
564.4795080294
 20
1195.3970996204
 30
0.0
 11
557.7593235537
 21
1233.509159662
 31
0.0
  0
ARC
  5
1B2
330
19D
100
AcDbEntity
  8
DV2_Default
 62
     7
100
AcDbCircle
 10
533.4345720543
 20
1229.2200496736
 30
0.0
 40
0.3000000000000074
100
AcDbArc
 50
100.0
 51
190.0
  0
ARC
  5
1B3
330
19D
100
AcDbEntity
  8
DV2_Default
 62
     7
100
AcDbCircle
 10
557.4638812278
 20
1233.4570652087
 30
0.0
 40
0.2999999999999799
100
AcDbArc
 50
10.0
 51
100.0
  0
ARC
  5
1B4
330
19D
100
AcDbEntity
  8
DV2_Default
 62
     7
100
AcDbCircle
 10
563.4947002764
 20
1195.2234514427
 30
0.0
 40
0.9999999999999729
100
AcDbArc
 50
280.0
 51
10.0
  0
ARC
  5
1B5
330
19D
100
AcDbEntity
  8
DV2_Default
 62
     7
100
AcDbCircle
 10
540.8441219571
 20
1191.2295433564
 30
0.0
 40
0.9999999999999777
100
AcDbArc
 50
190.0
 51
280.0
  0
ARC
  5
1B6
330
19D
100
AcDbEntity
  8
DV2_Default
 62
     7
100
AcDbCircle
 10
283.1871023787
 20
1084.2354179227
 30
0.0
 40
82.89116060326562
100
AcDbArc
 50
334.6505073489
 51
335.6912773543
  0
LINE
  5
1B7
330
19D
100
AcDbEntity
  8
DV2_Default
 62
     7
100
AcDbLine
 10
349.4669959201
 20
1105.3227837977
 30
0.0
 11
356.9293228733
 21
1116.1036951221
 31
0.0
  0
SPLINE
  5
1B8
330
19D
100
AcDbEntity
  8
DV2_Default
 62
     7
100
AcDbSpline
210
0.0
220
0.0
230
1.0
 70
     8
 71
     3
 72
    38
 73
    34
 74
     0
 42
0.000000001
 43
0.0000000001
 40
0.0
 40
0.0
 40
0.0
 40
0.0
 40
0.0625000000000004
 40
0.0625000000000004
 40
0.1250000000000008
 40
0.1250000000000008
 40
0.156250000000001
 40
0.156250000000001
 40
0.1875000000000012
 40
0.1875000000000012
 40
0.2500000000000009
 40
0.2500000000000009
 40
0.3125000000000007
 40
0.3125000000000007
 40
0.3750000000000005
 40
0.3750000000000005
 40
0.5
 40
0.5
 40
0.6249999999999996
 40
0.6249999999999996
 40
0.6874999999999993
 40
0.6874999999999993
 40
0.7499999999999992
 40
0.7499999999999992
 40
0.812499999999999
 40
0.812499999999999
 40
0.8437499999999989
 40
0.8437499999999989
 40
0.8749999999999988
 40
0.8749999999999988
 40
0.9374999999999993
 40
0.9374999999999993
 40
1.0
 40
1.0
 40
1.0
 40
1.0
 10
356.9293228732984
 20
1116.103695122098
 30
0.0
 10
357.427107004272
 20
1116.82284969793
 30
0.0
 10
357.9233991019791
 20
1117.544080122951
 30
0.0
 10
358.9624933716219
 20
1118.949103917497
 30
0.0
 10
359.4983920002704
 20
1119.637195530255
 30
0.0
 10
360.4542887066707
 20
1120.535266984784
 30
0.0
 10
360.8057026993295
 20
1120.813023926819
 30
0.0
 10
361.5708644774944
 20
1121.241219101006
 30
0.0
 10
361.9970344421801
 20
1121.392055664467
 30
0.0
 10
363.2896117138358
 20
1121.594386977575
 30
0.0
 10
364.1805108780484
 20
1121.426414146566
 30
0.0
 10
365.8599005484828
 20
1120.935118612126
 30
0.0
 10
366.6780902886061
 20
1120.604889172258
 30
0.0
 10
368.289436627995
 20
1119.908157297052
 30
0.0
 10
369.0859516591667
 20
1119.537356379462
 30
0.0
 10
371.4572025924549
 20
1118.389854326553
 30
0.0
 10
373.0107001960803
 20
1117.567185957418
 30
0.0
 10
376.052883709416
 20
1115.811904730858
 30
0.0
 10
377.5422223131626
 20
1114.878934526773
 30
0.0
 10
379.7221895317253
 20
1113.400524932806
 30
0.0
 10
380.4418199349606
 20
1112.896424518796
 30
0.0
 10
381.8522505425639
 20
1111.850427604458
 30
0.0
 10
382.5471078993057
 20
1111.308858628183
 30
0.0
 10
383.8188428729915
 20
1110.101828006491
 30
0.0
 10
384.4121793110977
 20
1109.419943105787
 30
0.0
 10
384.8962978611505
 20
1108.203910816808
 30
0.0
 10
384.9843973396632
 20
1107.759050794553
 30
0.0
 10
385.00397716455
 20
1106.878519499948
 30
0.0
 10
384.9436378147633
 20
1106.444574702944
 30
0.0
 10
384.6476113138416
 20
1105.153103249603
 30
0.0
 10
384.3170262755352
 20
1104.337370347469
 30
0.0
 10
383.6153508915399
 20
1102.722629448009
 30
0.0
 10
383.236785666351
 20
1101.928000156992
 30
0.0
 10
382.8605032682617
 20
1101.132321140661
 30
0.0
  0
LINE
  5
1B9
330
19D
100
AcDbEntity
  8
DV2_Default
 62
     7
100
AcDbLine
 10
365.6957375998
 20
1064.8360608533
 30
0.0
 11
365.6708139767
 21
1064.7833578727
 31
0.0
  0
LINE
  5
1BA
330
19D
100
AcDbEntity
  8
DV2_Default
 62
     7
100
AcDbLine
 10
382.8605032683
 20
1101.1323211407
 30
0.0
 11
365.6957375998
 21
1064.8360608533
 31
0.0
  0
ARC
  5
1BB
330
19D
100
AcDbEntity
  8
DV2_Default
 62
     7
100
AcDbCircle
 10
-1572.0659868745
 20
1972.6932122329
 30
0.0
 40
2139.888831929677
100
AcDbArc
 50
334.460411279
 51
334.8949661685
  0
LINE
  5
1BC
330
19D
100
AcDbEntity
  8
DV2_Default
 62
     7
100
AcDbLine
 10
376.7206080559
 20
1103.6012552098
 30
0.0
 11
362.1687806005
 21
1074.2115373307
 31
0.0
  0
LINE
  5
1BD
330
19D
100
AcDbEntity
  8
DV2_Default
 62
     7
100
AcDbLine
 10
362.1687806005
 20
1074.2115373307
 30
0.0
 11
362.1625991126
 21
1074.1990613778
 31
0.0
  0
SPLINE
  5
1BE
330
19D
100
AcDbEntity
  8
DV2_Default
 62
     7
100
AcDbSpline
210
0.0
220
0.0
230
1.0
 70
     8
 71
     3
 72
    20
 73
    16
 74
     0
 42
0.000000001
 43
0.0000000001
 40
0.0
 40
0.0
 40
0.0
 40
0.0
 40
0.2499999999999912
 40
0.2499999999999912
 40
0.3749999999999884
 40
0.3749999999999884
 40
0.4999999999999857
 40
0.4999999999999857
 40
0.5624999999999841
 40
0.5624999999999841
 40
0.6249999999999826
 40
0.6249999999999826
 40
0.7499999999999885
 40
0.7499999999999885
 40
1.0
 40
1.0
 40
1.0
 40
1.0
 10
375.832759434904
 20
1107.335847258993
 30
0.0
 10
376.1239293906014
 20
1107.119261277943
 30
0.0
 10
376.4044133630143
 20
1106.89189067261
 30
0.0
 10
376.7765803153104
 20
1106.501819552982
 30
0.0
 10
376.8921093918624
 20
1106.363189199103
 30
0.0
 10
377.0888466545755
 20
1106.051285482053
 30
0.0
 10
377.1649029982366
 20
1105.882952446041
 30
0.0
 10
377.2300611623177
 20
1105.615848237697
 30
0.0
 10
377.2439078972255
 20
1105.523057928166
 30
0.0
 10
377.2555652658417
 20
1105.33929986511
 30
0.0
 10
377.2537317070218
 20
1105.247736734047
 30
0.0
 10
377.2299323148587
 20
1104.973801911987
 30
0.0
 10
377.1894779852269
 20
1104.791527105345
 30
0.0
 10
377.0326297470659
 20
1104.264910144538
 30
0.0
 10
376.8836156701737
 20
1103.930466000164
 30
0.0
 10
376.7206080558917
 20
1103.601255209784
 30
0.0
  0
ARC
  5
1BF
330
19D
100
AcDbEntity
  8
DV2_Default
 62
     7
100
AcDbCircle
 10
345.957746239
 20
1067.1641537499
 30
0.0
 40
50.06277432233738
100
AcDbArc
 50
53.36243852
 51
59.996259176
  0
ARC
  5
1C0
330
19D
100
AcDbEntity
  8
DV2_Default
 62
     7
100
AcDbCircle
 10
345.963508679
 20
1067.1610680807
 30
0.0
 40
50.06256536990649
100
AcDbArc
 50
60.0037363617
 51
66.6375854288
  0
SPLINE
  5
1C1
330
19D
100
AcDbEntity
  8
DV2_Default
 62
     7
100
AcDbSpline
210
0.0
220
0.0
230
1.0
 70
     8
 71
     3
 72
    20
 73
    16
 74
     0
 42
0.000000001
 43
0.0000000001
 40
0.0
 40
0.0
 40
0.0
 40
0.0
 40
0.2500000000000012
 40
0.2500000000000012
 40
0.3750000000000018
 40
0.3750000000000018
 40
0.5000000000000023
 40
0.5000000000000023
 40
0.5625000000000064
 40
0.5625000000000064
 40
0.6250000000000104
 40
0.6250000000000104
 40
0.7500000000000102
 40
0.7500000000000102
 40
1.0
 40
1.0
 40
1.0
 40
1.0
 10
365.815607103865
 20
1113.11925167785
 30
0.0
 10
365.4824414368802
 20
1113.263123294341
 30
0.0
 10
365.1452772621383
 20
1113.39234822045
 30
0.0
 10
364.6213506397764
 20
1113.519614922491
 30
0.0
 10
364.4435161783207
 20
1113.550348051772
 30
0.0
 10
364.074996671302
 20
1113.56475867548
 30
0.0
 10
363.8912277923322
 20
1113.546451907285
 30
0.0
 10
363.6273209383964
 20
1113.4693124209
 30
0.0
 10
363.5400385825633
 20
1113.434903280404
 30
0.0
 10
363.3750872635765
 20
1113.353120190657
 30
0.0
 10
363.2967126298215
 20
1113.305750940038
 30
0.0
 10
363.0713847290612
 20
1113.14817035719
 30
0.0
 10
362.9337616116729
 20
1113.021999253811
 30
0.0
 10
362.5561449193612
 20
1112.622876425885
 30
0.0
 10
362.3410227647902
 20
1112.326618312444
 30
0.0
 10
362.1374295443099
 20
1112.020856172786
 30
0.0
  0
LINE
  5
1C2
330
19D
100
AcDbEntity
  8
DV2_Default
 62
     7
100
AcDbLine
 10
362.1374295443
 20
1112.0208561728
 30
0.0
 11
349.4669959201
 21
1092.9924679413
 31
0.0
  0
SPLINE
  5
1C3
330
19D
100
AcDbEntity
  8
DV2_Default
 62
     7
100
AcDbSpline
210
0.0
220
0.0
230
1.0
 70
     8
 71
     3
 72
    28
 73
    24
 74
     0
 42
0.000000001
 43
0.0000000001
 40
0.0
 40
0.0
 40
0.0
 40
0.0
 40
0.0100867733837929
 40
0.0100867733837929
 40
0.1515029486146801
 40
0.1515029486146801
 40
0.2222110362301233
 40
0.2222110362301233
 40
0.2929191238455665
 40
0.2929191238455665
 40
0.3636272114610096
 40
0.3636272114610096
 40
0.4343352990764528
 40
0.4343352990764528
 40
0.5050433866918959
 40
0.5050433866918959
 40
0.575751474307339
 40
0.575751474307339
 40
0.7171676495382253
 40
0.7171676495382253
 40
0.8585838247691117
 40
0.8585838247691117
 40
1.0
 40
1.0
 40
1.0
 40
1.0
 10
358.0647731943417
 20
1072.142793092411
 30
0.0
 10
358.0813868206772
 20
1072.137221188377
 30
0.0
 10
358.0980126805181
 20
1072.131693798018
 30
0.0
 10
358.3479205558641
 20
1072.049356929646
 30
0.0
 10
358.5836012197632
 20
1071.981273965573
 30
0.0
 10
358.9441215283758
 20
1071.904613986316
 30
0.0
 10
359.0654864385954
 20
1071.883395413334
 30
0.0
 10
359.3116629695297
 20
1071.853497920491
 30
0.0
 10
359.4369473064309
 20
1071.844916357614
 30
0.0
 10
359.6848761248743
 20
1071.845828994092
 30
0.0
 10
359.8082442034942
 20
1071.855195246303
 30
0.0
 10
360.0534420985188
 20
1071.89691479046
 30
0.0
 10
360.1752885301888
 20
1071.929750409932
 30
0.0
 10
360.4056276705014
 20
1072.017955171965
 30
0.0
 10
360.5155921404689
 20
1072.073464785012
 30
0.0
 10
360.7258838473135
 20
1072.205605790912
 30
0.0
 10
360.8257715709545
 20
1072.282174375162
 30
0.0
 10
361.1031634840944
 20
1072.528534284669
 30
0.0
 10
361.264188624265
 20
1072.718035581388
 30
0.0
 10
361.5579655028348
 20
1073.119081771712
 30
0.0
 10
361.6894254522656
 20
1073.328799414145
 30
0.0
 10
361.9367114719178
 20
1073.757552365349
 30
0.0
 10
362.0523484898115
 20
1073.976700126871
 30
0.0
 10
362.1625991125884
 20
1074.199061377848
 30
0.0
  0
LINE
  5
1C4
330
19D
100
AcDbEntity
  8
DV2_Default
 62
     7
100
AcDbLine
 10
557.4351001474
 20
1234.7720449231
 30
0.0
 11
533.0118678727
 21
1230.465570117
 31
0.0
  0
LINE
  5
1C5
330
19D
100
AcDbEntity
  8
DV2_Default
 62
     7
100
AcDbLine
 10
557.6087483251
 20
1233.7872371701
 30
0.0
 11
533.1855160504
 21
1229.480762364
 31
0.0
  0
LINE
  5
1C6
330
19D
100
AcDbEntity
  8
DV2_Default
 62
     7
100
AcDbLine
 10
557.6087483251
 20
1233.7872371701
 30
0.0
 11
557.4351001474
 21
1234.7720449231
 31
0.0
  0
LINE
  5
1C7
330
19D
100
AcDbEntity
  8
DV2_Default
 62
     7
100
AcDbLine
 10
533.0118678727
 20
1230.465570117
 30
0.0
 11
533.1855160504
 21
1229.480762364
 31
0.0
  0
LINE
  5
1C8
330
19D
100
AcDbEntity
  8
DV2_Default
 62
     7
100
AcDbLine
 10
349.306787585
 20
1090.8074745728
 30
0.0
 11
349.306787585
 21
1090.7574745728
 31
0.0
  0
LINE
  5
1C9
330
19D
100
AcDbEntity
  8
DV2_Default
 62
     7
100
AcDbLine
 10
324.8169959201
 20
1090.8074745728
 30
0.0
 11
324.8169959201
 21
1090.7574745728
 31
0.0
  0
LINE
  5
1CA
330
19D
100
AcDbEntity
  8
DV2_Default
 62
     7
100
AcDbLine
 10
324.6669959201
 20
1090.8074745728
 30
0.0
 11
349.4669959201
 21
1090.8074745728
 31
0.0
  0
LINE
  5
1CB
330
19D
100
AcDbEntity
  8
DV2_Default
 62
     7
100
AcDbLine
 10
324.6669959201
 20
1224.4074745728
 30
0.0
 11
324.6669959201
 21
1090.8074745728
 31
0.0
  0
LINE
  5
1CC
330
19D
100
AcDbEntity
  8
DV2_Default
 62
     7
100
AcDbLine
 10
349.4669959201
 20
1090.8074745728
 30
0.0
 11
349.4669959201
 21
1224.4074745728
 31
0.0
  0
ARC
  5
1CD
330
19D
100
AcDbEntity
  8
DV2_Default
 62
     7
100
AcDbCircle
 10
441.0669959201
 20
1224.4074745728
 30
0.0
 40
91.59999999999998
100
AcDbArc
 50
10.0
 51
180.0
  0
ARC
  5
1CE
330
19D
100
AcDbEntity
  8
DV2_Default
 62
     7
100
AcDbCircle
 10
441.0669959201
 20
1224.4074745728
 30
0.0
 40
116.4
100
AcDbArc
 50
10.0
 51
180.0
  0
LINE
  5
1CF
330
19D
100
AcDbEntity
  8
DV2_Default
 62
     7
100
AcDbLine
 10
557.4351001474
 20
1234.7720449231
 30
0.0
 11
555.6986183707
 21
1244.6201224532
 31
0.0
  0
LINE
  5
1D0
330
19D
100
AcDbEntity
  8
DV2_Default
 62
     7
100
AcDbLine
 10
531.275386096
 20
1240.3136476471
 30
0.0
 11
533.0118678727
 21
1230.465570117
 31
0.0
  0
LINE
  5
1D1
330
19D
100
AcDbEntity
  8
DV2_Default
 62
     7
100
AcDbLine
 10
357.0669954731
 20
983.7574745728
 30
0.0
 11
317.0669963671
 21
983.7574745728
 31
0.0
  0
LINE
  5
1D2
330
19D
100
AcDbEntity
  8
DV2_Default
 62
     7
100
AcDbLine
 10
337.0669959201
 20
1003.7574741258
 30
0.0
 11
337.0669959201
 21
963.7574750198
 31
0.0
  0
ENDBLK
  5
1D4
330
19D
100
AcDbEntity
  8
0
100
AcDbBlockEnd
  0
BLOCK
  5
232
330
1D5
100
AcDbEntity
  8
0
100
AcDbBlockBegin
  2
SE2
 70
     0
 10
0.0
 20
0.0
 30
0.0
  3
SE2
  1

  0
ARC
  5
1D8
330
1D5
100
AcDbEntity
  8
DV3_Default
 62
     7
100
AcDbCircle
 10
136.5083641045
 20
333.7625121093
 30
0.0
 40
21.0
100
AcDbArc
 50
306.1908074062
 51
0.0
  0
ARC
  5
1D9
330
1D5
100
AcDbEntity
  8
DV3_Default
 62
     7
100
AcDbCircle
 10
136.5083641045
 20
333.7625121093
 30
0.0
 40
21.0
100
AcDbArc
 50
0.0
 51
233.8091925938
  0
LINE
  5
1DA
330
1D5
100
AcDbEntity
  8
DV3_Default
 62
     7
100
AcDbLine
 10
187.5184796424
 20
314.4625121093
 30
0.0
 11
187.5184796424
 21
353.0625121093
 31
0.0
  0
ARC
  5
1DB
330
1D5
100
AcDbEntity
  8
DV3_Default
 62
     7
100
AcDbCircle
 10
136.5083641045
 20
333.7625121093
 30
0.0
 40
24.0
100
AcDbArc
 50
301.1089225105
 51
303.5573097619
  0
ARC
  5
1DC
330
1D5
100
AcDbEntity
  8
DV3_Default
 62
     7
100
AcDbCircle
 10
136.5083641045
 20
333.7625121093
 30
0.0
 40
24.0
100
AcDbArc
 50
56.4426902381
 51
238.8910774895
  0
LINE
  5
1DD
330
1D5
100
AcDbEntity
  8
DV3_Default
 62
     7
100
AcDbLine
 10
186.8184796424
 20
353.7625121093
 30
0.0
 11
147.3146346353
 21
353.7625121093
 31
0.0
  0
LINE
  5
1DE
330
1D5
100
AcDbEntity
  8
DV3_Default
 62
     7
100
AcDbLine
 10
148.9083641045
 20
313.7625121093
 30
0.0
 11
186.8184796424
 21
313.7625121093
 31
0.0
  0
ARC
  5
1DF
330
1D5
100
AcDbEntity
  8
DV3_Default
 62
     7
100
AcDbCircle
 10
146.6579557826
 20
384.1383558615
 30
0.0
 40
30.38326686364015
100
AcDbArc
 50
260.8290028167
 51
271.2631303537
  0
ARC
  5
1E0
330
1D5
100
AcDbEntity
  8
DV3_Default
 62
     7
100
AcDbCircle
 10
136.3963828858
 20
333.7512103335
 30
0.0
 40
21.1085494132208
100
AcDbArc
 50
74.5461600067
 51
74.7864513256
  0
ARC
  5
1E1
330
1D5
100
AcDbEntity
  8
DV3_Default
 62
     7
100
AcDbCircle
 10
135.6134989843
 20
331.8974927327
 30
0.0
 40
23.06787625532219
100
AcDbArc
 50
74.7100726302
 51
74.8282061892
  0
ARC
  5
1E2
330
1D5
100
AcDbEntity
  8
DV3_Default
 62
     7
100
AcDbCircle
 10
186.8184796424
 20
353.0625121093
 30
0.0
 40
0.6999999999999993
100
AcDbArc
 50
0.0
 51
90.0
  0
ARC
  5
1E3
330
1D5
100
AcDbEntity
  8
DV3_Default
 62
     7
100
AcDbCircle
 10
186.8184796424
 20
314.4625121093
 30
0.0
 40
0.6999999999999993
100
AcDbArc
 50
270.0
 51
0.0
  0
ELLIPSE
  5
1E4
330
1D5
100
AcDbEntity
  8
DV3_Default
 62
     7
100
AcDbEllipse
 10
136.5083641045
 20
125.3802813884
 30
0.0
 11
12.49999999999997
 21
-1.471045507628332E-12
 31
0.0
210
0.0
220
0.0
230
1.0
 40
0.984807753
 41
3.015017067627185
 42
6.283185307179586
  0
ELLIPSE
  5
1E5
330
1D5
100
AcDbEntity
  8
DV3_Default
 62
     7
100
AcDbEllipse
 10
136.5083641045
 20
125.3802813884
 30
0.0
 11
12.49999999999997
 21
-1.471045507628332E-12
 31
0.0
210
0.0
220
0.0
230
1.0
 40
0.984807753
 41
0.0
 42
0.126575585962819
  0
ELLIPSE
  5
1E6
330
1D5
100
AcDbEntity
  8
DV3_Default
 62
     7
100
AcDbEllipse
 10
136.5083641045
 20
118.6600969127
 30
0.0
 11
12.49999999999993
 21
3.136380044566067E-12
 31
0.0
210
0.0
220
0.0
230
1.0
 40
0.984807753
 41
3.141592653589792
 42
6.283185307179586
  0
LINE
  5
1E7
330
1D5
100
AcDbEntity
  8
DV3_Default
 62
     7
100
AcDbLine
 10
124.0083641045
 20
125.3802813884
 30
0.0
 11
124.0083641045
 21
118.6600969127
 31
0.0
  0
LINE
  5
1E8
330
1D5
100
AcDbEntity
  8
DV3_Default
 62
     7
100
AcDbLine
 10
149.0083641045
 20
118.6600969127
 30
0.0
 11
149.0083641045
 21
125.3802813884
 31
0.0
  0
LINE
  5
1E9
330
1D5
100
AcDbEntity
  8
DV3_Default
 62
     7
100
AcDbLine
 10
216.3087932457
 20
351.7708480258
 30
0.0
 11
217.2503564275
 21
351.7708480258
 31
0.0
  0
SPLINE
  5
1EA
330
1D5
100
AcDbEntity
  8
DV3_Default
 62
     7
100
AcDbSpline
210
0.0
220
0.0
230
1.0
 70
     8
 71
     3
 72
    17
 73
    13
 74
     0
 42
0.000000001
 43
0.0000000001
 40
0.0
 40
0.0
 40
0.0
 40
0.0
 40
0.0417531502396017
 40
0.161502625367832
 40
0.2812579335059877
 40
0.4010254452939262
 40
0.5207967384569265
 40
0.6405850285217277
 40
0.697430224001481
 40
0.7604303382630789
 40
0.8669067175737364
 40
1.0
 40
1.0
 40
1.0
 40
1.0
 10
201.6298897549829
 20
313.7809960572447
 30
0.0
 10
201.5042296275391
 20
313.780443457267
 30
0.0
 10
201.0396692410273
 20
313.799360331659
 30
0.0
 10
200.3779296978691
 20
313.9843770715891
 30
0.0
 10
199.7752198507276
 20
314.5285003392322
 30
0.0
 10
199.3783984449553
 20
315.3864715373437
 30
0.0
 10
199.139323404915
 20
316.5469957866049
 30
0.0
 10
199.0330549821287
 20
317.738373174167
 30
0.0
 10
198.9815493930794
 20
318.8269800535471
 30
0.0
 10
198.9494233195464
 20
319.9336037438421
 30
0.0
 10
198.9287753159257
 20
321.5405917075673
 30
0.0
 10
198.9266182295738
 20
322.9804051856271
 30
0.0
 10
198.9254198570379
 20
323.7802957080213
 30
0.0
  0
SPLINE
  5
1EB
330
1D5
100
AcDbEntity
  8
DV3_Default
 62
     7
100
AcDbSpline
210
0.0
220
0.0
230
1.0
 70
     8
 71
     3
 72
    27
 73
    23
 74
     0
 42
0.000000001
 43
0.0000000001
 40
0.0
 40
0.0
 40
0.0
 40
0.0
 40
0.0364925221716136
 40
0.0695071403942246
 40
0.0990438308701355
 40
0.1251027707545707
 40
0.1579834447189406
 40
0.1876538723495271
 40
0.2501713422356637
 40
0.3126855115390997
 40
0.3751930601912633
 40
0.4376974752664538
 40
0.500196800575573
 40
0.6248265721204429
 40
0.6873347471466297
 40
0.7498522201830728
 40
0.8123744057290361
 40
0.8748995754202598
 40
0.8940166526475626
 40
0.9470008655548772
 40
0.9735064627751548
 40
1.0
 40
1.0
 40
1.0
 40
1.0
 10
198.9254198570379
 20
323.7802957080213
 30
0.0
 10
198.9257625860257
 20
324.2155295109689
 30
0.0
 10
198.9264153803642
 20
325.0445173486284
 30
0.0
 10
198.9323375640072
 20
326.2806548015265
 30
0.0
 10
198.9419562946723
 20
327.4121346101354
 30
0.0
 10
198.9573696568562
 20
328.564082020477
 30
0.0
 10
198.9815696675462
 20
329.7368990819623
 30
0.0
 10
199.0330422039926
 20
331.4131704471002
 30
0.0
 10
199.1393269240078
 20
333.5149959175934
 30
0.0
 10
199.3783920990722
 20
336.0590500124048
 30
0.0
 10
199.7752200077602
 20
338.5476963381669
 30
0.0
 10
200.3779230138029
 20
340.9227609523459
 30
0.0
 10
201.5032499703039
 20
343.8512137618518
 30
0.0
 10
203.1846895548023
 20
346.3306776811333
 30
0.0
 10
205.3687086808994
 20
348.2225572913526
 30
0.0
 10
207.2347404381045
 20
349.3748465635124
 30
0.0
 10
209.292239040864
 20
350.2768350703688
 30
0.0
 10
210.9965471130174
 20
350.8022994990387
 30
0.0
 10
212.6464208784206
 20
351.2048847910719
 30
0.0
 10
213.8923707289181
 20
351.4451864978763
 30
0.0
 10
215.2629005452794
 20
351.6499244669239
 30
0.0
 10
215.9602152370368
 20
351.7305462880306
 30
0.0
 10
216.3087932456576
 20
351.7708480258041
 30
0.0
  0
ARC
  5
1EC
330
1D5
100
AcDbEntity
  8
DV3_Default
 62
     7
100
AcDbCircle
 10
2387.3903240599
 20
298.7600993543
 30
0.0
 40
2169.592020247401
100
AcDbArc
 50
179.6123316487
 51
180.3266089802
  0
ARC
  5
1ED
330
1D5
100
AcDbEntity
  8
DV3_Default
 62
     7
100
AcDbCircle
 10
-8155.9640073653
 20
331.8949340465
 30
0.0
 40
8373.832309969852
100
AcDbArc
 50
359.8737243289
 51
0.0304398152
  0
ARC
  5
1EE
330
1D5
100
AcDbEntity
  8
DV3_Default
 62
     7
100
AcDbCircle
 10
-6322.3838767182
 20
335.8125100986
 30
0.0
 40
6540.251019127202
100
AcDbArc
 50
0.0046538462
 51
0.1354103756
  0
ELLIPSE
  5
1EF
330
1D5
100
AcDbEntity
  8
DV3_Default
 62
     7
100
AcDbEllipse
 10
217.2503564283
 20
351.2311312545
 30
0.0
 11
0.5999953678088865
 21
0.002357670008633351
 31
0.0
210
0.0
220
0.0
230
1.0
 40
0.8995262801
 41
0.0666764037945864
 42
1.567261670631821
  0
ELLIPSE
  5
1F0
330
1D5
100
AcDbEntity
  8
DV3_Default
 62
     7
100
AcDbEllipse
 10
190.6439155742
 20
333.780295708
 30
0.0
 11
-5.582486045273352
 21
-19.88466282781094
 31
0.0
210
0.0
220
0.0
230
1.0
 40
0.384202305
 41
3.249039476953726
 42
3.276874308837047
  0
ELLIPSE
  5
1F1
330
1D5
100
AcDbEntity
  8
DV3_Default
 62
     7
100
AcDbEllipse
 10
190.6439155742
 20
333.780295708
 30
0.0
 11
-5.582486045273352
 21
-19.88466282781094
 31
0.0
210
0.0
220
0.0
230
1.0
 40
0.384202305
 41
3.276874308837048
 42
3.375296221330389
  0
LINE
  5
1F2
330
1D5
100
AcDbEntity
  8
DV3_Default
 62
     7
100
AcDbLine
 10
189.3087932457
 20
314.380295708
 30
0.0
 11
189.3087932457
 21
346.7683526074
 31
0.0
  0
ARC
  5
1F3
330
1D5
100
AcDbEntity
  8
DV3_Default
 62
     7
100
AcDbCircle
 10
195.5374467379
 20
347.2394892128
 30
0.0
 40
6.246446512016314
100
AcDbArc
 50
160.8341163377
 51
184.3256272528
  0
ARC
  5
1F4
330
1D5
100
AcDbEntity
  8
DV3_Default
 62
     7
100
AcDbCircle
 10
-194.9971789202
 20
309.209943576
 30
0.0
 40
413.3998606667195
100
AcDbArc
 50
357.8647935748
 51
359.8487157378
  0
ARC
  5
1F5
330
1D5
100
AcDbEntity
  8
DV3_Default
 62
     7
100
AcDbCircle
 10
316.7015334642
 20
306.7071706617
 30
0.0
 40
98.3104222835328
100
AcDbArc
 50
175.9591175843
 51
179.1775004103
  0
ARC
  5
1F6
330
1D5
100
AcDbEntity
  8
DV3_Default
 62
     7
100
AcDbCircle
 10
211.9390776217
 20
293.6660057403
 30
0.0
 40
6.178198518851036
100
AcDbArc
 50
0.8994196724
 51
8.1602655437
  0
ARC
  5
1F7
330
1D5
100
AcDbEntity
  8
DV3_Default
 62
     7
100
AcDbCircle
 10
78.7738496986
 20
320.5938585765
 30
0.0
 40
140.034675255935
100
AcDbArc
 50
357.1515534323
 51
359.946145892
  0
ARC
  5
1F8
330
1D5
100
AcDbEntity
  8
DV3_Default
 62
     7
100
AcDbCircle
 10
-1507.5590674205
 20
298.8717109771
 30
0.0
 40
1725.619218120139
100
AcDbArc
 50
359.8562720406
 51
0.0201351084
  0
ARC
  5
1F9
330
1D5
100
AcDbEntity
  8
DV3_Default
 62
     7
100
AcDbCircle
 10
111.0418670094
 20
320.6198666751
 30
0.0
 40
107.7667113709667
100
AcDbArc
 50
0.9414990287
 51
3.2476102629
  0
ARC
  5
1FA
330
1D5
100
AcDbEntity
  8
DV3_Default
 62
     7
100
AcDbCircle
 10
-1872.2049688666
 20
300.0107590785
 30
0.0
 40
2090.265080869754
100
AcDbArc
 50
359.9854003589
 51
0.1301259974
  0
SPLINE
  5
1FB
330
1D5
100
AcDbEntity
  8
DV3_Default
 62
     7
100
AcDbSpline
210
0.0
220
0.0
230
1.0
 70
     8
 71
     3
 72
    10
 73
     6
 74
     0
 42
0.000000001
 43
0.0000000001
 40
0.0
 40
0.0
 40
0.0
 40
0.0
 40
0.6899609702151085
 40
0.6899609702151085
 40
1.0
 40
1.0
 40
1.0
 40
1.0
 10
218.4012406816404
 20
327.6113456598198
 30
0.0
 10
218.4016696128954
 20
327.7703532045359
 30
0.0
 10
218.4026064388355
 20
327.9223801843075
 30
0.0
 10
218.4051177621716
 20
328.1272957341052
 30
0.0
 10
218.4060559438761
 20
328.1887018666877
 30
0.0
 10
218.407220820062
 20
328.247095081858
 30
0.0
  0
SPLINE
  5
1FC
330
1D5
100
AcDbEntity
  8
DV3_Default
 62
     7
100
AcDbSpline
210
0.0
220
0.0
230
1.0
 70
     8
 71
     3
 72
    22
 73
    18
 74
     0
 42
0.000000001
 43
0.0000000001
 40
0.0
 40
0.0
 40
0.0
 40
0.0
 40
0.0840593334008456
 40
0.0840593334008456
 40
0.2367161111673708
 40
0.2367161111673708
 40
0.3130445000506334
 40
0.3130445000506334
 40
0.3893728889338961
 40
0.3893728889338961
 40
0.542029666700422
 40
0.542029666700422
 40
0.694686444466948
 40
0.694686444466948
 40
0.8473432222334739
 40
0.8473432222334739
 40
0.9999999999999999
 40
0.9999999999999999
 40
0.9999999999999999
 40
0.9999999999999999
 10
218.407220820062
 20
328.247095081858
 30
0.0
 10
218.408648259766
 20
328.3186501490729
 30
0.0
 10
218.4104161052762
 20
328.3856810012563
 30
0.0
 10
218.4167008710301
 20
328.5571060233949
 30
0.0
 10
218.4223299082638
 20
328.6463083338342
 30
0.0
 10
218.4342565385199
 20
328.7209636910297
 30
0.0
 10
218.4388706938438
 20
328.7361421619333
 30
0.0
 10
218.4492425966839
 20
328.7424326156779
 30
0.0
 10
218.4549612965797
 20
328.7337318629865
 30
0.0
 10
218.4736393527228
 20
328.6711570430905
 30
0.0
 10
218.4883934564799
 20
328.5774947759185
 30
0.0
 10
218.5188281635284
 20
328.3166741783734
 30
0.0
 10
218.5347474636212
 20
328.1487600428304
 30
0.0
 10
218.5653660354335
 20
327.7822000548164
 30
0.0
 10
218.5802427122574
 20
327.5823805105088
 30
0.0
 10
218.608801401358
 20
327.1653583553212
 30
0.0
 10
218.6224862229805
 20
326.94807439922
 30
0.0
 10
218.635508735702
 20
326.7249743549849
 30
0.0
  0
ARC
  5
1FD
330
1D5
100
AcDbEntity
  8
DV3_Default
 62
     7
100
AcDbCircle
 10
-438.6421712616
 20
329.042909058
 30
0.0
 40
657.0449714834983
100
AcDbArc
 50
358.2681380135
 51
359.8751643962
  0
ARC
  5
1FE
330
1D5
100
AcDbEntity
  8
DV3_Default
 62
     7
100
AcDbCircle
 10
326.8167262411
 20
305.7943102957
 30
0.0
 40
108.7669419213871
100
AcDbArc
 50
178.2132425416
 51
180.5459046464
  0
ARC
  5
1FF
330
1D5
100
AcDbEntity
  8
DV3_Default
 62
     7
100
AcDbCircle
 10
1131.502095975
 20
373.7342503242
 30
0.0
 40
919.4760015745449
100
AcDbArc
 50
184.0595035326
 51
184.3813370972
  0
SPLINE
  5
200
330
1D5
100
AcDbEntity
  8
DV3_Default
 62
     7
100
AcDbSpline
210
0.0
220
0.0
230
1.0
 70
     8
 71
     3
 72
    20
 73
    16
 74
     0
 42
0.000000001
 43
0.0000000001
 40
0.0
 40
0.0
 40
0.0
 40
0.0
 40
0.1250000000000003
 40
0.1250000000000003
 40
0.2500000000000006
 40
0.2500000000000006
 40
0.3750000000000009
 40
0.3750000000000009
 40
0.5000000000000012
 40
0.5000000000000012
 40
0.6250000000000016
 40
0.6250000000000016
 40
0.7500000000000018
 40
0.7500000000000018
 40
1.0
 40
1.0
 40
1.0
 40
1.0
 10
213.2578508854541
 20
328.5690406597969
 30
0.0
 10
213.3012372240988
 20
328.6396828985417
 30
0.0
 10
213.3438165136475
 20
328.696274964788
 30
0.0
 10
213.4231999865655
 20
328.7741211478139
 30
0.0
 10
213.4602000621247
 20
328.7958885482249
 30
0.0
 10
213.5281382002947
 20
328.8051359745691
 30
0.0
 10
213.5592586845125
 20
328.792110075186
 30
0.0
 10
213.6131587535884
 20
328.7362219555391
 30
0.0
 10
213.6363045997128
 20
328.6937196600163
 30
0.0
 10
213.676549823876
 20
328.5863756051583
 30
0.0
 10
213.6936654350651
 20
328.5212976418627
 30
0.0
 10
213.7228932460984
 20
328.3776325920625
 30
0.0
 10
213.7351321080151
 20
328.2987958383611
 30
0.0
 10
213.7670077133429
 20
328.0480831402355
 30
0.0
 10
213.7820530222286
 20
327.8627430801583
 30
0.0
 10
213.7936591495881
 20
327.667117689793
 30
0.0
  0
ARC
  5
201
330
1D5
100
AcDbEntity
  8
DV3_Default
 62
     7
100
AcDbCircle
 10
1701.3931216214
 20
410.4041584701
 30
0.0
 40
1489.898512873815
100
AcDbArc
 50
183.1833866837
 51
183.3534935503
  0
ARC
  5
202
330
1D5
100
AcDbEntity
  8
DV3_Default
 62
     7
100
AcDbCircle
 10
1701.3931216214
 20
410.4041584701
 30
0.0
 40
1489.898512873815
100
AcDbArc
 50
183.3534935503
 51
183.8935454047
  0
ARC
  5
203
330
1D5
100
AcDbEntity
  8
DV3_Default
 62
     7
100
AcDbCircle
 10
190.9503024201
 20
307.6937174155
 30
0.0
 40
24.03261094318612
100
AcDbArc
 50
353.005176793
 51
3.6788228328
  0
ARC
  5
204
330
1D5
100
AcDbEntity
  8
DV3_Default
 62
     7
100
AcDbCircle
 10
286.586539703
 20
299.3967050384
 30
0.0
 40
71.98310458455073
100
AcDbArc
 50
175.7214495128
 51
179.9931723098
  0
ARC
  5
205
330
1D5
100
AcDbEntity
  8
DV3_Default
 62
     7
100
AcDbCircle
 10
272.1820933313
 20
299.2358363188
 30
0.0
 40
57.57890703115837
100
AcDbArc
 50
179.8313863263
 51
182.5044239815
  0
SPLINE
  5
206
330
1D5
100
AcDbEntity
  8
DV3_Default
 62
     7
100
AcDbSpline
210
0.0
220
0.0
230
1.0
 70
     8
 71
     3
 72
    14
 73
    10
 74
     0
 42
0.000000001
 43
0.0000000001
 40
0.0
 40
0.0
 40
0.0
 40
0.0
 40
0.2824071915684477
 40
0.2824071915684477
 40
0.5648143831368955
 40
0.5648143831368955
 40
0.8472215747053432
 40
0.8472215747053432
 40
1.0
 40
1.0
 40
1.0
 40
1.0
 10
214.8040504744124
 20
294.430554556353
 30
0.0
 10
214.8195436332703
 20
294.2563734516659
 30
0.0
 10
214.8354617709239
 20
294.0867657186965
 30
0.0
 10
214.8676319404013
 20
293.7610875306743
 30
0.0
 10
214.883875494507
 20
293.6050246575973
 30
0.0
 10
214.9152590491949
 20
293.3171773501319
 30
0.0
 10
214.9305592354735
 20
293.1841204557859
 30
0.0
 10
214.9506459423584
 20
293.0188882192566
 30
0.0
 10
214.9570845659252
 20
292.9680117330116
 30
0.0
 10
214.9626997167605
 20
292.9255800330926
 30
0.0
  0
ARC
  5
207
330
1D5
100
AcDbEntity
  8
DV3_Default
 62
     7
100
AcDbCircle
 10
1118.3001710003
 20
372.0226148553
 30
0.0
 40
906.7735773809616
100
AcDbArc
 50
184.0524132732
 51
184.7632097377
  0
ARC
  5
208
330
1D5
100
AcDbEntity
  8
DV3_Default
 62
     7
100
AcDbCircle
 10
198.120860731
 20
306.548722869
 30
0.0
 40
15.73462218658586
100
AcDbArc
 50
5.0794969846
 51
15.8418416832
  0
ARC
  5
209
330
1D5
100
AcDbEntity
  8
DV3_Default
 62
     7
100
AcDbCircle
 10
249.7417186773
 20
322.4080849944
 30
0.0
 40
37.71826102070901
100
AcDbArc
 50
193.878921601
 51
197.5333911157
  0
ARC
  5
20A
330
1D5
100
AcDbEntity
  8
DV3_Default
 62
     7
100
AcDbCircle
 10
205.3933038147
 20
307.8350967968
 30
0.0
 40
8.976062507594808
100
AcDbArc
 50
5.1595016079
 51
20.9534651357
  0
ARC
  5
20B
330
1D5
100
AcDbEntity
  8
DV3_Default
 62
     7
100
AcDbCircle
 10
220.4213050683
 20
324.8651483004
 30
0.0
 40
8.064359518238348
100
AcDbArc
 50
152.658596626
 51
166.0931426326
  0
ARC
  5
20C
330
1D5
100
AcDbEntity
  8
DV3_Default
 62
     7
100
AcDbCircle
 10
233.9476449278
 20
320.4939485082
 30
0.0
 40
22.26691625601229
100
AcDbArc
 50
163.539509759
 51
180.212086601
  0
ARC
  5
20D
330
1D5
100
AcDbEntity
  8
DV3_Default
 62
     7
100
AcDbCircle
 10
240.3908292921
 20
320.6294498946
 30
0.0
 40
28.71077514401601
100
AcDbArc
 50
180.4348987862
 51
194.4901434087
  0
ARC
  5
20E
330
1D5
100
AcDbEntity
  8
DV3_Default
 62
     7
100
AcDbCircle
 10
391.8984477908
 20
357.8604213999
 30
0.0
 40
184.7241223185132
100
AcDbArc
 50
194.6031684208
 51
194.7452835729
  0
ARC
  5
20F
330
1D5
100
AcDbEntity
  8
DV3_Default
 62
     7
100
AcDbCircle
 10
239.9562082876
 20
320.3919651426
 30
0.0
 40
27.73757403811272
100
AcDbArc
 50
180.4690810825
 51
194.6845478638
  0
ARC
  5
210
330
1D5
100
AcDbEntity
  8
DV3_Default
 62
     7
100
AcDbCircle
 10
233.1647804687
 20
320.2637001357
 30
0.0
 40
20.94544975679356
100
AcDbArc
 50
163.092787943
 51
180.2703214024
  0
ARC
  5
211
330
1D5
100
AcDbEntity
  8
DV3_Default
 62
     7
100
AcDbCircle
 10
218.1726489443
 20
325.1542227277
 30
0.0
 40
5.188869151513283
100
AcDbArc
 50
147.9264194114
 51
166.618403566
  0
LINE
  5
212
330
1D5
100
AcDbEntity
  8
DV3_Default
 62
     7
100
AcDbLine
 10
216.5300101417
 20
285.8342998042
 30
0.0
 11
217.2329225947
 21
285.8342979479
 31
0.0
  0
ARC
  5
213
330
1D5
100
AcDbEntity
  8
DV3_Default
 62
     7
100
AcDbCircle
 10
333.2060879221
 20
311.8104905378
 30
0.0
 40
119.7427884074841
100
AcDbArc
 50
189.0714049401
 51
192.3816580191
  0
SPLINE
  5
214
330
1D5
100
AcDbEntity
  8
DV3_Default
 62
     7
100
AcDbSpline
210
0.0
220
0.0
230
1.0
 70
     8
 71
     3
 72
    20
 73
    16
 74
     0
 42
0.000000001
 43
0.0000000001
 40
0.0
 40
0.0
 40
0.0
 40
0.0
 40
0.0934105467239997
 40
0.1756745167741137
 40
0.2774039124325133
 40
0.3563025667155207
 40
0.4292255081293921
 40
0.496368131646224
 40
0.5774204888940487
 40
0.6560302246883208
 40
0.7329699032495024
 40
0.8244387213006814
 40
0.8992433478526254
 40
0.983980694540437
 40
0.9999999999999999
 40
0.9999999999999999
 40
0.9999999999999999
 40
0.9999999999999999
 10
201.6234788806541
 20
313.7802971599112
 30
0.0
 10
202.2002440876757
 20
313.7754335198563
 30
0.0
 10
203.1170780999915
 20
313.7654054076963
 30
0.0
 10
204.6692392147846
 20
313.6859720579239
 30
0.0
 10
206.0400314277914
 20
313.5641100657951
 30
0.0
 10
207.2539108257712
 20
313.4047674117594
 30
0.0
 10
208.2645514447419
 20
313.2311868427844
 30
0.0
 10
209.2425447537565
 20
313.0179237014486
 30
0.0
 10
210.2086260109631
 20
312.7466283425151
 30
0.0
 10
211.0858590046663
 20
312.430185102488
 30
0.0
 10
211.9256953780284
 20
312.0407254813732
 30
0.0
 10
212.4576152957739
 20
311.72987613087
 30
0.0
 10
212.8374051111805
 20
311.4888920599575
 30
0.0
 10
213.0385445840777
 20
311.3545623120593
 30
0.0
 10
213.1371010584419
 20
311.2860220647739
 30
0.0
 10
213.1523216968111
 20
311.2753695739679
 30
0.0
  0
ARC
  5
215
330
1D5
100
AcDbEntity
  8
DV3_Default
 62
     7
100
AcDbCircle
 10
217.2399613169
 20
286.429160882
 30
0.0
 40
0.5949246127804196
100
AcDbArc
 50
269.297696229
 51
2.5597565201
  0
SPLINE
  5
216
330
1D5
100
AcDbEntity
  8
DV3_Default
 62
     7
100
AcDbSpline
210
0.0
220
0.0
230
1.0
 70
     8
 71
     3
 72
    16
 73
    12
 74
     0
 42
0.000000001
 43
0.0000000001
 40
0.0
 40
0.0
 40
0.0
 40
0.0
 40
0.1928122909135184
 40
0.2922047305335226
 40
0.3364151672833889
 40
0.3720453432952822
 40
0.4271518140789798
 40
0.5290392894752804
 40
0.6725782868764716
 40
0.8492591919452115
 40
0.9999999999999999
 40
0.9999999999999999
 40
0.9999999999999999
 40
0.9999999999999999
 10
216.2484004967064
 20
286.1349238026681
 30
0.0
 10
216.2484969813
 20
286.1315350761971
 30
0.0
 10
216.2488473021356
 20
286.1252362419497
 30
0.0
 10
216.2494215216575
 20
286.1161403810563
 30
0.0
 10
216.2507983906827
 20
286.1023451315927
 30
0.0
 10
216.253850278844
 20
286.0817328194863
 30
0.0
 10
216.2629443854464
 20
286.0429619707754
 30
0.0
 10
216.2875299247727
 20
285.984260312553
 30
0.0
 10
216.3429330920154
 20
285.9113193037967
 30
0.0
 10
216.4273908467192
 20
285.8575886469533
 30
0.0
 10
216.4989719609252
 20
285.834298340145
 30
0.0
 10
216.5300164998036
 20
285.8342998043214
 30
0.0
  0
ARC
  5
217
330
1D5
100
AcDbEntity
  8
DV3_Default
 62
     7
100
AcDbCircle
 10
195.7935603566
 20
347.4212776844
 30
0.0
 40
6.375920083620024
100
AcDbArc
 50
103.4973394644
 51
132.1546258623
  0
ARC
  5
218
330
1D5
100
AcDbEntity
  8
DV3_Default
 62
     7
100
AcDbCircle
 10
194.6464357992
 20
348.0437472073
 30
0.0
 40
5.161958512680574
100
AcDbArc
 50
127.3194877052
 51
166.0280357609
  0
ARC
  5
219
330
1D5
100
AcDbEntity
  8
DV3_Default
 62
     7
100
AcDbCircle
 10
189.9087932457
 20
314.380295708
 30
0.0
 40
0.5999999999999963
100
AcDbArc
 50
180.0
 51
270.0
  0
LINE
  5
21A
330
1D5
100
AcDbEntity
  8
DV3_Default
 62
     7
100
AcDbLine
 10
189.9087932457
 20
313.780295708
 30
0.0
 11
201.6565127628
 21
313.780295708
 31
0.0
  0
LINE
  5
21B
330
1D5
100
AcDbEntity
  8
DV3_Default
 62
     7
100
AcDbLine
 10
217.2397290417
 20
353.780295708
 30
0.0
 11
195.3749216833
 21
353.780295708
 31
0.0
  0
ARC
  5
21C
330
1D5
100
AcDbEntity
  8
DV3_Default
 62
     7
100
AcDbCircle
 10
-477.8538524176
 20
316.2184101386
 30
0.0
 40
696.6752237059584
100
AcDbArc
 50
0.3490084168
 51
3.0429869025
  0
ARC
  5
21D
330
1D5
100
AcDbEntity
  8
DV3_Default
 62
     7
100
AcDbCircle
 10
-1507.1113921442
 20
356.7360914786
 30
0.0
 40
1726.376825426561
100
AcDbArc
 50
357.6668586728
 51
357.9095561718
  0
SPLINE
  5
21E
330
1D5
100
AcDbEntity
  8
DV3_Default
 62
     7
100
AcDbSpline
210
0.0
220
0.0
230
1.0
 70
     8
 71
     3
 72
    10
 73
     6
 74
     0
 42
0.000000001
 43
0.0000000001
 40
0.0
 40
0.0
 40
0.0
 40
0.0
 40
0.4877248217668085
 40
0.8386168403216607
 40
1.0
 40
1.0
 40
1.0
 40
1.0
 10
218.4085702428926
 20
328.1999914139528
 30
0.0
 10
218.4109587383623
 20
328.2975810874953
 30
0.0
 10
218.4144732796547
 20
328.4330008378547
 30
0.0
 10
218.4213329546756
 20
328.5467887307024
 30
0.0
 10
218.4250025670646
 20
328.5708121495894
 30
0.0
 10
218.4248619643207
 20
328.5704569235538
 30
0.0
  0
ARC
  5
21F
330
1D5
100
AcDbEntity
  8
DV3_Default
 62
     7
100
AcDbCircle
 10
178.9905662174
 20
333.7625121093
 30
0.0
 40
20.2
100
AcDbArc
 50
295.8419327632
 51
300.7173531915
  0
ARC
  5
220
330
1D5
100
AcDbEntity
  8
DV3_Default
 62
     7
100
AcDbCircle
 10
178.9905662174
 20
333.7625121093
 30
0.0
 40
20.19999999999999
100
AcDbArc
 50
56.4353701449
 51
64.1580672368
  0
ARC
  5
221
330
1D5
100
AcDbEntity
  8
DV3_Default
 62
     7
100
AcDbCircle
 10
187.7083641045
 20
315.7625121093
 30
0.0
 40
0.1999999999999988
100
AcDbArc
 50
198.3005778897
 51
295.8419327653
  0
ARC
  5
222
330
1D5
100
AcDbEntity
  8
DV3_Default
 62
     7
100
AcDbCircle
 10
187.7083641045
 20
351.7625121093
 30
0.0
 40
0.2000000000000019
100
AcDbArc
 50
64.1580672347
 51
161.6994221102
  0
ELLIPSE
  5
223
330
1D5
100
AcDbEntity
  8
DV3_Default
 62
     7
100
AcDbEllipse
 10
136.5083641045
 20
125.4323758417
 30
0.0
 11
12.39999999999996
 21
-1.360023205165817E-12
 31
0.0
210
0.0
220
0.0
230
1.0
 40
0.984807753
 41
3.141592653589905
 42
6.283185307179586
  0
LINE
  5
224
330
1D5
100
AcDbEntity
  8
DV3_Default
 62
     7
100
AcDbLine
 10
148.9083641045
 20
125.4323758417
 30
0.0
 11
148.9083641045
 21
125.6060240193
 31
0.0
  0
LINE
  5
225
330
1D5
100
AcDbEntity
  8
DV3_Default
 62
     7
100
AcDbLine
 10
124.1083641045
 20
125.6060240193
 30
0.0
 11
124.1083641045
 21
125.4323758417
 31
0.0
  0
ARC
  5
226
330
1D5
100
AcDbEntity
  8
DV3_Default
 62
     7
100
AcDbCircle
 10
136.5083641045
 20
333.7625121093
 30
0.0
 40
12.4
100
AcDbArc
 50
0.0
 51
180.0
  0
LINE
  5
227
330
1D5
100
AcDbEntity
  8
DV3_Default
 62
     7
100
AcDbLine
 10
124.1083641045
 20
333.7625121093
 30
0.0
 11
124.1083641045
 21
127.342505796
 31
0.0
  0
LINE
  5
228
330
1D5
100
AcDbEntity
  8
DV3_Default
 62
     7
100
AcDbLine
 10
148.9083641045
 20
127.342505796
 30
0.0
 11
148.9083641045
 21
333.7625121093
 31
0.0
  0
LINE
  5
229
330
1D5
100
AcDbEntity
  8
DV3_Default
 62
     7
100
AcDbLine
 10
148.9083641045
 20
125.6060240193
 30
0.0
 11
148.9083641045
 21
127.342505796
 31
0.0
  0
LINE
  5
22A
330
1D5
100
AcDbEntity
  8
DV3_Default
 62
     7
100
AcDbLine
 10
124.1083641045
 20
127.342505796
 30
0.0
 11
124.1083641045
 21
126.8433761753
 31
0.0
  0
ARC
  5
22B
330
1D5
100
AcDbEntity
  8
DV3_Default
 62
     7
100
AcDbCircle
 10
217.2395126327
 20
353.1803196703
 30
0.0
 40
0.5999760376904246
100
AcDbArc
 50
1.9450370039
 51
90.0
  0
ARC
  5
22C
330
1D5
100
AcDbEntity
  8
DV3_Default
 62
     7
100
AcDbCircle
 10
391.8984477908
 20
357.8604213999
 30
0.0
 40
184.7241223185132
100
AcDbArc
 50
193.912423293
 51
194.6031684208
  0
ARC
  5
22D
330
1D5
100
AcDbEntity
  8
DV3_Default
 62
     7
100
AcDbCircle
 10
272.1820933313
 20
299.2358363188
 30
0.0
 40
57.57890703115837
100
AcDbArc
 50
182.5044239815
 51
184.7872212284
  0
ARC
  5
22E
330
1D5
100
AcDbEntity
  8
DV3_Default
 62
     7
100
AcDbCircle
 10
211.9390776217
 20
293.6660057403
 30
0.0
 40
6.178198518851036
100
AcDbArc
 50
354.6076845197
 51
354.898225967
  0
LINE
  5
22F
330
1D5
100
AcDbEntity
  8
DV3_Default
 62
     7
100
AcDbLine
 10
124.1083641045
 20
126.8433761753
 30
0.0
 11
124.1083641045
 21
125.6060240193
 31
0.0
  0
LINE
  5
230
330
1D5
100
AcDbEntity
  8
DV3_Default
 62
     7
100
AcDbLine
 10
156.5083636575
 20
333.7625121093
 30
0.0
 11
116.5083645515
 21
333.7625121093
 31
0.0
  0
LINE
  5
231
330
1D5
100
AcDbEntity
  8
DV3_Default
 62
     7
100
AcDbLine
 10
136.5083641045
 20
353.7625116622
 30
0.0
 11
136.5083641045
 21
313.7625125563
 31
0.0
  0
ENDBLK
  5
233
330
1D5
100
AcDbEntity
  8
0
100
AcDbBlockEnd
  0
ENDSEC
  0
SECTION
  2
ENTITIES
  0
INSERT
  5
70
330
1F
100
AcDbEntity
  8
Default
100
AcDbBlockReference
  2
SE
 10
0.0
 20
0.0
 30
0.0
  0
INSERT
  5
19E
330
1F
100
AcDbEntity
  8
Default
100
AcDbBlockReference
  2
SE1
 10
0.0
 20
0.0
 30
0.0
  0
INSERT
  5
1D6
330
1F
100
AcDbEntity
  8
Default
100
AcDbBlockReference
  2
SE2
 10
0.0
 20
0.0
 30
0.0
  0
MTEXT
  5
234
330
1F
100
AcDbEntity
  8
Default
100
AcDbMText
 10
5.9362635081
 20
63.4225120485
 30
0.0
 40
10.0
 41
113.8626497168
 46
65.4545454545
 71
     1
 72
     1
  1
{\fArial Narrow|b0||i0||c0|p34;\C7;\H10.;\W1.;Grohe AG\P}{\fArial Narrow|b0||i0||c0|p34;\C7;\H10.;\W1.;\P}{\fArial Narrow|b0||i0||c0|p34;\C7;\H10.;\W1.;ecn:\P}{\fArial Narrow|b0||i0||c0|p34;\C7;\H10.;\W1.;unit: mm}
 73
     1
 44
1.0
1001
ACAD
1000
ACAD_MTEXT_DEFINED_HEIGHT_BEGIN
1070
    46
1040
65.4545454545
1000
ACAD_MTEXT_DEFINED_HEIGHT_END
  0
LINE
  5
235
330
1F
100
AcDbEntity
  8
Default
 62
     7
100
AcDbLine
 10
0.0
 20
0.0
 30
0.0
 11
100.0
 21
0.0
 31
0.0
  0
LINE
  5
236
330
1F
100
AcDbEntity
  8
Default
 62
     7
100
AcDbLine
 10
0.0
 20
0.0
 30
0.0
 11
0.0
 21
100.0
 31
0.0
  0
MTEXT
  5
237
330
1F
100
AcDbEntity
  8
Default
100
AcDbMText
 10
24.3923665681
 20
-8.2375342018
 30
0.0
 40
10.0
 41
35.00001
 46
16.3636363636
 71
     1
 72
     1
  1
{\fArial Narrow|b0||i0||c0|p34;\C7;\H10.;\W0.82;100 mm}
 73
     1
 44
1.0
1001
ACAD
1000
ACAD_MTEXT_DEFINED_HEIGHT_BEGIN
1070
    46
1040
16.3636363636
1000
ACAD_MTEXT_DEFINED_HEIGHT_END
  0
MTEXT
  5
238
330
1F
100
AcDbEntity
  8
Default
100
AcDbMText
 10
-17.6150308803
 20
24.6231930421
 30
0.0
 40
10.0
 41
35.00001
 46
16.3636363636
 71
     1
 72
     1
  1
{\fArial Narrow|b0||i0||c0|p34;\C7;\H10.;\W0.82;100 mm}
 11
6.123233995736766E-17
 21
1.0
 31
0.0
 73
     1
 44
1.0
1001
ACAD
1000
ACAD_MTEXT_DEFINED_HEIGHT_BEGIN
1070
    46
1040
16.3636363636
1000
ACAD_MTEXT_DEFINED_HEIGHT_END
  0
MTEXT
  5
239
330
1F
100
AcDbEntity
  8
Default
100
AcDbMText
 10
28.4878128572
 20
24.8634936442
 30
0.0
 40
10.0
 41
86.691737001
 46
16.3636363636
 71
     4
 72
     1
  1
{\fArial Narrow|b0||i0||c0|p34;\C7;\H10.;\W1.;251698}
 73
     1
 44
1.0
1001
ACAD
1000
ACAD_MTEXT_DEFINED_HEIGHT_BEGIN
1070
    46
1040
16.3636363636
1000
ACAD_MTEXT_DEFINED_HEIGHT_END
  0
MTEXT
  5
23A
330
1F
100
AcDbEntity
  8
Default
100
AcDbMText
 10
5.9012241913
 20
41.4970052916
 30
0.0
 40
10.0
 41
109.9146987306
 46
16.3636363636
 71
     4
 72
     1
  1
{\fArial Narrow|b0||i0||c0|p34;\C7;\H10.;\W1.;30543000}
 73
     1
 44
1.0
1001
ACAD
1000
ACAD_MTEXT_DEFINED_HEIGHT_BEGIN
1070
    46
1040
16.3636363636
1000
ACAD_MTEXT_DEFINED_HEIGHT_END
  0
ENDSEC
  0
SECTION
  2
OBJECTS
  0
DICTIONARY
  5
C
330
0
100
AcDbDictionary
281
     1
  3
ACAD_DETAILVIEWSTYLE
350
276
  3
ACAD_GROUP
350
D
  3
ACAD_LAYOUT
350
1A
  3
ACAD_MATERIAL
350
43
  3
ACAD_MLEADERSTYLE
350
6B
  3
ACAD_MLINESTYLE
350
17
  3
ACAD_PLOTSETTINGS
350
19
  3
ACAD_PLOTSTYLENAME
350
E
  3
ACAD_SCALELIST
350
47
  3
ACAD_SECTIONVIEWSTYLE
350
277
  3
ACAD_TABLESTYLE
350
69
  3
ACAD_VISUALSTYLE
350
2A
  3
ACDB_RECOMPOSE_DATA
350
273
  3
AcDbVariableDictionary
350
23B
  0
SUN
  5
6D
330
29
100
AcDbSun
 90
        1
290
     0
 63
     7
421
 16777215
 40
1.0
291
     1
 91
  2455826
 92
 54000000
292
     0
 70
     2
 71
   256
280
     1
  0
DICTIONARY
  5
276
102
{ACAD_REACTORS
330
C
102
}
330
C
100
AcDbDictionary
281
     1
  0
DICTIONARY
  5
D
102
{ACAD_REACTORS
330
C
102
}
330
C
100
AcDbDictionary
281
     1
  0
DICTIONARY
  5
1A
102
{ACAD_REACTORS
330
C
102
}
330
C
100
AcDbDictionary
281
     1
  3
Layout1
350
1E
  3
Model
350
22
  0
DICTIONARY
  5
43
102
{ACAD_REACTORS
330
C
102
}
330
C
100
AcDbDictionary
281
     1
  3
ByBlock
350
45
  3
ByLayer
350
44
  3
Global
350
46
  0
DICTIONARY
  5
6B
102
{ACAD_REACTORS
330
C
102
}
330
C
100
AcDbDictionary
281
     1
  3
Standard
350
6C
  0
DICTIONARY
  5
17
102
{ACAD_REACTORS
330
C
102
}
330
C
100
AcDbDictionary
281
     1
  3
Standard
350
18
  0
DICTIONARY
  5
19
102
{ACAD_REACTORS
330
C
102
}
330
C
100
AcDbDictionary
281
     1
  0
ACDBDICTIONARYWDFLT
  5
E
102
{ACAD_REACTORS
330
C
102
}
330
C
100
AcDbDictionary
281
     1
  3
Normal
350
F
100
AcDbDictionaryWithDefault
340
F
  0
DICTIONARY
  5
47
102
{ACAD_REACTORS
330
C
102
}
330
C
100
AcDbDictionary
281
     1
  3
A0
350
48
  3
A1
350
49
  3
A2
350
4A
  3
A3
350
4B
  3
A4
350
4C
  3
A5
350
4D
  3
A6
350
4E
  3
A7
350
4F
  3
A8
350
50
  3
A9
350
51
  3
B0
350
52
  3
B1
350
53
  3
B2
350
54
  3
B3
350
55
  3
B4
350
56
  3
B5
350
57
  3
B6
350
58
  3
B7
350
59
  3
B8
350
5A
  3
B9
350
5B
  3
C0
350
5C
  3
C1
350
5D
  3
C2
350
5E
  3
C3
350
5F
  3
C4
350
60
  3
C5
350
61
  3
C6
350
62
  3
C7
350
63
  3
C8
350
64
  3
C9
350
65
  3
D0
350
66
  3
D1
350
67
  3
D2
350
68
  0
DICTIONARY
  5
277
102
{ACAD_REACTORS
330
C
102
}
330
C
100
AcDbDictionary
281
     1
  0
DICTIONARY
  5
69
102
{ACAD_REACTORS
330
C
102
}
330
C
100
AcDbDictionary
281
     1
  3
Standard
350
6A
  0
DICTIONARY
  5
2A
102
{ACAD_REACTORS
330
C
102
}
330
C
100
AcDbDictionary
281
     1
  3
2dWireframe
350
2F
  3
Basic
350
32
  3
Brighten
350
36
  3
ColorChange
350
3A
  3
Conceptual
350
34
  3
Dim
350
35
  3
EdgeColorOff
350
3D
  3
Facepattern
350
39
  3
Flat
350
2B
  3
FlatWithEdges
350
2C
  3
Gouraud
350
2D
  3
GouraudWithEdges
350
2E
  3
Hidden
350
31
  3
JitterOff
350
3B
  3
Linepattern
350
38
  3
OverhangOff
350
3C
  3
Realistic
350
33
  3
Shaded
350
42
  3
Shaded with edges
350
41
  3
Shades of Gray
350
3E
  3
Sketchy
350
3F
  3
Thicken
350
37
  3
Wireframe
350
30
  3
X-Ray
350
40
  0
XRECORD
  5
273
102
{ACAD_REACTORS
330
C
102
}
330
C
100
AcDbXrecord
280
     1
 90
        1
330
6A
  0
DICTIONARY
  5
23B
102
{ACAD_REACTORS
330
C
102
}
330
C
100
AcDbDictionary
281
     1
  3
CANNOSCALE
350
23C
  3
CENTEREXE
350
278
  3
CENTERLTYPEFILE
350
279
  3
CMLEADERSTYLE
350
275
  3
CTABLESTYLE
350
274
  3
XCLIPFRAME
350
23D
  0
LAYOUT
  5
1E
102
{ACAD_REACTORS
330
1A
102
}
330
1A
100
AcDbPlotSettings
  1

  2
none_device
  4

  6

 40
0.0
 41
0.0
 42
0.0
 43
0.0
 44
0.0
 45
0.0
 46
0.0
 47
0.0
 48
0.0
 49
0.0
140
0.0
141
0.0
142
1.0
143
1.0
 70
   688
 72
     1
 73
     0
 74
     5
  7

 75
    16
 76
     0
 77
     2
 78
   300
147
1.0
148
0.0
149
0.0
100
AcDbLayout
  1
Layout1
 70
     1
 71
     1
 10
0.0
 20
0.0
 11
3000.0
 21
4500.0
 12
0.0
 22
0.0
 32
0.0
 14
0.0
 24
0.0
 34
0.0
 15
3000.0
 25
4500.0
 35
0.0
146
0.0
 13
0.0
 23
0.0
 33
0.0
 16
1.0
 26
0.0
 36
0.0
 17
0.0
 27
1.0
 37
0.0
 76
     0
330
1B
  0
LAYOUT
  5
22
102
{ACAD_REACTORS
330
1A
102
}
330
1A
100
AcDbPlotSettings
  1

  2
none_device
  4
Letter_(8.50_x_11.00_Inches)
  6

 40
6.35
 41
6.35
 42
6.35000508
 43
6.35000508
 44
215.9
 45
279.4
 46
0.0
 47
0.0
 48
0.0
 49
0.0
140
0.0
141
0.0
142
1.0
143
1.0
 70
  1712
 72
     1
 73
     0
 74
     0
  7

 75
     0
 76
     0
 77
     2
 78
   300
147
1.0
148
0.0
149
0.0
100
AcDbLayout
  1
Model
 70
     1
 71
     0
 10
0.0
 20
0.0
 11
3000.0
 21
4500.0
 12
0.0
 22
0.0
 32
0.0
 14
0.0
 24
0.0
 34
0.0
 15
3000.0
 25
4500.0
 35
0.0
146
0.0
 13
0.0
 23
0.0
 33
0.0
 16
1.0
 26
0.0
 36
0.0
 17
0.0
 27
1.0
 37
0.0
 76
     0
330
1F
331
29
  0
MATERIAL
  5
45
102
{ACAD_REACTORS
330
43
102
}
330
43
100
AcDbMaterial
  1
ByBlock
 72
     1
 94
      127
  0
MATERIAL
  5
44
102
{ACAD_REACTORS
330
43
102
}
330
43
100
AcDbMaterial
  1
ByLayer
 72
     1
 94
      127
  0
MATERIAL
  5
46
102
{ACAD_REACTORS
330
43
102
}
330
43
100
AcDbMaterial
  1
Global
 72
     1
 94
      127
  0
MLEADERSTYLE
  5
6C
102
{ACAD_REACTORS
330
6B
102
}
102
{ACAD_XDICTIONARY
360
271
102
}
330
6B
100
AcDbMLeaderStyle
170
     2
171
     1
172
     0
 90
        2
 40
0.0
 41
0.0
173
     1
 91
-1056964608
340
14
 92
       -2
290
     1
 42
2.0
291
     1
 43
8.0
  3
Standard
341
0
 44
4.0
300

342
11
174
     1
178
     6
175
     1
176
     0
 93
-1056964608
 45
4.0
292
     0
297
     0
 46
4.0
343
0
 94
-1056964608
 47
1.0
 49
1.0
140
1.0
293
     1
141
0.0
294
     1
177
     0
142
1.0
295
     0
296
     0
143
3.75
1001
ACAD_MLEADERVER
1070
     2
  0
MLINESTYLE
  5
18
102
{ACAD_REACTORS
330
17
102
}
330
17
100
AcDbMlineStyle
  2
Standard
 70
     0
  3

 62
   256
 51
90.0
 52
90.0
 71
     2
 49
0.5
 62
   256
  6
BYLAYER
 49
-0.5
 62
   256
  6
BYLAYER
  0
ACDBPLACEHOLDER
  5
F
102
{ACAD_REACTORS
330
E
102
}
330
E
  0
SCALE
  5
48
102
{ACAD_REACTORS
330
47
102
}
330
47
100
AcDbScale
 70
     0
300
1:1
140
1.0
141
1.0
290
     1
  0
SCALE
  5
49
102
{ACAD_REACTORS
330
47
102
}
330
47
100
AcDbScale
 70
     0
300
1:2
140
1.0
141
2.0
290
     0
  0
SCALE
  5
4A
102
{ACAD_REACTORS
330
47
102
}
330
47
100
AcDbScale
 70
     0
300
1:4
140
1.0
141
4.0
290
     0
  0
SCALE
  5
4B
102
{ACAD_REACTORS
330
47
102
}
330
47
100
AcDbScale
 70
     0
300
1:5
140
1.0
141
5.0
290
     0
  0
SCALE
  5
4C
102
{ACAD_REACTORS
330
47
102
}
330
47
100
AcDbScale
 70
     0
300
1:8
140
1.0
141
8.0
290
     0
  0
SCALE
  5
4D
102
{ACAD_REACTORS
330
47
102
}
330
47
100
AcDbScale
 70
     0
300
1:10
140
1.0
141
10.0
290
     0
  0
SCALE
  5
4E
102
{ACAD_REACTORS
330
47
102
}
330
47
100
AcDbScale
 70
     0
300
1:16
140
1.0
141
16.0
290
     0
  0
SCALE
  5
4F
102
{ACAD_REACTORS
330
47
102
}
330
47
100
AcDbScale
 70
     0
300
1:20
140
1.0
141
20.0
290
     0
  0
SCALE
  5
50
102
{ACAD_REACTORS
330
47
102
}
330
47
100
AcDbScale
 70
     0
300
1:30
140
1.0
141
30.0
290
     0
  0
SCALE
  5
51
102
{ACAD_REACTORS
330
47
102
}
330
47
100
AcDbScale
 70
     0
300
1:40
140
1.0
141
40.0
290
     0
  0
SCALE
  5
52
102
{ACAD_REACTORS
330
47
102
}
330
47
100
AcDbScale
 70
     0
300
1:50
140
1.0
141
50.0
290
     0
  0
SCALE
  5
53
102
{ACAD_REACTORS
330
47
102
}
330
47
100
AcDbScale
 70
     0
300
1:100
140
1.0
141
100.0
290
     0
  0
SCALE
  5
54
102
{ACAD_REACTORS
330
47
102
}
330
47
100
AcDbScale
 70
     0
300
2:1
140
2.0
141
1.0
290
     0
  0
SCALE
  5
55
102
{ACAD_REACTORS
330
47
102
}
330
47
100
AcDbScale
 70
     0
300
4:1
140
4.0
141
1.0
290
     0
  0
SCALE
  5
56
102
{ACAD_REACTORS
330
47
102
}
330
47
100
AcDbScale
 70
     0
300
8:1
140
8.0
141
1.0
290
     0
  0
SCALE
  5
57
102
{ACAD_REACTORS
330
47
102
}
330
47
100
AcDbScale
 70
     0
300
10:1
140
10.0
141
1.0
290
     0
  0
SCALE
  5
58
102
{ACAD_REACTORS
330
47
102
}
330
47
100
AcDbScale
 70
     0
300
100:1
140
100.0
141
1.0
290
     0
  0
SCALE
  5
59
102
{ACAD_REACTORS
330
47
102
}
330
47
100
AcDbScale
 70
     0
300
1/128" = 1'-0"
140
0.0078125
141
12.0
290
     0
  0
SCALE
  5
5A
102
{ACAD_REACTORS
330
47
102
}
330
47
100
AcDbScale
 70
     0
300
1/64" = 1'-0"
140
0.015625
141
12.0
290
     0
  0
SCALE
  5
5B
102
{ACAD_REACTORS
330
47
102
}
330
47
100
AcDbScale
 70
     0
300
1/32" = 1'-0"
140
0.03125
141
12.0
290
     0
  0
SCALE
  5
5C
102
{ACAD_REACTORS
330
47
102
}
330
47
100
AcDbScale
 70
     0
300
1/16" = 1'-0"
140
0.0625
141
12.0
290
     0
  0
SCALE
  5
5D
102
{ACAD_REACTORS
330
47
102
}
330
47
100
AcDbScale
 70
     0
300
3/32" = 1'-0"
140
0.09375
141
12.0
290
     0
  0
SCALE
  5
5E
102
{ACAD_REACTORS
330
47
102
}
330
47
100
AcDbScale
 70
     0
300
1/8" = 1'-0"
140
0.125
141
12.0
290
     0
  0
SCALE
  5
5F
102
{ACAD_REACTORS
330
47
102
}
330
47
100
AcDbScale
 70
     0
300
3/16" = 1'-0"
140
0.1875
141
12.0
290
     0
  0
SCALE
  5
60
102
{ACAD_REACTORS
330
47
102
}
330
47
100
AcDbScale
 70
     0
300
1/4" = 1'-0"
140
0.25
141
12.0
290
     0
  0
SCALE
  5
61
102
{ACAD_REACTORS
330
47
102
}
330
47
100
AcDbScale
 70
     0
300
3/8" = 1'-0"
140
0.375
141
12.0
290
     0
  0
SCALE
  5
62
102
{ACAD_REACTORS
330
47
102
}
330
47
100
AcDbScale
 70
     0
300
1/2" = 1'-0"
140
0.5
141
12.0
290
     0
  0
SCALE
  5
63
102
{ACAD_REACTORS
330
47
102
}
330
47
100
AcDbScale
 70
     0
300
3/4" = 1'-0"
140
0.75
141
12.0
290
     0
  0
SCALE
  5
64
102
{ACAD_REACTORS
330
47
102
}
330
47
100
AcDbScale
 70
     0
300
1" = 1'-0"
140
1.0
141
12.0
290
     0
  0
SCALE
  5
65
102
{ACAD_REACTORS
330
47
102
}
330
47
100
AcDbScale
 70
     0
300
1-1/2" = 1'-0"
140
1.5
141
12.0
290
     0
  0
SCALE
  5
66
102
{ACAD_REACTORS
330
47
102
}
330
47
100
AcDbScale
 70
     0
300
3" = 1'-0"
140
3.0
141
12.0
290
     0
  0
SCALE
  5
67
102
{ACAD_REACTORS
330
47
102
}
330
47
100
AcDbScale
 70
     0
300
6" = 1'-0"
140
6.0
141
12.0
290
     0
  0
SCALE
  5
68
102
{ACAD_REACTORS
330
47
102
}
330
47
100
AcDbScale
 70
     0
300
1'-0" = 1'-0"
140
12.0
141
12.0
290
     0
  0
TABLESTYLE
  5
6A
102
{ACAD_REACTORS
330
69
102
}
102
{ACAD_XDICTIONARY
360
26E
102
}
330
69
100
AcDbTableStyle
  3
Standard
 70
     0
 71
     0
 40
0.06
 41
0.06
280
     0
281
     0
  7
Standard
140
4.5
170
     2
 62
     0
 63
   257
283
     0
 90
        4
 91
        0
  1

274
    -2
284
     1
 64
     0
275
    -2
285
     1
 65
     0
276
    -2
286
     1
 66
     0
277
    -2
287
     1
 67
     0
278
    -2
288
     1
 68
     0
279
    -2
289
     1
 69
     0
  7
Standard
140
6.0
170
     5
 62
     0
 63
   257
283
     0
 90
        4
 91
        0
  1

274
    -2
284
     1
 64
     0
275
    -2
285
     1
 65
     0
276
    -2
286
     1
 66
     0
277
    -2
287
     1
 67
     0
278
    -2
288
     1
 68
     0
279
    -2
289
     1
 69
     0
  7
Standard
140
4.5
170
     5
 62
     0
 63
   257
283
     0
 90
        4
 91
        0
  1

274
    -2
284
     1
 64
     0
275
    -2
285
     1
 65
     0
276
    -2
286
     1
 66
     0
277
    -2
287
     1
 67
     0
278
    -2
288
     1
 68
     0
279
    -2
289
     1
 69
     0
  0
VISUALSTYLE
  5
2F
102
{ACAD_REACTORS
330
2A
102
}
102
{ACAD_XDICTIONARY
360
246
102
}
330
2A
100
AcDbVisualStyle
  2
2dWireframe
 70
     4
 71
     0
 72
     2
 73
     0
 90
        0
 40
0.6
 41
30.0
 62
     5
 63
     7
421
 16777215
 74
     1
 91
        4
 64
     7
 65
   257
 75
     1
175
     1
 42
1.0
 92
        0
 66
   257
 43
1.0
 76
     1
 77
     6
 78
     2
 67
     7
 79
     5
170
     0
171
     0
290
     0
174
     0
 93
        1
 44
0.0
173
     0
291
     0
 45
0.0
  0
VISUALSTYLE
  5
32
102
{ACAD_REACTORS
330
2A
102
}
102
{ACAD_XDICTIONARY
360
24C
102
}
330
2A
100
AcDbVisualStyle
  2
Basic
 70
     7
 71
     1
 72
     0
 73
     1
 90
        0
 40
0.6
 41
30.0
 62
     5
 63
     7
421
 16777215
 74
     0
 91
        4
 64
     7
 65
   257
 75
     1
175
     1
 42
1.0
 92
        8
 66
     7
 43
1.0
 76
     1
 77
     6
 78
     2
 67
     7
 79
     5
170
     0
171
     0
290
     0
174
     0
 93
        1
 44
0.0
173
     0
291
     1
 45
0.0
  0
VISUALSTYLE
  5
36
102
{ACAD_REACTORS
330
2A
102
}
102
{ACAD_XDICTIONARY
360
254
102
}
330
2A
100
AcDbVisualStyle
  2
Brighten
 70
    12
 71
     2
 72
     2
 73
     0
 90
        0
 40
0.6
 41
30.0
 62
     5
 63
     7
421
 16777215
 74
     1
 91
        4
 64
     7
 65
   257
 75
     1
175
     1
 42
1.0
 92
        8
 66
     7
 43
1.0
 76
     1
 77
     6
 78
     2
 67
     7
 79
     5
170
     0
171
     0
290
     0
174
     0
 93
        1
 44
50.0
173
     0
291
     1
 45
0.0
  0
VISUALSTYLE
  5
3A
102
{ACAD_REACTORS
330
2A
102
}
102
{ACAD_XDICTIONARY
360
25C
102
}
330
2A
100
AcDbVisualStyle
  2
ColorChange
 70
    16
 71
     2
 72
     2
 73
     3
 90
        0
 40
0.6
 41
30.0
 62
     5
 63
     8
421
  8421504
 74
     1
 91
        4
 64
     7
 65
   257
 75
     1
175
     1
 42
1.0
 92
        8
 66
     8
424
  8421504
 43
1.0
 76
     1
 77
     6
 78
     2
 67
     7
 79
     5
170
     0
171
     0
290
     0
174
     0
 93
        1
 44
0.0
173
     0
291
     1
 45
0.0
  0
VISUALSTYLE
  5
34
102
{ACAD_REACTORS
330
2A
102
}
102
{ACAD_XDICTIONARY
360
250
102
}
330
2A
100
AcDbVisualStyle
  2
Conceptual
 70
     9
 71
     3
 72
     2
 73
     0
 90
        0
 40
0.6
 41
30.0
 62
     5
 63
     7
421
 16777215
 74
     2
 91
        2
 64
     7
 65
   257
 75
     1
175
     1
 42
179.0
 92
        8
 66
     7
 43
1.0
 76
     1
 77
     6
 78
     2
 67
     7
 79
     3
170
     0
171
     0
290
     0
174
     0
 93
        1
 44
0.0
173
     0
291
     0
 45
0.0
  0
VISUALSTYLE
  5
35
102
{ACAD_REACTORS
330
2A
102
}
102
{ACAD_XDICTIONARY
360
252
102
}
330
2A
100
AcDbVisualStyle
  2
Dim
 70
    11
 71
     2
 72
     2
 73
     0
 90
        0
 40
0.6
 41
30.0
 62
     5
 63
     7
421
 16777215
 74
     1
 91
        4
 64
     7
 65
   257
 75
     1
175
     1
 42
1.0
 92
        8
 66
     7
 43
1.0
 76
     1
 77
     6
 78
     2
 67
     7
 79
     5
170
     0
171
     0
290
     0
174
     0
 93
        1
 44
-50.0
173
     0
291
     1
 45
0.0
  0
VISUALSTYLE
  5
3D
102
{ACAD_REACTORS
330
2A
102
}
102
{ACAD_XDICTIONARY
360
262
102
}
330
2A
100
AcDbVisualStyle
  2
EdgeColorOff
 70
    22
 71
     2
 72
     2
 73
     0
 90
        0
 40
0.6
 41
30.0
 62
     5
 63
     7
421
 16777215
 74
     1
 91
        4
 64
     7
 65
   257
 75
     1
175
     1
 42
1.0
 92
        8
 66
     7
 43
1.0
 76
     1
 77
     6
 78
     2
 67
     7
 79
     5
170
     0
171
     0
290
     0
174
     0
 93
        1
 44
0.0
173
     0
291
     1
 45
0.0
  0
VISUALSTYLE
  5
39
102
{ACAD_REACTORS
330
2A
102
}
102
{ACAD_XDICTIONARY
360
25A
102
}
330
2A
100
AcDbVisualStyle
  2
Facepattern
 70
    15
 71
     2
 72
     2
 73
     0
 90
        0
 40
0.6
 41
30.0
 62
     5
 63
     7
421
 16777215
 74
     1
 91
        4
 64
     7
 65
   257
 75
     1
175
     1
 42
1.0
 92
        8
 66
     7
 43
1.0
 76
     1
 77
     6
 78
     2
 67
     7
 79
     5
170
     0
171
     0
290
     0
174
     0
 93
        1
 44
0.0
173
     0
291
     1
 45
0.0
  0
VISUALSTYLE
  5
2B
102
{ACAD_REACTORS
330
2A
102
}
102
{ACAD_XDICTIONARY
360
23E
102
}
330
2A
100
AcDbVisualStyle
  2
Flat
 70
     0
 71
     2
 72
     1
 73
     1
 90
        2
 40
0.6
 41
30.0
 62
     5
 63
     7
421
 16777215
 74
     0
 91
        0
 64
     7
 65
   257
 75
     1
175
     1
 42
1.0
 92
        8
 66
     7
 43
1.0
 76
     1
 77
     6
 78
     2
 67
     7
 79
     5
170
     0
171
     0
290
     0
174
     0
 93
       13
 44
0.0
173
     0
291
     1
 45
0.0
  0
VISUALSTYLE
  5
2C
102
{ACAD_REACTORS
330
2A
102
}
102
{ACAD_XDICTIONARY
360
240
102
}
330
2A
100
AcDbVisualStyle
  2
FlatWithEdges
 70
     1
 71
     2
 72
     1
 73
     1
 90
        2
 40
0.6
 41
30.0
 62
     5
 63
     7
421
 16777215
 74
     1
 91
        0
 64
     7
 65
   257
 75
     1
175
     1
 42
1.0
 92
        0
 66
   257
 43
1.0
 76
     1
 77
     6
 78
     2
 67
     7
 79
     5
170
     0
171
     0
290
     0
174
     0
 93
       13
 44
0.0
173
     0
291
     1
 45
0.0
  0
VISUALSTYLE
  5
2D
102
{ACAD_REACTORS
330
2A
102
}
102
{ACAD_XDICTIONARY
360
242
102
}
330
2A
100
AcDbVisualStyle
  2
Gouraud
 70
     2
 71
     2
 72
     2
 73
     1
 90
        2
 40
0.6
 41
30.0
 62
     5
 63
     7
421
 16777215
 74
     0
 91
        0
 64
     7
 65
   257
 75
     1
175
     1
 42
1.0
 92
        0
 66
     7
 43
1.0
 76
     1
 77
     6
 78
     2
 67
     7
 79
     5
170
     0
171
     0
290
     0
174
     0
 93
       13
 44
0.0
173
     0
291
     1
 45
0.0
  0
VISUALSTYLE
  5
2E
102
{ACAD_REACTORS
330
2A
102
}
102
{ACAD_XDICTIONARY
360
244
102
}
330
2A
100
AcDbVisualStyle
  2
GouraudWithEdges
 70
     3
 71
     2
 72
     2
 73
     1
 90
        2
 40
0.6
 41
30.0
 62
     5
 63
     7
421
 16777215
 74
     1
 91
        0
 64
     7
 65
   257
 75
     1
175
     1
 42
1.0
 92
        0
 66
   257
 43
1.0
 76
     1
 77
     6
 78
     2
 67
     7
 79
     5
170
     0
171
     0
290
     0
174
     0
 93
       13
 44
0.0
173
     0
291
     1
 45
0.0
  0
VISUALSTYLE
  5
31
102
{ACAD_REACTORS
330
2A
102
}
102
{ACAD_XDICTIONARY
360
24A
102
}
330
2A
100
AcDbVisualStyle
  2
Hidden
 70
     6
 71
     1
 72
     2
 73
     2
 90
        0
 40
0.6
 41
30.0
 62
     5
 63
     7
421
 16777215
 74
     2
 91
        2
 64
     7
 65
   257
 75
     2
175
     1
 42
40.0
 92
        0
 66
   257
 43
1.0
 76
     1
 77
     6
 78
     2
 67
     7
 79
     3
170
     0
171
     0
290
     0
174
     0
 93
        1
 44
0.0
173
     0
291
     0
 45
0.0
  0
VISUALSTYLE
  5
3B
102
{ACAD_REACTORS
330
2A
102
}
102
{ACAD_XDICTIONARY
360
25E
102
}
330
2A
100
AcDbVisualStyle
  2
JitterOff
 70
    20
 71
     2
 72
     2
 73
     0
 90
        0
 40
0.6
 41
30.0
 62
     5
 63
     7
421
 16777215
 74
     1
 91
        4
 64
     7
 65
   257
 75
     1
175
     1
 42
1.0
 92
       10
 66
     7
 43
1.0
 76
     1
 77
     6
 78
     2
 67
     7
 79
     5
170
     0
171
     0
290
     0
174
     0
 93
        1
 44
0.0
173
     0
291
     1
 45
0.0
  0
VISUALSTYLE
  5
38
102
{ACAD_REACTORS
330
2A
102
}
102
{ACAD_XDICTIONARY
360
258
102
}
330
2A
100
AcDbVisualStyle
  2
Linepattern
 70
    14
 71
     2
 72
     2
 73
     0
 90
        0
 40
0.6
 41
30.0
 62
     5
 63
     7
421
 16777215
 74
     1
 91
        4
 64
     7
 65
   257
 75
     7
175
     7
 42
1.0
 92
        8
 66
     7
 43
1.0
 76
     1
 77
     6
 78
     2
 67
     7
 79
     5
170
     0
171
     0
290
     0
174
     0
 93
        1
 44
0.0
173
     0
291
     1
 45
0.0
  0
VISUALSTYLE
  5
3C
102
{ACAD_REACTORS
330
2A
102
}
102
{ACAD_XDICTIONARY
360
260
102
}
330
2A
100
AcDbVisualStyle
  2
OverhangOff
 70
    21
 71
     2
 72
     2
 73
     0
 90
        0
 40
0.6
 41
30.0
 62
     5
 63
     7
421
 16777215
 74
     1
 91
        4
 64
     7
 65
   257
 75
     1
175
     1
 42
1.0
 92
        9
 66
     7
 43
1.0
 76
     1
 77
     6
 78
     2
 67
     7
 79
     5
170
     0
171
     0
290
     0
174
     0
 93
        1
 44
0.0
173
     0
291
     1
 45
0.0
  0
VISUALSTYLE
  5
33
102
{ACAD_REACTORS
330
2A
102
}
102
{ACAD_XDICTIONARY
360
24E
102
}
330
2A
100
AcDbVisualStyle
  2
Realistic
 70
     8
 71
     2
 72
     3
 73
     0
 90
        2
 40
0.6
 41
30.0
 62
     5
 63
     7
421
 16777215
 74
     0
 91
        0
 64
     7
 65
   257
 75
     1
175
     1
 42
1.0
 92
        8
 66
   257
 43
1.0
 76
     1
 77
     6
 78
     2
 67
     7
 79
     3
170
     0
171
     0
290
     0
174
     0
 93
       13
 44
0.0
173
     0
291
     0
 45
0.0
  0
VISUALSTYLE
  5
42
102
{ACAD_REACTORS
330
2A
102
}
102
{ACAD_XDICTIONARY
360
26C
102
}
330
2A
100
AcDbVisualStyle
  2
Shaded
 70
    27
 71
     2
 72
     2
 73
     1
 90
        2
 40
0.6
 41
30.0
 62
     5
 63
     7
421
 16777215
 74
     0
 91
        4
 64
     7
 65
   257
 75
     1
175
     1
 42
1.0
 92
        8
 66
   257
 43
1.0
 76
     1
 77
     6
 78
     2
 67
     8
425
  7895160
 79
     3
170
     0
171
     0
290
     0
174
     0
 93
        5
 44
0.0
173
     0
291
     0
 45
0.0
  0
VISUALSTYLE
  5
41
102
{ACAD_REACTORS
330
2A
102
}
102
{ACAD_XDICTIONARY
360
26A
102
}
330
2A
100
AcDbVisualStyle
  2
Shaded with edges
 70
    26
 71
     2
 72
     2
 73
     1
 90
        2
 40
0.6
 41
30.0
 62
     5
 63
     7
421
 16777215
 74
     1
 91
       10
 64
     7
 65
   257
 75
     2
175
     1
 42
1.0
 92
        8
 66
   257
 43
1.0
 76
     1
 77
     6
 78
     2
 67
     7
 79
     3
170
     0
171
     0
290
     0
174
     0
 93
        5
 44
0.0
173
     0
291
     0
 45
0.0
  0
VISUALSTYLE
  5
3E
102
{ACAD_REACTORS
330
2A
102
}
102
{ACAD_XDICTIONARY
360
264
102
}
330
2A
100
AcDbVisualStyle
  2
Shades of Gray
 70
    23
 71
     2
 72
     2
 73
     3
 90
        0
 40
0.6
 41
30.0
 62
     5
 63
     7
421
 16777215
 74
     2
 91
        2
 64
     7
 65
     7
 75
     1
175
     1
 42
40.0
 92
        8
 66
     7
 43
1.0
 76
     1
 77
     6
 78
     2
 67
     7
 79
     3
170
     0
171
     0
290
     0
174
     0
 93
        1
 44
0.0
173
     0
291
     0
 45
0.0
  0
VISUALSTYLE
  5
3F
102
{ACAD_REACTORS
330
2A
102
}
102
{ACAD_XDICTIONARY
360
266
102
}
330
2A
100
AcDbVisualStyle
  2
Sketchy
 70
    24
 71
     1
 72
     2
 73
     2
 90
        0
 40
0.6
 41
30.0
 62
     5
 63
     7
421
 16777215
 74
     2
 91
        2
 64
     7
 65
     7
 75
     1
175
     1
 42
40.0
 92
       11
 66
     7
 43
1.0
 76
     1
 77
     6
 78
     2
 67
     7
 79
     6
170
     0
171
     0
290
     0
174
     0
 93
        1
 44
0.0
173
     0
291
     0
 45
0.0
  0
VISUALSTYLE
  5
37
102
{ACAD_REACTORS
330
2A
102
}
102
{ACAD_XDICTIONARY
360
256
102
}
330
2A
100
AcDbVisualStyle
  2
Thicken
 70
    13
 71
     2
 72
     2
 73
     0
 90
        0
 40
0.6
 41
30.0
 62
     5
 63
     7
421
 16777215
 74
     1
 91
        4
 64
     7
 65
   257
 75
     1
175
     1
 42
1.0
 92
       12
 66
     7
 43
1.0
 76
     1
 77
     6
 78
     2
 67
     7
 79
     5
170
     0
171
     0
290
     0
174
     0
 93
        1
 44
0.0
173
     0
291
     1
 45
0.0
  0
VISUALSTYLE
  5
30
102
{ACAD_REACTORS
330
2A
102
}
102
{ACAD_XDICTIONARY
360
248
102
}
330
2A
100
AcDbVisualStyle
  2
Wireframe
 70
     5
 71
     0
 72
     2
 73
     0
 90
        0
 40
0.6
 41
30.0
 62
     5
 63
     7
421
 16777215
 74
     1
 91
        4
 64
     7
 65
   257
 75
     1
175
     1
 42
1.0
 92
        0
 66
   257
 43
1.0
 76
     1
 77
     6
 78
     2
 67
     7
 79
     3
170
     0
171
     0
290
     0
174
     0
 93
        1
 44
0.0
173
     0
291
     0
 45
0.0
  0
VISUALSTYLE
  5
40
102
{ACAD_REACTORS
330
2A
102
}
102
{ACAD_XDICTIONARY
360
268
102
}
330
2A
100
AcDbVisualStyle
  2
X-Ray
 70
    25
 71
     2
 72
     2
 73
     1
 90
        1
 40
0.5
 41
30.0
 62
     5
 63
     7
421
 16777215
 74
     1
 91
        0
 64
     7
 65
   257
 75
     1
175
     1
 42
1.0
 92
        8
 66
     7
 43
1.0
 76
     1
 77
     6
 78
     2
 67
     7
 79
     3
170
     0
171
     0
290
     0
174
     0
 93
       13
 44
0.0
173
     0
291
     0
 45
0.0
  0
DICTIONARYVAR
  5
23C
102
{ACAD_REACTORS
330
23B
102
}
330
23B
100
DictionaryVariables
280
     0
  1
1:1
  0
DICTIONARYVAR
  5
278
102
{ACAD_REACTORS
330
23B
102
}
330
23B
100
DictionaryVariables
280
     0
  1
3.500000
  0
DICTIONARYVAR
  5
279
102
{ACAD_REACTORS
330
23B
102
}
330
23B
100
DictionaryVariables
280
     0
  1
acadiso.lin
  0
DICTIONARYVAR
  5
275
102
{ACAD_REACTORS
330
23B
102
}
330
23B
100
DictionaryVariables
280
     0
  1
Standard
  0
DICTIONARYVAR
  5
274
102
{ACAD_REACTORS
330
23B
102
}
330
23B
100
DictionaryVariables
280
     0
  1
Standard
  0
DICTIONARYVAR
  5
23D
102
{ACAD_REACTORS
330
23B
102
}
330
23B
100
DictionaryVariables
280
     0
  1
2
  0
DICTIONARY
  5
271
330
6C
100
AcDbDictionary
280
     1
281
     1
  3
ACAD_XREC_ROUNDTRIP
360
272
  0
DICTIONARY
  5
26E
330
6A
100
AcDbDictionary
280
     1
281
     1
  3
ACAD_ROUNDTRIP_2008_TABLESTYLE_CELLSTYLEMAP
360
26F
  0
DICTIONARY
  5
246
330
2F
100
AcDbDictionary
280
     1
281
     1
  3
ACAD_XREC_ROUNDTRIP
360
247
  0
DICTIONARY
  5
24C
330
32
100
AcDbDictionary
280
     1
281
     1
  3
ACAD_XREC_ROUNDTRIP
360
24D
  0
DICTIONARY
  5
254
330
36
100
AcDbDictionary
280
     1
281
     1
  3
ACAD_XREC_ROUNDTRIP
360
255
  0
DICTIONARY
  5
25C
330
3A
100
AcDbDictionary
280
     1
281
     1
  3
ACAD_XREC_ROUNDTRIP
360
25D
  0
DICTIONARY
  5
250
330
34
100
AcDbDictionary
280
     1
281
     1
  3
ACAD_XREC_ROUNDTRIP
360
251
  0
DICTIONARY
  5
252
330
35
100
AcDbDictionary
280
     1
281
     1
  3
ACAD_XREC_ROUNDTRIP
360
253
  0
DICTIONARY
  5
262
330
3D
100
AcDbDictionary
280
     1
281
     1
  3
ACAD_XREC_ROUNDTRIP
360
263
  0
DICTIONARY
  5
25A
330
39
100
AcDbDictionary
280
     1
281
     1
  3
ACAD_XREC_ROUNDTRIP
360
25B
  0
DICTIONARY
  5
23E
330
2B
100
AcDbDictionary
280
     1
281
     1
  3
ACAD_XREC_ROUNDTRIP
360
23F
  0
DICTIONARY
  5
240
330
2C
100
AcDbDictionary
280
     1
281
     1
  3
ACAD_XREC_ROUNDTRIP
360
241
  0
DICTIONARY
  5
242
330
2D
100
AcDbDictionary
280
     1
281
     1
  3
ACAD_XREC_ROUNDTRIP
360
243
  0
DICTIONARY
  5
244
330
2E
100
AcDbDictionary
280
     1
281
     1
  3
ACAD_XREC_ROUNDTRIP
360
245
  0
DICTIONARY
  5
24A
330
31
100
AcDbDictionary
280
     1
281
     1
  3
ACAD_XREC_ROUNDTRIP
360
24B
  0
DICTIONARY
  5
25E
330
3B
100
AcDbDictionary
280
     1
281
     1
  3
ACAD_XREC_ROUNDTRIP
360
25F
  0
DICTIONARY
  5
258
330
38
100
AcDbDictionary
280
     1
281
     1
  3
ACAD_XREC_ROUNDTRIP
360
259
  0
DICTIONARY
  5
260
330
3C
100
AcDbDictionary
280
     1
281
     1
  3
ACAD_XREC_ROUNDTRIP
360
261
  0
DICTIONARY
  5
24E
330
33
100
AcDbDictionary
280
     1
281
     1
  3
ACAD_XREC_ROUNDTRIP
360
24F
  0
DICTIONARY
  5
26C
330
42
100
AcDbDictionary
280
     1
281
     1
  3
ACAD_XREC_ROUNDTRIP
360
26D
  0
DICTIONARY
  5
26A
330
41
100
AcDbDictionary
280
     1
281
     1
  3
ACAD_XREC_ROUNDTRIP
360
26B
  0
DICTIONARY
  5
264
330
3E
100
AcDbDictionary
280
     1
281
     1
  3
ACAD_XREC_ROUNDTRIP
360
265
  0
DICTIONARY
  5
266
330
3F
100
AcDbDictionary
280
     1
281
     1
  3
ACAD_XREC_ROUNDTRIP
360
267
  0
DICTIONARY
  5
256
330
37
100
AcDbDictionary
280
     1
281
     1
  3
ACAD_XREC_ROUNDTRIP
360
257
  0
DICTIONARY
  5
248
330
30
100
AcDbDictionary
280
     1
281
     1
  3
ACAD_XREC_ROUNDTRIP
360
249
  0
DICTIONARY
  5
268
330
40
100
AcDbDictionary
280
     1
281
     1
  3
ACAD_XREC_ROUNDTRIP
360
269
  0
XRECORD
  5
272
102
{ACAD_REACTORS
330
271
102
}
330
271
100
AcDbXrecord
280
     1
102
ACAD_ROUNDTRIP_2010_MLEADER_STYLE
  0
CELLSTYLEMAP
  5
26F
102
{ACAD_REACTORS
330
26E
102
}
330
26E
100
AcDbCellStyleMap
 90
        3
300
CELLSTYLE
  1
TABLEFORMAT_BEGIN
 90
        5
170
     1
 91
        0
 92
    32768
 62
   257
 93
        1
300
CONTENTFORMAT
  1
CONTENTFORMAT_BEGIN
 90
        0
 91
        0
 92
        4
 93
        0
300

 40
0.0
140
1.0
 94
        5
 62
     0
340
11
144
6.0
309
CONTENTFORMAT_END
171
     1
301
MARGIN
  1
CELLMARGIN_BEGIN
 40
1.5
 40
1.5
 40
1.5
 40
1.5
 40
1.5
 40
1.5
309
CELLMARGIN_END
 94
        6
 95
        1
302
GRIDFORMAT
  1
GRIDFORMAT_BEGIN
 90
        0
 91
        1
 62
     0
 92
       -2
340
14
 93
        0
 40
0.045
309
GRIDFORMAT_END
 95
        2
302
GRIDFORMAT
  1
GRIDFORMAT_BEGIN
 90
        0
 91
        1
 62
     0
 92
       -2
340
14
 93
        0
 40
0.045
309
GRIDFORMAT_END
 95
        4
302
GRIDFORMAT
  1
GRIDFORMAT_BEGIN
 90
        0
 91
        1
 62
     0
 92
       -2
340
14
 93
        0
 40
0.045
309
GRIDFORMAT_END
 95
        8
302
GRIDFORMAT
  1
GRIDFORMAT_BEGIN
 90
        0
 91
        1
 62
     0
 92
       -2
340
14
 93
        0
 40
0.045
309
GRIDFORMAT_END
 95
       16
302
GRIDFORMAT
  1
GRIDFORMAT_BEGIN
 90
        0
 91
        1
 62
     0
 92
       -2
340
14
 93
        0
 40
0.045
309
GRIDFORMAT_END
 95
       32
302
GRIDFORMAT
  1
GRIDFORMAT_BEGIN
 90
        0
 91
        1
 62
     0
 92
       -2
340
14
 93
        0
 40
0.045
309
GRIDFORMAT_END
309
TABLEFORMAT_END
  1
CELLSTYLE_BEGIN
 90
        1
 91
        1
300
_TITLE
309
CELLSTYLE_END
300
CELLSTYLE
  1
TABLEFORMAT_BEGIN
 90
        5
170
     1
 91
        0
 92
        0
 62
   257
 93
        1
300
CONTENTFORMAT
  1
CONTENTFORMAT_BEGIN
 90
        0
 91
        0
 92
        4
 93
        0
300

 40
0.0
140
1.0
 94
        5
 62
     0
340
11
144
4.5
309
CONTENTFORMAT_END
171
     1
301
MARGIN
  1
CELLMARGIN_BEGIN
 40
1.5
 40
1.5
 40
1.5
 40
1.5
 40
1.5
 40
1.5
309
CELLMARGIN_END
 94
        6
 95
        1
302
GRIDFORMAT
  1
GRIDFORMAT_BEGIN
 90
        0
 91
        1
 62
     0
 92
       -2
340
14
 93
        0
 40
0.045
309
GRIDFORMAT_END
 95
        2
302
GRIDFORMAT
  1
GRIDFORMAT_BEGIN
 90
        0
 91
        1
 62
     0
 92
       -2
340
14
 93
        0
 40
0.045
309
GRIDFORMAT_END
 95
        4
302
GRIDFORMAT
  1
GRIDFORMAT_BEGIN
 90
        0
 91
        1
 62
     0
 92
       -2
340
14
 93
        0
 40
0.045
309
GRIDFORMAT_END
 95
        8
302
GRIDFORMAT
  1
GRIDFORMAT_BEGIN
 90
        0
 91
        1
 62
     0
 92
       -2
340
14
 93
        0
 40
0.045
309
GRIDFORMAT_END
 95
       16
302
GRIDFORMAT
  1
GRIDFORMAT_BEGIN
 90
        0
 91
        1
 62
     0
 92
       -2
340
14
 93
        0
 40
0.045
309
GRIDFORMAT_END
 95
       32
302
GRIDFORMAT
  1
GRIDFORMAT_BEGIN
 90
        0
 91
        1
 62
     0
 92
       -2
340
14
 93
        0
 40
0.045
309
GRIDFORMAT_END
309
TABLEFORMAT_END
  1
CELLSTYLE_BEGIN
 90
        2
 91
        1
300
_HEADER
309
CELLSTYLE_END
300
CELLSTYLE
  1
TABLEFORMAT_BEGIN
 90
        5
170
     1
 91
        0
 92
        0
 62
   257
 93
        1
300
CONTENTFORMAT
  1
CONTENTFORMAT_BEGIN
 90
        0
 91
        0
 92
        4
 93
        0
300

 40
0.0
140
1.0
 94
        2
 62
     0
340
11
144
4.5
309
CONTENTFORMAT_END
171
     1
301
MARGIN
  1
CELLMARGIN_BEGIN
 40
1.5
 40
1.5
 40
1.5
 40
1.5
 40
1.5
 40
1.5
309
CELLMARGIN_END
 94
        6
 95
        1
302
GRIDFORMAT
  1
GRIDFORMAT_BEGIN
 90
        0
 91
        1
 62
     0
 92
       -2
340
14
 93
        0
 40
0.045
309
GRIDFORMAT_END
 95
        2
302
GRIDFORMAT
  1
GRIDFORMAT_BEGIN
 90
        0
 91
        1
 62
     0
 92
       -2
340
14
 93
        0
 40
0.045
309
GRIDFORMAT_END
 95
        4
302
GRIDFORMAT
  1
GRIDFORMAT_BEGIN
 90
        0
 91
        1
 62
     0
 92
       -2
340
14
 93
        0
 40
0.045
309
GRIDFORMAT_END
 95
        8
302
GRIDFORMAT
  1
GRIDFORMAT_BEGIN
 90
        0
 91
        1
 62
     0
 92
       -2
340
14
 93
        0
 40
0.045
309
GRIDFORMAT_END
 95
       16
302
GRIDFORMAT
  1
GRIDFORMAT_BEGIN
 90
        0
 91
        1
 62
     0
 92
       -2
340
14
 93
        0
 40
0.045
309
GRIDFORMAT_END
 95
       32
302
GRIDFORMAT
  1
GRIDFORMAT_BEGIN
 90
        0
 91
        1
 62
     0
 92
       -2
340
14
 93
        0
 40
0.045
309
GRIDFORMAT_END
309
TABLEFORMAT_END
  1
CELLSTYLE_BEGIN
 90
        3
 91
        2
300
_DATA
309
CELLSTYLE_END
  0
XRECORD
  5
247
102
{ACAD_REACTORS
330
246
102
}
330
246
100
AcDbXrecord
280
     1
102
RTVSPropertyOp0
 70
     1
102
RTVSPropertyOp1
 70
     1
102
RTVSPropertyOp2
 70
     1
102
RTVSPropertyOp3
 70
     1
102
RTVSPropertyOp4
 70
     1
102
RTVSPropertyOp5
 70
     1
102
RTVSPropertyOp6
 70
     1
102
RTVSPropertyOp7
 70
     1
102
RTVSPropertyOp8
 70
     1
102
RTVSPropertyOp9
 70
     1
102
RTVSPropertyOp10
 70
     1
102
RTVSPropertyOp11
 70
     1
102
RTVSPropertyOp12
 70
     1
102
RTVSPropertyOp13
 70
     1
102
RTVSPropertyOp14
 70
     1
102
RTVSPropertyOp15
 70
     1
102
RTVSPropertyOp16
 70
     1
102
RTVSPropertyOp17
 70
     1
102
RTVSPropertyOp18
 70
     1
102
RTVSPropertyOp19
 70
     1
102
RTVSPropertyOp20
 70
     1
102
RTVSPropertyOp21
 70
     1
102
RTVSPropertyOp22
 70
     1
102
RTVSPropertyOp23
 70
     1
102
RTVSPropertyOp24
 70
     1
102
RTVSPropertyOp25
 70
     1
102
RTVSPropertyOp26
 70
     1
102
RTVSPropertyOp27
 70
     1
102
RTVSPropertyOp28
 70
     1
102
RTVSPropertyOp29
 70
     1
102
RTVSPropertyOp30
 70
     1
102
RTVSPropertyOp31
 70
     1
102
RTVSPropertyOp32
 70
     1
102
RTVSPropertyOp33
 70
     1
102
RTVSPropertyOp34
 70
     1
102
RTVSPropertyOp35
 70
     1
102
RTVSPropertyOp36
 70
     1
102
RTVSPropertyOp37
 70
     1
102
RTVSPropertyOp38
 70
     1
102
RTVSPropertyOp39
 70
     1
102
RTVSPropertyOp40
 70
     1
102
RTVSPropertyOp41
 70
     1
102
RTVSPropertyOp42
 70
     1
102
RTVSPropertyOp43
 70
     1
102
RTVSPropertyOp44
 70
     1
102
RTVSPropertyOp45
 70
     1
102
RTVSPropertyOp46
 70
     1
102
RTVSPropertyOp47
 70
     1
102
RTVSPropertyOp48
 70
     1
102
RTVSPropertyOp49
 70
     1
102
RTVSPropertyOp50
 70
     1
102
RTVSPropertyOp51
 70
     0
102
RTVSPropertyOp52
 70
     0
102
RTVSPropertyOp53
 70
     1
102
RTVSPropertyOp54
 70
     1
102
RTVSPropertyOp55
 70
     1
102
RTVSPropertyOp56
 70
     1
102
RTVSPropertyOp57
 70
     1
102
RTVSPost2010Prop28
280
     1
102
RTVSPost2010PropOp28
 70
     1
102
RTVSPost2010Prop29
280
     1
102
RTVSPost2010PropOp29
 70
     1
102
RTVSPost2010Prop30
280
     0
102
RTVSPost2010PropOp30
 70
     1
102
RTVSPost2010Prop31
280
     0
102
RTVSPost2010PropOp31
 70
     1
102
RTVSPost2010Prop32
280
     0
102
RTVSPost2010PropOp32
 70
     1
102
RTVSPost2010Prop33
280
     0
102
RTVSPost2010PropOp33
 70
     1
102
RTVSPost2010Prop34
280
     0
102
RTVSPost2010PropOp34
 70
     1
102
RTVSPost2010Prop35
280
     0
102
RTVSPost2010PropOp35
 70
     1
102
RTVSPost2010Prop36
280
     0
102
RTVSPost2010PropOp36
 70
     1
102
RTVSPost2010Prop37
 90
       50
102
RTVSPost2010PropOp37
 70
     1
102
RTVSPost2010Prop38
140
0.0
102
RTVSPost2010PropOp38
 70
     1
102
RTVSPost2010Prop39
140
1.0
102
RTVSPost2010PropOp39
 70
     1
102
RTVSPost2010Prop40
 90
        0
102
RTVSPost2010PropOp40
 70
     1
102
RTVSPost2010Prop41ColorIndex
 90
       18
102
RTVSPost2010Prop41ColorRGB
 90
        0
102
RTVSPost2010PropOp41
 70
     1
102
RTVSPost2010Prop42
 90
       50
102
RTVSPost2010PropOp42
 70
     1
102
RTVSPost2010Prop43
 90
        3
102
RTVSPost2010PropOp43
 70
     1
102
RTVSPost2010Prop44ColorIndex
 90
        5
102
RTVSPost2010Prop44ColorRGB
 90
      255
102
RTVSPost2010PropOp44
 70
     1
102
RTVSPost2010Prop45
280
     0
102
RTVSPost2010PropOp45
 70
     1
102
RTVSPost2010Prop46
 90
       50
102
RTVSPost2010PropOp46
 70
     1
102
RTVSPost2010Prop47
 90
       50
102
RTVSPost2010PropOp47
 70
     1
102
RTVSPost2010Prop48
 90
       50
102
RTVSPost2010PropOp48
 70
     1
102
RTVSPost2010Prop49
280
     0
102
RTVSPost2010PropOp49
 70
     1
102
RTVSPost2010Prop50
 90
       50
102
RTVSPost2010PropOp50
 70
     1
102
RTVSPost2010Prop51ColorIndex
 90
      256
102
RTVSPost2010Prop51ColorRGB
 90
-16777216
102
RTVSPost2010PropOp51
 70
     0
102
RTVSPost2010Prop52
140
1.0
102
RTVSPost2010PropOp52
 70
     0
102
RTVSPost2010Prop53
 90
        2
102
RTVSPost2010PropOp53
 70
     1
102
RTVSPost2010Prop54
  1
strokes_ogs.tif
102
RTVSPost2010PropOp54
 70
     1
102
RTVSPost2010Prop55
280
     0
102
RTVSPost2010PropOp55
 70
     1
102
RTVSPost2010Prop56
140
1.0
102
RTVSPost2010PropOp56
 70
     1
102
RTVSPost2010Prop57
140
1.0
102
RTVSPost2010PropOp57
 70
     1
  0
XRECORD
  5
24D
102
{ACAD_REACTORS
330
24C
102
}
330
24C
100
AcDbXrecord
280
     1
102
RTVSPropertyOp0
 70
     1
102
RTVSPropertyOp1
 70
     1
102
RTVSPropertyOp2
 70
     1
102
RTVSPropertyOp3
 70
     1
102
RTVSPropertyOp4
 70
     1
102
RTVSPropertyOp5
 70
     1
102
RTVSPropertyOp6
 70
     1
102
RTVSPropertyOp7
 70
     1
102
RTVSPropertyOp8
 70
     1
102
RTVSPropertyOp9
 70
     1
102
RTVSPropertyOp10
 70
     1
102
RTVSPropertyOp11
 70
     1
102
RTVSPropertyOp12
 70
     1
102
RTVSPropertyOp13
 70
     1
102
RTVSPropertyOp14
 70
     1
102
RTVSPropertyOp15
 70
     1
102
RTVSPropertyOp16
 70
     1
102
RTVSPropertyOp17
 70
     1
102
RTVSPropertyOp18
 70
     1
102
RTVSPropertyOp19
 70
     1
102
RTVSPropertyOp20
 70
     1
102
RTVSPropertyOp21
 70
     1
102
RTVSPropertyOp22
 70
     1
102
RTVSPropertyOp23
 70
     1
102
RTVSPropertyOp24
 70
     1
102
RTVSPropertyOp25
 70
     1
102
RTVSPropertyOp26
 70
     1
102
RTVSPropertyOp27
 70
     1
102
RTVSPropertyOp28
 70
     1
102
RTVSPropertyOp29
 70
     1
102
RTVSPropertyOp30
 70
     1
102
RTVSPropertyOp31
 70
     1
102
RTVSPropertyOp32
 70
     1
102
RTVSPropertyOp33
 70
     1
102
RTVSPropertyOp34
 70
     1
102
RTVSPropertyOp35
 70
     1
102
RTVSPropertyOp36
 70
     1
102
RTVSPropertyOp37
 70
     1
102
RTVSPropertyOp38
 70
     1
102
RTVSPropertyOp39
 70
     1
102
RTVSPropertyOp40
 70
     1
102
RTVSPropertyOp41
 70
     1
102
RTVSPropertyOp42
 70
     1
102
RTVSPropertyOp43
 70
     1
102
RTVSPropertyOp44
 70
     1
102
RTVSPropertyOp45
 70
     1
102
RTVSPropertyOp46
 70
     1
102
RTVSPropertyOp47
 70
     1
102
RTVSPropertyOp48
 70
     1
102
RTVSPropertyOp49
 70
     1
102
RTVSPropertyOp50
 70
     1
102
RTVSPropertyOp51
 70
     0
102
RTVSPropertyOp52
 70
     0
102
RTVSPropertyOp53
 70
     1
102
RTVSPropertyOp54
 70
     1
102
RTVSPropertyOp55
 70
     1
102
RTVSPropertyOp56
 70
     1
102
RTVSPropertyOp57
 70
     1
102
RTVSPost2010Prop28
280
     0
102
RTVSPost2010PropOp28
 70
     1
102
RTVSPost2010Prop29
280
     1
102
RTVSPost2010PropOp29
 70
     1
102
RTVSPost2010Prop30
280
     1
102
RTVSPost2010PropOp30
 70
     1
102
RTVSPost2010Prop31
280
     0
102
RTVSPost2010PropOp31
 70
     1
102
RTVSPost2010Prop32
280
     0
102
RTVSPost2010PropOp32
 70
     1
102
RTVSPost2010Prop33
280
     0
102
RTVSPost2010PropOp33
 70
     1
102
RTVSPost2010Prop34
280
     0
102
RTVSPost2010PropOp34
 70
     1
102
RTVSPost2010Prop35
280
     0
102
RTVSPost2010PropOp35
 70
     1
102
RTVSPost2010Prop36
280
     0
102
RTVSPost2010PropOp36
 70
     1
102
RTVSPost2010Prop37
 90
       50
102
RTVSPost2010PropOp37
 70
     1
102
RTVSPost2010Prop38
140
0.0
102
RTVSPost2010PropOp38
 70
     1
102
RTVSPost2010Prop39
140
1.0
102
RTVSPost2010PropOp39
 70
     1
102
RTVSPost2010Prop40
 90
        0
102
RTVSPost2010PropOp40
 70
     1
102
RTVSPost2010Prop41ColorIndex
 90
       18
102
RTVSPost2010Prop41ColorRGB
 90
        0
102
RTVSPost2010PropOp41
 70
     1
102
RTVSPost2010Prop42
 90
       50
102
RTVSPost2010PropOp42
 70
     1
102
RTVSPost2010Prop43
 90
        3
102
RTVSPost2010PropOp43
 70
     1
102
RTVSPost2010Prop44ColorIndex
 90
        5
102
RTVSPost2010Prop44ColorRGB
 90
      255
102
RTVSPost2010PropOp44
 70
     1
102
RTVSPost2010Prop45
280
     0
102
RTVSPost2010PropOp45
 70
     1
102
RTVSPost2010Prop46
 90
       50
102
RTVSPost2010PropOp46
 70
     1
102
RTVSPost2010Prop47
 90
       50
102
RTVSPost2010PropOp47
 70
     1
102
RTVSPost2010Prop48
 90
       50
102
RTVSPost2010PropOp48
 70
     1
102
RTVSPost2010Prop49
280
     0
102
RTVSPost2010PropOp49
 70
     1
102
RTVSPost2010Prop50
 90
       50
102
RTVSPost2010PropOp50
 70
     1
102
RTVSPost2010Prop51ColorIndex
 90
      256
102
RTVSPost2010Prop51ColorRGB
 90
-16777216
102
RTVSPost2010PropOp51
 70
     0
102
RTVSPost2010Prop52
140
1.0
102
RTVSPost2010PropOp52
 70
     0
102
RTVSPost2010Prop53
 90
        2
102
RTVSPost2010PropOp53
 70
     1
102
RTVSPost2010Prop54
  1
strokes_ogs.tif
102
RTVSPost2010PropOp54
 70
     1
102
RTVSPost2010Prop55
280
     0
102
RTVSPost2010PropOp55
 70
     1
102
RTVSPost2010Prop56
140
1.0
102
RTVSPost2010PropOp56
 70
     1
102
RTVSPost2010Prop57
140
1.0
102
RTVSPost2010PropOp57
 70
     1
  0
XRECORD
  5
255
102
{ACAD_REACTORS
330
254
102
}
330
254
100
AcDbXrecord
280
     1
102
RTVSPropertyOp0
 70
     1
102
RTVSPropertyOp1
 70
     1
102
RTVSPropertyOp2
 70
     1
102
RTVSPropertyOp3
 70
     1
102
RTVSPropertyOp4
 70
     1
102
RTVSPropertyOp5
 70
     1
102
RTVSPropertyOp6
 70
     1
102
RTVSPropertyOp7
 70
     1
102
RTVSPropertyOp8
 70
     1
102
RTVSPropertyOp9
 70
     1
102
RTVSPropertyOp10
 70
     1
102
RTVSPropertyOp11
 70
     1
102
RTVSPropertyOp12
 70
     1
102
RTVSPropertyOp13
 70
     1
102
RTVSPropertyOp14
 70
     1
102
RTVSPropertyOp15
 70
     1
102
RTVSPropertyOp16
 70
     1
102
RTVSPropertyOp17
 70
     1
102
RTVSPropertyOp18
 70
     1
102
RTVSPropertyOp19
 70
     1
102
RTVSPropertyOp20
 70
     1
102
RTVSPropertyOp21
 70
     1
102
RTVSPropertyOp22
 70
     1
102
RTVSPropertyOp23
 70
     1
102
RTVSPropertyOp24
 70
     1
102
RTVSPropertyOp25
 70
     1
102
RTVSPropertyOp26
 70
     1
102
RTVSPropertyOp27
 70
     1
102
RTVSPropertyOp28
 70
     1
102
RTVSPropertyOp29
 70
     1
102
RTVSPropertyOp30
 70
     1
102
RTVSPropertyOp31
 70
     1
102
RTVSPropertyOp32
 70
     1
102
RTVSPropertyOp33
 70
     1
102
RTVSPropertyOp34
 70
     1
102
RTVSPropertyOp35
 70
     1
102
RTVSPropertyOp36
 70
     1
102
RTVSPropertyOp37
 70
     1
102
RTVSPropertyOp38
 70
     1
102
RTVSPropertyOp39
 70
     1
102
RTVSPropertyOp40
 70
     1
102
RTVSPropertyOp41
 70
     1
102
RTVSPropertyOp42
 70
     1
102
RTVSPropertyOp43
 70
     1
102
RTVSPropertyOp44
 70
     1
102
RTVSPropertyOp45
 70
     1
102
RTVSPropertyOp46
 70
     1
102
RTVSPropertyOp47
 70
     1
102
RTVSPropertyOp48
 70
     1
102
RTVSPropertyOp49
 70
     1
102
RTVSPropertyOp50
 70
     1
102
RTVSPropertyOp51
 70
     0
102
RTVSPropertyOp52
 70
     0
102
RTVSPropertyOp53
 70
     1
102
RTVSPropertyOp54
 70
     1
102
RTVSPropertyOp55
 70
     1
102
RTVSPropertyOp56
 70
     1
102
RTVSPropertyOp57
 70
     1
102
RTVSPost2010Prop28
280
     0
102
RTVSPost2010PropOp28
 70
     1
102
RTVSPost2010Prop29
280
     1
102
RTVSPost2010PropOp29
 70
     1
102
RTVSPost2010Prop30
280
     1
102
RTVSPost2010PropOp30
 70
     1
102
RTVSPost2010Prop31
280
     0
102
RTVSPost2010PropOp31
 70
     1
102
RTVSPost2010Prop32
280
     0
102
RTVSPost2010PropOp32
 70
     1
102
RTVSPost2010Prop33
280
     0
102
RTVSPost2010PropOp33
 70
     1
102
RTVSPost2010Prop34
280
     0
102
RTVSPost2010PropOp34
 70
     1
102
RTVSPost2010Prop35
280
     0
102
RTVSPost2010PropOp35
 70
     1
102
RTVSPost2010Prop36
280
     0
102
RTVSPost2010PropOp36
 70
     1
102
RTVSPost2010Prop37
 90
       50
102
RTVSPost2010PropOp37
 70
     1
102
RTVSPost2010Prop38
140
0.0
102
RTVSPost2010PropOp38
 70
     1
102
RTVSPost2010Prop39
140
1.0
102
RTVSPost2010PropOp39
 70
     1
102
RTVSPost2010Prop40
 90
        0
102
RTVSPost2010PropOp40
 70
     1
102
RTVSPost2010Prop41ColorIndex
 90
       18
102
RTVSPost2010Prop41ColorRGB
 90
        0
102
RTVSPost2010PropOp41
 70
     1
102
RTVSPost2010Prop42
 90
       50
102
RTVSPost2010PropOp42
 70
     1
102
RTVSPost2010Prop43
 90
        3
102
RTVSPost2010PropOp43
 70
     1
102
RTVSPost2010Prop44ColorIndex
 90
        5
102
RTVSPost2010Prop44ColorRGB
 90
      255
102
RTVSPost2010PropOp44
 70
     1
102
RTVSPost2010Prop45
280
     0
102
RTVSPost2010PropOp45
 70
     1
102
RTVSPost2010Prop46
 90
       50
102
RTVSPost2010PropOp46
 70
     1
102
RTVSPost2010Prop47
 90
       50
102
RTVSPost2010PropOp47
 70
     1
102
RTVSPost2010Prop48
 90
       50
102
RTVSPost2010PropOp48
 70
     1
102
RTVSPost2010Prop49
280
     0
102
RTVSPost2010PropOp49
 70
     1
102
RTVSPost2010Prop50
 90
       50
102
RTVSPost2010PropOp50
 70
     1
102
RTVSPost2010Prop51ColorIndex
 90
      256
102
RTVSPost2010Prop51ColorRGB
 90
-16777216
102
RTVSPost2010PropOp51
 70
     0
102
RTVSPost2010Prop52
140
1.0
102
RTVSPost2010PropOp52
 70
     0
102
RTVSPost2010Prop53
 90
        2
102
RTVSPost2010PropOp53
 70
     1
102
RTVSPost2010Prop54
  1
strokes_ogs.tif
102
RTVSPost2010PropOp54
 70
     1
102
RTVSPost2010Prop55
280
     0
102
RTVSPost2010PropOp55
 70
     1
102
RTVSPost2010Prop56
140
1.0
102
RTVSPost2010PropOp56
 70
     1
102
RTVSPost2010Prop57
140
1.0
102
RTVSPost2010PropOp57
 70
     1
  0
XRECORD
  5
25D
102
{ACAD_REACTORS
330
25C
102
}
330
25C
100
AcDbXrecord
280
     1
102
RTVSPropertyOp0
 70
     1
102
RTVSPropertyOp1
 70
     1
102
RTVSPropertyOp2
 70
     1
102
RTVSPropertyOp3
 70
     1
102
RTVSPropertyOp4
 70
     1
102
RTVSPropertyOp5
 70
     1
102
RTVSPropertyOp6
 70
     1
102
RTVSPropertyOp7
 70
     1
102
RTVSPropertyOp8
 70
     1
102
RTVSPropertyOp9
 70
     1
102
RTVSPropertyOp10
 70
     1
102
RTVSPropertyOp11
 70
     1
102
RTVSPropertyOp12
 70
     1
102
RTVSPropertyOp13
 70
     1
102
RTVSPropertyOp14
 70
     1
102
RTVSPropertyOp15
 70
     1
102
RTVSPropertyOp16
 70
     1
102
RTVSPropertyOp17
 70
     1
102
RTVSPropertyOp18
 70
     1
102
RTVSPropertyOp19
 70
     1
102
RTVSPropertyOp20
 70
     1
102
RTVSPropertyOp21
 70
     1
102
RTVSPropertyOp22
 70
     1
102
RTVSPropertyOp23
 70
     1
102
RTVSPropertyOp24
 70
     1
102
RTVSPropertyOp25
 70
     1
102
RTVSPropertyOp26
 70
     1
102
RTVSPropertyOp27
 70
     1
102
RTVSPropertyOp28
 70
     1
102
RTVSPropertyOp29
 70
     1
102
RTVSPropertyOp30
 70
     1
102
RTVSPropertyOp31
 70
     1
102
RTVSPropertyOp32
 70
     1
102
RTVSPropertyOp33
 70
     1
102
RTVSPropertyOp34
 70
     1
102
RTVSPropertyOp35
 70
     1
102
RTVSPropertyOp36
 70
     1
102
RTVSPropertyOp37
 70
     1
102
RTVSPropertyOp38
 70
     1
102
RTVSPropertyOp39
 70
     1
102
RTVSPropertyOp40
 70
     1
102
RTVSPropertyOp41
 70
     1
102
RTVSPropertyOp42
 70
     1
102
RTVSPropertyOp43
 70
     1
102
RTVSPropertyOp44
 70
     1
102
RTVSPropertyOp45
 70
     1
102
RTVSPropertyOp46
 70
     1
102
RTVSPropertyOp47
 70
     1
102
RTVSPropertyOp48
 70
     1
102
RTVSPropertyOp49
 70
     1
102
RTVSPropertyOp50
 70
     1
102
RTVSPropertyOp51
 70
     0
102
RTVSPropertyOp52
 70
     0
102
RTVSPropertyOp53
 70
     1
102
RTVSPropertyOp54
 70
     1
102
RTVSPropertyOp55
 70
     1
102
RTVSPropertyOp56
 70
     1
102
RTVSPropertyOp57
 70
     1
102
RTVSPost2010Prop28
280
     0
102
RTVSPost2010PropOp28
 70
     1
102
RTVSPost2010Prop29
280
     1
102
RTVSPost2010PropOp29
 70
     1
102
RTVSPost2010Prop30
280
     1
102
RTVSPost2010PropOp30
 70
     1
102
RTVSPost2010Prop31
280
     0
102
RTVSPost2010PropOp31
 70
     1
102
RTVSPost2010Prop32
280
     0
102
RTVSPost2010PropOp32
 70
     1
102
RTVSPost2010Prop33
280
     0
102
RTVSPost2010PropOp33
 70
     1
102
RTVSPost2010Prop34
280
     0
102
RTVSPost2010PropOp34
 70
     1
102
RTVSPost2010Prop35
280
     0
102
RTVSPost2010PropOp35
 70
     1
102
RTVSPost2010Prop36
280
     0
102
RTVSPost2010PropOp36
 70
     1
102
RTVSPost2010Prop37
 90
       50
102
RTVSPost2010PropOp37
 70
     1
102
RTVSPost2010Prop38
140
0.0
102
RTVSPost2010PropOp38
 70
     1
102
RTVSPost2010Prop39
140
1.0
102
RTVSPost2010PropOp39
 70
     1
102
RTVSPost2010Prop40
 90
        0
102
RTVSPost2010PropOp40
 70
     1
102
RTVSPost2010Prop41ColorIndex
 90
       18
102
RTVSPost2010Prop41ColorRGB
 90
        0
102
RTVSPost2010PropOp41
 70
     1
102
RTVSPost2010Prop42
 90
       50
102
RTVSPost2010PropOp42
 70
     1
102
RTVSPost2010Prop43
 90
        3
102
RTVSPost2010PropOp43
 70
     1
102
RTVSPost2010Prop44ColorIndex
 90
        5
102
RTVSPost2010Prop44ColorRGB
 90
      255
102
RTVSPost2010PropOp44
 70
     1
102
RTVSPost2010Prop45
280
     0
102
RTVSPost2010PropOp45
 70
     1
102
RTVSPost2010Prop46
 90
       50
102
RTVSPost2010PropOp46
 70
     1
102
RTVSPost2010Prop47
 90
       50
102
RTVSPost2010PropOp47
 70
     1
102
RTVSPost2010Prop48
 90
       50
102
RTVSPost2010PropOp48
 70
     1
102
RTVSPost2010Prop49
280
     0
102
RTVSPost2010PropOp49
 70
     1
102
RTVSPost2010Prop50
 90
       50
102
RTVSPost2010PropOp50
 70
     1
102
RTVSPost2010Prop51ColorIndex
 90
      256
102
RTVSPost2010Prop51ColorRGB
 90
-16777216
102
RTVSPost2010PropOp51
 70
     0
102
RTVSPost2010Prop52
140
1.0
102
RTVSPost2010PropOp52
 70
     0
102
RTVSPost2010Prop53
 90
        2
102
RTVSPost2010PropOp53
 70
     1
102
RTVSPost2010Prop54
  1
strokes_ogs.tif
102
RTVSPost2010PropOp54
 70
     1
102
RTVSPost2010Prop55
280
     0
102
RTVSPost2010PropOp55
 70
     1
102
RTVSPost2010Prop56
140
1.0
102
RTVSPost2010PropOp56
 70
     1
102
RTVSPost2010Prop57
140
1.0
102
RTVSPost2010PropOp57
 70
     1
  0
XRECORD
  5
251
102
{ACAD_REACTORS
330
250
102
}
330
250
100
AcDbXrecord
280
     1
102
RTVSPropertyOp0
 70
     1
102
RTVSPropertyOp1
 70
     1
102
RTVSPropertyOp2
 70
     1
102
RTVSPropertyOp3
 70
     1
102
RTVSPropertyOp4
 70
     1
102
RTVSPropertyOp5
 70
     1
102
RTVSPropertyOp6
 70
     1
102
RTVSPropertyOp7
 70
     1
102
RTVSPropertyOp8
 70
     1
102
RTVSPropertyOp9
 70
     1
102
RTVSPropertyOp10
 70
     1
102
RTVSPropertyOp11
 70
     1
102
RTVSPropertyOp12
 70
     1
102
RTVSPropertyOp13
 70
     1
102
RTVSPropertyOp14
 70
     1
102
RTVSPropertyOp15
 70
     1
102
RTVSPropertyOp16
 70
     1
102
RTVSPropertyOp17
 70
     1
102
RTVSPropertyOp18
 70
     1
102
RTVSPropertyOp19
 70
     1
102
RTVSPropertyOp20
 70
     1
102
RTVSPropertyOp21
 70
     1
102
RTVSPropertyOp22
 70
     1
102
RTVSPropertyOp23
 70
     1
102
RTVSPropertyOp24
 70
     1
102
RTVSPropertyOp25
 70
     1
102
RTVSPropertyOp26
 70
     1
102
RTVSPropertyOp27
 70
     1
102
RTVSPropertyOp28
 70
     1
102
RTVSPropertyOp29
 70
     1
102
RTVSPropertyOp30
 70
     1
102
RTVSPropertyOp31
 70
     1
102
RTVSPropertyOp32
 70
     1
102
RTVSPropertyOp33
 70
     1
102
RTVSPropertyOp34
 70
     1
102
RTVSPropertyOp35
 70
     1
102
RTVSPropertyOp36
 70
     1
102
RTVSPropertyOp37
 70
     1
102
RTVSPropertyOp38
 70
     1
102
RTVSPropertyOp39
 70
     1
102
RTVSPropertyOp40
 70
     1
102
RTVSPropertyOp41
 70
     1
102
RTVSPropertyOp42
 70
     1
102
RTVSPropertyOp43
 70
     1
102
RTVSPropertyOp44
 70
     1
102
RTVSPropertyOp45
 70
     1
102
RTVSPropertyOp46
 70
     1
102
RTVSPropertyOp47
 70
     1
102
RTVSPropertyOp48
 70
     1
102
RTVSPropertyOp49
 70
     1
102
RTVSPropertyOp50
 70
     1
102
RTVSPropertyOp51
 70
     0
102
RTVSPropertyOp52
 70
     0
102
RTVSPropertyOp53
 70
     1
102
RTVSPropertyOp54
 70
     1
102
RTVSPropertyOp55
 70
     1
102
RTVSPropertyOp56
 70
     1
102
RTVSPropertyOp57
 70
     1
102
RTVSPost2010Prop28
280
     0
102
RTVSPost2010PropOp28
 70
     1
102
RTVSPost2010Prop29
280
     1
102
RTVSPost2010PropOp29
 70
     1
102
RTVSPost2010Prop30
280
     1
102
RTVSPost2010PropOp30
 70
     1
102
RTVSPost2010Prop31
280
     0
102
RTVSPost2010PropOp31
 70
     1
102
RTVSPost2010Prop32
280
     0
102
RTVSPost2010PropOp32
 70
     1
102
RTVSPost2010Prop33
280
     0
102
RTVSPost2010PropOp33
 70
     1
102
RTVSPost2010Prop34
280
     0
102
RTVSPost2010PropOp34
 70
     1
102
RTVSPost2010Prop35
280
     0
102
RTVSPost2010PropOp35
 70
     1
102
RTVSPost2010Prop36
280
     0
102
RTVSPost2010PropOp36
 70
     1
102
RTVSPost2010Prop37
 90
       50
102
RTVSPost2010PropOp37
 70
     1
102
RTVSPost2010Prop38
140
0.0
102
RTVSPost2010PropOp38
 70
     1
102
RTVSPost2010Prop39
140
1.0
102
RTVSPost2010PropOp39
 70
     1
102
RTVSPost2010Prop40
 90
        0
102
RTVSPost2010PropOp40
 70
     1
102
RTVSPost2010Prop41ColorIndex
 90
       18
102
RTVSPost2010Prop41ColorRGB
 90
        0
102
RTVSPost2010PropOp41
 70
     1
102
RTVSPost2010Prop42
 90
       50
102
RTVSPost2010PropOp42
 70
     1
102
RTVSPost2010Prop43
 90
        3
102
RTVSPost2010PropOp43
 70
     1
102
RTVSPost2010Prop44ColorIndex
 90
        5
102
RTVSPost2010Prop44ColorRGB
 90
      255
102
RTVSPost2010PropOp44
 70
     1
102
RTVSPost2010Prop45
280
     0
102
RTVSPost2010PropOp45
 70
     1
102
RTVSPost2010Prop46
 90
       50
102
RTVSPost2010PropOp46
 70
     1
102
RTVSPost2010Prop47
 90
       50
102
RTVSPost2010PropOp47
 70
     1
102
RTVSPost2010Prop48
 90
       50
102
RTVSPost2010PropOp48
 70
     1
102
RTVSPost2010Prop49
280
     0
102
RTVSPost2010PropOp49
 70
     1
102
RTVSPost2010Prop50
 90
       50
102
RTVSPost2010PropOp50
 70
     1
102
RTVSPost2010Prop51ColorIndex
 90
      256
102
RTVSPost2010Prop51ColorRGB
 90
-16777216
102
RTVSPost2010PropOp51
 70
     0
102
RTVSPost2010Prop52
140
1.0
102
RTVSPost2010PropOp52
 70
     0
102
RTVSPost2010Prop53
 90
        2
102
RTVSPost2010PropOp53
 70
     1
102
RTVSPost2010Prop54
  1
strokes_ogs.tif
102
RTVSPost2010PropOp54
 70
     1
102
RTVSPost2010Prop55
280
     0
102
RTVSPost2010PropOp55
 70
     1
102
RTVSPost2010Prop56
140
1.0
102
RTVSPost2010PropOp56
 70
     1
102
RTVSPost2010Prop57
140
1.0
102
RTVSPost2010PropOp57
 70
     1
  0
XRECORD
  5
253
102
{ACAD_REACTORS
330
252
102
}
330
252
100
AcDbXrecord
280
     1
102
RTVSPropertyOp0
 70
     1
102
RTVSPropertyOp1
 70
     1
102
RTVSPropertyOp2
 70
     1
102
RTVSPropertyOp3
 70
     1
102
RTVSPropertyOp4
 70
     1
102
RTVSPropertyOp5
 70
     1
102
RTVSPropertyOp6
 70
     1
102
RTVSPropertyOp7
 70
     1
102
RTVSPropertyOp8
 70
     1
102
RTVSPropertyOp9
 70
     1
102
RTVSPropertyOp10
 70
     1
102
RTVSPropertyOp11
 70
     1
102
RTVSPropertyOp12
 70
     1
102
RTVSPropertyOp13
 70
     1
102
RTVSPropertyOp14
 70
     1
102
RTVSPropertyOp15
 70
     1
102
RTVSPropertyOp16
 70
     1
102
RTVSPropertyOp17
 70
     1
102
RTVSPropertyOp18
 70
     1
102
RTVSPropertyOp19
 70
     1
102
RTVSPropertyOp20
 70
     1
102
RTVSPropertyOp21
 70
     1
102
RTVSPropertyOp22
 70
     1
102
RTVSPropertyOp23
 70
     1
102
RTVSPropertyOp24
 70
     1
102
RTVSPropertyOp25
 70
     1
102
RTVSPropertyOp26
 70
     1
102
RTVSPropertyOp27
 70
     1
102
RTVSPropertyOp28
 70
     1
102
RTVSPropertyOp29
 70
     1
102
RTVSPropertyOp30
 70
     1
102
RTVSPropertyOp31
 70
     1
102
RTVSPropertyOp32
 70
     1
102
RTVSPropertyOp33
 70
     1
102
RTVSPropertyOp34
 70
     1
102
RTVSPropertyOp35
 70
     1
102
RTVSPropertyOp36
 70
     1
102
RTVSPropertyOp37
 70
     1
102
RTVSPropertyOp38
 70
     1
102
RTVSPropertyOp39
 70
     1
102
RTVSPropertyOp40
 70
     1
102
RTVSPropertyOp41
 70
     1
102
RTVSPropertyOp42
 70
     1
102
RTVSPropertyOp43
 70
     1
102
RTVSPropertyOp44
 70
     1
102
RTVSPropertyOp45
 70
     1
102
RTVSPropertyOp46
 70
     1
102
RTVSPropertyOp47
 70
     1
102
RTVSPropertyOp48
 70
     1
102
RTVSPropertyOp49
 70
     1
102
RTVSPropertyOp50
 70
     1
102
RTVSPropertyOp51
 70
     0
102
RTVSPropertyOp52
 70
     0
102
RTVSPropertyOp53
 70
     1
102
RTVSPropertyOp54
 70
     1
102
RTVSPropertyOp55
 70
     1
102
RTVSPropertyOp56
 70
     1
102
RTVSPropertyOp57
 70
     1
102
RTVSPost2010Prop28
280
     0
102
RTVSPost2010PropOp28
 70
     1
102
RTVSPost2010Prop29
280
     1
102
RTVSPost2010PropOp29
 70
     1
102
RTVSPost2010Prop30
280
     1
102
RTVSPost2010PropOp30
 70
     1
102
RTVSPost2010Prop31
280
     0
102
RTVSPost2010PropOp31
 70
     1
102
RTVSPost2010Prop32
280
     0
102
RTVSPost2010PropOp32
 70
     1
102
RTVSPost2010Prop33
280
     0
102
RTVSPost2010PropOp33
 70
     1
102
RTVSPost2010Prop34
280
     0
102
RTVSPost2010PropOp34
 70
     1
102
RTVSPost2010Prop35
280
     0
102
RTVSPost2010PropOp35
 70
     1
102
RTVSPost2010Prop36
280
     0
102
RTVSPost2010PropOp36
 70
     1
102
RTVSPost2010Prop37
 90
       50
102
RTVSPost2010PropOp37
 70
     1
102
RTVSPost2010Prop38
140
0.0
102
RTVSPost2010PropOp38
 70
     1
102
RTVSPost2010Prop39
140
1.0
102
RTVSPost2010PropOp39
 70
     1
102
RTVSPost2010Prop40
 90
        0
102
RTVSPost2010PropOp40
 70
     1
102
RTVSPost2010Prop41ColorIndex
 90
       18
102
RTVSPost2010Prop41ColorRGB
 90
        0
102
RTVSPost2010PropOp41
 70
     1
102
RTVSPost2010Prop42
 90
       50
102
RTVSPost2010PropOp42
 70
     1
102
RTVSPost2010Prop43
 90
        3
102
RTVSPost2010PropOp43
 70
     1
102
RTVSPost2010Prop44ColorIndex
 90
        5
102
RTVSPost2010Prop44ColorRGB
 90
      255
102
RTVSPost2010PropOp44
 70
     1
102
RTVSPost2010Prop45
280
     0
102
RTVSPost2010PropOp45
 70
     1
102
RTVSPost2010Prop46
 90
       50
102
RTVSPost2010PropOp46
 70
     1
102
RTVSPost2010Prop47
 90
       50
102
RTVSPost2010PropOp47
 70
     1
102
RTVSPost2010Prop48
 90
       50
102
RTVSPost2010PropOp48
 70
     1
102
RTVSPost2010Prop49
280
     0
102
RTVSPost2010PropOp49
 70
     1
102
RTVSPost2010Prop50
 90
       50
102
RTVSPost2010PropOp50
 70
     1
102
RTVSPost2010Prop51ColorIndex
 90
      256
102
RTVSPost2010Prop51ColorRGB
 90
-16777216
102
RTVSPost2010PropOp51
 70
     0
102
RTVSPost2010Prop52
140
1.0
102
RTVSPost2010PropOp52
 70
     0
102
RTVSPost2010Prop53
 90
        2
102
RTVSPost2010PropOp53
 70
     1
102
RTVSPost2010Prop54
  1
strokes_ogs.tif
102
RTVSPost2010PropOp54
 70
     1
102
RTVSPost2010Prop55
280
     0
102
RTVSPost2010PropOp55
 70
     1
102
RTVSPost2010Prop56
140
1.0
102
RTVSPost2010PropOp56
 70
     1
102
RTVSPost2010Prop57
140
1.0
102
RTVSPost2010PropOp57
 70
     1
  0
XRECORD
  5
263
102
{ACAD_REACTORS
330
262
102
}
330
262
100
AcDbXrecord
280
     1
102
RTVSPropertyOp0
 70
     0
102
RTVSPropertyOp1
 70
     0
102
RTVSPropertyOp2
 70
     0
102
RTVSPropertyOp3
 70
     0
102
RTVSPropertyOp4
 70
     0
102
RTVSPropertyOp5
 70
     0
102
RTVSPropertyOp6
 70
     0
102
RTVSPropertyOp7
 70
     0
102
RTVSPropertyOp8
 70
     0
102
RTVSPropertyOp9
 70
     0
102
RTVSPropertyOp10
 70
     0
102
RTVSPropertyOp11
 70
     0
102
RTVSPropertyOp12
 70
     0
102
RTVSPropertyOp13
 70
     0
102
RTVSPropertyOp14
 70
     2
102
RTVSPropertyOp15
 70
     0
102
RTVSPropertyOp16
 70
     0
102
RTVSPropertyOp17
 70
     0
102
RTVSPropertyOp18
 70
     0
102
RTVSPropertyOp19
 70
     0
102
RTVSPropertyOp20
 70
     0
102
RTVSPropertyOp21
 70
     0
102
RTVSPropertyOp22
 70
     0
102
RTVSPropertyOp23
 70
     0
102
RTVSPropertyOp24
 70
     0
102
RTVSPropertyOp25
 70
     0
102
RTVSPropertyOp26
 70
     0
102
RTVSPropertyOp27
 70
     0
102
RTVSPropertyOp28
 70
     0
102
RTVSPropertyOp29
 70
     0
102
RTVSPropertyOp30
 70
     0
102
RTVSPropertyOp31
 70
     0
102
RTVSPropertyOp32
 70
     0
102
RTVSPropertyOp33
 70
     0
102
RTVSPropertyOp34
 70
     0
102
RTVSPropertyOp35
 70
     0
102
RTVSPropertyOp36
 70
     0
102
RTVSPropertyOp37
 70
     0
102
RTVSPropertyOp38
 70
     0
102
RTVSPropertyOp39
 70
     0
102
RTVSPropertyOp40
 70
     0
102
RTVSPropertyOp41
 70
     0
102
RTVSPropertyOp42
 70
     0
102
RTVSPropertyOp43
 70
     0
102
RTVSPropertyOp44
 70
     0
102
RTVSPropertyOp45
 70
     0
102
RTVSPropertyOp46
 70
     0
102
RTVSPropertyOp47
 70
     0
102
RTVSPropertyOp48
 70
     0
102
RTVSPropertyOp49
 70
     0
102
RTVSPropertyOp50
 70
     0
102
RTVSPropertyOp51
 70
     0
102
RTVSPropertyOp52
 70
     0
102
RTVSPropertyOp53
 70
     0
102
RTVSPropertyOp54
 70
     0
102
RTVSPropertyOp55
 70
     0
102
RTVSPropertyOp56
 70
     0
102
RTVSPropertyOp57
 70
     0
102
RTVSPost2010Prop28
280
     0
102
RTVSPost2010PropOp28
 70
     0
102
RTVSPost2010Prop29
280
     1
102
RTVSPost2010PropOp29
 70
     0
102
RTVSPost2010Prop30
280
     1
102
RTVSPost2010PropOp30
 70
     0
102
RTVSPost2010Prop31
280
     0
102
RTVSPost2010PropOp31
 70
     0
102
RTVSPost2010Prop32
280
     0
102
RTVSPost2010PropOp32
 70
     0
102
RTVSPost2010Prop33
280
     0
102
RTVSPost2010PropOp33
 70
     0
102
RTVSPost2010Prop34
280
     0
102
RTVSPost2010PropOp34
 70
     0
102
RTVSPost2010Prop35
280
     0
102
RTVSPost2010PropOp35
 70
     0
102
RTVSPost2010Prop36
280
     0
102
RTVSPost2010PropOp36
 70
     0
102
RTVSPost2010Prop37
 90
       50
102
RTVSPost2010PropOp37
 70
     0
102
RTVSPost2010Prop38
140
0.0
102
RTVSPost2010PropOp38
 70
     0
102
RTVSPost2010Prop39
140
1.0
102
RTVSPost2010PropOp39
 70
     0
102
RTVSPost2010Prop40
 90
        0
102
RTVSPost2010PropOp40
 70
     0
102
RTVSPost2010Prop41ColorIndex
 90
       18
102
RTVSPost2010Prop41ColorRGB
 90
        0
102
RTVSPost2010PropOp41
 70
     0
102
RTVSPost2010Prop42
 90
       50
102
RTVSPost2010PropOp42
 70
     0
102
RTVSPost2010Prop43
 90
        3
102
RTVSPost2010PropOp43
 70
     0
102
RTVSPost2010Prop44ColorIndex
 90
        5
102
RTVSPost2010Prop44ColorRGB
 90
      255
102
RTVSPost2010PropOp44
 70
     0
102
RTVSPost2010Prop45
280
     0
102
RTVSPost2010PropOp45
 70
     0
102
RTVSPost2010Prop46
 90
       50
102
RTVSPost2010PropOp46
 70
     0
102
RTVSPost2010Prop47
 90
       50
102
RTVSPost2010PropOp47
 70
     0
102
RTVSPost2010Prop48
 90
       50
102
RTVSPost2010PropOp48
 70
     0
102
RTVSPost2010Prop49
280
     0
102
RTVSPost2010PropOp49
 70
     0
102
RTVSPost2010Prop50
 90
       50
102
RTVSPost2010PropOp50
 70
     0
102
RTVSPost2010Prop51ColorIndex
 90
      256
102
RTVSPost2010Prop51ColorRGB
 90
-16777216
102
RTVSPost2010PropOp51
 70
     0
102
RTVSPost2010Prop52
140
1.0
102
RTVSPost2010PropOp52
 70
     0
102
RTVSPost2010Prop53
 90
        2
102
RTVSPost2010PropOp53
 70
     0
102
RTVSPost2010Prop54
  1
strokes_ogs.tif
102
RTVSPost2010PropOp54
 70
     0
102
RTVSPost2010Prop55
280
     0
102
RTVSPost2010PropOp55
 70
     0
102
RTVSPost2010Prop56
140
1.0
102
RTVSPost2010PropOp56
 70
     0
102
RTVSPost2010Prop57
140
1.0
102
RTVSPost2010PropOp57
 70
     0
  0
XRECORD
  5
25B
102
{ACAD_REACTORS
330
25A
102
}
330
25A
100
AcDbXrecord
280
     1
102
RTVSPropertyOp0
 70
     1
102
RTVSPropertyOp1
 70
     1
102
RTVSPropertyOp2
 70
     1
102
RTVSPropertyOp3
 70
     1
102
RTVSPropertyOp4
 70
     1
102
RTVSPropertyOp5
 70
     1
102
RTVSPropertyOp6
 70
     1
102
RTVSPropertyOp7
 70
     1
102
RTVSPropertyOp8
 70
     1
102
RTVSPropertyOp9
 70
     1
102
RTVSPropertyOp10
 70
     1
102
RTVSPropertyOp11
 70
     1
102
RTVSPropertyOp12
 70
     1
102
RTVSPropertyOp13
 70
     1
102
RTVSPropertyOp14
 70
     1
102
RTVSPropertyOp15
 70
     1
102
RTVSPropertyOp16
 70
     1
102
RTVSPropertyOp17
 70
     1
102
RTVSPropertyOp18
 70
     1
102
RTVSPropertyOp19
 70
     1
102
RTVSPropertyOp20
 70
     1
102
RTVSPropertyOp21
 70
     1
102
RTVSPropertyOp22
 70
     1
102
RTVSPropertyOp23
 70
     1
102
RTVSPropertyOp24
 70
     1
102
RTVSPropertyOp25
 70
     1
102
RTVSPropertyOp26
 70
     1
102
RTVSPropertyOp27
 70
     1
102
RTVSPropertyOp28
 70
     1
102
RTVSPropertyOp29
 70
     1
102
RTVSPropertyOp30
 70
     1
102
RTVSPropertyOp31
 70
     1
102
RTVSPropertyOp32
 70
     1
102
RTVSPropertyOp33
 70
     1
102
RTVSPropertyOp34
 70
     1
102
RTVSPropertyOp35
 70
     1
102
RTVSPropertyOp36
 70
     1
102
RTVSPropertyOp37
 70
     1
102
RTVSPropertyOp38
 70
     1
102
RTVSPropertyOp39
 70
     1
102
RTVSPropertyOp40
 70
     1
102
RTVSPropertyOp41
 70
     1
102
RTVSPropertyOp42
 70
     1
102
RTVSPropertyOp43
 70
     1
102
RTVSPropertyOp44
 70
     1
102
RTVSPropertyOp45
 70
     1
102
RTVSPropertyOp46
 70
     1
102
RTVSPropertyOp47
 70
     1
102
RTVSPropertyOp48
 70
     1
102
RTVSPropertyOp49
 70
     1
102
RTVSPropertyOp50
 70
     1
102
RTVSPropertyOp51
 70
     0
102
RTVSPropertyOp52
 70
     0
102
RTVSPropertyOp53
 70
     1
102
RTVSPropertyOp54
 70
     1
102
RTVSPropertyOp55
 70
     1
102
RTVSPropertyOp56
 70
     1
102
RTVSPropertyOp57
 70
     1
102
RTVSPost2010Prop28
280
     0
102
RTVSPost2010PropOp28
 70
     1
102
RTVSPost2010Prop29
280
     1
102
RTVSPost2010PropOp29
 70
     1
102
RTVSPost2010Prop30
280
     1
102
RTVSPost2010PropOp30
 70
     1
102
RTVSPost2010Prop31
280
     0
102
RTVSPost2010PropOp31
 70
     1
102
RTVSPost2010Prop32
280
     0
102
RTVSPost2010PropOp32
 70
     1
102
RTVSPost2010Prop33
280
     0
102
RTVSPost2010PropOp33
 70
     1
102
RTVSPost2010Prop34
280
     0
102
RTVSPost2010PropOp34
 70
     1
102
RTVSPost2010Prop35
280
     0
102
RTVSPost2010PropOp35
 70
     1
102
RTVSPost2010Prop36
280
     0
102
RTVSPost2010PropOp36
 70
     1
102
RTVSPost2010Prop37
 90
       50
102
RTVSPost2010PropOp37
 70
     1
102
RTVSPost2010Prop38
140
0.0
102
RTVSPost2010PropOp38
 70
     1
102
RTVSPost2010Prop39
140
1.0
102
RTVSPost2010PropOp39
 70
     1
102
RTVSPost2010Prop40
 90
        0
102
RTVSPost2010PropOp40
 70
     1
102
RTVSPost2010Prop41ColorIndex
 90
       18
102
RTVSPost2010Prop41ColorRGB
 90
        0
102
RTVSPost2010PropOp41
 70
     1
102
RTVSPost2010Prop42
 90
       50
102
RTVSPost2010PropOp42
 70
     1
102
RTVSPost2010Prop43
 90
        3
102
RTVSPost2010PropOp43
 70
     1
102
RTVSPost2010Prop44ColorIndex
 90
        5
102
RTVSPost2010Prop44ColorRGB
 90
      255
102
RTVSPost2010PropOp44
 70
     1
102
RTVSPost2010Prop45
280
     0
102
RTVSPost2010PropOp45
 70
     1
102
RTVSPost2010Prop46
 90
       50
102
RTVSPost2010PropOp46
 70
     1
102
RTVSPost2010Prop47
 90
       50
102
RTVSPost2010PropOp47
 70
     1
102
RTVSPost2010Prop48
 90
       50
102
RTVSPost2010PropOp48
 70
     1
102
RTVSPost2010Prop49
280
     0
102
RTVSPost2010PropOp49
 70
     1
102
RTVSPost2010Prop50
 90
       50
102
RTVSPost2010PropOp50
 70
     1
102
RTVSPost2010Prop51ColorIndex
 90
      256
102
RTVSPost2010Prop51ColorRGB
 90
-16777216
102
RTVSPost2010PropOp51
 70
     0
102
RTVSPost2010Prop52
140
1.0
102
RTVSPost2010PropOp52
 70
     0
102
RTVSPost2010Prop53
 90
        2
102
RTVSPost2010PropOp53
 70
     1
102
RTVSPost2010Prop54
  1
strokes_ogs.tif
102
RTVSPost2010PropOp54
 70
     1
102
RTVSPost2010Prop55
280
     0
102
RTVSPost2010PropOp55
 70
     1
102
RTVSPost2010Prop56
140
1.0
102
RTVSPost2010PropOp56
 70
     1
102
RTVSPost2010Prop57
140
1.0
102
RTVSPost2010PropOp57
 70
     1
  0
XRECORD
  5
23F
102
{ACAD_REACTORS
330
23E
102
}
330
23E
100
AcDbXrecord
280
     1
102
RTVSPropertyOp0
 70
     1
102
RTVSPropertyOp1
 70
     1
102
RTVSPropertyOp2
 70
     1
102
RTVSPropertyOp3
 70
     1
102
RTVSPropertyOp4
 70
     1
102
RTVSPropertyOp5
 70
     1
102
RTVSPropertyOp6
 70
     1
102
RTVSPropertyOp7
 70
     1
102
RTVSPropertyOp8
 70
     1
102
RTVSPropertyOp9
 70
     1
102
RTVSPropertyOp10
 70
     1
102
RTVSPropertyOp11
 70
     1
102
RTVSPropertyOp12
 70
     1
102
RTVSPropertyOp13
 70
     1
102
RTVSPropertyOp14
 70
     1
102
RTVSPropertyOp15
 70
     1
102
RTVSPropertyOp16
 70
     1
102
RTVSPropertyOp17
 70
     1
102
RTVSPropertyOp18
 70
     1
102
RTVSPropertyOp19
 70
     1
102
RTVSPropertyOp20
 70
     1
102
RTVSPropertyOp21
 70
     1
102
RTVSPropertyOp22
 70
     1
102
RTVSPropertyOp23
 70
     1
102
RTVSPropertyOp24
 70
     1
102
RTVSPropertyOp25
 70
     1
102
RTVSPropertyOp26
 70
     1
102
RTVSPropertyOp27
 70
     1
102
RTVSPropertyOp28
 70
     1
102
RTVSPropertyOp29
 70
     1
102
RTVSPropertyOp30
 70
     1
102
RTVSPropertyOp31
 70
     1
102
RTVSPropertyOp32
 70
     1
102
RTVSPropertyOp33
 70
     1
102
RTVSPropertyOp34
 70
     1
102
RTVSPropertyOp35
 70
     1
102
RTVSPropertyOp36
 70
     1
102
RTVSPropertyOp37
 70
     1
102
RTVSPropertyOp38
 70
     1
102
RTVSPropertyOp39
 70
     1
102
RTVSPropertyOp40
 70
     1
102
RTVSPropertyOp41
 70
     1
102
RTVSPropertyOp42
 70
     1
102
RTVSPropertyOp43
 70
     1
102
RTVSPropertyOp44
 70
     1
102
RTVSPropertyOp45
 70
     1
102
RTVSPropertyOp46
 70
     1
102
RTVSPropertyOp47
 70
     1
102
RTVSPropertyOp48
 70
     1
102
RTVSPropertyOp49
 70
     1
102
RTVSPropertyOp50
 70
     1
102
RTVSPropertyOp51
 70
     0
102
RTVSPropertyOp52
 70
     0
102
RTVSPropertyOp53
 70
     1
102
RTVSPropertyOp54
 70
     1
102
RTVSPropertyOp55
 70
     1
102
RTVSPropertyOp56
 70
     1
102
RTVSPropertyOp57
 70
     1
102
RTVSPost2010Prop28
280
     0
102
RTVSPost2010PropOp28
 70
     1
102
RTVSPost2010Prop29
280
     1
102
RTVSPost2010PropOp29
 70
     1
102
RTVSPost2010Prop30
280
     1
102
RTVSPost2010PropOp30
 70
     1
102
RTVSPost2010Prop31
280
     0
102
RTVSPost2010PropOp31
 70
     1
102
RTVSPost2010Prop32
280
     0
102
RTVSPost2010PropOp32
 70
     1
102
RTVSPost2010Prop33
280
     0
102
RTVSPost2010PropOp33
 70
     1
102
RTVSPost2010Prop34
280
     0
102
RTVSPost2010PropOp34
 70
     1
102
RTVSPost2010Prop35
280
     0
102
RTVSPost2010PropOp35
 70
     1
102
RTVSPost2010Prop36
280
     0
102
RTVSPost2010PropOp36
 70
     1
102
RTVSPost2010Prop37
 90
       50
102
RTVSPost2010PropOp37
 70
     1
102
RTVSPost2010Prop38
140
0.0
102
RTVSPost2010PropOp38
 70
     1
102
RTVSPost2010Prop39
140
1.0
102
RTVSPost2010PropOp39
 70
     1
102
RTVSPost2010Prop40
 90
        0
102
RTVSPost2010PropOp40
 70
     1
102
RTVSPost2010Prop41ColorIndex
 90
       18
102
RTVSPost2010Prop41ColorRGB
 90
        0
102
RTVSPost2010PropOp41
 70
     1
102
RTVSPost2010Prop42
 90
       50
102
RTVSPost2010PropOp42
 70
     1
102
RTVSPost2010Prop43
 90
        3
102
RTVSPost2010PropOp43
 70
     1
102
RTVSPost2010Prop44ColorIndex
 90
        5
102
RTVSPost2010Prop44ColorRGB
 90
      255
102
RTVSPost2010PropOp44
 70
     1
102
RTVSPost2010Prop45
280
     0
102
RTVSPost2010PropOp45
 70
     1
102
RTVSPost2010Prop46
 90
       50
102
RTVSPost2010PropOp46
 70
     1
102
RTVSPost2010Prop47
 90
       50
102
RTVSPost2010PropOp47
 70
     1
102
RTVSPost2010Prop48
 90
       50
102
RTVSPost2010PropOp48
 70
     1
102
RTVSPost2010Prop49
280
     0
102
RTVSPost2010PropOp49
 70
     1
102
RTVSPost2010Prop50
 90
       50
102
RTVSPost2010PropOp50
 70
     1
102
RTVSPost2010Prop51ColorIndex
 90
      256
102
RTVSPost2010Prop51ColorRGB
 90
-16777216
102
RTVSPost2010PropOp51
 70
     0
102
RTVSPost2010Prop52
140
1.0
102
RTVSPost2010PropOp52
 70
     0
102
RTVSPost2010Prop53
 90
        2
102
RTVSPost2010PropOp53
 70
     1
102
RTVSPost2010Prop54
  1
strokes_ogs.tif
102
RTVSPost2010PropOp54
 70
     1
102
RTVSPost2010Prop55
280
     0
102
RTVSPost2010PropOp55
 70
     1
102
RTVSPost2010Prop56
140
1.0
102
RTVSPost2010PropOp56
 70
     1
102
RTVSPost2010Prop57
140
1.0
102
RTVSPost2010PropOp57
 70
     1
  0
XRECORD
  5
241
102
{ACAD_REACTORS
330
240
102
}
330
240
100
AcDbXrecord
280
     1
102
RTVSPropertyOp0
 70
     1
102
RTVSPropertyOp1
 70
     1
102
RTVSPropertyOp2
 70
     1
102
RTVSPropertyOp3
 70
     1
102
RTVSPropertyOp4
 70
     1
102
RTVSPropertyOp5
 70
     1
102
RTVSPropertyOp6
 70
     1
102
RTVSPropertyOp7
 70
     1
102
RTVSPropertyOp8
 70
     1
102
RTVSPropertyOp9
 70
     1
102
RTVSPropertyOp10
 70
     1
102
RTVSPropertyOp11
 70
     1
102
RTVSPropertyOp12
 70
     1
102
RTVSPropertyOp13
 70
     1
102
RTVSPropertyOp14
 70
     1
102
RTVSPropertyOp15
 70
     1
102
RTVSPropertyOp16
 70
     1
102
RTVSPropertyOp17
 70
     1
102
RTVSPropertyOp18
 70
     1
102
RTVSPropertyOp19
 70
     1
102
RTVSPropertyOp20
 70
     1
102
RTVSPropertyOp21
 70
     1
102
RTVSPropertyOp22
 70
     1
102
RTVSPropertyOp23
 70
     1
102
RTVSPropertyOp24
 70
     1
102
RTVSPropertyOp25
 70
     1
102
RTVSPropertyOp26
 70
     1
102
RTVSPropertyOp27
 70
     1
102
RTVSPropertyOp28
 70
     1
102
RTVSPropertyOp29
 70
     1
102
RTVSPropertyOp30
 70
     1
102
RTVSPropertyOp31
 70
     1
102
RTVSPropertyOp32
 70
     1
102
RTVSPropertyOp33
 70
     1
102
RTVSPropertyOp34
 70
     1
102
RTVSPropertyOp35
 70
     1
102
RTVSPropertyOp36
 70
     1
102
RTVSPropertyOp37
 70
     1
102
RTVSPropertyOp38
 70
     1
102
RTVSPropertyOp39
 70
     1
102
RTVSPropertyOp40
 70
     1
102
RTVSPropertyOp41
 70
     1
102
RTVSPropertyOp42
 70
     1
102
RTVSPropertyOp43
 70
     1
102
RTVSPropertyOp44
 70
     1
102
RTVSPropertyOp45
 70
     1
102
RTVSPropertyOp46
 70
     1
102
RTVSPropertyOp47
 70
     1
102
RTVSPropertyOp48
 70
     1
102
RTVSPropertyOp49
 70
     1
102
RTVSPropertyOp50
 70
     1
102
RTVSPropertyOp51
 70
     0
102
RTVSPropertyOp52
 70
     0
102
RTVSPropertyOp53
 70
     1
102
RTVSPropertyOp54
 70
     1
102
RTVSPropertyOp55
 70
     1
102
RTVSPropertyOp56
 70
     1
102
RTVSPropertyOp57
 70
     1
102
RTVSPost2010Prop28
280
     0
102
RTVSPost2010PropOp28
 70
     1
102
RTVSPost2010Prop29
280
     1
102
RTVSPost2010PropOp29
 70
     1
102
RTVSPost2010Prop30
280
     1
102
RTVSPost2010PropOp30
 70
     1
102
RTVSPost2010Prop31
280
     0
102
RTVSPost2010PropOp31
 70
     1
102
RTVSPost2010Prop32
280
     0
102
RTVSPost2010PropOp32
 70
     1
102
RTVSPost2010Prop33
280
     0
102
RTVSPost2010PropOp33
 70
     1
102
RTVSPost2010Prop34
280
     0
102
RTVSPost2010PropOp34
 70
     1
102
RTVSPost2010Prop35
280
     0
102
RTVSPost2010PropOp35
 70
     1
102
RTVSPost2010Prop36
280
     0
102
RTVSPost2010PropOp36
 70
     1
102
RTVSPost2010Prop37
 90
       50
102
RTVSPost2010PropOp37
 70
     1
102
RTVSPost2010Prop38
140
0.0
102
RTVSPost2010PropOp38
 70
     1
102
RTVSPost2010Prop39
140
1.0
102
RTVSPost2010PropOp39
 70
     1
102
RTVSPost2010Prop40
 90
        0
102
RTVSPost2010PropOp40
 70
     1
102
RTVSPost2010Prop41ColorIndex
 90
       18
102
RTVSPost2010Prop41ColorRGB
 90
        0
102
RTVSPost2010PropOp41
 70
     1
102
RTVSPost2010Prop42
 90
       50
102
RTVSPost2010PropOp42
 70
     1
102
RTVSPost2010Prop43
 90
        3
102
RTVSPost2010PropOp43
 70
     1
102
RTVSPost2010Prop44ColorIndex
 90
        5
102
RTVSPost2010Prop44ColorRGB
 90
      255
102
RTVSPost2010PropOp44
 70
     1
102
RTVSPost2010Prop45
280
     0
102
RTVSPost2010PropOp45
 70
     1
102
RTVSPost2010Prop46
 90
       50
102
RTVSPost2010PropOp46
 70
     1
102
RTVSPost2010Prop47
 90
       50
102
RTVSPost2010PropOp47
 70
     1
102
RTVSPost2010Prop48
 90
       50
102
RTVSPost2010PropOp48
 70
     1
102
RTVSPost2010Prop49
280
     0
102
RTVSPost2010PropOp49
 70
     1
102
RTVSPost2010Prop50
 90
       50
102
RTVSPost2010PropOp50
 70
     1
102
RTVSPost2010Prop51ColorIndex
 90
      256
102
RTVSPost2010Prop51ColorRGB
 90
-16777216
102
RTVSPost2010PropOp51
 70
     0
102
RTVSPost2010Prop52
140
1.0
102
RTVSPost2010PropOp52
 70
     0
102
RTVSPost2010Prop53
 90
        2
102
RTVSPost2010PropOp53
 70
     1
102
RTVSPost2010Prop54
  1
strokes_ogs.tif
102
RTVSPost2010PropOp54
 70
     1
102
RTVSPost2010Prop55
280
     0
102
RTVSPost2010PropOp55
 70
     1
102
RTVSPost2010Prop56
140
1.0
102
RTVSPost2010PropOp56
 70
     1
102
RTVSPost2010Prop57
140
1.0
102
RTVSPost2010PropOp57
 70
     1
  0
XRECORD
  5
243
102
{ACAD_REACTORS
330
242
102
}
330
242
100
AcDbXrecord
280
     1
102
RTVSPropertyOp0
 70
     1
102
RTVSPropertyOp1
 70
     1
102
RTVSPropertyOp2
 70
     1
102
RTVSPropertyOp3
 70
     1
102
RTVSPropertyOp4
 70
     1
102
RTVSPropertyOp5
 70
     1
102
RTVSPropertyOp6
 70
     1
102
RTVSPropertyOp7
 70
     1
102
RTVSPropertyOp8
 70
     1
102
RTVSPropertyOp9
 70
     1
102
RTVSPropertyOp10
 70
     1
102
RTVSPropertyOp11
 70
     1
102
RTVSPropertyOp12
 70
     1
102
RTVSPropertyOp13
 70
     1
102
RTVSPropertyOp14
 70
     1
102
RTVSPropertyOp15
 70
     1
102
RTVSPropertyOp16
 70
     1
102
RTVSPropertyOp17
 70
     1
102
RTVSPropertyOp18
 70
     1
102
RTVSPropertyOp19
 70
     1
102
RTVSPropertyOp20
 70
     1
102
RTVSPropertyOp21
 70
     1
102
RTVSPropertyOp22
 70
     1
102
RTVSPropertyOp23
 70
     1
102
RTVSPropertyOp24
 70
     1
102
RTVSPropertyOp25
 70
     1
102
RTVSPropertyOp26
 70
     1
102
RTVSPropertyOp27
 70
     1
102
RTVSPropertyOp28
 70
     1
102
RTVSPropertyOp29
 70
     1
102
RTVSPropertyOp30
 70
     1
102
RTVSPropertyOp31
 70
     1
102
RTVSPropertyOp32
 70
     1
102
RTVSPropertyOp33
 70
     1
102
RTVSPropertyOp34
 70
     1
102
RTVSPropertyOp35
 70
     1
102
RTVSPropertyOp36
 70
     1
102
RTVSPropertyOp37
 70
     1
102
RTVSPropertyOp38
 70
     1
102
RTVSPropertyOp39
 70
     1
102
RTVSPropertyOp40
 70
     1
102
RTVSPropertyOp41
 70
     1
102
RTVSPropertyOp42
 70
     1
102
RTVSPropertyOp43
 70
     1
102
RTVSPropertyOp44
 70
     1
102
RTVSPropertyOp45
 70
     1
102
RTVSPropertyOp46
 70
     1
102
RTVSPropertyOp47
 70
     1
102
RTVSPropertyOp48
 70
     1
102
RTVSPropertyOp49
 70
     1
102
RTVSPropertyOp50
 70
     1
102
RTVSPropertyOp51
 70
     0
102
RTVSPropertyOp52
 70
     0
102
RTVSPropertyOp53
 70
     1
102
RTVSPropertyOp54
 70
     1
102
RTVSPropertyOp55
 70
     1
102
RTVSPropertyOp56
 70
     1
102
RTVSPropertyOp57
 70
     1
102
RTVSPost2010Prop28
280
     0
102
RTVSPost2010PropOp28
 70
     1
102
RTVSPost2010Prop29
280
     1
102
RTVSPost2010PropOp29
 70
     1
102
RTVSPost2010Prop30
280
     1
102
RTVSPost2010PropOp30
 70
     1
102
RTVSPost2010Prop31
280
     0
102
RTVSPost2010PropOp31
 70
     1
102
RTVSPost2010Prop32
280
     0
102
RTVSPost2010PropOp32
 70
     1
102
RTVSPost2010Prop33
280
     0
102
RTVSPost2010PropOp33
 70
     1
102
RTVSPost2010Prop34
280
     0
102
RTVSPost2010PropOp34
 70
     1
102
RTVSPost2010Prop35
280
     0
102
RTVSPost2010PropOp35
 70
     1
102
RTVSPost2010Prop36
280
     0
102
RTVSPost2010PropOp36
 70
     1
102
RTVSPost2010Prop37
 90
       50
102
RTVSPost2010PropOp37
 70
     1
102
RTVSPost2010Prop38
140
0.0
102
RTVSPost2010PropOp38
 70
     1
102
RTVSPost2010Prop39
140
1.0
102
RTVSPost2010PropOp39
 70
     1
102
RTVSPost2010Prop40
 90
        0
102
RTVSPost2010PropOp40
 70
     1
102
RTVSPost2010Prop41ColorIndex
 90
       18
102
RTVSPost2010Prop41ColorRGB
 90
        0
102
RTVSPost2010PropOp41
 70
     1
102
RTVSPost2010Prop42
 90
       50
102
RTVSPost2010PropOp42
 70
     1
102
RTVSPost2010Prop43
 90
        3
102
RTVSPost2010PropOp43
 70
     1
102
RTVSPost2010Prop44ColorIndex
 90
        5
102
RTVSPost2010Prop44ColorRGB
 90
      255
102
RTVSPost2010PropOp44
 70
     1
102
RTVSPost2010Prop45
280
     0
102
RTVSPost2010PropOp45
 70
     1
102
RTVSPost2010Prop46
 90
       50
102
RTVSPost2010PropOp46
 70
     1
102
RTVSPost2010Prop47
 90
       50
102
RTVSPost2010PropOp47
 70
     1
102
RTVSPost2010Prop48
 90
       50
102
RTVSPost2010PropOp48
 70
     1
102
RTVSPost2010Prop49
280
     0
102
RTVSPost2010PropOp49
 70
     1
102
RTVSPost2010Prop50
 90
       50
102
RTVSPost2010PropOp50
 70
     1
102
RTVSPost2010Prop51ColorIndex
 90
      256
102
RTVSPost2010Prop51ColorRGB
 90
-16777216
102
RTVSPost2010PropOp51
 70
     0
102
RTVSPost2010Prop52
140
1.0
102
RTVSPost2010PropOp52
 70
     0
102
RTVSPost2010Prop53
 90
        2
102
RTVSPost2010PropOp53
 70
     1
102
RTVSPost2010Prop54
  1
strokes_ogs.tif
102
RTVSPost2010PropOp54
 70
     1
102
RTVSPost2010Prop55
280
     0
102
RTVSPost2010PropOp55
 70
     1
102
RTVSPost2010Prop56
140
1.0
102
RTVSPost2010PropOp56
 70
     1
102
RTVSPost2010Prop57
140
1.0
102
RTVSPost2010PropOp57
 70
     1
  0
XRECORD
  5
245
102
{ACAD_REACTORS
330
244
102
}
330
244
100
AcDbXrecord
280
     1
102
RTVSPropertyOp0
 70
     1
102
RTVSPropertyOp1
 70
     1
102
RTVSPropertyOp2
 70
     1
102
RTVSPropertyOp3
 70
     1
102
RTVSPropertyOp4
 70
     1
102
RTVSPropertyOp5
 70
     1
102
RTVSPropertyOp6
 70
     1
102
RTVSPropertyOp7
 70
     1
102
RTVSPropertyOp8
 70
     1
102
RTVSPropertyOp9
 70
     1
102
RTVSPropertyOp10
 70
     1
102
RTVSPropertyOp11
 70
     1
102
RTVSPropertyOp12
 70
     1
102
RTVSPropertyOp13
 70
     1
102
RTVSPropertyOp14
 70
     1
102
RTVSPropertyOp15
 70
     1
102
RTVSPropertyOp16
 70
     1
102
RTVSPropertyOp17
 70
     1
102
RTVSPropertyOp18
 70
     1
102
RTVSPropertyOp19
 70
     1
102
RTVSPropertyOp20
 70
     1
102
RTVSPropertyOp21
 70
     1
102
RTVSPropertyOp22
 70
     1
102
RTVSPropertyOp23
 70
     1
102
RTVSPropertyOp24
 70
     1
102
RTVSPropertyOp25
 70
     1
102
RTVSPropertyOp26
 70
     1
102
RTVSPropertyOp27
 70
     1
102
RTVSPropertyOp28
 70
     1
102
RTVSPropertyOp29
 70
     1
102
RTVSPropertyOp30
 70
     1
102
RTVSPropertyOp31
 70
     1
102
RTVSPropertyOp32
 70
     1
102
RTVSPropertyOp33
 70
     1
102
RTVSPropertyOp34
 70
     1
102
RTVSPropertyOp35
 70
     1
102
RTVSPropertyOp36
 70
     1
102
RTVSPropertyOp37
 70
     1
102
RTVSPropertyOp38
 70
     1
102
RTVSPropertyOp39
 70
     1
102
RTVSPropertyOp40
 70
     1
102
RTVSPropertyOp41
 70
     1
102
RTVSPropertyOp42
 70
     1
102
RTVSPropertyOp43
 70
     1
102
RTVSPropertyOp44
 70
     1
102
RTVSPropertyOp45
 70
     1
102
RTVSPropertyOp46
 70
     1
102
RTVSPropertyOp47
 70
     1
102
RTVSPropertyOp48
 70
     1
102
RTVSPropertyOp49
 70
     1
102
RTVSPropertyOp50
 70
     1
102
RTVSPropertyOp51
 70
     0
102
RTVSPropertyOp52
 70
     0
102
RTVSPropertyOp53
 70
     1
102
RTVSPropertyOp54
 70
     1
102
RTVSPropertyOp55
 70
     1
102
RTVSPropertyOp56
 70
     1
102
RTVSPropertyOp57
 70
     1
102
RTVSPost2010Prop28
280
     0
102
RTVSPost2010PropOp28
 70
     1
102
RTVSPost2010Prop29
280
     1
102
RTVSPost2010PropOp29
 70
     1
102
RTVSPost2010Prop30
280
     1
102
RTVSPost2010PropOp30
 70
     1
102
RTVSPost2010Prop31
280
     0
102
RTVSPost2010PropOp31
 70
     1
102
RTVSPost2010Prop32
280
     0
102
RTVSPost2010PropOp32
 70
     1
102
RTVSPost2010Prop33
280
     0
102
RTVSPost2010PropOp33
 70
     1
102
RTVSPost2010Prop34
280
     0
102
RTVSPost2010PropOp34
 70
     1
102
RTVSPost2010Prop35
280
     0
102
RTVSPost2010PropOp35
 70
     1
102
RTVSPost2010Prop36
280
     0
102
RTVSPost2010PropOp36
 70
     1
102
RTVSPost2010Prop37
 90
       50
102
RTVSPost2010PropOp37
 70
     1
102
RTVSPost2010Prop38
140
0.0
102
RTVSPost2010PropOp38
 70
     1
102
RTVSPost2010Prop39
140
1.0
102
RTVSPost2010PropOp39
 70
     1
102
RTVSPost2010Prop40
 90
        0
102
RTVSPost2010PropOp40
 70
     1
102
RTVSPost2010Prop41ColorIndex
 90
       18
102
RTVSPost2010Prop41ColorRGB
 90
        0
102
RTVSPost2010PropOp41
 70
     1
102
RTVSPost2010Prop42
 90
       50
102
RTVSPost2010PropOp42
 70
     1
102
RTVSPost2010Prop43
 90
        3
102
RTVSPost2010PropOp43
 70
     1
102
RTVSPost2010Prop44ColorIndex
 90
        5
102
RTVSPost2010Prop44ColorRGB
 90
      255
102
RTVSPost2010PropOp44
 70
     1
102
RTVSPost2010Prop45
280
     0
102
RTVSPost2010PropOp45
 70
     1
102
RTVSPost2010Prop46
 90
       50
102
RTVSPost2010PropOp46
 70
     1
102
RTVSPost2010Prop47
 90
       50
102
RTVSPost2010PropOp47
 70
     1
102
RTVSPost2010Prop48
 90
       50
102
RTVSPost2010PropOp48
 70
     1
102
RTVSPost2010Prop49
280
     0
102
RTVSPost2010PropOp49
 70
     1
102
RTVSPost2010Prop50
 90
       50
102
RTVSPost2010PropOp50
 70
     1
102
RTVSPost2010Prop51ColorIndex
 90
      256
102
RTVSPost2010Prop51ColorRGB
 90
-16777216
102
RTVSPost2010PropOp51
 70
     0
102
RTVSPost2010Prop52
140
1.0
102
RTVSPost2010PropOp52
 70
     0
102
RTVSPost2010Prop53
 90
        2
102
RTVSPost2010PropOp53
 70
     1
102
RTVSPost2010Prop54
  1
strokes_ogs.tif
102
RTVSPost2010PropOp54
 70
     1
102
RTVSPost2010Prop55
280
     0
102
RTVSPost2010PropOp55
 70
     1
102
RTVSPost2010Prop56
140
1.0
102
RTVSPost2010PropOp56
 70
     1
102
RTVSPost2010Prop57
140
1.0
102
RTVSPost2010PropOp57
 70
     1
  0
XRECORD
  5
24B
102
{ACAD_REACTORS
330
24A
102
}
330
24A
100
AcDbXrecord
280
     1
102
RTVSPropertyOp0
 70
     1
102
RTVSPropertyOp1
 70
     1
102
RTVSPropertyOp2
 70
     1
102
RTVSPropertyOp3
 70
     1
102
RTVSPropertyOp4
 70
     1
102
RTVSPropertyOp5
 70
     1
102
RTVSPropertyOp6
 70
     1
102
RTVSPropertyOp7
 70
     1
102
RTVSPropertyOp8
 70
     1
102
RTVSPropertyOp9
 70
     1
102
RTVSPropertyOp10
 70
     1
102
RTVSPropertyOp11
 70
     1
102
RTVSPropertyOp12
 70
     1
102
RTVSPropertyOp13
 70
     1
102
RTVSPropertyOp14
 70
     1
102
RTVSPropertyOp15
 70
     1
102
RTVSPropertyOp16
 70
     1
102
RTVSPropertyOp17
 70
     1
102
RTVSPropertyOp18
 70
     1
102
RTVSPropertyOp19
 70
     1
102
RTVSPropertyOp20
 70
     1
102
RTVSPropertyOp21
 70
     1
102
RTVSPropertyOp22
 70
     1
102
RTVSPropertyOp23
 70
     1
102
RTVSPropertyOp24
 70
     1
102
RTVSPropertyOp25
 70
     1
102
RTVSPropertyOp26
 70
     1
102
RTVSPropertyOp27
 70
     1
102
RTVSPropertyOp28
 70
     1
102
RTVSPropertyOp29
 70
     1
102
RTVSPropertyOp30
 70
     1
102
RTVSPropertyOp31
 70
     1
102
RTVSPropertyOp32
 70
     1
102
RTVSPropertyOp33
 70
     1
102
RTVSPropertyOp34
 70
     1
102
RTVSPropertyOp35
 70
     1
102
RTVSPropertyOp36
 70
     1
102
RTVSPropertyOp37
 70
     1
102
RTVSPropertyOp38
 70
     1
102
RTVSPropertyOp39
 70
     1
102
RTVSPropertyOp40
 70
     1
102
RTVSPropertyOp41
 70
     1
102
RTVSPropertyOp42
 70
     1
102
RTVSPropertyOp43
 70
     1
102
RTVSPropertyOp44
 70
     1
102
RTVSPropertyOp45
 70
     1
102
RTVSPropertyOp46
 70
     1
102
RTVSPropertyOp47
 70
     1
102
RTVSPropertyOp48
 70
     1
102
RTVSPropertyOp49
 70
     1
102
RTVSPropertyOp50
 70
     1
102
RTVSPropertyOp51
 70
     0
102
RTVSPropertyOp52
 70
     0
102
RTVSPropertyOp53
 70
     1
102
RTVSPropertyOp54
 70
     1
102
RTVSPropertyOp55
 70
     1
102
RTVSPropertyOp56
 70
     1
102
RTVSPropertyOp57
 70
     1
102
RTVSPost2010Prop28
280
     0
102
RTVSPost2010PropOp28
 70
     1
102
RTVSPost2010Prop29
280
     1
102
RTVSPost2010PropOp29
 70
     1
102
RTVSPost2010Prop30
280
     1
102
RTVSPost2010PropOp30
 70
     1
102
RTVSPost2010Prop31
280
     0
102
RTVSPost2010PropOp31
 70
     1
102
RTVSPost2010Prop32
280
     0
102
RTVSPost2010PropOp32
 70
     1
102
RTVSPost2010Prop33
280
     0
102
RTVSPost2010PropOp33
 70
     1
102
RTVSPost2010Prop34
280
     0
102
RTVSPost2010PropOp34
 70
     1
102
RTVSPost2010Prop35
280
     0
102
RTVSPost2010PropOp35
 70
     1
102
RTVSPost2010Prop36
280
     0
102
RTVSPost2010PropOp36
 70
     1
102
RTVSPost2010Prop37
 90
       50
102
RTVSPost2010PropOp37
 70
     1
102
RTVSPost2010Prop38
140
0.0
102
RTVSPost2010PropOp38
 70
     1
102
RTVSPost2010Prop39
140
1.0
102
RTVSPost2010PropOp39
 70
     1
102
RTVSPost2010Prop40
 90
        0
102
RTVSPost2010PropOp40
 70
     1
102
RTVSPost2010Prop41ColorIndex
 90
       18
102
RTVSPost2010Prop41ColorRGB
 90
        0
102
RTVSPost2010PropOp41
 70
     1
102
RTVSPost2010Prop42
 90
       50
102
RTVSPost2010PropOp42
 70
     1
102
RTVSPost2010Prop43
 90
        3
102
RTVSPost2010PropOp43
 70
     1
102
RTVSPost2010Prop44ColorIndex
 90
        5
102
RTVSPost2010Prop44ColorRGB
 90
      255
102
RTVSPost2010PropOp44
 70
     1
102
RTVSPost2010Prop45
280
     0
102
RTVSPost2010PropOp45
 70
     1
102
RTVSPost2010Prop46
 90
       50
102
RTVSPost2010PropOp46
 70
     1
102
RTVSPost2010Prop47
 90
       50
102
RTVSPost2010PropOp47
 70
     1
102
RTVSPost2010Prop48
 90
       50
102
RTVSPost2010PropOp48
 70
     1
102
RTVSPost2010Prop49
280
     0
102
RTVSPost2010PropOp49
 70
     1
102
RTVSPost2010Prop50
 90
       50
102
RTVSPost2010PropOp50
 70
     1
102
RTVSPost2010Prop51ColorIndex
 90
      256
102
RTVSPost2010Prop51ColorRGB
 90
-16777216
102
RTVSPost2010PropOp51
 70
     0
102
RTVSPost2010Prop52
140
1.0
102
RTVSPost2010PropOp52
 70
     0
102
RTVSPost2010Prop53
 90
        2
102
RTVSPost2010PropOp53
 70
     1
102
RTVSPost2010Prop54
  1
strokes_ogs.tif
102
RTVSPost2010PropOp54
 70
     1
102
RTVSPost2010Prop55
280
     0
102
RTVSPost2010PropOp55
 70
     1
102
RTVSPost2010Prop56
140
1.0
102
RTVSPost2010PropOp56
 70
     1
102
RTVSPost2010Prop57
140
1.0
102
RTVSPost2010PropOp57
 70
     1
  0
XRECORD
  5
25F
102
{ACAD_REACTORS
330
25E
102
}
330
25E
100
AcDbXrecord
280
     1
102
RTVSPropertyOp0
 70
     0
102
RTVSPropertyOp1
 70
     0
102
RTVSPropertyOp2
 70
     0
102
RTVSPropertyOp3
 70
     0
102
RTVSPropertyOp4
 70
     0
102
RTVSPropertyOp5
 70
     0
102
RTVSPropertyOp6
 70
     0
102
RTVSPropertyOp7
 70
     0
102
RTVSPropertyOp8
 70
     0
102
RTVSPropertyOp9
 70
     0
102
RTVSPropertyOp10
 70
     0
102
RTVSPropertyOp11
 70
     0
102
RTVSPropertyOp12
 70
     0
102
RTVSPropertyOp13
 70
     0
102
RTVSPropertyOp14
 70
     2
102
RTVSPropertyOp15
 70
     0
102
RTVSPropertyOp16
 70
     0
102
RTVSPropertyOp17
 70
     0
102
RTVSPropertyOp18
 70
     0
102
RTVSPropertyOp19
 70
     0
102
RTVSPropertyOp20
 70
     0
102
RTVSPropertyOp21
 70
     0
102
RTVSPropertyOp22
 70
     0
102
RTVSPropertyOp23
 70
     0
102
RTVSPropertyOp24
 70
     0
102
RTVSPropertyOp25
 70
     0
102
RTVSPropertyOp26
 70
     0
102
RTVSPropertyOp27
 70
     0
102
RTVSPropertyOp28
 70
     0
102
RTVSPropertyOp29
 70
     0
102
RTVSPropertyOp30
 70
     0
102
RTVSPropertyOp31
 70
     0
102
RTVSPropertyOp32
 70
     0
102
RTVSPropertyOp33
 70
     0
102
RTVSPropertyOp34
 70
     0
102
RTVSPropertyOp35
 70
     0
102
RTVSPropertyOp36
 70
     0
102
RTVSPropertyOp37
 70
     0
102
RTVSPropertyOp38
 70
     0
102
RTVSPropertyOp39
 70
     0
102
RTVSPropertyOp40
 70
     0
102
RTVSPropertyOp41
 70
     0
102
RTVSPropertyOp42
 70
     0
102
RTVSPropertyOp43
 70
     0
102
RTVSPropertyOp44
 70
     0
102
RTVSPropertyOp45
 70
     0
102
RTVSPropertyOp46
 70
     0
102
RTVSPropertyOp47
 70
     0
102
RTVSPropertyOp48
 70
     0
102
RTVSPropertyOp49
 70
     0
102
RTVSPropertyOp50
 70
     0
102
RTVSPropertyOp51
 70
     0
102
RTVSPropertyOp52
 70
     0
102
RTVSPropertyOp53
 70
     0
102
RTVSPropertyOp54
 70
     0
102
RTVSPropertyOp55
 70
     0
102
RTVSPropertyOp56
 70
     0
102
RTVSPropertyOp57
 70
     0
102
RTVSPost2010Prop28
280
     0
102
RTVSPost2010PropOp28
 70
     0
102
RTVSPost2010Prop29
280
     1
102
RTVSPost2010PropOp29
 70
     0
102
RTVSPost2010Prop30
280
     1
102
RTVSPost2010PropOp30
 70
     0
102
RTVSPost2010Prop31
280
     0
102
RTVSPost2010PropOp31
 70
     0
102
RTVSPost2010Prop32
280
     0
102
RTVSPost2010PropOp32
 70
     0
102
RTVSPost2010Prop33
280
     0
102
RTVSPost2010PropOp33
 70
     0
102
RTVSPost2010Prop34
280
     0
102
RTVSPost2010PropOp34
 70
     0
102
RTVSPost2010Prop35
280
     0
102
RTVSPost2010PropOp35
 70
     0
102
RTVSPost2010Prop36
280
     0
102
RTVSPost2010PropOp36
 70
     0
102
RTVSPost2010Prop37
 90
       50
102
RTVSPost2010PropOp37
 70
     0
102
RTVSPost2010Prop38
140
0.0
102
RTVSPost2010PropOp38
 70
     0
102
RTVSPost2010Prop39
140
1.0
102
RTVSPost2010PropOp39
 70
     0
102
RTVSPost2010Prop40
 90
        0
102
RTVSPost2010PropOp40
 70
     0
102
RTVSPost2010Prop41ColorIndex
 90
       18
102
RTVSPost2010Prop41ColorRGB
 90
        0
102
RTVSPost2010PropOp41
 70
     0
102
RTVSPost2010Prop42
 90
       50
102
RTVSPost2010PropOp42
 70
     0
102
RTVSPost2010Prop43
 90
        3
102
RTVSPost2010PropOp43
 70
     0
102
RTVSPost2010Prop44ColorIndex
 90
        5
102
RTVSPost2010Prop44ColorRGB
 90
      255
102
RTVSPost2010PropOp44
 70
     0
102
RTVSPost2010Prop45
280
     0
102
RTVSPost2010PropOp45
 70
     0
102
RTVSPost2010Prop46
 90
       50
102
RTVSPost2010PropOp46
 70
     0
102
RTVSPost2010Prop47
 90
       50
102
RTVSPost2010PropOp47
 70
     0
102
RTVSPost2010Prop48
 90
       50
102
RTVSPost2010PropOp48
 70
     0
102
RTVSPost2010Prop49
280
     0
102
RTVSPost2010PropOp49
 70
     0
102
RTVSPost2010Prop50
 90
       50
102
RTVSPost2010PropOp50
 70
     0
102
RTVSPost2010Prop51ColorIndex
 90
      256
102
RTVSPost2010Prop51ColorRGB
 90
-16777216
102
RTVSPost2010PropOp51
 70
     0
102
RTVSPost2010Prop52
140
1.0
102
RTVSPost2010PropOp52
 70
     0
102
RTVSPost2010Prop53
 90
        2
102
RTVSPost2010PropOp53
 70
     0
102
RTVSPost2010Prop54
  1
strokes_ogs.tif
102
RTVSPost2010PropOp54
 70
     0
102
RTVSPost2010Prop55
280
     0
102
RTVSPost2010PropOp55
 70
     0
102
RTVSPost2010Prop56
140
1.0
102
RTVSPost2010PropOp56
 70
     0
102
RTVSPost2010Prop57
140
1.0
102
RTVSPost2010PropOp57
 70
     0
  0
XRECORD
  5
259
102
{ACAD_REACTORS
330
258
102
}
330
258
100
AcDbXrecord
280
     1
102
RTVSPropertyOp0
 70
     1
102
RTVSPropertyOp1
 70
     1
102
RTVSPropertyOp2
 70
     1
102
RTVSPropertyOp3
 70
     1
102
RTVSPropertyOp4
 70
     1
102
RTVSPropertyOp5
 70
     1
102
RTVSPropertyOp6
 70
     1
102
RTVSPropertyOp7
 70
     1
102
RTVSPropertyOp8
 70
     1
102
RTVSPropertyOp9
 70
     1
102
RTVSPropertyOp10
 70
     1
102
RTVSPropertyOp11
 70
     1
102
RTVSPropertyOp12
 70
     1
102
RTVSPropertyOp13
 70
     1
102
RTVSPropertyOp14
 70
     1
102
RTVSPropertyOp15
 70
     1
102
RTVSPropertyOp16
 70
     1
102
RTVSPropertyOp17
 70
     1
102
RTVSPropertyOp18
 70
     1
102
RTVSPropertyOp19
 70
     1
102
RTVSPropertyOp20
 70
     1
102
RTVSPropertyOp21
 70
     1
102
RTVSPropertyOp22
 70
     1
102
RTVSPropertyOp23
 70
     1
102
RTVSPropertyOp24
 70
     1
102
RTVSPropertyOp25
 70
     1
102
RTVSPropertyOp26
 70
     1
102
RTVSPropertyOp27
 70
     1
102
RTVSPropertyOp28
 70
     1
102
RTVSPropertyOp29
 70
     1
102
RTVSPropertyOp30
 70
     1
102
RTVSPropertyOp31
 70
     1
102
RTVSPropertyOp32
 70
     1
102
RTVSPropertyOp33
 70
     1
102
RTVSPropertyOp34
 70
     1
102
RTVSPropertyOp35
 70
     1
102
RTVSPropertyOp36
 70
     1
102
RTVSPropertyOp37
 70
     1
102
RTVSPropertyOp38
 70
     1
102
RTVSPropertyOp39
 70
     1
102
RTVSPropertyOp40
 70
     1
102
RTVSPropertyOp41
 70
     1
102
RTVSPropertyOp42
 70
     1
102
RTVSPropertyOp43
 70
     1
102
RTVSPropertyOp44
 70
     1
102
RTVSPropertyOp45
 70
     1
102
RTVSPropertyOp46
 70
     1
102
RTVSPropertyOp47
 70
     1
102
RTVSPropertyOp48
 70
     1
102
RTVSPropertyOp49
 70
     1
102
RTVSPropertyOp50
 70
     1
102
RTVSPropertyOp51
 70
     0
102
RTVSPropertyOp52
 70
     0
102
RTVSPropertyOp53
 70
     1
102
RTVSPropertyOp54
 70
     1
102
RTVSPropertyOp55
 70
     1
102
RTVSPropertyOp56
 70
     1
102
RTVSPropertyOp57
 70
     1
102
RTVSPost2010Prop28
280
     0
102
RTVSPost2010PropOp28
 70
     1
102
RTVSPost2010Prop29
280
     1
102
RTVSPost2010PropOp29
 70
     1
102
RTVSPost2010Prop30
280
     1
102
RTVSPost2010PropOp30
 70
     1
102
RTVSPost2010Prop31
280
     0
102
RTVSPost2010PropOp31
 70
     1
102
RTVSPost2010Prop32
280
     0
102
RTVSPost2010PropOp32
 70
     1
102
RTVSPost2010Prop33
280
     0
102
RTVSPost2010PropOp33
 70
     1
102
RTVSPost2010Prop34
280
     0
102
RTVSPost2010PropOp34
 70
     1
102
RTVSPost2010Prop35
280
     0
102
RTVSPost2010PropOp35
 70
     1
102
RTVSPost2010Prop36
280
     0
102
RTVSPost2010PropOp36
 70
     1
102
RTVSPost2010Prop37
 90
       50
102
RTVSPost2010PropOp37
 70
     1
102
RTVSPost2010Prop38
140
0.0
102
RTVSPost2010PropOp38
 70
     1
102
RTVSPost2010Prop39
140
1.0
102
RTVSPost2010PropOp39
 70
     1
102
RTVSPost2010Prop40
 90
        0
102
RTVSPost2010PropOp40
 70
     1
102
RTVSPost2010Prop41ColorIndex
 90
       18
102
RTVSPost2010Prop41ColorRGB
 90
        0
102
RTVSPost2010PropOp41
 70
     1
102
RTVSPost2010Prop42
 90
       50
102
RTVSPost2010PropOp42
 70
     1
102
RTVSPost2010Prop43
 90
        3
102
RTVSPost2010PropOp43
 70
     1
102
RTVSPost2010Prop44ColorIndex
 90
        5
102
RTVSPost2010Prop44ColorRGB
 90
      255
102
RTVSPost2010PropOp44
 70
     1
102
RTVSPost2010Prop45
280
     0
102
RTVSPost2010PropOp45
 70
     1
102
RTVSPost2010Prop46
 90
       50
102
RTVSPost2010PropOp46
 70
     1
102
RTVSPost2010Prop47
 90
       50
102
RTVSPost2010PropOp47
 70
     1
102
RTVSPost2010Prop48
 90
       50
102
RTVSPost2010PropOp48
 70
     1
102
RTVSPost2010Prop49
280
     0
102
RTVSPost2010PropOp49
 70
     1
102
RTVSPost2010Prop50
 90
       50
102
RTVSPost2010PropOp50
 70
     1
102
RTVSPost2010Prop51ColorIndex
 90
      256
102
RTVSPost2010Prop51ColorRGB
 90
-16777216
102
RTVSPost2010PropOp51
 70
     0
102
RTVSPost2010Prop52
140
1.0
102
RTVSPost2010PropOp52
 70
     0
102
RTVSPost2010Prop53
 90
        2
102
RTVSPost2010PropOp53
 70
     1
102
RTVSPost2010Prop54
  1
strokes_ogs.tif
102
RTVSPost2010PropOp54
 70
     1
102
RTVSPost2010Prop55
280
     0
102
RTVSPost2010PropOp55
 70
     1
102
RTVSPost2010Prop56
140
1.0
102
RTVSPost2010PropOp56
 70
     1
102
RTVSPost2010Prop57
140
1.0
102
RTVSPost2010PropOp57
 70
     1
  0
XRECORD
  5
261
102
{ACAD_REACTORS
330
260
102
}
330
260
100
AcDbXrecord
280
     1
102
RTVSPropertyOp0
 70
     0
102
RTVSPropertyOp1
 70
     0
102
RTVSPropertyOp2
 70
     0
102
RTVSPropertyOp3
 70
     0
102
RTVSPropertyOp4
 70
     0
102
RTVSPropertyOp5
 70
     0
102
RTVSPropertyOp6
 70
     0
102
RTVSPropertyOp7
 70
     0
102
RTVSPropertyOp8
 70
     0
102
RTVSPropertyOp9
 70
     0
102
RTVSPropertyOp10
 70
     0
102
RTVSPropertyOp11
 70
     0
102
RTVSPropertyOp12
 70
     0
102
RTVSPropertyOp13
 70
     0
102
RTVSPropertyOp14
 70
     2
102
RTVSPropertyOp15
 70
     0
102
RTVSPropertyOp16
 70
     0
102
RTVSPropertyOp17
 70
     0
102
RTVSPropertyOp18
 70
     0
102
RTVSPropertyOp19
 70
     0
102
RTVSPropertyOp20
 70
     0
102
RTVSPropertyOp21
 70
     0
102
RTVSPropertyOp22
 70
     0
102
RTVSPropertyOp23
 70
     0
102
RTVSPropertyOp24
 70
     0
102
RTVSPropertyOp25
 70
     0
102
RTVSPropertyOp26
 70
     0
102
RTVSPropertyOp27
 70
     0
102
RTVSPropertyOp28
 70
     0
102
RTVSPropertyOp29
 70
     0
102
RTVSPropertyOp30
 70
     0
102
RTVSPropertyOp31
 70
     0
102
RTVSPropertyOp32
 70
     0
102
RTVSPropertyOp33
 70
     0
102
RTVSPropertyOp34
 70
     0
102
RTVSPropertyOp35
 70
     0
102
RTVSPropertyOp36
 70
     0
102
RTVSPropertyOp37
 70
     0
102
RTVSPropertyOp38
 70
     0
102
RTVSPropertyOp39
 70
     0
102
RTVSPropertyOp40
 70
     0
102
RTVSPropertyOp41
 70
     0
102
RTVSPropertyOp42
 70
     0
102
RTVSPropertyOp43
 70
     0
102
RTVSPropertyOp44
 70
     0
102
RTVSPropertyOp45
 70
     0
102
RTVSPropertyOp46
 70
     0
102
RTVSPropertyOp47
 70
     0
102
RTVSPropertyOp48
 70
     0
102
RTVSPropertyOp49
 70
     0
102
RTVSPropertyOp50
 70
     0
102
RTVSPropertyOp51
 70
     0
102
RTVSPropertyOp52
 70
     0
102
RTVSPropertyOp53
 70
     0
102
RTVSPropertyOp54
 70
     0
102
RTVSPropertyOp55
 70
     0
102
RTVSPropertyOp56
 70
     0
102
RTVSPropertyOp57
 70
     0
102
RTVSPost2010Prop28
280
     0
102
RTVSPost2010PropOp28
 70
     0
102
RTVSPost2010Prop29
280
     1
102
RTVSPost2010PropOp29
 70
     0
102
RTVSPost2010Prop30
280
     1
102
RTVSPost2010PropOp30
 70
     0
102
RTVSPost2010Prop31
280
     0
102
RTVSPost2010PropOp31
 70
     0
102
RTVSPost2010Prop32
280
     0
102
RTVSPost2010PropOp32
 70
     0
102
RTVSPost2010Prop33
280
     0
102
RTVSPost2010PropOp33
 70
     0
102
RTVSPost2010Prop34
280
     0
102
RTVSPost2010PropOp34
 70
     0
102
RTVSPost2010Prop35
280
     0
102
RTVSPost2010PropOp35
 70
     0
102
RTVSPost2010Prop36
280
     0
102
RTVSPost2010PropOp36
 70
     0
102
RTVSPost2010Prop37
 90
       50
102
RTVSPost2010PropOp37
 70
     0
102
RTVSPost2010Prop38
140
0.0
102
RTVSPost2010PropOp38
 70
     0
102
RTVSPost2010Prop39
140
1.0
102
RTVSPost2010PropOp39
 70
     0
102
RTVSPost2010Prop40
 90
        0
102
RTVSPost2010PropOp40
 70
     0
102
RTVSPost2010Prop41ColorIndex
 90
       18
102
RTVSPost2010Prop41ColorRGB
 90
        0
102
RTVSPost2010PropOp41
 70
     0
102
RTVSPost2010Prop42
 90
       50
102
RTVSPost2010PropOp42
 70
     0
102
RTVSPost2010Prop43
 90
        3
102
RTVSPost2010PropOp43
 70
     0
102
RTVSPost2010Prop44ColorIndex
 90
        5
102
RTVSPost2010Prop44ColorRGB
 90
      255
102
RTVSPost2010PropOp44
 70
     0
102
RTVSPost2010Prop45
280
     0
102
RTVSPost2010PropOp45
 70
     0
102
RTVSPost2010Prop46
 90
       50
102
RTVSPost2010PropOp46
 70
     0
102
RTVSPost2010Prop47
 90
       50
102
RTVSPost2010PropOp47
 70
     0
102
RTVSPost2010Prop48
 90
       50
102
RTVSPost2010PropOp48
 70
     0
102
RTVSPost2010Prop49
280
     0
102
RTVSPost2010PropOp49
 70
     0
102
RTVSPost2010Prop50
 90
       50
102
RTVSPost2010PropOp50
 70
     0
102
RTVSPost2010Prop51ColorIndex
 90
      256
102
RTVSPost2010Prop51ColorRGB
 90
-16777216
102
RTVSPost2010PropOp51
 70
     0
102
RTVSPost2010Prop52
140
1.0
102
RTVSPost2010PropOp52
 70
     0
102
RTVSPost2010Prop53
 90
        2
102
RTVSPost2010PropOp53
 70
     0
102
RTVSPost2010Prop54
  1
strokes_ogs.tif
102
RTVSPost2010PropOp54
 70
     0
102
RTVSPost2010Prop55
280
     0
102
RTVSPost2010PropOp55
 70
     0
102
RTVSPost2010Prop56
140
1.0
102
RTVSPost2010PropOp56
 70
     0
102
RTVSPost2010Prop57
140
1.0
102
RTVSPost2010PropOp57
 70
     0
  0
XRECORD
  5
24F
102
{ACAD_REACTORS
330
24E
102
}
330
24E
100
AcDbXrecord
280
     1
102
RTVSPropertyOp0
 70
     1
102
RTVSPropertyOp1
 70
     1
102
RTVSPropertyOp2
 70
     1
102
RTVSPropertyOp3
 70
     1
102
RTVSPropertyOp4
 70
     1
102
RTVSPropertyOp5
 70
     1
102
RTVSPropertyOp6
 70
     1
102
RTVSPropertyOp7
 70
     1
102
RTVSPropertyOp8
 70
     1
102
RTVSPropertyOp9
 70
     1
102
RTVSPropertyOp10
 70
     1
102
RTVSPropertyOp11
 70
     1
102
RTVSPropertyOp12
 70
     1
102
RTVSPropertyOp13
 70
     1
102
RTVSPropertyOp14
 70
     1
102
RTVSPropertyOp15
 70
     1
102
RTVSPropertyOp16
 70
     1
102
RTVSPropertyOp17
 70
     1
102
RTVSPropertyOp18
 70
     1
102
RTVSPropertyOp19
 70
     1
102
RTVSPropertyOp20
 70
     1
102
RTVSPropertyOp21
 70
     1
102
RTVSPropertyOp22
 70
     1
102
RTVSPropertyOp23
 70
     1
102
RTVSPropertyOp24
 70
     1
102
RTVSPropertyOp25
 70
     1
102
RTVSPropertyOp26
 70
     1
102
RTVSPropertyOp27
 70
     1
102
RTVSPropertyOp28
 70
     1
102
RTVSPropertyOp29
 70
     1
102
RTVSPropertyOp30
 70
     1
102
RTVSPropertyOp31
 70
     1
102
RTVSPropertyOp32
 70
     1
102
RTVSPropertyOp33
 70
     1
102
RTVSPropertyOp34
 70
     1
102
RTVSPropertyOp35
 70
     1
102
RTVSPropertyOp36
 70
     1
102
RTVSPropertyOp37
 70
     1
102
RTVSPropertyOp38
 70
     1
102
RTVSPropertyOp39
 70
     1
102
RTVSPropertyOp40
 70
     1
102
RTVSPropertyOp41
 70
     1
102
RTVSPropertyOp42
 70
     1
102
RTVSPropertyOp43
 70
     1
102
RTVSPropertyOp44
 70
     1
102
RTVSPropertyOp45
 70
     1
102
RTVSPropertyOp46
 70
     1
102
RTVSPropertyOp47
 70
     1
102
RTVSPropertyOp48
 70
     1
102
RTVSPropertyOp49
 70
     1
102
RTVSPropertyOp50
 70
     1
102
RTVSPropertyOp51
 70
     0
102
RTVSPropertyOp52
 70
     0
102
RTVSPropertyOp53
 70
     1
102
RTVSPropertyOp54
 70
     1
102
RTVSPropertyOp55
 70
     1
102
RTVSPropertyOp56
 70
     1
102
RTVSPropertyOp57
 70
     1
102
RTVSPost2010Prop28
280
     0
102
RTVSPost2010PropOp28
 70
     1
102
RTVSPost2010Prop29
280
     1
102
RTVSPost2010PropOp29
 70
     1
102
RTVSPost2010Prop30
280
     1
102
RTVSPost2010PropOp30
 70
     1
102
RTVSPost2010Prop31
280
     0
102
RTVSPost2010PropOp31
 70
     1
102
RTVSPost2010Prop32
280
     0
102
RTVSPost2010PropOp32
 70
     1
102
RTVSPost2010Prop33
280
     0
102
RTVSPost2010PropOp33
 70
     1
102
RTVSPost2010Prop34
280
     0
102
RTVSPost2010PropOp34
 70
     1
102
RTVSPost2010Prop35
280
     0
102
RTVSPost2010PropOp35
 70
     1
102
RTVSPost2010Prop36
280
     0
102
RTVSPost2010PropOp36
 70
     1
102
RTVSPost2010Prop37
 90
       50
102
RTVSPost2010PropOp37
 70
     1
102
RTVSPost2010Prop38
140
0.0
102
RTVSPost2010PropOp38
 70
     1
102
RTVSPost2010Prop39
140
1.0
102
RTVSPost2010PropOp39
 70
     1
102
RTVSPost2010Prop40
 90
        0
102
RTVSPost2010PropOp40
 70
     1
102
RTVSPost2010Prop41ColorIndex
 90
       18
102
RTVSPost2010Prop41ColorRGB
 90
        0
102
RTVSPost2010PropOp41
 70
     1
102
RTVSPost2010Prop42
 90
       50
102
RTVSPost2010PropOp42
 70
     1
102
RTVSPost2010Prop43
 90
        3
102
RTVSPost2010PropOp43
 70
     1
102
RTVSPost2010Prop44ColorIndex
 90
        5
102
RTVSPost2010Prop44ColorRGB
 90
      255
102
RTVSPost2010PropOp44
 70
     1
102
RTVSPost2010Prop45
280
     0
102
RTVSPost2010PropOp45
 70
     1
102
RTVSPost2010Prop46
 90
       50
102
RTVSPost2010PropOp46
 70
     1
102
RTVSPost2010Prop47
 90
       50
102
RTVSPost2010PropOp47
 70
     1
102
RTVSPost2010Prop48
 90
       50
102
RTVSPost2010PropOp48
 70
     1
102
RTVSPost2010Prop49
280
     0
102
RTVSPost2010PropOp49
 70
     1
102
RTVSPost2010Prop50
 90
       50
102
RTVSPost2010PropOp50
 70
     1
102
RTVSPost2010Prop51ColorIndex
 90
      256
102
RTVSPost2010Prop51ColorRGB
 90
-16777216
102
RTVSPost2010PropOp51
 70
     0
102
RTVSPost2010Prop52
140
1.0
102
RTVSPost2010PropOp52
 70
     0
102
RTVSPost2010Prop53
 90
        2
102
RTVSPost2010PropOp53
 70
     1
102
RTVSPost2010Prop54
  1
strokes_ogs.tif
102
RTVSPost2010PropOp54
 70
     1
102
RTVSPost2010Prop55
280
     0
102
RTVSPost2010PropOp55
 70
     1
102
RTVSPost2010Prop56
140
1.0
102
RTVSPost2010PropOp56
 70
     1
102
RTVSPost2010Prop57
140
1.0
102
RTVSPost2010PropOp57
 70
     1
  0
XRECORD
  5
26D
102
{ACAD_REACTORS
330
26C
102
}
330
26C
100
AcDbXrecord
280
     1
102
RTVSPropertyOp0
 70
     1
102
RTVSPropertyOp1
 70
     1
102
RTVSPropertyOp2
 70
     1
102
RTVSPropertyOp3
 70
     1
102
RTVSPropertyOp4
 70
     1
102
RTVSPropertyOp5
 70
     1
102
RTVSPropertyOp6
 70
     1
102
RTVSPropertyOp7
 70
     1
102
RTVSPropertyOp8
 70
     1
102
RTVSPropertyOp9
 70
     1
102
RTVSPropertyOp10
 70
     1
102
RTVSPropertyOp11
 70
     1
102
RTVSPropertyOp12
 70
     1
102
RTVSPropertyOp13
 70
     1
102
RTVSPropertyOp14
 70
     1
102
RTVSPropertyOp15
 70
     1
102
RTVSPropertyOp16
 70
     1
102
RTVSPropertyOp17
 70
     1
102
RTVSPropertyOp18
 70
     1
102
RTVSPropertyOp19
 70
     1
102
RTVSPropertyOp20
 70
     1
102
RTVSPropertyOp21
 70
     1
102
RTVSPropertyOp22
 70
     1
102
RTVSPropertyOp23
 70
     1
102
RTVSPropertyOp24
 70
     1
102
RTVSPropertyOp25
 70
     1
102
RTVSPropertyOp26
 70
     1
102
RTVSPropertyOp27
 70
     1
102
RTVSPropertyOp28
 70
     1
102
RTVSPropertyOp29
 70
     1
102
RTVSPropertyOp30
 70
     1
102
RTVSPropertyOp31
 70
     1
102
RTVSPropertyOp32
 70
     1
102
RTVSPropertyOp33
 70
     1
102
RTVSPropertyOp34
 70
     1
102
RTVSPropertyOp35
 70
     1
102
RTVSPropertyOp36
 70
     1
102
RTVSPropertyOp37
 70
     1
102
RTVSPropertyOp38
 70
     1
102
RTVSPropertyOp39
 70
     1
102
RTVSPropertyOp40
 70
     1
102
RTVSPropertyOp41
 70
     1
102
RTVSPropertyOp42
 70
     1
102
RTVSPropertyOp43
 70
     1
102
RTVSPropertyOp44
 70
     1
102
RTVSPropertyOp45
 70
     1
102
RTVSPropertyOp46
 70
     1
102
RTVSPropertyOp47
 70
     1
102
RTVSPropertyOp48
 70
     1
102
RTVSPropertyOp49
 70
     1
102
RTVSPropertyOp50
 70
     1
102
RTVSPropertyOp51
 70
     0
102
RTVSPropertyOp52
 70
     0
102
RTVSPropertyOp53
 70
     1
102
RTVSPropertyOp54
 70
     1
102
RTVSPropertyOp55
 70
     1
102
RTVSPropertyOp56
 70
     1
102
RTVSPropertyOp57
 70
     1
102
RTVSPost2010Prop28
280
     0
102
RTVSPost2010PropOp28
 70
     1
102
RTVSPost2010Prop29
280
     1
102
RTVSPost2010PropOp29
 70
     1
102
RTVSPost2010Prop30
280
     1
102
RTVSPost2010PropOp30
 70
     1
102
RTVSPost2010Prop31
280
     0
102
RTVSPost2010PropOp31
 70
     1
102
RTVSPost2010Prop32
280
     0
102
RTVSPost2010PropOp32
 70
     1
102
RTVSPost2010Prop33
280
     0
102
RTVSPost2010PropOp33
 70
     1
102
RTVSPost2010Prop34
280
     0
102
RTVSPost2010PropOp34
 70
     1
102
RTVSPost2010Prop35
280
     0
102
RTVSPost2010PropOp35
 70
     1
102
RTVSPost2010Prop36
280
     0
102
RTVSPost2010PropOp36
 70
     1
102
RTVSPost2010Prop37
 90
       50
102
RTVSPost2010PropOp37
 70
     1
102
RTVSPost2010Prop38
140
0.0
102
RTVSPost2010PropOp38
 70
     1
102
RTVSPost2010Prop39
140
1.0
102
RTVSPost2010PropOp39
 70
     1
102
RTVSPost2010Prop40
 90
        0
102
RTVSPost2010PropOp40
 70
     1
102
RTVSPost2010Prop41ColorIndex
 90
       18
102
RTVSPost2010Prop41ColorRGB
 90
        0
102
RTVSPost2010PropOp41
 70
     1
102
RTVSPost2010Prop42
 90
       50
102
RTVSPost2010PropOp42
 70
     1
102
RTVSPost2010Prop43
 90
        3
102
RTVSPost2010PropOp43
 70
     1
102
RTVSPost2010Prop44ColorIndex
 90
        5
102
RTVSPost2010Prop44ColorRGB
 90
      255
102
RTVSPost2010PropOp44
 70
     1
102
RTVSPost2010Prop45
280
     0
102
RTVSPost2010PropOp45
 70
     1
102
RTVSPost2010Prop46
 90
       50
102
RTVSPost2010PropOp46
 70
     1
102
RTVSPost2010Prop47
 90
       50
102
RTVSPost2010PropOp47
 70
     1
102
RTVSPost2010Prop48
 90
       50
102
RTVSPost2010PropOp48
 70
     1
102
RTVSPost2010Prop49
280
     0
102
RTVSPost2010PropOp49
 70
     1
102
RTVSPost2010Prop50
 90
       50
102
RTVSPost2010PropOp50
 70
     1
102
RTVSPost2010Prop51ColorIndex
 90
      256
102
RTVSPost2010Prop51ColorRGB
 90
-16777216
102
RTVSPost2010PropOp51
 70
     0
102
RTVSPost2010Prop52
140
1.0
102
RTVSPost2010PropOp52
 70
     0
102
RTVSPost2010Prop53
 90
        2
102
RTVSPost2010PropOp53
 70
     1
102
RTVSPost2010Prop54
  1
strokes_ogs.tif
102
RTVSPost2010PropOp54
 70
     1
102
RTVSPost2010Prop55
280
     0
102
RTVSPost2010PropOp55
 70
     1
102
RTVSPost2010Prop56
140
1.0
102
RTVSPost2010PropOp56
 70
     1
102
RTVSPost2010Prop57
140
1.0
102
RTVSPost2010PropOp57
 70
     1
  0
XRECORD
  5
26B
102
{ACAD_REACTORS
330
26A
102
}
330
26A
100
AcDbXrecord
280
     1
102
RTVSPropertyOp0
 70
     1
102
RTVSPropertyOp1
 70
     1
102
RTVSPropertyOp2
 70
     1
102
RTVSPropertyOp3
 70
     1
102
RTVSPropertyOp4
 70
     1
102
RTVSPropertyOp5
 70
     1
102
RTVSPropertyOp6
 70
     1
102
RTVSPropertyOp7
 70
     1
102
RTVSPropertyOp8
 70
     1
102
RTVSPropertyOp9
 70
     1
102
RTVSPropertyOp10
 70
     1
102
RTVSPropertyOp11
 70
     1
102
RTVSPropertyOp12
 70
     1
102
RTVSPropertyOp13
 70
     1
102
RTVSPropertyOp14
 70
     1
102
RTVSPropertyOp15
 70
     1
102
RTVSPropertyOp16
 70
     1
102
RTVSPropertyOp17
 70
     1
102
RTVSPropertyOp18
 70
     1
102
RTVSPropertyOp19
 70
     1
102
RTVSPropertyOp20
 70
     1
102
RTVSPropertyOp21
 70
     1
102
RTVSPropertyOp22
 70
     1
102
RTVSPropertyOp23
 70
     1
102
RTVSPropertyOp24
 70
     1
102
RTVSPropertyOp25
 70
     1
102
RTVSPropertyOp26
 70
     1
102
RTVSPropertyOp27
 70
     1
102
RTVSPropertyOp28
 70
     1
102
RTVSPropertyOp29
 70
     1
102
RTVSPropertyOp30
 70
     1
102
RTVSPropertyOp31
 70
     1
102
RTVSPropertyOp32
 70
     1
102
RTVSPropertyOp33
 70
     1
102
RTVSPropertyOp34
 70
     1
102
RTVSPropertyOp35
 70
     1
102
RTVSPropertyOp36
 70
     1
102
RTVSPropertyOp37
 70
     1
102
RTVSPropertyOp38
 70
     1
102
RTVSPropertyOp39
 70
     1
102
RTVSPropertyOp40
 70
     1
102
RTVSPropertyOp41
 70
     1
102
RTVSPropertyOp42
 70
     1
102
RTVSPropertyOp43
 70
     1
102
RTVSPropertyOp44
 70
     1
102
RTVSPropertyOp45
 70
     1
102
RTVSPropertyOp46
 70
     1
102
RTVSPropertyOp47
 70
     1
102
RTVSPropertyOp48
 70
     1
102
RTVSPropertyOp49
 70
     1
102
RTVSPropertyOp50
 70
     1
102
RTVSPropertyOp51
 70
     0
102
RTVSPropertyOp52
 70
     0
102
RTVSPropertyOp53
 70
     1
102
RTVSPropertyOp54
 70
     1
102
RTVSPropertyOp55
 70
     1
102
RTVSPropertyOp56
 70
     1
102
RTVSPropertyOp57
 70
     1
102
RTVSPost2010Prop28
280
     0
102
RTVSPost2010PropOp28
 70
     1
102
RTVSPost2010Prop29
280
     1
102
RTVSPost2010PropOp29
 70
     1
102
RTVSPost2010Prop30
280
     1
102
RTVSPost2010PropOp30
 70
     1
102
RTVSPost2010Prop31
280
     0
102
RTVSPost2010PropOp31
 70
     1
102
RTVSPost2010Prop32
280
     0
102
RTVSPost2010PropOp32
 70
     1
102
RTVSPost2010Prop33
280
     0
102
RTVSPost2010PropOp33
 70
     1
102
RTVSPost2010Prop34
280
     0
102
RTVSPost2010PropOp34
 70
     1
102
RTVSPost2010Prop35
280
     0
102
RTVSPost2010PropOp35
 70
     1
102
RTVSPost2010Prop36
280
     0
102
RTVSPost2010PropOp36
 70
     1
102
RTVSPost2010Prop37
 90
       50
102
RTVSPost2010PropOp37
 70
     1
102
RTVSPost2010Prop38
140
0.0
102
RTVSPost2010PropOp38
 70
     1
102
RTVSPost2010Prop39
140
1.0
102
RTVSPost2010PropOp39
 70
     1
102
RTVSPost2010Prop40
 90
        0
102
RTVSPost2010PropOp40
 70
     1
102
RTVSPost2010Prop41ColorIndex
 90
       18
102
RTVSPost2010Prop41ColorRGB
 90
        0
102
RTVSPost2010PropOp41
 70
     1
102
RTVSPost2010Prop42
 90
       50
102
RTVSPost2010PropOp42
 70
     1
102
RTVSPost2010Prop43
 90
        3
102
RTVSPost2010PropOp43
 70
     1
102
RTVSPost2010Prop44ColorIndex
 90
        5
102
RTVSPost2010Prop44ColorRGB
 90
      255
102
RTVSPost2010PropOp44
 70
     1
102
RTVSPost2010Prop45
280
     0
102
RTVSPost2010PropOp45
 70
     1
102
RTVSPost2010Prop46
 90
       50
102
RTVSPost2010PropOp46
 70
     1
102
RTVSPost2010Prop47
 90
       50
102
RTVSPost2010PropOp47
 70
     1
102
RTVSPost2010Prop48
 90
       50
102
RTVSPost2010PropOp48
 70
     1
102
RTVSPost2010Prop49
280
     0
102
RTVSPost2010PropOp49
 70
     1
102
RTVSPost2010Prop50
 90
       50
102
RTVSPost2010PropOp50
 70
     1
102
RTVSPost2010Prop51ColorIndex
 90
      256
102
RTVSPost2010Prop51ColorRGB
 90
-16777216
102
RTVSPost2010PropOp51
 70
     0
102
RTVSPost2010Prop52
140
1.0
102
RTVSPost2010PropOp52
 70
     0
102
RTVSPost2010Prop53
 90
        2
102
RTVSPost2010PropOp53
 70
     1
102
RTVSPost2010Prop54
  1
strokes_ogs.tif
102
RTVSPost2010PropOp54
 70
     1
102
RTVSPost2010Prop55
280
     0
102
RTVSPost2010PropOp55
 70
     1
102
RTVSPost2010Prop56
140
1.0
102
RTVSPost2010PropOp56
 70
     1
102
RTVSPost2010Prop57
140
1.0
102
RTVSPost2010PropOp57
 70
     1
  0
XRECORD
  5
265
102
{ACAD_REACTORS
330
264
102
}
330
264
100
AcDbXrecord
280
     1
102
RTVSPropertyOp0
 70
     1
102
RTVSPropertyOp1
 70
     1
102
RTVSPropertyOp2
 70
     1
102
RTVSPropertyOp3
 70
     1
102
RTVSPropertyOp4
 70
     1
102
RTVSPropertyOp5
 70
     1
102
RTVSPropertyOp6
 70
     1
102
RTVSPropertyOp7
 70
     1
102
RTVSPropertyOp8
 70
     1
102
RTVSPropertyOp9
 70
     1
102
RTVSPropertyOp10
 70
     1
102
RTVSPropertyOp11
 70
     1
102
RTVSPropertyOp12
 70
     1
102
RTVSPropertyOp13
 70
     1
102
RTVSPropertyOp14
 70
     1
102
RTVSPropertyOp15
 70
     1
102
RTVSPropertyOp16
 70
     1
102
RTVSPropertyOp17
 70
     1
102
RTVSPropertyOp18
 70
     1
102
RTVSPropertyOp19
 70
     1
102
RTVSPropertyOp20
 70
     1
102
RTVSPropertyOp21
 70
     1
102
RTVSPropertyOp22
 70
     1
102
RTVSPropertyOp23
 70
     1
102
RTVSPropertyOp24
 70
     1
102
RTVSPropertyOp25
 70
     1
102
RTVSPropertyOp26
 70
     1
102
RTVSPropertyOp27
 70
     1
102
RTVSPropertyOp28
 70
     1
102
RTVSPropertyOp29
 70
     1
102
RTVSPropertyOp30
 70
     1
102
RTVSPropertyOp31
 70
     1
102
RTVSPropertyOp32
 70
     1
102
RTVSPropertyOp33
 70
     1
102
RTVSPropertyOp34
 70
     1
102
RTVSPropertyOp35
 70
     1
102
RTVSPropertyOp36
 70
     1
102
RTVSPropertyOp37
 70
     1
102
RTVSPropertyOp38
 70
     1
102
RTVSPropertyOp39
 70
     1
102
RTVSPropertyOp40
 70
     1
102
RTVSPropertyOp41
 70
     1
102
RTVSPropertyOp42
 70
     1
102
RTVSPropertyOp43
 70
     1
102
RTVSPropertyOp44
 70
     1
102
RTVSPropertyOp45
 70
     1
102
RTVSPropertyOp46
 70
     1
102
RTVSPropertyOp47
 70
     1
102
RTVSPropertyOp48
 70
     1
102
RTVSPropertyOp49
 70
     1
102
RTVSPropertyOp50
 70
     1
102
RTVSPropertyOp51
 70
     0
102
RTVSPropertyOp52
 70
     0
102
RTVSPropertyOp53
 70
     1
102
RTVSPropertyOp54
 70
     1
102
RTVSPropertyOp55
 70
     1
102
RTVSPropertyOp56
 70
     1
102
RTVSPropertyOp57
 70
     1
102
RTVSPost2010Prop28
280
     0
102
RTVSPost2010PropOp28
 70
     1
102
RTVSPost2010Prop29
280
     1
102
RTVSPost2010PropOp29
 70
     1
102
RTVSPost2010Prop30
280
     1
102
RTVSPost2010PropOp30
 70
     1
102
RTVSPost2010Prop31
280
     0
102
RTVSPost2010PropOp31
 70
     1
102
RTVSPost2010Prop32
280
     0
102
RTVSPost2010PropOp32
 70
     1
102
RTVSPost2010Prop33
280
     0
102
RTVSPost2010PropOp33
 70
     1
102
RTVSPost2010Prop34
280
     0
102
RTVSPost2010PropOp34
 70
     1
102
RTVSPost2010Prop35
280
     0
102
RTVSPost2010PropOp35
 70
     1
102
RTVSPost2010Prop36
280
     0
102
RTVSPost2010PropOp36
 70
     1
102
RTVSPost2010Prop37
 90
       50
102
RTVSPost2010PropOp37
 70
     1
102
RTVSPost2010Prop38
140
0.0
102
RTVSPost2010PropOp38
 70
     1
102
RTVSPost2010Prop39
140
1.0
102
RTVSPost2010PropOp39
 70
     1
102
RTVSPost2010Prop40
 90
        0
102
RTVSPost2010PropOp40
 70
     1
102
RTVSPost2010Prop41ColorIndex
 90
       18
102
RTVSPost2010Prop41ColorRGB
 90
        0
102
RTVSPost2010PropOp41
 70
     1
102
RTVSPost2010Prop42
 90
       50
102
RTVSPost2010PropOp42
 70
     1
102
RTVSPost2010Prop43
 90
        3
102
RTVSPost2010PropOp43
 70
     1
102
RTVSPost2010Prop44ColorIndex
 90
        5
102
RTVSPost2010Prop44ColorRGB
 90
      255
102
RTVSPost2010PropOp44
 70
     1
102
RTVSPost2010Prop45
280
     0
102
RTVSPost2010PropOp45
 70
     1
102
RTVSPost2010Prop46
 90
       50
102
RTVSPost2010PropOp46
 70
     1
102
RTVSPost2010Prop47
 90
       50
102
RTVSPost2010PropOp47
 70
     1
102
RTVSPost2010Prop48
 90
       50
102
RTVSPost2010PropOp48
 70
     1
102
RTVSPost2010Prop49
280
     0
102
RTVSPost2010PropOp49
 70
     1
102
RTVSPost2010Prop50
 90
       50
102
RTVSPost2010PropOp50
 70
     1
102
RTVSPost2010Prop51ColorIndex
 90
      256
102
RTVSPost2010Prop51ColorRGB
 90
-16777216
102
RTVSPost2010PropOp51
 70
     0
102
RTVSPost2010Prop52
140
1.0
102
RTVSPost2010PropOp52
 70
     0
102
RTVSPost2010Prop53
 90
        2
102
RTVSPost2010PropOp53
 70
     1
102
RTVSPost2010Prop54
  1
strokes_ogs.tif
102
RTVSPost2010PropOp54
 70
     1
102
RTVSPost2010Prop55
280
     0
102
RTVSPost2010PropOp55
 70
     1
102
RTVSPost2010Prop56
140
1.0
102
RTVSPost2010PropOp56
 70
     1
102
RTVSPost2010Prop57
140
1.0
102
RTVSPost2010PropOp57
 70
     1
  0
XRECORD
  5
267
102
{ACAD_REACTORS
330
266
102
}
330
266
100
AcDbXrecord
280
     1
102
RTVSPropertyOp0
 70
     1
102
RTVSPropertyOp1
 70
     1
102
RTVSPropertyOp2
 70
     1
102
RTVSPropertyOp3
 70
     1
102
RTVSPropertyOp4
 70
     1
102
RTVSPropertyOp5
 70
     1
102
RTVSPropertyOp6
 70
     1
102
RTVSPropertyOp7
 70
     1
102
RTVSPropertyOp8
 70
     1
102
RTVSPropertyOp9
 70
     1
102
RTVSPropertyOp10
 70
     1
102
RTVSPropertyOp11
 70
     1
102
RTVSPropertyOp12
 70
     1
102
RTVSPropertyOp13
 70
     1
102
RTVSPropertyOp14
 70
     1
102
RTVSPropertyOp15
 70
     1
102
RTVSPropertyOp16
 70
     1
102
RTVSPropertyOp17
 70
     1
102
RTVSPropertyOp18
 70
     1
102
RTVSPropertyOp19
 70
     1
102
RTVSPropertyOp20
 70
     1
102
RTVSPropertyOp21
 70
     1
102
RTVSPropertyOp22
 70
     1
102
RTVSPropertyOp23
 70
     1
102
RTVSPropertyOp24
 70
     1
102
RTVSPropertyOp25
 70
     1
102
RTVSPropertyOp26
 70
     1
102
RTVSPropertyOp27
 70
     1
102
RTVSPropertyOp28
 70
     1
102
RTVSPropertyOp29
 70
     1
102
RTVSPropertyOp30
 70
     1
102
RTVSPropertyOp31
 70
     1
102
RTVSPropertyOp32
 70
     1
102
RTVSPropertyOp33
 70
     1
102
RTVSPropertyOp34
 70
     1
102
RTVSPropertyOp35
 70
     1
102
RTVSPropertyOp36
 70
     1
102
RTVSPropertyOp37
 70
     1
102
RTVSPropertyOp38
 70
     1
102
RTVSPropertyOp39
 70
     1
102
RTVSPropertyOp40
 70
     1
102
RTVSPropertyOp41
 70
     1
102
RTVSPropertyOp42
 70
     1
102
RTVSPropertyOp43
 70
     1
102
RTVSPropertyOp44
 70
     1
102
RTVSPropertyOp45
 70
     1
102
RTVSPropertyOp46
 70
     1
102
RTVSPropertyOp47
 70
     1
102
RTVSPropertyOp48
 70
     1
102
RTVSPropertyOp49
 70
     1
102
RTVSPropertyOp50
 70
     1
102
RTVSPropertyOp51
 70
     0
102
RTVSPropertyOp52
 70
     0
102
RTVSPropertyOp53
 70
     1
102
RTVSPropertyOp54
 70
     1
102
RTVSPropertyOp55
 70
     1
102
RTVSPropertyOp56
 70
     1
102
RTVSPropertyOp57
 70
     1
102
RTVSPost2010Prop28
280
     0
102
RTVSPost2010PropOp28
 70
     1
102
RTVSPost2010Prop29
280
     1
102
RTVSPost2010PropOp29
 70
     1
102
RTVSPost2010Prop30
280
     1
102
RTVSPost2010PropOp30
 70
     1
102
RTVSPost2010Prop31
280
     0
102
RTVSPost2010PropOp31
 70
     1
102
RTVSPost2010Prop32
280
     0
102
RTVSPost2010PropOp32
 70
     1
102
RTVSPost2010Prop33
280
     0
102
RTVSPost2010PropOp33
 70
     1
102
RTVSPost2010Prop34
280
     0
102
RTVSPost2010PropOp34
 70
     1
102
RTVSPost2010Prop35
280
     0
102
RTVSPost2010PropOp35
 70
     1
102
RTVSPost2010Prop36
280
     0
102
RTVSPost2010PropOp36
 70
     1
102
RTVSPost2010Prop37
 90
       50
102
RTVSPost2010PropOp37
 70
     1
102
RTVSPost2010Prop38
140
0.0
102
RTVSPost2010PropOp38
 70
     1
102
RTVSPost2010Prop39
140
1.0
102
RTVSPost2010PropOp39
 70
     1
102
RTVSPost2010Prop40
 90
        0
102
RTVSPost2010PropOp40
 70
     1
102
RTVSPost2010Prop41ColorIndex
 90
       18
102
RTVSPost2010Prop41ColorRGB
 90
        0
102
RTVSPost2010PropOp41
 70
     1
102
RTVSPost2010Prop42
 90
       50
102
RTVSPost2010PropOp42
 70
     1
102
RTVSPost2010Prop43
 90
        3
102
RTVSPost2010PropOp43
 70
     1
102
RTVSPost2010Prop44ColorIndex
 90
        5
102
RTVSPost2010Prop44ColorRGB
 90
      255
102
RTVSPost2010PropOp44
 70
     1
102
RTVSPost2010Prop45
280
     0
102
RTVSPost2010PropOp45
 70
     1
102
RTVSPost2010Prop46
 90
       50
102
RTVSPost2010PropOp46
 70
     1
102
RTVSPost2010Prop47
 90
       50
102
RTVSPost2010PropOp47
 70
     1
102
RTVSPost2010Prop48
 90
       50
102
RTVSPost2010PropOp48
 70
     1
102
RTVSPost2010Prop49
280
     0
102
RTVSPost2010PropOp49
 70
     1
102
RTVSPost2010Prop50
 90
       50
102
RTVSPost2010PropOp50
 70
     1
102
RTVSPost2010Prop51ColorIndex
 90
      256
102
RTVSPost2010Prop51ColorRGB
 90
-16777216
102
RTVSPost2010PropOp51
 70
     0
102
RTVSPost2010Prop52
140
1.0
102
RTVSPost2010PropOp52
 70
     0
102
RTVSPost2010Prop53
 90
        2
102
RTVSPost2010PropOp53
 70
     1
102
RTVSPost2010Prop54
  1
strokes_ogs.tif
102
RTVSPost2010PropOp54
 70
     1
102
RTVSPost2010Prop55
280
     0
102
RTVSPost2010PropOp55
 70
     1
102
RTVSPost2010Prop56
140
1.0
102
RTVSPost2010PropOp56
 70
     1
102
RTVSPost2010Prop57
140
1.0
102
RTVSPost2010PropOp57
 70
     1
  0
XRECORD
  5
257
102
{ACAD_REACTORS
330
256
102
}
330
256
100
AcDbXrecord
280
     1
102
RTVSPropertyOp0
 70
     1
102
RTVSPropertyOp1
 70
     1
102
RTVSPropertyOp2
 70
     1
102
RTVSPropertyOp3
 70
     1
102
RTVSPropertyOp4
 70
     1
102
RTVSPropertyOp5
 70
     1
102
RTVSPropertyOp6
 70
     1
102
RTVSPropertyOp7
 70
     1
102
RTVSPropertyOp8
 70
     1
102
RTVSPropertyOp9
 70
     1
102
RTVSPropertyOp10
 70
     1
102
RTVSPropertyOp11
 70
     1
102
RTVSPropertyOp12
 70
     1
102
RTVSPropertyOp13
 70
     1
102
RTVSPropertyOp14
 70
     1
102
RTVSPropertyOp15
 70
     1
102
RTVSPropertyOp16
 70
     1
102
RTVSPropertyOp17
 70
     1
102
RTVSPropertyOp18
 70
     1
102
RTVSPropertyOp19
 70
     1
102
RTVSPropertyOp20
 70
     1
102
RTVSPropertyOp21
 70
     1
102
RTVSPropertyOp22
 70
     1
102
RTVSPropertyOp23
 70
     1
102
RTVSPropertyOp24
 70
     1
102
RTVSPropertyOp25
 70
     1
102
RTVSPropertyOp26
 70
     1
102
RTVSPropertyOp27
 70
     1
102
RTVSPropertyOp28
 70
     1
102
RTVSPropertyOp29
 70
     1
102
RTVSPropertyOp30
 70
     1
102
RTVSPropertyOp31
 70
     1
102
RTVSPropertyOp32
 70
     1
102
RTVSPropertyOp33
 70
     1
102
RTVSPropertyOp34
 70
     1
102
RTVSPropertyOp35
 70
     1
102
RTVSPropertyOp36
 70
     1
102
RTVSPropertyOp37
 70
     1
102
RTVSPropertyOp38
 70
     1
102
RTVSPropertyOp39
 70
     1
102
RTVSPropertyOp40
 70
     1
102
RTVSPropertyOp41
 70
     1
102
RTVSPropertyOp42
 70
     1
102
RTVSPropertyOp43
 70
     1
102
RTVSPropertyOp44
 70
     1
102
RTVSPropertyOp45
 70
     1
102
RTVSPropertyOp46
 70
     1
102
RTVSPropertyOp47
 70
     1
102
RTVSPropertyOp48
 70
     1
102
RTVSPropertyOp49
 70
     1
102
RTVSPropertyOp50
 70
     1
102
RTVSPropertyOp51
 70
     0
102
RTVSPropertyOp52
 70
     0
102
RTVSPropertyOp53
 70
     1
102
RTVSPropertyOp54
 70
     1
102
RTVSPropertyOp55
 70
     1
102
RTVSPropertyOp56
 70
     1
102
RTVSPropertyOp57
 70
     1
102
RTVSPost2010Prop28
280
     0
102
RTVSPost2010PropOp28
 70
     1
102
RTVSPost2010Prop29
280
     1
102
RTVSPost2010PropOp29
 70
     1
102
RTVSPost2010Prop30
280
     1
102
RTVSPost2010PropOp30
 70
     1
102
RTVSPost2010Prop31
280
     0
102
RTVSPost2010PropOp31
 70
     1
102
RTVSPost2010Prop32
280
     0
102
RTVSPost2010PropOp32
 70
     1
102
RTVSPost2010Prop33
280
     0
102
RTVSPost2010PropOp33
 70
     1
102
RTVSPost2010Prop34
280
     0
102
RTVSPost2010PropOp34
 70
     1
102
RTVSPost2010Prop35
280
     0
102
RTVSPost2010PropOp35
 70
     1
102
RTVSPost2010Prop36
280
     0
102
RTVSPost2010PropOp36
 70
     1
102
RTVSPost2010Prop37
 90
       50
102
RTVSPost2010PropOp37
 70
     1
102
RTVSPost2010Prop38
140
0.0
102
RTVSPost2010PropOp38
 70
     1
102
RTVSPost2010Prop39
140
1.0
102
RTVSPost2010PropOp39
 70
     1
102
RTVSPost2010Prop40
 90
        0
102
RTVSPost2010PropOp40
 70
     1
102
RTVSPost2010Prop41ColorIndex
 90
       18
102
RTVSPost2010Prop41ColorRGB
 90
        0
102
RTVSPost2010PropOp41
 70
     1
102
RTVSPost2010Prop42
 90
       50
102
RTVSPost2010PropOp42
 70
     1
102
RTVSPost2010Prop43
 90
        3
102
RTVSPost2010PropOp43
 70
     1
102
RTVSPost2010Prop44ColorIndex
 90
        5
102
RTVSPost2010Prop44ColorRGB
 90
      255
102
RTVSPost2010PropOp44
 70
     1
102
RTVSPost2010Prop45
280
     0
102
RTVSPost2010PropOp45
 70
     1
102
RTVSPost2010Prop46
 90
       50
102
RTVSPost2010PropOp46
 70
     1
102
RTVSPost2010Prop47
 90
       50
102
RTVSPost2010PropOp47
 70
     1
102
RTVSPost2010Prop48
 90
       50
102
RTVSPost2010PropOp48
 70
     1
102
RTVSPost2010Prop49
280
     0
102
RTVSPost2010PropOp49
 70
     1
102
RTVSPost2010Prop50
 90
       50
102
RTVSPost2010PropOp50
 70
     1
102
RTVSPost2010Prop51ColorIndex
 90
      256
102
RTVSPost2010Prop51ColorRGB
 90
-16777216
102
RTVSPost2010PropOp51
 70
     0
102
RTVSPost2010Prop52
140
1.0
102
RTVSPost2010PropOp52
 70
     0
102
RTVSPost2010Prop53
 90
        2
102
RTVSPost2010PropOp53
 70
     1
102
RTVSPost2010Prop54
  1
strokes_ogs.tif
102
RTVSPost2010PropOp54
 70
     1
102
RTVSPost2010Prop55
280
     0
102
RTVSPost2010PropOp55
 70
     1
102
RTVSPost2010Prop56
140
1.0
102
RTVSPost2010PropOp56
 70
     1
102
RTVSPost2010Prop57
140
1.0
102
RTVSPost2010PropOp57
 70
     1
  0
XRECORD
  5
249
102
{ACAD_REACTORS
330
248
102
}
330
248
100
AcDbXrecord
280
     1
102
RTVSPropertyOp0
 70
     1
102
RTVSPropertyOp1
 70
     1
102
RTVSPropertyOp2
 70
     1
102
RTVSPropertyOp3
 70
     1
102
RTVSPropertyOp4
 70
     1
102
RTVSPropertyOp5
 70
     1
102
RTVSPropertyOp6
 70
     1
102
RTVSPropertyOp7
 70
     1
102
RTVSPropertyOp8
 70
     1
102
RTVSPropertyOp9
 70
     1
102
RTVSPropertyOp10
 70
     1
102
RTVSPropertyOp11
 70
     1
102
RTVSPropertyOp12
 70
     1
102
RTVSPropertyOp13
 70
     1
102
RTVSPropertyOp14
 70
     1
102
RTVSPropertyOp15
 70
     1
102
RTVSPropertyOp16
 70
     1
102
RTVSPropertyOp17
 70
     1
102
RTVSPropertyOp18
 70
     1
102
RTVSPropertyOp19
 70
     1
102
RTVSPropertyOp20
 70
     1
102
RTVSPropertyOp21
 70
     1
102
RTVSPropertyOp22
 70
     1
102
RTVSPropertyOp23
 70
     1
102
RTVSPropertyOp24
 70
     1
102
RTVSPropertyOp25
 70
     1
102
RTVSPropertyOp26
 70
     1
102
RTVSPropertyOp27
 70
     1
102
RTVSPropertyOp28
 70
     1
102
RTVSPropertyOp29
 70
     1
102
RTVSPropertyOp30
 70
     1
102
RTVSPropertyOp31
 70
     1
102
RTVSPropertyOp32
 70
     1
102
RTVSPropertyOp33
 70
     1
102
RTVSPropertyOp34
 70
     1
102
RTVSPropertyOp35
 70
     1
102
RTVSPropertyOp36
 70
     1
102
RTVSPropertyOp37
 70
     1
102
RTVSPropertyOp38
 70
     1
102
RTVSPropertyOp39
 70
     1
102
RTVSPropertyOp40
 70
     1
102
RTVSPropertyOp41
 70
     1
102
RTVSPropertyOp42
 70
     1
102
RTVSPropertyOp43
 70
     1
102
RTVSPropertyOp44
 70
     1
102
RTVSPropertyOp45
 70
     1
102
RTVSPropertyOp46
 70
     1
102
RTVSPropertyOp47
 70
     1
102
RTVSPropertyOp48
 70
     1
102
RTVSPropertyOp49
 70
     1
102
RTVSPropertyOp50
 70
     1
102
RTVSPropertyOp51
 70
     0
102
RTVSPropertyOp52
 70
     0
102
RTVSPropertyOp53
 70
     1
102
RTVSPropertyOp54
 70
     1
102
RTVSPropertyOp55
 70
     1
102
RTVSPropertyOp56
 70
     1
102
RTVSPropertyOp57
 70
     1
102
RTVSPost2010Prop28
280
     0
102
RTVSPost2010PropOp28
 70
     1
102
RTVSPost2010Prop29
280
     1
102
RTVSPost2010PropOp29
 70
     1
102
RTVSPost2010Prop30
280
     1
102
RTVSPost2010PropOp30
 70
     1
102
RTVSPost2010Prop31
280
     0
102
RTVSPost2010PropOp31
 70
     1
102
RTVSPost2010Prop32
280
     0
102
RTVSPost2010PropOp32
 70
     1
102
RTVSPost2010Prop33
280
     0
102
RTVSPost2010PropOp33
 70
     1
102
RTVSPost2010Prop34
280
     0
102
RTVSPost2010PropOp34
 70
     1
102
RTVSPost2010Prop35
280
     0
102
RTVSPost2010PropOp35
 70
     1
102
RTVSPost2010Prop36
280
     0
102
RTVSPost2010PropOp36
 70
     1
102
RTVSPost2010Prop37
 90
       50
102
RTVSPost2010PropOp37
 70
     1
102
RTVSPost2010Prop38
140
0.0
102
RTVSPost2010PropOp38
 70
     1
102
RTVSPost2010Prop39
140
1.0
102
RTVSPost2010PropOp39
 70
     1
102
RTVSPost2010Prop40
 90
        0
102
RTVSPost2010PropOp40
 70
     1
102
RTVSPost2010Prop41ColorIndex
 90
       18
102
RTVSPost2010Prop41ColorRGB
 90
        0
102
RTVSPost2010PropOp41
 70
     1
102
RTVSPost2010Prop42
 90
       50
102
RTVSPost2010PropOp42
 70
     1
102
RTVSPost2010Prop43
 90
        3
102
RTVSPost2010PropOp43
 70
     1
102
RTVSPost2010Prop44ColorIndex
 90
        5
102
RTVSPost2010Prop44ColorRGB
 90
      255
102
RTVSPost2010PropOp44
 70
     1
102
RTVSPost2010Prop45
280
     0
102
RTVSPost2010PropOp45
 70
     1
102
RTVSPost2010Prop46
 90
       50
102
RTVSPost2010PropOp46
 70
     1
102
RTVSPost2010Prop47
 90
       50
102
RTVSPost2010PropOp47
 70
     1
102
RTVSPost2010Prop48
 90
       50
102
RTVSPost2010PropOp48
 70
     1
102
RTVSPost2010Prop49
280
     0
102
RTVSPost2010PropOp49
 70
     1
102
RTVSPost2010Prop50
 90
       50
102
RTVSPost2010PropOp50
 70
     1
102
RTVSPost2010Prop51ColorIndex
 90
      256
102
RTVSPost2010Prop51ColorRGB
 90
-16777216
102
RTVSPost2010PropOp51
 70
     0
102
RTVSPost2010Prop52
140
1.0
102
RTVSPost2010PropOp52
 70
     0
102
RTVSPost2010Prop53
 90
        2
102
RTVSPost2010PropOp53
 70
     1
102
RTVSPost2010Prop54
  1
strokes_ogs.tif
102
RTVSPost2010PropOp54
 70
     1
102
RTVSPost2010Prop55
280
     0
102
RTVSPost2010PropOp55
 70
     1
102
RTVSPost2010Prop56
140
1.0
102
RTVSPost2010PropOp56
 70
     1
102
RTVSPost2010Prop57
140
1.0
102
RTVSPost2010PropOp57
 70
     1
  0
XRECORD
  5
269
102
{ACAD_REACTORS
330
268
102
}
330
268
100
AcDbXrecord
280
     1
102
RTVSPropertyOp0
 70
     1
102
RTVSPropertyOp1
 70
     1
102
RTVSPropertyOp2
 70
     1
102
RTVSPropertyOp3
 70
     1
102
RTVSPropertyOp4
 70
     1
102
RTVSPropertyOp5
 70
     1
102
RTVSPropertyOp6
 70
     1
102
RTVSPropertyOp7
 70
     1
102
RTVSPropertyOp8
 70
     1
102
RTVSPropertyOp9
 70
     1
102
RTVSPropertyOp10
 70
     1
102
RTVSPropertyOp11
 70
     1
102
RTVSPropertyOp12
 70
     1
102
RTVSPropertyOp13
 70
     1
102
RTVSPropertyOp14
 70
     1
102
RTVSPropertyOp15
 70
     1
102
RTVSPropertyOp16
 70
     1
102
RTVSPropertyOp17
 70
     1
102
RTVSPropertyOp18
 70
     1
102
RTVSPropertyOp19
 70
     1
102
RTVSPropertyOp20
 70
     1
102
RTVSPropertyOp21
 70
     1
102
RTVSPropertyOp22
 70
     1
102
RTVSPropertyOp23
 70
     1
102
RTVSPropertyOp24
 70
     1
102
RTVSPropertyOp25
 70
     1
102
RTVSPropertyOp26
 70
     1
102
RTVSPropertyOp27
 70
     1
102
RTVSPropertyOp28
 70
     1
102
RTVSPropertyOp29
 70
     1
102
RTVSPropertyOp30
 70
     1
102
RTVSPropertyOp31
 70
     1
102
RTVSPropertyOp32
 70
     1
102
RTVSPropertyOp33
 70
     1
102
RTVSPropertyOp34
 70
     1
102
RTVSPropertyOp35
 70
     1
102
RTVSPropertyOp36
 70
     1
102
RTVSPropertyOp37
 70
     1
102
RTVSPropertyOp38
 70
     1
102
RTVSPropertyOp39
 70
     1
102
RTVSPropertyOp40
 70
     1
102
RTVSPropertyOp41
 70
     1
102
RTVSPropertyOp42
 70
     1
102
RTVSPropertyOp43
 70
     1
102
RTVSPropertyOp44
 70
     1
102
RTVSPropertyOp45
 70
     1
102
RTVSPropertyOp46
 70
     1
102
RTVSPropertyOp47
 70
     1
102
RTVSPropertyOp48
 70
     1
102
RTVSPropertyOp49
 70
     1
102
RTVSPropertyOp50
 70
     1
102
RTVSPropertyOp51
 70
     0
102
RTVSPropertyOp52
 70
     0
102
RTVSPropertyOp53
 70
     1
102
RTVSPropertyOp54
 70
     1
102
RTVSPropertyOp55
 70
     1
102
RTVSPropertyOp56
 70
     1
102
RTVSPropertyOp57
 70
     1
102
RTVSPost2010Prop28
280
     0
102
RTVSPost2010PropOp28
 70
     1
102
RTVSPost2010Prop29
280
     1
102
RTVSPost2010PropOp29
 70
     1
102
RTVSPost2010Prop30
280
     1
102
RTVSPost2010PropOp30
 70
     1
102
RTVSPost2010Prop31
280
     0
102
RTVSPost2010PropOp31
 70
     1
102
RTVSPost2010Prop32
280
     0
102
RTVSPost2010PropOp32
 70
     1
102
RTVSPost2010Prop33
280
     0
102
RTVSPost2010PropOp33
 70
     1
102
RTVSPost2010Prop34
280
     0
102
RTVSPost2010PropOp34
 70
     1
102
RTVSPost2010Prop35
280
     0
102
RTVSPost2010PropOp35
 70
     1
102
RTVSPost2010Prop36
280
     0
102
RTVSPost2010PropOp36
 70
     1
102
RTVSPost2010Prop37
 90
       50
102
RTVSPost2010PropOp37
 70
     1
102
RTVSPost2010Prop38
140
0.0
102
RTVSPost2010PropOp38
 70
     1
102
RTVSPost2010Prop39
140
1.0
102
RTVSPost2010PropOp39
 70
     1
102
RTVSPost2010Prop40
 90
        0
102
RTVSPost2010PropOp40
 70
     1
102
RTVSPost2010Prop41ColorIndex
 90
       18
102
RTVSPost2010Prop41ColorRGB
 90
        0
102
RTVSPost2010PropOp41
 70
     1
102
RTVSPost2010Prop42
 90
       50
102
RTVSPost2010PropOp42
 70
     1
102
RTVSPost2010Prop43
 90
        3
102
RTVSPost2010PropOp43
 70
     1
102
RTVSPost2010Prop44ColorIndex
 90
        5
102
RTVSPost2010Prop44ColorRGB
 90
      255
102
RTVSPost2010PropOp44
 70
     1
102
RTVSPost2010Prop45
280
     0
102
RTVSPost2010PropOp45
 70
     1
102
RTVSPost2010Prop46
 90
       50
102
RTVSPost2010PropOp46
 70
     1
102
RTVSPost2010Prop47
 90
       50
102
RTVSPost2010PropOp47
 70
     1
102
RTVSPost2010Prop48
 90
       50
102
RTVSPost2010PropOp48
 70
     1
102
RTVSPost2010Prop49
280
     0
102
RTVSPost2010PropOp49
 70
     1
102
RTVSPost2010Prop50
 90
       50
102
RTVSPost2010PropOp50
 70
     1
102
RTVSPost2010Prop51ColorIndex
 90
      256
102
RTVSPost2010Prop51ColorRGB
 90
-16777216
102
RTVSPost2010PropOp51
 70
     0
102
RTVSPost2010Prop52
140
1.0
102
RTVSPost2010PropOp52
 70
     0
102
RTVSPost2010Prop53
 90
        2
102
RTVSPost2010PropOp53
 70
     1
102
RTVSPost2010Prop54
  1
strokes_ogs.tif
102
RTVSPost2010PropOp54
 70
     1
102
RTVSPost2010Prop55
280
     0
102
RTVSPost2010PropOp55
 70
     1
102
RTVSPost2010Prop56
140
1.0
102
RTVSPost2010PropOp56
 70
     1
102
RTVSPost2010Prop57
140
1.0
102
RTVSPost2010PropOp57
 70
     1
  0
ENDSEC
  0
EOF
