  0
SECTION
  2
HEADER
  9
$ACADVER
  1
AC1018
  9
$ACADMAINTVER
 70
     2
  9
$DWGCODEPAGE
  3
ANSI_1252
  9
$CUSTOMPROPERTYTAG
  1
AmdtFileType
  9
$CUSTOMPROPERTY
  1
84
  9
$INSBASE
 10
0.0
 20
0.0
 30
0.0
  9
$EXTMIN
 10
-389.7616469336203
 20
-150.0041498644325
 30
-0.0015258207003583
  9
$EXTMAX
 10
14.20917034004606
 20
150.0141606824637
 30
0.0000000349246037
  9
$LIMMIN
 10
0.0
 20
0.0
  9
$LIMMAX
 10
0.0
 20
0.0
  9
$ORTHOMODE
 70
     1
  9
$REGENMODE
 70
     1
  9
$FILLMODE
 70
     1
  9
$QTEXTMODE
 70
     0
  9
$MIRRTEXT
 70
     1
  9
$LTSCALE
 40
5.08
  9
$ATTMODE
 70
     1
  9
$TEXTSIZE
 40
0.0
  9
$TRACEWID
 40
1.0
  9
$TEXTSTYLE
  7
Standard
  9
$CLAYER
  8
0
  9
$CELTYPE
  6
Continuous
  9
$CECOLOR
 62
   256
  9
$CELTSCALE
 40
1.0
  9
$DISPSILH
 70
     0
  9
$DIMSCALE
 40
1.0
  9
$DIMASZ
 40
0.18
  9
$DIMEXO
 40
0.0625
  9
$DIMDLI
 40
0.38
  9
$DIMRND
 40
0.0
  9
$DIMDLE
 40
0.0
  9
$DIMEXE
 40
0.18
  9
$DIMTP
 40
0.0
  9
$DIMTM
 40
0.0
  9
$DIMTXT
 40
0.18
  9
$DIMCEN
 40
0.09
  9
$DIMTSZ
 40
0.0
  9
$DIMTOL
 70
     0
  9
$DIMLIM
 70
     0
  9
$DIMTIH
 70
     1
  9
$DIMTOH
 70
     1
  9
$DIMSE1
 70
     0
  9
$DIMSE2
 70
     0
  9
$DIMTAD
 70
     0
  9
$DIMZIN
 70
     0
  9
$DIMBLK
  1

  9
$DIMASO
 70
     1
  9
$DIMSHO
 70
     1
  9
$DIMPOST
  1

  9
$DIMAPOST
  1

  9
$DIMALT
 70
     0
  9
$DIMALTD
 70
     2
  9
$DIMALTF
 40
25.4
  9
$DIMLFAC
 40
1.0
  9
$DIMTOFL
 70
     0
  9
$DIMTVP
 40
0.0
  9
$DIMTIX
 70
     0
  9
$DIMSOXD
 70
     0
  9
$DIMSAH
 70
     0
  9
$DIMBLK1
  1

  9
$DIMBLK2
  1

  9
$DIMSTYLE
  2
Standard
  9
$DIMCLRD
 70
     0
  9
$DIMCLRE
 70
     0
  9
$DIMCLRT
 70
     0
  9
$DIMTFAC
 40
1.0
  9
$DIMGAP
 40
0.09
  9
$DIMJUST
 70
     0
  9
$DIMSD1
 70
     0
  9
$DIMSD2
 70
     0
  9
$DIMTOLJ
 70
     1
  9
$DIMTZIN
 70
     0
  9
$DIMALTZ
 70
     0
  9
$DIMALTTZ
 70
     0
  9
$DIMUPT
 70
     0
  9
$DIMDEC
 70
     4
  9
$DIMTDEC
 70
     4
  9
$DIMALTU
 70
     2
  9
$DIMALTTD
 70
     2
  9
$DIMTXSTY
  7
Standard
  9
$DIMAUNIT
 70
     0
  9
$DIMADEC
 70
     0
  9
$DIMALTRND
 40
0.0
  9
$DIMAZIN
 70
     0
  9
$DIMDSEP
 70
     0
  9
$DIMATFIT
 70
     3
  9
$DIMFRAC
 70
     0
  9
$DIMLDRBLK
  1

  9
$DIMLUNIT
 70
     2
  9
$DIMLWD
 70
     0
  9
$DIMLWE
 70
     0
  9
$DIMTMOVE
 70
     0
  9
$LUNITS
 70
     2
  9
$LUPREC
 70
     4
  9
$SKETCHINC
 40
0.1
  9
$FILLETRAD
 40
0.0
  9
$AUNITS
 70
     0
  9
$AUPREC
 70
     0
  9
$MENU
  1
acad
  9
$ELEVATION
 40
0.0
  9
$PELEVATION
 40
0.0
  9
$THICKNESS
 40
0.0
  9
$LIMCHECK
 70
     0
  9
$CHAMFERA
 40
0.0
  9
$CHAMFERB
 40
0.0
  9
$CHAMFERC
 40
0.0
  9
$CHAMFERD
 40
0.0
  9
$SKPOLY
 70
     0
  9
$TDCREATE
 40
2454483.852928241
  9
$TDUCREATE
 40
2454483.811261574
  9
$TDUPDATE
 40
2454485.269070637
  9
$TDUUPDATE
 40
2454485.227403970
  9
$TDINDWG
 40
0.0010022338
  9
$TDUSRTIMER
 40
0.0010022338
  9
$USRTIMER
 70
     1
  9
$ANGBASE
 50
0.0
  9
$ANGDIR
 70
     0
  9
$PDMODE
 70
     1
  9
$PDSIZE
 40
-2.0
  9
$PLINEWID
 40
0.0
  9
$SPLFRAME
 70
     0
  9
$SPLINETYPE
 70
     6
  9
$SPLINESEGS
 70
     8
  9
$HANDSEED
  5
1F3
  9
$SURFTAB1
 70
     6
  9
$SURFTAB2
 70
     6
  9
$SURFTYPE
 70
     6
  9
$SURFU
 70
     6
  9
$SURFV
 70
     6
  9
$UCSBASE
  2

  9
$UCSNAME
  2

  9
$UCSORG
 10
0.0
 20
0.0
 30
0.0
  9
$UCSXDIR
 10
1.0
 20
0.0
 30
0.0
  9
$UCSYDIR
 10
0.0
 20
1.0
 30
0.0
  9
$UCSORTHOREF
  2

  9
$UCSORTHOVIEW
 70
     0
  9
$UCSORGTOP
 10
0.0
 20
0.0
 30
0.0
  9
$UCSORGBOTTOM
 10
0.0
 20
0.0
 30
0.0
  9
$UCSORGLEFT
 10
0.0
 20
0.0
 30
0.0
  9
$UCSORGRIGHT
 10
0.0
 20
0.0
 30
0.0
  9
$UCSORGFRONT
 10
0.0
 20
0.0
 30
0.0
  9
$UCSORGBACK
 10
0.0
 20
0.0
 30
0.0
  9
$PUCSBASE
  2

  9
$PUCSNAME
  2

  9
$PUCSORG
 10
0.0
 20
0.0
 30
0.0
  9
$PUCSXDIR
 10
1.0
 20
0.0
 30
0.0
  9
$PUCSYDIR
 10
0.0
 20
1.0
 30
0.0
  9
$PUCSORTHOREF
  2

  9
$PUCSORTHOVIEW
 70
     0
  9
$PUCSORGTOP
 10
0.0
 20
0.0
 30
0.0
  9
$PUCSORGBOTTOM
 10
0.0
 20
0.0
 30
0.0
  9
$PUCSORGLEFT
 10
0.0
 20
0.0
 30
0.0
  9
$PUCSORGRIGHT
 10
0.0
 20
0.0
 30
0.0
  9
$PUCSORGFRONT
 10
0.0
 20
0.0
 30
0.0
  9
$PUCSORGBACK
 10
0.0
 20
0.0
 30
0.0
  9
$USERI1
 70
     0
  9
$USERI2
 70
     0
  9
$USERI3
 70
     0
  9
$USERI4
 70
     0
  9
$USERI5
 70
     0
  9
$USERR1
 40
0.0
  9
$USERR2
 40
0.0
  9
$USERR3
 40
0.0
  9
$USERR4
 40
0.0
  9
$USERR5
 40
0.0
  9
$WORLDVIEW
 70
     1
  9
$SHADEDGE
 70
     3
  9
$SHADEDIF
 70
    70
  9
$TILEMODE
 70
     1
  9
$MAXACTVP
 70
    64
  9
$PINSBASE
 10
0.0
 20
0.0
 30
0.0
  9
$PLIMCHECK
 70
     0
  9
$PEXTMIN
 10
1.000000000000000E+20
 20
1.000000000000000E+20
 30
1.000000000000000E+20
  9
$PEXTMAX
 10
-1.000000000000000E+20
 20
-1.000000000000000E+20
 30
-1.000000000000000E+20
  9
$PLIMMIN
 10
0.0
 20
0.0
  9
$PLIMMAX
 10
12.0
 20
9.0
  9
$UNITMODE
 70
     0
  9
$VISRETAIN
 70
     0
  9
$PLINEGEN
 70
     1
  9
$PSLTSCALE
 70
     0
  9
$TREEDEPTH
 70
  3020
  9
$CMLSTYLE
  2
Standard
  9
$CMLJUST
 70
     0
  9
$CMLSCALE
 40
1.0
  9
$PROXYGRAPHICS
 70
     0
  9
$MEASUREMENT
 70
     1
  9
$CELWEIGHT
370
     0
  9
$ENDCAPS
280
     0
  9
$JOINSTYLE
280
     0
  9
$LWDISPLAY
290
     0
  9
$INSUNITS
 70
     4
  9
$HYPERLINKBASE
  1

  9
$STYLESHEET
  1

  9
$XEDIT
290
     1
  9
$CEPSNTYPE
380
     0
  9
$PSTYLEMODE
290
     1
  9
$FINGERPRINTGUID
  2

  9
$VERSIONGUID
  2
{E08410F8-1FFF-459F-BC98-904E1CDB9905}
  9
$EXTNAMES
290
     1
  9
$PSVPSCALE
 40
0.0
  9
$OLESTARTUP
290
     0
  9
$SORTENTS
280
   127
  9
$INDEXCTL
280
     1
  9
$HIDETEXT
280
     0
  9
$XCLIPFRAME
290
     0
  9
$HALOGAP
280
     0
  9
$OBSCOLOR
 70
   257
  9
$OBSLTYPE
280
     0
  9
$INTERSECTIONDISPLAY
280
     0
  9
$INTERSECTIONCOLOR
 70
   257
  9
$DIMASSOC
280
     1
  9
$PROJECTNAME
  1

  0
ENDSEC
  0
SECTION
  2
CLASSES
  0
CLASS
  1
IMAGE
  2
AcDbRasterImage
  3
ISM
 90
      127
 91
        0
280
     0
281
     1
  0
CLASS
  1
DICTIONARYVAR
  2
AcDbDictionaryVar
  3
ObjectDBX Classes
 90
        0
 91
        0
280
     0
281
     0
  0
CLASS
  1
RASTERVARIABLES
  2
AcDbRasterVariables
  3
ISM
 90
        0
 91
        0
280
     0
281
     0
  0
CLASS
  1
IMAGEDEF
  2
AcDbRasterImageDef
  3
ISM
 90
        0
 91
        0
280
     0
281
     0
  0
CLASS
  1
IMAGEDEF_REACTOR
  2
AcDbRasterImageDefReactor
  3
ISM
 90
        1
 91
        0
280
     0
281
     0
  0
CLASS
  1
IDBUFFER
  2
AcDbIdBuffer
  3
ObjectDBX Classes
 90
        0
 91
        1
280
     0
281
     0
  0
CLASS
  1
SPATIAL_FILTER
  2
AcDbSpatialFilter
  3
ObjectDBX Classes
 90
        0
 91
        0
280
     0
281
     0
  0
CLASS
  1
SORTENTSTABLE
  2
AcDbSortentsTable
  3
ObjectDBX Classes
 90
        0
 91
        0
280
     0
281
     0
  0
CLASS
  1
LAYER_INDEX
  2
AcDbLayerIndex
  3
ObjectDBX Classes
 90
        0
 91
        1
280
     0
281
     0
  0
CLASS
  1
SPATIAL_INDEX
  2
AcDbSpatialIndex
  3
ObjectDBX Classes
 90
        0
 91
        0
280
     0
281
     0
  0
CLASS
  1
OBJECT_PTR
  2
CAseDLPNTableRecord
  3
ASE-LPNTableRecord
 90
        1
 91
        0
280
     0
281
     0
  0
CLASS
  1
PLOTSETTINGS
  2
AcDbPlotSettings
  3
ObjectDBX Classes
 90
        0
 91
        0
280
     0
281
     0
  0
CLASS
  1
ACDBDICTIONARYWDFLT
  2
AcDbDictionaryWithDefault
  3
ObjectDBX Classes
 90
        0
 91
        1
280
     0
281
     0
  0
CLASS
  1
WIPEOUT
  2
AcDbWipeout
  3
"WipeOut|Product Desc: Object Enabler for WipeOut entity^I^I^I^I^I^I|Company: Autodesk, Inc.^I^I^I^I^I^I|WEB Address: www.autodesk.com"
 90
      127
 91
        0
280
     0
281
     1
  0
CLASS
  1
WIPEOUTVARIABLES
  2
AcDbWipeoutVariables
  3
"WipeOut|Product Desc:     WipeOut Dbx Application|Company:          Autodesk, Inc.|WEB Address:      www.autodesk.com"
 90
        0
 91
        1
280
     0
281
     0
  0
CLASS
  1
RTEXT
  2
RText
  3
RText|AutoCAD Express Tool|expresstools@autodesk.com
 90
        0
 91
        0
280
     0
281
     1
  0
CLASS
  1
ARCALIGNEDTEXT
  2
AcDbArcAlignedText
  3
ATEXT|AutoCAD Express Tool|expresstools@autodesk.com
 90
        0
 91
        0
280
     0
281
     1
  0
CLASS
  1
ACME_DOCUMENT
  2
AcMeDbDoc
  3
AcMeServices
 90
        0
 91
        2
280
     0
281
     0
  0
CLASS
  1
AMGSETTINGSOBJ
  2
AmgSettingsObj
  3
"AcadM|Product Description: AutoCAD Mechanical 2000|Company: Autodesk"
 90
        0
 91
        2
280
     0
281
     0
  0
CLASS
  1
ACMESCOPE
  2
AcMeScope
  3
AcMeServices
 90
        0
 91
        1
280
     0
281
     0
  0
CLASS
  1
ACMECOMMANDHISTORY
  2
AcMeCommandHistory
  3
AcMeServices
 90
        0
 91
        1
280
     0
281
     0
  0
CLASS
  1
ACIMSYSVARMAN
  2
AcImSysVarManager
  3
AcMeServices
 90
        0
 91
        6
280
     0
281
     0
  0
CLASS
  1
ACIMREALSYSVAR
  2
AcImRealSysVar
  3
AcMeServices
 90
        0
 91
       16
280
     0
281
     0
  0
CLASS
  1
ACIMINTSYSVAR
  2
AcImIntSysVar
  3
AcMeServices
 90
        0
 91
       45
280
     0
281
     0
  0
CLASS
  1
ACMEDRAWINGMAN
  2
AcMeDrawingMan
  3
AcMeServices
 90
        0
 91
        1
280
     0
281
     0
  0
CLASS
  1
ACMEVIEW
  2
AcMeView
  3
AcMeServices
 90
        0
 91
        1
280
     0
281
     0
  0
CLASS
  1
ACDBENTITYCACHE
  2
AcMeEntityCache
  3
AcMeServices
 90
        0
 91
        1
280
     0
281
     0
  0
CLASS
  1
GSMANAGER
  2
AcMeGSManager
  3
AcMeServices
 90
        0
 91
        1
280
     0
281
     0
  0
CLASS
  1
AMDTINTERNALREACTOR
  2
AmdtInternalReactor
  3
AcMeServices
 90
        0
 91
        2
280
     0
281
     0
  0
CLASS
  1
ACMESTATEMGR
  2
AcMeStateMgr
  3
AcMeServices
 90
        0
 91
        1
280
     0
281
     0
  0
CLASS
  1
ACGREFMASTER
  2
AcGrefMaster
  3
AcAttribServices
 90
        0
 91
        1
280
     0
281
     0
  0
CLASS
  1
AM_DRAWING_MGR
  2
AcDmDwgMgr
  3
AcMechDwgViewMgmt
 90
        0
 91
        1
280
     0
281
     0
  0
CLASS
  1
AM_DWG_DOCUMENT
  2
AcDmDwgDocument
  3
AcMechDwgViewMgmt
 90
        0
 91
        1
280
     0
281
     0
  0
CLASS
  1
AM_DWG_SHEET
  2
AcDmSheet
  3
AcMechDwgViewMgmt
 90
        0
 91
        1
280
     0
281
     0
  0
CLASS
  1
AM_VIEWDIMPARMAP
  2
AcDmViewDimParMap
  3
AcMechDwgViewMgmt
 90
        0
 91
        1
280
     0
281
     0
  0
CLASS
  1
AM_DWGMGR_NAME
  2
AcDmDwgMgrName
  3
AcMechDwgViewMgmt
 90
        0
 91
        1
280
     0
281
     0
  0
CLASS
  1
ACME_DATABASE
  2
AcMeDbDatabase
  3
AcMeServices
 90
        0
 91
        1
280
     0
281
     0
  0
CLASS
  1
ACRFINSADJUSTERMGR
  2
AcRfInsAdjusterMgr
  3
AcMeServices
 90
        0
 91
        1
280
     0
281
     0
  0
CLASS
  1
ACGREFACADMASTER
  2
AcGrefacadMaster
  3
AcGrefServices
 90
        0
 91
        1
280
     0
281
     0
  0
CLASS
  1
AMDTMENUSTATEMGR
  2
AmdtMenuStateMgr
  3
McadcomServices
 90
        0
 91
        1
280
     0
281
     0
  0
CLASS
  1
AMDTMCOMMENUSTATE
  2
AmdtMcomMenuState
  3
McadcomServices
 90
        0
 91
        1
280
     0
281
     0
  0
CLASS
  1
AMIMASTER
  2
AmiMaster
  3
AmiServices
 90
        0
 91
        1
280
     0
281
     0
  0
CLASS
  1
ASAPP
  2
AcAsAppObject
  3
AutoSurfServices
 90
        0
 91
        1
280
     0
281
     0
  0
CLASS
  1
IM_STATIC_MAN
  2
AcImStaticVarManager
  3
AcMeServices
 90
        0
 91
        1
280
     0
281
     0
  0
CLASS
  1
ACIMSTRSYSVAR
  2
AcImStrSysVar
  3
AcMeServices
 90
        0
 91
       11
280
     0
281
     0
  0
CLASS
  1
ACIMDBLSTATICVAR
  2
AcImDblStaticVar
  3
AcMeServices
 90
        0
 91
       20
280
     0
281
     0
  0
CLASS
  1
ACIMSTRSTATICVAR
  2
AcImStrStaticVar
  3
AcMeServices
 90
        0
 91
       12
280
     0
281
     0
  0
CLASS
  1
ACIMINTSTATICVAR
  2
AcImIntStaticVar
  3
AcMeServices
 90
        0
 91
       17
280
     0
281
     0
  0
CLASS
  1
ACASGREFMASTER
  2
AcAsGrefMaster
  3
AutoSurfResolverServices
 90
        0
 91
        1
280
     0
281
     0
  0
CLASS
  1
ACADGREFMODULE
  2
AcAdGrefModule
  3
AdGrefServices
 90
        0
 91
        1
280
     0
281
     0
  0
CLASS
  1
AMDTMAPISURFMOUDULE
  2
AmdtMApiSurfModule
  3
MApiSurfServices
 90
        0
 91
        1
280
     0
281
     0
  0
CLASS
  1
MAPIAMMOUDLE
  2
MApiAmModule
  3
MApiAmServices
 90
        0
 91
        1
280
     0
281
     0
  0
CLASS
  1
AMDTADMENUSTATE
  2
AmdtAdMenuState
  3
DesignerServices
 90
        0
 91
        1
280
     0
281
     0
  0
CLASS
  1
ADAPPL
  2
AcAdAppl
  3
DesignerServices
 90
        0
 91
        1
280
     0
281
     0
  0
CLASS
  1
DEPMGR
  2
AcAdDepMgr
  3
DesignerServices
 90
        0
 91
        1
280
     0
281
     0
  0
CLASS
  1
PARAMMGR
  2
AcAdParamMgr
  3
DesignerServices
 90
        0
 91
        1
280
     0
281
     0
  0
CLASS
  1
PARAMSCOPE
  2
AcAdParamScope
  3
DesignerServices
 90
        0
 91
        1
280
     0
281
     0
  0
CLASS
  1
NAMEDAPPL
  2
AcAdNamedAppl
  3
DesignerServices
 90
        0
 91
        1
280
     0
281
     0
  0
CLASS
  1
AMDTDMMENUSTATE
  2
AmdtDmMenuState
  3
AcMechDwgViewMgmt
 90
        0
 91
        1
280
     0
281
     0
  0
CLASS
  1
MAPIADMODULE
  2
MApiAdModule
  3
MApiAdServices
 90
        0
 91
        1
280
     0
281
     0
  0
CLASS
  1
AMDTAMMENUSTATE
  2
AmdtAmMenuState
  3
DesignerAssemblies
 90
        0
 91
        1
280
     0
281
     0
  0
CLASS
  1
ACAMPROJECT
  2
AcAmProject
  3
DesignerAssemblies
 90
        0
 91
        1
280
     0
281
     0
  0
CLASS
  1
ACAMGRCOMPDEF
  2
AcAmGrCompDef
  3
DesignerAssemblies
 90
        0
 91
        1
280
     0
281
     0
  0
CLASS
  1
ACCMCONTEXT
  2
AcCmContext
  3
DesignerAssemblies
 90
        0
 91
        1
280
     0
281
     0
  0
CLASS
  1
ACAMCOMPDEF
  2
AcAmCompDef
  3
DesignerAssemblies
 90
        0
 91
        1
280
     0
281
     0
  0
CLASS
  1
ACAMCOMPDEFMGR
  2
AcAmCompDefMgr
  3
DesignerAssemblies
 90
        0
 91
        1
280
     0
281
     0
  0
CLASS
  1
AMCONTEXTMGR
  2
AcAmContextMgr
  3
DesignerAssemblies
 90
        0
 91
        1
280
     0
281
     0
  0
CLASS
  1
ACAMCONTEXTMODELER
  2
AcAmContextModeler
  3
DesignerAssemblies
 90
        0
 91
        1
280
     0
281
     0
  0
CLASS
  1
ACMDATADICTIONARY
  2
AcmDataDictionary
  3
"AcmSymBB|Product Description: AutoCAD Mechanical 2004 DX|Company: Autodesk"
 90
        0
 91
        1
280
     0
281
     0
  0
CLASS
  1
CATALOGSTATE
  2
AcAmCatalogState
  3
DesignerAssemblies
 90
        0
 91
        1
280
     0
281
     0
  0
CLASS
  1
ACAMGRCOMPDEFSET
  2
AcAmGrCompDefSet
  3
DesignerAssemblies
 90
        0
 91
        1
280
     0
281
     0
  0
CLASS
  1
AMDTBROWSERDBTAB
  2
AmdtBrowserDbTab
  3
McadcomServices
 90
        0
 91
        1
280
     0
281
     0
  0
CLASS
  1
CBROWSERAPPOBJECT
  2
CBrowserAppObject
  3
McadcomServices
 90
        0
 91
        3
280
     0
281
     0
  0
CLASS
  1
DM_PLACEHOLDER
  2
AcDmSelsetPlaceholder
  3
AcMechDwgViewMgmt
 90
        0
 91
        1
280
     0
281
     0
  0
CLASS
  1
ACMSTANDARDDIN
  2
AcmStandardDIN
  3
"Amdt_StdImp|Product Description: AutoCAD Mechanical 2004 DX|Company: Autodesk"
 90
        0
 91
        1
280
     0
281
     0
  0
CLASS
  1
AMGOBJPROPCFG
  2
AmgObjPropCfg
  3
"AmgLay|Product Description: AutoCAD Mechanical 2000|Company: Autodesk"
 90
        1
 91
        1
280
     0
281
     0
  0
CLASS
  1
AMDTEDGESTANDARDDIN
  2
AmdtEdgeStdDIN
  3
"Amdt_StdImp|Product Description: AutoCAD Mechanical 2004 DX|Company: Autodesk"
 90
        0
 91
        1
280
     0
281
     0
  0
CLASS
  1
ACMSURFSTANDARDDIN
  2
AcmSurfTextStdDIN
  3
"Amdt_StdImp|Product Description: AutoCAD Mechanical 2004 DX|Company: Autodesk"
 90
        0
 91
        1
280
     0
281
     0
  0
CLASS
  1
ACMFCFSTANDARDDIN
  2
AcmFCFStdDIN
  3
"Amdt_StdImp|Product Description: AutoCAD Mechanical 2004 DX|Company: Autodesk"
 90
        0
 91
        1
280
     0
281
     0
  0
CLASS
  1
ACMWELDSTANDARDDIN
  2
AcmWeldingStdDIN
  3
"Amdt_StdImp|Product Description: AutoCAD Mechanical 2004 DX|Company: Autodesk"
 90
        0
 91
        1
280
     0
281
     0
  0
CLASS
  1
ACMIDSTANDARDDIN
  2
AcmIdStdDIN
  3
"Amdt_StdImp|Product Description: AutoCAD Mechanical 2004 DX|Company: Autodesk"
 90
        0
 91
        1
280
     0
281
     0
  0
CLASS
  1
ACMDATUMSTANDARDDIN
  2
AcmDatumStdDIN
  3
"Amdt_StdImp|Product Description: AutoCAD Mechanical 2004 DX|Company: Autodesk"
 90
        0
 91
        1
280
     0
281
     0
  0
CLASS
  1
ACMBOMSTANDARDDIN
  2
AcmBOMStdDIN
  3
"Amdt_StdImp|Product Description: AutoCAD Mechanical 2004 DX|Company: Autodesk"
 90
        0
 91
        1
280
     0
281
     0
  0
CLASS
  1
ACMDETAILSTANDARDDIN
  2
AmdtDetailSymStdDIN
  3
"Amdt_StdImp|Product Description: AutoCAD Mechanical 2004 DX|Company: Autodesk"
 90
        0
 91
        1
280
     0
281
     0
  0
CLASS
  1
ACMSECTIONSTANDARDDIN
  2
AmdtSectionSymStdDIN
  3
"Amdt_StdImp|Product Description: AutoCAD Mechanical 2004 DX|Company: Autodesk"
 90
        0
 91
        1
280
     0
281
     0
  0
CLASS
  1
ACMCENTERLINESTANDARDDIN
  2
AmdtCenterLineStdDIN
  3
"Amdt_StdImp|Product Description: AutoCAD Mechanical 2004 DX|Company: Autodesk"
 90
        0
 91
        1
280
     0
281
     0
  0
CLASS
  1
ACMTHREADLINESTANDARDDIN
  2
AmdtThreadLineStdDIN
  3
"Amdt_StdImp|Product Description: AutoCAD Mechanical 2004 DX|Company: Autodesk"
 90
        0
 91
        1
280
     0
281
     0
  0
CLASS
  1
ACMNOTESTANDARDDIN
  2
AmdtNoteStdDIN
  3
"Amdt_StdImp|Product Description: AutoCAD Mechanical 2004 DX|Company: Autodesk"
 90
        0
 91
        1
280
     0
281
     0
  0
CLASS
  1
AMDTNOTETEMPLATEDB
  2
AmdtNoteTemplateDB
  3
AMDT_STDIMP_MODULE_NAME
 90
        0
 91
        4
280
     0
281
     0
  0
CLASS
  1
ACAMGLAYSTD
  2
AcAmgLayStd
  3
"AcAmgLayStd|Product Description: AutoCAD Mechanical 2000|Company: Autodesk"
 90
        0
 91
        1
280
     0
281
     0
  0
CLASS
  1
ACAMGDIMSTD
  2
AcAmgDimStd
  3
"AcAmgDimStd|Product Description: AutoCAD Mechanical 2000|Company: Autodesk"
 90
        0
 91
        1
280
     0
281
     0
  0
CLASS
  1
ACAMGHOLECHARTSTDDIN
  2
AcAmgHoleChartStdDIN
  3
ACMSYMBB_MODULE_NAME
 90
        0
 91
        1
280
     0
281
     0
  0
CLASS
  1
ACAMGTITLESTD
  2
AcAmgTitleStd
  3
"TITLEAPP"
 90
        0
 91
        1
280
     0
281
     0
  0
CLASS
  1
ACAMGFILTERDAT
  2
AcAmgFilterDat
  3
"AcadM|Product Description: AutoCAD Mechanical 2000|Company: Autodesk"
 90
        0
 91
        6
280
     0
281
     0
  0
ENDSEC
  0
SECTION
  2
TABLES
  0
TABLE
  2
VPORT
  5
7
330
0
100
AcDbSymbolTable
 70
     4
  0
VPORT
  5
1F2
330
7
100
AcDbSymbolTableRecord
100
AcDbViewportTableRecord
  2
*Active
 70
     0
 10
0.0
 20
0.0
 11
1.0
 21
1.0
 12
-503.6898691503818
 22
-147.9949945909844
 13
0.0
 23
0.0
 14
1.0
 24
1.0
 15
0.0
 25
0.0
 16
0.0
 26
0.0
 36
1.0
 17
315.9136308535948
 27
148.0
 37
0.0
 40
302.6890966941981
 41
2.069836552748885
 42
50.0
 43
0.0
 44
0.0
 50
0.0
 51
0.0
 71
     0
 72
  2000
 73
     1
 74
     1
 75
     0
 76
     0
 77
     0
 78
     0
281
     0
 65
     0
110
0.0
120
0.0
130
0.0
111
1.0
121
0.0
131
0.0
112
0.0
122
1.0
132
0.0
 79
     0
146
0.0
  0
ENDTAB
  0
TABLE
  2
LTYPE
  5
4
330
0
100
AcDbSymbolTable
 70
    33
  0
LTYPE
  5
11
330
4
100
AcDbSymbolTableRecord
100
AcDbLinetypeTableRecord
  2
ByBlock
 70
     0
  3

 72
    65
 73
     0
 40
0.0
  0
LTYPE
  5
12
330
4
100
AcDbSymbolTableRecord
100
AcDbLinetypeTableRecord
  2
ByLayer
 70
     0
  3

 72
    65
 73
     0
 40
0.0
  0
LTYPE
  5
13
330
4
100
AcDbSymbolTableRecord
100
AcDbLinetypeTableRecord
  2
Continuous
 70
     0
  3
Solid line
 72
    65
 73
     0
 40
0.0
  0
LTYPE
  5
29
330
4
100
AcDbSymbolTableRecord
100
AcDbLinetypeTableRecord
  2
STYLE_06
 70
     0
  3

 72
    65
 73
     4
 40
1.0537
 49
0.590515
 74
     0
 49
-0.19684
 74
     0
 49
0.069505
 74
     0
 49
-0.1968400000000001
 74
     0
  0
LTYPE
  5
B0
330
4
100
AcDbSymbolTableRecord
100
AcDbLinetypeTableRecord
  2
HIDDEN
 70
     0
  3
Verdeckt
 72
    65
 73
     2
 40
9.525
 49
6.349999999999999
 74
     0
 49
-3.174999999999999
 74
     0
  0
LTYPE
  5
B1
330
4
100
AcDbSymbolTableRecord
100
AcDbLinetypeTableRecord
  2
PHANTOM2
 70
     0
  3
Phantom (.5x) ___ _ _ ___ _ _ ___ _ _ ___ _ _
 72
    65
 73
     6
 40
31.75
 49
15.875
 74
     0
 49
-3.174999999999999
 74
     0
 49
3.174999999999999
 74
     0
 49
-3.174999999999999
 74
     0
 49
3.174999999999999
 74
     0
 49
-3.174999999999999
 74
     0
  0
LTYPE
  5
B2
330
4
100
AcDbSymbolTableRecord
100
AcDbLinetypeTableRecord
  2
CENTER
 70
     0
  3
Mitte ____ _ ____ _ ____ _ ____ _ ____ _ ____
 72
    65
 73
     4
 40
50.8
 49
31.75
 74
     0
 49
-6.349999999999999
 74
     0
 49
6.349999999999999
 74
     0
 49
-6.349999999999999
 74
     0
  0
LTYPE
  5
15E
330
4
100
AcDbSymbolTableRecord
100
AcDbLinetypeTableRecord
  2
Amconstr
 70
     0
  3
_______________________
 72
    65
 73
     2
 40
9999.0
 49
9999.0
 74
     0
 49
0.0
 74
     0
  0
LTYPE
  5
163
330
4
100
AcDbSymbolTableRecord
100
AcDbLinetypeTableRecord
  2
Amzigzag
 70
     0
  3
/\/-/\/-/\/-/\/-/\/-/\/
 72
    65
 73
     2
 40
11.0001
 49
0.0001
 74
     4
 75
   135
340
162
 46
0.04
 50
0.0
 44
0.0
 45
0.0
 49
-11.0
 74
     0
  0
LTYPE
  5
164
330
4
100
AcDbSymbolTableRecord
100
AcDbLinetypeTableRecord
  2
AM_DIN_F_W050
 70
     0
  3
__ __ __ __ __ __ __ __ __ __ __ __ __ __ __
 72
    65
 73
     2
 40
6.25
 49
4.75
 74
     0
 49
-1.5
 74
     0
  0
LTYPE
  5
165
330
4
100
AcDbSymbolTableRecord
100
AcDbLinetypeTableRecord
  2
AM_DIN_G_W050
 70
     0
  3
____ . ____ . ____ . ____ . ____ . ____ . ____
 72
    65
 73
     4
 40
13.75
 49
9.75
 74
     0
 49
-1.5
 74
     0
 49
1.0
 74
     0
 49
-1.5
 74
     0
  0
LTYPE
  5
166
330
4
100
AcDbSymbolTableRecord
100
AcDbLinetypeTableRecord
  2
AM_DIN_K_W050
 70
     0
  3
_____ . . _____ . . _____ . . ____ .. ____
 72
    65
 73
     6
 40
16.25
 49
9.75
 74
     0
 49
-1.5
 74
     0
 49
1.0
 74
     0
 49
-1.5
 74
     0
 49
1.0
 74
     0
 49
-1.5
 74
     0
  0
LTYPE
  5
167
330
4
100
AcDbSymbolTableRecord
100
AcDbLinetypeTableRecord
  2
AM_DIN_G_W050x2
 70
     0
  3
__ . __ . __ . __ . __ . __
 72
    65
 73
     4
 40
6.875
 49
4.75
 74
     0
 49
-0.875
 74
     0
 49
0.375
 74
     0
 49
-0.875
 74
     0
  0
LTYPE
  5
168
330
4
100
AcDbSymbolTableRecord
100
AcDbLinetypeTableRecord
  2
AM_DIN_F_W050x2
 70
     0
  3
 _ _ _ _ _ _ _ _ _ _ _ _
 72
    65
 73
     2
 40
3.125
 49
2.25
 74
     0
 49
-0.875
 74
     0
  0
LTYPE
  5
177
330
4
100
AcDbSymbolTableRecord
100
AcDbLinetypeTableRecord
  2
ACDINWELD
 70
     0
  3
_ _ _ _ _
 72
    65
 73
     2
 40
2.0
 49
2.0
 74
     0
 49
-1.0
 74
     0
  0
LTYPE
  5
178
330
4
100
AcDbSymbolTableRecord
100
AcDbLinetypeTableRecord
  2
ACDINTGB
 70
     0
  3
__ . . __ . .
 72
    65
 73
     6
 40
9.0
 49
4.0
 74
     0
 49
-1.0
 74
     0
 49
1.0
 74
     0
 49
-1.0
 74
     0
 49
1.0
 74
     0
 49
-1.0
 74
     0
  0
LTYPE
  5
179
330
4
100
AcDbSymbolTableRecord
100
AcDbLinetypeTableRecord
  2
ACDINTGL
 70
     0
  3
_ _ _ _ _
 72
    65
 73
     2
 40
3.0
 49
2.0
 74
     0
 49
-1.0
 74
     0
  0
ENDTAB
  0
TABLE
  2
LAYER
  5
2
330
0
100
AcDbSymbolTable
 70
     3
  0
LAYER
  5
14
330
2
100
AcDbSymbolTableRecord
100
AcDbLayerTableRecord
  2
0
 70
     0
 62
     7
  6
Continuous
370
     0
390
1D
  0
ENDTAB
  0
TABLE
  2
STYLE
  5
3
330
0
100
AcDbSymbolTable
 70
     4
  0
STYLE
  5
17
330
3
100
AcDbSymbolTableRecord
100
AcDbTextStyleTableRecord
  2
Standard
 70
     0
 40
0.0
 41
1.0
 50
0.0
 71
     0
 42
0.0
  3
txt
  4

  0
STYLE
  5
162
330
3
100
AcDbSymbolTableRecord
100
AcDbTextStyleTableRecord
  2

 70
     1
 40
0.0
 41
1.0
 50
0.0
 71
     0
 42
0.2
  3
ltypeshp.shx
  4

  0
STYLE
  5
169
330
3
100
AcDbSymbolTableRecord
100
AcDbTextStyleTableRecord
  2
ACDINTS
 70
     0
 40
1.0
 41
1.0
 50
0.0
 71
     0
 42
0.2
  3
isocp.shx
  4

  0
STYLE
  5
176
330
3
100
AcDbSymbolTableRecord
100
AcDbTextStyleTableRecord
  2
ACDINGDT
 70
     0
 40
0.0
 41
1.0
 50
0.0
 71
     0
 42
0.2
  3
amgdt.shx
  4

  0
ENDTAB
  0
TABLE
  2
VIEW
  5
5
330
0
100
AcDbSymbolTable
 70
     0
  0
ENDTAB
  0
TABLE
  2
UCS
  5
6
330
0
100
AcDbSymbolTable
 70
     0
  0
ENDTAB
  0
TABLE
  2
APPID
  5
8
330
0
100
AcDbSymbolTable
 70
    14
  0
APPID
  5
16
330
8
100
AcDbSymbolTableRecord
100
AcDbRegAppTableRecord
  2
ACAD
 70
     0
  0
APPID
  5
8F
330
8
100
AcDbSymbolTableRecord
100
AcDbRegAppTableRecord
  2
GENIUS_GENDIM_13
 70
     0
  0
APPID
  5
90
330
8
100
AcDbSymbolTableRecord
100
AcDbRegAppTableRecord
  2
GENIUS_GENDTOL_13
 70
     0
  0
APPID
  5
91
330
8
100
AcDbSymbolTableRecord
100
AcDbRegAppTableRecord
  2
GENIUS_GE3DTOL_13
 70
     0
  0
APPID
  5
94
330
8
100
AcDbSymbolTableRecord
100
AcDbRegAppTableRecord
  2
MCAD_NO_VIS
 70
     0
  0
APPID
  5
95
330
8
100
AcDbSymbolTableRecord
100
AcDbRegAppTableRecord
  2
ACAD_TEMP_GRAPHIC
 70
     0
  0
APPID
  5
C7
330
8
100
AcDbSymbolTableRecord
100
AcDbRegAppTableRecord
  2
AD_DRAW
 70
     0
  0
APPID
  5
CA
330
8
100
AcDbSymbolTableRecord
100
AcDbRegAppTableRecord
  2
ACATTRIBSERVICES
 70
     0
  0
APPID
  5
116
330
8
100
AcDbSymbolTableRecord
100
AcDbRegAppTableRecord
  2
ASURF_PCURVE_APPNAME
 70
     0
  0
APPID
  5
11B
330
8
100
AcDbSymbolTableRecord
100
AcDbRegAppTableRecord
  2
AMG_3D2D_5.0
 70
     0
  0
APPID
  5
14A
330
8
100
AcDbSymbolTableRecord
100
AcDbRegAppTableRecord
  2
DESIGNERASSEMBLIES
 70
     0
  0
APPID
  5
150
330
8
100
AcDbSymbolTableRecord
100
AcDbRegAppTableRecord
  2
ACADM_DIM_EDIT
 70
     0
  0
APPID
  5
151
330
8
100
AcDbSymbolTableRecord
100
AcDbRegAppTableRecord
  2
AMDT_DM_ADJ
 70
     0
  0
APPID
  5
1EB
330
8
100
AcDbSymbolTableRecord
100
AcDbRegAppTableRecord
  2
DCO15
 70
     0
  0
ENDTAB
  0
TABLE
  2
DIMSTYLE
  5
9
330
0
100
AcDbSymbolTable
 70
     8
100
AcDbDimStyleTable
 71
     0
  0
DIMSTYLE
105
18
330
9
100
AcDbSymbolTableRecord
100
AcDbDimStyleTableRecord
  2
Standard
 70
     0
340
17
  0
DIMSTYLE
105
181
330
9
100
AcDbSymbolTableRecord
100
AcDbDimStyleTableRecord
  2
AM_DIN
 70
     0
  4
"
 41
2.5
 42
1.0
 43
10.0
 44
1.0
 47
0.1
 48
0.1
 73
     0
 74
     0
 77
     1
 78
     8
 79
     2
140
3.5
141
0.0
143
0.0393701
146
0.71
147
1.5
172
     1
176
   256
177
   256
178
     2
271
     2
272
     3
274
     4
283
     0
284
     8
340
17
371
    -1
372
    -1
  0
DIMSTYLE
105
182
330
9
100
AcDbSymbolTableRecord
100
AcDbDimStyleTableRecord
  2
AM_DIN$3
 70
     0
  4
"
 41
2.5
 42
1.0
 43
10.0
 44
1.0
 47
0.1
 48
0.1
 73
     0
 77
     1
 78
     8
 79
     2
140
3.5
141
0.0
143
0.0393701
146
0.71
147
1.5
176
   256
177
   256
178
     2
271
     2
272
     3
274
     4
283
     0
284
     8
288
     1
289
     0
340
17
371
    -1
372
    -1
  0
DIMSTYLE
105
183
330
9
100
AcDbSymbolTableRecord
100
AcDbDimStyleTableRecord
  2
AM_DIN$4
 70
     0
  4
"
 41
2.5
 42
1.0
 43
10.0
 44
1.0
 47
0.1
 48
0.1
 73
     0
 77
     1
 78
     8
 79
     2
140
3.5
141
0.0
143
0.0393701
146
0.71
147
1.5
176
   256
177
   256
178
     2
271
     2
272
     3
274
     4
283
     0
284
     8
288
     1
289
     0
340
17
371
    -1
372
    -1
  0
DIMSTYLE
105
184
330
9
100
AcDbSymbolTableRecord
100
AcDbDimStyleTableRecord
  2
AM_DIN$6
 70
     0
  4
"
 41
2.5
 42
1.0
 43
10.0
 44
1.0
 47
0.1
 48
0.1
 73
     0
 74
     0
 78
     8
 79
     2
140
3.5
141
0.0
143
0.0393701
146
0.71
147
1.5
172
     1
176
   256
177
   256
178
     2
271
     2
272
     3
274
     4
283
     0
284
     8
340
17
371
    -1
372
    -1
  0
DIMSTYLE
105
185
330
9
100
AcDbSymbolTableRecord
100
AcDbDimStyleTableRecord
  2
AM_DIN$7
 70
     0
  4
"
 41
2.5
 42
1.0
 43
10.0
 44
1.0
 47
0.1
 48
0.1
 73
     0
 74
     0
 77
     1
 78
     8
 79
     2
140
5.0
141
0.0
143
0.0393701
146
0.71
147
1.5
172
     1
176
   256
177
   256
178
     2
271
     2
272
     3
274
     4
283
     0
284
     8
340
17
371
    -1
372
    -1
  0
DIMSTYLE
105
186
330
9
100
AcDbSymbolTableRecord
100
AcDbDimStyleTableRecord
  2
AM_DIN$SF
 70
     0
  4
"
 41
2.5
 42
1.0
 43
10.0
 44
1.0
 47
0.1
 48
0.1
 73
     0
 74
     0
 75
     1
 76
     1
 77
     1
 78
     8
 79
     2
140
3.5
141
0.0
143
0.0393701
146
0.71
147
1.5
172
     1
176
   256
177
   256
178
     2
271
     2
272
     3
274
     4
283
     0
284
     8
340
17
371
    -1
372
    -1
  0
DIMSTYLE
105
18B
330
9
100
AcDbSymbolTableRecord
100
AcDbDimStyleTableRecord
  2
AM_DIN$SH
 70
     0
  4
"
 41
2.5
 42
1.0
 43
10.0
 44
1.0
 47
0.1
 48
0.1
 73
     0
 74
     0
 75
     1
 76
     1
 77
     1
 78
     8
 79
     2
140
3.5
141
0.0
143
0.0393701
144
2.0
146
0.71
147
1.5
172
     1
173
     1
176
   256
177
   256
178
     2
271
     2
272
     3
274
     4
283
     0
284
     8
340
17
343
187
371
    -1
372
    -1
  0
ENDTAB
  0
TABLE
  2
BLOCK_RECORD
  5
1
330
0
100
AcDbSymbolTable
 70
     2
  0
BLOCK_RECORD
  5
A
102
{ACAD_XDICTIONARY
360
1ED
102
}
330
1
100
AcDbSymbolTableRecord
100
AcDbBlockTableRecord
  2
*MODEL_SPACE
340
20
  0
BLOCK_RECORD
  5
B
330
1
100
AcDbSymbolTableRecord
100
AcDbBlockTableRecord
  2
*PAPER_SPACE
340
21
  0
BLOCK_RECORD
  5
141
330
1
100
AcDbSymbolTableRecord
100
AcDbBlockTableRecord
  2
*U0
340
0
  0
BLOCK_RECORD
  5
187
330
1
100
AcDbSymbolTableRecord
100
AcDbBlockTableRecord
  2
GENAXEH
340
0
  0
ENDTAB
  0
ENDSEC
  0
SECTION
  2
BLOCKS
  0
BLOCK
  5
D
330
A
100
AcDbEntity
  8
0
100
AcDbBlockBegin
  2
*MODEL_SPACE
 70
     0
 10
0.0
 20
0.0
 30
0.0
  3
*MODEL_SPACE
  1

  0
ENDBLK
  5
E
330
A
100
AcDbEntity
  8
0
100
AcDbBlockEnd
  0
BLOCK
  5
F
330
B
100
AcDbEntity
 67
     1
  8
0
100
AcDbBlockBegin
  2
*PAPER_SPACE
 70
     0
 10
0.0
 20
0.0
 30
0.0
  3
*PAPER_SPACE
  1

  0
ENDBLK
  5
10
330
B
100
AcDbEntity
 67
     1
  8
0
100
AcDbBlockEnd
  0
BLOCK
  5
142
330
141
100
AcDbEntity
  8
0
370
     0
100
AcDbBlockBegin
  2
*U0
 70
     1
 10
0.0
 20
0.0
 30
0.0
  3
*U0
  1

  0
ENDBLK
  5
143
330
141
100
AcDbEntity
  8
0
370
     0
100
AcDbBlockEnd
  0
BLOCK
  5
189
330
187
100
AcDbEntity
  8
0
370
     0
100
AcDbBlockBegin
  2
GENAXEH
 70
     0
 10
0.0
 20
0.0
 30
0.0
  3
GENAXEH
  1

  0
LINE
  5
188
330
187
100
AcDbEntity
  8
0
100
AcDbLine
 10
-1.0
 20
0.0
 30
0.0
 11
1.0
 21
0.0
 31
0.0
  0
ENDBLK
  5
18A
330
187
100
AcDbEntity
  8
0
370
     0
100
AcDbBlockEnd
  0
ENDSEC
  0
SECTION
  2
ENTITIES
  0
SPLINE
  5
32
330
A
100
AcDbEntity
  8
0
  6
Continuous
370
     0
100
AcDbSpline
210
0.0
220
0.0
230
1.0
 70
    15
 71
     2
 72
    48
 73
    45
 74
     0
 42
0.0000000001
 43
0.0000000001
 40
0.0
 40
0.0
 40
0.0
 40
1.0
 40
2.0
 40
3.0
 40
3.0
 40
4.0
 40
5.0
 40
5.0
 40
6.0
 40
6.0
 40
7.0
 40
7.0
 40
8.0
 40
8.0
 40
9.0
 40
9.0
 40
10.0
 40
10.0
 40
11.0
 40
11.0
 40
12.0
 40
13.0
 40
13.0
 40
14.0
 40
15.0
 40
16.0
 40
16.0
 40
17.0
 40
17.0
 40
18.0
 40
18.0
 40
19.0
 40
19.0
 40
20.0
 40
20.0
 40
21.0
 40
21.0
 40
22.0
 40
22.0
 40
23.0
 40
23.0
 40
24.0
 40
24.0
 40
25.0
 40
25.0
 40
25.0
 10
-3.974874999999997
 20
102.628974
 30
0.0
 41
1.0
 10
-39.91376700000001
 20
114.8106595
 30
0.0
 41
1.0
 10
-87.33653949999998
 20
126.82012525
 30
0.0
 41
1.0
 10
-163.2209685
 20
147.31699475
 30
0.0
 41
1.0
 10
-216.0
 20
150.0
 30
0.0
 41
1.0
 10
-259.8181667217245
 20
150.0
 30
0.0
 41
1.0
 10
-335.7134577782754
 20
108.2256662519665
 30
0.0
 41
1.0
 10
-357.6225411391376
 20
72.04803200000004
 30
0.0
 41
1.0
 10
-363.4990074793109
 20
62.344447123941
 30
0.0
 41
1.0
 10
-367.7992847987752
 20
52.23822302502577
 30
0.0
 41
1.0
 10
-378.3220601978781
 20
41.91792801535004
 30
0.0
 41
0.9803086012754812
 10
-384.0284931137485
 20
28.32844993253269
 30
0.0
 41
1.0
 10
-389.734926029619
 20
14.7389718497154
 30
0.0
 41
0.9803086012754812
 10
-389.734926
 20
0.0
 30
0.0
 41
1.0
 10
-389.734926
 20
-14.73897188519257
 30
0.0
 41
0.9803086014725813
 10
-384.0284930702128
 20
-28.32845000064415
 30
0.0
 41
1.0
 10
-378.3220601404256
 20
-41.91792811609573
 30
0.0
 41
0.9803086014725813
 10
-367.7992847364584
 20
-52.23822317147853
 30
0.0
 41
1.0
 10
-363.4990074793109
 20
-62.344447123941
 30
0.0
 41
1.0
 10
-357.6225411391376
 20
-72.04803200000004
 30
0.0
 41
1.0
 10
-335.7134577782754
 20
-108.2256662519665
 30
0.0
 41
1.0
 10
-259.8181667217245
 20
-150.0
 30
0.0
 41
1.0
 10
-216.0
 20
-150.0
 30
0.0
 41
1.0
 10
-163.2209685
 20
-147.31699475
 30
0.0
 41
1.0
 10
-87.33653949999998
 20
-126.82012525
 30
0.0
 41
1.0
 10
-39.91376700000001
 20
-114.8106595
 30
0.0
 41
1.0
 10
-3.974874999999997
 20
-102.628974
 30
0.0
 41
1.0
 10
-3.040236928244553
 20
-102.3981617210387
 30
0.0
 41
0.9837486323733447
 10
-2.247399993568706
 20
-101.8520552952314
 30
0.0
 41
1.0
 10
-1.454563058892802
 20
-101.3059488694241
 30
0.0
 41
0.9837486323733486
 10
-0.9057671622661018
 20
-100.514971185074
 30
0.0
 41
1.0
 10
-0.3569712656394017
 20
-99.72399350072391
 30
0.0
 41
0.9837486323733457
 10
-0.1229861147652969
 20
-98.7901447000797
 30
0.0
 41
1.0
 10
0.1109990361087511
 20
-97.85629589943548
 30
0.0
 41
0.9837486323733507
 10
0.0
 20
-96.90000000000001
 30
0.0
 41
1.0
 10
0.0
 20
0.0
 30
0.0
 41
1.0
 10
0.0
 20
96.90000000000001
 30
0.0
 41
1.0
 10
0.110999036108808
 20
97.85629589943548
 30
0.0
 41
0.9837486323733491
 10
-0.1229861147652969
 20
98.79014470007968
 30
0.0
 41
1.0
 10
-0.3569712656393449
 20
99.72399350072388
 30
0.0
 41
0.9837486323733445
 10
-0.9057671622661018
 20
100.514971185074
 30
0.0
 41
1.0
 10
-1.454563058892802
 20
101.3059488694241
 30
0.0
 41
0.9837486323733457
 10
-2.247399993568649
 20
101.8520552952314
 30
0.0
 41
1.0
 10
-3.040236928244439
 20
102.3981617210387
 30
0.0
 41
0.9837486323733456
 10
-3.974874999999997
 20
102.628974
 30
0.0
 41
1.0
  0
SPLINE
  5
33
330
A
100
AcDbEntity
  8
0
  6
Continuous
370
     0
100
AcDbSpline
210
0.0
220
0.0
230
1.0
 70
     8
 71
     2
 72
     6
 73
     3
 74
     0
 42
0.0000000001
 43
0.0000000001
 40
0.0
 40
0.0
 40
0.0
 40
1.0
 40
1.0
 40
1.0
 10
-367.7992847987752
 20
52.23822302502586
 30
0.0
 10
-378.3932711895907
 20
27.34094487000272
 30
0.0
 10
-379.4211735334989
 20
-0.0000000000003695
 30
0.0
  0
SPLINE
  5
34
330
A
100
AcDbEntity
  8
0
  6
Continuous
370
     0
100
AcDbSpline
210
0.0
220
0.0
230
1.0
 70
     8
 71
     2
 72
     8
 73
     5
 74
     0
 42
0.0000000001
 43
0.0000000001
 40
0.0
 40
0.0
 40
0.0
 40
1.0
 40
2.0
 40
3.0
 40
3.0
 40
3.0
 10
-82.73492599999997
 20
0.0
 30
0.0
 10
-81.54249037765159
 20
36.0
 30
0.0
 10
-106.3791618942466
 20
85.94387905425836
 30
0.0
 10
-174.4431661057534
 20
111.5725949457416
 30
0.0
 10
-216.0
 20
110.7722830121945
 30
0.0
  0
SPLINE
  5
35
330
A
100
AcDbEntity
  8
0
  6
Continuous
370
     0
100
AcDbSpline
210
0.0
220
0.0
230
1.0
 70
     8
 71
     2
 72
     9
 73
     6
 74
     0
 42
0.0000000001
 43
0.0000000001
 40
0.0
 40
0.0
 40
0.0
 40
1.0
 40
2.0
 40
2.0
 40
3.0
 40
3.0
 40
3.0
 10
-277.8189695
 20
0.0
 30
0.0
 10
-278.3532034041312
 20
19.05193890142431
 30
0.0
 10
-286.3
 20
38.20000000000002
 30
0.0
 10
-299.9937186541313
 20
43.00487946714144
 30
0.0
 10
-311.3995432859417
 20
47.00697809085369
 30
0.0
 10
-336.9018120680366
 20
40.03747977873524
 30
0.0
  0
LINE
  5
36
330
A
100
AcDbEntity
  8
0
  6
STYLE_06
 62
     4
370
     0
100
AcDbLine
 10
-6.033993043928717
 20
86.38259300000001
 30
0.0
 11
-38.74934095607136
 21
86.38259300000001
 31
0.0
  0
LINE
  5
37
330
A
100
AcDbEntity
  8
0
  6
STYLE_06
 62
     4
370
     0
100
AcDbLine
 10
-22.39166699999998
 20
70.02491904392863
 30
0.0
 11
-22.39166699999998
 21
102.7402669560713
 31
0.0
  0
POLYLINE
  5
38
330
A
100
AcDbEntity
  8
0
  6
Continuous
370
     0
100
AcDb2dPolyline
 66
     1
 10
0.0
 20
0.0
 30
0.0
 70
     1
 75
     5
  0
VERTEX
  5
39
330
38
100
AcDbEntity
  8
0
  6
Continuous
370
     0
100
AcDbVertex
100
AcDb2dVertex
 10
-15.18989682207962
 20
93.32295844581048
 30
0.0
  0
VERTEX
  5
3A
330
38
100
AcDbEntity
  8
0
  6
Continuous
370
     0
100
AcDbVertex
100
AcDb2dVertex
 10
-16.68227494638165
 20
94.5945969329667
 30
0.0
  0
VERTEX
  5
3B
330
38
100
AcDbEntity
  8
0
  6
Continuous
370
     0
100
AcDbVertex
100
AcDb2dVertex
 10
-18.39406180544017
 20
95.55065271432383
 30
0.0
  0
VERTEX
  5
3C
330
38
100
AcDbEntity
  8
0
  6
Continuous
370
     0
100
AcDbVertex
100
AcDb2dVertex
 10
-20.25947439024287
 20
96.15438510236661
 30
0.0
  0
VERTEX
  5
3D
330
38
100
AcDbEntity
  8
0
  6
Continuous
370
     0
100
AcDbVertex
100
AcDb2dVertex
 10
-22.20682594129107
 20
96.38259299999957
 30
0.0
  0
VERTEX
  5
3E
330
38
100
AcDbEntity
  8
0
  6
Continuous
370
     0
100
AcDbVertex
100
AcDb2dVertex
 10
-24.16128083056549
 20
96.22650650569713
 30
0.0
  0
VERTEX
  5
3F
330
38
100
AcDbEntity
  8
0
  6
Continuous
370
     0
100
AcDbVertex
100
AcDb2dVertex
 10
-26.04773045274203
 20
95.69212393590104
 30
0.0
  0
VERTEX
  5
40
330
38
100
AcDbEntity
  8
0
  6
Continuous
370
     0
100
AcDbVertex
100
AcDb2dVertex
 10
-27.79367960677371
 20
94.79998131308335
 30
0.0
  0
VERTEX
  5
41
330
38
100
AcDbEntity
  8
0
  6
Continuous
370
     0
100
AcDbVertex
100
AcDb2dVertex
 10
-29.33203244581057
 20
93.58436317791959
 30
0.0
  0
VERTEX
  5
42
330
38
100
AcDbEntity
  8
0
  6
Continuous
370
     0
100
AcDbVertex
100
AcDb2dVertex
 10
-30.60367093296679
 20
92.0919850536176
 30
0.0
  0
VERTEX
  5
43
330
38
100
AcDbEntity
  8
0
  6
Continuous
370
     0
100
AcDbVertex
100
AcDb2dVertex
 10
-31.55972671432392
 20
90.38019819455902
 30
0.0
  0
VERTEX
  5
44
330
38
100
AcDbEntity
  8
0
  6
Continuous
370
     0
100
AcDbVertex
100
AcDb2dVertex
 10
-32.16345910236669
 20
88.51478560975639
 30
0.0
  0
VERTEX
  5
45
330
38
100
AcDbEntity
  8
0
  6
Continuous
370
     0
100
AcDbVertex
100
AcDb2dVertex
 10
-32.39166699999965
 20
86.56743405870813
 30
0.0
  0
VERTEX
  5
46
330
38
100
AcDbEntity
  8
0
  6
Continuous
370
     0
100
AcDbVertex
100
AcDb2dVertex
 10
-32.23558050569727
 20
84.61297916943378
 30
0.0
  0
VERTEX
  5
47
330
38
100
AcDbEntity
  8
0
  6
Continuous
370
     0
100
AcDbVertex
100
AcDb2dVertex
 10
-31.70119793590118
 20
82.72652954725723
 30
0.0
  0
VERTEX
  5
48
330
38
100
AcDbEntity
  8
0
  6
Continuous
370
     0
100
AcDbVertex
100
AcDb2dVertex
 10
-30.80905531308349
 20
80.98058039322555
 30
0.0
  0
VERTEX
  5
49
330
38
100
AcDbEntity
  8
0
  6
Continuous
370
     0
100
AcDbVertex
100
AcDb2dVertex
 10
-29.59343717791967
 20
79.44222755418863
 30
0.0
  0
VERTEX
  5
4A
330
38
100
AcDbEntity
  8
0
  6
Continuous
370
     0
100
AcDbVertex
100
AcDb2dVertex
 10
-28.10105905361775
 20
78.17058906703241
 30
0.0
  0
VERTEX
  5
4B
330
38
100
AcDbEntity
  8
0
  6
Continuous
370
     0
100
AcDbVertex
100
AcDb2dVertex
 10
-26.38927219455911
 20
77.21453328567529
 30
0.0
  0
VERTEX
  5
4C
330
38
100
AcDbEntity
  8
0
  6
Continuous
370
     0
100
AcDbVertex
100
AcDb2dVertex
 10
-24.52385960975653
 20
76.61080089763252
 30
0.0
  0
VERTEX
  5
4D
330
38
100
AcDbEntity
  8
0
  6
Continuous
370
     0
100
AcDbVertex
100
AcDb2dVertex
 10
-22.57650805870822
 20
76.38259299999956
 30
0.0
  0
VERTEX
  5
4E
330
38
100
AcDbEntity
  8
0
  6
Continuous
370
     0
100
AcDbVertex
100
AcDb2dVertex
 10
-20.62205316943391
 20
76.53867949430199
 30
0.0
  0
VERTEX
  5
4F
330
38
100
AcDbEntity
  8
0
  6
Continuous
370
     0
100
AcDbVertex
100
AcDb2dVertex
 10
-18.73560354725737
 20
77.07306206409808
 30
0.0
  0
VERTEX
  5
50
330
38
100
AcDbEntity
  8
0
  6
Continuous
370
     0
100
AcDbVertex
100
AcDb2dVertex
 10
-16.98965439322569
 20
77.96520468691577
 30
0.0
  0
VERTEX
  5
51
330
38
100
AcDbEntity
  8
0
  6
Continuous
370
     0
100
AcDbVertex
100
AcDb2dVertex
 10
-15.45130155418872
 20
79.18082282207953
 30
0.0
  0
VERTEX
  5
52
330
38
100
AcDbEntity
  8
0
  6
Continuous
370
     0
100
AcDbVertex
100
AcDb2dVertex
 10
-14.17966306703249
 20
80.67320094638152
 30
0.0
  0
VERTEX
  5
53
330
38
100
AcDbEntity
  8
0
  6
Continuous
370
     0
100
AcDbVertex
100
AcDb2dVertex
 10
-13.22360728567537
 20
82.38498780544009
 30
0.0
  0
VERTEX
  5
54
330
38
100
AcDbEntity
  8
0
  6
Continuous
370
     0
100
AcDbVertex
100
AcDb2dVertex
 10
-12.6198748976326
 20
84.25040039024272
 30
0.0
  0
VERTEX
  5
55
330
38
100
AcDbEntity
  8
0
  6
Continuous
370
     0
100
AcDbVertex
100
AcDb2dVertex
 10
-12.39166699999964
 20
86.19775194129099
 30
0.0
  0
VERTEX
  5
56
330
38
100
AcDbEntity
  8
0
  6
Continuous
370
     0
100
AcDbVertex
100
AcDb2dVertex
 10
-12.54775349430213
 20
88.15220683056528
 30
0.0
  0
VERTEX
  5
57
330
38
100
AcDbEntity
  8
0
  6
Continuous
370
     0
100
AcDbVertex
100
AcDb2dVertex
 10
-13.08213606409822
 20
90.03865645274188
 30
0.0
  0
VERTEX
  5
58
330
38
100
AcDbEntity
  8
0
  6
Continuous
370
     0
100
AcDbVertex
100
AcDb2dVertex
 10
-13.97427868691591
 20
91.78460560677356
 30
0.0
  0
SEQEND
  5
59
330
38
100
AcDbEntity
  8
0
  6
Continuous
370
     0
  0
LINE
  5
5B
330
A
100
AcDbEntity
  8
0
  6
STYLE_06
 62
     4
370
     0
100
AcDbLine
 10
14.18042191214266
 20
0.0
 30
0.0
 11
-18.53492599999998
 21
0.0
 31
0.0
  0
SPLINE
  5
5C
330
A
100
AcDbEntity
  8
0
  6
Continuous
370
     0
100
AcDbSpline
210
0.0
220
0.0
230
1.0
 70
     8
 71
     2
 72
     6
 73
     3
 74
     0
 42
0.0000000001
 43
0.0000000001
 40
0.0
 40
0.0
 40
0.0
 40
1.0
 40
1.0
 40
1.0
 10
-367.7992847987752
 20
-52.23822302502586
 30
0.0
 10
-378.3932711895907
 20
-27.34094487000272
 30
0.0
 10
-379.4211735334989
 20
0.0000000000003695
 30
0.0
  0
SPLINE
  5
5D
330
A
100
AcDbEntity
  8
0
  6
Continuous
370
     0
100
AcDbSpline
210
0.0
220
0.0
230
1.0
 70
     8
 71
     2
 72
     9
 73
     6
 74
     0
 42
0.0000000001
 43
0.0000000001
 40
0.0
 40
0.0
 40
0.0
 40
1.0
 40
2.0
 40
2.0
 40
3.0
 40
3.0
 40
3.0
 10
-216.0
 20
-110.7722830121945
 30
0.0
 10
-250.7645752134111
 20
-110.7722830121945
 30
0.0
 10
-310.9785857865889
 20
-80.97432989037278
 30
0.0
 10
-328.3608733932944
 20
-55.1685455060973
 30
0.0
 10
-345.6161667653869
 20
-29.55129705625244
 30
0.0
 10
-345.7422331856645
 20
0.0000000000020179
 30
0.0
  0
SPLINE
  5
5E
330
A
100
AcDbEntity
  8
0
  6
Continuous
370
     0
100
AcDbSpline
210
0.0
220
0.0
230
1.0
 70
     8
 71
     2
 72
     8
 73
     5
 74
     0
 42
0.0000000001
 43
0.0000000001
 40
0.0
 40
0.0
 40
0.0
 40
1.0
 40
2.0
 40
3.0
 40
3.0
 40
3.0
 10
-82.73492599999997
 20
0.0
 30
0.0
 10
-81.54249037765159
 20
-36.0
 30
0.0
 10
-106.3791618942466
 20
-85.94387905425836
 30
0.0
 10
-174.4431661057534
 20
-111.5725949457416
 30
0.0
 10
-216.0
 20
-110.7722830121945
 30
0.0
  0
SPLINE
  5
5F
330
A
100
AcDbEntity
  8
0
  6
Continuous
370
     0
100
AcDbSpline
210
0.0
220
0.0
230
1.0
 70
     8
 71
     2
 72
     9
 73
     6
 74
     0
 42
0.0000000001
 43
0.0000000001
 40
0.0
 40
0.0
 40
0.0
 40
1.0
 40
2.0
 40
2.0
 40
3.0
 40
3.0
 40
3.0
 10
-277.8189695
 20
0.0
 30
0.0
 10
-278.3532034041312
 20
-19.05193890142431
 30
0.0
 10
-286.3
 20
-38.20000000000002
 30
0.0
 10
-299.9937186541313
 20
-43.00487946714143
 30
0.0
 10
-311.3995432859417
 20
-47.00697809085371
 30
0.0
 10
-336.9018120680366
 20
-40.03747977873524
 30
0.0
  0
LINE
  5
60
330
A
100
AcDbEntity
  8
0
  6
STYLE_06
 62
     4
370
     0
100
AcDbLine
 10
-6.033993043928717
 20
-86.38259300000001
 30
0.0
 11
-38.74934095607136
 21
-86.38259300000001
 31
0.0
  0
LINE
  5
61
330
A
100
AcDbEntity
  8
0
  6
STYLE_06
 62
     4
370
     0
100
AcDbLine
 10
-22.39166699999998
 20
-70.02491904392863
 30
0.0
 11
-22.39166699999998
 21
-102.7402669560713
 31
0.0
  0
POLYLINE
  5
62
330
A
100
AcDbEntity
  8
0
  6
Continuous
370
     0
100
AcDb2dPolyline
 66
     1
 10
0.0
 20
0.0
 30
0.0
 70
     1
 75
     5
  0
VERTEX
  5
63
330
62
100
AcDbEntity
  8
0
  6
Continuous
370
     0
100
AcDbVertex
100
AcDb2dVertex
 10
-15.18989682207962
 20
-93.32295844581048
 30
0.0
  0
VERTEX
  5
64
330
62
100
AcDbEntity
  8
0
  6
Continuous
370
     0
100
AcDbVertex
100
AcDb2dVertex
 10
-16.68227494638165
 20
-94.5945969329667
 30
0.0
  0
VERTEX
  5
65
330
62
100
AcDbEntity
  8
0
  6
Continuous
370
     0
100
AcDbVertex
100
AcDb2dVertex
 10
-18.39406180544017
 20
-95.55065271432383
 30
0.0
  0
VERTEX
  5
66
330
62
100
AcDbEntity
  8
0
  6
Continuous
370
     0
100
AcDbVertex
100
AcDb2dVertex
 10
-20.25947439024287
 20
-96.15438510236661
 30
0.0
  0
VERTEX
  5
67
330
62
100
AcDbEntity
  8
0
  6
Continuous
370
     0
100
AcDbVertex
100
AcDb2dVertex
 10
-22.20682594129107
 20
-96.38259299999957
 30
0.0
  0
VERTEX
  5
68
330
62
100
AcDbEntity
  8
0
  6
Continuous
370
     0
100
AcDbVertex
100
AcDb2dVertex
 10
-24.16128083056549
 20
-96.22650650569713
 30
0.0
  0
VERTEX
  5
69
330
62
100
AcDbEntity
  8
0
  6
Continuous
370
     0
100
AcDbVertex
100
AcDb2dVertex
 10
-26.04773045274203
 20
-95.69212393590104
 30
0.0
  0
VERTEX
  5
6A
330
62
100
AcDbEntity
  8
0
  6
Continuous
370
     0
100
AcDbVertex
100
AcDb2dVertex
 10
-27.79367960677371
 20
-94.79998131308335
 30
0.0
  0
VERTEX
  5
6B
330
62
100
AcDbEntity
  8
0
  6
Continuous
370
     0
100
AcDbVertex
100
AcDb2dVertex
 10
-29.33203244581057
 20
-93.58436317791959
 30
0.0
  0
VERTEX
  5
6C
330
62
100
AcDbEntity
  8
0
  6
Continuous
370
     0
100
AcDbVertex
100
AcDb2dVertex
 10
-30.60367093296679
 20
-92.0919850536176
 30
0.0
  0
VERTEX
  5
6D
330
62
100
AcDbEntity
  8
0
  6
Continuous
370
     0
100
AcDbVertex
100
AcDb2dVertex
 10
-31.55972671432392
 20
-90.38019819455902
 30
0.0
  0
VERTEX
  5
6E
330
62
100
AcDbEntity
  8
0
  6
Continuous
370
     0
100
AcDbVertex
100
AcDb2dVertex
 10
-32.16345910236669
 20
-88.51478560975639
 30
0.0
  0
VERTEX
  5
6F
330
62
100
AcDbEntity
  8
0
  6
Continuous
370
     0
100
AcDbVertex
100
AcDb2dVertex
 10
-32.39166699999965
 20
-86.56743405870813
 30
0.0
  0
VERTEX
  5
70
330
62
100
AcDbEntity
  8
0
  6
Continuous
370
     0
100
AcDbVertex
100
AcDb2dVertex
 10
-32.23558050569727
 20
-84.61297916943378
 30
0.0
  0
VERTEX
  5
71
330
62
100
AcDbEntity
  8
0
  6
Continuous
370
     0
100
AcDbVertex
100
AcDb2dVertex
 10
-31.70119793590118
 20
-82.72652954725723
 30
0.0
  0
VERTEX
  5
72
330
62
100
AcDbEntity
  8
0
  6
Continuous
370
     0
100
AcDbVertex
100
AcDb2dVertex
 10
-30.80905531308349
 20
-80.98058039322555
 30
0.0
  0
VERTEX
  5
73
330
62
100
AcDbEntity
  8
0
  6
Continuous
370
     0
100
AcDbVertex
100
AcDb2dVertex
 10
-29.59343717791967
 20
-79.44222755418863
 30
0.0
  0
VERTEX
  5
74
330
62
100
AcDbEntity
  8
0
  6
Continuous
370
     0
100
AcDbVertex
100
AcDb2dVertex
 10
-28.10105905361775
 20
-78.17058906703241
 30
0.0
  0
VERTEX
  5
75
330
62
100
AcDbEntity
  8
0
  6
Continuous
370
     0
100
AcDbVertex
100
AcDb2dVertex
 10
-26.38927219455911
 20
-77.21453328567529
 30
0.0
  0
VERTEX
  5
76
330
62
100
AcDbEntity
  8
0
  6
Continuous
370
     0
100
AcDbVertex
100
AcDb2dVertex
 10
-24.52385960975653
 20
-76.61080089763252
 30
0.0
  0
VERTEX
  5
77
330
62
100
AcDbEntity
  8
0
  6
Continuous
370
     0
100
AcDbVertex
100
AcDb2dVertex
 10
-22.57650805870822
 20
-76.38259299999956
 30
0.0
  0
VERTEX
  5
78
330
62
100
AcDbEntity
  8
0
  6
Continuous
370
     0
100
AcDbVertex
100
AcDb2dVertex
 10
-20.62205316943391
 20
-76.53867949430199
 30
0.0
  0
VERTEX
  5
79
330
62
100
AcDbEntity
  8
0
  6
Continuous
370
     0
100
AcDbVertex
100
AcDb2dVertex
 10
-18.73560354725737
 20
-77.07306206409808
 30
0.0
  0
VERTEX
  5
7A
330
62
100
AcDbEntity
  8
0
  6
Continuous
370
     0
100
AcDbVertex
100
AcDb2dVertex
 10
-16.98965439322569
 20
-77.96520468691577
 30
0.0
  0
VERTEX
  5
7B
330
62
100
AcDbEntity
  8
0
  6
Continuous
370
     0
100
AcDbVertex
100
AcDb2dVertex
 10
-15.45130155418872
 20
-79.18082282207953
 30
0.0
  0
VERTEX
  5
7C
330
62
100
AcDbEntity
  8
0
  6
Continuous
370
     0
100
AcDbVertex
100
AcDb2dVertex
 10
-14.17966306703249
 20
-80.67320094638152
 30
0.0
  0
VERTEX
  5
7D
330
62
100
AcDbEntity
  8
0
  6
Continuous
370
     0
100
AcDbVertex
100
AcDb2dVertex
 10
-13.22360728567537
 20
-82.38498780544009
 30
0.0
  0
VERTEX
  5
7E
330
62
100
AcDbEntity
  8
0
  6
Continuous
370
     0
100
AcDbVertex
100
AcDb2dVertex
 10
-12.6198748976326
 20
-84.25040039024272
 30
0.0
  0
VERTEX
  5
7F
330
62
100
AcDbEntity
  8
0
  6
Continuous
370
     0
100
AcDbVertex
100
AcDb2dVertex
 10
-12.39166699999964
 20
-86.19775194129099
 30
0.0
  0
VERTEX
  5
80
330
62
100
AcDbEntity
  8
0
  6
Continuous
370
     0
100
AcDbVertex
100
AcDb2dVertex
 10
-12.54775349430213
 20
-88.15220683056528
 30
0.0
  0
VERTEX
  5
81
330
62
100
AcDbEntity
  8
0
  6
Continuous
370
     0
100
AcDbVertex
100
AcDb2dVertex
 10
-13.08213606409822
 20
-90.03865645274188
 30
0.0
  0
VERTEX
  5
82
330
62
100
AcDbEntity
  8
0
  6
Continuous
370
     0
100
AcDbVertex
100
AcDb2dVertex
 10
-13.97427868691591
 20
-91.78460560677356
 30
0.0
  0
SEQEND
  5
83
330
62
100
AcDbEntity
  8
0
  6
Continuous
370
     0
  0
SPLINE
  5
85
330
A
100
AcDbEntity
  8
0
  6
Continuous
370
     0
100
AcDbSpline
210
0.0
220
0.0
230
1.0
 70
     8
 71
     2
 72
     9
 73
     6
 74
     0
 42
0.0000000001
 43
0.0000000001
 40
0.0
 40
0.0
 40
0.0
 40
1.0
 40
2.0
 40
2.0
 40
3.0
 40
3.0
 40
3.0
 10
-216.0
 20
110.7722830121945
 30
0.0
 10
-250.7645752134111
 20
110.7722830121945
 30
0.0
 10
-310.9785857865889
 20
80.97432989037276
 30
0.0
 10
-328.3608733932944
 20
55.1685455060973
 30
0.0
 10
-345.6161667653869
 20
29.55129705625245
 30
0.0
 10
-345.7422331856645
 20
-0.0000000000020179
 30
0.0
  0
ENDSEC
  0
SECTION
  2
OBJECTS
  0
DICTIONARY
  5
19
330
0
100
AcDbDictionary
281
     1
  3
ACAD_COLOR
350
88
  3
ACAD_GROUP
350
1A
  3
ACAD_LAYOUT
350
1E
  3
ACAD_MATERIAL
350
87
  3
ACAD_MLINESTYLE
350
1B
  3
ACAD_PLOTSETTINGS
350
22
  3
ACAD_PLOTSTYLENAME
350
1F
  3
ACAD_WIPEOUT_VARS
350
23
  3
AcmDictionary
350
14B
  3
AMG
350
8C
  3
AMGSNAPSETTINGS
350
18F
  3
ASE_INDEX_DICTIONARY
350
1EA
  3
MAPISURF_MODULE
350
119
  0
DICTIONARY
  5
1ED
330
A
100
AcDbDictionary
280
     1
281
     1
  3
ACAD_INDEX
360
1EE
  0
DICTIONARY
  5
88
102
{ACAD_REACTORS
330
19
102
}
330
19
100
AcDbDictionary
281
     1
  0
DICTIONARY
  5
1A
102
{ACAD_REACTORS
330
19
102
}
330
19
100
AcDbDictionary
281
     1
  0
DICTIONARY
  5
1E
102
{ACAD_REACTORS
330
19
102
}
330
19
100
AcDbDictionary
281
     1
  3
Layout1
350
21
  3
Model
350
20
  0
DICTIONARY
  5
87
102
{ACAD_REACTORS
330
19
102
}
330
19
100
AcDbDictionary
281
     1
  0
DICTIONARY
  5
1B
102
{ACAD_REACTORS
330
19
102
}
330
19
100
AcDbDictionary
281
     1
  3
Standard
350
1C
  0
DICTIONARY
  5
22
102
{ACAD_REACTORS
330
19
102
}
330
19
100
AcDbDictionary
281
     1
  0
ACDBDICTIONARYWDFLT
  5
1F
102
{ACAD_REACTORS
330
19
102
}
330
19
100
AcDbDictionary
281
     1
  3
Normal
350
1D
100
AcDbDictionaryWithDefault
340
1D
  0
WIPEOUTVARIABLES
  5
23
330
19
100
AcDbWipeoutVariables
 70
     0
  0
DICTIONARY
  5
14B
102
{ACAD_REACTORS
330
19
102
}
330
19
100
AcDbDictionary
281
     1
  3
AcmBOMDATA
350
14C
  3
AcmStdDictionary
350
158
  0
DICTIONARY
  5
8C
102
{ACAD_REACTORS
330
19
102
}
330
19
100
AcDbDictionary
281
     1
  3
AcMgSettings
350
8D
  3
AMGLAYCFG
350
15A
  0
DICTIONARY
  5
18F
102
{ACAD_REACTORS
330
19
102
}
330
19
100
AcDbDictionary
281
     1
  3
DIMENSION
350
194
  3
FEA
350
193
  3
HATCH (1)
350
190
  3
HATCH (2)
350
191
  3
SIMPLE WELD
350
195
  3
SYMBOLS
350
192
  0
DICTIONARY
  5
1EA
102
{ACAD_REACTORS
330
19
102
}
330
19
100
AcDbDictionary
281
     1
  3
ASEBlockHierarchyIndexRecord
350
1EC
1001
DCO15
1040
1614129743.703
  0
DICTIONARY
  5
1EE
102
{ACAD_REACTORS
330
1ED
102
}
330
1ED
100
AcDbDictionary
281
     1
  3
*A1
350
1EF
  0
LAYOUT
  5
21
102
{ACAD_REACTORS
330
1E
102
}
330
1E
100
AcDbPlotSettings
  1

  2

  4

  6

 40
0.0
 41
0.0
 42
0.0
 43
0.0
 44
0.0
 45
0.0
 46
0.0
 47
0.0
 48
0.0
 49
0.0
140
0.0
141
0.0
142
1.0
143
1.0
 70
     0
 72
     0
 73
     0
 74
     0
  7

 75
     0
147
1.0
 76
     0
 77
     2
 78
   300
148
0.0
149
0.0
100
AcDbLayout
  1
Layout1
 70
     0
 71
     1
 10
0.0
 20
0.0
 11
12.0
 21
9.0
 12
0.0
 22
0.0
 32
0.0
 14
1.000000000000000E+20
 24
1.000000000000000E+20
 34
1.000000000000000E+20
 15
-1.000000000000000E+20
 25
-1.000000000000000E+20
 35
-1.000000000000000E+20
146
0.0
 13
0.0
 23
0.0
 33
0.0
 16
1.0
 26
0.0
 36
0.0
 17
0.0
 27
1.0
 37
0.0
 76
     0
330
B
  0
LAYOUT
  5
20
102
{ACAD_REACTORS
330
1E
102
}
330
1E
100
AcDbPlotSettings
  1

  2

  4

  6

 40
0.0
 41
0.0
 42
0.0
 43
0.0
 44
0.0
 45
0.0
 46
0.0
 47
0.0
 48
0.0
 49
0.0
140
0.0
141
0.0
142
1.0
143
1.0
 70
  1024
 72
     0
 73
     0
 74
     0
  7
010609d.ctb
 75
     0
147
1.0
 76
     0
 77
     2
 78
   300
148
0.0
149
0.0
100
AcDbLayout
  1
Model
 70
     0
 71
     0
 10
0.0
 20
0.0
 11
0.0
 21
0.0
 12
0.0
 22
0.0
 32
0.0
 14
0.0
 24
0.0
 34
0.0
 15
0.0
 25
0.0
 35
0.0
146
0.0
 13
0.0
 23
0.0
 33
0.0
 16
0.0
 26
0.0
 36
0.0
 17
0.0
 27
0.0
 37
0.0
 76
     0
330
A
  0
MLINESTYLE
  5
1C
102
{ACAD_REACTORS
330
1B
102
}
330
1B
100
AcDbMlineStyle
  2
STANDARD
 70
     0
  3

 62
     0
 51
90.0
 52
90.0
 71
     2
 49
0.5
 62
   256
  6
BYLAYER
 49
-0.5
 62
   256
  6
BYLAYER
  0
ACDBPLACEHOLDER
  5
1D
102
{ACAD_REACTORS
330
1F
102
}
330
1F
  0
ACMDATADICTIONARY
  5
14C
102
{ACAD_REACTORS
330
14B
102
}
330
14B
100
AcDbDictionary
281
     1
100
AcmDataDictionary
  0
DICTIONARY
  5
158
102
{ACAD_REACTORS
330
14B
102
}
330
14B
100
AcDbDictionary
281
     1
  3
DIN
350
159
  0
DICTIONARY
  5
8D
102
{ACAD_REACTORS
330
8C
102
}
330
8C
100
AcDbDictionary
281
     1
  3
DWGSETTINGS
350
8E
  3
TRANSSETTINGS
350
92
  0
ACAMGFILTERDAT
  5
194
102
{ACAD_REACTORS
330
18F
102
}
330
18F
100
AcAmgFilterDat
 70
    15
  1
DIMENSION,AMDT_*_DIM
  2
*
  3
*
  4
*
  5
*
290
     1
  0
ACAMGFILTERDAT
  5
193
102
{ACAD_REACTORS
330
18F
102
}
330
18F
100
AcAmgFilterDat
 70
    15
  1
*
  2
AM_FEA-AM_*
  3
*
  4
*
  5
*
290
     1
  0
ACAMGFILTERDAT
  5
190
102
{ACAD_REACTORS
330
18F
102
}
330
18F
100
AcAmgFilterDat
 70
    15
  1
HATCH
  2
*
  3
*
  4
*
  5
*
290
     1
  0
ACAMGFILTERDAT
  5
191
102
{ACAD_REACTORS
330
18F
102
}
330
18F
100
AcAmgFilterDat
 70
    15
  1
LINE
  2
8,8N,*-8,*-8N,AM_8,AM_8N,*-AM_8,*-AM_8N
  3
*
  4
*
  5
INSERT,STDPART2D
290
     1
  0
ACAMGFILTERDAT
  5
195
102
{ACAD_REACTORS
330
18F
102
}
330
18F
100
AcAmgFilterDat
 70
    15
  1
ARC
  2
AM_5
  3
*
  4
2
  5
INSERT
290
     0
  0
ACAMGFILTERDAT
  5
192
102
{ACAD_REACTORS
330
18F
102
}
330
18F
100
AcAmgFilterDat
 70
    15
  1
ACMFCFRAME,ACMDATUMTARGET,ACMDATUMID,ACMWELDSYM,ACMSURFSYM,ACMFEATID,ACMPARTREF,ACMBALLOON,AMDTEDGESYM,AMGSCREWCALCTABLE
  2
*
  3
*
  4
*
  5
*
290
     1
  0
XRECORD
  5
1EC
102
{ACAD_REACTORS
330
1EA
102
}
330
1EA
100
AcDbXrecord
280
     1
  0
LAYER_INDEX
  5
1EF
102
{ACAD_REACTORS
330
1EE
102
}
330
1EE
100
AcDbIndex
 40
2454485.269070637
100
AcDbLayerIndex
  8
0
360
1F0
 90
       16
  0
IDBUFFER
  5
1F0
330
0
100
AcDbIdBuffer
330
32
330
33
330
34
330
35
330
36
330
37
330
38
330
5B
330
5C
330
5D
330
5E
330
5F
330
60
330
61
330
62
330
85
  0
ENDSEC
  0
EOF
