  0
SECTION
  2
HEADER
  9
$ACADVER
  1
AC1021
  9
$ACADMAINTVER
 70
    25
  9
$DWGCODEPAGE
  3
UNDEFINED
  9
$INSBASE
 10
0.0
 20
0.0
 30
0.0
  9
$EXTMIN
 10
1.000000000000000E+20
 20
1.000000000000000E+20
 30
1.000000000000000E+20
  9
$EXTMAX
 10
-1.000000000000000E+20
 20
-1.000000000000000E+20
 30
-1.000000000000000E+20
  9
$LIMMIN
 10
0.0
 20
0.0
  9
$LIMMAX
 10
12.0
 20
9.0
  9
$ORTHOMODE
 70
     0
  9
$REGENMODE
 70
     1
  9
$FILLMODE
 70
     1
  9
$QTEXTMODE
 70
     0
  9
$MIRRTEXT
 70
     1
  9
$LTSCALE
 40
1.0
  9
$ATTMODE
 70
     1
  9
$TEXTSIZE
 40
0.2
  9
$TRACEWID
 40
0.05
  9
$TEXTSTYLE
  7
Standard
  9
$CLAYER
  8
0
  9
$CELTYPE
  6
ByLayer
  9
$CECOLOR
 62
   256
  9
$CELTSCALE
 40
1.0
  9
$DISPSILH
 70
     0
  9
$DIMSCALE
 40
1.0
  9
$DIMASZ
 40
0.18
  9
$DIMEXO
 40
0.0625
  9
$DIMDLI
 40
0.38
  9
$DIMRND
 40
0.0
  9
$DIMDLE
 40
0.0
  9
$DIMEXE
 40
0.18
  9
$DIMTP
 40
0.0
  9
$DIMTM
 40
0.0
  9
$DIMTXT
 40
0.18
  9
$DIMCEN
 40
0.09
  9
$DIMTSZ
 40
0.0
  9
$DIMTOL
 70
     0
  9
$DIMLIM
 70
     0
  9
$DIMTIH
 70
     1
  9
$DIMTOH
 70
     1
  9
$DIMSE1
 70
     0
  9
$DIMSE2
 70
     0
  9
$DIMTAD
 70
     0
  9
$DIMZIN
 70
     0
  9
$DIMBLK
  1

  9
$DIMASO
 70
     1
  9
$DIMSHO
 70
     1
  9
$DIMPOST
  1

  9
$DIMAPOST
  1

  9
$DIMALT
 70
     0
  9
$DIMALTD
 70
     2
  9
$DIMALTF
 40
25.4
  9
$DIMLFAC
 40
1.0
  9
$DIMTOFL
 70
     0
  9
$DIMTVP
 40
0.0
  9
$DIMTIX
 70
     0
  9
$DIMSOXD
 70
     0
  9
$DIMSAH
 70
     0
  9
$DIMBLK1
  1

  9
$DIMBLK2
  1

  9
$DIMSTYLE
  2
Standard
  9
$DIMCLRD
 70
     0
  9
$DIMCLRE
 70
     0
  9
$DIMCLRT
 70
     0
  9
$DIMTFAC
 40
1.0
  9
$DIMGAP
 40
0.09
  9
$DIMJUST
 70
     0
  9
$DIMSD1
 70
     0
  9
$DIMSD2
 70
     0
  9
$DIMTOLJ
 70
     1
  9
$DIMTZIN
 70
     0
  9
$DIMALTZ
 70
     0
  9
$DIMALTTZ
 70
     0
  9
$DIMUPT
 70
     0
  9
$DIMDEC
 70
     4
  9
$DIMTDEC
 70
     4
  9
$DIMALTU
 70
     2
  9
$DIMALTTD
 70
     2
  9
$DIMTXSTY
  7
Standard
  9
$DIMAUNIT
 70
     0
  9
$DIMADEC
 70
     0
  9
$DIMALTRND
 40
0.0
  9
$DIMAZIN
 70
     0
  9
$DIMDSEP
 70
    46
  9
$DIMATFIT
 70
     3
  9
$DIMFRAC
 70
     0
  9
$DIMLDRBLK
  1

  9
$DIMLUNIT
 70
     2
  9
$DIMLWD
 70
    -2
  9
$DIMLWE
 70
    -2
  9
$DIMTMOVE
 70
     0
  9
$DIMFXL
 40
1.0
  9
$DIMFXLON
 70
     0
  9
$DIMJOGANG
 40
0.7853981633974483
  9
$DIMTFILL
 70
     0
  9
$DIMTFILLCLR
 70
     0
  9
$DIMARCSYM
 70
     0
  9
$DIMLTYPE
  6

  9
$DIMLTEX1
  6

  9
$DIMLTEX2
  6

  9
$LUNITS
 70
     2
  9
$LUPREC
 70
     4
  9
$SKETCHINC
 40
0.1
  9
$FILLETRAD
 40
0.5
  9
$AUNITS
 70
     0
  9
$AUPREC
 70
     0
  9
$MENU
  1
.
  9
$ELEVATION
 40
0.0
  9
$PELEVATION
 40
0.0
  9
$THICKNESS
 40
0.0
  9
$LIMCHECK
 70
     0
  9
$CHAMFERA
 40
0.5
  9
$CHAMFERB
 40
0.5
  9
$CHAMFERC
 40
1.0
  9
$CHAMFERD
 40
0.0
  9
$SKPOLY
 70
     0
  9
$TDCREATE
 40
2459380.35247684
  9
$TDUCREATE
 40
2459380.310810185
  9
$TDUPDATE
 40
2459380.35247684
  9
$TDUUPDATE
 40
2459380.310810185
  9
$TDINDWG
 40
0.0000000116
  9
$TDUSRTIMER
 40
0.0000000116
  9
$USRTIMER
 70
     1
  9
$ANGBASE
 50
0.0
  9
$ANGDIR
 70
     0
  9
$PDMODE
 70
     0
  9
$PDSIZE
 40
0.0
  9
$PLINEWID
 40
0.0
  9
$SPLFRAME
 70
     0
  9
$SPLINETYPE
 70
     6
  9
$SPLINESEGS
 70
     8
  9
$HANDSEED
  5
11E
  9
$SURFTAB1
 70
     6
  9
$SURFTAB2
 70
     6
  9
$SURFTYPE
 70
     6
  9
$SURFU
 70
     6
  9
$SURFV
 70
     6
  9
$UCSBASE
  2

  9
$UCSNAME
  2

  9
$UCSORG
 10
0.0
 20
0.0
 30
0.0
  9
$UCSXDIR
 10
1.0
 20
0.0
 30
0.0
  9
$UCSYDIR
 10
0.0
 20
1.0
 30
0.0
  9
$UCSORTHOREF
  2

  9
$UCSORTHOVIEW
 70
     0
  9
$UCSORGTOP
 10
0.0
 20
0.0
 30
0.0
  9
$UCSORGBOTTOM
 10
0.0
 20
0.0
 30
0.0
  9
$UCSORGLEFT
 10
0.0
 20
0.0
 30
0.0
  9
$UCSORGRIGHT
 10
0.0
 20
0.0
 30
0.0
  9
$UCSORGFRONT
 10
0.0
 20
0.0
 30
0.0
  9
$UCSORGBACK
 10
0.0
 20
0.0
 30
0.0
  9
$PUCSBASE
  2

  9
$PUCSNAME
  2

  9
$PUCSORG
 10
0.0
 20
0.0
 30
0.0
  9
$PUCSXDIR
 10
1.0
 20
0.0
 30
0.0
  9
$PUCSYDIR
 10
0.0
 20
1.0
 30
0.0
  9
$PUCSORTHOREF
  2

  9
$PUCSORTHOVIEW
 70
     0
  9
$PUCSORGTOP
 10
0.0
 20
0.0
 30
0.0
  9
$PUCSORGBOTTOM
 10
0.0
 20
0.0
 30
0.0
  9
$PUCSORGLEFT
 10
0.0
 20
0.0
 30
0.0
  9
$PUCSORGRIGHT
 10
0.0
 20
0.0
 30
0.0
  9
$PUCSORGFRONT
 10
0.0
 20
0.0
 30
0.0
  9
$PUCSORGBACK
 10
0.0
 20
0.0
 30
0.0
  9
$USERI1
 70
     0
  9
$USERI2
 70
     0
  9
$USERI3
 70
     0
  9
$USERI4
 70
     0
  9
$USERI5
 70
     0
  9
$USERR1
 40
0.0
  9
$USERR2
 40
0.0
  9
$USERR3
 40
0.0
  9
$USERR4
 40
0.0
  9
$USERR5
 40
0.0
  9
$WORLDVIEW
 70
     1
  9
$SHADEDGE
 70
     3
  9
$SHADEDIF
 70
    70
  9
$TILEMODE
 70
     1
  9
$MAXACTVP
 70
    64
  9
$PINSBASE
 10
0.0
 20
0.0
 30
0.0
  9
$PLIMCHECK
 70
     0
  9
$PEXTMIN
 10
1.000000000000000E+20
 20
1.000000000000000E+20
 30
1.000000000000000E+20
  9
$PEXTMAX
 10
-1.000000000000000E+20
 20
-1.000000000000000E+20
 30
-1.000000000000000E+20
  9
$PLIMMIN
 10
0.0
 20
0.0
  9
$PLIMMAX
 10
12.0
 20
9.0
  9
$UNITMODE
 70
     0
  9
$VISRETAIN
 70
     1
  9
$PLINEGEN
 70
     0
  9
$PSLTSCALE
 70
     1
  9
$TREEDEPTH
 70
  3020
  9
$CMLSTYLE
  2
Standard
  9
$CMLJUST
 70
     0
  9
$CMLSCALE
 40
1.0
  9
$PROXYGRAPHICS
 70
     1
  9
$MEASUREMENT
 70
     0
  9
$CELWEIGHT
370
    -1
  9
$ENDCAPS
280
     0
  9
$JOINSTYLE
280
     0
  9
$LWDISPLAY
290
     1
  9
$INSUNITS
 70
     1
  9
$HYPERLINKBASE
  1

  9
$STYLESHEET
  1

  9
$XEDIT
290
     1
  9
$CEPSNTYPE
380
     0
  9
$PSTYLEMODE
290
     1
  9
$FINGERPRINTGUID
  2
{33B3989F-B29D-45B1-C64D-ECEC279DE5E4}
  9
$VERSIONGUID
  2
{FAEB1C32-E019-11D5-929B-00C0DF256EC4}
  9
$EXTNAMES
290
     1
  9
$PSVPSCALE
 40
0.0
  9
$OLESTARTUP
290
     0
  9
$SORTENTS
280
   127
  9
$INDEXCTL
280
     0
  9
$HIDETEXT
280
     1
  9
$XCLIPFRAME
290
     0
  9
$HALOGAP
280
     0
  9
$OBSCOLOR
 70
   257
  9
$OBSLTYPE
280
     0
  9
$INTERSECTIONDISPLAY
280
     0
  9
$INTERSECTIONCOLOR
 70
   257
  9
$DIMASSOC
280
     2
  9
$PROJECTNAME
  1

  9
$CAMERADISPLAY
290
     0
  9
$LENSLENGTH
 40
50.0
  9
$CAMERAHEIGHT
 40
0.0
  9
$STEPSPERSEC
 40
2.0
  9
$STEPSIZE
 40
6.0
  9
$3DDWFPREC
 40
2.0
  9
$PSOLWIDTH
 40
0.25
  9
$PSOLHEIGHT
 40
4.0
  9
$LOFTANG1
 40
1.570796326794897
  9
$LOFTANG2
 40
1.570796326794897
  9
$LOFTMAG1
 40
0.0
  9
$LOFTMAG2
 40
0.0
  9
$LOFTPARAM
 70
     7
  9
$LOFTNORMALS
280
     1
  9
$LATITUDE
 40
37.795
  9
$LONGITUDE
 40
-122.394
  9
$NORTHDIRECTION
 40
0.0
  9
$TIMEZONE
 70
 -8000
  9
$LIGHTGLYPHDISPLAY
280
     1
  9
$TILEMODELIGHTSYNCH
280
     1
  9
$CMATERIAL
347
3C
  9
$SOLIDHIST
280
     1
  9
$SHOWHIST
280
     1
  9
$DWFFRAME
280
     2
  9
$DGNFRAME
280
     2
  9
$REALWORLDSCALE
290
     1
  9
$INTERFERECOLOR
 62
   256
  9
$CSHADOW
280
     0
  9
$SHADOWPLANELOCATION
 40
0.0
  0
ENDSEC
  0
SECTION
  2
CLASSES
  0
CLASS
  1
ACDBDICTIONARYWDFLT
  2
AcDbDictionaryWithDefault
  3
ObjectDBX Classes
 90
        0
 91
        4
280
     0
281
     0
  0
CLASS
  1
VISUALSTYLE
  2
AcDbVisualStyle
  3
ObjectDBX Classes
 90
     4095
 91
        4
280
     0
281
     0
  0
CLASS
  1
MATERIAL
  2
AcDbMaterial
  3
ObjectDBX Classes
 90
     1153
 91
        4
280
     0
281
     0
  0
CLASS
  1
SUN
  2
AcDbSun
  3
SCENEOE
 90
     1024
 91
        4
280
     0
281
     0
  0
ENDSEC
  0
SECTION
  2
TABLES
  0
TABLE
  2
VPORT
  5
8
330
0
100
AcDbSymbolTable
 70
     1
  0
VPORT
  5
29
330
8
100
AcDbSymbolTableRecord
100
AcDbViewportTableRecord
  2
*Active
 70
     0
 10
0.0
 20
0.0
 11
1.0
 21
1.0
 12
0.0
 22
0.0
 13
0.0
 23
0.0
 14
0.5
 24
0.5
 15
0.5
 25
0.5
 16
0.0
 26
0.0
 36
1.0
 17
105.0007777515277
 27
-148.5000416295416
 37
0.0
 40
297.0000832590831
 41
0.7070757462376333
 42
50.0
 43
0.0
 44
0.0
 50
0.0
 51
0.0
 71
     0
 72
   100
 73
     1
 74
     3
 75
     0
 76
     0
 77
     0
 78
     0
281
     0
 65
     1
110
0.0
120
0.0
130
0.0
111
1.0
121
0.0
131
0.0
112
0.0
122
1.0
132
0.0
 79
     0
146
0.0
 60
     3
 61
     5
292
     1
282
     1
141
0.0
142
0.0
 63
   250
361
3F
  0
ENDTAB
  0
TABLE
  2
LTYPE
  5
5
330
0
100
AcDbSymbolTable
 70
    11
  0
LTYPE
  5
14
330
5
100
AcDbSymbolTableRecord
100
AcDbLinetypeTableRecord
  2
ByBlock
 70
     0
  3

 72
    65
 73
     0
 40
0.0
  0
LTYPE
  5
15
330
5
100
AcDbSymbolTableRecord
100
AcDbLinetypeTableRecord
  2
ByLayer
 70
     0
  3

 72
    65
 73
     0
 40
0.0
  0
LTYPE
  5
16
330
5
100
AcDbSymbolTableRecord
100
AcDbLinetypeTableRecord
  2
Continuous
 70
     0
  3
Solid line
 72
    65
 73
     0
 40
0.0
  0
LTYPE
  5
9C
330
5
100
AcDbSymbolTableRecord
100
AcDbLinetypeTableRecord
  2
AI-Linetype-1
 70
     0
  3
Adobe Illustrator Linetype No. 1
 72
    65
 73
     2
 40
8.794681472698926
 49
4.397340736349463
 74
     0
 49
-4.397340736349463
 74
     0
  0
LTYPE
  5
A1
330
5
100
AcDbSymbolTableRecord
100
AcDbLinetypeTableRecord
  2
AI-Linetype-2
 70
     0
  3
Adobe Illustrator Linetype No. 2
 72
    65
 73
     4
 40
39.57626175950664
 49
26.38423955045825
 74
     0
 49
-4.397340736349463
 74
     0
 49
4.397340736349463
 74
     0
 49
-4.397340736349463
 74
     0
  0
LTYPE
  5
B6
330
5
100
AcDbSymbolTableRecord
100
AcDbLinetypeTableRecord
  2
AI-Linetype-3
 70
     0
  3
Adobe Illustrator Linetype No. 3
 72
    65
 73
     2
 40
8.776308078691068
 49
4.388154039345534
 74
     0
 49
-4.388154039345534
 74
     0
  0
LTYPE
  5
BB
330
5
100
AcDbSymbolTableRecord
100
AcDbLinetypeTableRecord
  2
AI-Linetype-4
 70
     0
  3
Adobe Illustrator Linetype No. 4
 72
    65
 73
     4
 40
39.49358014073086
 49
26.32911802269425
 74
     0
 49
-4.388154039345534
 74
     0
 49
4.388154039345534
 74
     0
 49
-4.388154039345534
 74
     0
  0
LTYPE
  5
D7
330
5
100
AcDbSymbolTableRecord
100
AcDbLinetypeTableRecord
  2
AI-Linetype-5
 70
     0
  3
Adobe Illustrator Linetype No. 5
 72
    65
 73
     2
 40
9.583223457059896
 49
4.791611728529948
 74
     0
 49
-4.791611728529948
 74
     0
  0
LTYPE
  5
DC
330
5
100
AcDbSymbolTableRecord
100
AcDbLinetypeTableRecord
  2
AI-Linetype-6
 70
     0
  3
Adobe Illustrator Linetype No. 6
 72
    65
 73
     4
 40
43.12471952949694
 49
28.74988434390709
 74
     0
 49
-4.791611728529948
 74
     0
 49
4.791611728529948
 74
     0
 49
-4.791611728529948
 74
     0
  0
LTYPE
  5
ED
330
5
100
AcDbSymbolTableRecord
100
AcDbLinetypeTableRecord
  2
AI-Linetype-7
 70
     0
  3
Adobe Illustrator Linetype No. 7
 72
    65
 73
     2
 40
9.583223457059896
 49
4.791611728529948
 74
     0
 49
-4.791611728529948
 74
     0
  0
LTYPE
  5
F2
330
5
100
AcDbSymbolTableRecord
100
AcDbLinetypeTableRecord
  2
AI-Linetype-8
 70
     0
  3
Adobe Illustrator Linetype No. 8
 72
    65
 73
     4
 40
43.12471952949694
 49
28.74988434390709
 74
     0
 49
-4.791611728529948
 74
     0
 49
4.791611728529948
 74
     0
 49
-4.791611728529948
 74
     0
  0
LTYPE
  5
F9
330
5
100
AcDbSymbolTableRecord
100
AcDbLinetypeTableRecord
  2
AI-Linetype-9
 70
     0
  3
Adobe Illustrator Linetype No. 9
 72
    65
 73
     2
 40
7.270862246391072
 49
3.635375106750391
 74
     0
 49
-3.635487139640682
 74
     0
  0
LTYPE
  5
FB
330
5
100
AcDbSymbolTableRecord
100
AcDbLinetypeTableRecord
  2
AI-Linetype-10
 70
     0
  3
Adobe Illustrator Linetype No. 10
 72
    65
 73
     2
 40
7.270862246391072
 49
3.635375106750391
 74
     0
 49
-3.635487139640682
 74
     0
  0
ENDTAB
  0
TABLE
  2
LAYER
  5
2
330
0
100
AcDbSymbolTable
 70
     1
  0
LAYER
  5
10
330
2
100
AcDbSymbolTableRecord
100
AcDbLayerTableRecord
  2
0
 70
     0
 62
     7
  6
Continuous
370
    -3
390
F
347
3E
  0
ENDTAB
  0
TABLE
  2
STYLE
  5
3
330
0
100
AcDbSymbolTable
 70
     1
  0
STYLE
  5
11
330
3
100
AcDbSymbolTableRecord
100
AcDbTextStyleTableRecord
  2
Standard
 70
     0
 40
0.0
 41
1.0
 50
0.0
 71
     0
 42
0.2
  3
txt
  4

  0
ENDTAB
  0
TABLE
  2
VIEW
  5
6
330
0
100
AcDbSymbolTable
 70
     0
  0
ENDTAB
  0
TABLE
  2
UCS
  5
7
330
0
100
AcDbSymbolTable
 70
     0
  0
ENDTAB
  0
TABLE
  2
APPID
  5
9
330
0
100
AcDbSymbolTable
 70
     1
  0
APPID
  5
12
330
9
100
AcDbSymbolTableRecord
100
AcDbRegAppTableRecord
  2
ACAD
 70
     0
  0
ENDTAB
  0
TABLE
  2
DIMSTYLE
  5
A
330
0
100
AcDbSymbolTable
 70
     1
100
AcDbDimStyleTable
  0
DIMSTYLE
105
27
330
A
100
AcDbSymbolTableRecord
100
AcDbDimStyleTableRecord
  2
Standard
 70
     0
178
     0
340
11
  0
ENDTAB
  0
TABLE
  2
BLOCK_RECORD
  5
1
330
0
100
AcDbSymbolTable
 70
     9
  0
BLOCK_RECORD
  5
1F
330
1
100
AcDbSymbolTableRecord
100
AcDbBlockTableRecord
  2
*Model_Space
340
22
 70
     0
280
     1
281
     0
  0
BLOCK_RECORD
  5
1B
330
1
100
AcDbSymbolTableRecord
100
AcDbBlockTableRecord
  2
*Paper_Space
340
1E
 70
     0
280
     1
281
     0
  0
BLOCK_RECORD
  5
23
330
1
100
AcDbSymbolTableRecord
100
AcDbBlockTableRecord
  2
*Paper_Space0
340
26
 70
     0
280
     1
281
     0
  0
BLOCK_RECORD
  5
8D
330
1
100
AcDbSymbolTableRecord
100
AcDbBlockTableRecord
  2
block 2
340
0
102
{BLKREFS
331
8E
102
}
 70
     0
280
     1
281
     0
  0
BLOCK_RECORD
  5
91
330
1
100
AcDbSymbolTableRecord
100
AcDbBlockTableRecord
  2
block 3
340
0
102
{BLKREFS
331
92
102
}
 70
     0
280
     1
281
     0
  0
BLOCK_RECORD
  5
A7
330
1
100
AcDbSymbolTableRecord
100
AcDbBlockTableRecord
  2
block 4
340
0
102
{BLKREFS
331
A8
102
}
 70
     0
280
     1
281
     0
  0
BLOCK_RECORD
  5
AB
330
1
100
AcDbSymbolTableRecord
100
AcDbBlockTableRecord
  2
block 5
340
0
102
{BLKREFS
331
AC
102
}
 70
     0
280
     1
281
     0
  0
BLOCK_RECORD
  5
C4
330
1
100
AcDbSymbolTableRecord
100
AcDbBlockTableRecord
  2
block 6
340
0
102
{BLKREFS
331
C5
102
}
 70
     0
280
     1
281
     0
  0
BLOCK_RECORD
  5
C8
330
1
100
AcDbSymbolTableRecord
100
AcDbBlockTableRecord
  2
block 7
340
0
102
{BLKREFS
331
C9
102
}
 70
     0
280
     1
281
     0
  0
BLOCK_RECORD
  5
CC
330
1
100
AcDbSymbolTableRecord
100
AcDbBlockTableRecord
  2
block 8
340
0
102
{BLKREFS
331
CD
102
}
 70
     0
280
     1
281
     0
  0
BLOCK_RECORD
  5
E2
330
1
100
AcDbSymbolTableRecord
100
AcDbBlockTableRecord
  2
block 9
340
0
102
{BLKREFS
331
E3
102
}
 70
     0
280
     1
281
     0
  0
ENDTAB
  0
ENDSEC
  0
SECTION
  2
BLOCKS
  0
BLOCK
  5
20
330
1F
100
AcDbEntity
  8
0
100
AcDbBlockBegin
  2
*Model_Space
 70
     0
 10
0.0
 20
0.0
 30
0.0
  3
*Model_Space
  1

  0
ENDBLK
  5
21
330
1F
100
AcDbEntity
  8
0
100
AcDbBlockEnd
  0
BLOCK
  5
1C
330
1B
100
AcDbEntity
 67
     1
  8
0
100
AcDbBlockBegin
  2
*Paper_Space
 70
     0
 10
0.0
 20
0.0
 30
0.0
  3
*Paper_Space
  1

  0
ENDBLK
  5
1D
330
1B
100
AcDbEntity
 67
     1
  8
0
100
AcDbBlockEnd
  0
BLOCK
  5
24
330
23
100
AcDbEntity
  8
0
100
AcDbBlockBegin
  2
*Paper_Space0
 70
     0
 10
0.0
 20
0.0
 30
0.0
  3
*Paper_Space0
  1

  0
ENDBLK
  5
25
330
23
100
AcDbEntity
  8
0
100
AcDbBlockEnd
  0
BLOCK
  5
8F
330
8D
100
AcDbEntity
  8
0
100
AcDbBlockBegin
  2
block 2
 70
     0
 10
0.0
 20
0.0
 30
0.0
  3
block 2
  1

  0
INSERT
  5
92
330
8D
100
AcDbEntity
  8
0
100
AcDbBlockReference
  2
block 3
 10
0.0
 20
0.0
 30
0.0
  0
ENDBLK
  5
90
330
8D
100
AcDbEntity
  8
0
100
AcDbBlockEnd
  0
BLOCK
  5
93
330
91
100
AcDbEntity
  8
0
100
AcDbBlockBegin
  2
block 3
 70
     0
 10
0.0
 20
0.0
 30
0.0
  3
block 3
  1

  0
POLYLINE
  5
95
330
91
100
AcDbEntity
  8
0
 62
     4
370
    25
100
AcDb2dPolyline
 66
     1
 10
0.0
 20
0.0
 30
0.0
  0
VERTEX
  5
96
330
95
100
AcDbEntity
  8
0
 62
     4
370
    25
100
AcDbVertex
100
AcDb2dVertex
 10
61.65599647675994
 20
-196.8692709536581
 30
0.0
  0
VERTEX
  5
97
330
95
100
AcDbEntity
  8
0
 62
     4
370
    25
100
AcDbVertex
100
AcDb2dVertex
 10
72.90607959196228
 20
-196.8692709536581
 30
0.0
  0
SEQEND
  5
98
330
95
100
AcDbEntity
  8
0
 62
     4
370
    25
  0
POLYLINE
  5
99
330
91
100
AcDbEntity
  8
0
  6
AI-Linetype-1
 62
     4
370
    25
100
AcDb2dPolyline
 66
     1
 10
0.0
 20
0.0
 30
0.0
  0
VERTEX
  5
9A
330
99
100
AcDbEntity
  8
0
  6
AI-Linetype-1
 62
     4
370
    25
100
AcDbVertex
100
AcDb2dVertex
 10
77.30341561822027
 20
-196.8692709536581
 30
0.0
  0
VERTEX
  5
9B
330
99
100
AcDbEntity
  8
0
  6
AI-Linetype-1
 62
     4
370
    25
100
AcDbVertex
100
AcDb2dVertex
 10
83.89942773204977
 20
-196.8692709536581
 30
0.0
  0
SEQEND
  5
9D
330
99
100
AcDbEntity
  8
0
  6
AI-Linetype-1
 62
     4
370
    25
  0
POLYLINE
  5
9E
330
91
100
AcDbEntity
  8
0
  6
AI-Linetype-2
 62
     4
370
    25
100
AcDb2dPolyline
 66
     1
 10
0.0
 20
0.0
 30
0.0
  0
VERTEX
  5
9F
330
9E
100
AcDbEntity
  8
0
  6
AI-Linetype-2
 62
     4
370
    25
100
AcDbVertex
100
AcDb2dVertex
 10
86.09809843665961
 20
-196.8692709536581
 30
0.0
  0
VERTEX
  5
A0
330
9E
100
AcDbEntity
  8
0
  6
AI-Linetype-2
 62
     4
370
    25
100
AcDbVertex
100
AcDb2dVertex
 10
163.0519552882843
 20
-196.8692709536581
 30
0.0
  0
SEQEND
  5
A2
330
9E
100
AcDbEntity
  8
0
  6
AI-Linetype-2
 62
     4
370
    25
  0
POLYLINE
  5
A3
330
91
100
AcDbEntity
  8
0
 62
     4
370
    25
100
AcDb2dPolyline
 66
     1
 10
0.0
 20
0.0
 30
0.0
  0
VERTEX
  5
A4
330
A3
100
AcDbEntity
  8
0
 62
     4
370
    25
100
AcDbVertex
100
AcDb2dVertex
 10
165.2506259928942
 20
-196.8692709536581
 30
0.0
  0
VERTEX
  5
A5
330
A3
100
AcDbEntity
  8
0
 62
     4
370
    25
100
AcDbVertex
100
AcDb2dVertex
 10
176.5007144910582
 20
-196.8692709536581
 30
0.0
  0
SEQEND
  5
A6
330
A3
100
AcDbEntity
  8
0
 62
     4
370
    25
  0
ENDBLK
  5
94
330
91
100
AcDbEntity
  8
0
100
AcDbBlockEnd
  0
BLOCK
  5
A9
330
A7
100
AcDbEntity
  8
0
100
AcDbBlockBegin
  2
block 4
 70
     0
 10
0.0
 20
0.0
 30
0.0
  3
block 4
  1

  0
INSERT
  5
AC
330
A7
100
AcDbEntity
  8
0
100
AcDbBlockReference
  2
block 5
 10
0.0
 20
0.0
 30
0.0
  0
ENDBLK
  5
AA
330
A7
100
AcDbEntity
  8
0
100
AcDbBlockEnd
  0
BLOCK
  5
AD
330
AB
100
AcDbEntity
  8
0
100
AcDbBlockBegin
  2
block 5
 70
     0
 10
0.0
 20
0.0
 30
0.0
  3
block 5
  1

  0
POLYLINE
  5
AF
330
AB
100
AcDbEntity
  8
0
 62
     4
370
    25
100
AcDb2dPolyline
 66
     1
 10
0.0
 20
0.0
 30
0.0
  0
VERTEX
  5
B0
330
AF
100
AcDbEntity
  8
0
 62
     4
370
    25
100
AcDbVertex
100
AcDb2dVertex
 10
119.0783474094665
 20
-140.2634130339174
 30
0.0
  0
VERTEX
  5
B1
330
AF
100
AcDbEntity
  8
0
 62
     4
370
    25
100
AcDbVertex
100
AcDb2dVertex
 10
119.0783474094665
 20
-151.5134907661581
 30
0.0
  0
SEQEND
  5
B2
330
AF
100
AcDbEntity
  8
0
 62
     4
370
    25
  0
POLYLINE
  5
B3
330
AB
100
AcDbEntity
  8
0
  6
AI-Linetype-3
 62
     4
370
    25
100
AcDb2dPolyline
 66
     1
 10
0.0
 20
0.0
 30
0.0
  0
VERTEX
  5
B4
330
B3
100
AcDbEntity
  8
0
  6
AI-Linetype-3
 62
     4
370
    25
100
AcDbVertex
100
AcDb2dVertex
 10
119.0783474094665
 20
-155.9016488427249
 30
0.0
  0
VERTEX
  5
B5
330
B3
100
AcDbEntity
  8
0
  6
AI-Linetype-3
 62
     4
370
    25
100
AcDbVertex
100
AcDb2dVertex
 10
119.0783474094665
 20
-162.4838805746134
 30
0.0
  0
SEQEND
  5
B7
330
B3
100
AcDbEntity
  8
0
  6
AI-Linetype-3
 62
     4
370
    25
  0
POLYLINE
  5
B8
330
AB
100
AcDbEntity
  8
0
  6
AI-Linetype-4
 62
     4
370
    25
100
AcDb2dPolyline
 66
     1
 10
0.0
 20
0.0
 30
0.0
  0
VERTEX
  5
B9
330
B8
100
AcDbEntity
  8
0
  6
AI-Linetype-4
 62
     4
370
    25
100
AcDbVertex
100
AcDb2dVertex
 10
119.0783474094665
 20
-164.6779542299351
 30
0.0
  0
VERTEX
  5
BA
330
B8
100
AcDbEntity
  8
0
  6
AI-Linetype-4
 62
     4
370
    25
100
AcDbVertex
100
AcDb2dVertex
 10
119.0783474094665
 20
-241.4710273986709
 30
0.0
  0
SEQEND
  5
BC
330
B8
100
AcDbEntity
  8
0
  6
AI-Linetype-4
 62
     4
370
    25
  0
POLYLINE
  5
BD
330
AB
100
AcDbEntity
  8
0
 62
     4
370
    25
100
AcDb2dPolyline
 66
     1
 10
0.0
 20
0.0
 30
0.0
  0
VERTEX
  5
BE
330
BD
100
AcDbEntity
  8
0
 62
     4
370
    25
100
AcDbVertex
100
AcDb2dVertex
 10
119.0783474094665
 20
-243.6651225858394
 30
0.0
  0
VERTEX
  5
BF
330
BD
100
AcDbEntity
  8
0
 62
     4
370
    25
100
AcDbVertex
100
AcDb2dVertex
 10
119.0783474094665
 20
-254.9151895521566
 30
0.0
  0
SEQEND
  5
C0
330
BD
100
AcDbEntity
  8
0
 62
     4
370
    25
  0
ENDBLK
  5
AE
330
AB
100
AcDbEntity
  8
0
100
AcDbBlockEnd
  0
BLOCK
  5
C6
330
C4
100
AcDbEntity
  8
0
100
AcDbBlockBegin
  2
block 6
 70
     0
 10
0.0
 20
0.0
 30
0.0
  3
block 6
  1

  0
INSERT
  5
C9
330
C4
100
AcDbEntity
  8
0
100
AcDbBlockReference
  2
block 7
 10
0.0
 20
0.0
 30
0.0
  0
ENDBLK
  5
C7
330
C4
100
AcDbEntity
  8
0
100
AcDbBlockEnd
  0
BLOCK
  5
CA
330
C8
100
AcDbEntity
  8
0
100
AcDbBlockBegin
  2
block 7
 70
     0
 10
0.0
 20
0.0
 30
0.0
  3
block 7
  1

  0
INSERT
  5
CD
330
C8
100
AcDbEntity
  8
0
100
AcDbBlockReference
  2
block 8
 10
0.0
 20
0.0
 30
0.0
  0
INSERT
  5
E3
330
C8
100
AcDbEntity
  8
0
100
AcDbBlockReference
  2
block 9
 10
0.0
 20
0.0
 30
0.0
  0
ENDBLK
  5
CB
330
C8
100
AcDbEntity
  8
0
100
AcDbBlockEnd
  0
BLOCK
  5
CE
330
CC
100
AcDbEntity
  8
0
100
AcDbBlockBegin
  2
block 8
 70
     0
 10
0.0
 20
0.0
 30
0.0
  3
block 8
  1

  0
POLYLINE
  5
D0
330
CC
100
AcDbEntity
  8
0
 62
     4
370
    25
100
AcDb2dPolyline
 66
     1
 10
0.0
 20
0.0
 30
0.0
  0
VERTEX
  5
D1
330
D0
100
AcDbEntity
  8
0
 62
     4
370
    25
100
AcDbVertex
100
AcDb2dVertex
 10
159.5092667074914
 20
-46.67537556646972
 30
0.0
  0
VERTEX
  5
D2
330
D0
100
AcDbEntity
  8
0
 62
     4
370
    25
100
AcDbVertex
100
AcDb2dVertex
 10
148.2591889752507
 20
-46.67537556646972
 30
0.0
  0
SEQEND
  5
D3
330
D0
100
AcDbEntity
  8
0
 62
     4
370
    25
  0
POLYLINE
  5
D4
330
CC
100
AcDbEntity
  8
0
  6
AI-Linetype-5
 62
     4
370
    25
100
AcDb2dPolyline
 66
     1
 10
0.0
 20
0.0
 30
0.0
  0
VERTEX
  5
D5
330
D4
100
AcDbEntity
  8
0
  6
AI-Linetype-5
 62
     4
370
    25
100
AcDbVertex
100
AcDb2dVertex
 10
143.467577919591
 20
-46.67537556646972
 30
0.0
  0
VERTEX
  5
D6
330
D4
100
AcDbEntity
  8
0
  6
AI-Linetype-5
 62
     4
370
    25
100
AcDbVertex
100
AcDb2dVertex
 10
136.2801613361014
 20
-46.67537556646972
 30
0.0
  0
SEQEND
  5
D8
330
D4
100
AcDbEntity
  8
0
  6
AI-Linetype-5
 62
     4
370
    25
  0
POLYLINE
  5
D9
330
CC
100
AcDbEntity
  8
0
  6
AI-Linetype-6
 62
     4
370
    25
100
AcDb2dPolyline
 66
     1
 10
0.0
 20
0.0
 30
0.0
  0
VERTEX
  5
DA
330
D9
100
AcDbEntity
  8
0
  6
AI-Linetype-6
 62
     4
370
    25
100
AcDbVertex
100
AcDb2dVertex
 10
133.8843558082716
 20
-46.67537556646972
 30
0.0
  0
VERTEX
  5
DB
330
D9
100
AcDbEntity
  8
0
  6
AI-Linetype-6
 62
     4
370
    25
100
AcDbVertex
100
AcDb2dVertex
 10
93.15543575077255
 20
-46.67537556646972
 30
0.0
  0
SEQEND
  5
DD
330
D9
100
AcDbEntity
  8
0
  6
AI-Linetype-6
 62
     4
370
    25
  0
POLYLINE
  5
DE
330
CC
100
AcDbEntity
  8
0
 62
     4
370
    25
100
AcDb2dPolyline
 66
     1
 10
0.0
 20
0.0
 30
0.0
  0
VERTEX
  5
DF
330
DE
100
AcDbEntity
  8
0
 62
     4
370
    25
100
AcDbVertex
100
AcDb2dVertex
 10
90.75963022294269
 20
-46.67537556646972
 30
0.0
  0
VERTEX
  5
E0
330
DE
100
AcDbEntity
  8
0
 62
     4
370
    25
100
AcDbVertex
100
AcDb2dVertex
 10
79.50955249070205
 20
-46.67537556646972
 30
0.0
  0
SEQEND
  5
E1
330
DE
100
AcDbEntity
  8
0
 62
     4
370
    25
  0
ENDBLK
  5
CF
330
CC
100
AcDbEntity
  8
0
100
AcDbBlockEnd
  0
BLOCK
  5
E4
330
E2
100
AcDbEntity
  8
0
100
AcDbBlockBegin
  2
block 9
 70
     0
 10
0.0
 20
0.0
 30
0.0
  3
block 9
  1

  0
POLYLINE
  5
E6
330
E2
100
AcDbEntity
  8
0
 62
     4
370
    25
100
AcDb2dPolyline
 66
     1
 10
0.0
 20
0.0
 30
0.0
  0
VERTEX
  5
E7
330
E6
100
AcDbEntity
  8
0
 62
     4
370
    25
100
AcDbVertex
100
AcDb2dVertex
 10
119.5098456189941
 20
-6.676051371282919
 30
0.0
  0
VERTEX
  5
E8
330
E6
100
AcDbEntity
  8
0
 62
     4
370
    25
100
AcDbVertex
100
AcDb2dVertex
 10
119.5098456189941
 20
-17.92613448648526
 30
0.0
  0
SEQEND
  5
E9
330
E6
100
AcDbEntity
  8
0
 62
     4
370
    25
  0
POLYLINE
  5
EA
330
E2
100
AcDbEntity
  8
0
  6
AI-Linetype-7
 62
     4
370
    25
100
AcDb2dPolyline
 66
     1
 10
0.0
 20
0.0
 30
0.0
  0
VERTEX
  5
EB
330
EA
100
AcDbEntity
  8
0
  6
AI-Linetype-7
 62
     4
370
    25
100
AcDbVertex
100
AcDb2dVertex
 10
119.5098456189941
 20
-22.717745542145
 30
0.0
  0
VERTEX
  5
EC
330
EA
100
AcDbEntity
  8
0
  6
AI-Linetype-7
 62
     4
370
    25
100
AcDbVertex
100
AcDb2dVertex
 10
119.5098456189941
 20
-29.90516481711545
 30
0.0
  0
SEQEND
  5
EE
330
EA
100
AcDbEntity
  8
0
  6
AI-Linetype-7
 62
     4
370
    25
  0
POLYLINE
  5
EF
330
E2
100
AcDbEntity
  8
0
  6
AI-Linetype-8
 62
     4
370
    25
100
AcDb2dPolyline
 66
     1
 10
0.0
 20
0.0
 30
0.0
  0
VERTEX
  5
F0
330
EF
100
AcDbEntity
  8
0
  6
AI-Linetype-8
 62
     4
370
    25
100
AcDbVertex
100
AcDb2dVertex
 10
119.5098456189941
 20
-32.30097034494532
 30
0.0
  0
VERTEX
  5
F1
330
EF
100
AcDbEntity
  8
0
  6
AI-Linetype-8
 62
     4
370
    25
100
AcDbVertex
100
AcDb2dVertex
 10
119.5098456189941
 20
-73.02988232800176
 30
0.0
  0
SEQEND
  5
F3
330
EF
100
AcDbEntity
  8
0
  6
AI-Linetype-8
 62
     4
370
    25
  0
POLYLINE
  5
F4
330
E2
100
AcDbEntity
  8
0
 62
     4
370
    25
100
AcDb2dPolyline
 66
     1
 10
0.0
 20
0.0
 30
0.0
  0
VERTEX
  5
F5
330
F4
100
AcDbEntity
  8
0
 62
     4
370
    25
100
AcDbVertex
100
AcDb2dVertex
 10
119.5098456189941
 20
-75.42568785583163
 30
0.0
  0
VERTEX
  5
F6
330
F4
100
AcDbEntity
  8
0
 62
     4
370
    25
100
AcDbVertex
100
AcDb2dVertex
 10
119.5098456189941
 20
-86.67577097103397
 30
0.0
  0
SEQEND
  5
F7
330
F4
100
AcDbEntity
  8
0
 62
     4
370
    25
  0
ENDBLK
  5
E5
330
E2
100
AcDbEntity
  8
0
100
AcDbBlockEnd
  0
ENDSEC
  0
SECTION
  2
ENTITIES
  0
SPLINE
  5
40
330
1F
100
AcDbEntity
  8
0
 62
   250
370
    25
100
AcDbSpline
210
0.0
220
0.0
230
1.0
 70
     8
 71
     3
 72
    38
 73
    34
 74
     0
 42
0.0000000001
 43
0.0000000001
 12
1.0
 22
0.0
 32
0.0
 13
1.0
 23
0.0
 33
0.0
 40
0.0
 40
0.0
 40
0.0
 40
0.0
 40
1.0
 40
1.0
 40
1.0
 40
2.0
 40
2.0
 40
2.0
 40
3.0
 40
3.0
 40
3.0
 40
4.0
 40
4.0
 40
4.0
 40
5.0
 40
5.0
 40
5.0
 40
6.0
 40
6.0
 40
6.0
 40
7.0
 40
7.0
 40
7.0
 40
8.0
 40
8.0
 40
8.0
 40
9.0
 40
9.0
 40
9.0
 40
10.0
 40
10.0
 40
10.0
 40
11.0
 40
11.0
 40
11.0
 40
11.0
 10
131.2237543676578
 20
-116.1764673842187
 30
0.0
 10
131.2752249872999
 20
-116.2209529563485
 30
0.0
 10
131.3263428268278
 20
-116.2702363380005
 30
0.0
 10
131.3578108136127
 20
-116.3314789654481
 30
0.0
 10
131.3823643100325
 20
-116.3792101146112
 30
0.0
 10
131.3949232823395
 20
-116.4342438120805
 30
0.0
 10
131.3882204600403
 20
-116.487054994859
 30
0.0
 10
131.38303459226
 20
-116.5280480438742
 30
0.0
 10
131.3662422585096
 20
-116.567665250452
 30
0.0
 10
131.3444404470299
 20
-116.6034018758097
 30
0.0
 10
131.3075396463832
 20
-116.6637625529766
 30
0.0
 10
131.2562454167915
 20
-116.7129048225829
 30
0.0
 10
131.2011058838868
 20
-116.756684834496
 30
0.0
 10
131.1272690045765
 20
-116.8153521671219
 30
0.0
 10
131.0464823568734
 20
-116.8644591587168
 30
0.0
 10
130.9630851362784
 20
-116.9083450046564
 30
0.0
 10
130.8560163695699
 20
-116.9646487105336
 30
0.0
 10
130.7446436853882
 20
-117.0123093036719
 30
0.0
 10
130.6318951587358
 20
-117.0560893155785
 30
0.0
 10
130.330479823396
 20
-117.1730359227166
 30
0.0
 10
130.019151366656
 20
-117.2620423449887
 30
0.0
 10
129.7053181710581
 20
-117.3399361937271
 30
0.0
 10
129.2900959686957
 20
-117.4429479864443
 30
0.0
 10
128.8704992928353
 20
-117.5265215949855
 30
0.0
 10
128.449173994383
 20
-117.5999704143101
 30
0.0
 10
127.8084194606951
 20
-117.7116605977757
 30
0.0
 10
127.1637490676694
 20
-117.7999614598268
 30
0.0
 10
126.5175617201255
 20
-117.8743980634661
 30
0.0
 10
125.695972096443
 20
-117.9690842455378
 30
0.0
 10
124.8720188459509
 20
-118.0414041685035
 30
0.0
 10
124.0470072550886
 20
-118.0983781565954
 30
0.0
 10
122.3551090730153
 20
-118.2151836516974
 30
0.0
 10
120.6589422514829
 20
-118.2673951082763
 30
0.0
 10
118.963163488081
 20
-118.2710287434332
 30
0.0
  0
SPLINE
  5
41
330
1F
100
AcDbEntity
  8
0
 62
   250
370
    25
100
AcDbSpline
210
0.0
220
0.0
230
1.0
 70
     8
 71
     3
 72
     8
 73
     4
 74
     0
 42
0.0000000001
 43
0.0000000001
 12
1.0
 22
0.0
 32
0.0
 13
1.0
 23
0.0
 33
0.0
 40
0.0
 40
0.0
 40
0.0
 40
0.0
 40
1.0
 40
1.0
 40
1.0
 40
1.0
 10
118.8906318952103
 20
-114.6073367238818
 30
0.0
 10
118.8664664569273
 20
-114.6073720018903
 30
0.0
 10
118.8423010186444
 20
-114.6073720018903
 30
0.0
 10
118.8181355803551
 20
-114.6074072798995
 30
0.0
  0
SPLINE
  5
42
330
1F
100
AcDbEntity
  8
0
 62
   250
370
    25
100
AcDbSpline
210
0.0
220
0.0
230
1.0
 70
    24
 71
     3
 72
    23
 73
    19
 74
     0
 42
0.0000000001
 43
0.0000000001
 12
1.0
 22
0.0
 32
0.0
 13
1.0
 23
0.0
 33
0.0
 40
0.0
 40
0.0
 40
0.0
 40
0.0
 40
1.0
 40
1.0
 40
1.0
 40
2.0
 40
2.0
 40
2.0
 40
3.0
 40
3.0
 40
3.0
 40
4.0
 40
4.0
 40
4.0
 40
5.0
 40
5.0
 40
5.0
 40
6.0
 40
6.0
 40
6.0
 40
6.0
 10
-376.118121797692
 20
20.32443599322746
 30
0.0
 10
-376.1211557067308
 20
20.32443599322746
 30
0.0
 10
-376.1157934488934
 20
20.32443599322746
 30
0.0
 10
-376.1106781371373
 20
20.32443599322746
 30
0.0
 10
-376.0979074967595
 20
20.32443599322746
 30
0.0
 10
-376.0868302009613
 20
20.32443599322746
 30
0.0
 10
-376.0757529051628
 20
20.32443599322746
 30
0.0
 10
-376.0294328752809
 20
20.32443599322746
 30
0.0
 10
-375.9825483972076
 20
20.32443599322746
 30
0.0
 10
-375.9356639191311
 20
20.32443599322746
 30
0.0
 10
-375.7638600002307
 20
20.32443599322746
 30
0.0
 10
-375.5922324713869
 20
20.32443599322746
 30
0.0
 10
-375.4206049425465
 20
20.32443599322746
 30
0.0
 10
-374.708694658465
 20
20.32443599322746
 30
0.0
 10
-373.9967138183587
 20
20.32443599322746
 30
0.0
 10
-373.2847682562667
 20
20.32443599322746
 30
0.0
 10
-370.5726299644039
 20
20.32443599322746
 30
0.0
 10
-367.8605269505555
 20
20.32443599322746
 30
0.0
 10
-365.1484239367032
 20
20.32443599322746
 30
0.0
  0
SPLINE
  5
43
330
1F
100
AcDbEntity
  8
0
 62
   250
370
    25
100
AcDbSpline
210
0.0
220
0.0
230
1.0
 70
    24
 71
     3
 72
     8
 73
     4
 74
     0
 42
0.0000000001
 43
0.0000000001
 12
1.0
 22
0.0
 32
0.0
 13
1.0
 23
0.0
 33
0.0
 40
0.0
 40
0.0
 40
0.0
 40
0.0
 40
1.0
 40
1.0
 40
1.0
 40
1.0
 10
602.9296877271298
 20
20.32443599322746
 30
0.0
 10
606.5870650750715
 20
20.32443599322746
 30
0.0
 10
610.2444424230137
 20
20.32443599322746
 30
0.0
 10
613.9017844929416
 20
20.32443599322746
 30
0.0
  0
SPLINE
  5
44
330
1F
100
AcDbEntity
  8
0
 62
   250
370
    25
100
AcDbSpline
210
0.0
220
0.0
230
1.0
 70
     8
 71
     3
 72
     8
 73
     4
 74
     0
 42
0.0000000001
 43
0.0000000001
 12
1.0
 22
0.0
 32
0.0
 13
1.0
 23
0.0
 33
0.0
 40
0.0
 40
0.0
 40
0.0
 40
0.0
 40
1.0
 40
1.0
 40
1.0
 40
1.0
 10
-383.680563416492
 20
17.63787426012815
 30
0.0
 10
-383.6839501056547
 20
17.63671008573112
 30
0.0
 10
-383.6871956827642
 20
17.63536952126993
 30
0.0
 10
-383.6903001478278
 20
17.63357034265421
 30
0.0
  0
POLYLINE
  5
45
330
1F
100
AcDbEntity
  8
0
 62
   250
370
    25
100
AcDb2dPolyline
 66
     1
 10
0.0
 20
0.0
 30
0.0
  0
VERTEX
  5
46
330
45
100
AcDbEntity
  8
0
 62
   250
370
    25
100
AcDbVertex
100
AcDb2dVertex
 10
-365.1484239367032
 20
20.32443599322746
 30
0.0
  0
VERTEX
  5
47
330
45
100
AcDbEntity
  8
0
 62
   250
370
    25
100
AcDbVertex
100
AcDb2dVertex
 10
118.8906318952103
 20
20.32443599322746
 30
0.0
  0
SEQEND
  5
48
330
45
100
AcDbEntity
  8
0
 62
   250
370
    25
  0
SPLINE
  5
49
330
1F
100
AcDbEntity
  8
0
 62
   250
370
    25
100
AcDbSpline
210
0.0
220
0.0
230
1.0
 70
     8
 71
     3
 72
     8
 73
     4
 74
     0
 42
0.0000000001
 43
0.0000000001
 12
1.0
 22
0.0
 32
0.0
 13
1.0
 23
0.0
 33
0.0
 40
0.0
 40
0.0
 40
0.0
 40
0.0
 40
1.0
 40
1.0
 40
1.0
 40
1.0
 10
621.4777023123596
 20
17.62443333752124
 30
0.0
 10
621.4850048608616
 20
17.62443333752124
 30
0.0
 10
621.4753386855507
 20
17.6313478278867
 30
0.0
 10
621.4715639382541
 20
17.63357034265421
 30
0.0
  0
SPLINE
  5
4A
330
1F
100
AcDbEntity
  8
0
 62
   250
370
    25
100
AcDbSpline
210
0.0
220
0.0
230
1.0
 70
     8
 71
     3
 72
     8
 73
     4
 74
     0
 42
0.0000000001
 43
0.0000000001
 12
1.0
 22
0.0
 32
0.0
 13
1.0
 23
0.0
 33
0.0
 40
0.0
 40
0.0
 40
0.0
 40
0.0
 40
1.0
 40
1.0
 40
1.0
 40
1.0
 10
621.4715639382541
 20
17.63357034265421
 30
0.0
 10
621.468459473194
 20
17.63536952126993
 30
0.0
 10
621.4652138960774
 20
17.63671008573112
 30
0.0
 10
621.4618624849294
 20
17.63787426012815
 30
0.0
  0
POLYLINE
  5
4B
330
1F
100
AcDbEntity
  8
0
 62
   250
370
    25
100
AcDb2dPolyline
 66
     1
 10
0.0
 20
0.0
 30
0.0
  0
VERTEX
  5
4C
330
4B
100
AcDbEntity
  8
0
 62
   250
370
    25
100
AcDbVertex
100
AcDb2dVertex
 10
118.8906318952103
 20
20.32443599322746
 30
0.0
  0
VERTEX
  5
4D
330
4B
100
AcDbEntity
  8
0
 62
   250
370
    25
100
AcDbVertex
100
AcDb2dVertex
 10
602.9296877271298
 20
20.32443599322746
 30
0.0
  0
SEQEND
  5
4E
330
4B
100
AcDbEntity
  8
0
 62
   250
370
    25
  0
SPLINE
  5
4F
330
1F
100
AcDbEntity
  8
0
 62
   250
370
    25
100
AcDbSpline
210
0.0
220
0.0
230
1.0
 70
     8
 71
     3
 72
     8
 73
     4
 74
     0
 42
0.0000000001
 43
0.0000000001
 12
1.0
 22
0.0
 32
0.0
 13
1.0
 23
0.0
 33
0.0
 40
0.0
 40
0.0
 40
0.0
 40
0.0
 40
1.0
 40
1.0
 40
1.0
 40
1.0
 10
-383.6964032439158
 20
17.62443333752124
 30
0.0
 10
-383.7037410704385
 20
17.62443333752124
 30
0.0
 10
-383.6940748951243
 20
17.6313478278867
 30
0.0
 10
-383.6903001478278
 20
17.63357034265421
 30
0.0
  0
SPLINE
  5
50
330
1F
100
AcDbEntity
  8
0
 62
   250
370
    25
100
AcDbSpline
210
0.0
220
0.0
230
1.0
 70
     8
 71
     3
 72
    38
 73
    34
 74
     0
 42
0.0000000001
 43
0.0000000001
 12
1.0
 22
0.0
 32
0.0
 13
1.0
 23
0.0
 33
0.0
 40
0.0
 40
0.0
 40
0.0
 40
0.0
 40
1.0
 40
1.0
 40
1.0
 40
2.0
 40
2.0
 40
2.0
 40
3.0
 40
3.0
 40
3.0
 40
4.0
 40
4.0
 40
4.0
 40
5.0
 40
5.0
 40
5.0
 40
6.0
 40
6.0
 40
6.0
 40
7.0
 40
7.0
 40
7.0
 40
8.0
 40
8.0
 40
8.0
 40
9.0
 40
9.0
 40
9.0
 40
10.0
 40
10.0
 40
10.0
 40
11.0
 40
11.0
 40
11.0
 40
11.0
 10
106.5575447007853
 20
-116.1764673842187
 30
0.0
 10
106.5059329690879
 20
-116.221094068391
 30
0.0
 10
106.4546034614934
 20
-116.2705538401004
 30
0.0
 10
106.4231707527177
 20
-116.3320434136295
 30
0.0
 10
106.3986878123221
 20
-116.3799862308528
 30
0.0
 10
106.386269952064
 20
-116.4352315964009
 30
0.0
 10
106.3932197204511
 20
-116.4881486132063
 30
0.0
 10
106.398617256298
 20
-116.5293533302944
 30
0.0
 10
106.4156918141519
 20
-116.5691116489205
 30
0.0
 10
106.4378111277373
 20
-116.6048835522809
 30
0.0
 10
106.4752763765788
 20
-116.6655264535389
 30
0.0
 10
106.5270644983401
 20
-116.7148098351899
 30
0.0
 10
106.5827332014235
 20
-116.758730959139
 30
0.0
 10
106.6573461970003
 20
-116.8175746818255
 30
0.0
 10
106.7388736829558
 20
-116.8668580634875
 30
0.0
 10
106.8230117418025
 20
-116.9108497434505
 30
0.0
 10
106.9309977368258
 20
-116.9673298393912
 30
0.0
 10
107.0432876493236
 20
-117.0151315445719
 30
0.0
 10
107.156953404298
 20
-117.0590173905054
 30
0.0
 10
107.4607676444623
 20
-117.1762814997491
 30
0.0
 10
107.774459728012
 20
-117.2654995900878
 30
0.0
 10
108.0906565504202
 20
-117.3435698288772
 30
0.0
 10
108.5087715497709
 20
-117.446793289661
 30
0.0
 10
108.9312963006288
 20
-117.5305080102504
 30
0.0
 10
109.3555143960759
 20
-117.6040273855967
 30
0.0
 10
110.0003964571745
 20
-117.7158234031042
 30
0.0
 10
110.6491943776161
 20
-117.8041242651498
 30
0.0
 10
111.2995092525765
 20
-117.8785255907671
 30
0.0
 10
112.1257202958456
 20
-117.9730706608034
 30
0.0
 10
112.9543655219543
 20
-118.0451436376901
 30
0.0
 10
113.784033810406
 20
-118.1017648456736
 30
0.0
 10
115.483516765072
 20
-118.2177942245244
 30
0.0
 10
117.1873036372248
 20
-118.2689473407717
 30
0.0
 10
118.8906318952103
 20
-118.271099299457
 30
0.0
  0
SPLINE
  5
51
330
1F
100
AcDbEntity
  8
0
 62
   250
370
    25
100
AcDbSpline
210
0.0
220
0.0
230
1.0
 70
     8
 71
     3
 72
     8
 73
     4
 74
     0
 42
0.0000000001
 43
0.0000000001
 12
1.0
 22
0.0
 32
0.0
 13
1.0
 23
0.0
 33
0.0
 40
0.0
 40
0.0
 40
0.0
 40
0.0
 40
1.0
 40
1.0
 40
1.0
 40
1.0
 10
118.8906318952103
 20
-114.6073367238818
 30
0.0
 10
120.5219930085263
 20
-114.6074425579151
 30
0.0
 10
129.6323632420419
 20
-114.8575989353574
 30
0.0
 10
131.2237543676578
 20
-116.1764673842187
 30
0.0
  0
SPLINE
  5
52
330
1F
100
AcDbEntity
  8
0
 62
   250
370
    25
100
AcDbSpline
210
0.0
220
0.0
230
1.0
 70
     8
 71
     3
 72
     8
 73
     4
 74
     0
 42
0.0000000001
 43
0.0000000001
 12
1.0
 22
0.0
 32
0.0
 13
1.0
 23
0.0
 33
0.0
 40
0.0
 40
0.0
 40
0.0
 40
0.0
 40
1.0
 40
1.0
 40
1.0
 40
1.0
 10
118.8181355803551
 20
-114.6074072798995
 30
0.0
 10
117.1951000778969
 20
-114.6092417364856
 30
0.0
 10
108.140081045359
 20
-114.8649014836764
 30
0.0
 10
106.5575447007853
 20
-116.1764673842187
 30
0.0
  0
SPLINE
  5
53
330
1F
100
AcDbEntity
  8
0
 62
   250
370
    25
100
AcDbSpline
210
0.0
220
0.0
230
1.0
 70
     8
 71
     3
 72
     8
 73
     4
 74
     0
 42
0.0000000001
 43
0.0000000001
 12
1.0
 22
0.0
 32
0.0
 13
1.0
 23
0.0
 33
0.0
 40
0.0
 40
0.0
 40
0.0
 40
0.0
 40
1.0
 40
1.0
 40
1.0
 40
1.0
 10
118.963163488081
 20
-118.2710287434332
 30
0.0
 10
118.9389980497917
 20
-118.271064021442
 30
0.0
 10
118.9148326115152
 20
-118.271099299457
 30
0.0
 10
118.8906318952103
 20
-118.271099299457
 30
0.0
  0
POLYLINE
  5
54
330
1F
100
AcDbEntity
  8
0
 62
   250
370
    25
100
AcDb2dPolyline
 66
     1
 10
0.0
 20
0.0
 30
0.0
  0
VERTEX
  5
55
330
54
100
AcDbEntity
  8
0
 62
   250
370
    25
100
AcDbVertex
100
AcDb2dVertex
 10
-383.680563416492
 20
17.63790953813733
 30
0.0
  0
VERTEX
  5
56
330
54
100
AcDbEntity
  8
0
 62
   250
370
    25
100
AcDbVertex
100
AcDb2dVertex
 10
-383.6798931342626
 20
17.63815648422528
 30
0.0
  0
SEQEND
  5
57
330
54
100
AcDbEntity
  8
0
 62
   250
370
    25
  0
SPLINE
  5
58
330
1F
100
AcDbEntity
  8
0
 62
   250
370
    25
100
AcDbSpline
210
0.0
220
0.0
230
1.0
 70
     8
 71
     3
 72
     8
 73
     4
 74
     0
 42
0.0000000001
 43
0.0000000001
 12
1.0
 22
0.0
 32
0.0
 13
1.0
 23
0.0
 33
0.0
 40
0.0
 40
0.0
 40
0.0
 40
0.0
 40
1.0
 40
1.0
 40
1.0
 40
1.0
 10
-383.6638416387577
 20
17.64387152218453
 30
0.0
 10
-381.1494366046887
 20
18.53732245650377
 30
0.0
 10
-378.6350315706126
 20
19.43087922486241
 30
0.0
 10
-376.120661814561
 20
20.32443599322746
 30
0.0
  0
SPLINE
  5
59
330
1F
100
AcDbEntity
  8
0
 62
   250
370
    25
100
AcDbSpline
210
0.0
220
0.0
230
1.0
 70
     8
 71
     3
 72
    44
 73
    40
 74
     0
 42
0.0000000001
 43
0.0000000001
 12
1.0
 22
0.0
 32
0.0
 13
1.0
 23
0.0
 33
0.0
 40
0.0
 40
0.0
 40
0.0
 40
0.0
 40
1.0
 40
1.0
 40
1.0
 40
2.0
 40
2.0
 40
2.0
 40
3.0
 40
3.0
 40
3.0
 40
4.0
 40
4.0
 40
4.0
 40
5.0
 40
5.0
 40
5.0
 40
6.0
 40
6.0
 40
6.0
 40
7.0
 40
7.0
 40
7.0
 40
8.0
 40
8.0
 40
8.0
 40
9.0
 40
9.0
 40
9.0
 40
10.0
 40
10.0
 40
10.0
 40
11.0
 40
11.0
 40
11.0
 40
12.0
 40
12.0
 40
12.0
 40
13.0
 40
13.0
 40
13.0
 40
13.0
 10
621.4813359476074
 20
17.62443333752124
 30
0.0
 10
621.4726928346425
 20
-62.82488600871969
 30
0.0
 10
621.4807714994131
 20
-143.2742133501963
 30
0.0
 10
621.4807714994131
 20
-223.7234953861031
 30
0.0
 10
621.4807714994131
 20
-263.9458256943208
 30
0.0
 10
621.4807714994131
 20
-304.1681560025355
 30
0.0
 10
621.4808067774268
 20
-344.3904863107629
 30
0.0
 10
621.4808067774268
 20
-364.5825615835613
 30
0.0
 10
621.4808067774268
 20
-384.774601578355
 30
0.0
 10
621.4808067774268
 20
-404.9666768511669
 30
0.0
 10
621.4808067774268
 20
-409.9931937215382
 30
0.0
 10
621.4808067774268
 20
-415.0197105919095
 30
0.0
 10
621.4808067774268
 20
-420.046262740295
 30
0.0
 10
621.4808067774268
 20
-422.5545293368924
 30
0.0
 10
621.5132978265605
 20
-425.0624775547204
 30
0.0
 10
621.4660252903602
 20
-427.5709911607645
 30
0.0
 10
621.418470530054
 20
-430.095132926176
 30
0.0
 10
621.2017577017551
 20
-432.5614540297592
 30
0.0
 10
620.623868585618
 20
-435.0318673827439
 30
0.0
 10
618.3591613211642
 20
-444.7128947399131
 30
0.0
 10
610.9074926603398
 20
-453.2085808906725
 30
0.0
 10
601.4110045844499
 20
-456.4067443551704
 30
0.0
 10
596.4517627561579
 20
-458.0769112817933
 30
0.0
 10
591.544908775833
 20
-457.9984529828977
 30
0.0
 10
586.4908749290419
 20
-458.0357065636707
 30
0.0
 10
581.4630173672323
 20
-458.0727837543838
 30
0.0
 10
576.4351598054195
 20
-458.1096139990115
 30
0.0
 10
571.4073022436066
 20
-458.1455975713363
 30
0.0
 10
561.3515871199836
 20
-458.2175999940303
 30
0.0
 10
551.2958719963541
 20
-458.2872035118946
 30
0.0
 10
541.2401215947181
 20
-458.3544081249387
 30
0.0
 10
521.128656069455
 20
-458.4887820730057
 30
0.0
 10
501.0170847101537
 20
-458.6135956798014
 30
0.0
 10
480.905478072845
 20
-458.7287783892934
 30
0.0
 10
440.6820178521397
 20
-458.9591790862807
 30
0.0
 10
400.4584517973954
 20
-459.151162028103
 30
0.0
 10
360.234603518559
 20
-459.3047624927632
 30
0.0
 10
279.7867658488272
 20
-459.6119634220912
 30
0.0
 10
199.3390692911449
 20
-459.7655638867487
 30
0.0
 10
118.8906318952103
 20
-459.7655638867487
 30
0.0
  0
SPLINE
  5
5A
330
1F
100
AcDbEntity
  8
0
 62
   250
370
    25
100
AcDbSpline
210
0.0
220
0.0
230
1.0
 70
     8
 71
     3
 72
    44
 73
    40
 74
     0
 42
0.0000000001
 43
0.0000000001
 12
1.0
 22
0.0
 32
0.0
 13
1.0
 23
0.0
 33
0.0
 40
0.0
 40
0.0
 40
0.0
 40
0.0
 40
1.0
 40
1.0
 40
1.0
 40
2.0
 40
2.0
 40
2.0
 40
3.0
 40
3.0
 40
3.0
 40
4.0
 40
4.0
 40
4.0
 40
5.0
 40
5.0
 40
5.0
 40
6.0
 40
6.0
 40
6.0
 40
7.0
 40
7.0
 40
7.0
 40
8.0
 40
8.0
 40
8.0
 40
9.0
 40
9.0
 40
9.0
 40
10.0
 40
10.0
 40
10.0
 40
11.0
 40
11.0
 40
11.0
 40
12.0
 40
12.0
 40
12.0
 40
13.0
 40
13.0
 40
13.0
 40
13.0
 10
118.8906318952103
 20
-459.7655638867487
 30
0.0
 10
38.44222977729221
 20
-459.7655638867487
 30
0.0
 10
-42.00546678038754
 20
-459.6119634220912
 30
0.0
 10
-122.4533397281276
 20
-459.3047624927632
 30
0.0
 10
-162.6771527289534
 20
-459.151162028103
 30
0.0
 10
-202.9007540617127
 20
-458.9591790862807
 30
0.0
 10
-243.1242142824174
 20
-458.7287783892934
 30
0.0
 10
-263.2359973097912
 20
-458.6135956798014
 30
0.0
 10
-283.34774505915
 20
-458.4887820730057
 30
0.0
 10
-303.4594222524869
 20
-458.3543728469213
 30
0.0
 10
-313.515243210143
 20
-458.2872035118946
 30
0.0
 10
-323.571064167809
 20
-458.2175999940303
 30
0.0
 10
-333.6268851254714
 20
-458.1455975713363
 30
0.0
 10
-338.654777965295
 20
-458.1095787209978
 30
0.0
 10
-343.6827060831307
 20
-458.0727837543838
 30
0.0
 10
-348.7105989229545
 20
-458.0357065636707
 30
0.0
 10
-353.764703325767
 20
-457.9984529828977
 30
0.0
 10
-358.6715220280813
 20
-458.0767701697438
 30
0.0
 10
-363.6307991343834
 20
-456.4063915750536
 30
0.0
 10
-373.1268991521433
 20
-453.2078753304287
 30
0.0
 10
-380.5781797548298
 20
-444.7122950137046
 30
0.0
 10
-382.8426753512197
 20
-435.0314087685855
 30
0.0
 10
-383.4204939113256
 20
-432.5611012496424
 30
0.0
 10
-383.6372067396277
 20
-430.0948154240704
 30
0.0
 10
-383.6847614999301
 20
-427.5707442146797
 30
0.0
 10
-383.7319987581269
 20
-425.0622658866423
 30
0.0
 10
-383.6995077089865
 20
-422.5543882248428
 30
0.0
 10
-383.6995077089865
 20
-420.0461569062566
 30
0.0
 10
-383.6995077089865
 20
-415.0197458699238
 30
0.0
 10
-383.6995077089865
 20
-409.9933348335736
 30
0.0
 10
-383.6995077089865
 20
-404.966959075259
 30
0.0
 10
-383.6995077089865
 20
-384.7753424165958
 30
0.0
 10
-383.6995077089865
 20
-364.5837610359425
 30
0.0
 10
-383.6995077089865
 20
-344.3921796552943
 30
0.0
 10
-383.6995077089865
 20
-304.1684382266326
 30
0.0
 10
-383.6995077089865
 20
-263.944696797958
 30
0.0
 10
-383.6994724309725
 20
-223.7209200912782
 30
0.0
 10
-383.6994724309725
 20
-143.2724847276468
 30
0.0
 10
-383.6914290442163
 20
-62.82403933642831
 30
0.0
 10
-383.7000721571807
 20
17.62443333752124
 30
0.0
  0
SPLINE
  5
5B
330
1F
100
AcDbEntity
  8
0
 62
   250
370
    25
100
AcDbSpline
210
0.0
220
0.0
230
1.0
 70
     8
 71
     3
 72
     8
 73
     4
 74
     0
 42
0.0000000001
 43
0.0000000001
 12
1.0
 22
0.0
 32
0.0
 13
1.0
 23
0.0
 33
0.0
 40
0.0
 40
0.0
 40
0.0
 40
0.0
 40
1.0
 40
1.0
 40
1.0
 40
1.0
 10
613.9019608829984
 20
20.32443599322746
 30
0.0
 10
616.4163306390599
 20
19.43087922486241
 30
0.0
 10
618.9307356731255
 20
18.53732245650377
 30
0.0
 10
621.4451407071948
 20
17.64387152218453
 30
0.0
  0
POLYLINE
  5
5C
330
1F
100
AcDbEntity
  8
0
 62
   250
370
    25
100
AcDb2dPolyline
 66
     1
 10
0.0
 20
0.0
 30
0.0
  0
VERTEX
  5
5D
330
5C
100
AcDbEntity
  8
0
 62
   250
370
    25
100
AcDbVertex
100
AcDb2dVertex
 10
621.4611922026993
 20
17.63815648422528
 30
0.0
  0
VERTEX
  5
5E
330
5C
100
AcDbEntity
  8
0
 62
   250
370
    25
100
AcDbVertex
100
AcDb2dVertex
 10
621.4618624849294
 20
17.63790953813733
 30
0.0
  0
SEQEND
  5
5F
330
5C
100
AcDbEntity
  8
0
 62
   250
370
    25
  0
SPLINE
  5
60
330
1F
100
AcDbEntity
  8
0
 62
   250
370
    25
100
AcDbSpline
210
0.0
220
0.0
230
1.0
 70
     8
 71
     3
 72
    23
 73
    19
 74
     0
 42
0.0000000001
 43
0.0000000001
 12
1.0
 22
0.0
 32
0.0
 13
1.0
 23
0.0
 33
0.0
 40
0.0
 40
0.0
 40
0.0
 40
0.0
 40
1.0
 40
1.0
 40
1.0
 40
2.0
 40
2.0
 40
2.0
 40
3.0
 40
3.0
 40
3.0
 40
4.0
 40
4.0
 40
4.0
 40
5.0
 40
5.0
 40
5.0
 40
6.0
 40
6.0
 40
6.0
 40
6.0
 10
-142.2306519228272
 20
-196.6770083704053
 30
0.0
 10
-142.2309694249361
 20
-194.9125786400375
 30
0.0
 10
-142.2312163710211
 20
-193.1481841876814
 30
0.0
 10
-142.2328038815639
 20
-191.3837544573193
 30
0.0
 10
-142.2343913921069
 20
-189.6318484209316
 30
0.0
 10
-142.2373194671108
 20
-187.8799423845408
 30
0.0
 10
-142.2407767122966
 20
-186.1280363481461
 30
0.0
 10
-142.2468445303777
 20
-183.0700325029595
 30
0.0
 10
-142.2546409710495
 20
-180.0120286577691
 30
0.0
 10
-142.2656124328135
 20
-176.9540600905846
 30
0.0
 10
-142.2926706680882
 20
-169.4370567412633
 30
0.0
 10
-142.3392729220663
 20
-161.9201592259656
 30
0.0
 10
-142.3940596748491
 20
-154.4032969886836
 30
0.0
 10
-142.3969877498595
 20
-154.004337959983
 30
0.0
 10
-142.3999158248602
 20
-153.6053789312735
 30
0.0
 10
-142.3997747128119
 20
-153.2063846245613
 30
0.0
 10
-142.3995630447389
 20
-152.696476250619
 30
0.0
 10
-142.3943771769583
 20
-152.1865678766702
 30
0.0
 10
-142.3934952266581
 20
-151.6766947807435
 30
0.0
  0
SPLINE
  5
61
330
1F
100
AcDbEntity
  8
0
 62
   250
370
    25
100
AcDbSpline
210
0.0
220
0.0
230
1.0
 70
     8
 71
     3
 72
    62
 73
    58
 74
     0
 42
0.0000000001
 43
0.0000000001
 12
1.0
 22
0.0
 32
0.0
 13
1.0
 23
0.0
 33
0.0
 40
0.0
 40
0.0
 40
0.0
 40
0.0
 40
1.0
 40
1.0
 40
1.0
 40
2.0
 40
2.0
 40
2.0
 40
3.0
 40
3.0
 40
3.0
 40
4.0
 40
4.0
 40
4.0
 40
5.0
 40
5.0
 40
5.0
 40
6.0
 40
6.0
 40
6.0
 40
7.0
 40
7.0
 40
7.0
 40
8.0
 40
8.0
 40
8.0
 40
9.0
 40
9.0
 40
9.0
 40
10.0
 40
10.0
 40
10.0
 40
11.0
 40
11.0
 40
11.0
 40
12.0
 40
12.0
 40
12.0
 40
13.0
 40
13.0
 40
13.0
 40
14.0
 40
14.0
 40
14.0
 40
15.0
 40
15.0
 40
15.0
 40
16.0
 40
16.0
 40
16.0
 40
17.0
 40
17.0
 40
17.0
 40
18.0
 40
18.0
 40
18.0
 40
19.0
 40
19.0
 40
19.0
 40
19.0
 10
118.8906318952103
 20
-428.9785485653558
 30
0.0
 10
73.82339477980784
 20
-428.9785485653558
 30
0.0
 10
28.75612238638984
 20
-428.9303235228163
 30
0.0
 10
-16.31100889497929
 20
-428.8338734377441
 30
0.0
 10
-42.98672468681833
 20
-428.7767583361659
 30
0.0
 10
-69.6623699226204
 20
-428.7027803448074
 30
0.0
 10
-96.33797988041653
 20
-428.6118336296263
 30
0.0
 10
-104.3563192495222
 20
-428.5844931702484
 30
0.0
 10
-112.3746938966399
 20
-428.5556357563553
 30
0.0
 10
-120.393033265749
 20
-428.5256141680595
 30
0.0
 10
-124.5628237393697
 20
-428.5100212867133
 30
0.0
 10
-128.7325789349819
 20
-428.4941109032577
 30
0.0
 10
-132.9023694086032
 20
-428.4739671583574
 30
0.0
 10
-133.8911062535937
 20
-428.4691693487075
 30
0.0
 10
-134.8798078205722
 20
-428.4641598709904
 30
0.0
 10
-135.8679096613443
 20
-428.4306810375107
 30
0.0
 10
-136.8526248129548
 20
-428.3973433160799
 30
0.0
 10
-137.8367402383621
 20
-428.3357479069653
 30
0.0
 10
-138.8174336965958
 20
-428.2396506020131
 30
0.0
 10
-139.7894487638571
 20
-428.1444352473691
 30
0.0
 10
-140.7581124199627
 20
-428.0153530011145
 30
0.0
 10
-141.7193324155175
 20
-427.8434785261929
 30
0.0
 10
-143.5173821359835
 20
-427.5220252799847
 30
0.0
 10
-145.2893614055117
 20
-427.0509579844701
 30
0.0
 10
-147.0104697815968
 20
-426.4386375285343
 30
0.0
 10
-148.8035805803705
 20
-425.8007405138397
 30
0.0
 10
-150.5414460121997
 20
-425.0094899805517
 30
0.0
 10
-152.207838191526
 20
-424.0901811646036
 30
0.0
 10
-154.11493224738
 20
-423.0380850364662
 30
0.0
 10
-155.9283984591295
 20
-421.8182419650494
 30
0.0
 10
-157.6345489580891
 20
-420.4640602269841
 30
0.0
 10
-159.8633784842464
 20
-418.6950443551626
 30
0.0
 10
-161.9090092935965
 20
-416.6967919665319
 30
0.0
 10
-163.7336233571706
 20
-414.5130477949933
 30
0.0
 10
-165.3630441798223
 20
-412.5628793356489
 30
0.0
 10
-166.81614549802
 20
-410.4647901753095
 30
0.0
 10
-168.0414919701339
 20
-408.2387476683425
 30
0.0
 10
-169.2920974989069
 20
-405.9668084687883
 30
0.0
 10
-170.3053878403136
 20
-403.5616242209316
 30
0.0
 10
-171.0204731454822
 20
-401.0688799492636
 30
0.0
 10
-171.3697254652241
 20
-399.8513652265895
 30
0.0
 10
-171.6478220345721
 20
-398.6129659212858
 30
0.0
 10
-171.8566325881659
 20
-397.3635598764906
 30
0.0
 10
-172.0697117812184
 20
-396.0888242196424
 30
0.0
 10
-172.2106474395366
 20
-394.8026232091573
 30
0.0
 10
-172.2938329920557
 20
-393.5130707876095
 30
0.0
 10
-172.3970564554476
 20
-391.912436863264
 30
0.0
 10
-172.4112382163094
 20
-390.3066170712653
 30
0.0
 10
-172.411590996431
 20
-388.7028434039238
 30
0.0
 10
-172.4116262744427
 20
-388.5007003997295
 30
0.0
 10
-172.4114498843821
 20
-388.2985926735457
 30
0.0
 10
-172.4113440503459
 20
-388.0964496693373
 30
0.0
 10
-172.4112734943214
 20
-387.8946241672423
 30
0.0
 10
-172.4112734943214
 20
-387.692728109129
 30
0.0
 10
-172.4112734943214
 20
-387.4908673290158
 30
0.0
 10
-172.4112734943214
 20
-323.8862359168137
 30
0.0
 10
-172.4113087723338
 20
-260.2816397826125
 30
0.0
 10
-172.4112734943214
 20
-196.6770083704053
 30
0.0
  0
SPLINE
  5
62
330
1F
100
AcDbEntity
  8
0
 62
   250
370
    25
100
AcDbSpline
210
0.0
220
0.0
230
1.0
 70
     8
 71
     3
 72
    74
 73
    70
 74
     0
 42
0.0000000001
 43
0.0000000001
 12
1.0
 22
0.0
 32
0.0
 13
1.0
 23
0.0
 33
0.0
 40
0.0
 40
0.0
 40
0.0
 40
0.0
 40
1.0
 40
1.0
 40
1.0
 40
2.0
 40
2.0
 40
2.0
 40
3.0
 40
3.0
 40
3.0
 40
4.0
 40
4.0
 40
4.0
 40
5.0
 40
5.0
 40
5.0
 40
6.0
 40
6.0
 40
6.0
 40
7.0
 40
7.0
 40
7.0
 40
8.0
 40
8.0
 40
8.0
 40
9.0
 40
9.0
 40
9.0
 40
10.0
 40
10.0
 40
10.0
 40
11.0
 40
11.0
 40
11.0
 40
12.0
 40
12.0
 40
12.0
 40
13.0
 40
13.0
 40
13.0
 40
14.0
 40
14.0
 40
14.0
 40
15.0
 40
15.0
 40
15.0
 40
16.0
 40
16.0
 40
16.0
 40
17.0
 40
17.0
 40
17.0
 40
18.0
 40
18.0
 40
18.0
 40
19.0
 40
19.0
 40
19.0
 40
20.0
 40
20.0
 40
20.0
 40
21.0
 40
21.0
 40
21.0
 40
22.0
 40
22.0
 40
22.0
 40
23.0
 40
23.0
 40
23.0
 40
23.0
 10
118.8906318952103
 20
-391.7075421741932
 30
0.0
 10
82.83096488607411
 20
-391.7075774521973
 30
0.0
 10
46.77126259891885
 20
-391.456856626571
 30
0.0
 10
10.71505283496494
 20
-390.9556619214071
 30
0.0
 10
-8.356099391623493
 20
-390.6905476672048
 30
0.0
 10
-27.42626383387552
 20
-390.3553712827573
 30
0.0
 10
-46.49498187762985
 20
-389.9499563780046
 30
0.0
 10
-56.21160474899565
 20
-389.7433683443864
 30
0.0
 10
-65.92783956222782
 20
-389.5185768569974
 30
0.0
 10
-75.64361576130575
 20
-389.2756171938377
 30
0.0
 10
-80.0129739493511
 20
-389.1663611931331
 30
0.0
 10
-84.38226158137233
 20
-389.0534362792795
 30
0.0
 10
-88.75147865736237
 20
-388.9369835642878
 30
0.0
 10
-90.39839737401661
 20
-388.8930977183472
 30
0.0
 10
-92.04531609066731
 20
-388.8487179802584
 30
0.0
 10
-93.69219952930563
 20
-388.803526847904
 30
0.0
 10
-94.33104905033552
 20
-388.7859936763312
 30
0.0
 10
-94.96989857136863
 20
-388.768319392723
 30
0.0
 10
-95.60860698034996
 20
-388.7469409179278
 30
0.0
 10
-96.29395292132142
 20
-388.7239749326375
 30
0.0
 10
-96.97919302826216
 20
-388.6967050299838
 30
0.0
 10
-97.66422146712124
 20
-388.6653428780221
 30
0.0
 10
-98.49678255256445
 20
-388.6272073479078
 30
0.0
 10
-99.32906141391662
 20
-388.5830039998719
 30
0.0
 10
-100.1609169391206
 20
-388.5314275474863
 30
0.0
 10
-101.0894342174654
 20
-388.473889111213
 30
0.0
 10
-102.0173870476132
 20
-388.4072136700422
 30
0.0
 10
-102.9444226494519
 20
-388.3295667673731
 30
0.0
 10
-104.5067446930949
 20
-388.1987206238304
 30
0.0
 10
-106.0663503298068
 20
-388.0367592743858
 30
0.0
 10
-107.6206642647115
 20
-387.8299595727041
 30
0.0
 10
-110.2551909299642
 20
-387.479366697362
 30
0.0
 10
-112.8744774939946
 20
-386.9998679690785
 30
0.0
 10
-115.440776483854
 20
-386.3091597877203
 30
0.0
 10
-117.7336708799791
 20
-385.6920062597137
 30
0.0
 10
-119.9842316615881
 20
-384.9062591161774
 30
0.0
 10
-122.1347440008977
 20
-383.9002360706693
 30
0.0
 10
-124.1084429435869
 20
-382.9769399614412
 30
0.0
 10
-125.9978274373653
 20
-381.8680815132779
 30
0.0
 10
-127.7493101818659
 20
-380.5722848837433
 30
0.0
 10
-129.8012557553784
 20
-379.0541309495944
 30
0.0
 10
-131.6638995159916
 20
-377.2793294839316
 30
0.0
 10
-133.2903922636391
 20
-375.3118747990857
 30
0.0
 10
-134.9689200791232
 20
-373.2815194202667
 30
0.0
 10
-136.3959156683743
 20
-371.0459871282817
 30
0.0
 10
-137.5737426581944
 20
-368.6891690337789
 30
0.0
 10
-138.8492897415175
 20
-366.1368402011919
 30
0.0
 10
-139.8325937726455
 20
-363.4421998713932
 30
0.0
 10
-140.5474674097411
 20
-360.6798610380993
 30
0.0
 10
-140.8669450872774
 20
-359.4453070360187
 30
0.0
 10
-141.1328001864246
 20
-358.1972062776297
 30
0.0
 10
-141.3505360770784
 20
-356.9408504646296
 30
0.0
 10
-141.6281740322657
 20
-355.3383820837013
 30
0.0
 10
-141.8274948006017
 20
-353.7224727805042
 30
0.0
 10
-141.9623273628306
 20
-352.1016598337555
 30
0.0
 10
-142.0714775322545
 20
-350.7898822651377
 30
0.0
 10
-142.138364643184
 20
-349.474894397521
 30
0.0
 10
-142.1773821245591
 20
-348.1592362476773
 30
0.0
 10
-142.218763232751
 20
-346.7637086804667
 30
0.0
 10
-142.2287469101718
 20
-345.3674049970086
 30
0.0
 10
-142.2304755327666
 20
-343.9712777036273
 30
0.0
 10
-142.230898868912
 20
-343.6421691371008
 30
0.0
 10
-142.2308635909031
 20
-343.313060570575
 30
0.0
 10
-142.2308283128878
 20
-342.9839520040557
 30
0.0
 10
-142.2307224788513
 20
-342.077377672131
 30
0.0
 10
-142.2307224788513
 20
-341.170838618229
 30
0.0
 10
-142.2307224788513
 20
-340.2642642863113
 30
0.0
 10
-142.2306166448148
 20
-292.4018456476769
 30
0.0
 10
-142.2307224788513
 20
-244.539427009043
 30
0.0
 10
-142.2306519228272
 20
-196.6770083704053
 30
0.0
  0
POLYLINE
  5
63
330
1F
100
AcDbEntity
  8
0
 62
   250
370
    25
100
AcDb2dPolyline
 66
     1
 10
0.0
 20
0.0
 30
0.0
  0
VERTEX
  5
64
330
63
100
AcDbEntity
  8
0
 62
   250
370
    25
100
AcDbVertex
100
AcDb2dVertex
 10
-82.410679319408
 20
-91.67630264049325
 30
0.0
  0
VERTEX
  5
65
330
63
100
AcDbEntity
  8
0
 62
   250
370
    25
100
AcDbVertex
100
AcDb2dVertex
 10
-58.21003357815884
 20
-91.67630264049325
 30
0.0
  0
SEQEND
  5
66
330
63
100
AcDbEntity
  8
0
 62
   250
370
    25
  0
SPLINE
  5
67
330
1F
100
AcDbEntity
  8
0
 62
   250
370
    25
100
AcDbSpline
210
0.0
220
0.0
230
1.0
 70
     8
 71
     3
 72
    83
 73
    79
 74
     0
 42
0.0000000001
 43
0.0000000001
 12
1.0
 22
0.0
 32
0.0
 13
1.0
 23
0.0
 33
0.0
 40
0.0
 40
0.0
 40
0.0
 40
0.0
 40
1.0
 40
1.0
 40
1.0
 40
2.0
 40
2.0
 40
2.0
 40
3.0
 40
3.0
 40
3.0
 40
4.0
 40
4.0
 40
4.0
 40
5.0
 40
5.0
 40
5.0
 40
6.0
 40
6.0
 40
6.0
 40
7.0
 40
7.0
 40
7.0
 40
8.0
 40
8.0
 40
8.0
 40
9.0
 40
9.0
 40
9.0
 40
10.0
 40
10.0
 40
10.0
 40
11.0
 40
11.0
 40
11.0
 40
12.0
 40
12.0
 40
12.0
 40
13.0
 40
13.0
 40
13.0
 40
14.0
 40
14.0
 40
14.0
 40
15.0
 40
15.0
 40
15.0
 40
16.0
 40
16.0
 40
16.0
 40
17.0
 40
17.0
 40
17.0
 40
18.0
 40
18.0
 40
18.0
 40
19.0
 40
19.0
 40
19.0
 40
20.0
 40
20.0
 40
20.0
 40
21.0
 40
21.0
 40
21.0
 40
22.0
 40
22.0
 40
22.0
 40
23.0
 40
23.0
 40
23.0
 40
24.0
 40
24.0
 40
24.0
 40
25.0
 40
25.0
 40
25.0
 40
26.0
 40
26.0
 40
26.0
 40
26.0
 10
118.8906318952103
 20
-448.4221660436415
 30
0.0
 10
111.3594818731409
 20
-448.4221660436415
 30
0.0
 10
103.8283318510703
 20
-448.4208254791897
 30
0.0
 10
96.29714655098533
 20
-448.4181090722498
 30
0.0
 10
24.91328852886157
 20
-448.3924619574584
 30
0.0
 10
-46.47053421524661
 20
-448.2460229292469
 30
0.0
 10
-117.8538983452006
 20
-447.9786861535889
 30
0.0
 10
-190.1028437799194
 20
-447.7081390788325
 30
0.0
 10
-262.3513306004808
 20
-447.3136956256087
 30
0.0
 10
-334.5989354707387
 20
-446.7950735697839
 30
0.0
 10
-337.7936416900523
 20
-446.7721428619299
 30
0.0
 10
-340.9883126313536
 20
-446.7489652079834
 30
0.0
 10
-344.1830188506643
 20
-446.7251878278353
 30
0.0
 10
-345.8852887682921
 20
-446.7124877434788
 30
0.0
 10
-347.5875586859203
 20
-446.699646547076
 30
0.0
 10
-349.2898286035487
 20
-446.6880400810943
 30
0.0
 10
-350.2857621630046
 20
-446.6812314247624
 30
0.0
 10
-351.2816957224645
 20
-446.6748461045682
 30
0.0
 10
-352.277558725896
 20
-446.662710468413
 30
0.0
 10
-352.5996469763273
 20
-446.6587946090631
 30
0.0
 10
-352.921735226756
 20
-446.6542790235155
 30
0.0
 10
-353.2437881991685
 20
-446.6466589729079
 30
0.0
 10
-353.6934417413378
 20
-446.6360402912651
 30
0.0
 10
-354.1429894494645
 20
-446.6193890695515
 30
0.0
 10
-354.5921490994605
 20
-446.5954705773545
 30
0.0
 10
-354.9491978598758
 20
-446.5764557288318
 30
0.0
 10
-355.3059996742063
 20
-446.5528547387509
 30
0.0
 10
-355.6621664843175
 20
-446.5215278639995
 30
0.0
 10
-355.9714840943665
 20
-446.4942932386714
 30
0.0
 10
-356.2803078122493
 20
-446.4612377413294
 30
0.0
 10
-356.5883554138638
 20
-446.4219733138673
 30
0.0
 10
-356.908326983566
 20
-446.3812272099076
 30
0.0
 10
-357.2274518809824
 20
-446.3338135616509
 30
0.0
 10
-357.5451303798968
 20
-446.2780743025427
 30
0.0
 10
-357.8601983059174
 20
-446.222828935597
 30
0.0
 10
-358.1738903894681
 20
-446.1593637918351
 30
0.0
 10
-358.4855716263297
 20
-446.0871849790946
 30
0.0
 10
-358.9781937872258
 20
-445.9731311659879
 30
0.0
 10
-359.465806470401
 20
-445.8372755414048
 30
0.0
 10
-359.9457991029722
 20
-445.6782422628854
 30
0.0
 10
-360.2833038446848
 20
-445.566410964535
 30
0.0
 10
-360.6170691171184
 20
-445.4431143122627
 30
0.0
 10
-360.9462482479793
 20
-445.3087050861808
 30
0.0
 10
-361.7311134610699
 20
-444.98831018033
 30
0.0
 10
-362.4900140572596
 20
-444.6048381888664
 30
0.0
 10
-363.2158591561217
 20
-444.1668616686965
 30
0.0
 10
-363.7987224719555
 20
-443.8151046101044
 30
0.0
 10
-364.3603131464928
 20
-443.4282106514499
 30
0.0
 10
-364.8988320011297
 20
-443.0116831626474
 30
0.0
 10
-365.2837151130886
 20
-442.7140072965873
 30
0.0
 10
-365.6568153690052
 20
-442.4011618853303
 30
0.0
 10
-366.0175683206891
 20
-442.0746638833909
 30
0.0
 10
-366.3788857205705
 20
-441.7476014332475
 30
0.0
 10
-366.7277499821768
 20
-441.4067805584006
 30
0.0
 10
-367.0636672133489
 20
-441.0536476573313
 30
0.0
 10
-367.6827963256197
 20
-440.4027683341709
 30
0.0
 10
-368.2578279227681
 20
-439.7100140106609
 30
0.0
 10
-368.7833997469601
 20
-438.9814877828806
 30
0.0
 10
-369.1658839540992
 20
-438.4512592611017
 30
0.0
 10
-369.52219187626
 20
-437.9021217248185
 30
0.0
 10
-369.8496071065137
 20
-437.3361212987551
 30
0.0
 10
-370.2413341528184
 20
-436.6589598566016
 30
0.0
 10
-370.5917153689479
 20
-435.9576682541634
 30
0.0
 10
-370.8936951524845
 20
-435.2361623507924
 30
0.0
 10
-371.4015574146062
 20
-434.0226692907474
 30
0.0
 10
-371.7724704337738
 20
-432.7518494610443
 30
0.0
 10
-372.0000841678144
 20
-431.4561586328073
 30
0.0
 10
-372.1157607694759
 20
-430.7977650930706
 30
0.0
 10
-372.1944660144562
 20
-430.1329156771297
 30
0.0
 10
-372.2470302524795
 20
-429.4664434726263
 30
0.0
 10
-372.3084845495486
 20
-428.6872227414685
 30
0.0
 10
-372.3342727763891
 20
-427.9057442175338
 30
0.0
 10
-372.3461614664628
 20
-427.1241951375885
 30
0.0
 10
-372.3562862559325
 20
-426.4577229330786
 30
0.0
 10
-372.3562862559325
 20
-425.7911801725543
 30
0.0
 10
-372.3562509779221
 20
-425.12463741203
 30
0.0
 10
-372.3552631935828
 20
-284.6865093193618
 30
0.0
 10
-372.3572740402753
 20
-144.2483803515855
 30
0.0
 10
-372.3542401312366
 20
-3.810239865404772
 30
0.0
  0
SPLINE
  5
68
330
1F
100
AcDbEntity
  8
0
 62
   250
370
    25
100
AcDbSpline
210
0.0
220
0.0
230
1.0
 70
     8
 71
     3
 72
    20
 73
    16
 74
     0
 42
0.0000000001
 43
0.0000000001
 12
1.0
 22
0.0
 32
0.0
 13
1.0
 23
0.0
 33
0.0
 40
0.0
 40
0.0
 40
0.0
 40
0.0
 40
1.0
 40
1.0
 40
1.0
 40
2.0
 40
2.0
 40
2.0
 40
3.0
 40
3.0
 40
3.0
 40
4.0
 40
4.0
 40
4.0
 40
5.0
 40
5.0
 40
5.0
 40
5.0
 10
601.8036135810548
 20
6.227412916021831
 30
0.0
 10
580.9855294735271
 20
6.227659862109784
 30
0.0
 10
77.25446368015665
 20
7.021485690271456
 30
0.0
 10
56.43637957262695
 20
7.01284257730798
 30
0.0
 10
33.89563485648086
 20
7.003493904102331
 30
0.0
 10
11.35489014033478
 20
6.989594367340562
 30
0.0
 10
-11.18581929779925
 20
6.970191460689339
 30
0.0
 10
-51.7168332279515
 20
6.935336784736381
 30
0.0
 10
-92.24781188009202
 20
6.882772546714311
 30
0.0
 10
-132.7787552542202
 20
6.815179875542291
 30
0.0
 10
-175.6705031977579
 20
6.743671345026747
 30
0.0
 10
-218.5622511412923
 20
6.65529992472384
 30
0.0
 10
-261.4539285288059
 20
6.545691141148663
 30
0.0
 10
-295.6434375607578
 20
6.458272227176523
 30
0.0
 10
-329.8329465927096
 20
6.357377112582205
 30
0.0
 10
-364.0223145126142
 20
6.227412916021831
 30
0.0
  0
SPLINE
  5
69
330
1F
100
AcDbEntity
  8
0
 62
   250
370
    25
100
AcDbSpline
210
0.0
220
0.0
230
1.0
 70
     8
 71
     3
 72
     8
 73
     4
 74
     0
 42
0.0000000001
 43
0.0000000001
 12
1.0
 22
0.0
 32
0.0
 13
1.0
 23
0.0
 33
0.0
 40
0.0
 40
0.0
 40
0.0
 40
0.0
 40
1.0
 40
1.0
 40
1.0
 40
1.0
 10
609.2133719635057
 20
0.1186017856135389
 30
0.0
 10
609.8415322468717
 20
-1.149148857050333
 30
0.0
 10
610.1340575231652
 20
-2.395415190333767
 30
0.0
 10
610.1355391996736
 20
-3.810239865404772
 30
0.0
  0
SPLINE
  5
6A
330
1F
100
AcDbEntity
  8
0
 62
   250
370
    25
100
AcDbSpline
210
0.0
220
0.0
230
1.0
 70
     8
 71
     3
 72
    23
 73
    19
 74
     0
 42
0.0000000001
 43
0.0000000001
 12
1.0
 22
0.0
 32
0.0
 13
1.0
 23
0.0
 33
0.0
 40
0.0
 40
0.0
 40
0.0
 40
0.0
 40
1.0
 40
1.0
 40
1.0
 40
2.0
 40
2.0
 40
2.0
 40
3.0
 40
3.0
 40
3.0
 40
4.0
 40
4.0
 40
4.0
 40
5.0
 40
5.0
 40
5.0
 40
6.0
 40
6.0
 40
6.0
 40
6.0
 10
609.2133719635057
 20
0.1186017856135389
 30
0.0
 10
609.0433319452094
 20
0.5786270633218827
 30
0.0
 10
608.850608165129
 20
1.032196464835675
 30
0.0
 10
608.6324489383359
 20
1.472254387704961
 30
0.0
 10
608.4190169651577
 20
1.902751969305221
 30
0.0
 10
608.18120788563
 20
2.320373076486085
 30
0.0
 10
607.9163758488305
 20
2.721378239974598
 30
0.0
 10
607.4238595219664
 20
3.467014303609378
 30
0.0
 10
606.8378564630548
 20
4.155182485557555
 30
0.0
 10
606.1480654925559
 20
4.723017368245244
 30
0.0
 10
605.5387083896417
 20
5.224670700233384
 30
0.0
 10
604.8483176929343
 20
5.632449242038469
 30
0.0
 10
604.1032460774858
 20
5.892977361366172
 30
0.0
 10
603.7376600381486
 20
6.020789599183479
 30
0.0
 10
603.358915300296
 20
6.113182712859674
 30
0.0
 10
602.9758313669518
 20
6.169415864137315
 30
0.0
 10
602.5880907360105
 20
6.226354575663867
 30
0.0
 10
602.1958697975398
 20
6.246321930506133
 30
0.0
 10
601.8036135810548
 20
6.227412916021831
 30
0.0
  0
SPLINE
  5
6B
330
1F
100
AcDbEntity
  8
0
 62
   250
370
    25
100
AcDbSpline
210
0.0
220
0.0
230
1.0
 70
     8
 71
     3
 72
    80
 73
    76
 74
     0
 42
0.0000000001
 43
0.0000000001
 12
1.0
 22
0.0
 32
0.0
 13
1.0
 23
0.0
 33
0.0
 40
0.0
 40
0.0
 40
0.0
 40
0.0
 40
1.0
 40
1.0
 40
1.0
 40
2.0
 40
2.0
 40
2.0
 40
3.0
 40
3.0
 40
3.0
 40
4.0
 40
4.0
 40
4.0
 40
5.0
 40
5.0
 40
5.0
 40
6.0
 40
6.0
 40
6.0
 40
7.0
 40
7.0
 40
7.0
 40
8.0
 40
8.0
 40
8.0
 40
9.0
 40
9.0
 40
9.0
 40
10.0
 40
10.0
 40
10.0
 40
11.0
 40
11.0
 40
11.0
 40
12.0
 40
12.0
 40
12.0
 40
13.0
 40
13.0
 40
13.0
 40
14.0
 40
14.0
 40
14.0
 40
15.0
 40
15.0
 40
15.0
 40
16.0
 40
16.0
 40
16.0
 40
17.0
 40
17.0
 40
17.0
 40
18.0
 40
18.0
 40
18.0
 40
19.0
 40
19.0
 40
19.0
 40
20.0
 40
20.0
 40
20.0
 40
21.0
 40
21.0
 40
21.0
 40
22.0
 40
22.0
 40
22.0
 40
23.0
 40
23.0
 40
23.0
 40
24.0
 40
24.0
 40
24.0
 40
25.0
 40
25.0
 40
25.0
 40
25.0
 10
610.1355391996736
 20
-3.810239865404772
 30
0.0
 10
610.1385731087128
 20
-144.2483803515855
 30
0.0
 10
610.1365622620231
 20
-284.6865093193618
 30
0.0
 10
610.1376558803947
 20
-425.12463741203
 30
0.0
 10
610.1376558803947
 20
-425.7911801725543
 30
0.0
 10
610.1376558803947
 20
-426.4577229330786
 30
0.0
 10
610.1276369249638
 20
-427.1242304155989
 30
0.0
 10
610.115889346939
 20
-427.9057794955481
 30
0.0
 10
610.0903833441939
 20
-428.6873285755005
 30
0.0
 10
610.0285409889906
 20
-429.4664787506406
 30
0.0
 10
609.9756592488577
 20
-430.1329156771297
 30
0.0
 10
609.8962484436368
 20
-430.7975887030215
 30
0.0
 10
609.7805365639579
 20
-431.4560175207578
 30
0.0
 10
609.5528522739002
 20
-432.7517083489947
 30
0.0
 10
609.1847614957006
 20
-434.0230926268928
 30
0.0
 10
608.6759820052608
 20
-435.236374018859
 30
0.0
 10
608.423955886857
 20
-435.8373702329191
 30
0.0
 10
608.1374278726164
 20
-436.4240788520636
 30
0.0
 10
607.822642170688
 20
-436.9947712537314
 30
0.0
 10
607.4437210427786
 20
-437.6817047052479
 30
0.0
 10
607.0238068648099
 20
-438.3454252248151
 30
0.0
 10
606.5651574295598
 20
-438.9815936169268
 30
0.0
 10
606.0755338996922
 20
-439.6607659057719
 30
0.0
 10
605.5417070206697
 20
-440.3085407638659
 30
0.0
 10
604.9701679467119
 20
-440.9205084396772
 30
0.0
 10
604.5959035163962
 20
-441.3212666570774
 30
0.0
 10
604.205446478526
 20
-441.7066436612091
 30
0.0
 10
603.7989732231681
 20
-442.0746638833909
 30
0.0
 10
603.4382908275057
 20
-442.4011971633408
 30
0.0
 10
603.0650494595365
 20
-442.7140778526089
 30
0.0
 10
602.6800957915598
 20
-443.0117537186651
 30
0.0
 10
602.1414711028874
 20
-443.4282459294643
 30
0.0
 10
601.5799862623857
 20
-443.8149987760659
 30
0.0
 10
600.9971229465484
 20
-444.1667911126755
 30
0.0
 10
600.3437388845358
 20
-444.5611287318705
 30
0.0
 10
599.6634729773016
 20
-444.9115099480035
 30
0.0
 10
598.9615463706438
 20
-445.2110908267097
 30
0.0
 10
598.5567664598661
 20
-445.3838472519421
 30
0.0
 10
598.1447898346178
 20
-445.5397055093767
 30
0.0
 10
597.7270628933989
 20
-445.6781717068542
 30
0.0
 10
597.284923567809
 20
-445.8247165690977
 30
0.0
 10
596.8363283660034
 20
-445.9517526906562
 30
0.0
 10
596.3833234126964
 20
-446.0598797977206
 30
0.0
 10
595.7196734491616
 20
-446.2183133500455
 30
0.0
 10
595.0464984223617
 20
-446.3361771884599
 30
0.0
 10
594.3696192042937
 20
-446.4222555379632
 30
0.0
 10
594.0615716026795
 20
-446.4614141314003
 30
0.0
 10
593.7527831628072
 20
-446.4939757365581
 30
0.0
 10
593.4434655527549
 20
-446.5212456399036
 30
0.0
 10
593.0872987426434
 20
-446.5526077926559
 30
0.0
 10
592.730496928316
 20
-446.5769496210084
 30
0.0
 10
592.3734481679007
 20
-446.5959291915098
 30
0.0
 10
591.9242532398872
 20
-446.6198124056968
 30
0.0
 10
591.4747055317603
 20
-446.6352641750037
 30
0.0
 10
591.0250519896018
 20
-446.6459181346498
 30
0.0
 10
590.7030342951931
 20
-446.6535381852574
 30
0.0
 10
590.3809460447627
 20
-446.6587240530383
 30
0.0
 10
590.0588577943395
 20
-446.6630279705116
 30
0.0
 10
589.0629947909013
 20
-446.6763630590942
 30
0.0
 10
588.067025953431
 20
-446.6815136488576
 30
0.0
 10
587.0710923939712
 20
-446.6876520229632
 30
0.0
 10
585.3688224763449
 20
-446.6981648705604
 30
0.0
 10
583.6665525587226
 20
-446.7116057931751
 30
0.0
 10
581.9643179191037
 20
-446.7246586576445
 30
0.0
 10
578.8032669233332
 20
-446.7489299299658
 30
0.0
 10
575.6421806495415
 20
-446.7718253598235
 30
0.0
 10
572.4810943757567
 20
-446.7944738435901
 30
0.0
 10
500.1998695599725
 20
-447.3127783972874
 30
0.0
 10
427.9177627938838
 20
-447.7079274107653
 30
0.0
 10
355.6351621356295
 20
-447.9787567096137
 30
0.0
 10
284.3873008501303
 20
-448.2457054271405
 30
0.0
 10
213.138945672463
 20
-448.3918975092641
 30
0.0
 10
141.8905904948021
 20
-448.4179679602034
 30
0.0
 10
134.223937628276
 20
-448.4207549231579
 30
0.0
 10
126.5572847617434
 20
-448.4221660436415
 30
0.0
 10
118.8906318952103
 20
-448.4221660436415
 30
0.0
  0
SPLINE
  5
6C
330
1F
100
AcDbEntity
  8
0
 62
   250
370
    25
100
AcDbSpline
210
0.0
220
0.0
230
1.0
 70
     8
 71
     3
 72
    23
 73
    19
 74
     0
 42
0.0000000001
 43
0.0000000001
 12
1.0
 22
0.0
 32
0.0
 13
1.0
 23
0.0
 33
0.0
 40
0.0
 40
0.0
 40
0.0
 40
0.0
 40
1.0
 40
1.0
 40
1.0
 40
2.0
 40
2.0
 40
2.0
 40
3.0
 40
3.0
 40
3.0
 40
4.0
 40
4.0
 40
4.0
 40
5.0
 40
5.0
 40
5.0
 40
6.0
 40
6.0
 40
6.0
 40
6.0
 10
-371.4320728950683
 20
0.1186017856135389
 30
0.0
 10
-371.2615389845993
 20
0.5789798434434499
 30
0.0
 10
-371.0683565903672
 20
1.032937303090228
 30
0.0
 10
-370.8499504174856
 20
1.473453840117263
 30
0.0
 10
-370.6366948343705
 20
1.903492807560095
 30
0.0
 10
-370.3993443689913
 20
2.32072585661086
 30
0.0
 10
-370.1349356683405
 20
2.721342961959329
 30
0.0
 10
-369.6427368435893
 20
3.467049581627535
 30
0.0
 10
-369.0566632286532
 20
4.155076651518165
 30
0.0
 10
-368.3669428141824
 20
4.722876256189942
 30
0.0
 10
-367.7566684829395
 20
5.225270426436166
 30
0.0
 10
-367.0652547238929
 20
5.633507582398999
 30
0.0
 10
-366.3188778219959
 20
5.894000423711433
 30
0.0
 10
-365.9530448365705
 20
6.021671549486916
 30
0.0
 10
-365.5739825966079
 20
6.113888273102808
 30
0.0
 10
-365.1906517171826
 20
6.169980312331567
 30
0.0
 10
-364.80418109468
 20
6.226566243730455
 30
0.0
 10
-364.4133712766895
 20
6.246463042555016
 30
0.0
 10
-364.0223145126142
 20
6.227412916021831
 30
0.0
  0
SPLINE
  5
6D
330
1F
100
AcDbEntity
  8
0
 62
   250
370
    25
100
AcDbSpline
210
0.0
220
0.0
230
1.0
 70
     8
 71
     3
 72
     8
 73
     4
 74
     0
 42
0.0000000001
 43
0.0000000001
 12
1.0
 22
0.0
 32
0.0
 13
1.0
 23
0.0
 33
0.0
 40
0.0
 40
0.0
 40
0.0
 40
0.0
 40
1.0
 40
1.0
 40
1.0
 40
1.0
 10
-372.3542401312366
 20
-3.810239865404772
 30
0.0
 10
-372.3527937327382
 20
-2.395415190333767
 30
0.0
 10
-372.0602684564454
 20
-1.149148857050333
 30
0.0
 10
-371.4320728950683
 20
0.1186017856135389
 30
0.0
  0
SPLINE
  5
6E
330
1F
100
AcDbEntity
  8
0
 62
   250
370
    25
100
AcDbSpline
210
0.0
220
0.0
230
1.0
 70
     8
 71
     3
 72
    53
 73
    49
 74
     0
 42
0.0000000001
 43
0.0000000001
 12
1.0
 22
0.0
 32
0.0
 13
1.0
 23
0.0
 33
0.0
 40
0.0
 40
0.0
 40
0.0
 40
0.0
 40
1.0
 40
1.0
 40
1.0
 40
2.0
 40
2.0
 40
2.0
 40
3.0
 40
3.0
 40
3.0
 40
4.0
 40
4.0
 40
4.0
 40
5.0
 40
5.0
 40
5.0
 40
6.0
 40
6.0
 40
6.0
 40
7.0
 40
7.0
 40
7.0
 40
8.0
 40
8.0
 40
8.0
 40
9.0
 40
9.0
 40
9.0
 40
10.0
 40
10.0
 40
10.0
 40
11.0
 40
11.0
 40
11.0
 40
12.0
 40
12.0
 40
12.0
 40
13.0
 40
13.0
 40
13.0
 40
14.0
 40
14.0
 40
14.0
 40
15.0
 40
15.0
 40
15.0
 40
16.0
 40
16.0
 40
16.0
 40
16.0
 10
-82.410679319408
 20
-91.67630264049325
 30
0.0
 10
-102.5115967190572
 20
-91.67633791850177
 30
0.0
 10
-122.6125141187029
 20
-91.67626736248407
 30
0.0
 10
-142.7134315183492
 20
-91.6764084745259
 30
0.0
 10
-144.1802207052424
 20
-91.67644375254149
 30
0.0
 10
-145.647009892132
 20
-91.67644375254149
 30
0.0
 10
-147.1137638010129
 20
-91.67594986037456
 30
0.0
 10
-148.3168498474894
 20
-91.67556180224157
 30
0.0
 10
-149.5199006159634
 20
-91.67482096398349
 30
0.0
 10
-150.7229866624463
 20
-91.67757264892357
 30
0.0
 10
-151.347901368696
 20
-91.67898376940856
 30
0.0
 10
-151.9728160749488
 20
-91.68134739622207
 30
0.0
 10
-152.5972368890322
 20
-91.70572450258055
 30
0.0
 10
-153.6056941427863
 20
-91.74505948606871
 30
0.0
 10
-154.6128813881037
 20
-91.8417917952309
 30
0.0
 10
-155.6058868725561
 20
-92.02096881866409
 30
0.0
 10
-156.4837449255311
 20
-92.17940237098196
 30
0.0
 10
-157.3505256827089
 20
-92.40225357338576
 30
0.0
 10
-158.1956457404627
 20
-92.6874057451474
 30
0.0
 10
-159.9565829922019
 20
-93.28152274684645
 30
0.0
 10
-161.6236101757498
 20
-94.14604571124403
 30
0.0
 10
-163.1519594937459
 20
-95.2045271861496
 30
0.0
 10
-164.1949186433257
 20
-95.9268444838028
 30
0.0
 10
-165.1732484747493
 20
-96.73947349241547
 30
0.0
 10
-166.0804931118003
 20
-97.6258688243143
 30
0.0
 10
-167.1571427629324
 20
-98.67778858896637
 30
0.0
 10
-168.1336734157375
 20
-99.83363737725637
 30
0.0
 10
-168.9811218222881
 20
-101.078210365957
 30
0.0
 10
-169.8300166273333
 20
-102.3249000353865
 30
0.0
 10
-170.5494411279876
 20
-103.6606314073457
 30
0.0
 10
-171.0985433862513
 20
-105.0647668447592
 30
0.0
 10
-171.5710923582639
 20
-106.2730740370284
 30
0.0
 10
-171.9175224370387
 20
-107.5320846308499
 30
0.0
 10
-172.1247454800866
 20
-108.8129586616377
 30
0.0
 10
-172.2183380461754
 20
-109.3912710993013
 30
0.0
 10
-172.2835318125254
 20
-109.9740638443965
 30
0.0
 10
-172.3269590454142
 20
-110.5582677099363
 30
0.0
 10
-172.3820280222945
 20
-111.2985414970365
 30
0.0
 10
-172.4021717672005
 20
-112.0411083548652
 30
0.0
 10
-172.4094037596816
 20
-112.7835341006578
 30
0.0
 10
-172.4151187976408
 20
-113.370136870958
 30
0.0
 10
-172.4127904488436
 20
-113.956669085234
 30
0.0
 10
-172.4117321084824
 20
-114.5432012995094
 30
0.0
 10
-172.4108854361914
 20
-115.0215005754137
 30
0.0
 10
-172.4109207142002
 20
-115.499764573303
 30
0.0
 10
-172.4109207142002
 20
-115.9780638492072
 30
0.0
 10
-172.4114146063703
 20
-127.8776192523888
 30
0.0
 10
-172.4112029382973
 20
-139.7771746555704
 30
0.0
 10
-172.4112734943214
 20
-151.6766947807435
 30
0.0
  0
POLYLINE
  5
6F
330
1F
100
AcDbEntity
  8
0
 62
   250
370
    25
100
AcDb2dPolyline
 66
     1
 10
0.0
 20
0.0
 30
0.0
  0
VERTEX
  5
70
330
6F
100
AcDbEntity
  8
0
 62
   250
370
    25
100
AcDbVertex
100
AcDb2dVertex
 10
-172.4112734943214
 20
-151.6766947807435
 30
0.0
  0
VERTEX
  5
71
330
6F
100
AcDbEntity
  8
0
 62
   250
370
    25
100
AcDbVertex
100
AcDb2dVertex
 10
-172.4112734943214
 20
-196.6770083704053
 30
0.0
  0
SEQEND
  5
72
330
6F
100
AcDbEntity
  8
0
 62
   250
370
    25
  0
SPLINE
  5
73
330
1F
100
AcDbEntity
  8
0
 62
   250
370
    25
100
AcDbSpline
210
0.0
220
0.0
230
1.0
 70
     8
 71
     3
 72
    62
 73
    58
 74
     0
 42
0.0000000001
 43
0.0000000001
 12
1.0
 22
0.0
 32
0.0
 13
1.0
 23
0.0
 33
0.0
 40
0.0
 40
0.0
 40
0.0
 40
0.0
 40
1.0
 40
1.0
 40
1.0
 40
2.0
 40
2.0
 40
2.0
 40
3.0
 40
3.0
 40
3.0
 40
4.0
 40
4.0
 40
4.0
 40
5.0
 40
5.0
 40
5.0
 40
6.0
 40
6.0
 40
6.0
 40
7.0
 40
7.0
 40
7.0
 40
8.0
 40
8.0
 40
8.0
 40
9.0
 40
9.0
 40
9.0
 40
10.0
 40
10.0
 40
10.0
 40
11.0
 40
11.0
 40
11.0
 40
12.0
 40
12.0
 40
12.0
 40
13.0
 40
13.0
 40
13.0
 40
14.0
 40
14.0
 40
14.0
 40
15.0
 40
15.0
 40
15.0
 40
16.0
 40
16.0
 40
16.0
 40
17.0
 40
17.0
 40
17.0
 40
18.0
 40
18.0
 40
18.0
 40
19.0
 40
19.0
 40
19.0
 40
19.0
 10
118.8906318952103
 20
-428.9785485653558
 30
0.0
 10
163.9579042886289
 20
-428.9785485653558
 30
0.0
 10
209.0251414040442
 20
-428.9303235228163
 30
0.0
 10
254.0923079634225
 20
-428.8338734377441
 30
0.0
 10
280.7679884772459
 20
-428.7767583361659
 30
0.0
 10
307.4436689910636
 20
-428.7027803448074
 30
0.0
 10
334.1192436708409
 20
-428.6118336296263
 30
0.0
 10
342.1376183179653
 20
-428.5844931702484
 30
0.0
 10
350.1559929650827
 20
-428.5556357563553
 30
0.0
 10
358.1743323341858
 20
-428.5256141680595
 30
0.0
 10
362.3440875297973
 20
-428.5100212867133
 30
0.0
 10
366.5138780034193
 20
-428.4941109032577
 30
0.0
 10
370.6836684770412
 20
-428.4739671583574
 30
0.0
 10
371.6723700440168
 20
-428.4691693487075
 30
0.0
 10
372.6611068890105
 20
-428.4641598709904
 30
0.0
 10
373.6492087297884
 20
-428.4306810375107
 30
0.0
 10
374.6339238813963
 20
-428.3973433160799
 30
0.0
 10
375.6180393068072
 20
-428.3357479069653
 30
0.0
 10
376.598732765037
 20
-428.2396506020131
 30
0.0
 10
377.5707478322929
 20
-428.1444352473691
 30
0.0
 10
378.5394114883995
 20
-428.0153530011145
 30
0.0
 10
379.5006314839591
 20
-427.8434785261929
 30
0.0
 10
381.2986459264098
 20
-427.5220252799847
 30
0.0
 10
383.0706604739523
 20
-427.0509579844701
 30
0.0
 10
384.7917688500374
 20
-426.4386375285343
 30
0.0
 10
386.5848443707958
 20
-425.8007405138397
 30
0.0
 10
388.3227450806403
 20
-425.0094899805517
 30
0.0
 10
389.9891372599705
 20
-424.0901811646036
 30
0.0
 10
391.8962313158174
 20
-423.0380850364662
 30
0.0
 10
393.7096975275679
 20
-421.8182419650494
 30
0.0
 10
395.4158480265259
 20
-420.4640602269841
 30
0.0
 10
397.6446775526902
 20
-418.6950443551626
 30
0.0
 10
399.6903083620361
 20
-416.6967919665319
 30
0.0
 10
401.5149224256093
 20
-414.5130477949933
 30
0.0
 10
403.144307970248
 20
-412.5628793356489
 30
0.0
 10
404.59744456646
 20
-410.4647901753095
 30
0.0
 10
405.8227557605603
 20
-408.2387476683425
 30
0.0
 10
407.0733612893351
 20
-405.9668084687883
 30
0.0
 10
408.0866869087558
 20
-403.5616242209316
 30
0.0
 10
408.8017369359111
 20
-401.0688799492636
 30
0.0
 10
409.1509892556517
 20
-399.8513652265895
 30
0.0
 10
409.4290858249987
 20
-398.6129659212858
 30
0.0
 10
409.6379316566007
 20
-397.3635598764906
 30
0.0
 10
409.8509755716453
 20
-396.0888242196424
 30
0.0
 10
409.9919465079807
 20
-394.8026232091573
 30
0.0
 10
410.075132060495
 20
-393.5130707876095
 30
0.0
 10
410.1783555238918
 20
-391.912436863264
 30
0.0
 10
410.1925020067392
 20
-390.3066170712653
 30
0.0
 10
410.1928547868631
 20
-388.7028434039238
 30
0.0
 10
410.1928900648703
 20
-388.5007003997295
 30
0.0
 10
410.1927136748135
 20
-388.2985926735457
 30
0.0
 10
410.1926431187887
 20
-388.0964496693373
 30
0.0
 10
410.1925372847497
 20
-387.8946241672423
 30
0.0
 10
410.1925372847497
 20
-387.692728109129
 30
0.0
 10
410.1925372847497
 20
-387.4908673290158
 30
0.0
 10
410.192572562764
 20
-323.8862359168137
 30
0.0
 10
410.192572562764
 20
-260.2816397826125
 30
0.0
 10
410.192572562764
 20
-196.6770083704053
 30
0.0
  0
SPLINE
  5
74
330
1F
100
AcDbEntity
  8
0
 62
   250
370
    25
100
AcDbSpline
210
0.0
220
0.0
230
1.0
 70
     8
 71
     3
 72
    71
 73
    67
 74
     0
 42
0.0000000001
 43
0.0000000001
 12
1.0
 22
0.0
 32
0.0
 13
1.0
 23
0.0
 33
0.0
 40
0.0
 40
0.0
 40
0.0
 40
0.0
 40
1.0
 40
1.0
 40
1.0
 40
2.0
 40
2.0
 40
2.0
 40
3.0
 40
3.0
 40
3.0
 40
4.0
 40
4.0
 40
4.0
 40
5.0
 40
5.0
 40
5.0
 40
6.0
 40
6.0
 40
6.0
 40
7.0
 40
7.0
 40
7.0
 40
8.0
 40
8.0
 40
8.0
 40
9.0
 40
9.0
 40
9.0
 40
10.0
 40
10.0
 40
10.0
 40
11.0
 40
11.0
 40
11.0
 40
12.0
 40
12.0
 40
12.0
 40
13.0
 40
13.0
 40
13.0
 40
14.0
 40
14.0
 40
14.0
 40
15.0
 40
15.0
 40
15.0
 40
16.0
 40
16.0
 40
16.0
 40
17.0
 40
17.0
 40
17.0
 40
18.0
 40
18.0
 40
18.0
 40
19.0
 40
19.0
 40
19.0
 40
20.0
 40
20.0
 40
20.0
 40
21.0
 40
21.0
 40
21.0
 40
22.0
 40
22.0
 40
22.0
 40
22.0
 10
380.0119509912678
 20
-196.6770083704053
 30
0.0
 10
380.011986269275
 20
-244.539427009043
 30
0.0
 10
380.0119157132503
 20
-292.4018456476769
 30
0.0
 10
380.0120921033142
 20
-340.2642642863113
 30
0.0
 10
380.0120921033142
 20
-341.1708033402134
 30
0.0
 10
380.0120921033142
 20
-342.077377672131
 30
0.0
 10
380.0121273813246
 20
-342.9839520040557
 30
0.0
 10
380.0121273813246
 20
-343.313060570575
 30
0.0
 10
380.0121626593389
 20
-343.6421691371008
 30
0.0
 10
380.0117393231935
 20
-343.9712777036273
 30
0.0
 10
380.0099401445788
 20
-345.3674402750243
 30
0.0
 10
380.0003798033005
 20
-346.7636734024645
 30
0.0
 10
379.958892861075
 20
-348.1592009696617
 30
0.0
 10
379.9197695456592
 20
-349.474894397521
 30
0.0
 10
379.8523179865367
 20
-350.7899175431527
 30
0.0
 10
379.7432383731405
 20
-352.1016951117583
 30
0.0
 10
379.6084763669354
 20
-353.7225433365226
 30
0.0
 10
379.4101433829364
 20
-355.3384879177333
 30
0.0
 10
379.13239959371
 20
-356.9407799086119
 30
0.0
 10
378.9146637030547
 20
-358.1970298875876
 30
0.0
 10
378.6481030436652
 20
-359.4448836998874
 30
0.0
 10
378.3283431420335
 20
-360.6794377019687
 30
0.0
 10
377.6128697787367
 20
-363.4417412572451
 30
0.0
 10
376.6311179801387
 20
-366.1372988153259
 30
0.0
 10
375.3556061748241
 20
-368.6895923699133
 30
0.0
 10
374.177814463019
 20
-371.0463751864057
 30
0.0
 10
372.7494783093083
 20
-373.2809902501008
 30
0.0
 10
371.0710210498476
 20
-375.3114514629583
 30
0.0
 10
369.4445283022024
 20
-377.2790119818254
 30
0.0
 10
367.5831545500218
 20
-379.0549070658379
 30
0.0
 10
365.5311384204894
 20
-380.5729198879417
 30
0.0
 10
363.7796556759878
 20
-381.8686459614548
 30
0.0
 10
361.8892833978646
 20
-382.9765519033178
 30
0.0
 10
359.9154786211392
 20
-383.8997421785101
 30
0.0
 10
357.7648251697894
 20
-384.9056593899791
 30
0.0
 10
355.515111060466
 20
-385.6922884838128
 30
0.0
 10
353.2223577763956
 20
-386.3095125678371
 30
0.0
 10
350.6562351765923
 20
-387.0002913052129
 30
0.0
 10
348.0361724962982
 20
-387.4788375271923
 30
0.0
 10
345.4017516650753
 20
-387.8295715145872
 30
0.0
 10
343.8475082862011
 20
-388.0364770503008
 30
0.0
 10
342.2882554296104
 20
-388.1988970138795
 30
0.0
 10
340.7259686639769
 20
-388.329813713454
 30
0.0
 10
338.9684533794043
 20
-388.4770994102236
 30
0.0
 10
337.2070927915188
 20
-388.5844856763348
 30
0.0
 10
335.4453088674885
 20
-388.6650606539333
 30
0.0
 10
334.7603157066351
 20
-388.6963875278743
 30
0.0
 10
334.0752872677731
 20
-388.7236574305389
 30
0.0
 10
333.389976604814
 20
-388.7467292498644
 30
0.0
 10
332.7513034738445
 20
-388.7682488367053
 30
0.0
 10
332.1124186748025
 20
-388.7861347883807
 30
0.0
 10
331.4734985977456
 20
-388.8037737939855
 30
0.0
 10
329.9434912131791
 20
-388.8460721294138
 30
0.0
 10
328.4135896626453
 20
-388.8870299004288
 30
0.0
 10
326.8836528341029
 20
-388.9276701693265
 30
0.0
 10
322.3975597040407
 20
-389.0468040131629
 30
0.0
 10
317.9112901839147
 20
-389.1631508941219
 30
0.0
 10
313.4249148297425
 20
-389.2755113598063
 30
0.0
 10
303.7091033526554
 20
-389.5188590810823
 30
0.0
 10
293.9928685394236
 20
-389.7435094564359
 30
0.0
 10
284.2762456680542
 20
-389.9500269340223
 30
0.0
 10
265.2075629023122
 20
-390.3552654487253
 30
0.0
 10
246.1373984600599
 20
-390.6904771111871
 30
0.0
 10
227.066246233475
 20
-390.9556266433857
 30
0.0
 10
191.01007174753
 20
-391.456856626571
 30
0.0
 10
154.9504752944109
 20
-391.7075421741932
 30
0.0
 10
118.8908435632897
 20
-391.7075421741932
 30
0.0
  0
POLYLINE
  5
75
330
1F
100
AcDbEntity
  8
0
 62
   250
370
    25
100
AcDb2dPolyline
 66
     1
 10
0.0
 20
0.0
 30
0.0
  0
VERTEX
  5
76
330
75
100
AcDbEntity
  8
0
 62
   250
370
    25
100
AcDbVertex
100
AcDb2dVertex
 10
410.192572562764
 20
-151.6766947807435
 30
0.0
  0
VERTEX
  5
77
330
75
100
AcDbEntity
  8
0
 62
   250
370
    25
100
AcDbVertex
100
AcDb2dVertex
 10
410.192572562764
 20
-196.6770083704053
 30
0.0
  0
SEQEND
  5
78
330
75
100
AcDbEntity
  8
0
 62
   250
370
    25
  0
SPLINE
  5
79
330
1F
100
AcDbEntity
  8
0
 62
   250
370
    25
100
AcDbSpline
210
0.0
220
0.0
230
1.0
 70
     8
 71
     3
 72
    17
 73
    13
 74
     0
 42
0.0000000001
 43
0.0000000001
 12
1.0
 22
0.0
 32
0.0
 13
1.0
 23
0.0
 33
0.0
 40
0.0
 40
0.0
 40
0.0
 40
0.0
 40
1.0
 40
1.0
 40
1.0
 40
2.0
 40
2.0
 40
2.0
 40
3.0
 40
3.0
 40
3.0
 40
4.0
 40
4.0
 40
4.0
 40
4.0
 10
380.1747590170838
 20
-151.6766947807435
 30
0.0
 10
380.1746179050342
 20
-152.085602208609
 30
0.0
 10
380.1795921047408
 20
-152.4945449144829
 30
0.0
 10
380.1809679472109
 20
-152.9034523423516
 30
0.0
 10
380.1826612917936
 20
-153.4034123171354
 30
0.0
 10
380.1789571005257
 20
-153.9033722919121
 30
0.0
 10
380.1752881872675
 20
-154.4032969886836
 30
0.0
 10
380.1202544883961
 20
-161.9201592259656
 30
0.0
 10
380.0744989067117
 20
-169.4370567412633
 30
0.0
 10
380.0469115012496
 20
-176.9540600905846
 30
0.0
 10
380.0227813409746
 20
-183.528329146516
 30
0.0
 10
380.0125507174693
 20
-190.1026687584562
 30
0.0
 10
380.0119509912678
 20
-196.6770083704053
 30
0.0
  0
SPLINE
  5
7A
330
1F
100
AcDbEntity
  8
0
 62
   250
370
    25
100
AcDbSpline
210
0.0
220
0.0
230
1.0
 70
     8
 71
     3
 72
    53
 73
    49
 74
     0
 42
0.0000000001
 43
0.0000000001
 12
1.0
 22
0.0
 32
0.0
 13
1.0
 23
0.0
 33
0.0
 40
0.0
 40
0.0
 40
0.0
 40
0.0
 40
1.0
 40
1.0
 40
1.0
 40
2.0
 40
2.0
 40
2.0
 40
3.0
 40
3.0
 40
3.0
 40
4.0
 40
4.0
 40
4.0
 40
5.0
 40
5.0
 40
5.0
 40
6.0
 40
6.0
 40
6.0
 40
7.0
 40
7.0
 40
7.0
 40
8.0
 40
8.0
 40
8.0
 40
9.0
 40
9.0
 40
9.0
 40
10.0
 40
10.0
 40
10.0
 40
11.0
 40
11.0
 40
11.0
 40
12.0
 40
12.0
 40
12.0
 40
13.0
 40
13.0
 40
13.0
 40
14.0
 40
14.0
 40
14.0
 40
15.0
 40
15.0
 40
15.0
 40
16.0
 40
16.0
 40
16.0
 40
16.0
 10
-58.21003357815884
 20
-91.67630264049325
 30
0.0
 10
-38.10911617850932
 20
-91.67633791850177
 30
0.0
 10
360.3938131871416
 20
-91.67626736248407
 30
0.0
 10
380.494730586786
 20
-91.6764084745259
 30
0.0
 10
381.9615197736798
 20
-91.67644375254149
 30
0.0
 10
383.428308960573
 20
-91.67644375254149
 30
0.0
 10
384.8950628694486
 20
-91.67594986037456
 30
0.0
 10
386.0981489159316
 20
-91.67556180224157
 30
0.0
 10
387.3011996844002
 20
-91.67482096398349
 30
0.0
 10
388.5042857308831
 20
-91.67757264892357
 30
0.0
 10
389.1292004371395
 20
-91.67898376940856
 30
0.0
 10
389.7541151433895
 20
-91.68134739622207
 30
0.0
 10
390.3785359574763
 20
-91.70572450258055
 30
0.0
 10
391.3869579332152
 20
-91.74505948606871
 30
0.0
 10
392.3941451785329
 20
-91.8417917952309
 30
0.0
 10
393.3871859409999
 20
-92.02096881866409
 30
0.0
 10
394.2650087159568
 20
-92.17940237098196
 30
0.0
 10
395.1317894731371
 20
-92.40225357338576
 30
0.0
 10
395.9769448088971
 20
-92.6874057451474
 30
0.0
 10
397.7378820606457
 20
-93.28152274684645
 30
0.0
 10
399.404909244184
 20
-94.14604571124403
 30
0.0
 10
400.9332585621859
 20
-95.2045271861496
 30
0.0
 10
401.9761824337539
 20
-95.9268444838028
 30
0.0
 10
402.9545475431858
 20
-96.73947349241547
 30
0.0
 10
403.8617921802409
 20
-97.6258688243143
 30
0.0
 10
404.9384418313701
 20
-98.67778858896637
 30
0.0
 10
405.9149372061624
 20
-99.83363737725637
 30
0.0
 10
406.7623856127138
 20
-101.078210365957
 30
0.0
 10
407.6113156957742
 20
-102.3249000353865
 30
0.0
 10
408.3307049184139
 20
-103.6606314073457
 30
0.0
 10
408.8798424546906
 20
-105.0647668447592
 30
0.0
 10
409.3523561486963
 20
-106.2730740370284
 30
0.0
 10
409.698786227465
 20
-107.5320846308499
 30
0.0
 10
409.9060445485272
 20
-108.8129586616377
 30
0.0
 10
409.9996018366027
 20
-109.3912710993013
 30
0.0
 10
410.0647956029578
 20
-109.9740638443965
 30
0.0
 10
410.1082581138548
 20
-110.5582677099363
 30
0.0
 10
410.1633270907328
 20
-111.2985414970365
 30
0.0
 10
410.1834708356408
 20
-112.0411083548652
 30
0.0
 10
410.1907028281174
 20
-112.7835341006578
 30
0.0
 10
410.1964178660853
 20
-113.370136870958
 30
0.0
 10
410.1940542392692
 20
-113.956669085234
 30
0.0
 10
410.1930311769198
 20
-114.5432012995094
 30
0.0
 10
410.1921845046265
 20
-115.0215005754137
 30
0.0
 10
410.1921845046265
 20
-115.499764573303
 30
0.0
 10
410.192219782644
 20
-115.9780638492072
 30
0.0
 10
410.1927136748135
 20
-127.8776192523888
 30
0.0
 10
410.1925020067392
 20
-139.7771746555704
 30
0.0
 10
410.192572562764
 20
-151.6766947807435
 30
0.0
  0
SPLINE
  5
7B
330
1F
100
AcDbEntity
  8
0
 62
   250
370
    25
100
AcDbSpline
210
0.0
220
0.0
230
1.0
 70
    24
 71
     3
 72
     8
 73
     4
 74
     0
 42
0.0000000001
 43
0.0000000001
 12
1.0
 22
0.0
 32
0.0
 13
1.0
 23
0.0
 33
0.0
 40
0.0
 40
0.0
 40
0.0
 40
0.0
 40
1.0
 40
1.0
 40
1.0
 40
1.0
 10
131.3578108136127
 20
-116.1764673842187
 30
0.0
 10
147.0858069459978
 20
-116.1764673842187
 30
0.0
 10
304.4639822554664
 20
-116.1764673842187
 30
0.0
 10
320.1919783878444
 20
-116.1764673842187
 30
0.0
  0
SPLINE
  5
7C
330
1F
100
AcDbEntity
  8
0
 62
   250
370
    25
100
AcDbSpline
210
0.0
220
0.0
230
1.0
 70
    24
 71
     3
 72
     8
 73
     4
 74
     0
 42
0.0000000001
 43
0.0000000001
 12
1.0
 22
0.0
 32
0.0
 13
1.0
 23
0.0
 33
0.0
 40
0.0
 40
0.0
 40
0.0
 40
0.0
 40
1.0
 40
1.0
 40
1.0
 40
1.0
 10
-82.410679319408
 20
-116.1764673842187
 30
0.0
 10
-66.68264790901725
 20
-116.1764673842187
 30
0.0
 10
90.69517462033582
 20
-116.1764673842187
 30
0.0
 10
106.4231707527177
 20
-116.1764673842187
 30
0.0
  0
SPLINE
  5
7D
330
1F
100
AcDbEntity
  8
0
 62
   250
370
    25
100
AcDbSpline
210
0.0
220
0.0
230
1.0
 70
     8
 71
     3
 72
     8
 73
     4
 74
     0
 42
0.0000000001
 43
0.0000000001
 12
1.0
 22
0.0
 32
0.0
 13
1.0
 23
0.0
 33
0.0
 40
0.0
 40
0.0
 40
0.0
 40
0.0
 40
1.0
 40
1.0
 40
1.0
 40
1.0
 10
-1.517174522884459
 20
-459.647206156172
 30
0.0
 10
28.58491819368939
 20
-459.7045682038452
 30
0.0
 10
58.68701091026323
 20
-459.7404106641345
 30
0.0
 10
88.78913890484625
 20
-459.754733537042
 30
0.0
  0
SPLINE
  5
7E
330
1F
100
AcDbEntity
  8
0
 62
   250
370
    25
100
AcDbSpline
210
0.0
220
0.0
230
1.0
 70
     8
 71
     3
 72
     8
 73
     4
 74
     0
 42
0.0000000001
 43
0.0000000001
 12
1.0
 22
0.0
 32
0.0
 13
1.0
 23
0.0
 33
0.0
 40
0.0
 40
0.0
 40
0.0
 40
0.0
 40
1.0
 40
1.0
 40
1.0
 40
1.0
 10
-182.1306480506337
 20
-459.0450457677206
 30
0.0
 10
-152.0286611680961
 20
-459.1884156088793
 30
0.0
 10
-121.9266037295378
 20
-459.310301140657
 30
0.0
 10
-91.82440517892746
 20
-459.4106670850643
 30
0.0
  0
SPLINE
  5
7F
330
1F
100
AcDbEntity
  8
0
 62
   250
370
    25
100
AcDbSpline
210
0.0
220
0.0
230
1.0
 70
     8
 71
     3
 72
     8
 73
     4
 74
     0
 42
0.0000000001
 43
0.0000000001
 12
1.0
 22
0.0
 32
0.0
 13
1.0
 23
0.0
 33
0.0
 40
0.0
 40
0.0
 40
0.0
 40
0.0
 40
1.0
 40
1.0
 40
1.0
 40
1.0
 10
-329.0843471760493
 20
-458.1743138731837
 30
0.0
 10
-310.2016500900755
 20
-458.3081586510777
 30
0.0
 10
-291.3189177260865
 20
-458.4335367060671
 30
0.0
 10
-272.4361148060734
 20
-458.5504480381529
 30
0.0
  0
SPLINE
  5
80
330
1F
100
AcDbEntity
  8
0
 62
   250
370
    25
100
AcDbSpline
210
0.0
220
0.0
230
1.0
 70
     8
 71
     3
 72
     8
 73
     4
 74
     0
 42
0.0000000001
 43
0.0000000001
 12
1.0
 22
0.0
 32
0.0
 13
1.0
 23
0.0
 33
0.0
 40
0.0
 40
0.0
 40
0.0
 40
0.0
 40
1.0
 40
1.0
 40
1.0
 40
1.0
 10
-355.2790825509737
 20
-457.9147382601899
 30
0.0
 10
-354.6361407805441
 20
-457.9492754340404
 30
0.0
 10
-353.9930226200511
 20
-457.9731586482199
 30
0.0
 10
-353.3492694553354
 20
-457.9864584587849
 30
0.0
  0
SPLINE
  5
81
330
1F
100
AcDbEntity
  8
0
 62
   250
370
    25
100
AcDbSpline
210
0.0
220
0.0
230
1.0
 70
     8
 71
     3
 72
     8
 73
     4
 74
     0
 42
0.0000000001
 43
0.0000000001
 12
1.0
 22
0.0
 32
0.0
 13
1.0
 23
0.0
 33
0.0
 40
0.0
 40
0.0
 40
0.0
 40
0.0
 40
1.0
 40
1.0
 40
1.0
 40
1.0
 10
-368.8926557504205
 20
-453.9840268745337
 30
0.0
 10
-367.6093122264236
 20
-454.74514998549
 30
0.0
 10
-366.2862103827955
 20
-455.392995399612
 30
0.0
 10
-364.8980206068507
 20
-455.9400162551535
 30
0.0
  0
SPLINE
  5
82
330
1F
100
AcDbEntity
  8
0
 62
   250
370
    25
100
AcDbSpline
210
0.0
220
0.0
230
1.0
 70
     8
 71
     3
 72
     8
 73
     4
 74
     0
 42
0.0000000001
 43
0.0000000001
 12
1.0
 22
0.0
 32
0.0
 13
1.0
 23
0.0
 33
0.0
 40
0.0
 40
0.0
 40
0.0
 40
0.0
 40
1.0
 40
1.0
 40
1.0
 40
1.0
 10
-376.4164326679673
 20
-447.6073850762941
 30
0.0
 10
-376.201977632439
 20
-447.858882024518
 30
0.0
 10
-375.9836772935964
 20
-448.106815893526
 30
0.0
 10
-375.7613905393827
 20
-448.3513983513783
 30
0.0
  0
SPLINE
  5
83
330
1F
100
AcDbEntity
  8
0
 62
   250
370
    25
100
AcDbSpline
210
0.0
220
0.0
230
1.0
 70
     8
 71
     3
 72
     8
 73
     4
 74
     0
 42
0.0000000001
 43
0.0000000001
 12
1.0
 22
0.0
 32
0.0
 13
1.0
 23
0.0
 33
0.0
 40
0.0
 40
0.0
 40
0.0
 40
0.0
 40
1.0
 40
1.0
 40
1.0
 40
1.0
 10
-382.7391343857167
 20
-435.4396106465367
 30
0.0
 10
-382.2971714501907
 20
-437.2051693178673
 30
0.0
 10
-381.7036894527138
 20
-438.8930458065645
 30
0.0
 10
-380.943413014054
 20
-440.5466673455064
 30
0.0
  0
SPLINE
  5
84
330
1F
100
AcDbEntity
  8
0
 62
   250
370
    25
100
AcDbSpline
210
0.0
220
0.0
230
1.0
 70
     8
 71
     3
 72
     8
 73
     4
 74
     0
 42
0.0000000001
 43
0.0000000001
 12
1.0
 22
0.0
 32
0.0
 13
1.0
 23
0.0
 33
0.0
 40
0.0
 40
0.0
 40
0.0
 40
0.0
 40
1.0
 40
1.0
 40
1.0
 40
1.0
 10
-383.665005813157
 20
-428.2078651131167
 30
0.0
 10
-383.6557982519948
 20
-428.5234269313136
 30
0.0
 10
-383.6435567818005
 20
-428.8388123594441
 30
0.0
 10
-383.6282461245534
 20
-429.1541625095597
 30
0.0
  0
SPLINE
  5
85
330
1F
100
AcDbEntity
  8
0
 62
   250
370
    25
100
AcDbSpline
210
0.0
220
0.0
230
1.0
 70
     8
 71
     3
 72
     8
 73
     4
 74
     0
 42
0.0000000001
 43
0.0000000001
 12
1.0
 22
0.0
 32
0.0
 13
1.0
 23
0.0
 33
0.0
 40
0.0
 40
0.0
 40
0.0
 40
0.0
 40
1.0
 40
1.0
 40
1.0
 40
1.0
 10
239.2984735913212
 20
-459.647206156172
 30
0.0
 10
209.1963808747506
 20
-459.7045682038452
 30
0.0
 10
179.0942881581729
 20
-459.7404106641345
 30
0.0
 10
148.9921601635937
 20
-459.754733537042
 30
0.0
  0
SPLINE
  5
86
330
1F
100
AcDbEntity
  8
0
 62
   250
370
    25
100
AcDbSpline
210
0.0
220
0.0
230
1.0
 70
     8
 71
     3
 72
     8
 73
     4
 74
     0
 42
0.0000000001
 43
0.0000000001
 12
1.0
 22
0.0
 32
0.0
 13
1.0
 23
0.0
 33
0.0
 40
0.0
 40
0.0
 40
0.0
 40
0.0
 40
1.0
 40
1.0
 40
1.0
 40
1.0
 10
419.9119471190734
 20
-459.0450457677206
 30
0.0
 10
389.8099249585185
 20
-459.1884156088793
 30
0.0
 10
359.7078675199641
 20
-459.310301140657
 30
0.0
 10
329.6057042473642
 20
-459.4106670850643
 30
0.0
  0
SPLINE
  5
87
330
1F
100
AcDbEntity
  8
0
 62
   250
370
    25
100
AcDbSpline
210
0.0
220
0.0
230
1.0
 70
     8
 71
     3
 72
     8
 73
     4
 74
     0
 42
0.0000000001
 43
0.0000000001
 12
1.0
 22
0.0
 32
0.0
 13
1.0
 23
0.0
 33
0.0
 40
0.0
 40
0.0
 40
0.0
 40
0.0
 40
1.0
 40
1.0
 40
1.0
 40
1.0
 10
540.3190479769275
 20
-458.3568775857798
 30
0.0
 10
530.2851699427921
 20
-458.4237999747249
 30
0.0
 10
520.2512919086495
 20
-458.4883234588435
 30
0.0
 10
510.2173785965003
 20
-458.5504480381529
 30
0.0
  0
SPLINE
  5
88
330
1F
100
AcDbEntity
  8
0
 62
   250
370
    25
100
AcDbSpline
210
0.0
220
0.0
230
1.0
 70
     8
 71
     3
 72
     8
 73
     4
 74
     0
 42
0.0000000001
 43
0.0000000001
 12
1.0
 22
0.0
 32
0.0
 13
1.0
 23
0.0
 33
0.0
 40
0.0
 40
0.0
 40
0.0
 40
0.0
 40
1.0
 40
1.0
 40
1.0
 40
1.0
 10
593.0603816194179
 20
-457.9147382601899
 30
0.0
 10
592.4174045709673
 20
-457.9492754340404
 30
0.0
 10
591.7743216884846
 20
-457.9731586482199
 30
0.0
 10
591.1305685237764
 20
-457.9864584587849
 30
0.0
  0
SPLINE
  5
89
330
1F
100
AcDbEntity
  8
0
 62
   250
370
    25
100
AcDbSpline
210
0.0
220
0.0
230
1.0
 70
     8
 71
     3
 72
     8
 73
     4
 74
     0
 42
0.0000000001
 43
0.0000000001
 12
1.0
 22
0.0
 32
0.0
 13
1.0
 23
0.0
 33
0.0
 40
0.0
 40
0.0
 40
0.0
 40
0.0
 40
1.0
 40
1.0
 40
1.0
 40
1.0
 10
606.6739548188575
 20
-453.9840268745337
 30
0.0
 10
605.3906112948642
 20
-454.74514998549
 30
0.0
 10
604.067474173225
 20
-455.392995399612
 30
0.0
 10
602.679284397277
 20
-455.9400162551535
 30
0.0
  0
SPLINE
  5
8A
330
1F
100
AcDbEntity
  8
0
 62
   250
370
    25
100
AcDbSpline
210
0.0
220
0.0
230
1.0
 70
     8
 71
     3
 72
     8
 73
     4
 74
     0
 42
0.0000000001
 43
0.0000000001
 12
1.0
 22
0.0
 32
0.0
 13
1.0
 23
0.0
 33
0.0
 40
0.0
 40
0.0
 40
0.0
 40
0.0
 40
1.0
 40
1.0
 40
1.0
 40
1.0
 10
614.1976964583936
 20
-447.6073850762941
 30
0.0
 10
613.9832414228653
 20
-447.858882024518
 30
0.0
 10
613.7649410840227
 20
-448.106815893526
 30
0.0
 10
613.5426543298125
 20
-448.3513983513783
 30
0.0
  0
SPLINE
  5
8B
330
1F
100
AcDbEntity
  8
0
 62
   250
370
    25
100
AcDbSpline
210
0.0
220
0.0
230
1.0
 70
     8
 71
     3
 72
     8
 73
     4
 74
     0
 42
0.0000000001
 43
0.0000000001
 12
1.0
 22
0.0
 32
0.0
 13
1.0
 23
0.0
 33
0.0
 40
0.0
 40
0.0
 40
0.0
 40
0.0
 40
1.0
 40
1.0
 40
1.0
 40
1.0
 10
620.5204334541572
 20
-435.4396106465367
 30
0.0
 10
620.0784705186312
 20
-437.2051693178673
 30
0.0
 10
619.4849885211582
 20
-438.8930458065645
 30
0.0
 10
618.7247120824908
 20
-440.5466673455064
 30
0.0
  0
SPLINE
  5
8C
330
1F
100
AcDbEntity
  8
0
 62
   250
370
    25
100
AcDbSpline
210
0.0
220
0.0
230
1.0
 70
     8
 71
     3
 72
     8
 73
     4
 74
     0
 42
0.0000000001
 43
0.0000000001
 12
1.0
 22
0.0
 32
0.0
 13
1.0
 23
0.0
 33
0.0
 40
0.0
 40
0.0
 40
0.0
 40
0.0
 40
1.0
 40
1.0
 40
1.0
 40
1.0
 10
621.4463048815937
 20
-428.2078651131167
 30
0.0
 10
621.4370973204425
 20
-428.5234269313136
 30
0.0
 10
621.4248205722306
 20
-428.8388123594441
 30
0.0
 10
621.4095451929941
 20
-429.1541625095597
 30
0.0
  0
INSERT
  5
8E
330
1F
100
AcDbEntity
  8
0
100
AcDbBlockReference
  2
block 2
 10
0.0
 20
0.0
 30
0.0
  0
INSERT
  5
A8
330
1F
100
AcDbEntity
  8
0
100
AcDbBlockReference
  2
block 4
 10
0.0
 20
0.0
 30
0.0
  0
SPLINE
  5
C1
330
1F
100
AcDbEntity
  8
0
 62
   250
370
    25
100
AcDbSpline
210
0.0
220
0.0
230
1.0
 70
    11
 71
     3
 72
    17
 73
    13
 74
     0
 42
0.0000000001
 43
0.0000000001
 12
1.0
 22
0.0
 32
0.0
 13
1.0
 23
0.0
 33
0.0
 40
0.0
 40
0.0
 40
0.0
 40
0.0
 40
1.0
 40
1.0
 40
1.0
 40
2.0
 40
2.0
 40
2.0
 40
3.0
 40
3.0
 40
3.0
 40
4.0
 40
4.0
 40
4.0
 40
4.0
 10
144.8486919285464
 20
-196.8692735400396
 30
0.0
 10
144.8486919285464
 20
-182.6280189937929
 30
0.0
 10
133.3053950397607
 20
-171.1032396116737
 30
0.0
 10
119.0796435223511
 20
-171.1032396116737
 30
0.0
 10
104.845279211143
 20
-171.1032396116737
 30
0.0
 10
93.29466144762767
 20
-182.6280189937929
 30
0.0
 10
93.29466144762767
 20
-196.8692735400396
 30
0.0
 10
93.29466144762767
 20
-211.1139732038068
 30
0.0
 10
104.845279211143
 20
-222.6456428209645
 30
0.0
 10
119.0796435223511
 20
-222.6456428209645
 30
0.0
 10
133.3053950397607
 20
-222.6456428209645
 30
0.0
 10
144.8486919285464
 20
-211.1139732038068
 30
0.0
 10
144.8486919285464
 20
-196.8692735400396
 30
0.0
  0
SPLINE
  5
C2
330
1F
100
AcDbEntity
  8
0
 62
   250
370
    25
100
AcDbSpline
210
0.0
220
0.0
230
1.0
 70
    11
 71
     3
 72
    17
 73
    13
 74
     0
 42
0.0000000001
 43
0.0000000001
 12
1.0
 22
0.0
 32
0.0
 13
1.0
 23
0.0
 33
0.0
 40
0.0
 40
0.0
 40
0.0
 40
0.0
 40
1.0
 40
1.0
 40
1.0
 40
2.0
 40
2.0
 40
2.0
 40
3.0
 40
3.0
 40
3.0
 40
4.0
 40
4.0
 40
4.0
 40
4.0
 10
156.0302514777844
 20
-196.8692735400396
 30
0.0
 10
156.0302514777844
 20
-176.4509232813233
 30
0.0
 10
139.487658428509
 20
-159.9246945402652
 30
0.0
 10
119.08567247801
 20
-159.9246945402652
 30
0.0
 10
98.683686527511
 20
-159.9246945402652
 30
0.0
 10
82.12731300815788
 20
-176.4509232813233
 30
0.0
 10
82.12731300815788
 20
-196.8692735400396
 30
0.0
 10
82.12731300815788
 20
-217.2884850781362
 30
0.0
 10
98.683686527511
 20
-233.8181589367103
 30
0.0
 10
119.08567247801
 20
-233.8181589367103
 30
0.0
 10
139.487658428509
 20
-233.8181589367103
 30
0.0
 10
156.0302514777844
 20
-217.2884850781362
 30
0.0
 10
156.0302514777844
 20
-196.8692735400396
 30
0.0
  0
SPLINE
  5
C3
330
1F
100
AcDbEntity
  8
0
 62
   250
370
    25
100
AcDbSpline
210
0.0
220
0.0
230
1.0
 70
    11
 71
     3
 72
    20
 73
    16
 74
     0
 42
0.0000000001
 43
0.0000000001
 12
1.0
 22
0.0
 32
0.0
 13
1.0
 23
0.0
 33
0.0
 40
0.0
 40
0.0
 40
0.0
 40
0.0
 40
1.0
 40
1.0
 40
1.0
 40
2.0
 40
2.0
 40
2.0
 40
3.0
 40
3.0
 40
3.0
 40
4.0
 40
4.0
 40
4.0
 40
5.0
 40
5.0
 40
5.0
 40
5.0
 10
102.0091822951989
 20
-46.67537334661136
 30
0.0
 10
102.0091822951989
 20
-37.01160338455961
 30
0.0
 10
109.8442408139296
 20
-29.17654486582856
 30
0.0
 10
119.5098409946637
 20
-29.17654486582856
 30
0.0
 10
129.1745798960183
 20
-29.17654486582856
 30
0.0
 10
137.0096384147487
 20
-37.01160338455961
 30
0.0
 10
137.0096384147487
 20
-46.67537334661136
 30
0.0
 10
137.0096384147487
 20
-56.34108118726797
 30
0.0
 10
129.1745798960183
 20
-64.17613970599838
 30
0.0
 10
119.5098409946637
 20
-64.17613970599838
 30
0.0
 10
109.8442408139296
 20
-64.17613970599838
 30
0.0
 10
102.0091822951989
 20
-56.34108118726797
 30
0.0
 10
102.0091822951989
 20
-46.67537334661136
 30
0.0
 10
102.0091822951989
 20
-46.67537334661136
 30
0.0
 10
102.0091822951989
 20
-46.67537334661136
 30
0.0
 10
102.0091822951989
 20
-46.67537334661136
 30
0.0
  0
INSERT
  5
C5
330
1F
100
AcDbEntity
  8
0
100
AcDbBlockReference
  2
block 6
 10
0.0
 20
0.0
 30
0.0
  0
SPLINE
  5
F8
330
1F
100
AcDbEntity
  8
0
  6
AI-Linetype-9
 62
     6
370
    25
100
AcDbSpline
210
0.0
220
0.0
230
1.0
 70
    11
 71
     3
 72
    17
 73
    13
 74
     0
 42
0.0000000001
 43
0.0000000001
 12
1.0
 22
0.0
 32
0.0
 13
1.0
 23
0.0
 33
0.0
 40
0.0
 40
0.0
 40
0.0
 40
0.0
 40
1.0
 40
1.0
 40
1.0
 40
2.0
 40
2.0
 40
2.0
 40
3.0
 40
3.0
 40
3.0
 40
4.0
 40
4.0
 40
4.0
 40
4.0
 10
218.5455107108207
 20
-65.53320236710493
 30
0.0
 10
228.2095646958111
 20
-65.53320236710493
 30
0.0
 10
236.0472102012558
 20
-57.69873199712987
 30
0.0
 10
236.0472102012558
 20
-48.03467801214843
 30
0.0
 10
236.0472102012558
 20
-38.36744889168297
 30
0.0
 10
228.2095646958111
 20
-30.53297852171657
 30
0.0
 10
218.5455107108207
 20
-30.53297852171657
 30
0.0
 10
208.8814567258432
 20
-30.53297852171657
 30
0.0
 10
201.0438112203985
 20
-38.36744889168297
 30
0.0
 10
201.0438112203985
 20
-48.03467801214843
 30
0.0
 10
201.0438112203985
 20
-57.69873199712987
 30
0.0
 10
208.8814567258432
 20
-65.53320236710493
 30
0.0
 10
218.5455107108207
 20
-65.53320236710493
 30
0.0
  0
SPLINE
  5
FA
330
1F
100
AcDbEntity
  8
0
  6
AI-Linetype-10
 62
     6
370
    25
100
AcDbSpline
210
0.0
220
0.0
230
1.0
 70
    11
 71
     3
 72
    17
 73
    13
 74
     0
 42
0.0000000001
 43
0.0000000001
 12
1.0
 22
0.0
 32
0.0
 13
1.0
 23
0.0
 33
0.0
 40
0.0
 40
0.0
 40
0.0
 40
0.0
 40
1.0
 40
1.0
 40
1.0
 40
2.0
 40
2.0
 40
2.0
 40
3.0
 40
3.0
 40
3.0
 40
4.0
 40
4.0
 40
4.0
 40
4.0
 10
18.47986551106417
 20
-64.57294314115015
 30
0.0
 10
28.1439194960485
 20
-64.57294314115015
 30
0.0
 10
35.98156500149923
 20
-56.73847277118438
 30
0.0
 10
35.98156500149923
 20
-47.07441878619717
 30
0.0
 10
35.98156500149923
 20
-37.40718966573428
 30
0.0
 10
28.1439194960485
 20
-29.57271929577173
 30
0.0
 10
18.47986551106417
 20
-29.57271929577173
 30
0.0
 10
8.815811526093
 20
-29.57271929577173
 30
0.0
 10
0.9781660206422621
 20
-37.40718966573428
 30
0.0
 10
0.9781660206422621
 20
-47.07441878619717
 30
0.0
 10
0.9781660206422621
 20
-56.73847277118438
 30
0.0
 10
8.815811526093
 20
-64.57294314115015
 30
0.0
 10
18.47986551106417
 20
-64.57294314115015
 30
0.0
  0
ENDSEC
  0
SECTION
  2
OBJECTS
  0
DICTIONARY
  5
C
330
0
100
AcDbDictionary
281
     1
  3
ACAD_GROUP
350
D
  3
ACAD_LAYOUT
350
1A
  3
ACAD_MATERIAL
350
3B
  3
ACAD_MLEADERSTYLE
350
11D
  3
ACAD_MLINESTYLE
350
17
  3
ACAD_PLOTSETTINGS
350
19
  3
ACAD_PLOTSTYLENAME
350
E
  3
ACAD_TABLESTYLE
350
11C
  3
ACAD_VISUALSTYLE
350
2A
  0
SUN
  5
3F
330
29
100
AcDbSun
 90
        1
290
     0
 63
     7
421
 16777215
 40
1.0
291
     1
 91
  2455826
 92
 54000000
292
     0
 70
     2
 71
   256
280
     1
  0
DICTIONARY
  5
D
102
{ACAD_REACTORS
330
C
102
}
330
C
100
AcDbDictionary
281
     1
  0
DICTIONARY
  5
1A
102
{ACAD_REACTORS
330
C
102
}
330
C
100
AcDbDictionary
281
     1
  3
Layout1
350
1E
  3
Layout2
350
26
  3
Model
350
22
  0
DICTIONARY
  5
3B
102
{ACAD_REACTORS
330
C
102
}
330
C
100
AcDbDictionary
281
     1
  3
ByBlock
350
3D
  3
ByLayer
350
3C
  3
Global
350
3E
  0
DICTIONARY
  5
11D
102
{ACAD_REACTORS
330
C
102
}
330
C
100
AcDbDictionary
281
     1
  0
DICTIONARY
  5
17
102
{ACAD_REACTORS
330
C
102
}
330
C
100
AcDbDictionary
281
     1
  3
Standard
350
18
  0
DICTIONARY
  5
19
102
{ACAD_REACTORS
330
C
102
}
330
C
100
AcDbDictionary
281
     1
  0
ACDBDICTIONARYWDFLT
  5
E
102
{ACAD_REACTORS
330
C
102
}
330
C
100
AcDbDictionary
281
     1
  3
Normal
350
F
100
AcDbDictionaryWithDefault
340
F
  0
DICTIONARY
  5
11C
102
{ACAD_REACTORS
330
C
102
}
330
C
100
AcDbDictionary
281
     1
  0
DICTIONARY
  5
2A
102
{ACAD_REACTORS
330
C
102
}
330
C
100
AcDbDictionary
281
     1
  3
2dWireframe
350
2F
  3
3D Hidden
350
31
  3
3dWireframe
350
30
  3
Basic
350
32
  3
Brighten
350
36
  3
ColorChange
350
3A
  3
Conceptual
350
34
  3
Dim
350
35
  3
Facepattern
350
39
  3
Flat
350
2B
  3
FlatWithEdges
350
2C
  3
Gouraud
350
2D
  3
GouraudWithEdges
350
2E
  3
Linepattern
350
38
  3
Realistic
350
33
  3
Thicken
350
37
  0
LAYOUT
  5
1E
102
{ACAD_REACTORS
330
1A
102
}
330
1A
100
AcDbPlotSettings
  1

  2
none_device
  4

  6

 40
0.0
 41
0.0
 42
0.0
 43
0.0
 44
0.0
 45
0.0
 46
0.0
 47
0.0
 48
0.0
 49
0.0
140
0.0
141
0.0
142
1.0
143
1.0
 70
   688
 72
     0
 73
     0
 74
     5
  7

 75
    16
 76
     0
 77
     2
 78
   300
147
1.0
148
0.0
149
0.0
100
AcDbLayout
  1
Layout1
 70
     1
 71
     1
 10
0.0
 20
0.0
 11
12.0
 21
9.0
 12
0.0
 22
0.0
 32
0.0
 14
1.000000000000000E+20
 24
1.000000000000000E+20
 34
1.000000000000000E+20
 15
-1.000000000000000E+20
 25
-1.000000000000000E+20
 35
-1.000000000000000E+20
146
0.0
 13
0.0
 23
0.0
 33
0.0
 16
1.0
 26
0.0
 36
0.0
 17
0.0
 27
1.0
 37
0.0
 76
     0
330
1B
  0
LAYOUT
  5
26
102
{ACAD_REACTORS
330
1A
102
}
330
1A
100
AcDbPlotSettings
  1

  2
none_device
  4

  6

 40
0.0
 41
0.0
 42
0.0
 43
0.0
 44
0.0
 45
0.0
 46
0.0
 47
0.0
 48
0.0
 49
0.0
140
0.0
141
0.0
142
1.0
143
1.0
 70
   688
 72
     0
 73
     0
 74
     5
  7

 75
    16
 76
     0
 77
     2
 78
   300
147
1.0
148
0.0
149
0.0
100
AcDbLayout
  1
Layout2
 70
     1
 71
     2
 10
0.0
 20
0.0
 11
0.0
 21
0.0
 12
0.0
 22
0.0
 32
0.0
 14
0.0
 24
0.0
 34
0.0
 15
0.0
 25
0.0
 35
0.0
146
0.0
 13
0.0
 23
0.0
 33
0.0
 16
1.0
 26
0.0
 36
0.0
 17
0.0
 27
1.0
 37
0.0
 76
     0
330
23
  0
LAYOUT
  5
22
102
{ACAD_REACTORS
330
1A
102
}
330
1A
100
AcDbPlotSettings
  1

  2
none_device
  4

  6

 40
0.0
 41
0.0
 42
0.0
 43
0.0
 44
0.0
 45
0.0
 46
0.0
 47
0.0
 48
0.0
 49
0.0
140
0.0
141
0.0
142
1.0
143
1.0
 70
  1712
 72
     0
 73
     0
 74
     0
  7

 75
     0
 76
     0
 77
     2
 78
   300
147
1.0
148
0.0
149
0.0
100
AcDbLayout
  1
Model
 70
     1
 71
     0
 10
0.0
 20
0.0
 11
12.0
 21
9.0
 12
0.0
 22
0.0
 32
0.0
 14
1.000000000000000E+20
 24
1.000000000000000E+20
 34
1.000000000000000E+20
 15
-1.000000000000000E+20
 25
-1.000000000000000E+20
 35
-1.000000000000000E+20
146
0.0
 13
0.0
 23
0.0
 33
0.0
 16
1.0
 26
0.0
 36
0.0
 17
0.0
 27
1.0
 37
0.0
 76
     0
330
1F
331
29
  0
MATERIAL
  5
3D
102
{ACAD_REACTORS
330
3B
102
}
330
3B
100
AcDbMaterial
  1
ByBlock
 72
     1
 94
      127
  0
MATERIAL
  5
3C
102
{ACAD_REACTORS
330
3B
102
}
330
3B
100
AcDbMaterial
  1
ByLayer
 72
     1
 94
      127
  0
MATERIAL
  5
3E
102
{ACAD_REACTORS
330
3B
102
}
330
3B
100
AcDbMaterial
  1
Global
 72
     1
 94
      127
  0
MLINESTYLE
  5
18
102
{ACAD_REACTORS
330
17
102
}
330
17
100
AcDbMlineStyle
  2
Standard
 70
     0
  3

 62
   256
 51
90.0
 52
90.0
 71
     2
 49
0.5
 62
   256
  6
BYLAYER
 49
-0.5
 62
   256
  6
BYLAYER
  0
ACDBPLACEHOLDER
  5
F
102
{ACAD_REACTORS
330
E
102
}
330
E
  0
VISUALSTYLE
  5
2F
102
{ACAD_REACTORS
330
2A
102
}
102
{ACAD_XDICTIONARY
360
104
102
}
330
2A
100
AcDbVisualStyle
  2
2dWireframe
 70
     4
 71
     0
 72
     2
 73
     0
 90
        0
 40
-0.6
 41
-30.0
 62
     5
 63
     7
421
 16777215
 74
     1
 91
        4
 64
     7
 65
   257
 75
     1
175
     1
 42
1.0
 92
        0
 66
   257
 43
1.0
 76
     1
 77
     6
 78
     2
 67
     7
 79
     5
170
     0
171
     0
290
     0
174
     0
 93
        1
 44
0.0
173
     0
291
     0
 45
0.0
  0
VISUALSTYLE
  5
31
102
{ACAD_REACTORS
330
2A
102
}
102
{ACAD_XDICTIONARY
360
108
102
}
330
2A
100
AcDbVisualStyle
  2
3D Hidden
 70
     6
 71
     1
 72
     2
 73
     2
 90
        0
 40
-0.6
 41
-30.0
 62
     5
 63
     7
421
 16777215
 74
     2
 91
        2
 64
     7
 65
   257
 75
     2
175
     1
 42
40.0
 92
        0
 66
   257
 43
1.0
 76
     1
 77
     6
 78
     2
 67
     7
 79
     3
170
     0
171
     0
290
     0
174
     0
 93
        1
 44
0.0
173
     0
291
     0
 45
0.0
  0
VISUALSTYLE
  5
30
102
{ACAD_REACTORS
330
2A
102
}
102
{ACAD_XDICTIONARY
360
106
102
}
330
2A
100
AcDbVisualStyle
  2
3dWireframe
 70
     5
 71
     0
 72
     2
 73
     0
 90
        0
 40
-0.6
 41
-30.0
 62
     5
 63
     7
421
 16777215
 74
     1
 91
        4
 64
     7
 65
   257
 75
     1
175
     1
 42
1.0
 92
        0
 66
   257
 43
1.0
 76
     1
 77
     6
 78
     2
 67
     7
 79
     5
170
     0
171
     0
290
     0
174
     0
 93
        1
 44
0.0
173
     0
291
     0
 45
0.0
  0
VISUALSTYLE
  5
32
102
{ACAD_REACTORS
330
2A
102
}
102
{ACAD_XDICTIONARY
360
10A
102
}
330
2A
100
AcDbVisualStyle
  2
Basic
 70
     7
 71
     1
 72
     0
 73
     1
 90
        0
 40
-0.6
 41
-30.0
 62
     5
 63
     7
421
 16777215
 74
     0
 91
        4
 64
     7
 65
   257
 75
     1
175
     1
 42
1.0
 92
        8
 66
     7
 43
1.0
 76
     1
 77
     6
 78
     2
 67
     7
 79
     5
170
     0
171
     0
290
     0
174
     0
 93
        1
 44
0.0
173
     0
291
     1
 45
0.0
  0
VISUALSTYLE
  5
36
102
{ACAD_REACTORS
330
2A
102
}
102
{ACAD_XDICTIONARY
360
112
102
}
330
2A
100
AcDbVisualStyle
  2
Brighten
 70
    12
 71
     2
 72
     2
 73
     0
 90
        0
 40
-0.6
 41
-30.0
 62
     5
 63
     7
421
 16777215
 74
     1
 91
        4
 64
     7
 65
   257
 75
     1
175
     1
 42
1.0
 92
        8
 66
     7
 43
1.0
 76
     1
 77
     6
 78
     2
 67
     7
 79
     5
170
     0
171
     0
290
     0
174
     0
 93
        1
 44
50.0
173
     0
291
     1
 45
0.0
  0
VISUALSTYLE
  5
3A
102
{ACAD_REACTORS
330
2A
102
}
102
{ACAD_XDICTIONARY
360
11A
102
}
330
2A
100
AcDbVisualStyle
  2
ColorChange
 70
    16
 71
     2
 72
     2
 73
     3
 90
        0
 40
-0.6
 41
-30.0
 62
     5
 63
     8
421
  8421504
 74
     1
 91
        4
 64
     7
 65
   257
 75
     1
175
     1
 42
1.0
 92
        8
 66
     8
424
  8421504
 43
1.0
 76
     1
 77
     6
 78
     2
 67
     7
 79
     5
170
     0
171
     0
290
     0
174
     0
 93
        1
 44
0.0
173
     0
291
     1
 45
0.0
  0
VISUALSTYLE
  5
34
102
{ACAD_REACTORS
330
2A
102
}
102
{ACAD_XDICTIONARY
360
10E
102
}
330
2A
100
AcDbVisualStyle
  2
Conceptual
 70
     9
 71
     3
 72
     2
 73
     0
 90
        0
 40
-0.6
 41
-30.0
 62
     5
 63
     7
421
 16777215
 74
     2
 91
        2
 64
     7
 65
   257
 75
     1
175
     1
 42
40.0
 92
        8
 66
     7
 43
1.0
 76
     1
 77
     6
 78
     2
 67
     7
 79
     3
170
     0
171
     0
290
     0
174
     0
 93
        1
 44
0.0
173
     0
291
     0
 45
0.0
  0
VISUALSTYLE
  5
35
102
{ACAD_REACTORS
330
2A
102
}
102
{ACAD_XDICTIONARY
360
110
102
}
330
2A
100
AcDbVisualStyle
  2
Dim
 70
    11
 71
     2
 72
     2
 73
     0
 90
        0
 40
-0.6
 41
-30.0
 62
     5
 63
     7
421
 16777215
 74
     1
 91
        4
 64
     7
 65
   257
 75
     1
175
     1
 42
1.0
 92
        8
 66
     7
 43
1.0
 76
     1
 77
     6
 78
     2
 67
     7
 79
     5
170
     0
171
     0
290
     0
174
     0
 93
        1
 44
-50.0
173
     0
291
     1
 45
0.0
  0
VISUALSTYLE
  5
39
102
{ACAD_REACTORS
330
2A
102
}
102
{ACAD_XDICTIONARY
360
118
102
}
330
2A
100
AcDbVisualStyle
  2
Facepattern
 70
    15
 71
     2
 72
     2
 73
     0
 90
        0
 40
-0.6
 41
-30.0
 62
     5
 63
     7
421
 16777215
 74
     1
 91
        4
 64
     7
 65
   257
 75
     1
175
     1
 42
1.0
 92
        8
 66
     7
 43
1.0
 76
     1
 77
     6
 78
     2
 67
     7
 79
     5
170
     0
171
     0
290
     0
174
     0
 93
        1
 44
0.0
173
     0
291
     1
 45
0.0
  0
VISUALSTYLE
  5
2B
102
{ACAD_REACTORS
330
2A
102
}
102
{ACAD_XDICTIONARY
360
FC
102
}
330
2A
100
AcDbVisualStyle
  2
Flat
 70
     0
 71
     2
 72
     1
 73
     1
 90
        2
 40
-0.6
 41
30.0
 62
     5
 63
     7
421
 16777215
 74
     0
 91
        4
 64
     7
 65
   257
 75
     1
175
     1
 42
1.0
 92
        8
 66
     7
 43
1.0
 76
     1
 77
     6
 78
     2
 67
     7
 79
     5
170
     0
171
     0
290
     0
174
     0
 93
       13
 44
0.0
173
     0
291
     1
 45
0.0
  0
VISUALSTYLE
  5
2C
102
{ACAD_REACTORS
330
2A
102
}
102
{ACAD_XDICTIONARY
360
FE
102
}
330
2A
100
AcDbVisualStyle
  2
FlatWithEdges
 70
     1
 71
     2
 72
     1
 73
     1
 90
        2
 40
-0.6
 41
30.0
 62
     5
 63
     7
421
 16777215
 74
     1
 91
        4
 64
     7
 65
   257
 75
     1
175
     1
 42
1.0
 92
        0
 66
   257
 43
1.0
 76
     1
 77
     6
 78
     2
 67
     7
 79
     5
170
     0
171
     0
290
     0
174
     0
 93
       13
 44
0.0
173
     0
291
     1
 45
0.0
  0
VISUALSTYLE
  5
2D
102
{ACAD_REACTORS
330
2A
102
}
102
{ACAD_XDICTIONARY
360
100
102
}
330
2A
100
AcDbVisualStyle
  2
Gouraud
 70
     2
 71
     2
 72
     2
 73
     1
 90
        2
 40
-0.6
 41
30.0
 62
     5
 63
     7
421
 16777215
 74
     0
 91
        4
 64
     7
 65
   257
 75
     1
175
     1
 42
1.0
 92
        0
 66
     7
 43
1.0
 76
     1
 77
     6
 78
     2
 67
     7
 79
     5
170
     0
171
     0
290
     0
174
     0
 93
       13
 44
0.0
173
     0
291
     1
 45
0.0
  0
VISUALSTYLE
  5
2E
102
{ACAD_REACTORS
330
2A
102
}
102
{ACAD_XDICTIONARY
360
102
102
}
330
2A
100
AcDbVisualStyle
  2
GouraudWithEdges
 70
     3
 71
     2
 72
     2
 73
     1
 90
        2
 40
-0.6
 41
30.0
 62
     5
 63
     7
421
 16777215
 74
     1
 91
        4
 64
     7
 65
   257
 75
     1
175
     1
 42
1.0
 92
        0
 66
   257
 43
1.0
 76
     1
 77
     6
 78
     2
 67
     7
 79
     5
170
     0
171
     0
290
     0
174
     0
 93
       13
 44
0.0
173
     0
291
     1
 45
0.0
  0
VISUALSTYLE
  5
38
102
{ACAD_REACTORS
330
2A
102
}
102
{ACAD_XDICTIONARY
360
116
102
}
330
2A
100
AcDbVisualStyle
  2
Linepattern
 70
    14
 71
     2
 72
     2
 73
     0
 90
        0
 40
-0.6
 41
-30.0
 62
     5
 63
     7
421
 16777215
 74
     1
 91
        4
 64
     7
 65
   257
 75
     7
175
     7
 42
1.0
 92
        8
 66
     7
 43
1.0
 76
     1
 77
     6
 78
     2
 67
     7
 79
     5
170
     0
171
     0
290
     0
174
     0
 93
        1
 44
0.0
173
     0
291
     1
 45
0.0
  0
VISUALSTYLE
  5
33
102
{ACAD_REACTORS
330
2A
102
}
102
{ACAD_XDICTIONARY
360
10C
102
}
330
2A
100
AcDbVisualStyle
  2
Realistic
 70
     8
 71
     2
 72
     2
 73
     0
 90
        0
 40
-0.6
 41
-30.0
 62
     5
 63
     7
421
 16777215
 74
     1
 91
        0
 64
     7
 65
   257
 75
     1
175
     1
 42
1.0
 92
        8
 66
     8
424
  7895160
 43
1.0
 76
     1
 77
     6
 78
     2
 67
     7
 79
     5
170
     0
171
     0
290
     0
174
     0
 93
       13
 44
0.0
173
     0
291
     0
 45
0.0
  0
VISUALSTYLE
  5
37
102
{ACAD_REACTORS
330
2A
102
}
102
{ACAD_XDICTIONARY
360
114
102
}
330
2A
100
AcDbVisualStyle
  2
Thicken
 70
    13
 71
     2
 72
     2
 73
     0
 90
        0
 40
-0.6
 41
-30.0
 62
     5
 63
     7
421
 16777215
 74
     1
 91
        4
 64
     7
 65
   257
 75
     1
175
     1
 42
1.0
 92
       12
 66
     7
 43
1.0
 76
     1
 77
     6
 78
     2
 67
     7
 79
     5
170
     0
171
     0
290
     0
174
     0
 93
        1
 44
0.0
173
     0
291
     1
 45
0.0
  0
DICTIONARY
  5
104
330
2F
100
AcDbDictionary
280
     1
281
     1
  3
ACAD_XREC_ROUNDTRIP
360
105
  0
DICTIONARY
  5
108
330
31
100
AcDbDictionary
280
     1
281
     1
  3
ACAD_XREC_ROUNDTRIP
360
109
  0
DICTIONARY
  5
106
330
30
100
AcDbDictionary
280
     1
281
     1
  3
ACAD_XREC_ROUNDTRIP
360
107
  0
DICTIONARY
  5
10A
330
32
100
AcDbDictionary
280
     1
281
     1
  3
ACAD_XREC_ROUNDTRIP
360
10B
  0
DICTIONARY
  5
112
330
36
100
AcDbDictionary
280
     1
281
     1
  3
ACAD_XREC_ROUNDTRIP
360
113
  0
DICTIONARY
  5
11A
330
3A
100
AcDbDictionary
280
     1
281
     1
  3
ACAD_XREC_ROUNDTRIP
360
11B
  0
DICTIONARY
  5
10E
330
34
100
AcDbDictionary
280
     1
281
     1
  3
ACAD_XREC_ROUNDTRIP
360
10F
  0
DICTIONARY
  5
110
330
35
100
AcDbDictionary
280
     1
281
     1
  3
ACAD_XREC_ROUNDTRIP
360
111
  0
DICTIONARY
  5
118
330
39
100
AcDbDictionary
280
     1
281
     1
  3
ACAD_XREC_ROUNDTRIP
360
119
  0
DICTIONARY
  5
FC
330
2B
100
AcDbDictionary
280
     1
281
     1
  3
ACAD_XREC_ROUNDTRIP
360
FD
  0
DICTIONARY
  5
FE
330
2C
100
AcDbDictionary
280
     1
281
     1
  3
ACAD_XREC_ROUNDTRIP
360
FF
  0
DICTIONARY
  5
100
330
2D
100
AcDbDictionary
280
     1
281
     1
  3
ACAD_XREC_ROUNDTRIP
360
101
  0
DICTIONARY
  5
102
330
2E
100
AcDbDictionary
280
     1
281
     1
  3
ACAD_XREC_ROUNDTRIP
360
103
  0
DICTIONARY
  5
116
330
38
100
AcDbDictionary
280
     1
281
     1
  3
ACAD_XREC_ROUNDTRIP
360
117
  0
DICTIONARY
  5
10C
330
33
100
AcDbDictionary
280
     1
281
     1
  3
ACAD_XREC_ROUNDTRIP
360
10D
  0
DICTIONARY
  5
114
330
37
100
AcDbDictionary
280
     1
281
     1
  3
ACAD_XREC_ROUNDTRIP
360
115
  0
XRECORD
  5
105
102
{ACAD_REACTORS
330
104
102
}
330
104
100
AcDbXrecord
280
     1
102
RTVSPropertyOp0
 70
     1
102
RTVSPropertyOp1
 70
     1
102
RTVSPropertyOp2
 70
     1
102
RTVSPropertyOp3
 70
     1
102
RTVSPropertyOp4
 70
     1
102
RTVSPropertyOp5
 70
     1
102
RTVSPropertyOp6
 70
     1
102
RTVSPropertyOp7
 70
     1
102
RTVSPropertyOp8
 70
     1
102
RTVSPropertyOp9
 70
     1
102
RTVSPropertyOp10
 70
     1
102
RTVSPropertyOp11
 70
     1
102
RTVSPropertyOp12
 70
     1
102
RTVSPropertyOp13
 70
     1
102
RTVSPropertyOp14
 70
     1
102
RTVSPropertyOp15
 70
     1
102
RTVSPropertyOp16
 70
     1
102
RTVSPropertyOp17
 70
     1
102
RTVSPropertyOp18
 70
     1
102
RTVSPropertyOp19
 70
     1
102
RTVSPropertyOp20
 70
     1
102
RTVSPropertyOp21
 70
     1
102
RTVSPropertyOp22
 70
     1
102
RTVSPropertyOp23
 70
     1
102
RTVSPropertyOp24
 70
     1
102
RTVSPropertyOp25
 70
     1
102
RTVSPropertyOp26
 70
     1
102
RTVSPropertyOp27
 70
     1
102
RTVSPropertyOp28
 70
     1
102
RTVSPropertyOp29
 70
     1
102
RTVSPropertyOp30
 70
     1
102
RTVSPropertyOp31
 70
     1
102
RTVSPropertyOp32
 70
     1
  0
XRECORD
  5
109
102
{ACAD_REACTORS
330
108
102
}
330
108
100
AcDbXrecord
280
     1
102
RTVSPropertyOp0
 70
     1
102
RTVSPropertyOp1
 70
     1
102
RTVSPropertyOp2
 70
     1
102
RTVSPropertyOp3
 70
     1
102
RTVSPropertyOp4
 70
     1
102
RTVSPropertyOp5
 70
     1
102
RTVSPropertyOp6
 70
     1
102
RTVSPropertyOp7
 70
     1
102
RTVSPropertyOp8
 70
     1
102
RTVSPropertyOp9
 70
     1
102
RTVSPropertyOp10
 70
     1
102
RTVSPropertyOp11
 70
     1
102
RTVSPropertyOp12
 70
     1
102
RTVSPropertyOp13
 70
     1
102
RTVSPropertyOp14
 70
     1
102
RTVSPropertyOp15
 70
     1
102
RTVSPropertyOp16
 70
     1
102
RTVSPropertyOp17
 70
     1
102
RTVSPropertyOp18
 70
     1
102
RTVSPropertyOp19
 70
     1
102
RTVSPropertyOp20
 70
     1
102
RTVSPropertyOp21
 70
     1
102
RTVSPropertyOp22
 70
     1
102
RTVSPropertyOp23
 70
     1
102
RTVSPropertyOp24
 70
     1
102
RTVSPropertyOp25
 70
     1
102
RTVSPropertyOp26
 70
     1
102
RTVSPropertyOp27
 70
     1
102
RTVSPropertyOp28
 70
     1
102
RTVSPropertyOp29
 70
     1
102
RTVSPropertyOp30
 70
     1
102
RTVSPropertyOp31
 70
     1
102
RTVSPropertyOp32
 70
     1
  0
XRECORD
  5
107
102
{ACAD_REACTORS
330
106
102
}
330
106
100
AcDbXrecord
280
     1
102
RTVSPropertyOp0
 70
     1
102
RTVSPropertyOp1
 70
     1
102
RTVSPropertyOp2
 70
     1
102
RTVSPropertyOp3
 70
     1
102
RTVSPropertyOp4
 70
     1
102
RTVSPropertyOp5
 70
     1
102
RTVSPropertyOp6
 70
     1
102
RTVSPropertyOp7
 70
     1
102
RTVSPropertyOp8
 70
     1
102
RTVSPropertyOp9
 70
     1
102
RTVSPropertyOp10
 70
     1
102
RTVSPropertyOp11
 70
     1
102
RTVSPropertyOp12
 70
     1
102
RTVSPropertyOp13
 70
     1
102
RTVSPropertyOp14
 70
     1
102
RTVSPropertyOp15
 70
     1
102
RTVSPropertyOp16
 70
     1
102
RTVSPropertyOp17
 70
     1
102
RTVSPropertyOp18
 70
     1
102
RTVSPropertyOp19
 70
     1
102
RTVSPropertyOp20
 70
     1
102
RTVSPropertyOp21
 70
     1
102
RTVSPropertyOp22
 70
     1
102
RTVSPropertyOp23
 70
     1
102
RTVSPropertyOp24
 70
     1
102
RTVSPropertyOp25
 70
     1
102
RTVSPropertyOp26
 70
     1
102
RTVSPropertyOp27
 70
     1
102
RTVSPropertyOp28
 70
     1
102
RTVSPropertyOp29
 70
     1
102
RTVSPropertyOp30
 70
     1
102
RTVSPropertyOp31
 70
     1
102
RTVSPropertyOp32
 70
     1
  0
XRECORD
  5
10B
102
{ACAD_REACTORS
330
10A
102
}
330
10A
100
AcDbXrecord
280
     1
102
RTVSPropertyOp0
 70
     1
102
RTVSPropertyOp1
 70
     1
102
RTVSPropertyOp2
 70
     1
102
RTVSPropertyOp3
 70
     1
102
RTVSPropertyOp4
 70
     1
102
RTVSPropertyOp5
 70
     1
102
RTVSPropertyOp6
 70
     1
102
RTVSPropertyOp7
 70
     1
102
RTVSPropertyOp8
 70
     1
102
RTVSPropertyOp9
 70
     1
102
RTVSPropertyOp10
 70
     1
102
RTVSPropertyOp11
 70
     1
102
RTVSPropertyOp12
 70
     1
102
RTVSPropertyOp13
 70
     1
102
RTVSPropertyOp14
 70
     1
102
RTVSPropertyOp15
 70
     1
102
RTVSPropertyOp16
 70
     1
102
RTVSPropertyOp17
 70
     1
102
RTVSPropertyOp18
 70
     1
102
RTVSPropertyOp19
 70
     1
102
RTVSPropertyOp20
 70
     1
102
RTVSPropertyOp21
 70
     1
102
RTVSPropertyOp22
 70
     1
102
RTVSPropertyOp23
 70
     1
102
RTVSPropertyOp24
 70
     1
102
RTVSPropertyOp25
 70
     1
102
RTVSPropertyOp26
 70
     1
102
RTVSPropertyOp27
 70
     1
102
RTVSPropertyOp28
 70
     1
102
RTVSPropertyOp29
 70
     1
102
RTVSPropertyOp30
 70
     1
102
RTVSPropertyOp31
 70
     1
102
RTVSPropertyOp32
 70
     1
  0
XRECORD
  5
113
102
{ACAD_REACTORS
330
112
102
}
330
112
100
AcDbXrecord
280
     1
102
RTVSPropertyOp0
 70
     1
102
RTVSPropertyOp1
 70
     1
102
RTVSPropertyOp2
 70
     1
102
RTVSPropertyOp3
 70
     1
102
RTVSPropertyOp4
 70
     1
102
RTVSPropertyOp5
 70
     1
102
RTVSPropertyOp6
 70
     1
102
RTVSPropertyOp7
 70
     1
102
RTVSPropertyOp8
 70
     1
102
RTVSPropertyOp9
 70
     1
102
RTVSPropertyOp10
 70
     1
102
RTVSPropertyOp11
 70
     1
102
RTVSPropertyOp12
 70
     1
102
RTVSPropertyOp13
 70
     1
102
RTVSPropertyOp14
 70
     1
102
RTVSPropertyOp15
 70
     1
102
RTVSPropertyOp16
 70
     1
102
RTVSPropertyOp17
 70
     1
102
RTVSPropertyOp18
 70
     1
102
RTVSPropertyOp19
 70
     1
102
RTVSPropertyOp20
 70
     1
102
RTVSPropertyOp21
 70
     1
102
RTVSPropertyOp22
 70
     1
102
RTVSPropertyOp23
 70
     1
102
RTVSPropertyOp24
 70
     1
102
RTVSPropertyOp25
 70
     1
102
RTVSPropertyOp26
 70
     1
102
RTVSPropertyOp27
 70
     1
102
RTVSPropertyOp28
 70
     1
102
RTVSPropertyOp29
 70
     1
102
RTVSPropertyOp30
 70
     1
102
RTVSPropertyOp31
 70
     1
102
RTVSPropertyOp32
 70
     1
  0
XRECORD
  5
11B
102
{ACAD_REACTORS
330
11A
102
}
330
11A
100
AcDbXrecord
280
     1
102
RTVSPropertyOp0
 70
     1
102
RTVSPropertyOp1
 70
     1
102
RTVSPropertyOp2
 70
     1
102
RTVSPropertyOp3
 70
     1
102
RTVSPropertyOp4
 70
     1
102
RTVSPropertyOp5
 70
     1
102
RTVSPropertyOp6
 70
     1
102
RTVSPropertyOp7
 70
     1
102
RTVSPropertyOp8
 70
     1
102
RTVSPropertyOp9
 70
     1
102
RTVSPropertyOp10
 70
     1
102
RTVSPropertyOp11
 70
     1
102
RTVSPropertyOp12
 70
     1
102
RTVSPropertyOp13
 70
     1
102
RTVSPropertyOp14
 70
     1
102
RTVSPropertyOp15
 70
     1
102
RTVSPropertyOp16
 70
     1
102
RTVSPropertyOp17
 70
     1
102
RTVSPropertyOp18
 70
     1
102
RTVSPropertyOp19
 70
     1
102
RTVSPropertyOp20
 70
     1
102
RTVSPropertyOp21
 70
     1
102
RTVSPropertyOp22
 70
     1
102
RTVSPropertyOp23
 70
     1
102
RTVSPropertyOp24
 70
     1
102
RTVSPropertyOp25
 70
     1
102
RTVSPropertyOp26
 70
     1
102
RTVSPropertyOp27
 70
     1
102
RTVSPropertyOp28
 70
     1
102
RTVSPropertyOp29
 70
     1
102
RTVSPropertyOp30
 70
     1
102
RTVSPropertyOp31
 70
     1
102
RTVSPropertyOp32
 70
     1
  0
XRECORD
  5
10F
102
{ACAD_REACTORS
330
10E
102
}
330
10E
100
AcDbXrecord
280
     1
102
RTVSPropertyOp0
 70
     1
102
RTVSPropertyOp1
 70
     1
102
RTVSPropertyOp2
 70
     1
102
RTVSPropertyOp3
 70
     1
102
RTVSPropertyOp4
 70
     1
102
RTVSPropertyOp5
 70
     1
102
RTVSPropertyOp6
 70
     1
102
RTVSPropertyOp7
 70
     1
102
RTVSPropertyOp8
 70
     1
102
RTVSPropertyOp9
 70
     1
102
RTVSPropertyOp10
 70
     1
102
RTVSPropertyOp11
 70
     1
102
RTVSPropertyOp12
 70
     1
102
RTVSPropertyOp13
 70
     1
102
RTVSPropertyOp14
 70
     1
102
RTVSPropertyOp15
 70
     1
102
RTVSPropertyOp16
 70
     1
102
RTVSPropertyOp17
 70
     1
102
RTVSPropertyOp18
 70
     1
102
RTVSPropertyOp19
 70
     1
102
RTVSPropertyOp20
 70
     1
102
RTVSPropertyOp21
 70
     1
102
RTVSPropertyOp22
 70
     1
102
RTVSPropertyOp23
 70
     1
102
RTVSPropertyOp24
 70
     1
102
RTVSPropertyOp25
 70
     1
102
RTVSPropertyOp26
 70
     1
102
RTVSPropertyOp27
 70
     1
102
RTVSPropertyOp28
 70
     1
102
RTVSPropertyOp29
 70
     1
102
RTVSPropertyOp30
 70
     1
102
RTVSPropertyOp31
 70
     1
102
RTVSPropertyOp32
 70
     1
  0
XRECORD
  5
111
102
{ACAD_REACTORS
330
110
102
}
330
110
100
AcDbXrecord
280
     1
102
RTVSPropertyOp0
 70
     1
102
RTVSPropertyOp1
 70
     1
102
RTVSPropertyOp2
 70
     1
102
RTVSPropertyOp3
 70
     1
102
RTVSPropertyOp4
 70
     1
102
RTVSPropertyOp5
 70
     1
102
RTVSPropertyOp6
 70
     1
102
RTVSPropertyOp7
 70
     1
102
RTVSPropertyOp8
 70
     1
102
RTVSPropertyOp9
 70
     1
102
RTVSPropertyOp10
 70
     1
102
RTVSPropertyOp11
 70
     1
102
RTVSPropertyOp12
 70
     1
102
RTVSPropertyOp13
 70
     1
102
RTVSPropertyOp14
 70
     1
102
RTVSPropertyOp15
 70
     1
102
RTVSPropertyOp16
 70
     1
102
RTVSPropertyOp17
 70
     1
102
RTVSPropertyOp18
 70
     1
102
RTVSPropertyOp19
 70
     1
102
RTVSPropertyOp20
 70
     1
102
RTVSPropertyOp21
 70
     1
102
RTVSPropertyOp22
 70
     1
102
RTVSPropertyOp23
 70
     1
102
RTVSPropertyOp24
 70
     1
102
RTVSPropertyOp25
 70
     1
102
RTVSPropertyOp26
 70
     1
102
RTVSPropertyOp27
 70
     1
102
RTVSPropertyOp28
 70
     1
102
RTVSPropertyOp29
 70
     1
102
RTVSPropertyOp30
 70
     1
102
RTVSPropertyOp31
 70
     1
102
RTVSPropertyOp32
 70
     1
  0
XRECORD
  5
119
102
{ACAD_REACTORS
330
118
102
}
330
118
100
AcDbXrecord
280
     1
102
RTVSPropertyOp0
 70
     1
102
RTVSPropertyOp1
 70
     1
102
RTVSPropertyOp2
 70
     1
102
RTVSPropertyOp3
 70
     1
102
RTVSPropertyOp4
 70
     1
102
RTVSPropertyOp5
 70
     1
102
RTVSPropertyOp6
 70
     1
102
RTVSPropertyOp7
 70
     1
102
RTVSPropertyOp8
 70
     1
102
RTVSPropertyOp9
 70
     1
102
RTVSPropertyOp10
 70
     1
102
RTVSPropertyOp11
 70
     1
102
RTVSPropertyOp12
 70
     1
102
RTVSPropertyOp13
 70
     1
102
RTVSPropertyOp14
 70
     1
102
RTVSPropertyOp15
 70
     1
102
RTVSPropertyOp16
 70
     1
102
RTVSPropertyOp17
 70
     1
102
RTVSPropertyOp18
 70
     1
102
RTVSPropertyOp19
 70
     1
102
RTVSPropertyOp20
 70
     1
102
RTVSPropertyOp21
 70
     1
102
RTVSPropertyOp22
 70
     1
102
RTVSPropertyOp23
 70
     1
102
RTVSPropertyOp24
 70
     1
102
RTVSPropertyOp25
 70
     1
102
RTVSPropertyOp26
 70
     1
102
RTVSPropertyOp27
 70
     1
102
RTVSPropertyOp28
 70
     1
102
RTVSPropertyOp29
 70
     1
102
RTVSPropertyOp30
 70
     1
102
RTVSPropertyOp31
 70
     1
102
RTVSPropertyOp32
 70
     1
  0
XRECORD
  5
FD
102
{ACAD_REACTORS
330
FC
102
}
330
FC
100
AcDbXrecord
280
     1
102
RTVSPropertyOp0
 70
     1
102
RTVSPropertyOp1
 70
     1
102
RTVSPropertyOp2
 70
     1
102
RTVSPropertyOp3
 70
     1
102
RTVSPropertyOp4
 70
     1
102
RTVSPropertyOp5
 70
     1
102
RTVSPropertyOp6
 70
     1
102
RTVSPropertyOp7
 70
     1
102
RTVSPropertyOp8
 70
     1
102
RTVSPropertyOp9
 70
     1
102
RTVSPropertyOp10
 70
     1
102
RTVSPropertyOp11
 70
     1
102
RTVSPropertyOp12
 70
     1
102
RTVSPropertyOp13
 70
     1
102
RTVSPropertyOp14
 70
     1
102
RTVSPropertyOp15
 70
     1
102
RTVSPropertyOp16
 70
     1
102
RTVSPropertyOp17
 70
     1
102
RTVSPropertyOp18
 70
     1
102
RTVSPropertyOp19
 70
     1
102
RTVSPropertyOp20
 70
     1
102
RTVSPropertyOp21
 70
     1
102
RTVSPropertyOp22
 70
     1
102
RTVSPropertyOp23
 70
     1
102
RTVSPropertyOp24
 70
     1
102
RTVSPropertyOp25
 70
     1
102
RTVSPropertyOp26
 70
     1
102
RTVSPropertyOp27
 70
     1
102
RTVSPropertyOp28
 70
     1
102
RTVSPropertyOp29
 70
     1
102
RTVSPropertyOp30
 70
     1
102
RTVSPropertyOp31
 70
     1
102
RTVSPropertyOp32
 70
     1
  0
XRECORD
  5
FF
102
{ACAD_REACTORS
330
FE
102
}
330
FE
100
AcDbXrecord
280
     1
102
RTVSPropertyOp0
 70
     1
102
RTVSPropertyOp1
 70
     1
102
RTVSPropertyOp2
 70
     1
102
RTVSPropertyOp3
 70
     1
102
RTVSPropertyOp4
 70
     1
102
RTVSPropertyOp5
 70
     1
102
RTVSPropertyOp6
 70
     1
102
RTVSPropertyOp7
 70
     1
102
RTVSPropertyOp8
 70
     1
102
RTVSPropertyOp9
 70
     1
102
RTVSPropertyOp10
 70
     1
102
RTVSPropertyOp11
 70
     1
102
RTVSPropertyOp12
 70
     1
102
RTVSPropertyOp13
 70
     1
102
RTVSPropertyOp14
 70
     1
102
RTVSPropertyOp15
 70
     1
102
RTVSPropertyOp16
 70
     1
102
RTVSPropertyOp17
 70
     1
102
RTVSPropertyOp18
 70
     1
102
RTVSPropertyOp19
 70
     1
102
RTVSPropertyOp20
 70
     1
102
RTVSPropertyOp21
 70
     1
102
RTVSPropertyOp22
 70
     1
102
RTVSPropertyOp23
 70
     1
102
RTVSPropertyOp24
 70
     1
102
RTVSPropertyOp25
 70
     1
102
RTVSPropertyOp26
 70
     1
102
RTVSPropertyOp27
 70
     1
102
RTVSPropertyOp28
 70
     1
102
RTVSPropertyOp29
 70
     1
102
RTVSPropertyOp30
 70
     1
102
RTVSPropertyOp31
 70
     1
102
RTVSPropertyOp32
 70
     1
  0
XRECORD
  5
101
102
{ACAD_REACTORS
330
100
102
}
330
100
100
AcDbXrecord
280
     1
102
RTVSPropertyOp0
 70
     1
102
RTVSPropertyOp1
 70
     1
102
RTVSPropertyOp2
 70
     1
102
RTVSPropertyOp3
 70
     1
102
RTVSPropertyOp4
 70
     1
102
RTVSPropertyOp5
 70
     1
102
RTVSPropertyOp6
 70
     1
102
RTVSPropertyOp7
 70
     1
102
RTVSPropertyOp8
 70
     1
102
RTVSPropertyOp9
 70
     1
102
RTVSPropertyOp10
 70
     1
102
RTVSPropertyOp11
 70
     1
102
RTVSPropertyOp12
 70
     1
102
RTVSPropertyOp13
 70
     1
102
RTVSPropertyOp14
 70
     1
102
RTVSPropertyOp15
 70
     1
102
RTVSPropertyOp16
 70
     1
102
RTVSPropertyOp17
 70
     1
102
RTVSPropertyOp18
 70
     1
102
RTVSPropertyOp19
 70
     1
102
RTVSPropertyOp20
 70
     1
102
RTVSPropertyOp21
 70
     1
102
RTVSPropertyOp22
 70
     1
102
RTVSPropertyOp23
 70
     1
102
RTVSPropertyOp24
 70
     1
102
RTVSPropertyOp25
 70
     1
102
RTVSPropertyOp26
 70
     1
102
RTVSPropertyOp27
 70
     1
102
RTVSPropertyOp28
 70
     1
102
RTVSPropertyOp29
 70
     1
102
RTVSPropertyOp30
 70
     1
102
RTVSPropertyOp31
 70
     1
102
RTVSPropertyOp32
 70
     1
  0
XRECORD
  5
103
102
{ACAD_REACTORS
330
102
102
}
330
102
100
AcDbXrecord
280
     1
102
RTVSPropertyOp0
 70
     1
102
RTVSPropertyOp1
 70
     1
102
RTVSPropertyOp2
 70
     1
102
RTVSPropertyOp3
 70
     1
102
RTVSPropertyOp4
 70
     1
102
RTVSPropertyOp5
 70
     1
102
RTVSPropertyOp6
 70
     1
102
RTVSPropertyOp7
 70
     1
102
RTVSPropertyOp8
 70
     1
102
RTVSPropertyOp9
 70
     1
102
RTVSPropertyOp10
 70
     1
102
RTVSPropertyOp11
 70
     1
102
RTVSPropertyOp12
 70
     1
102
RTVSPropertyOp13
 70
     1
102
RTVSPropertyOp14
 70
     1
102
RTVSPropertyOp15
 70
     1
102
RTVSPropertyOp16
 70
     1
102
RTVSPropertyOp17
 70
     1
102
RTVSPropertyOp18
 70
     1
102
RTVSPropertyOp19
 70
     1
102
RTVSPropertyOp20
 70
     1
102
RTVSPropertyOp21
 70
     1
102
RTVSPropertyOp22
 70
     1
102
RTVSPropertyOp23
 70
     1
102
RTVSPropertyOp24
 70
     1
102
RTVSPropertyOp25
 70
     1
102
RTVSPropertyOp26
 70
     1
102
RTVSPropertyOp27
 70
     1
102
RTVSPropertyOp28
 70
     1
102
RTVSPropertyOp29
 70
     1
102
RTVSPropertyOp30
 70
     1
102
RTVSPropertyOp31
 70
     1
102
RTVSPropertyOp32
 70
     1
  0
XRECORD
  5
117
102
{ACAD_REACTORS
330
116
102
}
330
116
100
AcDbXrecord
280
     1
102
RTVSPropertyOp0
 70
     1
102
RTVSPropertyOp1
 70
     1
102
RTVSPropertyOp2
 70
     1
102
RTVSPropertyOp3
 70
     1
102
RTVSPropertyOp4
 70
     1
102
RTVSPropertyOp5
 70
     1
102
RTVSPropertyOp6
 70
     1
102
RTVSPropertyOp7
 70
     1
102
RTVSPropertyOp8
 70
     1
102
RTVSPropertyOp9
 70
     1
102
RTVSPropertyOp10
 70
     1
102
RTVSPropertyOp11
 70
     1
102
RTVSPropertyOp12
 70
     1
102
RTVSPropertyOp13
 70
     1
102
RTVSPropertyOp14
 70
     1
102
RTVSPropertyOp15
 70
     1
102
RTVSPropertyOp16
 70
     1
102
RTVSPropertyOp17
 70
     1
102
RTVSPropertyOp18
 70
     1
102
RTVSPropertyOp19
 70
     1
102
RTVSPropertyOp20
 70
     1
102
RTVSPropertyOp21
 70
     1
102
RTVSPropertyOp22
 70
     1
102
RTVSPropertyOp23
 70
     1
102
RTVSPropertyOp24
 70
     1
102
RTVSPropertyOp25
 70
     1
102
RTVSPropertyOp26
 70
     1
102
RTVSPropertyOp27
 70
     1
102
RTVSPropertyOp28
 70
     1
102
RTVSPropertyOp29
 70
     1
102
RTVSPropertyOp30
 70
     1
102
RTVSPropertyOp31
 70
     1
102
RTVSPropertyOp32
 70
     1
  0
XRECORD
  5
10D
102
{ACAD_REACTORS
330
10C
102
}
330
10C
100
AcDbXrecord
280
     1
102
RTVSPropertyOp0
 70
     1
102
RTVSPropertyOp1
 70
     1
102
RTVSPropertyOp2
 70
     1
102
RTVSPropertyOp3
 70
     1
102
RTVSPropertyOp4
 70
     1
102
RTVSPropertyOp5
 70
     1
102
RTVSPropertyOp6
 70
     1
102
RTVSPropertyOp7
 70
     1
102
RTVSPropertyOp8
 70
     1
102
RTVSPropertyOp9
 70
     1
102
RTVSPropertyOp10
 70
     1
102
RTVSPropertyOp11
 70
     1
102
RTVSPropertyOp12
 70
     1
102
RTVSPropertyOp13
 70
     1
102
RTVSPropertyOp14
 70
     1
102
RTVSPropertyOp15
 70
     1
102
RTVSPropertyOp16
 70
     1
102
RTVSPropertyOp17
 70
     1
102
RTVSPropertyOp18
 70
     1
102
RTVSPropertyOp19
 70
     1
102
RTVSPropertyOp20
 70
     1
102
RTVSPropertyOp21
 70
     1
102
RTVSPropertyOp22
 70
     1
102
RTVSPropertyOp23
 70
     1
102
RTVSPropertyOp24
 70
     1
102
RTVSPropertyOp25
 70
     1
102
RTVSPropertyOp26
 70
     1
102
RTVSPropertyOp27
 70
     1
102
RTVSPropertyOp28
 70
     1
102
RTVSPropertyOp29
 70
     1
102
RTVSPropertyOp30
 70
     1
102
RTVSPropertyOp31
 70
     1
102
RTVSPropertyOp32
 70
     1
  0
XRECORD
  5
115
102
{ACAD_REACTORS
330
114
102
}
330
114
100
AcDbXrecord
280
     1
102
RTVSPropertyOp0
 70
     1
102
RTVSPropertyOp1
 70
     1
102
RTVSPropertyOp2
 70
     1
102
RTVSPropertyOp3
 70
     1
102
RTVSPropertyOp4
 70
     1
102
RTVSPropertyOp5
 70
     1
102
RTVSPropertyOp6
 70
     1
102
RTVSPropertyOp7
 70
     1
102
RTVSPropertyOp8
 70
     1
102
RTVSPropertyOp9
 70
     1
102
RTVSPropertyOp10
 70
     1
102
RTVSPropertyOp11
 70
     1
102
RTVSPropertyOp12
 70
     1
102
RTVSPropertyOp13
 70
     1
102
RTVSPropertyOp14
 70
     1
102
RTVSPropertyOp15
 70
     1
102
RTVSPropertyOp16
 70
     1
102
RTVSPropertyOp17
 70
     1
102
RTVSPropertyOp18
 70
     1
102
RTVSPropertyOp19
 70
     1
102
RTVSPropertyOp20
 70
     1
102
RTVSPropertyOp21
 70
     1
102
RTVSPropertyOp22
 70
     1
102
RTVSPropertyOp23
 70
     1
102
RTVSPropertyOp24
 70
     1
102
RTVSPropertyOp25
 70
     1
102
RTVSPropertyOp26
 70
     1
102
RTVSPropertyOp27
 70
     1
102
RTVSPropertyOp28
 70
     1
102
RTVSPropertyOp29
 70
     1
102
RTVSPropertyOp30
 70
     1
102
RTVSPropertyOp31
 70
     1
102
RTVSPropertyOp32
 70
     1
  0
ENDSEC
  0
EOF
