  0
SECTION
  2
HEADER
  9
$ACADVER
  1
AC1018
  9
$ACADMAINTVER
 70
     2
  9
$DWGCODEPAGE
  3
ANSI_1252
  9
$TITLE
  1

  9
$SUBJECT
  1

  9
$AUTHOR
  1

  9
$KEYWORDS
  1

  9
$COMMENTS
  1

  9
$LASTSAVEDBY
  1

  9
$REVISIONNUMBER
  1

  9
$CUSTOMPROPERTYTAG
  1
AmdtFileType
  9
$CUSTOMPROPERTY
  1
84
  9
$INSBASE
 10
0.0
 20
0.0
 30
0.0
  9
$EXTMIN
 10
-247.9199730267122
 20
-433.2787894134228
 30
0.0
  9
$EXTMAX
 10
248.2841213961249
 20
11.15542439898451
 30
0.0
  9
$LIMMIN
 10
0.0
 20
0.0
  9
$LIMMAX
 10
420.0
 20
297.0
  9
$ORTHOMODE
 70
     1
  9
$REGENMODE
 70
     1
  9
$FILLMODE
 70
     1
  9
$QTEXTMODE
 70
     0
  9
$MIRRTEXT
 70
     1
  9
$LTSCALE
 40
1.0
  9
$ATTMODE
 70
     1
  9
$TEXTSIZE
 40
2.5
  9
$TRACEWID
 40
1.0
  9
$TEXTSTYLE
  7
STANDARD
  9
$CLAYER
  8
0
  9
$CELTYPE
  6
ByLayer
  9
$CECOLOR
 62
   256
  9
$CELTSCALE
 40
1.0
  9
$DISPSILH
 70
     0
  9
$DIMSCALE
 40
1.0
  9
$DIMASZ
 40
2.5
  9
$DIMEXO
 40
1.0
  9
$DIMDLI
 40
10.0
  9
$DIMRND
 40
0.0
  9
$DIMDLE
 40
0.0
  9
$DIMEXE
 40
1.0
  9
$DIMTP
 40
0.1
  9
$DIMTM
 40
0.1
  9
$DIMTXT
 40
3.5
  9
$DIMCEN
 40
0.0
  9
$DIMTSZ
 40
0.0
  9
$DIMTOL
 70
     0
  9
$DIMLIM
 70
     0
  9
$DIMTIH
 70
     0
  9
$DIMTOH
 70
     0
  9
$DIMSE1
 70
     0
  9
$DIMSE2
 70
     0
  9
$DIMTAD
 70
     1
  9
$DIMZIN
 70
     8
  9
$DIMBLK
  1

  9
$DIMASO
 70
     1
  9
$DIMSHO
 70
     1
  9
$DIMPOST
  1

  9
$DIMAPOST
  1
"
  9
$DIMALT
 70
     0
  9
$DIMALTD
 70
     2
  9
$DIMALTF
 40
0.0393701
  9
$DIMLFAC
 40
1.0
  9
$DIMTOFL
 70
     1
  9
$DIMTVP
 40
0.0
  9
$DIMTIX
 70
     0
  9
$DIMSOXD
 70
     0
  9
$DIMSAH
 70
     0
  9
$DIMBLK1
  1

  9
$DIMBLK2
  1

  9
$DIMSTYLE
  2
AM_DIN
  9
$DIMCLRD
 70
   256
  9
$DIMCLRE
 70
   256
  9
$DIMCLRT
 70
     2
  9
$DIMTFAC
 40
0.71
  9
$DIMGAP
 40
1.5
  9
$DIMJUST
 70
     0
  9
$DIMSD1
 70
     0
  9
$DIMSD2
 70
     0
  9
$DIMTOLJ
 70
     0
  9
$DIMTZIN
 70
     8
  9
$DIMALTZ
 70
     0
  9
$DIMALTTZ
 70
     0
  9
$DIMUPT
 70
     0
  9
$DIMDEC
 70
     2
  9
$DIMTDEC
 70
     3
  9
$DIMALTU
 70
     2
  9
$DIMALTTD
 70
     4
  9
$DIMTXSTY
  7
STANDARD
  9
$DIMAUNIT
 70
     0
  9
$DIMADEC
 70
     0
  9
$DIMALTRND
 40
0.0
  9
$DIMAZIN
 70
     2
  9
$DIMDSEP
 70
    46
  9
$DIMATFIT
 70
     3
  9
$DIMFRAC
 70
     0
  9
$DIMLDRBLK
  1

  9
$DIMLUNIT
 70
     2
  9
$DIMLWD
 70
    -1
  9
$DIMLWE
 70
    -1
  9
$DIMTMOVE
 70
     0
  9
$LUNITS
 70
     2
  9
$LUPREC
 70
     2
  9
$SKETCHINC
 40
1.0
  9
$FILLETRAD
 40
7.0
  9
$AUNITS
 70
     0
  9
$AUPREC
 70
     0
  9
$MENU
  1
.
  9
$ELEVATION
 40
0.0
  9
$PELEVATION
 40
0.0
  9
$THICKNESS
 40
0.0
  9
$LIMCHECK
 70
     0
  9
$CHAMFERA
 40
2.5
  9
$CHAMFERB
 40
2.5
  9
$CHAMFERC
 40
20.0
  9
$CHAMFERD
 40
0.0
  9
$SKPOLY
 70
     0
  9
$TDCREATE
 40
2453918.262673241
  9
$TDUCREATE
 40
2453918.179339908
  9
$TDUPDATE
 40
2454225.320630602
  9
$TDUUPDATE
 40
2454225.237297269
  9
$TDINDWG
 40
0.1132153935
  9
$TDUSRTIMER
 40
0.1132112384
  9
$USRTIMER
 70
     1
  9
$ANGBASE
 50
0.0
  9
$ANGDIR
 70
     0
  9
$PDMODE
 70
     0
  9
$PDSIZE
 40
0.0
  9
$PLINEWID
 40
0.0
  9
$SPLFRAME
 70
     0
  9
$SPLINETYPE
 70
     6
  9
$SPLINESEGS
 70
     8
  9
$HANDSEED
  5
3466
  9
$SURFTAB1
 70
     6
  9
$SURFTAB2
 70
     6
  9
$SURFTYPE
 70
     6
  9
$SURFU
 70
     6
  9
$SURFV
 70
     6
  9
$UCSBASE
  2

  9
$UCSNAME
  2

  9
$UCSORG
 10
0.0
 20
0.0
 30
0.0
  9
$UCSXDIR
 10
1.0
 20
0.0
 30
0.0
  9
$UCSYDIR
 10
0.0
 20
1.0
 30
0.0
  9
$UCSORTHOREF
  2

  9
$UCSORTHOVIEW
 70
     0
  9
$UCSORGTOP
 10
0.0
 20
0.0
 30
0.0
  9
$UCSORGBOTTOM
 10
0.0
 20
0.0
 30
0.0
  9
$UCSORGLEFT
 10
0.0
 20
0.0
 30
0.0
  9
$UCSORGRIGHT
 10
0.0
 20
0.0
 30
0.0
  9
$UCSORGFRONT
 10
0.0
 20
0.0
 30
0.0
  9
$UCSORGBACK
 10
0.0
 20
0.0
 30
0.0
  9
$PUCSBASE
  2

  9
$PUCSNAME
  2

  9
$PUCSORG
 10
0.0
 20
0.0
 30
0.0
  9
$PUCSXDIR
 10
1.0
 20
0.0
 30
0.0
  9
$PUCSYDIR
 10
0.0
 20
1.0
 30
0.0
  9
$PUCSORTHOREF
  2

  9
$PUCSORTHOVIEW
 70
     0
  9
$PUCSORGTOP
 10
0.0
 20
0.0
 30
0.0
  9
$PUCSORGBOTTOM
 10
0.0
 20
0.0
 30
0.0
  9
$PUCSORGLEFT
 10
0.0
 20
0.0
 30
0.0
  9
$PUCSORGRIGHT
 10
0.0
 20
0.0
 30
0.0
  9
$PUCSORGFRONT
 10
0.0
 20
0.0
 30
0.0
  9
$PUCSORGBACK
 10
0.0
 20
0.0
 30
0.0
  9
$USERI1
 70
     0
  9
$USERI2
 70
     0
  9
$USERI3
 70
     0
  9
$USERI4
 70
     0
  9
$USERI5
 70
     0
  9
$USERR1
 40
0.0
  9
$USERR2
 40
0.0
  9
$USERR3
 40
0.0
  9
$USERR4
 40
0.0
  9
$USERR5
 40
0.0
  9
$WORLDVIEW
 70
     1
  9
$SHADEDGE
 70
     3
  9
$SHADEDIF
 70
    70
  9
$TILEMODE
 70
     1
  9
$MAXACTVP
 70
    64
  9
$PINSBASE
 10
0.0
 20
0.0
 30
0.0
  9
$PLIMCHECK
 70
     0
  9
$PEXTMIN
 10
1.000000000000000E+20
 20
1.000000000000000E+20
 30
1.000000000000000E+20
  9
$PEXTMAX
 10
-1.000000000000000E+20
 20
-1.000000000000000E+20
 30
-1.000000000000000E+20
  9
$PLIMMIN
 10
0.0
 20
0.0
  9
$PLIMMAX
 10
420.0
 20
297.0
  9
$UNITMODE
 70
     0
  9
$VISRETAIN
 70
     1
  9
$PLINEGEN
 70
     0
  9
$PSLTSCALE
 70
     1
  9
$TREEDEPTH
 70
  3020
  9
$CMLSTYLE
  2
Standard
  9
$CMLJUST
 70
     0
  9
$CMLSCALE
 40
20.0
  9
$PROXYGRAPHICS
 70
     1
  9
$MEASUREMENT
 70
     1
  9
$CELWEIGHT
370
    -1
  9
$ENDCAPS
280
     0
  9
$JOINSTYLE
280
     0
  9
$LWDISPLAY
290
     0
  9
$INSUNITS
 70
     4
  9
$HYPERLINKBASE
  1

  9
$STYLESHEET
  1

  9
$XEDIT
290
     1
  9
$CEPSNTYPE
380
     0
  9
$PSTYLEMODE
290
     1
  9
$FINGERPRINTGUID
  2
{E66C8CC1-E66B-408F-9010-06FD783B68A0}
  9
$VERSIONGUID
  2
{7E2150A6-358E-4D34-96F2-39CCC9E4331D}
  9
$EXTNAMES
290
     1
  9
$PSVPSCALE
 40
0.0
  9
$OLESTARTUP
290
     0
  9
$SORTENTS
280
   127
  9
$INDEXCTL
280
     1
  9
$HIDETEXT
280
     1
  9
$XCLIPFRAME
290
     0
  9
$HALOGAP
280
     0
  9
$OBSCOLOR
 70
   257
  9
$OBSLTYPE
280
     0
  9
$INTERSECTIONDISPLAY
280
     0
  9
$INTERSECTIONCOLOR
 70
   257
  9
$DIMASSOC
280
     2
  9
$PROJECTNAME
  1

  0
ENDSEC
  0
SECTION
  2
CLASSES
  0
CLASS
  1
ACDBDICTIONARYWDFLT
  2
AcDbDictionaryWithDefault
  3
ObjectDBX Classes
 90
        0
 91
        1
280
     0
281
     0
  0
CLASS
  1
ACME_DOCUMENT
  2
AcMeDbDoc
  3
AcMeServices
 90
        0
 91
        2
280
     0
281
     0
  0
CLASS
  1
ACMESCOPE
  2
AcMeScope
  3
AcMeServices
 90
        0
 91
        1
280
     0
281
     0
  0
CLASS
  1
ACMECOMMANDHISTORY
  2
AcMeCommandHistory
  3
AcMeServices
 90
        0
 91
        1
280
     0
281
     0
  0
CLASS
  1
ACIMSYSVARMAN
  2
AcImSysVarManager
  3
AcMeServices
 90
        0
 91
        6
280
     0
281
     0
  0
CLASS
  1
ACIMREALSYSVAR
  2
AcImRealSysVar
  3
AcMeServices
 90
        0
 91
       16
280
     0
281
     0
  0
CLASS
  1
ACIMINTSYSVAR
  2
AcImIntSysVar
  3
AcMeServices
 90
        0
 91
       45
280
     0
281
     0
  0
CLASS
  1
ACMEDRAWINGMAN
  2
AcMeDrawingMan
  3
AcMeServices
 90
        0
 91
        1
280
     0
281
     0
  0
CLASS
  1
ACMEVIEW
  2
AcMeView
  3
AcMeServices
 90
        0
 91
        1
280
     0
281
     0
  0
CLASS
  1
ACDBENTITYCACHE
  2
AcMeEntityCache
  3
AcMeServices
 90
        0
 91
        1
280
     0
281
     0
  0
CLASS
  1
GSMANAGER
  2
AcMeGSManager
  3
AcMeServices
 90
        0
 91
        1
280
     0
281
     0
  0
CLASS
  1
AMDTINTERNALREACTOR
  2
AmdtInternalReactor
  3
AcMeServices
 90
        0
 91
        2
280
     0
281
     0
  0
CLASS
  1
ACMESTATEMGR
  2
AcMeStateMgr
  3
AcMeServices
 90
        0
 91
        1
280
     0
281
     0
  0
CLASS
  1
ACGREFMASTER
  2
AcGrefMaster
  3
AcAttribServices
 90
        0
 91
        1
280
     0
281
     0
  0
CLASS
  1
ACME_DATABASE
  2
AcMeDbDatabase
  3
AcMeServices
 90
        0
 91
        1
280
     0
281
     0
  0
CLASS
  1
ACRFINSADJUSTERMGR
  2
AcRfInsAdjusterMgr
  3
AcMeServices
 90
        0
 91
        1
280
     0
281
     0
  0
CLASS
  1
ACGREFACADMASTER
  2
AcGrefacadMaster
  3
AcGrefServices
 90
        0
 91
        1
280
     0
281
     0
  0
CLASS
  1
AMIMASTER
  2
AmiMaster
  3
AmiServices
 90
        0
 91
        1
280
     0
281
     0
  0
CLASS
  1
AMGSETTINGSOBJ
  2
AmgSettingsObj
  3
"AcadM|Product Description: AutoCAD Mechanical 2000|Company: Autodesk"
 90
        0
 91
        2
280
     0
281
     0
  0
CLASS
  1
ACMDATADICTIONARY
  2
AcmDataDictionary
  3
"AcmSymBB|Product Description: AutoCAD Mechanical 2004 DX|Company: Autodesk"
 90
        0
 91
        1
280
     0
281
     0
  0
CLASS
  1
ACMDATAENTRYBLOCK
  2
AcmDataEntryBlock
  3
"AcmSymBB|Product Description: AutoCAD Mechanical 2004 DX|Company: Autodesk"
 90
        0
 91
        1
280
     0
281
     0
  0
CLASS
  1
ACIMSTRSYSVAR
  2
AcImStrSysVar
  3
AcMeServices
 90
        0
 91
       11
280
     0
281
     0
  0
CLASS
  1
ACMSTANDARDDIN
  2
AcmStandardDIN
  3
"Amdt_StdImp|Product Description: AutoCAD Mechanical 2004 DX|Company: Autodesk"
 90
        0
 91
        1
280
     0
281
     0
  0
CLASS
  1
AMGOBJPROPCFG
  2
AmgObjPropCfg
  3
"AmgLay|Product Description: AutoCAD Mechanical 2000|Company: Autodesk"
 90
        1
 91
        1
280
     0
281
     0
  0
CLASS
  1
AMDTEDGESTANDARDDIN
  2
AmdtEdgeStdDIN
  3
"Amdt_StdImp|Product Description: AutoCAD Mechanical 2004 DX|Company: Autodesk"
 90
        0
 91
        1
280
     0
281
     0
  0
CLASS
  1
ACMSURFSTANDARDDIN
  2
AcmSurfTextStdDIN
  3
"Amdt_StdImp|Product Description: AutoCAD Mechanical 2004 DX|Company: Autodesk"
 90
        0
 91
        1
280
     0
281
     0
  0
CLASS
  1
ACMFCFSTANDARDDIN
  2
AcmFCFStdDIN
  3
"Amdt_StdImp|Product Description: AutoCAD Mechanical 2004 DX|Company: Autodesk"
 90
        0
 91
        1
280
     0
281
     0
  0
CLASS
  1
ACMWELDSTANDARDDIN
  2
AcmWeldingStdDIN
  3
"Amdt_StdImp|Product Description: AutoCAD Mechanical 2004 DX|Company: Autodesk"
 90
        0
 91
        1
280
     0
281
     0
  0
CLASS
  1
ACMIDSTANDARDDIN
  2
AcmIdStdDIN
  3
"Amdt_StdImp|Product Description: AutoCAD Mechanical 2004 DX|Company: Autodesk"
 90
        0
 91
        1
280
     0
281
     0
  0
CLASS
  1
ACMDATUMSTANDARDDIN
  2
AcmDatumStdDIN
  3
"Amdt_StdImp|Product Description: AutoCAD Mechanical 2004 DX|Company: Autodesk"
 90
        0
 91
        1
280
     0
281
     0
  0
CLASS
  1
ACMBOMSTANDARDDIN
  2
AcmBOMStdDIN
  3
"Amdt_StdImp|Product Description: AutoCAD Mechanical 2004 DX|Company: Autodesk"
 90
        0
 91
        1
280
     0
281
     0
  0
CLASS
  1
ACMDETAILSTANDARDDIN
  2
AmdtDetailSymStdDIN
  3
"Amdt_StdImp|Product Description: AutoCAD Mechanical 2004 DX|Company: Autodesk"
 90
        0
 91
        1
280
     0
281
     0
  0
CLASS
  1
ACMSECTIONSTANDARDDIN
  2
AmdtSectionSymStdDIN
  3
"Amdt_StdImp|Product Description: AutoCAD Mechanical 2004 DX|Company: Autodesk"
 90
        0
 91
        1
280
     0
281
     0
  0
CLASS
  1
ACMCENTERLINESTANDARDDIN
  2
AmdtCenterLineStdDIN
  3
"Amdt_StdImp|Product Description: AutoCAD Mechanical 2004 DX|Company: Autodesk"
 90
        0
 91
        1
280
     0
281
     0
  0
CLASS
  1
ACMNOTESTANDARDDIN
  2
AmdtNoteStdDIN
  3
"Amdt_StdImp|Product Description: AutoCAD Mechanical 2004 DX|Company: Autodesk"
 90
        0
 91
        1
280
     0
281
     0
  0
CLASS
  1
ACAMGLAYSTD
  2
AcAmgLayStd
  3
"AcAmgLayStd|Product Description: AutoCAD Mechanical 2000|Company: Autodesk"
 90
        0
 91
        2
280
     0
281
     0
  0
CLASS
  1
ACAMGDIMSTD
  2
AcAmgDimStd
  3
"AcAmgDimStd|Product Description: AutoCAD Mechanical 2000|Company: Autodesk"
 90
        0
 91
        2
280
     0
281
     0
  0
CLASS
  1
ACAMGHOLECHARTSTDDIN
  2
AcAmgHoleChartStdDIN
  3
ACMSYMBB_MODULE_NAME
 90
        0
 91
        1
280
     0
281
     0
  0
CLASS
  1
ACAMGTITLESTD
  2
AcAmgTitleStd
  3
"TITLEAPP"
 90
        0
 91
        2
280
     0
281
     0
  0
CLASS
  1
LAYER_INDEX
  2
AcDbLayerIndex
  3
ObjectDBX Classes
 90
        0
 91
        1
280
     0
281
     0
  0
CLASS
  1
IDBUFFER
  2
AcDbIdBuffer
  3
ObjectDBX Classes
 90
        0
 91
        1
280
     0
281
     0
  0
CLASS
  1
DICTIONARYVAR
  2
AcDbDictionaryVar
  3
ObjectDBX Classes
 90
        0
 91
        3
280
     0
281
     0
  0
CLASS
  1
ACAMGFILTERDAT
  2
AcAmgFilterDat
  3
"AcadM|Product Description: AutoCAD Mechanical 2000|Company: Autodesk"
 90
        0
 91
        6
280
     0
281
     0
  0
CLASS
  1
ACMSTANDARDANSI
  2
AcmStandardANSI
  3
"Amdt_StdImp|Product Description: AutoCAD Mechanical 2004 DX|Company: Autodesk"
 90
        0
 91
        1
280
     0
281
     0
  0
CLASS
  1
ACMSURFSTANDARDANSI
  2
AcmSurfTextStdANSI
  3
"Amdt_StdImp|Product Description: AutoCAD Mechanical 2004 DX|Company: Autodesk"
 90
        0
 91
        1
280
     0
281
     0
  0
CLASS
  1
ACMFCFSTANDARDANSI
  2
AcmFCFStdANSI
  3
"Amdt_StdImp|Product Description: AutoCAD Mechanical 2004 DX|Company: Autodesk"
 90
        0
 91
        1
280
     0
281
     0
  0
CLASS
  1
ACMWELDSTANDARDANSI
  2
AcmWeldingStdANSI
  3
"Amdt_StdImp|Product Description: AutoCAD Mechanical 2004 DX|Company: Autodesk"
 90
        0
 91
        1
280
     0
281
     0
  0
CLASS
  1
ACMIDSTANDARDANSI
  2
AcmIdStdANSI
  3
"Amdt_StdImp|Product Description: AutoCAD Mechanical 2004 DX|Company: Autodesk"
 90
        0
 91
        1
280
     0
281
     0
  0
CLASS
  1
ACMDATUMSTANDARDANSI
  2
AcmDatumStdANSI
  3
"Amdt_StdImp|Product Description: AutoCAD Mechanical 2004 DX|Company: Autodesk"
 90
        0
 91
        1
280
     0
281
     0
  0
CLASS
  1
ACMBOMSTANDARDANSI
  2
AcmBOMStdANSI
  3
"Amdt_StdImp|Product Description: AutoCAD Mechanical 2004 DX|Company: Autodesk"
 90
        0
 91
        1
280
     0
281
     0
  0
CLASS
  1
ACMDETAILSTANDARDANSI
  2
AmdtDetailSymStdANSI
  3
"Amdt_StdImp|Product Description: AutoCAD Mechanical 2004 DX|Company: Autodesk"
 90
        0
 91
        1
280
     0
281
     0
  0
CLASS
  1
ACMSECTIONSTANDARDANSI
  2
AmdtSectionSymStdANSI
  3
"Amdt_StdImp|Product Description: AutoCAD Mechanical 2004 DX|Company: Autodesk"
 90
        0
 91
        1
280
     0
281
     0
  0
CLASS
  1
ACMCENTERLINESTANDARDANSI
  2
AmdtCenterLineStdANSI
  3
"Amdt_StdImp|Product Description: AutoCAD Mechanical 2004 DX|Company: Autodesk"
 90
        0
 91
        1
280
     0
281
     0
  0
CLASS
  1
ACMNOTESTANDARDANSI
  2
AmdtNoteStdANSI
  3
"Amdt_StdImp|Product Description: AutoCAD Mechanical 2004 DX|Company: Autodesk"
 90
        0
 91
        1
280
     0
281
     0
  0
CLASS
  1
ACAMGHOLECHARTSTDANSI
  2
AcAmgHoleChartStdANSI
  3
ACMSYMBB_MODULE_NAME
 90
        0
 91
        1
280
     0
281
     0
  0
CLASS
  1
AMDTFORMULAUPDATEDISPATCHER
  2
AmdtFormulaUpdateDispatcher
  3
AcMeServices
 90
        0
 91
        1
280
     0
281
     0
  0
CLASS
  1
DIMASSOC
  2
AcDbDimAssoc
  3
"AcDbDimAssoc|Product Desc:     AcDim ARX App For Dimension|Company:          Autodesk, Inc.|WEB Address:      www.autodesk.com"
 90
        0
 91
        0
280
     0
281
     0
  0
CLASS
  1
AM_DRAWING_MGR
  2
AcDmDwgMgr
  3
AcMechDwgViewMgmt
 90
        0
 91
        1
280
     0
281
     0
  0
CLASS
  1
AM_DWG_DOCUMENT
  2
AcDmDwgDocument
  3
AcMechDwgViewMgmt
 90
        0
 91
        1
280
     0
281
     0
  0
CLASS
  1
AM_DWG_SHEET
  2
AcDmSheet
  3
AcMechDwgViewMgmt
 90
        0
 91
        2
280
     0
281
     0
  0
CLASS
  1
AM_VIEWDIMPARMAP
  2
AcDmViewDimParMap
  3
AcMechDwgViewMgmt
 90
        0
 91
        2
280
     0
281
     0
  0
CLASS
  1
AM_DWGMGR_NAME
  2
AcDmDwgMgrName
  3
AcMechDwgViewMgmt
 90
        0
 91
        1
280
     0
281
     0
  0
CLASS
  1
AMDTMENUSTATEMGR
  2
AmdtMenuStateMgr
  3
McadcomServices
 90
        0
 91
        1
280
     0
281
     0
  0
CLASS
  1
AMDTMCOMMENUSTATE
  2
AmdtMcomMenuState
  3
McadcomServices
 90
        0
 91
        1
280
     0
281
     0
  0
CLASS
  1
ASAPP
  2
AcAsAppObject
  3
AutoSurfServices
 90
        0
 91
        1
280
     0
281
     0
  0
CLASS
  1
IM_STATIC_MAN
  2
AcImStaticVarManager
  3
AcMeServices
 90
        0
 91
        1
280
     0
281
     0
  0
CLASS
  1
ACIMDBLSTATICVAR
  2
AcImDblStaticVar
  3
AcMeServices
 90
        0
 91
       20
280
     0
281
     0
  0
CLASS
  1
ACIMSTRSTATICVAR
  2
AcImStrStaticVar
  3
AcMeServices
 90
        0
 91
       12
280
     0
281
     0
  0
CLASS
  1
ACIMINTSTATICVAR
  2
AcImIntStaticVar
  3
AcMeServices
 90
        0
 91
       17
280
     0
281
     0
  0
CLASS
  1
ACASGREFMASTER
  2
AcAsGrefMaster
  3
AutoSurfResolverServices
 90
        0
 91
        1
280
     0
281
     0
  0
CLASS
  1
ACADGREFMODULE
  2
AcAdGrefModule
  3
AdGrefServices
 90
        0
 91
        1
280
     0
281
     0
  0
CLASS
  1
AMDTMAPISURFMOUDULE
  2
AmdtMApiSurfModule
  3
MApiSurfServices
 90
        0
 91
        1
280
     0
281
     0
  0
CLASS
  1
MAPIAMMOUDLE
  2
MApiAmModule
  3
MApiAmServices
 90
        0
 91
        1
280
     0
281
     0
  0
CLASS
  1
AMDTADMENUSTATE
  2
AmdtAdMenuState
  3
DesignerServices
 90
        0
 91
        1
280
     0
281
     0
  0
CLASS
  1
ADAPPL
  2
AcAdAppl
  3
DesignerServices
 90
        0
 91
        1
280
     0
281
     0
  0
CLASS
  1
DEPMGR
  2
AcAdDepMgr
  3
DesignerServices
 90
        0
 91
        1
280
     0
281
     0
  0
CLASS
  1
PARAMMGR
  2
AcAdParamMgr
  3
DesignerServices
 90
        0
 91
        1
280
     0
281
     0
  0
CLASS
  1
PARAMSCOPE
  2
AcAdParamScope
  3
DesignerServices
 90
        0
 91
        1
280
     0
281
     0
  0
CLASS
  1
NAMEDAPPL
  2
AcAdNamedAppl
  3
DesignerServices
 90
        0
 91
        1
280
     0
281
     0
  0
CLASS
  1
AMDTDMMENUSTATE
  2
AmdtDmMenuState
  3
AcMechDwgViewMgmt
 90
        0
 91
        1
280
     0
281
     0
  0
CLASS
  1
MAPIADMODULE
  2
MApiAdModule
  3
MApiAdServices
 90
        0
 91
        1
280
     0
281
     0
  0
CLASS
  1
AMDTAMMENUSTATE
  2
AmdtAmMenuState
  3
DesignerAssemblies
 90
        0
 91
        1
280
     0
281
     0
  0
CLASS
  1
ACAMPROJECT
  2
AcAmProject
  3
DesignerAssemblies
 90
        0
 91
        1
280
     0
281
     0
  0
CLASS
  1
ACAMGRCOMPDEF
  2
AcAmGrCompDef
  3
DesignerAssemblies
 90
        0
 91
        1
280
     0
281
     0
  0
CLASS
  1
ACCMCONTEXT
  2
AcCmContext
  3
DesignerAssemblies
 90
        0
 91
        1
280
     0
281
     0
  0
CLASS
  1
ACAMCOMPDEF
  2
AcAmCompDef
  3
DesignerAssemblies
 90
        0
 91
        1
280
     0
281
     0
  0
CLASS
  1
ACAMCOMPDEFMGR
  2
AcAmCompDefMgr
  3
DesignerAssemblies
 90
        0
 91
        1
280
     0
281
     0
  0
CLASS
  1
AMCONTEXTMGR
  2
AcAmContextMgr
  3
DesignerAssemblies
 90
        0
 91
        1
280
     0
281
     0
  0
CLASS
  1
ACAMCONTEXTMODELER
  2
AcAmContextModeler
  3
DesignerAssemblies
 90
        0
 91
        1
280
     0
281
     0
  0
CLASS
  1
ACMTHREADLINESTANDARDDIN
  2
AmdtThreadLineStdDIN
  3
"Amdt_StdImp|Product Description: AutoCAD Mechanical 2004 DX|Company: Autodesk"
 90
        0
 91
        1
280
     0
281
     0
  0
CLASS
  1
ACMTHREADLINESTANDARDANSI
  2
AmdtThreadLineStdANSI
  3
"Amdt_StdImp|Product Description: AutoCAD Mechanical 2004 DX|Company: Autodesk"
 90
        0
 91
        1
280
     0
281
     0
  0
CLASS
  1
CATALOGSTATE
  2
AcAmCatalogState
  3
DesignerAssemblies
 90
        0
 91
        1
280
     0
281
     0
  0
CLASS
  1
ACAMGRCOMPDEFSET
  2
AcAmGrCompDefSet
  3
DesignerAssemblies
 90
        0
 91
        1
280
     0
281
     0
  0
CLASS
  1
AMDTBROWSERDBTAB
  2
AmdtBrowserDbTab
  3
McadcomServices
 90
        0
 91
        1
280
     0
281
     0
  0
CLASS
  1
CBROWSERAPPOBJECT
  2
CBrowserAppObject
  3
McadcomServices
 90
        0
 91
        3
280
     0
281
     0
  0
CLASS
  1
DM_PLACEHOLDER
  2
AcDmSelsetPlaceholder
  3
AcMechDwgViewMgmt
 90
        0
 91
        1
280
     0
281
     0
  0
ENDSEC
  0
SECTION
  2
TABLES
  0
TABLE
  2
VPORT
  5
8
330
0
100
AcDbSymbolTable
 70
     4
  0
VPORT
  5
3465
330
8
100
AcDbSymbolTableRecord
100
AcDbViewportTableRecord
  2
*Active
 70
     0
 10
0.0
 20
0.0
 11
1.0
 21
1.0
 12
0.0
 22
0.0
 13
0.0
 23
0.0
 14
2.5
 24
2.5
 15
10.0
 25
10.0
 16
0.0
 26
0.0
 36
1.0
 17
0.1597706544981747
 27
-205.2722265585071
 37
0.0
 40
461.0274783669234
 41
1.726296958855098
 42
50.0
 43
0.0
 44
0.0
 50
0.0
 51
0.0
 71
     0
 72
   100
 73
     1
 74
     3
 75
     0
 76
     0
 77
     0
 78
     0
281
     0
 65
     0
110
0.0
120
0.0
130
0.0
111
1.0
121
0.0
131
0.0
112
0.0
122
1.0
132
0.0
 79
     0
146
0.0
  0
ENDTAB
  0
TABLE
  2
LTYPE
  5
5
330
0
100
AcDbSymbolTable
 70
    19
  0
LTYPE
  5
14
330
5
100
AcDbSymbolTableRecord
100
AcDbLinetypeTableRecord
  2
ByBlock
 70
     0
  3

 72
    65
 73
     0
 40
0.0
  0
LTYPE
  5
15
330
5
100
AcDbSymbolTableRecord
100
AcDbLinetypeTableRecord
  2
ByLayer
 70
     0
  3

 72
    65
 73
     0
 40
0.0
  0
LTYPE
  5
16
330
5
100
AcDbSymbolTableRecord
100
AcDbLinetypeTableRecord
  2
Continuous
 70
     0
  3
Solid line
 72
    65
 73
     0
 40
0.0
  0
LTYPE
  5
50
330
5
100
AcDbSymbolTableRecord
100
AcDbLinetypeTableRecord
  2
Amconstr
 70
     0
  3
_______________________
 72
    65
 73
     2
 40
9999.0
 49
9999.0
 74
     0
 49
0.0
 74
     0
  0
LTYPE
  5
55
330
5
100
AcDbSymbolTableRecord
100
AcDbLinetypeTableRecord
  2
Amzigzag
 70
     0
  3
/\/-/\/-/\/-/\/-/\/-/\/
 72
    65
 73
     2
 40
11.0001
 49
0.0001
 74
     4
 75
   135
340
54
 46
0.04
 50
0.0
 44
0.0
 45
0.0
 49
-11.0
 74
     0
  0
LTYPE
  5
56
330
5
100
AcDbSymbolTableRecord
100
AcDbLinetypeTableRecord
  2
AM_DIN_F_W050
 70
     0
  3
__ __ __ __ __ __ __ __ __ __ __ __ __ __ __
 72
    65
 73
     2
 40
6.25
 49
4.75
 74
     0
 49
-1.5
 74
     0
  0
LTYPE
  5
57
330
5
100
AcDbSymbolTableRecord
100
AcDbLinetypeTableRecord
  2
AM_DIN_G_W050
 70
     0
  3
____ . ____ . ____ . ____ . ____ . ____ . ____
 72
    65
 73
     4
 40
13.75
 49
9.75
 74
     0
 49
-1.5
 74
     0
 49
1.0
 74
     0
 49
-1.5
 74
     0
  0
LTYPE
  5
58
330
5
100
AcDbSymbolTableRecord
100
AcDbLinetypeTableRecord
  2
AM_DIN_K_W050
 70
     0
  3
_____ . . _____ . . _____ . . ____ .. ____
 72
    65
 73
     6
 40
16.25
 49
9.75
 74
     0
 49
-1.5
 74
     0
 49
1.0
 74
     0
 49
-1.5
 74
     0
 49
1.0
 74
     0
 49
-1.5
 74
     0
  0
LTYPE
  5
59
330
5
100
AcDbSymbolTableRecord
100
AcDbLinetypeTableRecord
  2
AM_DIN_G_W050x2
 70
     0
  3
__ . __ . __ . __ . __ . __
 72
    65
 73
     4
 40
6.875
 49
4.75
 74
     0
 49
-0.875
 74
     0
 49
0.375
 74
     0
 49
-0.875
 74
     0
  0
LTYPE
  5
5A
330
5
100
AcDbSymbolTableRecord
100
AcDbLinetypeTableRecord
  2
AM_DIN_F_W050x2
 70
     0
  3
 _ _ _ _ _ _ _ _ _ _ _ _
 72
    65
 73
     2
 40
3.125
 49
2.25
 74
     0
 49
-0.875
 74
     0
  0
LTYPE
  5
68
330
5
100
AcDbSymbolTableRecord
100
AcDbLinetypeTableRecord
  2
ACDINWELD
 70
     0
  3
_ _ _ _ _
 72
    65
 73
     2
 40
2.0
 49
2.0
 74
     0
 49
-1.0
 74
     0
  0
LTYPE
  5
69
330
5
100
AcDbSymbolTableRecord
100
AcDbLinetypeTableRecord
  2
ACDINTGB
 70
     0
  3
__ . . __ . .
 72
    65
 73
     6
 40
9.0
 49
4.0
 74
     0
 49
-1.0
 74
     0
 49
1.0
 74
     0
 49
-1.0
 74
     0
 49
1.0
 74
     0
 49
-1.0
 74
     0
  0
LTYPE
  5
6A
330
5
100
AcDbSymbolTableRecord
100
AcDbLinetypeTableRecord
  2
ACDINTGL
 70
     0
  3
_ _ _ _ _
 72
    65
 73
     2
 40
3.0
 49
2.0
 74
     0
 49
-1.0
 74
     0
  0
LTYPE
  5
6C
330
5
100
AcDbSymbolTableRecord
100
AcDbLinetypeTableRecord
  2
CENTER
 70
     0
  3
__ . __
 72
    65
 73
     4
 40
7.0
 49
4.0
 74
     0
 49
-1.0
 74
     0
 49
1.0
 74
     0
 49
-1.0
 74
     0
  0
LTYPE
  5
33D
330
5
100
AcDbSymbolTableRecord
100
AcDbLinetypeTableRecord
  2
PHANTOM2
 70
     0
  3
Phantom (.5x) ___ _ _ ___ _ _ ___ _ _ ___ _ _
 72
    65
 73
     6
 40
1.25
 49
0.625
 74
     0
 49
-0.125
 74
     0
 49
0.125
 74
     0
 49
-0.125
 74
     0
 49
0.125
 74
     0
 49
-0.125
 74
     0
  0
LTYPE
  5
33E
330
5
100
AcDbSymbolTableRecord
100
AcDbLinetypeTableRecord
  2
CENTER2
 70
     0
  3
Center (.5x) ___ _ ___ _ ___ _ ___ _ ___ _ ___
 72
    65
 73
     4
 40
1.125
 49
0.75
 74
     0
 49
-0.125
 74
     0
 49
0.125
 74
     0
 49
-0.125
 74
     0
  0
LTYPE
  5
341
330
5
100
AcDbSymbolTableRecord
100
AcDbLinetypeTableRecord
  2
ACANSTGB
 70
     0
  3
__ . . __ . .
 72
    65
 73
     6
 40
0.35433070866
 49
0.15748031496
 74
     0
 49
-0.03937007874
 74
     0
 49
0.03937007874
 74
     0
 49
-0.03937007874
 74
     0
 49
0.03937007874
 74
     0
 49
-0.03937007874
 74
     0
  0
LTYPE
  5
342
330
5
100
AcDbSymbolTableRecord
100
AcDbLinetypeTableRecord
  2
ACANSTGL
 70
     0
  3
_ _ _ _ _
 72
    65
 73
     2
 40
0.11811023622
 49
0.07874015748
 74
     0
 49
-0.03937007874
 74
     0
  0
LTYPE
  5
33C2
330
5
100
AcDbSymbolTableRecord
100
AcDbLinetypeTableRecord
  2
HIDDEN
 70
     0
  3
Verdeckt
 72
    65
 73
     2
 40
9.525
 49
6.349999999999999
 74
     0
 49
-3.174999999999999
 74
     0
  0
LTYPE
  5
3421
330
5
100
AcDbSymbolTableRecord
100
AcDbLinetypeTableRecord
  2
ASULTYPE
 70
     0
  3
Ausgezogene Linie
 72
    65
 73
     2
 40
3.0
 49
2.5
 74
     0
 49
0.5
 74
     0
  0
LTYPE
  5
3422
330
5
100
AcDbSymbolTableRecord
100
AcDbLinetypeTableRecord
  2
ASVLTYPE
 70
     0
  3
__ __ __ __ __ __ __ __ __ __ __ __ __ __ __ __ __ __ __ __ __
 72
    65
 73
     2
 40
0.75
 49
0.5
 74
     0
 49
-0.25
 74
     0
  0
ENDTAB
  0
TABLE
  2
LAYER
  5
2
330
0
100
AcDbSymbolTable
 70
     1
  0
LAYER
  5
10
330
2
100
AcDbSymbolTableRecord
100
AcDbLayerTableRecord
  2
0
 70
     0
 62
     7
  6
Continuous
370
    -3
390
F
  0
ENDTAB
  0
TABLE
  2
STYLE
  5
3
330
0
100
AcDbSymbolTable
 70
     6
  0
STYLE
  5
11
330
3
100
AcDbSymbolTableRecord
100
AcDbTextStyleTableRecord
  2
STANDARD
 70
     0
 40
0.0
 41
1.0
 50
0.0
 71
     0
 42
2.5
  3
ISOCP.SHX
  4

  0
STYLE
  5
54
330
3
100
AcDbSymbolTableRecord
100
AcDbTextStyleTableRecord
  2

 70
     1
 40
0.0
 41
1.0
 50
0.0
 71
     0
 42
2.5
  3
ltypeshp.shx
  4

  0
STYLE
  5
5B
330
3
100
AcDbSymbolTableRecord
100
AcDbTextStyleTableRecord
  2
ACDINTS
 70
     0
 40
1.0
 41
1.0
 50
0.0
 71
     0
 42
2.5
  3
isocp.shx
  4

  0
STYLE
  5
67
330
3
100
AcDbSymbolTableRecord
100
AcDbTextStyleTableRecord
  2
ACDINGDT
 70
     0
 40
0.0
 41
1.0
 50
0.0
 71
     0
 42
2.5
  3
amgdt.shx
  4

  0
STYLE
  5
343
330
3
100
AcDbSymbolTableRecord
100
AcDbTextStyleTableRecord
  2
ACANSTS
 70
     0
 40
1.0
 41
1.0
 50
0.0
 71
     0
 42
0.2
  3
romans.shx
  4

  0
STYLE
  5
344
330
3
100
AcDbSymbolTableRecord
100
AcDbTextStyleTableRecord
  2
ACANSGDT
 70
     0
 40
0.0
 41
1.0
 50
0.0
 71
     0
 42
0.2
  3
amgdtans.shx
  4

  0
ENDTAB
  0
TABLE
  2
VIEW
  5
6
330
0
100
AcDbSymbolTable
 70
     0
  0
ENDTAB
  0
TABLE
  2
UCS
  5
7
330
0
100
AcDbSymbolTable
 70
     0
  0
ENDTAB
  0
TABLE
  2
APPID
  5
9
330
0
100
AcDbSymbolTable
 70
    14
  0
APPID
  5
12
330
9
100
AcDbSymbolTableRecord
100
AcDbRegAppTableRecord
  2
ACAD
 70
     0
  0
APPID
  5
2C
330
9
100
AcDbSymbolTableRecord
100
AcDbRegAppTableRecord
  2
MCAD_NO_VIS
 70
     0
  0
APPID
  5
2D
330
9
100
AcDbSymbolTableRecord
100
AcDbRegAppTableRecord
  2
ACAD_TEMP_GRAPHIC
 70
     0
  0
APPID
  5
3E
330
9
100
AcDbSymbolTableRecord
100
AcDbRegAppTableRecord
  2
ACATTRIBSERVICES
 70
     0
  0
APPID
  5
428
330
9
100
AcDbSymbolTableRecord
100
AcDbRegAppTableRecord
  2
DCO15
 70
     0
  0
APPID
  5
33AC
330
9
100
AcDbSymbolTableRecord
100
AcDbRegAppTableRecord
  2
GENIUS_GENDIM_13
 70
     0
  0
APPID
  5
33AD
330
9
100
AcDbSymbolTableRecord
100
AcDbRegAppTableRecord
  2
GENIUS_GENDTOL_13
 70
     0
  0
APPID
  5
33AE
330
9
100
AcDbSymbolTableRecord
100
AcDbRegAppTableRecord
  2
GENIUS_GE3DTOL_13
 70
     0
  0
APPID
  5
33D7
330
9
100
AcDbSymbolTableRecord
100
AcDbRegAppTableRecord
  2
AD_DRAW
 70
     0
  0
APPID
  5
3423
330
9
100
AcDbSymbolTableRecord
100
AcDbRegAppTableRecord
  2
ASURF_PCURVE_APPNAME
 70
     0
  0
APPID
  5
3428
330
9
100
AcDbSymbolTableRecord
100
AcDbRegAppTableRecord
  2
AMG_3D2D_5.0
 70
     0
  0
APPID
  5
3457
330
9
100
AcDbSymbolTableRecord
100
AcDbRegAppTableRecord
  2
DESIGNERASSEMBLIES
 70
     0
  0
APPID
  5
345D
330
9
100
AcDbSymbolTableRecord
100
AcDbRegAppTableRecord
  2
ACADM_DIM_EDIT
 70
     0
  0
APPID
  5
345E
330
9
100
AcDbSymbolTableRecord
100
AcDbRegAppTableRecord
  2
AMDT_DM_ADJ
 70
     0
  0
ENDTAB
  0
TABLE
  2
DIMSTYLE
  5
A
330
0
100
AcDbSymbolTable
 70
    14
100
AcDbDimStyleTable
 71
     1
340
6F
  0
DIMSTYLE
105
6F
330
A
100
AcDbSymbolTableRecord
100
AcDbDimStyleTableRecord
  2
AM_DIN
 70
     0
  4
"
 41
2.5
 42
1.0
 43
10.0
 44
1.0
 47
0.1
 48
0.1
 73
     0
 74
     0
 77
     1
 78
     8
 79
     2
140
3.5
141
0.0
143
0.0393701
146
0.71
147
1.5
172
     1
176
   256
177
   256
178
     2
271
     2
272
     3
274
     4
283
     0
284
     8
340
11
371
    -1
372
    -1
  0
DIMSTYLE
105
70
330
A
100
AcDbSymbolTableRecord
100
AcDbDimStyleTableRecord
  2
AM_DIN$3
 70
     0
  4
"
 41
2.5
 42
1.0
 43
10.0
 44
1.0
 47
0.1
 48
0.1
 73
     0
 77
     1
 78
     8
 79
     2
140
3.5
141
0.0
143
0.0393701
146
0.71
147
1.5
176
   256
177
   256
178
     2
271
     2
272
     3
274
     4
283
     0
284
     8
288
     1
289
     0
340
11
371
    -1
372
    -1
  0
DIMSTYLE
105
71
330
A
100
AcDbSymbolTableRecord
100
AcDbDimStyleTableRecord
  2
AM_DIN$4
 70
     0
  4
"
 41
2.5
 42
1.0
 43
10.0
 44
1.0
 47
0.1
 48
0.1
 73
     0
 77
     1
 78
     8
 79
     2
140
3.5
141
0.0
143
0.0393701
146
0.71
147
1.5
176
   256
177
   256
178
     2
271
     2
272
     3
274
     4
283
     0
284
     8
288
     1
289
     0
340
11
371
    -1
372
    -1
  0
DIMSTYLE
105
72
330
A
100
AcDbSymbolTableRecord
100
AcDbDimStyleTableRecord
  2
AM_DIN$6
 70
     0
  4
"
 41
2.5
 42
1.0
 43
10.0
 44
1.0
 47
0.1
 48
0.1
 73
     0
 74
     0
 78
     8
 79
     2
140
3.5
141
0.0
143
0.0393701
146
0.71
147
1.5
172
     1
176
   256
177
   256
178
     2
271
     2
272
     3
274
     4
283
     0
284
     8
340
11
371
    -1
372
    -1
  0
DIMSTYLE
105
73
330
A
100
AcDbSymbolTableRecord
100
AcDbDimStyleTableRecord
  2
AM_DIN$7
 70
     0
  4
"
 41
2.5
 42
1.0
 43
10.0
 44
1.0
 47
0.1
 48
0.1
 73
     0
 74
     0
 77
     1
 78
     8
 79
     2
140
5.0
141
0.0
143
0.0393701
146
0.71
147
1.5
172
     1
176
   256
177
   256
178
     2
271
     2
272
     3
274
     4
283
     0
284
     8
340
11
371
    -1
372
    -1
  0
DIMSTYLE
105
74
330
A
100
AcDbSymbolTableRecord
100
AcDbDimStyleTableRecord
  2
AM_DIN$SF
 70
     0
  4
"
 41
2.5
 42
1.0
 43
10.0
 44
1.0
 47
0.1
 48
0.1
 73
     0
 74
     0
 75
     1
 76
     1
 77
     1
 78
     8
 79
     2
140
3.5
141
0.0
143
0.0393701
146
0.71
147
1.5
172
     1
176
   256
177
   256
178
     2
271
     2
272
     3
274
     4
283
     0
284
     8
340
11
371
    -1
372
    -1
  0
DIMSTYLE
105
79
330
A
100
AcDbSymbolTableRecord
100
AcDbDimStyleTableRecord
  2
AM_DIN$SH
 70
     0
  4
"
 41
2.5
 42
1.0
 43
10.0
 44
1.0
 47
0.1
 48
0.1
 73
     0
 74
     0
 75
     1
 76
     1
 77
     1
 78
     8
 79
     2
140
3.5
141
0.0
143
0.0393701
144
2.0
146
0.71
147
1.5
172
     1
173
     1
176
   256
177
   256
178
     2
271
     2
272
     3
274
     4
283
     0
284
     8
340
11
343
75
371
    -1
372
    -1
  0
DIMSTYLE
105
92
330
A
100
AcDbSymbolTableRecord
100
AcDbDimStyleTableRecord
  2
STANDARD
 70
     0
279
     2
340
11
  0
DIMSTYLE
105
345
330
A
100
AcDbSymbolTableRecord
100
AcDbDimStyleTableRecord
  2
AM_ANSI
 70
     0
  4
mm
 41
0.1
 42
0.05
 43
0.5
 44
0.1
 47
0.1
 48
0.1
 78
     7
 79
     2
140
0.12
141
0.0
146
0.71
147
0.06
176
   256
177
   256
178
     2
274
     4
284
     7
340
11
371
    -1
372
    -1
  0
DIMSTYLE
105
346
330
A
100
AcDbSymbolTableRecord
100
AcDbDimStyleTableRecord
  2
AM_ANSI$3
 70
     0
  4
mm
 41
0.1
 42
0.05
 43
0.5
 44
0.1
 47
0.1
 48
0.1
 78
     7
 79
     2
140
0.12
141
0.0
146
0.71
147
0.06
176
   256
177
   256
178
     2
274
     4
284
     7
288
     1
289
     0
340
11
371
    -1
372
    -1
  0
DIMSTYLE
105
347
330
A
100
AcDbSymbolTableRecord
100
AcDbDimStyleTableRecord
  2
AM_ANSI$4
 70
     0
  4
mm
 41
0.1
 42
0.05
 43
0.5
 44
0.1
 47
0.1
 48
0.1
 78
     7
 79
     2
140
0.12
141
0.0
146
0.71
147
0.06
176
   256
177
   256
178
     2
274
     4
284
     7
288
     1
289
     0
340
11
371
    -1
372
    -1
  0
DIMSTYLE
105
348
330
A
100
AcDbSymbolTableRecord
100
AcDbDimStyleTableRecord
  2
AM_ANSI$7
 70
     0
  4
mm
 41
0.1
 42
0.05
 43
0.5
 44
0.1
 47
0.1
 48
0.1
 78
     7
 79
     2
140
0.24
141
0.0
146
0.71
147
0.06
176
   256
177
   256
178
     2
274
     4
284
     7
340
11
371
    -1
372
    -1
  0
DIMSTYLE
105
349
330
A
100
AcDbSymbolTableRecord
100
AcDbDimStyleTableRecord
  2
AM_ANSI$SF
 70
     0
  4
mm
 41
0.1
 42
0.05
 43
0.5
 44
0.1
 47
0.1
 48
0.1
 75
     1
 76
     1
 78
     7
 79
     2
140
0.12
141
0.0
146
0.71
147
0.06
176
   256
177
   256
178
     2
274
     4
284
     7
340
11
371
    -1
372
    -1
  0
DIMSTYLE
105
34A
330
A
100
AcDbSymbolTableRecord
100
AcDbDimStyleTableRecord
  2
AM_ANSI$SH
 70
     0
  4
mm
 41
0.1
 42
0.05
 43
0.5
 44
0.1
 47
0.1
 48
0.1
 75
     1
 76
     1
 78
     7
 79
     2
140
0.12
141
0.0
146
0.71
147
0.06
173
     1
176
   256
177
   256
178
     2
274
     4
284
     7
340
11
343
75
371
    -1
372
    -1
  0
ENDTAB
  0
TABLE
  2
BLOCK_RECORD
  5
1
330
0
100
AcDbSymbolTable
 70
     5
  0
BLOCK_RECORD
  5
1F
102
{ACAD_XDICTIONARY
360
81
102
}
330
1
100
AcDbSymbolTableRecord
100
AcDbBlockTableRecord
  2
*Model_Space
340
22
  0
BLOCK_RECORD
  5
1B
330
1
100
AcDbSymbolTableRecord
100
AcDbBlockTableRecord
  2
*Paper_Space
340
1E
  0
BLOCK_RECORD
  5
23
330
1
100
AcDbSymbolTableRecord
100
AcDbBlockTableRecord
  2
*Paper_Space0
340
26
  0
BLOCK_RECORD
  5
75
330
1
100
AcDbSymbolTableRecord
100
AcDbBlockTableRecord
  2
GENAXEH
340
0
  0
BLOCK_RECORD
  5
32EA
330
1
100
AcDbSymbolTableRecord
100
AcDbBlockTableRecord
  2
005001
340
0
310
2800000020000000200000000100080000000000000400000000000000000000000000000000000000000000000080000080000000808000800000008000800080800000C0C0C000C0DCC000F0CAA6000020400000206000002080000020A0000020C0000020E00000400000004020000040400000406000004080000040A0
310
000040C0000040E00000600000006020000060400000606000006080000060A0000060C0000060E00000800000008020000080400000806000008080000080A0000080C0000080E00000A0000000A0200000A0400000A0600000A0800000A0A00000A0C00000A0E00000C0000000C0200000C0400000C0600000C0800000C0
310
A00000C0C00000C0E00000E0000000E0200000E0400000E0600000E0800000E0A00000E0C00000E0E00040000000400020004000400040006000400080004000A0004000C0004000E00040200000402020004020400040206000402080004020A0004020C0004020E000404000004040200040404000404060004040800040
310
40A0004040C0004040E00040600000406020004060400040606000406080004060A0004060C0004060E00040800000408020004080400040806000408080004080A0004080C0004080E00040A0000040A0200040A0400040A0600040A0800040A0A00040A0C00040A0E00040C0000040C0200040C0400040C0600040C08000
310
40C0A00040C0C00040C0E00040E0000040E0200040E0400040E0600040E0800040E0A00040E0C00040E0E00080000000800020008000400080006000800080008000A0008000C0008000E00080200000802020008020400080206000802080008020A0008020C0008020E00080400000804020008040400080406000804080
310
008040A0008040C0008040E00080600000806020008060400080606000806080008060A0008060C0008060E00080800000808020008080400080806000808080008080A0008080C0008080E00080A0000080A0200080A0400080A0600080A0800080A0A00080A0C00080A0E00080C0000080C0200080C0400080C0600080C0
310
800080C0A00080C0C00080C0E00080E0000080E0200080E0400080E0600080E0800080E0A00080E0C00080E0E000C0000000C0002000C0004000C0006000C0008000C000A000C000C000C000E000C0200000C0202000C0204000C0206000C0208000C020A000C020C000C020E000C0400000C0402000C0404000C0406000C0
310
408000C040A000C040C000C040E000C0600000C0602000C0604000C0606000C0608000C060A000C060C000C060E000C0800000C0802000C0804000C0806000C0808000C080A000C080C000C080E000C0A00000C0A02000C0A04000C0A06000C0A08000C0A0A000C0A0C000C0A0E000C0C00000C0C02000C0C04000C0C06000
310
C0C08000C0C0A000F0FBFF00A4A0A000808080000000FF0000FF000000FFFF00FF000000FF00FF00FFFF0000FFFFFF0000000000000000000000000000000000000000000000000000000000000000000000000000000000FDFD000000000000000000000000FDFD00000000000000000000000000000000FDFD0000000000
310
00000000000000FDFD00000000000000000000000000000000FDFD000000000000000000000000FDFD00000000000000000000000000000000FDFD000000000000000000000000FDFD00000000000000000000000000000000FDFD000000000000000000000000FDFD00000000000000000000000000000000FDFD00000000
310
0000000000000000FDFD00000000000000000000000000000000FDFDFDFDFDFDFDFDFDFDFDFDFDFDFDFD00000000000000000000000000000000FDFDFDFDFDFDFDFDFDFDFDFDFDFDFDFD00000000000000000000000000000000FDFD000000FDFD0000FDFD000000FDFD00000000000000000000000000000000FDFD000000
310
FDFD0000FDFD000000FDFD00000000000000000000000000000000FDFD000000FDFD0000FDFD000000FDFD00000000000000000000000000000000FDFD000000FDFD0000FDFD000000FDFD00000000000000000000000000000000FDFD000000FDFD0000FDFD000000FDFD00000000000000000000000000000000FDFD0000
310
00FDFD0000FDFD000000FDFD00000000000000000000000000000000FDFD000000FDFD0000FDFD000000FDFD00000000000000000000000000000000FDFD000000FDFD0000FDFD000000FDFD00000000000000000000000000000000FDFD000000FDFD0000FDFD000000FDFD00000000000000000000000000000000FDFD00
310
0000FDFD0000FDFD000000FDFD00000000000000000000000000000000FDFD000000FDFD0000FDFD000000FDFD00000000000000000000000000000000FDFD000000FDFD00FEFDFD000000FDFD00000000000000000000000000000000FDFD000000FDFD00FEFDFD000000FDFD00000000000000000000000000000000FDFD
310
000000FDFD00FEFDFD000000FDFD00000000000000000000000000000000FDFD0000FEFDFDFEFEFDFDFE0000FDFD00000000000000000000000000000000FDFD000000FDFD00FEFDFD000000FDFD00000000000000000000000000000000FDFD000000FDFD00FEFDFD000000FDFD000000000000000000000000FDFDFDFDFD
310
FDFDFDFDFDFDFDFEFDFDFDFDFDFDFDFDFDFDFD0000000000000000FEFEFDFDFDFDFDFDFDFDFDFDFDFDFDFDFDFDFDFDFDFDFEFE0000000000000000FDFDFD000000000000000000000000000000000000FDFDFD000000000000000000FDFD000000000000000000000000000000000000FDFD00000000000000000000FDFD00
310
0000000000000000000000000000000000FDFD00000000000000000000000000000000000000000000000000000000000000000000000000
1001
ACAD
1000
DesignCenter Data
1002
{
1070
     1
1070
     4
1002
}
  0
BLOCK_RECORD
  5
3369
330
1
100
AcDbSymbolTableRecord
100
AcDbBlockTableRecord
  2
78
340
0
310
2800000020000000200000000100080000000000000400000000000000000000000000000000000000000000000080000080000000808000800000008000800080800000C0C0C000C0DCC000F0CAA6000020400000206000002080000020A0000020C0000020E00000400000004020000040400000406000004080000040A0
310
000040C0000040E00000600000006020000060400000606000006080000060A0000060C0000060E00000800000008020000080400000806000008080000080A0000080C0000080E00000A0000000A0200000A0400000A0600000A0800000A0A00000A0C00000A0E00000C0000000C0200000C0400000C0600000C0800000C0
310
A00000C0C00000C0E00000E0000000E0200000E0400000E0600000E0800000E0A00000E0C00000E0E00040000000400020004000400040006000400080004000A0004000C0004000E00040200000402020004020400040206000402080004020A0004020C0004020E000404000004040200040404000404060004040800040
310
40A0004040C0004040E00040600000406020004060400040606000406080004060A0004060C0004060E00040800000408020004080400040806000408080004080A0004080C0004080E00040A0000040A0200040A0400040A0600040A0800040A0A00040A0C00040A0E00040C0000040C0200040C0400040C0600040C08000
310
40C0A00040C0C00040C0E00040E0000040E0200040E0400040E0600040E0800040E0A00040E0C00040E0E00080000000800020008000400080006000800080008000A0008000C0008000E00080200000802020008020400080206000802080008020A0008020C0008020E00080400000804020008040400080406000804080
310
008040A0008040C0008040E00080600000806020008060400080606000806080008060A0008060C0008060E00080800000808020008080400080806000808080008080A0008080C0008080E00080A0000080A0200080A0400080A0600080A0800080A0A00080A0C00080A0E00080C0000080C0200080C0400080C0600080C0
310
800080C0A00080C0C00080C0E00080E0000080E0200080E0400080E0600080E0800080E0A00080E0C00080E0E000C0000000C0002000C0004000C0006000C0008000C000A000C000C000C000E000C0200000C0202000C0204000C0206000C0208000C020A000C020C000C020E000C0400000C0402000C0404000C0406000C0
310
408000C040A000C040C000C040E000C0600000C0602000C0604000C0606000C0608000C060A000C060C000C060E000C0800000C0802000C0804000C0806000C0808000C080A000C080C000C080E000C0A00000C0A02000C0A04000C0A06000C0A08000C0A0A000C0A0C000C0A0E000C0C00000C0C02000C0C04000C0C06000
310
C0C08000C0C0A000F0FBFF00A4A0A000808080000000FF0000FF000000FFFF00FF000000FF00FF00FFFF0000FFFFFF0000000000000000000000000000000000000000000000000000000000000000000000000000000000FDFD000000000000000000000000FDFD00000000000000000000000000000000FDFD0000000000
310
00000000000000FDFD00000000000000000000000000000000FDFD000000000000000000000000FDFD00000000000000000000000000000000FDFD000000000000000000000000FDFD00000000000000000000000000000000FDFD000000000000000000000000FDFD00000000000000000000000000000000FDFD00000000
310
0000000000000000FDFD00000000000000000000000000000000FDFDFDFDFDFDFDFDFDFDFDFDFDFDFDFD00000000000000000000000000000000FDFDFDFDFDFDFDFDFDFDFDFDFDFDFDFD00000000000000000000000000000000FDFD000000FDFD0000FDFD000000FDFD00000000000000000000000000000000FDFD000000
310
FDFD0000FDFD000000FDFD00000000000000000000000000000000FDFD000000FDFD0000FDFD000000FDFD00000000000000000000000000000000FDFD000000FDFD0000FDFD000000FDFD00000000000000000000000000000000FDFD000000FDFD0000FDFD000000FDFD00000000000000000000000000000000FDFD0000
310
00FDFD0000FDFD000000FDFD00000000000000000000000000000000FDFD000000FDFD0000FDFD000000FDFD00000000000000000000000000000000FDFD000000FDFD0000FDFD000000FDFD00000000000000000000000000000000FDFD000000FDFD0000FDFD000000FDFD00000000000000000000000000000000FDFD00
310
0000FDFD0000FDFD000000FDFD00000000000000000000000000000000FDFD000000FDFD0000FDFD000000FDFD00000000000000000000000000000000FDFD000000FDFD0000FDFD000000FDFD00000000000000000000000000000000FDFD000000FDFD0000FDFD000000FDFD00000000000000000000000000000000FDFD
310
000000FDFD0000FDFD000000FDFD00000000000000000000000000000000FDFD000000FDFD0000FDFD000000FDFD00000000000000000000000000000000FDFD000000FDFD0000FDFD000000FDFD00000000000000000000000000000000FDFD000000FDFD0000FDFD000000FDFD000000000000000000000000FDFDFDFDFD
310
FDFDFDFDFDFDFDFDFDFDFDFDFDFDFDFDFDFDFD0000000000000000FEFEFEFEFEFEFEFEFEFEFEFEFEFEFEFEFEFEFEFEFEFEFEFE0000000000000000FDFDFD000000000000000000000000000000000000FDFDFD000000000000000000FDFD000000000000000000000000000000000000FDFD00000000000000000000FDFD00
310
0000000000000000000000000000000000FDFD00000000000000000000000000000000000000000000000000000000000000000000000000
102
{BLKREFS
331
339B
102
}
1001
ACAD
1000
DesignCenter Data
1002
{
1070
     1
1070
     4
1002
}
  0
BLOCK_RECORD
  5
344E
330
1
100
AcDbSymbolTableRecord
100
AcDbBlockTableRecord
  2
*U4
340
0
  0
ENDTAB
  0
ENDSEC
  0
SECTION
  2
BLOCKS
  0
BLOCK
  5
20
330
1F
100
AcDbEntity
  8
0
100
AcDbBlockBegin
  2
*Model_Space
 70
     0
 10
0.0
 20
0.0
 30
0.0
  3
*Model_Space
  1

  0
ENDBLK
  5
21
330
1F
100
AcDbEntity
  8
0
100
AcDbBlockEnd
  0
BLOCK
  5
1C
330
1B
100
AcDbEntity
 67
     1
  8
0
100
AcDbBlockBegin
  2
*Paper_Space
 70
     0
 10
0.0
 20
0.0
 30
0.0
  3
*Paper_Space
  1

  0
ENDBLK
  5
1D
330
1B
100
AcDbEntity
 67
     1
  8
0
100
AcDbBlockEnd
  0
BLOCK
  5
24
330
23
100
AcDbEntity
  8
0
100
AcDbBlockBegin
  2
*Paper_Space0
 70
     0
 10
0.0
 20
0.0
 30
0.0
  3
*Paper_Space0
  1

  0
ENDBLK
  5
25
330
23
100
AcDbEntity
  8
0
100
AcDbBlockEnd
  0
BLOCK
  5
77
330
75
100
AcDbEntity
  8
0
100
AcDbBlockBegin
  2
GENAXEH
 70
     0
 10
0.0
 20
0.0
 30
0.0
  3
GENAXEH
  1

  0
LINE
  5
76
330
75
100
AcDbEntity
  8
0
100
AcDbLine
 10
-1.0
 20
0.0
 30
0.0
 11
1.0
 21
0.0
 31
0.0
  0
ENDBLK
  5
78
330
75
100
AcDbEntity
  8
0
100
AcDbBlockEnd
  0
BLOCK
  5
331C
330
32EA
100
AcDbEntity
  8
0
100
AcDbBlockBegin
  2
005001
 70
     0
 10
0.0
 20
0.0
 30
0.0
  3
005001
  1

  0
LINE
  5
32EB
330
32EA
100
AcDbEntity
  8
0
 62
     6
100
AcDbLine
 10
-130.0
 20
300.2761445758258
 30
0.0
 11
-130.0
 21
251.4266486005825
 31
0.0
  0
LINE
  5
32EC
330
32EA
100
AcDbEntity
  8
0
 62
     6
100
AcDbLine
 10
-150.0
 20
300.2761445758258
 30
0.0
 11
-150.0
 21
251.4266486005825
 31
0.0
  0
LINE
  5
32ED
330
32EA
100
AcDbEntity
  8
0
 62
     6
100
AcDbLine
 10
-154.0
 20
273.4665315212597
 30
0.0
 11
-154.0
 21
253.4665315212596
 31
0.0
  0
LINE
  5
32EE
330
32EA
100
AcDbEntity
  8
0
 62
     6
100
AcDbLine
 10
154.0
 20
273.4665315212597
 30
0.0
 11
154.0
 21
253.4665315212596
 31
0.0
  0
LINE
  5
32EF
330
32EA
100
AcDbEntity
  8
0
 62
     6
100
AcDbLine
 10
150.0
 20
300.2761445758258
 30
0.0
 11
150.0
 21
251.4266486005825
 31
0.0
  0
LINE
  5
32F0
330
32EA
100
AcDbEntity
  8
0
 62
     6
100
AcDbLine
 10
130.0
 20
300.2761445758258
 30
0.0
 11
130.0
 21
251.4266486005825
 31
0.0
  0
LINE
  5
32F1
330
32EA
100
AcDbEntity
  8
0
 62
     6
100
AcDbLine
 10
-130.0
 20
257.4665315212596
 30
0.0
 11
130.0
 21
257.4665315212596
 31
0.0
  0
LINE
  5
32F2
330
32EA
100
AcDbEntity
  8
0
 62
     6
100
AcDbLine
 10
-105.0
 20
-7.0
 30
0.0
 11
105.0
 21
-7.0
 31
0.0
  0
LINE
  5
32F3
330
32EA
100
AcDbEntity
  8
0
 62
     6
100
AcDbLine
 10
-105.0
 20
0.0
 30
0.0
 11
105.0
 21
-0.0000000000000568
 31
0.0
  0
LINE
  5
32F4
330
32EA
100
AcDbEntity
  8
0
  6
CENTER2
 62
     4
 48
30.0
100
AcDbLine
 10
-49.27636699999993
 20
208.2761445758258
 30
0.0
 11
45.72363300000006
 21
208.2761445758258
 31
0.0
  0
LINE
  5
32F5
330
32EA
100
AcDbEntity
  8
0
 62
     6
100
AcDbLine
 10
-93.0
 20
257.4665315212596
 30
0.0
 11
-93.0
 21
0.0
 31
0.0
  0
LINE
  5
32F6
330
32EA
100
AcDbEntity
  8
0
 62
     6
100
AcDbLine
 10
-35.0
 20
257.4665315212596
 30
0.0
 11
-35.0
 21
0.0
 31
0.0
  0
LINE
  5
32F7
330
32EA
100
AcDbEntity
  8
0
 62
     6
100
AcDbLine
 10
-27.0
 20
257.4665315212596
 30
0.0
 11
-27.0
 21
0.0
 31
0.0
  0
LINE
  5
32F8
330
32EA
100
AcDbEntity
  8
0
 62
     6
100
AcDbLine
 10
-100.0
 20
257.4665315212596
 30
0.0
 11
-100.0
 21
0.0
 31
0.0
  0
LINE
  5
32F9
330
32EA
100
AcDbEntity
  8
0
 62
     6
100
AcDbLine
 10
-103.0
 20
-84.28115983857049
 30
0.0
 11
-90.0
 21
-84.28115983857049
 31
0.0
  0
ARC
  5
32FA
330
32EA
100
AcDbEntity
  8
0
 62
     6
100
AcDbCircle
 10
-103.0
 20
-81.28115983857048
 30
0.0
 40
3.0
100
AcDbArc
 50
180.0
 51
270.0
  0
LINE
  5
32FB
330
32EA
100
AcDbEntity
  8
0
 62
     6
100
AcDbLine
 10
-100.0
 20
-7.000000000000056
 30
0.0
 11
-100.0
 21
-45.63056338186282
 31
0.0
  0
LINE
  5
32FC
330
32EA
100
AcDbEntity
  8
0
 62
     6
100
AcDbLine
 10
-106.0
 20
-55.92874838427031
 30
0.0
 11
-100.0
 21
-45.63056338186271
 31
0.0
  0
LINE
  5
32FD
330
32EA
100
AcDbEntity
  8
0
 62
     6
100
AcDbLine
 10
-106.0
 20
-55.92874838427042
 30
0.0
 11
-106.0
 21
-81.28115983857048
 31
0.0
  0
LINE
  5
32FE
330
32EA
100
AcDbEntity
  8
0
 62
     6
100
AcDbLine
 10
-105.0
 20
0.0
 30
0.0
 11
-105.0
 21
-7.0
 31
0.0
  0
ARC
  5
32FF
330
32EA
100
AcDbEntity
  8
0
 62
     6
100
AcDbCircle
 10
-90.0
 20
-81.28115983857048
 30
0.0
 40
3.0
100
AcDbArc
 50
270.0
 51
0.0
  0
LINE
  5
3300
330
32EA
100
AcDbEntity
  8
0
 62
     6
100
AcDbLine
 10
-93.0
 20
-7.000000000000056
 30
0.0
 11
-93.0
 21
-45.63056338186288
 31
0.0
  0
LINE
  5
3301
330
32EA
100
AcDbEntity
  8
0
 62
     6
100
AcDbLine
 10
-87.0
 20
-55.92874838427031
 30
0.0
 11
-93.00000000000006
 21
-45.63056338186271
 31
0.0
  0
LINE
  5
3302
330
32EA
100
AcDbEntity
  8
0
 62
     6
100
AcDbLine
 10
-87.0
 20
-55.92874838427036
 30
0.0
 11
-87.0
 21
-81.28115983857048
 31
0.0
  0
LINE
  5
3303
330
32EA
100
AcDbEntity
  8
0
 62
     6
100
AcDbLine
 10
-150.0
 20
251.4266486005825
 30
0.0
 11
-130.0
 21
251.4266486005825
 31
0.0
  0
LINE
  5
3304
330
32EA
100
AcDbEntity
  8
0
 62
     6
100
AcDbLine
 10
-154.0
 20
253.4665315212596
 30
0.0
 11
-150.0
 21
253.4665315212596
 31
0.0
  0
LINE
  5
3305
330
32EA
100
AcDbEntity
  8
0
  6
CENTER2
 62
     4
 48
30.0
100
AcDbLine
 10
0.0
 20
253.4564115758258
 30
0.0
 11
0.0
 21
163.1452855758258
 31
0.0
  0
LINE
  5
3306
330
32EA
100
AcDbEntity
  8
0
 62
     6
100
AcDbLine
 10
100.0
 20
257.4665315212596
 30
0.0
 11
100.0
 21
0.0
 31
0.0
  0
LINE
  5
3307
330
32EA
100
AcDbEntity
  8
0
 62
     6
100
AcDbLine
 10
93.0
 20
257.4665315212596
 30
0.0
 11
93.0
 21
-0.0000000000000568
 31
0.0
  0
LINE
  5
3308
330
32EA
100
AcDbEntity
  8
0
 62
     6
100
AcDbLine
 10
35.0
 20
257.4665315212596
 30
0.0
 11
35.0
 21
-0.0000000000000568
 31
0.0
  0
LINE
  5
3309
330
32EA
100
AcDbEntity
  8
0
 62
     6
100
AcDbLine
 10
27.0
 20
257.4665315212596
 30
0.0
 11
27.0
 21
-0.0000000000000568
 31
0.0
  0
ARC
  5
330A
330
32EA
100
AcDbEntity
  8
0
 62
     6
100
AcDbCircle
 10
90.0
 20
-81.28115983857048
 30
0.0
 40
3.0
100
AcDbArc
 50
180.0
 51
270.0
  0
ARC
  5
330B
330
32EA
100
AcDbEntity
  8
0
 62
     6
100
AcDbCircle
 10
103.0
 20
-81.28115983857048
 30
0.0
 40
3.0
100
AcDbArc
 50
270.0
 51
0.0
  0
LINE
  5
330C
330
32EA
100
AcDbEntity
  8
0
 62
     6
100
AcDbLine
 10
103.0
 20
-84.28115983857049
 30
0.0
 11
90.0
 21
-84.28115983857049
 31
0.0
  0
LINE
  5
330D
330
32EA
100
AcDbEntity
  8
0
 62
     6
100
AcDbLine
 10
93.0
 20
-7.000000000000056
 30
0.0
 11
93.0
 21
-45.63056338186288
 31
0.0
  0
LINE
  5
330E
330
32EA
100
AcDbEntity
  8
0
 62
     6
100
AcDbLine
 10
100.0
 20
-7.000000000000056
 30
0.0
 11
100.0
 21
-45.63056338186282
 31
0.0
  0
LINE
  5
330F
330
32EA
100
AcDbEntity
  8
0
 62
     6
100
AcDbLine
 10
87.0
 20
-55.92874838427031
 30
0.0
 11
93.0
 21
-45.63056338186271
 31
0.0
  0
LINE
  5
3310
330
32EA
100
AcDbEntity
  8
0
 62
     6
100
AcDbLine
 10
87.0
 20
-55.92874838427036
 30
0.0
 11
87.0
 21
-81.28115983857048
 31
0.0
  0
LINE
  5
3311
330
32EA
100
AcDbEntity
  8
0
 62
     6
100
AcDbLine
 10
106.0
 20
-55.92874838427031
 30
0.0
 11
100.0
 21
-45.63056338186271
 31
0.0
  0
LINE
  5
3312
330
32EA
100
AcDbEntity
  8
0
 62
     6
100
AcDbLine
 10
106.0
 20
-55.92874838427042
 30
0.0
 11
106.0
 21
-81.28115983857048
 31
0.0
  0
LINE
  5
3313
330
32EA
100
AcDbEntity
  8
0
 62
     6
100
AcDbLine
 10
105.0
 20
0.0
 30
0.0
 11
105.0
 21
-7.0
 31
0.0
  0
LINE
  5
3314
330
32EA
100
AcDbEntity
  8
0
 62
     6
100
AcDbLine
 10
150.0
 20
251.4266486005825
 30
0.0
 11
130.0
 21
251.4266486005825
 31
0.0
  0
LINE
  5
3315
330
32EA
100
AcDbEntity
  8
0
 62
     6
100
AcDbLine
 10
154.0
 20
253.4665315212596
 30
0.0
 11
150.0
 21
253.4665315212596
 31
0.0
  0
LINE
  5
3316
330
32EA
100
AcDbEntity
  8
0
  6
CENTER2
 62
     4
 48
30.0
100
AcDbLine
 10
-154.0
 20
263.4665315212596
 30
0.0
 11
154.0
 21
263.4665315212596
 31
0.0
  0
LINE
  5
3317
330
32EA
100
AcDbEntity
  8
0
 62
     6
100
AcDbLine
 10
-130.0
 20
269.4665315212597
 30
0.0
 11
130.0
 21
269.4665315212597
 31
0.0
  0
LINE
  5
3318
330
32EA
100
AcDbEntity
  8
0
 62
     6
100
AcDbLine
 10
-150.0
 20
296.7852232264063
 30
0.0
 11
-130.0
 21
296.7852232264063
 31
0.0
  0
LINE
  5
3319
330
32EA
100
AcDbEntity
  8
0
 62
     6
100
AcDbLine
 10
-154.0
 20
273.4665315212597
 30
0.0
 11
-150.0
 21
273.4665315212597
 31
0.0
  0
LINE
  5
331A
330
32EA
100
AcDbEntity
  8
0
 62
     6
100
AcDbLine
 10
150.0
 20
296.7852232264063
 30
0.0
 11
130.0
 21
296.7852232264063
 31
0.0
  0
LINE
  5
331B
330
32EA
100
AcDbEntity
  8
0
 62
     6
100
AcDbLine
 10
154.0
 20
273.4665315212597
 30
0.0
 11
150.0
 21
273.4665315212597
 31
0.0
  0
ENDBLK
  5
331D
330
32EA
100
AcDbEntity
  8
0
100
AcDbBlockEnd
  0
BLOCK
  5
336A
330
3369
100
AcDbEntity
  8
0
100
AcDbBlockBegin
  2
78
 70
     0
 10
0.0
 20
0.0
 30
0.0
  3
78
  1

  0
LINE
  5
336C
330
3369
100
AcDbEntity
  8
0
 62
     6
100
AcDbLine
 10
130.0
 20
42.80961305456616
 30
0.0
 11
130.0
 21
-6.0398829206772
 31
0.0
  0
LINE
  5
336D
330
3369
100
AcDbEntity
  8
0
 62
     6
100
AcDbLine
 10
150.0
 20
42.80961305456616
 30
0.0
 11
150.0
 21
-6.0398829206772
 31
0.0
  0
LINE
  5
336E
330
3369
100
AcDbEntity
  8
0
 62
     6
100
AcDbLine
 10
154.0
 20
16.0
 30
0.0
 11
154.0
 21
-4.0
 31
0.0
  0
LINE
  5
336F
330
3369
100
AcDbEntity
  8
0
 62
     6
100
AcDbLine
 10
-154.0
 20
16.0
 30
0.0
 11
-154.0
 21
-4.0
 31
0.0
  0
LINE
  5
3370
330
3369
100
AcDbEntity
  8
0
 62
     6
100
AcDbLine
 10
-150.0
 20
42.80961305456616
 30
0.0
 11
-150.0
 21
-6.0398829206772
 31
0.0
  0
LINE
  5
3371
330
3369
100
AcDbEntity
  8
0
 62
     6
100
AcDbLine
 10
-130.0
 20
42.80961305456616
 30
0.0
 11
-130.0
 21
-6.0398829206772
 31
0.0
  0
LINE
  5
3372
330
3369
100
AcDbEntity
  8
0
 62
     6
100
AcDbLine
 10
-105.0
 20
-257.4665315212596
 30
0.0
 11
105.0
 21
-257.4665315212597
 31
0.0
  0
LINE
  5
3373
330
3369
100
AcDbEntity
  8
0
 62
     6
100
AcDbLine
 10
-105.0
 20
-264.4665315212596
 30
0.0
 11
105.0
 21
-264.4665315212596
 31
0.0
  0
LINE
  5
3374
330
3369
100
AcDbEntity
  8
0
 62
     6
100
AcDbLine
 10
-130.0
 20
0.0
 30
0.0
 11
130.0
 21
0.0
 31
0.0
  0
LINE
  5
3375
330
3369
100
AcDbEntity
  8
0
 62
     6
100
AcDbLine
 10
-100.0
 20
0.0
 30
0.0
 11
-100.0
 21
-257.4665315212596
 31
0.0
  0
LINE
  5
3376
330
3369
100
AcDbEntity
  8
0
 62
     6
100
AcDbLine
 10
-27.0
 20
0.0
 30
0.0
 11
-27.0
 21
-257.4665315212596
 31
0.0
  0
LINE
  5
3377
330
3369
100
AcDbEntity
  8
0
 62
     6
100
AcDbLine
 10
-35.0
 20
0.0
 30
0.0
 11
-35.0
 21
-257.4665315212596
 31
0.0
  0
LINE
  5
3378
330
3369
100
AcDbEntity
  8
0
 62
     6
100
AcDbLine
 10
-93.0
 20
0.0
 30
0.0
 11
-93.0
 21
-257.4665315212596
 31
0.0
  0
ARC
  5
3379
330
3369
100
AcDbEntity
  8
0
 62
     6
100
AcDbCircle
 10
-90.0
 20
-338.7476913598301
 30
0.0
 40
3.0
100
AcDbArc
 50
270.0
 51
0.0
  0
ARC
  5
337A
330
3369
100
AcDbEntity
  8
0
 62
     6
100
AcDbCircle
 10
-103.0
 20
-338.7476913598301
 30
0.0
 40
3.0
100
AcDbArc
 50
180.0
 51
270.0
  0
LINE
  5
337B
330
3369
100
AcDbEntity
  8
0
 62
     6
100
AcDbLine
 10
-103.0
 20
-341.7476913598301
 30
0.0
 11
-90.0
 21
-341.7476913598301
 31
0.0
  0
LINE
  5
337C
330
3369
100
AcDbEntity
  8
0
 62
     6
100
AcDbLine
 10
-93.0
 20
-264.4665315212597
 30
0.0
 11
-93.0
 21
-303.0970949031225
 31
0.0
  0
LINE
  5
337D
330
3369
100
AcDbEntity
  8
0
 62
     6
100
AcDbLine
 10
-100.0
 20
-264.4665315212597
 30
0.0
 11
-100.0
 21
-303.0970949031225
 31
0.0
  0
LINE
  5
337E
330
3369
100
AcDbEntity
  8
0
 62
     6
100
AcDbLine
 10
-87.0
 20
-313.3952799055299
 30
0.0
 11
-93.00000000000011
 21
-303.0970949031224
 31
0.0
  0
LINE
  5
337F
330
3369
100
AcDbEntity
  8
0
 62
     6
100
AcDbLine
 10
-106.0
 20
-313.3952799055299
 30
0.0
 11
-100.0
 21
-303.0970949031224
 31
0.0
  0
LINE
  5
3380
330
3369
100
AcDbEntity
  8
0
 62
     6
100
AcDbLine
 10
-106.0
 20
-313.3952799055301
 30
0.0
 11
-106.0
 21
-338.7476913598301
 31
0.0
  0
LINE
  5
3381
330
3369
100
AcDbEntity
  8
0
 62
     6
100
AcDbLine
 10
-87.0
 20
-313.39527990553
 30
0.0
 11
-87.0
 21
-338.7476913598301
 31
0.0
  0
LINE
  5
3382
330
3369
100
AcDbEntity
  8
0
 62
     6
100
AcDbLine
 10
-105.0
 20
-257.4665315212596
 30
0.0
 11
-105.0
 21
-264.4665315212596
 31
0.0
  0
LINE
  5
3383
330
3369
100
AcDbEntity
  8
0
 62
     6
100
AcDbLine
 10
-150.0
 20
-6.0398829206772
 30
0.0
 11
-130.0
 21
-6.0398829206772
 31
0.0
  0
LINE
  5
3384
330
3369
100
AcDbEntity
  8
0
 62
     6
100
AcDbLine
 10
-154.0
 20
-4.0
 30
0.0
 11
-150.0
 21
-4.0
 31
0.0
  0
LINE
  5
3385
330
3369
100
AcDbEntity
  8
0
 62
     6
100
AcDbLine
 10
27.0
 20
0.0
 30
0.0
 11
27.0
 21
-257.4665315212597
 31
0.0
  0
LINE
  5
3386
330
3369
100
AcDbEntity
  8
0
 62
     6
100
AcDbLine
 10
35.0
 20
0.0
 30
0.0
 11
35.0
 21
-257.4665315212597
 31
0.0
  0
LINE
  5
3387
330
3369
100
AcDbEntity
  8
0
 62
     6
100
AcDbLine
 10
93.0
 20
0.0
 30
0.0
 11
93.0
 21
-257.4665315212597
 31
0.0
  0
LINE
  5
3388
330
3369
100
AcDbEntity
  8
0
 62
     6
100
AcDbLine
 10
100.0
 20
0.0
 30
0.0
 11
100.0
 21
-257.4665315212596
 31
0.0
  0
LINE
  5
3389
330
3369
100
AcDbEntity
  8
0
 62
     6
100
AcDbLine
 10
103.0
 20
-341.7476913598301
 30
0.0
 11
90.0
 21
-341.7476913598301
 31
0.0
  0
ARC
  5
338A
330
3369
100
AcDbEntity
  8
0
 62
     6
100
AcDbCircle
 10
90.0
 20
-338.7476913598301
 30
0.0
 40
3.0
100
AcDbArc
 50
180.0
 51
270.0
  0
LINE
  5
338B
330
3369
100
AcDbEntity
  8
0
 62
     6
100
AcDbLine
 10
93.0
 20
-264.4665315212597
 30
0.0
 11
93.0
 21
-303.0970949031225
 31
0.0
  0
LINE
  5
338C
330
3369
100
AcDbEntity
  8
0
 62
     6
100
AcDbLine
 10
87.0
 20
-313.3952799055299
 30
0.0
 11
93.0
 21
-303.0970949031224
 31
0.0
  0
LINE
  5
338D
330
3369
100
AcDbEntity
  8
0
 62
     6
100
AcDbLine
 10
87.0
 20
-313.39527990553
 30
0.0
 11
87.0
 21
-338.7476913598301
 31
0.0
  0
ARC
  5
338E
330
3369
100
AcDbEntity
  8
0
 62
     6
100
AcDbCircle
 10
103.0
 20
-338.7476913598301
 30
0.0
 40
3.0
100
AcDbArc
 50
270.0
 51
0.0
  0
LINE
  5
338F
330
3369
100
AcDbEntity
  8
0
 62
     6
100
AcDbLine
 10
100.0
 20
-264.4665315212597
 30
0.0
 11
100.0
 21
-303.0970949031225
 31
0.0
  0
LINE
  5
3390
330
3369
100
AcDbEntity
  8
0
 62
     6
100
AcDbLine
 10
106.0
 20
-313.3952799055299
 30
0.0
 11
100.0
 21
-303.0970949031224
 31
0.0
  0
LINE
  5
3391
330
3369
100
AcDbEntity
  8
0
 62
     6
100
AcDbLine
 10
106.0
 20
-313.3952799055301
 30
0.0
 11
106.0
 21
-338.7476913598301
 31
0.0
  0
LINE
  5
3392
330
3369
100
AcDbEntity
  8
0
 62
     6
100
AcDbLine
 10
105.0
 20
-257.4665315212596
 30
0.0
 11
105.0
 21
-264.4665315212596
 31
0.0
  0
LINE
  5
3393
330
3369
100
AcDbEntity
  8
0
 62
     6
100
AcDbLine
 10
154.0
 20
-4.0
 30
0.0
 11
150.0
 21
-4.0
 31
0.0
  0
LINE
  5
3394
330
3369
100
AcDbEntity
  8
0
 62
     6
100
AcDbLine
 10
150.0
 20
-6.0398829206772
 30
0.0
 11
130.0
 21
-6.0398829206772
 31
0.0
  0
LINE
  5
3395
330
3369
100
AcDbEntity
  8
0
 62
     6
100
AcDbLine
 10
-130.0
 20
12.0
 30
0.0
 11
130.0
 21
12.0
 31
0.0
  0
LINE
  5
3396
330
3369
100
AcDbEntity
  8
0
  6
CENTER2
 62
     4
 48
30.0
100
AcDbLine
 10
-154.0
 20
6.0
 30
0.0
 11
154.0
 21
6.0
 31
0.0
  0
LINE
  5
3397
330
3369
100
AcDbEntity
  8
0
 62
     6
100
AcDbLine
 10
-150.0
 20
39.31869170514665
 30
0.0
 11
-130.0
 21
39.31869170514665
 31
0.0
  0
LINE
  5
3398
330
3369
100
AcDbEntity
  8
0
 62
     6
100
AcDbLine
 10
-154.0
 20
16.0
 30
0.0
 11
-150.0
 21
16.0
 31
0.0
  0
LINE
  5
3399
330
3369
100
AcDbEntity
  8
0
 62
     6
100
AcDbLine
 10
154.0
 20
16.0
 30
0.0
 11
150.0
 21
16.0
 31
0.0
  0
LINE
  5
339A
330
3369
100
AcDbEntity
  8
0
 62
     6
100
AcDbLine
 10
150.0
 20
39.31869170514665
 30
0.0
 11
130.0
 21
39.31869170514665
 31
0.0
  0
ENDBLK
  5
336B
330
3369
100
AcDbEntity
  8
0
100
AcDbBlockEnd
  0
BLOCK
  5
344F
330
344E
100
AcDbEntity
  8
0
100
AcDbBlockBegin
  2
*U4
 70
     1
 10
0.0
 20
0.0
 30
0.0
  3
*U4
  1

  0
ENDBLK
  5
3450
330
344E
100
AcDbEntity
  8
0
100
AcDbBlockEnd
  0
ENDSEC
  0
SECTION
  2
ENTITIES
  0
CIRCLE
  5
B34
330
1F
100
AcDbEntity
  8
0
100
AcDbCircle
 10
0.0000000000001137
 20
-119.975296
 30
0.0
 40
26.0
  0
CIRCLE
  5
B35
330
1F
100
AcDbEntity
  8
0
100
AcDbCircle
 10
0.0000000000001137
 20
-119.975296
 30
0.0
 40
37.5
  0
LINE
  5
1CB9
330
1F
100
AcDbEntity
  8
0
100
AcDbLine
 10
205.0000000000016
 20
-380.2950078449734
 30
0.0
 11
204.9999999999997
 21
-34.99999999999996
 31
0.0
  0
LINE
  5
1CBA
330
1F
100
AcDbEntity
  8
0
100
AcDbLine
 10
-205.2239312065987
 20
-380.3049900965259
 30
0.0
 11
-205.223931206597
 21
-34.99999999999996
 31
0.0
  0
LINE
  5
1CC4
330
1F
100
AcDbEntity
  8
0
100
AcDbLine
 10
195.0000000000004
 20
-44.02038682990411
 30
0.0
 11
-195.2239312065976
 21
-44.02038682990411
 31
0.0
  0
ARC
  5
1CC5
330
1F
100
AcDbEntity
  8
0
100
AcDbCircle
 10
-195.2239312065976
 20
-54.02038682990411
 30
0.0
 40
10.0
100
AcDbArc
 50
90.0
 51
179.9999999999997
  0
ARC
  5
1CC6
330
1F
100
AcDbEntity
  8
0
100
AcDbCircle
 10
195.0000000000004
 20
-54.02038682990411
 30
0.0
 40
10.0
100
AcDbArc
 50
0.0000000000002544
 51
90.0
  0
LINE
  5
24F5
330
1F
100
AcDbEntity
  8
0
100
AcDbLine
 10
-195.2236753983114
 20
-390.3049900932541
 30
0.0
 11
195.0002558082888
 21
-390.2950078417016
 31
0.0
  0
ARC
  5
24F7
330
1F
100
AcDbEntity
  8
0
100
AcDbCircle
 10
-195.2239312065987
 20
-380.3049900965259
 30
0.0
 40
10.0
100
AcDbArc
 50
179.9999999999997
 51
270.0014656735227
  0
ARC
  5
24F8
330
1F
100
AcDbEntity
  8
0
100
AcDbCircle
 10
195.0000000000016
 20
-380.2950078449735
 30
0.0
 40
10.0
100
AcDbArc
 50
270.0014656735227
 51
0.0000000000002799
  0
LWPOLYLINE
  5
2836
330
1F
100
AcDbEntity
  8
0
100
AcDbPolyline
 90
        8
 70
     1
 43
0.0
 10
240.0
 20
-4.999999999999976
 42
0.4142135623730935
 10
235.0
 20
0.0
 10
-235.0
 20
0.0
 42
0.4142135623730965
 10
-240.0
 20
-5.000000000000025
 10
-239.9999999999979
 20
-385.3071031230467
 42
0.3990106238427555
 10
-201.8273325679107
 20
-425.0051590316306
 10
200.0010232331509
 20
-424.99487992928
 42
0.4142060699416767
 10
240.0000000000018
 20
-384.9948799423675
  0
LINE
  5
2F61
330
1F
100
AcDbEntity
  8
0
100
AcDbLine
 10
-226.3201319562605
 20
-28.0
 30
0.0
 11
226.3201319562604
 21
-28.0
 31
0.0
  0
ARC
  5
2F6C
330
1F
100
AcDbEntity
  8
0
100
AcDbCircle
 10
-227.466282958741
 20
-37.56081219087832
 30
0.0
 40
9.629267462779001
100
AcDbArc
 50
83.16399963034138
 51
149.8026947647648
  0
LINE
  5
2F6D
330
1F
100
AcDbEntity
  8
0
100
AcDbLine
 10
-235.0
 20
0.0
 30
0.0
 11
-235.0
 21
-28.0
 31
0.0
  0
LINE
  5
2F6E
330
1F
100
AcDbEntity
  8
0
100
AcDbLine
 10
-209.7381082420957
 20
-35.0
 30
0.0
 11
-228.3709921497894
 21
-35.0
 31
0.0
  0
LINE
  5
2F74
330
1F
100
AcDbEntity
  8
0
100
AcDbLine
 10
235.0
 20
0.0
 30
0.0
 11
235.0
 21
-28.0
 31
0.0
  0
LINE
  5
2F75
330
1F
100
AcDbEntity
  8
0
100
AcDbLine
 10
209.7381082420957
 20
-35.0
 30
0.0
 11
228.3709921497893
 21
-35.0
 31
0.0
  0
ARC
  5
2F76
330
1F
100
AcDbEntity
  8
0
100
AcDbCircle
 10
227.466282958741
 20
-37.56081219087832
 30
0.0
 40
9.629267462779001
100
AcDbArc
 50
30.19730523523515
 51
96.83600036965863
  0
ARC
  5
2F78
330
1F
100
AcDbEntity
  8
0
100
AcDbCircle
 10
197.9999999999997
 20
-35.0
 30
0.0
 40
7.0
100
AcDbArc
 50
0.0000000000003053
 51
90.0
  0
ARC
  5
2F79
330
1F
100
AcDbEntity
  8
0
100
AcDbCircle
 10
-198.2239312065971
 20
-35.0
 30
0.0
 40
7.0
100
AcDbArc
 50
90.0
 51
179.9999999999997
  0
LINE
  5
31E5
330
1F
100
AcDbEntity
  8
0
  6
CENTER2
 62
     4
 48
30.0
100
AcDbLine
 10
-139.9999999999999
 20
11.15542439898451
 30
0.0
 11
-139.9999999999999
 21
-24.92033510957845
 31
0.0
  0
LINE
  5
31E6
330
1F
100
AcDbEntity
  8
0
  6
CENTER2
 62
     4
 48
30.0
100
AcDbLine
 10
140.0000000000001
 20
11.15542439898451
 30
0.0
 11
140.0000000000001
 21
-24.92033510957845
 31
0.0
  0
LINE
  5
3294
330
1F
100
AcDbEntity
  8
0
100
AcDbLine
 10
-159.9999999999999
 20
-58.0203868299041
 30
0.0
 11
-159.9999999999999
 21
-338.3039099596313
 31
0.0
  0
LINE
  5
3295
330
1F
100
AcDbEntity
  8
0
100
AcDbLine
 10
160.0000000000001
 20
-58.0203868299041
 30
0.0
 11
160.0000000000001
 21
-338.2960822260384
 31
0.0
  0
LINE
  5
32D1
330
1F
100
AcDbEntity
  8
0
100
AcDbLine
 10
-152.9998209341988
 20
-345.303909957341
 30
0.0
 11
153.0001790658012
 21
-345.296082223748
 31
0.0
  0
LINE
  5
32D2
330
1F
100
AcDbEntity
  8
0
100
AcDbLine
 10
153.0000000000001
 20
-51.02038682990411
 30
0.0
 11
-152.9999999999999
 21
-51.02038682990411
 31
0.0
  0
ARC
  5
32D3
330
1F
100
AcDbEntity
  8
0
100
AcDbCircle
 10
153.0000000000001
 20
-58.0203868299041
 30
0.0
 40
7.0
100
AcDbArc
 50
0.0
 51
90.0
  0
ARC
  5
32D4
330
1F
100
AcDbEntity
  8
0
100
AcDbCircle
 10
153.0000000000001
 20
-338.2960822260384
 30
0.0
 40
7.0
100
AcDbArc
 50
270.0014656735227
 51
0.0
  0
ARC
  5
32D5
330
1F
100
AcDbEntity
  8
0
100
AcDbCircle
 10
-152.9999999999999
 20
-338.3039099596313
 30
0.0
 40
7.0
100
AcDbArc
 50
180.0
 51
270.0014656735227
  0
ARC
  5
32D6
330
1F
100
AcDbEntity
  8
0
100
AcDbCircle
 10
-152.9999999999999
 20
-58.0203868299041
 30
0.0
 40
7.0
100
AcDbArc
 50
90.0
 51
180.0
  0
LINE
  5
3341
330
1F
100
AcDbEntity
  8
0
  6
CENTER2
 62
     4
 48
30.0
100
AcDbLine
 10
-49.27636699999982
 20
-120.0
 30
0.0
 11
45.72363300000017
 21
-120.0
 31
0.0
  0
LINE
  5
3352
330
1F
100
AcDbEntity
  8
0
  6
CENTER2
 62
     4
 48
30.0
100
AcDbLine
 10
0.0000000000001137
 20
-74.81973299999999
 30
0.0
 11
0.0000000000001137
 21
-165.130859
 31
0.0
  0
INSERT
  5
339B
330
1F
100
AcDbEntity
  8
0
100
AcDbBlockReference
  2
78
 10
0.0000000000001137
 20
-70.76020505456611
 30
0.0
  0
ENDSEC
  0
SECTION
  2
OBJECTS
  0
DICTIONARY
  5
C
330
0
100
AcDbDictionary
281
     1
  3
ACAD_COLOR
350
33A4
  3
ACAD_GROUP
350
D
  3
ACAD_LAYOUT
350
1A
  3
ACAD_MATERIAL
350
33A3
  3
ACAD_MLINESTYLE
350
17
  3
ACAD_PLOTSETTINGS
350
19
  3
ACAD_PLOTSTYLENAME
350
E
  3
AcDbVariableDictionary
350
86
  3
AcmDictionary
350
45
  3
AMG
350
41
  3
AMGSNAPSETTINGS
350
332
  3
ASE_INDEX_DICTIONARY
350
339E
  3
MAPISURF_MODULE
350
3426
  0
DICTIONARY
  5
81
330
1F
100
AcDbDictionary
280
     1
281
     1
  3
ACAD_INDEX
360
82
  0
DICTIONARY
  5
33A4
102
{ACAD_REACTORS
330
C
102
}
330
C
100
AcDbDictionary
281
     1
  0
DICTIONARY
  5
D
102
{ACAD_REACTORS
330
C
102
}
330
C
100
AcDbDictionary
281
     1
  0
DICTIONARY
  5
1A
102
{ACAD_REACTORS
330
C
102
}
330
C
100
AcDbDictionary
281
     1
  3
Layout1
350
1E
  3
Layout2
350
26
  3
Model
350
22
  0
DICTIONARY
  5
33A3
102
{ACAD_REACTORS
330
C
102
}
330
C
100
AcDbDictionary
281
     1
  0
DICTIONARY
  5
17
102
{ACAD_REACTORS
330
C
102
}
330
C
100
AcDbDictionary
281
     1
  3
Standard
350
18
  0
DICTIONARY
  5
19
102
{ACAD_REACTORS
330
C
102
}
330
C
100
AcDbDictionary
281
     1
  0
ACDBDICTIONARYWDFLT
  5
E
102
{ACAD_REACTORS
330
C
102
}
330
C
100
AcDbDictionary
281
     1
  3
Normal
350
F
100
AcDbDictionaryWithDefault
340
F
  0
DICTIONARY
  5
86
102
{ACAD_REACTORS
330
C
102
}
330
C
100
AcDbDictionary
281
     1
  3
DIMASSOC
350
89
  3
HIDETEXT
350
88
  3
INDEXCTL
350
87
  0
DICTIONARY
  5
45
102
{ACAD_REACTORS
330
C
102
}
330
C
100
AcDbDictionary
281
     1
  3
AcmBOMDATA
350
46
  3
AcmStdDictionary
350
4A
  0
DICTIONARY
  5
41
102
{ACAD_REACTORS
330
C
102
}
330
C
100
AcDbDictionary
281
     1
  3
AcMgSettings
350
42
  3
AMGLAYCFG
350
4C
  0
DICTIONARY
  5
332
102
{ACAD_REACTORS
330
C
102
}
330
C
100
AcDbDictionary
281
     1
  3
DIMENSION
350
337
  3
FEA
350
336
  3
HATCH (1)
350
333
  3
HATCH (2)
350
334
  3
SIMPLE WELD
350
338
  3
SYMBOLS
350
335
  0
DICTIONARY
  5
339E
102
{ACAD_REACTORS
330
C
102
}
330
C
100
AcDbDictionary
281
     1
  3
ASEBlockHierarchyIndexRecord
350
339F
1001
DCO15
1040
1591616303.625
  0
DICTIONARY
  5
82
102
{ACAD_REACTORS
330
81
102
}
330
81
100
AcDbDictionary
281
     1
  3
*A1
350
83
  0
LAYOUT
  5
1E
102
{ACAD_REACTORS
330
1A
102
}
330
1A
100
AcDbPlotSettings
  1

  2
Epson Stylus COLOR 440 ESC/P 2
  4

  6

 40
0.0
 41
0.0
 42
0.0
 43
0.0
 44
0.0
 45
0.0
 46
0.0
 47
0.0
 48
0.0
 49
0.0
140
0.0
141
0.0
142
1.0
143
1.0
 70
   688
 72
     0
 73
     0
 74
     5
  7

 75
    16
147
1.0
 76
     0
 77
     2
 78
   300
148
0.0
149
0.0
100
AcDbLayout
  1
Layout1
 70
     1
 71
     1
 10
0.0
 20
0.0
 11
420.0
 21
297.0
 12
0.0
 22
0.0
 32
0.0
 14
1.000000000000000E+20
 24
1.000000000000000E+20
 34
1.000000000000000E+20
 15
-1.000000000000000E+20
 25
-1.000000000000000E+20
 35
-1.000000000000000E+20
146
0.0
 13
0.0
 23
0.0
 33
0.0
 16
1.0
 26
0.0
 36
0.0
 17
0.0
 27
1.0
 37
0.0
 76
     0
330
1B
  0
LAYOUT
  5
26
102
{ACAD_REACTORS
330
1A
102
}
330
1A
100
AcDbPlotSettings
  1

  2
Epson Stylus COLOR 440 ESC/P 2
  4

  6

 40
0.0
 41
0.0
 42
0.0
 43
0.0
 44
0.0
 45
0.0
 46
0.0
 47
0.0
 48
0.0
 49
0.0
140
0.0
141
0.0
142
1.0
143
1.0
 70
   688
 72
     0
 73
     0
 74
     5
  7

 75
    16
147
1.0
 76
     0
 77
     2
 78
   300
148
0.0
149
0.0
100
AcDbLayout
  1
Layout2
 70
     1
 71
     2
 10
0.0
 20
0.0
 11
12.0
 21
9.0
 12
0.0
 22
0.0
 32
0.0
 14
0.0
 24
0.0
 34
0.0
 15
0.0
 25
0.0
 35
0.0
146
0.0
 13
0.0
 23
0.0
 33
0.0
 16
1.0
 26
0.0
 36
0.0
 17
0.0
 27
1.0
 37
0.0
 76
     0
330
23
  0
LAYOUT
  5
22
102
{ACAD_REACTORS
330
1A
102
}
330
1A
100
AcDbPlotSettings
  1

  2
Epson Stylus COLOR 440 ESC/P 2
  4

  6

 40
0.0
 41
0.0
 42
0.0
 43
0.0
 44
0.0
 45
0.0
 46
0.0
 47
0.0
 48
0.0
 49
0.0
140
0.0
141
0.0
142
1.0
143
1.0
 70
  1712
 72
     0
 73
     0
 74
     0
  7

 75
     0
147
1.0
 76
     0
 77
     2
 78
   300
148
0.0
149
0.0
100
AcDbLayout
  1
Model
 70
     1
 71
     0
 10
0.0
 20
0.0
 11
12.0
 21
9.0
 12
0.0
 22
0.0
 32
0.0
 14
0.0
 24
0.0
 34
0.0
 15
0.0
 25
0.0
 35
0.0
146
0.0
 13
0.0
 23
0.0
 33
0.0
 16
1.0
 26
0.0
 36
0.0
 17
0.0
 27
1.0
 37
0.0
 76
     0
330
1F
  0
MLINESTYLE
  5
18
102
{ACAD_REACTORS
330
17
102
}
330
17
100
AcDbMlineStyle
  2
STANDARD
 70
     0
  3

 62
   256
 51
90.0
 52
90.0
 71
     2
 49
0.5
 62
   256
  6
BYLAYER
 49
-0.5
 62
   256
  6
BYLAYER
  0
ACDBPLACEHOLDER
  5
F
102
{ACAD_REACTORS
330
E
102
}
330
E
  0
DICTIONARYVAR
  5
89
102
{ACAD_REACTORS
330
86
102
}
330
86
100
DictionaryVariables
280
     0
  1
2
  0
DICTIONARYVAR
  5
88
102
{ACAD_REACTORS
330
86
102
}
330
86
100
DictionaryVariables
280
     0
  1
1
  0
DICTIONARYVAR
  5
87
102
{ACAD_REACTORS
330
86
102
}
330
86
100
DictionaryVariables
280
     0
  1
1
  0
ACMDATADICTIONARY
  5
46
102
{ACAD_REACTORS
330
45
102
}
330
45
100
AcDbDictionary
281
     1
  3
*A1
350
47
100
AcmDataDictionary
  0
DICTIONARY
  5
4A
102
{ACAD_REACTORS
330
45
102
}
330
45
100
AcDbDictionary
281
     1
  3
ANSI
350
360
  3
DIN
350
4B
  0
DICTIONARY
  5
42
102
{ACAD_REACTORS
330
41
102
}
330
41
100
AcDbDictionary
281
     1
  3
DWGSETTINGS
350
43
  3
TRANSSETTINGS
350
44
  0
ACAMGFILTERDAT
  5
337
102
{ACAD_REACTORS
330
332
102
}
330
332
100
AcAmgFilterDat
 70
    15
  1
DIMENSION,AMDT_*_DIM
  2
*
  3
*
  4
*
  5
*
290
     1
  0
ACAMGFILTERDAT
  5
336
102
{ACAD_REACTORS
330
332
102
}
330
332
100
AcAmgFilterDat
 70
    15
  1
*
  2
AM_FEA-AM_*
  3
*
  4
*
  5
*
290
     1
  0
ACAMGFILTERDAT
  5
333
102
{ACAD_REACTORS
330
332
102
}
330
332
100
AcAmgFilterDat
 70
    15
  1
HATCH
  2
*
  3
*
  4
*
  5
*
290
     1
  0
ACAMGFILTERDAT
  5
334
102
{ACAD_REACTORS
330
332
102
}
330
332
100
AcAmgFilterDat
 70
    15
  1
LINE
  2
8,8N,*-8,*-8N,AM_8,AM_8N,*-AM_8,*-AM_8N
  3
*
  4
*
  5
INSERT,STDPART2D
290
     1
  0
ACAMGFILTERDAT
  5
338
102
{ACAD_REACTORS
330
332
102
}
330
332
100
AcAmgFilterDat
 70
    15
  1
ARC
  2
AM_5
  3
*
  4
2
  5
INSERT
290
     0
  0
ACAMGFILTERDAT
  5
335
102
{ACAD_REACTORS
330
332
102
}
330
332
100
AcAmgFilterDat
 70
    15
  1
ACMFCFRAME,ACMDATUMTARGET,ACMDATUMID,ACMWELDSYM,ACMSURFSYM,ACMFEATID,ACMPARTREF,ACMBALLOON,AMDTEDGESYM,AMGSCREWCALCTABLE
  2
*
  3
*
  4
*
  5
*
290
     1
  0
XRECORD
  5
339F
102
{ACAD_REACTORS
330
339E
102
}
330
339E
100
AcDbXrecord
280
     1
330
339B
  0
LAYER_INDEX
  5
83
102
{ACAD_REACTORS
330
82
102
}
330
82
100
AcDbIndex
 40
2454225.320630602
100
AcDbLayerIndex
  8
0
360
84
 90
       33
  0
ACMDATAENTRYBLOCK
  5
47
102
{ACAD_REACTORS
330
46
102
}
330
46
100
AcmDataEntry
100
AcmDataEntryBlock
  0
IDBUFFER
  5
84
330
0
100
AcDbIdBuffer
330
B34
330
B35
330
1CB9
330
1CBA
330
1CC4
330
1CC5
330
1CC6
330
24F5
330
24F7
330
24F8
330
2836
330
2F61
330
2F6C
330
2F6D
330
2F6E
330
2F74
330
2F75
330
2F76
330
2F78
330
2F79
330
31E5
330
31E6
330
3294
330
3295
330
32D1
330
32D2
330
32D3
330
32D4
330
32D5
330
32D6
330
3341
330
3352
330
339B
  0
ENDSEC
  0
EOF
