  0
SECTION
  2
HEADER
  9
$ACADVER
  1
AC1032
  9
$ACADMAINTVER
 90
       55
  9
$DWGCODEPAGE
  3
ANSI_1252
  9
$LASTSAVEDBY
  1
markus.roth
  9
$REQUIREDVERSIONS
160
                 0
  9
$INSBASE
 10
0.0
 20
0.0
 30
0.0
  9
$EXTMIN
 10
-20.0
 20
0.0
 30
-0.0000000000000002
  9
$EXTMAX
 10
7188.415492957746
 20
2873.553283455723
 30
5.0
  9
$LIMMIN
 10
0.0
 20
0.0
  9
$LIMMAX
 10
12.0
 20
9.0
  9
$ORTHOMODE
 70
     0
  9
$REGENMODE
 70
     1
  9
$FILLMODE
 70
     1
  9
$QTEXTMODE
 70
     0
  9
$MIRRTEXT
 70
     1
  9
$LTSCALE
 40
1.0
  9
$ATTMODE
 70
     1
  9
$TEXTSIZE
 40
0.2
  9
$TRACEWID
 40
0.05
  9
$TEXTSTYLE
  7
Standard
  9
$CLAYER
  8
0
  9
$CELTYPE
  6
ByLayer
  9
$CECOLOR
 62
   256
  9
$CELTSCALE
 40
1.0
  9
$DISPSILH
 70
     0
  9
$DIMSCALE
 40
1.0
  9
$DIMASZ
 40
18.0
  9
$DIMEXO
 40
0.0625
  9
$DIMDLI
 40
0.38
  9
$DIMRND
 40
0.0
  9
$DIMDLE
 40
0.0
  9
$DIMEXE
 40
9.0
  9
$DIMTP
 40
0.0
  9
$DIMTM
 40
0.0
  9
$DIMTXT
 40
20.0
  9
$DIMCEN
 40
0.09
  9
$DIMTSZ
 40
0.0
  9
$DIMTOL
 70
     0
  9
$DIMLIM
 70
     0
  9
$DIMTIH
 70
     1
  9
$DIMTOH
 70
     1
  9
$DIMSE1
 70
     0
  9
$DIMSE2
 70
     0
  9
$DIMTAD
 70
     1
  9
$DIMZIN
 70
     0
  9
$DIMBLK
  1

  9
$DIMASO
 70
     1
  9
$DIMSHO
 70
     1
  9
$DIMPOST
  1

  9
$DIMAPOST
  1

  9
$DIMALT
 70
     0
  9
$DIMALTD
 70
     2
  9
$DIMALTF
 40
25.4
  9
$DIMLFAC
 40
1.0
  9
$DIMTOFL
 70
     0
  9
$DIMTVP
 40
0.0
  9
$DIMTIX
 70
     0
  9
$DIMSOXD
 70
     0
  9
$DIMSAH
 70
     0
  9
$DIMBLK1
  1

  9
$DIMBLK2
  1

  9
$DIMSTYLE
  2
Standard
  9
$DIMCLRD
 70
     0
  9
$DIMCLRE
 70
     0
  9
$DIMCLRT
 70
     0
  9
$DIMTFAC
 40
1.0
  9
$DIMGAP
 40
10.0
  9
$DIMJUST
 70
     0
  9
$DIMSD1
 70
     0
  9
$DIMSD2
 70
     0
  9
$DIMTOLJ
 70
     1
  9
$DIMTZIN
 70
     0
  9
$DIMALTZ
 70
     0
  9
$DIMALTTZ
 70
     0
  9
$DIMUPT
 70
     0
  9
$DIMDEC
 70
     2
  9
$DIMTDEC
 70
     4
  9
$DIMALTU
 70
     2
  9
$DIMALTTD
 70
     2
  9
$DIMTXSTY
  7
ARIAL NARROW
  9
$DIMAUNIT
 70
     0
  9
$DIMADEC
 70
     2
  9
$DIMALTRND
 40
0.0
  9
$DIMAZIN
 70
     0
  9
$DIMDSEP
 70
    46
  9
$DIMATFIT
 70
     3
  9
$DIMFRAC
 70
     0
  9
$DIMLDRBLK
  1

  9
$DIMLUNIT
 70
     2
  9
$DIMLWD
 70
    -2
  9
$DIMLWE
 70
    -2
  9
$DIMTMOVE
 70
     0
  9
$DIMFXL
 40
1.0
  9
$DIMFXLON
 70
     0
  9
$DIMJOGANG
 40
0.7853981633974483
  9
$DIMTFILL
 70
     0
  9
$DIMTFILLCLR
 70
     0
  9
$DIMARCSYM
 70
     0
  9
$DIMLTYPE
  6

  9
$DIMLTEX1
  6

  9
$DIMLTEX2
  6

  9
$DIMTXTDIRECTION
 70
     0
  9
$LUNITS
 70
     2
  9
$LUPREC
 70
     4
  9
$SKETCHINC
 40
0.1
  9
$FILLETRAD
 40
0.0
  9
$AUNITS
 70
     0
  9
$AUPREC
 70
     0
  9
$MENU
  1
.
  9
$ELEVATION
 40
0.0
  9
$PELEVATION
 40
0.0
  9
$THICKNESS
 40
0.0
  9
$LIMCHECK
 70
     0
  9
$CHAMFERA
 40
0.0
  9
$CHAMFERB
 40
0.0
  9
$CHAMFERC
 40
0.0
  9
$CHAMFERD
 40
0.0
  9
$SKPOLY
 70
     0
  9
$TDCREATE
 40
2459753.548144699
  9
$TDUCREATE
 40
2459753.464811366
  9
$TDUPDATE
 40
2459753.548156273
  9
$TDUUPDATE
 40
2459753.46482294
  9
$TDINDWG
 40
0.0000000116
  9
$TDUSRTIMER
 40
0.0000000116
  9
$USRTIMER
 70
     1
  9
$ANGBASE
 50
0.0
  9
$ANGDIR
 70
     0
  9
$PDMODE
 70
     0
  9
$PDSIZE
 40
0.0
  9
$PLINEWID
 40
0.0
  9
$SPLFRAME
 70
     0
  9
$SPLINETYPE
 70
     6
  9
$SPLINESEGS
 70
     8
  9
$HANDSEED
  5
3E8
  9
$SURFTAB1
 70
     6
  9
$SURFTAB2
 70
     6
  9
$SURFTYPE
 70
     6
  9
$SURFU
 70
     6
  9
$SURFV
 70
     6
  9
$UCSBASE
  2

  9
$UCSNAME
  2

  9
$UCSORG
 10
0.0
 20
0.0
 30
0.0
  9
$UCSXDIR
 10
1.0
 20
0.0
 30
0.0
  9
$UCSYDIR
 10
0.0
 20
1.0
 30
0.0
  9
$UCSORTHOREF
  2

  9
$UCSORTHOVIEW
 70
     0
  9
$UCSORGTOP
 10
0.0
 20
0.0
 30
0.0
  9
$UCSORGBOTTOM
 10
0.0
 20
0.0
 30
0.0
  9
$UCSORGLEFT
 10
0.0
 20
0.0
 30
0.0
  9
$UCSORGRIGHT
 10
0.0
 20
0.0
 30
0.0
  9
$UCSORGFRONT
 10
0.0
 20
0.0
 30
0.0
  9
$UCSORGBACK
 10
0.0
 20
0.0
 30
0.0
  9
$PUCSBASE
  2

  9
$PUCSNAME
  2

  9
$PUCSORG
 10
0.0
 20
0.0
 30
0.0
  9
$PUCSXDIR
 10
1.0
 20
0.0
 30
0.0
  9
$PUCSYDIR
 10
0.0
 20
1.0
 30
0.0
  9
$PUCSORTHOREF
  2

  9
$PUCSORTHOVIEW
 70
     0
  9
$PUCSORGTOP
 10
0.0
 20
0.0
 30
0.0
  9
$PUCSORGBOTTOM
 10
0.0
 20
0.0
 30
0.0
  9
$PUCSORGLEFT
 10
0.0
 20
0.0
 30
0.0
  9
$PUCSORGRIGHT
 10
0.0
 20
0.0
 30
0.0
  9
$PUCSORGFRONT
 10
0.0
 20
0.0
 30
0.0
  9
$PUCSORGBACK
 10
0.0
 20
0.0
 30
0.0
  9
$USERI1
 70
     0
  9
$USERI2
 70
     0
  9
$USERI3
 70
     0
  9
$USERI4
 70
     0
  9
$USERI5
 70
     0
  9
$USERR1
 40
0.0
  9
$USERR2
 40
0.0
  9
$USERR3
 40
0.0
  9
$USERR4
 40
0.0
  9
$USERR5
 40
0.0
  9
$WORLDVIEW
 70
     1
  9
$SHADEDGE
 70
     3
  9
$SHADEDIF
 70
    70
  9
$TILEMODE
 70
     1
  9
$MAXACTVP
 70
    64
  9
$PINSBASE
 10
0.0
 20
0.0
 30
0.0
  9
$PLIMCHECK
 70
     0
  9
$PEXTMIN
 10
1.000000000000000E+20
 20
1.000000000000000E+20
 30
1.000000000000000E+20
  9
$PEXTMAX
 10
-1.000000000000000E+20
 20
-1.000000000000000E+20
 30
-1.000000000000000E+20
  9
$PLIMMIN
 10
0.0
 20
0.0
  9
$PLIMMAX
 10
12.0
 20
9.0
  9
$UNITMODE
 70
     0
  9
$VISRETAIN
 70
     1
  9
$PLINEGEN
 70
     0
  9
$PSLTSCALE
 70
     1
  9
$TREEDEPTH
 70
  3020
  9
$CMLSTYLE
  2
Standard
  9
$CMLJUST
 70
     0
  9
$CMLSCALE
 40
1.0
  9
$PROXYGRAPHICS
 70
     1
  9
$MEASUREMENT
 70
     1
  9
$CELWEIGHT
370
    -1
  9
$ENDCAPS
280
     0
  9
$JOINSTYLE
280
     0
  9
$LWDISPLAY
290
     1
  9
$INSUNITS
 70
     4
  9
$HYPERLINKBASE
  1

  9
$STYLESHEET
  1

  9
$XEDIT
290
     1
  9
$CEPSNTYPE
380
     0
  9
$PSTYLEMODE
290
     1
  9
$FINGERPRINTGUID
  2
{6f694099-c7c8-4125-85ef-e05b4b5b1ffd}
  9
$VERSIONGUID
  2
{FAEB1C32-E019-11D5-929B-00C0DF256EC4}
  9
$EXTNAMES
290
     1
  9
$PSVPSCALE
 40
0.0
  9
$OLESTARTUP
290
     0
  9
$SORTENTS
280
   127
  9
$INDEXCTL
280
     0
  9
$HIDETEXT
280
     1
  9
$XCLIPFRAME
280
     2
  9
$HALOGAP
280
     0
  9
$OBSCOLOR
 70
   257
  9
$OBSLTYPE
280
     0
  9
$INTERSECTIONDISPLAY
280
     0
  9
$INTERSECTIONCOLOR
 70
   257
  9
$DIMASSOC
280
     2
  9
$PROJECTNAME
  1

  9
$CAMERADISPLAY
290
     0
  9
$LENSLENGTH
 40
50.0
  9
$CAMERAHEIGHT
 40
0.0
  9
$STEPSPERSEC
 40
2.0
  9
$STEPSIZE
 40
6.0
  9
$3DDWFPREC
 40
2.0
  9
$PSOLWIDTH
 40
0.25
  9
$PSOLHEIGHT
 40
4.0
  9
$LOFTANG1
 40
1.570796326794897
  9
$LOFTANG2
 40
1.570796326794897
  9
$LOFTMAG1
 40
0.0
  9
$LOFTMAG2
 40
0.0
  9
$LOFTPARAM
 70
     7
  9
$LOFTNORMALS
280
     1
  9
$LATITUDE
 40
37.795
  9
$LONGITUDE
 40
-122.394
  9
$NORTHDIRECTION
 40
0.0
  9
$TIMEZONE
 70
 -8000
  9
$LIGHTGLYPHDISPLAY
280
     1
  9
$TILEMODELIGHTSYNCH
280
     1
  9
$CMATERIAL
347
44
  9
$SOLIDHIST
280
     0
  9
$SHOWHIST
280
     1
  9
$DWFFRAME
280
     2
  9
$DGNFRAME
280
     2
  9
$REALWORLDSCALE
290
     1
  9
$INTERFERECOLOR
 62
   256
  9
$CSHADOW
280
     0
  9
$SHADOWPLANELOCATION
 40
0.0
  0
ENDSEC
  0
SECTION
  2
CLASSES
  0
CLASS
  1
ACDBDICTIONARYWDFLT
  2
AcDbDictionaryWithDefault
  3
ObjectDBX Classes
 90
        0
 91
        3
280
     0
281
     0
  0
CLASS
  1
VISUALSTYLE
  2
AcDbVisualStyle
  3
ObjectDBX Classes
 90
     4095
 91
        3
280
     0
281
     0
  0
CLASS
  1
MATERIAL
  2
AcDbMaterial
  3
ObjectDBX Classes
 90
     1153
 91
        3
280
     0
281
     0
  0
CLASS
  1
SCALE
  2
AcDbScale
  3
ObjectDBX Classes
 90
     1153
 91
        3
280
     0
281
     0
  0
CLASS
  1
TABLESTYLE
  2
AcDbTableStyle
  3
ObjectDBX Classes
 90
     4095
 91
        3
280
     0
281
     0
  0
CLASS
  1
MLEADERSTYLE
  2
AcDbMLeaderStyle
  3
ACDB_MLEADERSTYLE_CLASS
 90
     4095
 91
        3
280
     0
281
     0
  0
CLASS
  1
SUN
  2
AcDbSun
  3
SCENEOE
 90
     1153
 91
        3
280
     0
281
     0
  0
CLASS
  1
DICTIONARYVAR
  2
AcDbDictionaryVar
  3
ObjectDBX Classes
 90
        0
 91
        3
280
     0
281
     0
  0
CLASS
  1
CELLSTYLEMAP
  2
AcDbCellStyleMap
  3
ObjectDBX Classes
 90
     1152
 91
        3
280
     0
281
     0
  0
ENDSEC
  0
SECTION
  2
TABLES
  0
TABLE
  2
VPORT
  5
8
330
0
100
AcDbSymbolTable
 70
     1
  0
VPORT
  5
29
330
8
100
AcDbSymbolTableRecord
100
AcDbViewportTableRecord
  2
*Active
 70
     0
 10
0.0
 20
0.0
 11
1.0
 21
1.0
 12
3584.207746478873
 22
1436.776641727861
 13
0.0
 23
0.0
 14
0.5
 24
0.5
 15
0.5
 25
0.5
 16
0.0
 26
0.0
 36
1.0
 17
0.0
 27
0.0
 37
0.0
 40
2873.553283455723
 41
1.6
 42
50.0
 43
0.0
 44
0.0
 50
0.0
 51
0.0
 71
     0
 72
   100
 73
     1
 74
     3
 75
     0
 76
     0
 77
     0
 78
     0
281
     0
 65
     1
110
0.0
120
0.0
130
0.0
111
1.0
121
0.0
131
0.0
112
0.0
122
1.0
132
0.0
 79
     0
146
0.0
348
2F
 60
     3
 61
     5
292
     1
282
     1
141
0.0
142
0.0
 63
   250
361
5D
  0
ENDTAB
  0
TABLE
  2
LTYPE
  5
5
330
0
100
AcDbSymbolTable
 70
     3
  0
LTYPE
  5
14
330
5
100
AcDbSymbolTableRecord
100
AcDbLinetypeTableRecord
  2
ByBlock
 70
     0
  3

 72
    65
 73
     0
 40
0.0
  0
LTYPE
  5
15
330
5
100
AcDbSymbolTableRecord
100
AcDbLinetypeTableRecord
  2
ByLayer
 70
     0
  3

 72
    65
 73
     0
 40
0.0
  0
LTYPE
  5
16
330
5
100
AcDbSymbolTableRecord
100
AcDbLinetypeTableRecord
  2
Continuous
 70
     0
  3
Solid line
 72
    65
 73
     0
 40
0.0
  0
LTYPE
  5
64
330
5
100
AcDbSymbolTableRecord
100
AcDbLinetypeTableRecord
  2
________________
 70
     0
  3

 72
    65
 73
     0
 40
0.0
  0
LTYPE
  5
176
330
5
100
AcDbSymbolTableRecord
100
AcDbLinetypeTableRecord
  2
______....__....
 70
     0
  3

 72
    65
 73
     4
 40
7.2
 49
2.7
 74
     0
 49
-1.8
 74
     0
 49
0.8999999999999999
 74
     0
 49
-1.8
 74
     0
  0
ENDTAB
  0
TABLE
  2
LAYER
  5
2
330
0
100
AcDbSymbolTable
 70
     4
  0
LAYER
  5
10
330
2
100
AcDbSymbolTableRecord
100
AcDbLayerTableRecord
  2
0
 70
     0
 62
     7
  6
Continuous
370
    -3
390
F
347
46
348
0
  0
LAYER
  5
5E
330
2
100
AcDbSymbolTableRecord
100
AcDbLayerTableRecord
  2
1
 70
     0
 62
     7
  6
Continuous
370
    -3
390
F
347
46
348
0
  0
LAYER
  5
5F
330
2
100
AcDbSymbolTableRecord
100
AcDbLayerTableRecord
  2
57
 70
     0
 62
     7
  6
Continuous
370
    -3
390
F
347
46
348
0
  0
LAYER
  5
60
330
2
100
AcDbSymbolTableRecord
100
AcDbLayerTableRecord
  2
60
 70
     0
 62
     7
  6
Continuous
370
    -3
390
F
347
46
348
0
  0
ENDTAB
  0
TABLE
  2
STYLE
  5
3
330
0
100
AcDbSymbolTable
 70
     2
  0
STYLE
  5
11
330
3
100
AcDbSymbolTableRecord
100
AcDbTextStyleTableRecord
  2
Standard
 70
     0
 40
0.0
 41
1.0
 50
0.0
 71
     0
 42
0.2
  3
txt
  4

  0
STYLE
  5
61
330
3
100
AcDbSymbolTableRecord
100
AcDbTextStyleTableRecord
  2
ARIAL NARROW
 70
     0
 40
0.0
 41
1.0
 50
0.0
 71
     0
 42
0.2
  3
ARIALN.TTF
  4

1001
ACAD
1000
Arial Narrow
1071
      256
  0
ENDTAB
  0
TABLE
  2
VIEW
  5
6
330
0
100
AcDbSymbolTable
 70
     0
  0
ENDTAB
  0
TABLE
  2
UCS
  5
7
330
0
100
AcDbSymbolTable
 70
     0
  0
ENDTAB
  0
TABLE
  2
APPID
  5
9
330
0
100
AcDbSymbolTable
 70
     1
  0
APPID
  5
12
330
9
100
AcDbSymbolTableRecord
100
AcDbRegAppTableRecord
  2
ACAD
 70
     0
  0
ENDTAB
  0
TABLE
  2
DIMSTYLE
  5
A
330
0
100
AcDbSymbolTable
 70
     1
100
AcDbDimStyleTable
  0
DIMSTYLE
105
27
330
A
100
AcDbSymbolTableRecord
100
AcDbDimStyleTableRecord
  2
Standard
 70
     0
178
     0
340
11
  0
ENDTAB
  0
TABLE
  2
BLOCK_RECORD
  5
1
330
0
100
AcDbSymbolTable
 70
     8
  0
BLOCK_RECORD
  5
1F
330
1
100
AcDbSymbolTableRecord
100
AcDbBlockTableRecord
  2
*Model_Space
340
22
 70
     0
280
     1
281
     0
  0
BLOCK_RECORD
  5
1B
330
1
100
AcDbSymbolTableRecord
100
AcDbBlockTableRecord
  2
*Paper_Space
340
1E
 70
     0
280
     1
281
     0
  0
BLOCK_RECORD
  5
23
330
1
100
AcDbSymbolTableRecord
100
AcDbBlockTableRecord
  2
*Paper_Space0
340
26
 70
     0
280
     1
281
     0
  0
BLOCK_RECORD
  5
62
330
1
100
AcDbSymbolTableRecord
100
AcDbBlockTableRecord
  2
D_FRAME_VIEW@68
340
0
102
{BLKREFS
331
CA
102
}
 70
     0
280
     1
281
     0
  0
BLOCK_RECORD
  5
CB
330
1
100
AcDbSymbolTableRecord
100
AcDbBlockTableRecord
  2
D_FRAME_VIEW@39
340
0
102
{BLKREFS
331
EF
102
}
 70
     0
280
     1
281
     0
  0
BLOCK_RECORD
  5
F0
330
1
100
AcDbSymbolTableRecord
100
AcDbBlockTableRecord
  2
D_FRAME_VIEW@43
340
0
102
{BLKREFS
331
106
102
}
 70
     0
280
     1
281
     0
  0
BLOCK_RECORD
  5
107
330
1
100
AcDbSymbolTableRecord
100
AcDbBlockTableRecord
  2
D_FRAME_VIEW@45
340
0
102
{BLKREFS
331
174
102
}
 70
     0
280
     1
281
     0
  0
BLOCK_RECORD
  5
188
330
1
100
AcDbSymbolTableRecord
100
AcDbBlockTableRecord
  2
D_FRAME_VIEW@53
340
0
102
{BLKREFS
331
33A
102
}
 70
     0
280
     1
281
     0
  0
BLOCK_RECORD
  5
33B
330
1
100
AcDbSymbolTableRecord
100
AcDbBlockTableRecord
  2
D_FRAME_VIEW@61
340
0
102
{BLKREFS
331
3C0
102
}
 70
     0
280
     1
281
     0
  0
BLOCK_RECORD
  5
3C1
330
1
100
AcDbSymbolTableRecord
100
AcDbBlockTableRecord
  2
D_FRAME_DRAWING@24
340
0
102
{BLKREFS
331
3C2
102
}
 70
     0
280
     1
281
     0
  0
ENDTAB
  0
ENDSEC
  0
SECTION
  2
BLOCKS
  0
BLOCK
  5
20
330
1F
100
AcDbEntity
  8
0
100
AcDbBlockBegin
  2
*Model_Space
 70
     0
 10
0.0
 20
0.0
 30
0.0
  3
*Model_Space
  1

  0
ENDBLK
  5
21
330
1F
100
AcDbEntity
  8
0
100
AcDbBlockEnd
  0
BLOCK
  5
1C
330
1B
100
AcDbEntity
 67
     1
  8
0
100
AcDbBlockBegin
  2
*Paper_Space
 70
     0
 10
0.0
 20
0.0
 30
0.0
  3
*Paper_Space
  1

  0
ENDBLK
  5
1D
330
1B
100
AcDbEntity
 67
     1
  8
0
100
AcDbBlockEnd
  0
BLOCK
  5
24
330
23
100
AcDbEntity
  8
0
100
AcDbBlockBegin
  2
*Paper_Space0
 70
     0
 10
0.0
 20
0.0
 30
0.0
  3
*Paper_Space0
  1

  0
ENDBLK
  5
25
330
23
100
AcDbEntity
  8
0
100
AcDbBlockEnd
  0
BLOCK
  5
CC
330
62
100
AcDbEntity
  8
0
100
AcDbBlockBegin
  2
D_FRAME_VIEW@68
 70
     0
 10
0.0
 20
0.0
 30
0.0
  3
D_FRAME_VIEW@68
  1

  0
LINE
  5
63
330
62
100
AcDbEntity
  8
0
  6
________________
 62
     7
370
     9
100
AcDbLine
 10
3392.034416523913
 20
1172.080360537575
 30
0.0
 11
3392.034416523913
 21
1415.816898627373
 31
0.0
  0
LINE
  5
65
330
62
100
AcDbEntity
  8
0
  6
________________
 62
     7
370
     9
100
AcDbLine
 10
3392.034416523913
 20
1415.816898627373
 30
0.0
 11
4482.341162352811
 21
1638.374831160306
 31
0.0
  0
LINE
  5
66
330
62
100
AcDbEntity
  8
0
  6
________________
 62
     7
370
     9
100
AcDbLine
 10
4482.341162352811
 20
1638.374831160306
 30
0.0
 11
4482.341162352811
 21
1394.638293070507
 31
0.0
  0
LINE
  5
67
330
62
100
AcDbEntity
  8
0
  6
________________
 62
     7
370
     9
100
AcDbLine
 10
4482.341162352811
 20
1394.638293070507
 30
0.0
 11
3392.034416523913
 21
1172.080360537575
 31
0.0
  0
LINE
  5
68
330
62
100
AcDbEntity
  8
0
  6
________________
 62
     7
370
     9
100
AcDbLine
 10
4477.869026397811
 20
1642.026314877007
 30
0.0
 11
3387.562280568914
 21
1419.468382344075
 31
0.0
  0
LINE
  5
69
330
62
100
AcDbEntity
  8
0
  6
________________
 62
     7
370
     9
100
AcDbLine
 10
4477.869026397811
 20
1642.026314877007
 30
0.0
 11
4482.341162352811
 21
1638.374831160306
 31
0.0
  0
LINE
  5
6A
330
62
100
AcDbEntity
  8
0
  6
________________
 62
     7
370
     9
100
AcDbLine
 10
3387.562280568914
 20
1419.468382344075
 30
0.0
 11
3392.034416523913
 21
1415.816898627373
 31
0.0
  0
LINE
  5
6B
330
62
100
AcDbEntity
  8
0
  6
________________
 62
     7
370
     9
100
AcDbLine
 10
3387.562280568914
 20
1419.468382344075
 30
0.0
 11
3387.562280568914
 21
1175.731844254276
 31
0.0
  0
LINE
  5
6C
330
62
100
AcDbEntity
  8
0
  6
________________
 62
     7
370
     9
100
AcDbLine
 10
3387.562280568914
 20
1175.731844254276
 30
0.0
 11
3392.034416523913
 21
1172.080360537575
 31
0.0
  0
LINE
  5
6D
330
62
100
AcDbEntity
  8
0
  6
________________
 62
     7
370
     9
100
AcDbLine
 10
3387.562280568914
 20
1172.99323146675
 30
0.0
 11
3387.562280568914
 21
929.2566933769507
 31
0.0
  0
LINE
  5
6E
330
62
100
AcDbEntity
  8
0
  6
________________
 62
     7
370
     9
100
AcDbLine
 10
3387.562280568914
 20
1172.99323146675
 30
0.0
 11
3392.034416523913
 21
1169.341747750048
 31
0.0
  0
LINE
  5
6F
330
62
100
AcDbEntity
  8
0
  6
________________
 62
     7
370
     9
100
AcDbLine
 10
3392.034416523913
 20
925.6052096602496
 30
0.0
 11
3392.034416523913
 21
1169.341747750048
 31
0.0
  0
LINE
  5
70
330
62
100
AcDbEntity
  8
0
  6
________________
 62
     7
370
     9
100
AcDbLine
 10
3387.562280568914
 20
929.2566933769507
 30
0.0
 11
3392.034416523913
 21
925.6052096602496
 31
0.0
  0
LINE
  5
71
330
62
100
AcDbEntity
  8
0
  6
________________
 62
     7
370
     9
100
AcDbLine
 10
3392.034416523913
 20
1169.341747750048
 30
0.0
 11
4482.341162352811
 21
1391.899680282981
 31
0.0
  0
LINE
  5
72
330
62
100
AcDbEntity
  8
0
  6
________________
 62
     7
370
     9
100
AcDbLine
 10
4482.341162352811
 20
1391.899680282981
 30
0.0
 11
4482.341162352811
 21
1148.163142193182
 31
0.0
  0
LINE
  5
73
330
62
100
AcDbEntity
  8
0
  6
________________
 62
     7
370
     9
100
AcDbLine
 10
4482.341162352811
 20
1148.163142193182
 30
0.0
 11
3392.034416523913
 21
925.6052096602496
 31
0.0
  0
LINE
  5
74
330
62
100
AcDbEntity
  8
0
  6
________________
 62
     7
370
     9
100
AcDbLine
 10
3390.245562141914
 20
1173.540954024255
 30
0.0
 11
3387.562280568914
 21
1172.99323146675
 31
0.0
  0
LINE
  5
75
330
62
100
AcDbEntity
  8
0
  6
________________
 62
     7
370
     9
100
AcDbLine
 10
4479.657880779811
 20
1394.090570513002
 30
0.0
 11
4482.341162352811
 21
1391.899680282981
 31
0.0
  0
LINE
  5
76
330
62
100
AcDbEntity
  8
0
  6
________________
 62
     7
370
     9
100
AcDbLine
 10
4472.278856454061
 20
1646.818887255177
 30
0.0
 11
4462.887370948562
 21
1654.48700306025
 31
0.0
  0
LINE
  5
77
330
62
100
AcDbEntity
  8
0
  6
________________
 62
     7
370
     9
100
AcDbLine
 10
4463.334584544063
 20
1644.993145396827
 30
0.0
 11
4472.278856454061
 21
1646.818887255177
 31
0.0
  0
LINE
  5
78
330
62
100
AcDbEntity
  8
0
  6
________________
 62
     7
370
     9
100
AcDbLine
 10
4462.887370948562
 20
1645.358293768497
 30
0.0
 11
4463.334584544063
 21
1644.993145396827
 31
0.0
  0
LINE
  5
79
330
62
100
AcDbEntity
  8
0
  6
________________
 62
     7
370
     9
100
AcDbLine
 10
4463.334584544063
 20
1644.993145396827
 30
0.0
 11
4463.334584544063
 21
1639.059484357187
 31
0.0
  0
LINE
  5
7A
330
62
100
AcDbEntity
  8
0
  6
________________
 62
     7
370
     9
100
AcDbLine
 10
4472.278856454061
 20
1640.885226215538
 30
0.0
 11
4472.278856454061
 21
1646.818887255177
 31
0.0
  0
LINE
  5
7B
330
62
100
AcDbEntity
  8
0
  6
________________
 62
     7
370
     9
100
AcDbLine
 10
3381.524897029664
 20
1424.169667629327
 30
0.0
 11
3381.524897029664
 21
933.9579786622035
 31
0.0
  0
LINE
  5
7C
330
62
100
AcDbEntity
  8
0
  6
________________
 62
     7
370
     9
100
AcDbLine
 10
3381.524897029664
 20
1424.169667629327
 30
0.0
 11
3390.469168939664
 21
1425.995409487678
 31
0.0
  0
LINE
  5
7D
330
62
100
AcDbEntity
  8
0
  6
________________
 62
     7
370
     9
100
AcDbLine
 10
3390.469168939664
 20
1420.061748448038
 30
0.0
 11
3390.469168939664
 21
1425.995409487678
 31
0.0
  0
LINE
  5
7E
330
62
100
AcDbEntity
  8
0
  6
________________
 62
     7
370
     9
100
AcDbLine
 10
3381.524897029664
 20
933.9579786622035
 30
0.0
 11
3387.562280568914
 21
935.19035441659
 31
0.0
  0
LINE
  5
7F
330
62
100
AcDbEntity
  8
0
  6
________________
 62
     7
370
     9
100
AcDbLine
 10
3176.701070290684
 20
1591.407621854238
 30
0.0
 11
3185.645342200683
 21
1593.233363712588
 31
0.0
  0
LINE
  5
80
330
62
100
AcDbEntity
  8
0
  6
________________
 62
     7
370
     9
100
AcDbLine
 10
3390.469168939664
 20
1425.995409487678
 30
0.0
 11
3185.645342200683
 21
1593.233363712588
 31
0.0
  0
LINE
  5
81
330
62
100
AcDbEntity
  8
0
  6
________________
 62
     7
370
     9
100
AcDbLine
 10
3176.701070290684
 20
1591.407621854238
 30
0.0
 11
3381.524897029664
 21
1424.169667629327
 31
0.0
  0
LINE
  5
82
330
62
100
AcDbEntity
  8
0
  6
________________
 62
     7
370
     9
100
AcDbLine
 10
3381.524897029664
 20
933.9579786622035
 30
0.0
 11
3176.701070290684
 21
1101.195932887114
 31
0.0
  0
LINE
  5
83
330
62
100
AcDbEntity
  8
0
  6
________________
 62
     7
370
     9
100
AcDbLine
 10
3176.701070290684
 20
1101.195932887114
 30
0.0
 11
3176.701070290684
 21
1591.407621854238
 31
0.0
  0
LINE
  5
84
330
62
100
AcDbEntity
  8
0
  6
________________
 62
     7
370
     9
100
AcDbLine
 10
4448.576535892564
 20
1654.304428874414
 30
0.0
 11
4448.576535892564
 21
1636.047010290909
 31
0.0
  0
LINE
  5
85
330
62
100
AcDbEntity
  8
0
  6
________________
 62
     7
370
     9
100
AcDbLine
 10
4448.576535892564
 20
1654.304428874414
 30
0.0
 11
4462.887370948562
 21
1657.225615847775
 31
0.0
  0
LINE
  5
86
330
62
100
AcDbEntity
  8
0
  6
________________
 62
     7
370
     9
100
AcDbLine
 10
4462.887370948562
 20
1638.96819726427
 30
0.0
 11
4462.887370948562
 21
1657.225615847775
 31
0.0
  0
LINE
  5
87
330
62
100
AcDbEntity
  8
0
  6
________________
 62
     7
370
     9
100
AcDbLine
 10
4244.199922749083
 20
1821.177234727655
 30
0.0
 11
4448.576535892564
 21
1654.304428874414
 31
0.0
  0
LINE
  5
88
330
62
100
AcDbEntity
  8
0
  6
________________
 62
     7
370
     9
100
AcDbLine
 10
4244.199922749083
 20
1821.177234727655
 30
0.0
 11
4258.510757805082
 21
1824.098421701016
 31
0.0
  0
LINE
  5
89
330
62
100
AcDbEntity
  8
0
  6
________________
 62
     7
370
     9
100
AcDbLine
 10
4462.887370948562
 20
1657.225615847775
 30
0.0
 11
4258.510757805082
 21
1824.098421701016
 31
0.0
  0
LINE
  5
8A
330
62
100
AcDbEntity
  8
0
  6
________________
 62
     7
370
     9
100
AcDbLine
 10
4244.199922749083
 20
1594.328808827599
 30
0.0
 11
4244.199922749083
 21
1594.557026559892
 31
0.0
  0
LINE
  5
8B
330
62
100
AcDbEntity
  8
0
  6
________________
 62
     7
370
     9
100
AcDbLine
 10
4244.199922749083
 20
1612.814445143398
 30
0.0
 11
4244.199922749083
 21
1821.177234727655
 31
0.0
  0
LINE
  5
8C
330
62
100
AcDbEntity
  8
0
  6
________________
 62
     7
370
     9
100
AcDbLine
 10
3185.645342200683
 20
1605.100685791867
 30
0.0
 11
3390.021955344164
 21
1438.227879938626
 31
0.0
  0
LINE
  5
8D
330
62
100
AcDbEntity
  8
0
  6
________________
 62
     7
370
     9
100
AcDbLine
 10
3390.021955344164
 20
1438.227879938626
 30
0.0
 11
3390.021955344164
 21
1426.360557859348
 31
0.0
  0
LINE
  5
8E
330
62
100
AcDbEntity
  8
0
  6
________________
 62
     7
370
     9
100
AcDbLine
 10
3185.645342200683
 20
1593.233363712588
 30
0.0
 11
3185.645342200683
 21
1605.100685791867
 31
0.0
  0
LINE
  5
8F
330
62
100
AcDbEntity
  8
0
  6
________________
 62
     7
370
     9
100
AcDbLine
 10
3390.021955344164
 20
1438.227879938626
 30
0.0
 11
3404.332790400162
 21
1441.149066911987
 31
0.0
  0
LINE
  5
90
330
62
100
AcDbEntity
  8
0
  6
________________
 62
     7
370
     9
100
AcDbLine
 10
3404.332790400162
 20
1422.891648328482
 30
0.0
 11
3404.332790400162
 21
1441.149066911987
 31
0.0
  0
LINE
  5
91
330
62
100
AcDbEntity
  8
0
  6
________________
 62
     7
370
     9
100
AcDbLine
 10
3185.645342200683
 20
1605.100685791867
 30
0.0
 11
3199.956177256682
 21
1608.021872765228
 31
0.0
  0
LINE
  5
92
330
62
100
AcDbEntity
  8
0
  6
________________
 62
     7
370
     9
100
AcDbLine
 10
3404.332790400162
 20
1441.149066911987
 30
0.0
 11
3199.956177256682
 21
1608.021872765228
 31
0.0
  0
ELLIPSE
  5
93
330
62
100
AcDbEntity
  8
0
  6
________________
 62
     7
370
     9
100
AcDbEllipse
 10
4266.560602524081
 20
1713.458465084972
 30
0.0
 11
1.199999999999959
 21
-5.87877538267943
 31
0.0
210
0.0
220
0.0
230
0.9999999999999999
 40
0.4082482904638629
 41
6.24404919779088
 42
7.390334024973771
  0
ELLIPSE
  5
94
330
62
100
AcDbEntity
  8
0
  6
________________
 62
     7
370
     9
100
AcDbEllipse
 10
4264.324534546581
 20
1713.002029620385
 30
0.0
 11
1.156255668237041
 21
-5.664472798763081
 31
0.0
210
0.0
220
0.0
230
1.0
 40
0.4082482904638633
 41
6.244049197790821
 42
7.390334024973728
  0
ELLIPSE
  5
95
330
62
100
AcDbEntity
  8
0
  6
________________
 62
     7
370
     9
100
AcDbEllipse
 10
4264.324534546581
 20
1713.002029620385
 30
0.0
 11
1.156255668237041
 21
-5.664472798763081
 31
0.0
210
0.0
220
0.0
230
1.0
 40
0.408248290463863
 41
3.180728762978664
 42
6.244049197790823
  0
ELLIPSE
  5
96
330
62
100
AcDbEntity
  8
0
  6
________________
 62
     7
370
     9
100
AcDbEllipse
 10
4266.560602524081
 20
1713.458465084972
 30
0.0
 11
1.199999999999959
 21
-5.87877538267943
 31
0.0
210
0.0
220
0.0
230
0.9999999999999999
 40
0.4082482904638631
 41
1.107148717794185
 42
3.180728762978486
  0
ELLIPSE
  5
97
330
62
100
AcDbEntity
  8
0
  6
________________
 62
     7
370
     9
100
AcDbEllipse
 10
4264.324534546581
 20
1713.002029620385
 30
0.0
 11
1.156255668237041
 21
-5.664472798763081
 31
0.0
210
0.0
220
0.0
230
1.0
 40
0.4082482904638628
 41
1.107148717794143
 42
3.180728762978664
  0
ELLIPSE
  5
98
330
62
100
AcDbEntity
  8
0
  6
________________
 62
     7
370
     9
100
AcDbEllipse
 10
4428.854416331016
 20
1658.494506439329
 30
0.0
 11
-0.8999999999999748
 21
4.409081537009596
 31
0.0
210
0.0
220
0.0
230
-1.0
 40
0.4082482904638634
 41
5.231843504665719
 42
6.283185307179586
  0
LINE
  5
99
330
62
100
AcDbEntity
  8
0
  6
________________
 62
     7
370
     9
100
AcDbLine
 10
4429.312715324513
 20
1656.99053220358
 30
0.0
 11
4428.182950137893
 21
1657.672790779724
 31
0.0
  0
LINE
  5
9A
330
62
100
AcDbEntity
  8
0
  6
________________
 62
     7
370
     9
100
AcDbLine
 10
4429.312715324513
 20
1657.903403132756
 30
0.0
 11
4429.312715324513
 21
1656.99053220358
 31
0.0
  0
LINE
  5
9B
330
62
100
AcDbEntity
  8
0
  6
________________
 62
     7
370
     9
100
AcDbLine
 10
4428.182950137893
 20
1658.585661708899
 30
0.0
 11
4429.312715324513
 21
1657.903403132756
 31
0.0
  0
LINE
  5
9C
330
62
100
AcDbEntity
  8
0
  6
________________
 62
     7
370
     9
100
AcDbLine
 10
4428.418288133512
 20
1660.459441734447
 30
0.0
 11
4428.182950137893
 21
1658.585661708899
 31
0.0
  0
LINE
  5
9D
330
62
100
AcDbEntity
  8
0
  6
________________
 62
     7
370
     9
100
AcDbLine
 10
4427.971074538013
 20
1660.824590106116
 30
0.0
 11
4428.418288133504
 21
1660.459441734453
 31
0.0
  0
LINE
  5
9E
330
62
100
AcDbEntity
  8
0
  6
________________
 62
     7
370
     9
100
AcDbLine
 10
4427.735736542393
 20
1658.950810080569
 30
0.0
 11
4427.971074538013
 21
1660.824590106116
 31
0.0
  0
LINE
  5
9F
330
62
100
AcDbEntity
  8
0
  6
________________
 62
     7
370
     9
100
AcDbLine
 10
4427.076647347013
 20
1659.729144991106
 30
0.0
 11
4427.735736542393
 21
1658.950810080569
 31
0.0
  0
LINE
  5
A0
330
62
100
AcDbEntity
  8
0
  6
________________
 62
     7
370
     9
100
AcDbLine
 10
4427.076647347013
 20
1658.816274061931
 30
0.0
 11
4427.076647347013
 21
1659.729144991106
 31
0.0
  0
LINE
  5
A1
330
62
100
AcDbEntity
  8
0
  6
________________
 62
     7
370
     9
100
AcDbLine
 10
4427.735736542393
 20
1658.037939151394
 30
0.0
 11
4427.076647347013
 21
1658.816274061931
 31
0.0
  0
LINE
  5
A2
330
62
100
AcDbEntity
  8
0
  6
________________
 62
     7
370
     9
100
AcDbLine
 10
4427.971074538013
 20
1656.26023546024
 30
0.0
 11
4427.735736542393
 21
1658.037939151394
 31
0.0
  0
LINE
  5
A3
330
62
100
AcDbEntity
  8
0
  6
________________
 62
     7
370
     9
100
AcDbLine
 10
4428.418288133512
 20
1655.89508708857
 30
0.0
 11
4427.971074538013
 21
1656.26023546024
 31
0.0
  0
LINE
  5
A4
330
62
100
AcDbEntity
  8
0
  6
________________
 62
     7
370
     9
100
AcDbLine
 10
4428.182950137893
 20
1657.672790779724
 30
0.0
 11
4428.418288133512
 21
1655.89508708857
 31
0.0
  0
ELLIPSE
  5
A5
330
62
100
AcDbEntity
  8
0
  6
________________
 62
     7
370
     9
100
AcDbEllipse
 10
4428.854416331016
 20
1658.494506439329
 30
0.0
 11
-0.8999999999999748
 21
4.409081537009596
 31
0.0
210
0.0
220
0.0
230
-1.0
 40
0.408248290463863
 41
2.034443935795867
 42
3.141592653590208
  0
ELLIPSE
  5
A6
330
62
100
AcDbEntity
  8
0
  6
________________
 62
     7
370
     9
100
AcDbEllipse
 10
4429.301629926515
 20
1658.585793532246
 30
0.0
 11
-0.8999999999999819
 21
4.409081537009634
 31
0.0
210
0.0
220
0.0
230
-0.9999999999999997
 40
0.408248290463863
 41
0.0
 42
2.034443935795565
  0
ELLIPSE
  5
A7
330
62
100
AcDbEntity
  8
0
  6
________________
 62
     7
370
     9
100
AcDbEllipse
 10
4428.854416331016
 20
1658.494506439329
 30
0.0
 11
-0.8999999999999747
 21
4.409081537009596
 31
0.0
210
0.0
220
0.0
230
-1.0
 40
0.408248290463863
 41
0.0
 42
2.034443935795867
  0
ELLIPSE
  5
A8
330
62
100
AcDbEntity
  8
0
  6
________________
 62
     7
370
     9
100
AcDbEllipse
 10
4428.854416331016
 20
1658.494506439329
 30
0.0
 11
-0.8999999999999747
 21
4.409081537009596
 31
0.0
210
0.0
220
0.0
230
-1.0
 40
0.408248290463863
 41
3.141592653590208
 42
4.194999663803243
  0
ELLIPSE
  5
A9
330
62
100
AcDbEntity
  8
0
  6
________________
 62
     7
370
     9
100
AcDbEllipse
 10
4429.301629926515
 20
1658.585793532246
 30
0.0
 11
-0.899999999999982
 21
4.409081537009634
 31
0.0
210
0.0
220
0.0
230
-0.9999999999999998
 40
0.408248290463863
 41
2.034443935795565
 42
3.141592653589984
  0
LINE
  5
AA
330
62
100
AcDbEntity
  8
0
  6
________________
 62
     7
370
     9
100
AcDbLine
 10
4429.312715324513
 20
1657.903403132756
 30
0.0
 11
4428.182950137893
 21
1657.672790779724
 31
0.0
  0
LINE
  5
AB
330
62
100
AcDbEntity
  8
0
  6
________________
 62
     7
370
     9
100
AcDbLine
 10
4428.206895544911
 20
1659.046985009227
 30
0.0
 11
4427.735736542393
 21
1658.950810080569
 31
0.0
  0
LINE
  5
AC
330
62
100
AcDbEntity
  8
0
  6
________________
 62
     7
370
     9
100
AcDbLine
 10
4427.735736542393
 20
1658.037939151394
 30
0.0
 11
4428.700347685673
 21
1658.234839576498
 31
0.0
  0
LINE
  5
AD
330
62
100
AcDbEntity
  8
0
  6
________________
 62
     7
370
     9
100
AcDbLine
 10
4428.32336748654
 20
1656.332146957229
 30
0.0
 11
4427.971074538013
 21
1656.26023546024
 31
0.0
  0
LINE
  5
AE
330
62
100
AcDbEntity
  8
0
  6
________________
 62
     7
370
     9
100
AcDbLine
 10
4427.735736542393
 20
1658.950810080569
 30
0.0
 11
4427.076647347013
 21
1658.816274061931
 31
0.0
  0
LINE
  5
AF
330
62
100
AcDbEntity
  8
0
  6
________________
 62
   253
420
 11316396
370
     9
100
AcDbLine
 10
3407.731613725962
 20
1423.813647966949
 30
0.0
 11
3407.731613725962
 21
1441.158195621279
 31
0.0
  0
ELLIPSE
  5
B0
330
62
100
AcDbEntity
  8
0
  6
________________
 62
     7
370
     9
100
AcDbEllipse
 10
3405.942759343962
 20
1425.274241453629
 30
0.0
 11
-4.000000000000003
 21
0.0
 31
0.0
210
0.0
220
0.0
230
1.0
 40
0.4082482904638629
 41
1.156558609518742
 42
2.034443935795653
  0
ELLIPSE
  5
B1
330
62
100
AcDbEntity
  8
0
  6
________________
 62
     7
370
     9
100
AcDbEllipse
 10
3405.942759343962
 20
1442.618789107959
 30
0.0
 11
-4.000000000000003
 21
0.0
 31
0.0
210
0.0
220
0.0
230
1.0
 40
0.4082482904638629
 41
1.156558609518675
 42
2.034443935795728
  0
LINE
  5
B2
330
62
100
AcDbEntity
  8
0
  6
________________
 62
     7
370
     9
100
AcDbLine
 10
3404.153904961962
 20
1442.253640736289
 30
0.0
 11
3379.945589430414
 21
1462.019647597818
 31
0.0
  0
ELLIPSE
  5
B3
330
62
100
AcDbEntity
  8
0
  6
________________
 62
     7
370
     9
100
AcDbEllipse
 10
3405.942759343962
 20
1442.618789107959
 30
0.0
 11
1.99999999999978
 21
0.0
 31
0.0
210
0.0
220
0.0
230
-1.0
 40
0.408248290463863
 41
1.107148717794239
 42
2.677945044589186
  0
LINE
  5
B4
330
62
100
AcDbEntity
  8
0
  6
________________
 62
     7
370
     9
100
AcDbLine
 10
4443.836071780264
 20
1653.565003421782
 30
0.0
 11
3406.837186534962
 21
1441.888492364619
 31
0.0
  0
ELLIPSE
  5
B5
330
62
100
AcDbEntity
  8
0
  6
________________
 62
     7
370
     9
100
AcDbEllipse
 10
4442.941644589265
 20
1654.295300165123
 30
0.0
 11
1.99999999999978
 21
0.0
 31
0.0
210
0.0
220
0.0
230
-1.0
 40
0.408248290463863
 41
5.819537698178779
 42
6.283185307179586
  0
LINE
  5
B6
330
62
100
AcDbEntity
  8
0
  6
________________
 62
     7
370
     9
100
AcDbLine
 10
4420.522183439716
 20
1674.426455398322
 30
0.0
 11
4444.730498971264
 21
1654.660448536793
 31
0.0
  0
LINE
  5
B7
330
62
100
AcDbEntity
  8
0
  6
________________
 62
     7
370
     9
100
AcDbLine
 10
4420.522183439716
 20
1674.426455398322
 30
0.0
 11
4422.311037821716
 21
1674.791603769992
 31
0.0
  0
LINE
  5
B8
330
62
100
AcDbEntity
  8
0
  6
________________
 62
     7
370
     9
100
AcDbLine
 10
4446.519353353264
 20
1655.025596908463
 30
0.0
 11
4422.311037821716
 21
1674.791603769992
 31
0.0
  0
ELLIPSE
  5
B9
330
62
100
AcDbEntity
  8
0
  6
________________
 62
     7
370
     9
100
AcDbEllipse
 10
4442.941644589265
 20
1654.295300165123
 30
0.0
 11
-4.000000000000448
 21
0.0
 31
0.0
210
0.0
220
0.0
230
1.0
 40
0.4082482904638631
 41
2.034443935795579
 42
3.141592653589793
  0
LINE
  5
BA
330
62
100
AcDbEntity
  8
0
  6
________________
 62
     7
370
     9
100
AcDbLine
 10
3407.731613725962
 20
1441.158195621279
 30
0.0
 11
4444.730498971264
 21
1652.834706678442
 31
0.0
  0
LINE
  5
BB
330
62
100
AcDbEntity
  8
0
  6
________________
 62
     7
370
     9
100
AcDbLine
 10
3379.006440879864
 20
1461.827944702691
 30
0.0
 11
3379.945589430414
 21
1462.019647597818
 31
0.0
  0
LINE
  5
BC
330
62
100
AcDbEntity
  8
0
  6
________________
 62
   253
420
 11316396
370
     9
100
AcDbLine
 10
4444.730498971264
 20
1635.490159024112
 30
0.0
 11
4444.730498971264
 21
1652.834706678442
 31
0.0
  0
LINE
  5
BD
330
62
100
AcDbEntity
  8
0
  6
________________
 62
     7
370
     9
100
AcDbLine
 10
3407.731613725962
 20
1423.813647966949
 30
0.0
 11
4444.730498971264
 21
1635.490159024112
 31
0.0
  0
ELLIPSE
  5
BE
330
62
100
AcDbEntity
  8
0
  6
________________
 62
     7
370
     9
100
AcDbEllipse
 10
4442.941644589265
 20
1654.295300165123
 30
0.0
 11
-4.000000000000447
 21
0.0
 31
0.0
210
0.0
220
0.0
230
1.0
 40
0.4082482904638629
 41
3.141592653589793
 42
3.605240262590647
  0
ELLIPSE
  5
BF
330
62
100
AcDbEntity
  8
0
  6
________________
 62
     7
370
     9
100
AcDbEllipse
 10
4442.941644589265
 20
1636.950752510792
 30
0.0
 11
-4.000000000000448
 21
0.0
 31
0.0
210
0.0
220
0.0
230
1.0
 40
0.4082482904638631
 41
2.034443935795629
 42
3.141592653589793
  0
ELLIPSE
  5
C0
330
62
100
AcDbEntity
  8
0
  6
________________
 62
     7
370
     9
100
AcDbEllipse
 10
4442.941644589265
 20
1654.295300165123
 30
0.0
 11
1.99999999999978
 21
0.0
 31
0.0
210
0.0
220
0.0
230
-1.0
 40
0.408248290463863
 41
0.0
 42
1.107148717794239
  0
LINE
  5
C1
330
62
100
AcDbEntity
  8
0
  6
________________
 62
   253
420
 11316396
370
     9
100
AcDbLine
 10
4444.730498971264
 20
1653.930151793453
 30
0.0
 11
4444.730498971264
 21
1654.660448536793
 31
0.0
  0
ELLIPSE
  5
C2
330
62
100
AcDbEntity
  8
0
  6
________________
 62
     7
370
     9
100
AcDbEllipse
 10
4423.800902701867
 20
1663.077118503789
 30
0.0
 11
2.399999999999962
 21
-11.75755076535907
 31
0.0
210
0.0
220
0.0
230
1.0
 40
0.4082482904638631
 41
3.335209197834529
 42
5.162273544933289
  0
LINE
  5
C3
330
62
100
AcDbEntity
  8
0
  6
________________
 62
     7
370
     9
100
AcDbLine
 10
4420.522183439716
 20
1657.081907743991
 30
0.0
 11
4428.630809533266
 21
1650.461242262587
 31
0.0
  0
LINE
  5
C4
330
62
100
AcDbEntity
  8
0
  6
________________
 62
     7
370
     9
100
AcDbLine
 10
4265.267618700353
 20
1719.313571167197
 30
0.0
 11
4263.078684650643
 21
1718.643695950136
 31
0.0
  0
LINE
  5
C5
330
62
100
AcDbEntity
  8
0
  6
________________
 62
     7
370
     9
100
AcDbLine
 10
4265.389425251427
 20
1707.32342515043
 30
0.0
 11
4267.665780972861
 21
1707.565023391116
 31
0.0
  0
ARC
  5
C6
330
62
100
AcDbEntity
  8
0
  6
________________
 62
     7
370
     9
100
AcDbCircle
 10
4436.743802435381
 20
1660.104890263651
 30
0.0
 40
9.902109160030417
100
AcDbArc
 50
178.4919097373688
 51
204.5366336804278
  0
LINE
  5
C7
330
62
100
AcDbEntity
  8
0
  6
________________
 62
     7
370
     9
100
AcDbLine
 10
4428.401629926516
 20
1662.994875069256
 30
0.0
 11
4427.954416331016
 21
1662.903587976338
 31
0.0
  0
LINE
  5
C8
330
62
100
AcDbEntity
  8
0
  6
________________
 62
     7
370
     9
100
AcDbLine
 10
4429.754416331016
 20
1654.085424902319
 30
0.0
 11
4430.201629926516
 21
1654.176711995237
 31
0.0
  0
LINE
  5
C9
330
62
100
AcDbEntity
  8
0
  6
________________
 62
     7
370
     9
100
AcDbLine
 10
4446.941644589265
 20
1636.950752510792
 30
0.0
 11
4446.941644589265
 21
1654.295300165123
 31
0.0
  0
ENDBLK
  5
CD
330
62
100
AcDbEntity
  8
0
100
AcDbBlockEnd
  0
BLOCK
  5
F1
330
CB
100
AcDbEntity
  8
0
100
AcDbBlockBegin
  2
D_FRAME_VIEW@39
 70
     0
 10
0.0
 20
0.0
 30
0.0
  3
D_FRAME_VIEW@39
  1

  0
LINE
  5
CE
330
CB
100
AcDbEntity
  8
0
  6
________________
 62
     7
370
     9
100
AcDbLine
 10
1646.158837647188
 20
2478.276641727861
 30
0.0
 11
1646.158837647188
 21
2745.276641727861
 31
0.0
  0
LINE
  5
CF
330
CB
100
AcDbEntity
  8
0
  6
________________
 62
     7
370
     9
100
AcDbLine
 10
1646.158837647188
 20
2745.276641727862
 30
0.0
 11
2865.158837647189
 21
2745.276641727862
 31
0.0
  0
LINE
  5
D0
330
CB
100
AcDbEntity
  8
0
  6
________________
 62
     7
370
     9
100
AcDbLine
 10
2865.158837647189
 20
2745.276641727862
 30
0.0
 11
2865.158837647189
 21
2478.276641727862
 31
0.0
  0
LINE
  5
D1
330
CB
100
AcDbEntity
  8
0
  6
________________
 62
     7
370
     9
100
AcDbLine
 10
2865.158837647189
 20
2478.276641727861
 30
0.0
 11
1646.158837647188
 21
2478.276641727861
 31
0.0
  0
LINE
  5
D2
330
CB
100
AcDbEntity
  8
0
  6
________________
 62
     7
370
     9
100
AcDbLine
 10
1646.158837647188
 20
2208.276641727862
 30
0.0
 11
1646.158837647188
 21
2475.276641727862
 31
0.0
  0
LINE
  5
D3
330
CB
100
AcDbEntity
  8
0
  6
________________
 62
     7
370
     9
100
AcDbLine
 10
1646.158837647188
 20
2475.276641727861
 30
0.0
 11
2865.158837647189
 21
2475.276641727861
 31
0.0
  0
LINE
  5
D4
330
CB
100
AcDbEntity
  8
0
  6
________________
 62
     7
370
     9
100
AcDbLine
 10
2865.158837647189
 20
2208.276641727862
 30
0.0
 11
1646.158837647188
 21
2208.276641727862
 31
0.0
  0
LINE
  5
D5
330
CB
100
AcDbEntity
  8
0
  6
________________
 62
     7
370
     9
100
AcDbLine
 10
2865.158837647189
 20
2475.276641727861
 30
0.0
 11
2865.158837647189
 21
2208.276641727861
 31
0.0
  0
LINE
  5
D6
330
CB
100
AcDbEntity
  8
0
  6
________________
 62
     7
370
     9
100
AcDbLine
 10
2865.408837647188
 20
2208.276641727862
 30
0.0
 11
2865.408837647188
 21
2745.276641727862
 31
0.0
  0
LINE
  5
D7
330
CB
100
AcDbEntity
  8
0
  6
________________
 62
     7
370
     9
100
AcDbLine
 10
2865.158837647189
 20
2208.276641727862
 30
0.0
 11
2865.408837647188
 21
2208.276641727862
 31
0.0
  0
LINE
  5
D8
330
CB
100
AcDbEntity
  8
0
  6
________________
 62
     7
370
     9
100
AcDbLine
 10
2855.408837647189
 20
2478.276641727861
 30
0.0
 11
2855.408837647189
 21
2475.276641727861
 31
0.0
  0
LINE
  5
D9
330
CB
100
AcDbEntity
  8
0
  6
________________
 62
     7
370
     9
100
AcDbLine
 10
2865.158837647189
 20
2745.276641727862
 30
0.0
 11
2865.408837647188
 21
2745.276641727862
 31
0.0
  0
LINE
  5
DA
330
CB
100
AcDbEntity
  8
0
  6
________________
 62
     7
370
     9
100
AcDbLine
 10
1645.908837647188
 20
2745.276641727862
 30
0.0
 11
1645.908837647188
 21
2208.276641727862
 31
0.0
  0
LINE
  5
DB
330
CB
100
AcDbEntity
  8
0
  6
________________
 62
     7
370
     9
100
AcDbLine
 10
1645.908837647188
 20
2745.276641727862
 30
0.0
 11
1646.158837647188
 21
2745.276641727862
 31
0.0
  0
LINE
  5
DC
330
CB
100
AcDbEntity
  8
0
  6
________________
 62
     7
370
     9
100
AcDbLine
 10
1645.908837647188
 20
2208.276641727862
 30
0.0
 11
1646.158837647188
 21
2208.276641727862
 31
0.0
  0
LINE
  5
DD
330
CB
100
AcDbEntity
  8
0
  6
________________
 62
     7
370
     9
100
AcDbLine
 10
1655.908837647188
 20
2475.276641727861
 30
0.0
 11
1655.908837647188
 21
2478.276641727861
 31
0.0
  0
LINE
  5
DE
330
CB
100
AcDbEntity
  8
0
  6
________________
 62
     7
370
     9
100
AcDbLine
 10
2839.408837647189
 20
2758.276641727861
 30
0.0
 11
2855.408837647189
 21
2758.276641727861
 31
0.0
  0
LINE
  5
DF
330
CB
100
AcDbEntity
  8
0
  6
________________
 62
     7
370
     9
100
AcDbLine
 10
2855.408837647189
 20
2745.276641727862
 30
0.0
 11
2855.408837647189
 21
2758.276641727862
 31
0.0
  0
LINE
  5
E0
330
CB
100
AcDbEntity
  8
0
  6
________________
 62
     7
370
     9
100
AcDbLine
 10
2839.408837647189
 20
2758.276641727861
 30
0.0
 11
2839.408837647189
 21
2745.276641727861
 31
0.0
  0
LINE
  5
E1
330
CB
100
AcDbEntity
  8
0
  6
________________
 62
     7
370
     9
100
AcDbLine
 10
2839.408837647189
 20
2478.276641727861
 30
0.0
 11
2839.408837647189
 21
2475.276641727861
 31
0.0
  0
LINE
  5
E2
330
CB
100
AcDbEntity
  8
0
  6
________________
 62
     7
370
     9
100
AcDbLine
 10
1655.908837647188
 20
2758.276641727861
 30
0.0
 11
1671.908837647188
 21
2758.276641727861
 31
0.0
  0
LINE
  5
E3
330
CB
100
AcDbEntity
  8
0
  6
________________
 62
     7
370
     9
100
AcDbLine
 10
1655.908837647188
 20
2758.276641727861
 30
0.0
 11
1655.908837647188
 21
2745.276641727861
 31
0.0
  0
LINE
  5
E4
330
CB
100
AcDbEntity
  8
0
  6
________________
 62
     7
370
     9
100
AcDbLine
 10
1671.908837647188
 20
2475.276641727861
 30
0.0
 11
1671.908837647188
 21
2478.276641727861
 31
0.0
  0
LINE
  5
E5
330
CB
100
AcDbEntity
  8
0
  6
________________
 62
     7
370
     9
100
AcDbLine
 10
1671.908837647188
 20
2745.276641727862
 30
0.0
 11
1671.908837647188
 21
2758.276641727862
 31
0.0
  0
LINE
  5
E6
330
CB
100
AcDbEntity
  8
0
  6
________________
 62
     7
370
     9
100
AcDbLine
 10
2839.358837647188
 20
2745.276641727862
 30
0.0
 11
2839.358837647188
 21
2757.276641727862
 31
0.0
  0
LINE
  5
E7
330
CB
100
AcDbEntity
  8
0
  6
________________
 62
   253
420
 11316396
370
     9
100
AcDbLine
 10
2835.358837647188
 20
2745.276641727862
 30
0.0
 11
2835.358837647188
 21
2757.276641727862
 31
0.0
  0
LINE
  5
E8
330
CB
100
AcDbEntity
  8
0
  6
________________
 62
     7
370
     9
100
AcDbLine
 10
2835.358837647188
 20
2757.276641727861
 30
0.0
 11
2839.358837647188
 21
2757.276641727861
 31
0.0
  0
LINE
  5
E9
330
CB
100
AcDbEntity
  8
0
  6
________________
 62
   253
420
 11316396
370
     9
100
AcDbLine
 10
1675.958837647189
 20
2745.276641727862
 30
0.0
 11
1675.958837647189
 21
2757.276641727862
 31
0.0
  0
LINE
  5
EA
330
CB
100
AcDbEntity
  8
0
  6
________________
 62
     7
370
     9
100
AcDbLine
 10
1675.958837647189
 20
2757.276641727861
 30
0.0
 11
2835.358837647188
 21
2757.276641727861
 31
0.0
  0
LINE
  5
EB
330
CB
100
AcDbEntity
  8
0
  6
________________
 62
     7
370
     9
100
AcDbLine
 10
1671.958837647189
 20
2745.276641727862
 30
0.0
 11
1671.958837647189
 21
2757.276641727862
 31
0.0
  0
LINE
  5
EC
330
CB
100
AcDbEntity
  8
0
  6
________________
 62
     7
370
     9
100
AcDbLine
 10
1671.958837647189
 20
2757.276641727861
 30
0.0
 11
1675.958837647189
 21
2757.276641727861
 31
0.0
  0
LINE
  5
ED
330
CB
100
AcDbEntity
  8
0
  6
________________
 62
     7
370
     9
100
AcDbLine
 10
1671.958837647189
 20
2751.626641727861
 30
0.0
 11
1671.908837647188
 21
2751.626641727861
 31
0.0
  0
LINE
  5
EE
330
CB
100
AcDbEntity
  8
0
  6
________________
 62
     7
370
     9
100
AcDbLine
 10
2839.358837647188
 20
2751.626641727861
 30
0.0
 11
2839.408837647189
 21
2751.626641727861
 31
0.0
  0
ENDBLK
  5
F2
330
CB
100
AcDbEntity
  8
0
100
AcDbBlockEnd
  0
BLOCK
  5
108
330
F0
100
AcDbEntity
  8
0
100
AcDbBlockBegin
  2
D_FRAME_VIEW@43
 70
     0
 10
0.0
 20
0.0
 30
0.0
  3
D_FRAME_VIEW@43
  1

  0
LINE
  5
F3
330
F0
100
AcDbEntity
  8
0
  6
________________
 62
     7
370
     9
100
AcDbLine
 10
4070.132919720622
 20
2478.276641727861
 30
0.0
 11
4070.132919720622
 21
2745.276641727861
 31
0.0
  0
LINE
  5
F4
330
F0
100
AcDbEntity
  8
0
  6
________________
 62
     7
370
     9
100
AcDbLine
 10
4060.132919720622
 20
2478.276641727861
 30
0.0
 11
4070.132919720622
 21
2478.276641727861
 31
0.0
  0
LINE
  5
F5
330
F0
100
AcDbEntity
  8
0
  6
________________
 62
     7
370
     9
100
AcDbLine
 10
4060.132919720622
 20
2745.276641727862
 30
0.0
 11
4070.132919720622
 21
2745.276641727862
 31
0.0
  0
LINE
  5
F6
330
F0
100
AcDbEntity
  8
0
  6
________________
 62
     7
370
     9
100
AcDbLine
 10
4060.132919720622
 20
2745.276641727862
 30
0.0
 11
4060.132919720622
 21
2478.276641727862
 31
0.0
  0
LINE
  5
F7
330
F0
100
AcDbEntity
  8
0
  6
________________
 62
     7
370
     9
100
AcDbLine
 10
4060.132919720622
 20
2475.276641727861
 30
0.0
 11
4070.132919720622
 21
2475.276641727861
 31
0.0
  0
LINE
  5
F8
330
F0
100
AcDbEntity
  8
0
  6
________________
 62
     7
370
     9
100
AcDbLine
 10
4060.132919720622
 20
2208.276641727862
 30
0.0
 11
4070.132919720622
 21
2208.276641727862
 31
0.0
  0
LINE
  5
F9
330
F0
100
AcDbEntity
  8
0
  6
________________
 62
     7
370
     9
100
AcDbLine
 10
4060.132919720622
 20
2475.276641727861
 30
0.0
 11
4060.132919720622
 21
2208.276641727861
 31
0.0
  0
LINE
  5
FA
330
F0
100
AcDbEntity
  8
0
  6
________________
 62
     7
370
     9
100
AcDbLine
 10
4070.132919720622
 20
2208.276641727862
 30
0.0
 11
4070.132919720622
 21
2475.276641727862
 31
0.0
  0
LINE
  5
FB
330
F0
100
AcDbEntity
  8
0
  6
________________
 62
     7
370
     9
100
AcDbLine
 10
4060.132919720622
 20
2480.276641727861
 30
0.0
 11
4047.132919720623
 21
2480.276641727861
 31
0.0
  0
LINE
  5
FC
330
F0
100
AcDbEntity
  8
0
  6
________________
 62
     7
370
     9
100
AcDbLine
 10
4060.132919720622
 20
2735.276641727862
 30
0.0
 11
4047.132919720623
 21
2735.276641727862
 31
0.0
  0
LINE
  5
FD
330
F0
100
AcDbEntity
  8
0
  6
________________
 62
     7
370
     9
100
AcDbLine
 10
4060.132919720622
 20
2210.276641727861
 30
0.0
 11
4047.132919720623
 21
2210.276641727861
 31
0.0
  0
LINE
  5
FE
330
F0
100
AcDbEntity
  8
0
  6
________________
 62
     7
370
     9
100
AcDbLine
 10
4060.132919720622
 20
2473.276641727861
 30
0.0
 11
4047.132919720623
 21
2473.276641727861
 31
0.0
  0
LINE
  5
FF
330
F0
100
AcDbEntity
  8
0
  6
________________
 62
     7
370
     9
100
AcDbLine
 10
4047.132919720623
 20
2745.276641727862
 30
0.0
 11
4047.132919720623
 21
2208.276641727862
 31
0.0
  0
LINE
  5
100
330
F0
100
AcDbEntity
  8
0
  6
________________
 62
     7
370
     9
100
AcDbLine
 10
4047.132919720623
 20
2208.276641727862
 30
0.0
 11
3589.132919720623
 21
2208.276641727862
 31
0.0
  0
LINE
  5
101
330
F0
100
AcDbEntity
  8
0
  6
________________
 62
     7
370
     9
100
AcDbLine
 10
3589.132919720623
 20
2208.276641727862
 30
0.0
 11
3589.132919720623
 21
2745.276641727862
 31
0.0
  0
LINE
  5
102
330
F0
100
AcDbEntity
  8
0
  6
________________
 62
     7
370
     9
100
AcDbLine
 10
3589.132919720623
 20
2745.276641727862
 30
0.0
 11
4047.132919720623
 21
2745.276641727862
 31
0.0
  0
LINE
  5
103
330
F0
100
AcDbEntity
  8
0
  6
________________
 62
     7
370
     9
100
AcDbLine
 10
4046.132919720623
 20
2758.276641727861
 30
0.0
 11
4046.132919720623
 21
2745.276641727861
 31
0.0
  0
LINE
  5
104
330
F0
100
AcDbEntity
  8
0
  6
________________
 62
     7
370
     9
100
AcDbLine
 10
3589.132919720623
 20
2745.276641727862
 30
0.0
 11
3589.132919720623
 21
2758.276641727862
 31
0.0
  0
LINE
  5
105
330
F0
100
AcDbEntity
  8
0
  6
________________
 62
     7
370
     9
100
AcDbLine
 10
3589.132919720623
 20
2758.276641727861
 30
0.0
 11
4046.132919720623
 21
2758.276641727861
 31
0.0
  0
ENDBLK
  5
109
330
F0
100
AcDbEntity
  8
0
100
AcDbBlockEnd
  0
BLOCK
  5
189
330
107
100
AcDbEntity
  8
0
100
AcDbBlockBegin
  2
D_FRAME_VIEW@45
 70
     0
 10
0.0
 20
0.0
 30
0.0
  3
D_FRAME_VIEW@45
  1

  0
LINE
  5
10A
330
107
100
AcDbEntity
  8
0
  6
________________
 62
     7
370
     9
100
AcDbLine
 10
1646.158837647188
 20
1145.241864836579
 30
0.0
 11
1646.158837647188
 21
1135.241864836579
 31
0.0
  0
LINE
  5
10B
330
107
100
AcDbEntity
  8
0
  6
________________
 62
     7
370
     9
100
AcDbLine
 10
2865.158837647189
 20
1145.241864836579
 30
0.0
 11
2865.158837647189
 21
1135.241864836579
 31
0.0
  0
LINE
  5
10C
330
107
100
AcDbEntity
  8
0
  6
________________
 62
     7
370
     9
100
AcDbLine
 10
2865.158837647189
 20
1145.241864836579
 30
0.0
 11
1646.158837647188
 21
1145.241864836579
 31
0.0
  0
LINE
  5
10D
330
107
100
AcDbEntity
  8
0
  6
________________
 62
     7
370
     9
100
AcDbLine
 10
1646.158837647188
 20
1135.241864836579
 30
0.0
 11
2865.158837647189
 21
1135.241864836579
 31
0.0
  0
LINE
  5
10E
330
107
100
AcDbEntity
  8
0
  6
________________
 62
     7
370
     9
100
AcDbLine
 10
2837.158837647189
 20
1145.241864836579
 30
0.0
 11
2837.158837647189
 21
1160.16975061668
 31
0.0
  0
LINE
  5
10F
330
107
100
AcDbEntity
  8
0
  6
________________
 62
     7
370
     9
100
AcDbLine
 10
1674.158837647188
 20
1145.241864836579
 30
0.0
 11
1674.158837647188
 21
1160.16975061668
 31
0.0
  0
LINE
  5
110
330
107
100
AcDbEntity
  8
0
  6
________________
 62
     7
370
     9
100
AcDbLine
 10
2855.408837647189
 20
1158.241864836579
 30
0.0
 11
2865.408837647188
 21
1158.241864836579
 31
0.0
  0
LINE
  5
111
330
107
100
AcDbEntity
  8
0
  6
________________
 62
     7
370
     9
100
AcDbLine
 10
2855.408837647189
 20
1159.241864836579
 30
0.0
 11
2855.408837647189
 21
1158.241864836579
 31
0.0
  0
LINE
  5
112
330
107
100
AcDbEntity
  8
0
  6
________________
 62
     7
370
     9
100
AcDbLine
 10
2855.408837647189
 20
1616.241864836579
 30
0.0
 11
2865.408837647188
 21
1616.241864836579
 31
0.0
  0
LINE
  5
113
330
107
100
AcDbEntity
  8
0
  6
________________
 62
     7
370
     9
100
AcDbLine
 10
2865.408837647188
 20
1158.241864836579
 30
0.0
 11
2865.408837647188
 21
1616.241864836579
 31
0.0
  0
LINE
  5
114
330
107
100
AcDbEntity
  8
0
  6
________________
 62
     7
370
     9
100
AcDbLine
 10
1645.908837647188
 20
1158.241864836579
 30
0.0
 11
1655.908837647188
 21
1158.241864836579
 31
0.0
  0
LINE
  5
115
330
107
100
AcDbEntity
  8
0
  6
________________
 62
     7
370
     9
100
AcDbLine
 10
1655.908837647188
 20
1158.241864836579
 30
0.0
 11
1655.908837647188
 21
1159.241864836579
 31
0.0
  0
LINE
  5
116
330
107
100
AcDbEntity
  8
0
  6
________________
 62
     7
370
     9
100
AcDbLine
 10
1645.908837647188
 20
1616.241864836579
 30
0.0
 11
1645.908837647188
 21
1158.241864836579
 31
0.0
  0
LINE
  5
117
330
107
100
AcDbEntity
  8
0
  6
________________
 62
     7
370
     9
100
AcDbLine
 10
1645.908837647188
 20
1616.241864836579
 30
0.0
 11
1655.908837647188
 21
1616.241864836579
 31
0.0
  0
LINE
  5
118
330
107
100
AcDbEntity
  8
0
  6
________________
 62
     7
370
     9
100
AcDbLine
 10
2839.408837647189
 20
1616.241864836579
 30
0.0
 11
2839.408837647189
 21
1159.241864836579
 31
0.0
  0
LINE
  5
119
330
107
100
AcDbEntity
  8
0
  6
________________
 62
     7
370
     9
100
AcDbLine
 10
2839.408837647189
 20
1616.241864836579
 30
0.0
 11
2855.408837647189
 21
1616.241864836579
 31
0.0
  0
LINE
  5
11A
330
107
100
AcDbEntity
  8
0
  6
________________
 62
     7
370
     9
100
AcDbLine
 10
2839.408837647189
 20
1159.241864836579
 30
0.0
 11
2855.408837647189
 21
1159.241864836579
 31
0.0
  0
LINE
  5
11B
330
107
100
AcDbEntity
  8
0
  6
________________
 62
     7
370
     9
100
AcDbLine
 10
2855.408837647189
 20
1159.241864836579
 30
0.0
 11
2855.408837647189
 21
1616.241864836579
 31
0.0
  0
LINE
  5
11C
330
107
100
AcDbEntity
  8
0
  6
________________
 62
     7
370
     9
100
AcDbLine
 10
1655.908837647188
 20
1159.241864836579
 30
0.0
 11
1671.908837647188
 21
1159.241864836579
 31
0.0
  0
LINE
  5
11D
330
107
100
AcDbEntity
  8
0
  6
________________
 62
     7
370
     9
100
AcDbLine
 10
1655.908837647188
 20
1616.241864836579
 30
0.0
 11
1671.908837647188
 21
1616.241864836579
 31
0.0
  0
LINE
  5
11E
330
107
100
AcDbEntity
  8
0
  6
________________
 62
     7
370
     9
100
AcDbLine
 10
1671.908837647188
 20
1159.241864836579
 30
0.0
 11
1671.908837647188
 21
1616.241864836579
 31
0.0
  0
LINE
  5
11F
330
107
100
AcDbEntity
  8
0
  6
________________
 62
     7
370
     9
100
AcDbLine
 10
1655.908837647188
 20
1616.241864836579
 30
0.0
 11
1655.908837647188
 21
1159.241864836579
 31
0.0
  0
LINE
  5
120
330
107
100
AcDbEntity
  8
0
  6
________________
 62
     7
370
     9
100
AcDbLine
 10
1674.408837647188
 20
1572.023143177764
 30
0.0
 11
1674.408837647188
 21
1560.460586495393
 31
0.0
  0
LINE
  5
121
330
107
100
AcDbEntity
  8
0
  6
________________
 62
     7
370
     9
100
AcDbLine
 10
1674.408837647188
 20
1214.023143177764
 30
0.0
 11
1674.408837647188
 21
1202.741864836579
 31
0.0
  0
LINE
  5
122
330
107
100
AcDbEntity
  8
0
  6
________________
 62
     7
370
     9
100
AcDbLine
 10
2836.908837647188
 20
1560.460586495393
 30
0.0
 11
2836.908837647188
 21
1572.023143177764
 31
0.0
  0
LINE
  5
123
330
107
100
AcDbEntity
  8
0
  6
________________
 62
     7
370
     9
100
AcDbLine
 10
2836.908837647188
 20
1202.741864836579
 30
0.0
 11
2836.908837647188
 21
1214.023143177764
 31
0.0
  0
LINE
  5
124
330
107
100
AcDbEntity
  8
0
  6
________________
 62
     7
370
     9
100
AcDbLine
 10
1675.208696070788
 20
1195.741864836579
 30
0.0
 11
1675.196443795449
 21
1195.741864836579
 31
0.0
  0
LINE
  5
125
330
107
100
AcDbEntity
  8
0
  6
________________
 62
     7
370
     9
100
AcDbLine
 10
1674.458837647188
 20
1193.741864836579
 30
0.0
 11
1674.458837647188
 21
1202.741864836579
 31
0.0
  0
LINE
  5
126
330
107
100
AcDbEntity
  8
0
  6
________________
 62
     7
370
     9
100
AcDbLine
 10
1675.196443795449
 20
1200.741864836579
 30
0.0
 11
1675.208696070901
 21
1200.741864836579
 31
0.0
  0
ARC
  5
127
330
107
100
AcDbEntity
  8
0
  6
________________
 62
     7
370
     9
100
AcDbCircle
 10
1666.107373945003
 20
1198.52881804856
 30
0.0
 40
9.354612062093102
100
AcDbArc
 50
1.304996635022531
 51
13.68435222307679
  0
LINE
  5
128
330
107
100
AcDbEntity
  8
0
  6
________________
 62
     7
370
     9
100
AcDbLine
 10
1675.196443795449
 20
1198.741864836579
 30
0.0
 11
1675.459559673397
 21
1198.741864836579
 31
0.0
  0
LINE
  5
129
330
107
100
AcDbEntity
  8
0
  6
________________
 62
     7
370
     9
100
AcDbLine
 10
1675.196443795449
 20
1197.741864836579
 30
0.0
 11
1675.19644379545
 21
1198.74186483656
 31
0.0
  0
LINE
  5
12A
330
107
100
AcDbEntity
  8
0
  6
________________
 62
     7
370
     9
100
AcDbLine
 10
1675.459559673397
 20
1197.741864836579
 30
0.0
 11
1675.196443795449
 21
1197.741864836579
 31
0.0
  0
ARC
  5
12B
330
107
100
AcDbEntity
  8
0
  6
________________
 62
     7
370
     9
100
AcDbCircle
 10
1666.193391576111
 20
1197.943595322333
 30
0.0
 40
9.26836373887222
100
AcDbArc
 50
346.2578203890125
 51
358.7528307528879
  0
LINE
  5
12C
330
107
100
AcDbEntity
  8
0
  6
________________
 62
     7
370
     9
100
AcDbLine
 10
2836.108979223588
 20
1200.741864836579
 30
0.0
 11
2836.121231498928
 21
1200.741864836579
 31
0.0
  0
LINE
  5
12D
330
107
100
AcDbEntity
  8
0
  6
________________
 62
     7
370
     9
100
AcDbLine
 10
2836.858837647188
 20
1202.741864836579
 30
0.0
 11
2836.858837647188
 21
1193.741864836579
 31
0.0
  0
LINE
  5
12E
330
107
100
AcDbEntity
  8
0
  6
________________
 62
     7
370
     9
100
AcDbLine
 10
2836.121231498928
 20
1195.741864836579
 30
0.0
 11
2836.108979223476
 21
1195.741864836579
 31
0.0
  0
ARC
  5
12F
330
107
100
AcDbEntity
  8
0
  6
________________
 62
     7
370
     9
100
AcDbCircle
 10
2845.210301349382
 20
1197.954911624598
 30
0.0
 40
9.354612062101562
100
AcDbArc
 50
181.3049966350281
 51
193.6843522230713
  0
LINE
  5
130
330
107
100
AcDbEntity
  8
0
  6
________________
 62
     7
370
     9
100
AcDbLine
 10
2836.121231498928
 20
1197.741864836579
 30
0.0
 11
2835.85811562098
 21
1197.741864836579
 31
0.0
  0
LINE
  5
131
330
107
100
AcDbEntity
  8
0
  6
________________
 62
     7
370
     9
100
AcDbLine
 10
2836.121231498928
 20
1198.741864836579
 30
0.0
 11
2836.121231498927
 21
1197.741864836597
 31
0.0
  0
LINE
  5
132
330
107
100
AcDbEntity
  8
0
  6
________________
 62
     7
370
     9
100
AcDbLine
 10
2835.85811562098
 20
1198.741864836579
 30
0.0
 11
2836.121231498928
 21
1198.741864836579
 31
0.0
  0
ARC
  5
133
330
107
100
AcDbEntity
  8
0
  6
________________
 62
     7
370
     9
100
AcDbCircle
 10
2845.124283718193
 20
1198.540134350834
 30
0.0
 40
9.268363738798506
100
AcDbArc
 50
166.2578203889631
 51
178.7528307529383
  0
ARC
  5
134
330
107
100
AcDbEntity
  8
0
  6
________________
 62
     7
370
     9
100
AcDbCircle
 10
-1675.958837647189
 20
1163.741864836579
 30
0.0
 40
2.000000000000002
210
0.0
220
0.0
230
-1.0
100
AcDbArc
 50
270.0
 51
0.0
  0
LINE
  5
135
330
107
100
AcDbEntity
  8
0
  6
________________
 62
     7
370
     9
100
AcDbLine
 10
2835.358837647188
 20
1161.741864836579
 30
0.0
 11
1675.958837647189
 21
1161.741864836579
 31
0.0
  0
LINE
  5
136
330
107
100
AcDbEntity
  8
0
  6
________________
 62
     7
370
     9
100
AcDbLine
 10
2837.358837647188
 20
1217.873303985886
 30
0.0
 11
2837.358837647188
 21
1163.741864836579
 31
0.0
  0
LINE
  5
137
330
107
100
AcDbEntity
  8
0
  6
________________
 62
     7
370
     9
100
AcDbLine
 10
2837.358837647188
 20
1217.873303985886
 30
0.0
 11
2839.358837647188
 21
1217.873303985885
 31
0.0
  0
LINE
  5
138
330
107
100
AcDbEntity
  8
0
  6
________________
 62
     7
370
     9
100
AcDbLine
 10
2839.358837647188
 20
1163.741864836579
 30
0.0
 11
2839.358837647188
 21
1217.873303985885
 31
0.0
  0
ARC
  5
139
330
107
100
AcDbEntity
  8
0
  6
________________
 62
     7
370
     9
100
AcDbCircle
 10
2835.358837647188
 20
1163.741864836579
 30
0.0
 40
4.000000000000004
100
AcDbArc
 50
270.0
 51
0.0
  0
LINE
  5
13A
330
107
100
AcDbEntity
  8
0
  6
________________
 62
     7
370
     9
100
AcDbLine
 10
1675.958837647189
 20
1159.741864836579
 30
0.0
 11
2835.358837647188
 21
1159.741864836579
 31
0.0
  0
ARC
  5
13B
330
107
100
AcDbEntity
  8
0
  6
________________
 62
     7
370
     9
100
AcDbCircle
 10
1675.958837647189
 20
1163.741864836579
 30
0.0
 40
4.000000000000004
100
AcDbArc
 50
180.0
 51
270.0
  0
LINE
  5
13C
330
107
100
AcDbEntity
  8
0
  6
________________
 62
     7
370
     9
100
AcDbLine
 10
1671.958837647189
 20
1217.873303985886
 30
0.0
 11
1671.958837647189
 21
1163.741864836579
 31
0.0
  0
LINE
  5
13D
330
107
100
AcDbEntity
  8
0
  6
________________
 62
     7
370
     9
100
AcDbLine
 10
1671.958837647189
 20
1217.873303985886
 30
0.0
 11
1673.958837647188
 21
1217.873303985885
 31
0.0
  0
LINE
  5
13E
330
107
100
AcDbEntity
  8
0
  6
________________
 62
     7
370
     9
100
AcDbLine
 10
1673.958837647188
 20
1163.741864836579
 30
0.0
 11
1673.958837647188
 21
1217.873303985885
 31
0.0
  0
ARC
  5
13F
330
107
100
AcDbEntity
  8
0
  6
________________
 62
     7
370
     9
100
AcDbCircle
 10
-2835.358837647188
 20
1163.741864836579
 30
0.0
 40
2.000000000000224
210
0.0
220
0.0
230
-1.0
100
AcDbArc
 50
180.0
 51
270.0
  0
LINE
  5
140
330
107
100
AcDbEntity
  8
0
  6
________________
 62
     7
370
     9
100
AcDbLine
 10
1673.958837647188
 20
1222.541864836579
 30
0.0
 11
1673.958837647188
 21
1217.873303985885
 31
0.0
  0
LINE
  5
141
330
107
100
AcDbEntity
  8
0
  6
________________
 62
     7
370
     9
100
AcDbLine
 10
1671.958837647189
 20
1217.873303985886
 30
0.0
 11
1671.958837647189
 21
1222.541864836579
 31
0.0
  0
LINE
  5
142
330
107
100
AcDbEntity
  8
0
  6
________________
 62
     7
370
     9
100
AcDbLine
 10
2839.358837647188
 20
1222.541864836579
 30
0.0
 11
2839.358837647188
 21
1217.873303985885
 31
0.0
  0
LINE
  5
143
330
107
100
AcDbEntity
  8
0
  6
________________
 62
     7
370
     9
100
AcDbLine
 10
2837.358837647188
 20
1217.873303985886
 30
0.0
 11
2837.358837647188
 21
1222.541864836579
 31
0.0
  0
LINE
  5
144
330
107
100
AcDbEntity
  8
0
  6
________________
 62
     7
370
     9
100
AcDbLine
 10
2839.358837647188
 20
1215.241864836579
 30
0.0
 11
2839.408837647189
 21
1215.241864836579
 31
0.0
  0
LINE
  5
145
330
107
100
AcDbEntity
  8
0
  6
________________
 62
     7
370
     9
100
AcDbLine
 10
2839.358837647188
 20
1213.241864836579
 30
0.0
 11
2839.408837647189
 21
1213.241864836579
 31
0.0
  0
LINE
  5
146
330
107
100
AcDbEntity
  8
0
  6
________________
 62
     7
370
     9
100
AcDbLine
 10
2839.358837647188
 20
1181.241864836579
 30
0.0
 11
2839.408837647189
 21
1181.241864836579
 31
0.0
  0
LINE
  5
147
330
107
100
AcDbEntity
  8
0
  6
________________
 62
     7
370
     9
100
AcDbLine
 10
2839.358837647188
 20
1183.241864836579
 30
0.0
 11
2839.408837647189
 21
1183.241864836579
 31
0.0
  0
LINE
  5
148
330
107
100
AcDbEntity
  8
0
  6
________________
 62
     7
370
     9
100
AcDbLine
 10
1671.958837647189
 20
1215.241864836579
 30
0.0
 11
1671.908837647188
 21
1215.241864836579
 31
0.0
  0
LINE
  5
149
330
107
100
AcDbEntity
  8
0
  6
________________
 62
     7
370
     9
100
AcDbLine
 10
1671.958837647189
 20
1213.241864836579
 30
0.0
 11
1671.908837647188
 21
1213.241864836579
 31
0.0
  0
LINE
  5
14A
330
107
100
AcDbEntity
  8
0
  6
________________
 62
     7
370
     9
100
AcDbLine
 10
1671.958837647189
 20
1183.241864836579
 30
0.0
 11
1671.908837647188
 21
1183.241864836579
 31
0.0
  0
LINE
  5
14B
330
107
100
AcDbEntity
  8
0
  6
________________
 62
     7
370
     9
100
AcDbLine
 10
1671.958837647189
 20
1181.241864836579
 30
0.0
 11
1671.908837647188
 21
1181.241864836579
 31
0.0
  0
LINE
  5
14C
330
107
100
AcDbEntity
  8
0
  6
________________
 62
     7
370
     9
100
AcDbLine
 10
1675.958837647189
 20
1178.741864836579
 30
0.0
 11
1675.958837647189
 21
1161.741864836579
 31
0.0
  0
LINE
  5
14D
330
107
100
AcDbEntity
  8
0
  6
________________
 62
     7
370
     9
100
AcDbLine
 10
1675.958837647189
 20
1178.741864836579
 30
0.0
 11
2835.358837647188
 21
1178.741864836579
 31
0.0
  0
LINE
  5
14E
330
107
100
AcDbEntity
  8
0
  6
________________
 62
     7
370
     9
100
AcDbLine
 10
2835.358837647188
 20
1178.741864836579
 30
0.0
 11
2835.358837647188
 21
1161.741864836579
 31
0.0
  0
CIRCLE
  5
14F
330
107
100
AcDbEntity
  8
0
  6
________________
 62
     7
370
     9
100
AcDbCircle
 10
-2255.658837647189
 20
1167.741864836579
 30
0.0
 40
2.249999999999641
210
0.0
220
0.0
230
-1.0
  0
CIRCLE
  5
150
330
107
100
AcDbEntity
  8
0
  6
________________
 62
     7
370
     9
100
AcDbCircle
 10
-2463.358837647188
 20
1168.741864836579
 30
0.0
 40
2.250000000000085
210
0.0
220
0.0
230
-1.0
  0
CIRCLE
  5
151
330
107
100
AcDbEntity
  8
0
  6
________________
 62
     7
370
     9
100
AcDbCircle
 10
-1711.958837647189
 20
1168.741864836579
 30
0.0
 40
2.249999999999863
210
0.0
220
0.0
230
-1.0
  0
CIRCLE
  5
152
330
107
100
AcDbEntity
  8
0
  6
________________
 62
     7
370
     9
100
AcDbCircle
 10
-2799.358837647188
 20
1168.741864836579
 30
0.0
 40
2.250000000000085
210
0.0
220
0.0
230
-1.0
  0
CIRCLE
  5
153
330
107
100
AcDbEntity
  8
0
  6
________________
 62
     7
370
     9
100
AcDbCircle
 10
-2047.958837647188
 20
1168.741864836579
 30
0.0
 40
2.250000000000085
210
0.0
220
0.0
230
-1.0
  0
LINE
  5
154
330
107
100
AcDbEntity
  8
0
  6
________________
 62
     7
370
     9
100
AcDbLine
 10
2839.408837647189
 20
1167.741864836579
 30
0.0
 11
2839.358837647188
 21
1167.741864836579
 31
0.0
  0
LINE
  5
155
330
107
100
AcDbEntity
  8
0
  6
________________
 62
     7
370
     9
100
AcDbLine
 10
2837.358837647188
 20
1167.741864836579
 30
0.0
 11
2835.358837647188
 21
1167.741864836579
 31
0.0
  0
LINE
  5
156
330
107
100
AcDbEntity
  8
0
  6
________________
 62
     7
370
     9
100
AcDbLine
 10
2801.374402084263
 20
1167.741864836579
 30
0.0
 11
2797.343273210114
 21
1167.741864836579
 31
0.0
  0
LINE
  5
157
330
107
100
AcDbEntity
  8
0
  6
________________
 62
     7
370
     9
100
AcDbLine
 10
2465.374402084263
 20
1167.741864836579
 30
0.0
 11
2461.343273210114
 21
1167.741864836579
 31
0.0
  0
LINE
  5
158
330
107
100
AcDbEntity
  8
0
  6
________________
 62
     7
370
     9
100
AcDbLine
 10
2257.908837647189
 20
1167.741864836579
 30
0.0
 11
2253.408837647189
 21
1167.741864836579
 31
0.0
  0
LINE
  5
159
330
107
100
AcDbEntity
  8
0
  6
________________
 62
     7
370
     9
100
AcDbLine
 10
2049.974402084263
 20
1167.741864836579
 30
0.0
 11
2045.943273210114
 21
1167.741864836579
 31
0.0
  0
LINE
  5
15A
330
107
100
AcDbEntity
  8
0
  6
________________
 62
     7
370
     9
100
AcDbLine
 10
1713.974402084263
 20
1167.741864836579
 30
0.0
 11
1709.943273210114
 21
1167.741864836579
 31
0.0
  0
LINE
  5
15B
330
107
100
AcDbEntity
  8
0
  6
________________
 62
     7
370
     9
100
AcDbLine
 10
1675.958837647188
 20
1167.741864836579
 30
0.0
 11
1673.958837647189
 21
1167.741864836579
 31
0.0
  0
LINE
  5
15C
330
107
100
AcDbEntity
  8
0
  6
________________
 62
     7
370
     9
100
AcDbLine
 10
1671.958837647188
 20
1167.741864836579
 30
0.0
 11
1671.908837647188
 21
1167.741864836579
 31
0.0
  0
LINE
  5
15D
330
107
100
AcDbEntity
  8
0
  6
________________
 62
     7
370
     9
100
AcDbLine
 10
1671.908837647188
 20
1522.741864836579
 30
0.0
 11
2839.408837647189
 21
1522.741864836579
 31
0.0
  0
LINE
  5
15E
330
107
100
AcDbEntity
  8
0
  6
________________
 62
     7
370
     9
100
AcDbLine
 10
1671.908837647188
 20
1560.241864836579
 30
0.0
 11
1674.408837647188
 21
1560.460586495393
 31
0.0
  0
LINE
  5
15F
330
107
100
AcDbEntity
  8
0
  6
________________
 62
     7
370
     9
100
AcDbLine
 10
1674.408837647188
 20
1572.023143177764
 30
0.0
 11
1671.908837647188
 21
1572.241864836579
 31
0.0
  0
LINE
  5
160
330
107
100
AcDbEntity
  8
0
  6
________________
 62
     7
370
     9
100
AcDbLine
 10
1671.908837647188
 20
1202.241864836579
 30
0.0
 11
1671.958837647189
 21
1202.246239269755
 31
0.0
  0
LINE
  5
161
330
107
100
AcDbEntity
  8
0
  6
________________
 62
     7
370
     9
100
AcDbLine
 10
1674.408837647188
 20
1214.023143177764
 30
0.0
 11
1673.958837647188
 21
1214.062513076351
 31
0.0
  0
LINE
  5
162
330
107
100
AcDbEntity
  8
0
  6
________________
 62
     7
370
     9
100
AcDbLine
 10
2839.408837647189
 20
1572.241864836579
 30
0.0
 11
2836.908837647188
 21
1572.023143177764
 31
0.0
  0
LINE
  5
163
330
107
100
AcDbEntity
  8
0
  6
________________
 62
     7
370
     9
100
AcDbLine
 10
2836.908837647188
 20
1560.460586495393
 30
0.0
 11
2839.408837647189
 21
1560.241864836579
 31
0.0
  0
LINE
  5
164
330
107
100
AcDbEntity
  8
0
  6
________________
 62
     7
370
     9
100
AcDbLine
 10
2837.358837647188
 20
1214.062513076351
 30
0.0
 11
2836.908837647188
 21
1214.023143177764
 31
0.0
  0
LINE
  5
165
330
107
100
AcDbEntity
  8
0
  6
________________
 62
     7
370
     9
100
AcDbLine
 10
2839.358837647188
 20
1202.246239269755
 30
0.0
 11
2839.408837647189
 21
1202.241864836579
 31
0.0
  0
ARC
  5
166
330
107
100
AcDbEntity
  8
0
  6
________________
 62
     7
370
     9
100
AcDbCircle
 10
1666.466150481513
 20
1197.87912865117
 30
0.0
 40
8.999999999993648
100
AcDbArc
 50
332.6325086499947
 51
346.2615413092429
  0
ARC
  5
167
330
107
100
AcDbEntity
  8
0
  6
________________
 62
     7
370
     9
100
AcDbCircle
 10
1666.466150481501
 20
1198.604601021983
 30
0.0
 40
9.000000000005791
100
AcDbArc
 50
13.73843060488646
 51
27.36749134999418
  0
LINE
  5
168
330
107
100
AcDbEntity
  8
0
  6
________________
 62
     7
370
     9
100
AcDbLine
 10
1673.958837647188
 20
1193.741864836579
 30
0.0
 11
1674.458837647188
 21
1193.741864836579
 31
0.0
  0
LINE
  5
169
330
107
100
AcDbEntity
  8
0
  6
________________
 62
     7
370
     9
100
AcDbLine
 10
1674.458837647188
 20
1202.741864836579
 30
0.0
 11
1673.958837647188
 21
1202.741864836579
 31
0.0
  0
LINE
  5
16A
330
107
100
AcDbEntity
  8
0
  6
________________
 62
     7
370
     9
100
AcDbLine
 10
1671.908837647188
 20
1195.091864836579
 30
0.0
 11
1671.958837647189
 21
1195.091864836579
 31
0.0
  0
LINE
  5
16B
330
107
100
AcDbEntity
  8
0
  6
________________
 62
     7
370
     9
100
AcDbLine
 10
1671.958837647189
 20
1201.391864836579
 30
0.0
 11
1671.908837647188
 21
1201.391864836579
 31
0.0
  0
ARC
  5
16C
330
107
100
AcDbEntity
  8
0
  6
________________
 62
     7
370
     9
100
AcDbCircle
 10
2844.851524812877
 20
1198.604601021983
 30
0.0
 40
9.000000000006631
100
AcDbArc
 50
152.632508650008
 51
166.2615413092365
  0
ARC
  5
16D
330
107
100
AcDbEntity
  8
0
  6
________________
 62
     7
370
     9
100
AcDbCircle
 10
2844.851524812875
 20
1197.879128651172
 30
0.0
 40
9.000000000004833
100
AcDbArc
 50
193.7384306048729
 51
207.3674913499855
  0
LINE
  5
16E
330
107
100
AcDbEntity
  8
0
  6
________________
 62
     7
370
     9
100
AcDbLine
 10
2837.358837647188
 20
1202.741864836579
 30
0.0
 11
2836.858837647188
 21
1202.741864836579
 31
0.0
  0
LINE
  5
16F
330
107
100
AcDbEntity
  8
0
  6
________________
 62
     7
370
     9
100
AcDbLine
 10
2836.858837647188
 20
1193.741864836579
 30
0.0
 11
2837.358837647188
 21
1193.741864836579
 31
0.0
  0
LINE
  5
170
330
107
100
AcDbEntity
  8
0
  6
________________
 62
     7
370
     9
100
AcDbLine
 10
2839.408837647189
 20
1201.391864836579
 30
0.0
 11
2839.358837647188
 21
1201.391864836579
 31
0.0
  0
LINE
  5
171
330
107
100
AcDbEntity
  8
0
  6
________________
 62
     7
370
     9
100
AcDbLine
 10
2839.358837647188
 20
1195.091864836579
 30
0.0
 11
2839.408837647189
 21
1195.091864836579
 31
0.0
  0
LINE
  5
172
330
107
100
AcDbEntity
  8
0
  6
________________
 62
     7
370
     9
100
AcDbLine
 10
1673.958837647188
 20
1222.541864836579
 30
0.0
 11
1671.958837647189
 21
1222.541864836579
 31
0.0
  0
LINE
  5
173
330
107
100
AcDbEntity
  8
0
  6
________________
 62
     7
370
     9
100
AcDbLine
 10
2839.358837647189
 20
1222.541864836579
 30
0.0
 11
2837.358837647188
 21
1222.541864836579
 31
0.0
  0
ENDBLK
  5
18A
330
107
100
AcDbEntity
  8
0
100
AcDbBlockEnd
  0
BLOCK
  5
33C
330
188
100
AcDbEntity
  8
0
100
AcDbBlockBegin
  2
D_FRAME_VIEW@53
 70
     0
 10
0.0
 20
0.0
 30
0.0
  3
D_FRAME_VIEW@53
  1

  0
HATCH
  5
18B
330
188
100
AcDbEntity
  8
0
 62
   253
420
 11316396
100
AcDbHatch
 10
0.0
 20
0.0
 30
0.0
210
0.0
220
0.0
230
1.0
  2

 70
     0
 71
     1
 91
        1
 92
        3
 72
     0
 73
     1
 93
        4
 10
550.1588376471884
 20
2208.776641727861
 10
905.1588376471884
 20
2208.776641727861
 10
905.1588376471884
 20
2224.776641727861
 10
550.1588376471884
 20
2224.776641727861
 97
        0
 75
     0
 76
     0
 52
0.0
 41
1.0
 77
     0
 78
     1
 53
45.0
 43
0.0
 44
0.0
 45
-1.25
 46
1.25
 79
     0
 98
        0
  0
HATCH
  5
18C
330
188
100
AcDbEntity
  8
0
 62
   253
420
 11316396
100
AcDbHatch
 10
0.0
 20
0.0
 30
0.0
210
0.0
220
0.0
230
1.0
  2

 70
     0
 71
     1
 91
        1
 92
        3
 72
     0
 73
     1
 93
        4
 10
552.4088376471884
 20
2740.276641727861
 10
552.4088376471884
 20
2738.276641727861
 10
561.1588376471884
 20
2738.276641727861
 10
561.1588376471884
 20
2740.276641727861
 97
        0
 75
     0
 76
     0
 52
0.0
 41
1.0
 77
     0
 78
     1
 53
45.0
 43
0.0
 44
0.0
 45
-1.25
 46
1.25
 79
     0
 98
        0
  0
HATCH
  5
18D
330
188
100
AcDbEntity
  8
0
 62
   253
420
 11316396
100
AcDbHatch
 10
0.0
 20
0.0
 30
0.0
210
0.0
220
0.0
230
1.0
  2

 70
     0
 71
     1
 91
        1
 92
        3
 72
     0
 73
     1
 93
        6
 10
542.1588376471884
 20
2738.276641727861
 10
547.9088376471883
 20
2738.276641727861
 10
547.9088376471883
 20
2740.276641727861
 10
544.1588376471884
 20
2740.276641727861
 10
544.1588376471884
 20
2757.276641727861
 10
542.1588376471884
 20
2757.276641727861
 97
        0
 75
     0
 76
     0
 52
0.0
 41
1.0
 77
     0
 78
     1
 53
45.0
 43
0.0
 44
0.0
 45
-1.25
 46
1.25
 79
     0
 98
        0
  0
HATCH
  5
18E
330
188
100
AcDbEntity
  8
0
 62
   253
420
 11316396
100
AcDbHatch
 10
0.0
 20
0.0
 30
0.0
210
0.0
220
0.0
230
1.0
  2

 70
     0
 71
     1
 91
        1
 92
        3
 72
     0
 73
     1
 93
       10
 10
529.6588376471884
 20
2446.626641727861
 10
523.6588376471884
 20
2446.626641727861
 10
521.6588376471854
 20
2446.626641727861
 10
521.6588376471854
 20
2446.576641727861
 10
522.6588376471855
 20
2445.576641727861
 10
522.6588376471855
 20
2446.576641727861
 10
523.6588376471854
 20
2445.576641727861
 10
523.6588376471854
 20
2446.576641727861
 10
524.6588376471855
 20
2445.576641727861
 10
529.6588376471884
 20
2445.576641727861
 97
        0
 75
     0
 76
     0
 52
0.0
 41
1.0
 77
     0
 78
     1
 53
45.0
 43
0.0
 44
0.0
 45
-1.25
 46
1.25
 79
     0
 98
        0
  0
HATCH
  5
18F
330
188
100
AcDbEntity
  8
0
 62
   253
420
 11316396
100
AcDbHatch
 10
0.0
 20
0.0
 30
0.0
210
0.0
220
0.0
230
1.0
  2

 70
     0
 71
     1
 91
        1
 92
        3
 72
     0
 73
     1
 93
       10
 10
529.6588376471884
 20
2450.976641727861
 10
524.6588376471855
 20
2450.976641727861
 10
523.6588376471854
 20
2449.976641727862
 10
523.6588376471854
 20
2450.976641727861
 10
522.6588376471855
 20
2449.976641727862
 10
522.6588376471855
 20
2450.976641727861
 10
521.6588376471854
 20
2449.976641727862
 10
521.6588376471854
 20
2449.926641727861
 10
523.6588376471884
 20
2449.926641727861
 10
529.6588376471884
 20
2449.926641727861
 97
        0
 75
     0
 76
     0
 52
0.0
 41
1.0
 77
     0
 78
     1
 53
45.0
 43
0.0
 44
0.0
 45
-1.25
 46
1.25
 79
     0
 98
        0
  0
HATCH
  5
190
330
188
100
AcDbEntity
  8
0
 62
   253
420
 11316396
100
AcDbHatch
 10
0.0
 20
0.0
 30
0.0
210
0.0
220
0.0
230
1.0
  2

 70
     0
 71
     1
 91
        1
 92
        3
 72
     0
 73
     1
 93
       15
 10
541.2420772664229
 20
2448.276641727862
 10
544.4588376471884
 20
2451.276641727861
 10
544.4588376471884
 20
2453.126641727861
 10
543.6588376471883
 20
2453.126641727861
 10
543.6588376471883
 20
2450.651641727861
 10
541.6588376471883
 20
2450.651641727861
 10
541.0093185943484
 20
2450.276641727861
 10
524.4588376471884
 20
2450.276641727861
 10
524.4588376471884
 20
2446.276641727861
 10
541.0093185943484
 20
2446.276641727862
 10
541.6588376471883
 20
2445.901641727861
 10
543.6588376471883
 20
2445.901641727861
 10
543.6588376471883
 20
2443.426641727861
 10
544.4588376471884
 20
2443.426641727861
 10
544.4588376471888
 20
2445.276641727862
 97
        0
 75
     0
 76
     0
 52
0.0
 41
1.0
 77
     0
 78
     1
 53
45.0
 43
0.0
 44
0.0
 45
-1.25
 46
1.25
 79
     0
 98
        0
  0
HATCH
  5
191
330
188
100
AcDbEntity
  8
0
 62
   253
420
 11316396
100
AcDbHatch
 10
0.0
 20
0.0
 30
0.0
210
0.0
220
0.0
230
1.0
  2

 70
     0
 71
     1
 91
        1
 92
        3
 72
     0
 73
     1
 93
       10
 10
529.6588376471884
 20
2233.626641727859
 10
523.6588376471884
 20
2233.626641727859
 10
521.6588376471854
 20
2233.626641727859
 10
521.6588376471854
 20
2233.576641727859
 10
522.6588376471855
 20
2232.576641727859
 10
522.6588376471855
 20
2233.576641727859
 10
523.6588376471854
 20
2232.576641727859
 10
523.6588376471854
 20
2233.576641727859
 10
524.6588376471855
 20
2232.576641727859
 10
529.6588376471884
 20
2232.576641727859
 97
        0
 75
     0
 76
     0
 52
0.0
 41
1.0
 77
     0
 78
     1
 53
45.0
 43
0.0
 44
0.0
 45
-1.25
 46
1.25
 79
     0
 98
        0
  0
HATCH
  5
192
330
188
100
AcDbEntity
  8
0
 62
   253
420
 11316396
100
AcDbHatch
 10
0.0
 20
0.0
 30
0.0
210
0.0
220
0.0
230
1.0
  2

 70
     0
 71
     1
 91
        1
 92
        3
 72
     0
 73
     1
 93
       10
 10
529.6588376471884
 20
2237.976641727859
 10
524.6588376471855
 20
2237.976641727859
 10
523.6588376471854
 20
2236.976641727859
 10
523.6588376471854
 20
2237.976641727859
 10
522.6588376471855
 20
2236.976641727859
 10
522.6588376471855
 20
2237.976641727859
 10
521.6588376471854
 20
2236.976641727859
 10
521.6588376471854
 20
2236.926641727859
 10
523.6588376471884
 20
2236.926641727859
 10
529.6588376471884
 20
2236.926641727859
 97
        0
 75
     0
 76
     0
 52
0.0
 41
1.0
 77
     0
 78
     1
 53
45.0
 43
0.0
 44
0.0
 45
-1.25
 46
1.25
 79
     0
 98
        0
  0
HATCH
  5
193
330
188
100
AcDbEntity
  8
0
 62
   253
420
 11316396
100
AcDbHatch
 10
0.0
 20
0.0
 30
0.0
210
0.0
220
0.0
230
1.0
  2

 70
     0
 71
     1
 91
        1
 92
        3
 72
     0
 73
     1
 93
       15
 10
541.2420772664236
 20
2235.276641727859
 10
544.4588376471884
 20
2238.276641727859
 10
544.4588376471884
 20
2240.126641727859
 10
543.6588376471883
 20
2240.126641727859
 10
543.6588376471883
 20
2237.651641727859
 10
541.6588376471883
 20
2237.651641727859
 10
541.0093185943484
 20
2237.276641727859
 10
524.4588376471884
 20
2237.276641727859
 10
524.4588376471884
 20
2233.276641727859
 10
541.0093185943484
 20
2233.27664172786
 10
541.6588376471883
 20
2232.901641727859
 10
543.6588376471883
 20
2232.901641727859
 10
543.6588376471883
 20
2230.426641727859
 10
544.4588376471884
 20
2230.426641727859
 10
544.4588376471883
 20
2232.276641727859
 97
        0
 75
     0
 76
     0
 52
0.0
 41
1.0
 77
     0
 78
     1
 53
45.0
 43
0.0
 44
0.0
 45
-1.25
 46
1.25
 79
     0
 98
        0
  0
HATCH
  5
194
330
188
100
AcDbEntity
  8
0
 62
   253
420
 11316396
100
AcDbHatch
 10
0.0
 20
0.0
 30
0.0
210
0.0
220
0.0
230
1.0
  2

 70
     0
 71
     1
 91
        1
 92
        3
 72
     0
 73
     1
 93
       10
 10
529.6588376471884
 20
2716.626641727861
 10
523.6588376471884
 20
2716.626641727861
 10
521.6588376471884
 20
2716.626641727861
 10
521.6588376471884
 20
2716.576641727861
 10
522.6588376471883
 20
2715.576641727861
 10
522.6588376471884
 20
2716.576641727861
 10
523.6588376471884
 20
2715.576641727861
 10
523.6588376471884
 20
2716.576641727861
 10
524.6588376471883
 20
2715.576641727861
 10
529.6588376471884
 20
2715.576641727861
 97
        0
 75
     0
 76
     0
 52
0.0
 41
1.0
 77
     0
 78
     1
 53
45.0
 43
0.0
 44
0.0
 45
-1.25
 46
1.25
 79
     0
 98
        0
  0
HATCH
  5
195
330
188
100
AcDbEntity
  8
0
 62
   253
420
 11316396
100
AcDbHatch
 10
0.0
 20
0.0
 30
0.0
210
0.0
220
0.0
230
1.0
  2

 70
     0
 71
     1
 91
        1
 92
        3
 72
     0
 73
     1
 93
       10
 10
529.6588376471884
 20
2720.976641727861
 10
524.6588376471884
 20
2720.976641727861
 10
523.6588376471884
 20
2719.976641727861
 10
523.6588376471884
 20
2720.976641727861
 10
522.6588376471883
 20
2719.976641727861
 10
522.6588376471883
 20
2720.976641727861
 10
521.6588376471884
 20
2719.976641727861
 10
521.6588376471884
 20
2719.926641727861
 10
523.6588376471884
 20
2719.926641727861
 10
529.6588376471884
 20
2719.926641727861
 97
        0
 75
     0
 76
     0
 52
0.0
 41
1.0
 77
     0
 78
     1
 53
45.0
 43
0.0
 44
0.0
 45
-1.25
 46
1.25
 79
     0
 98
        0
  0
HATCH
  5
196
330
188
100
AcDbEntity
  8
0
 62
   253
420
 11316396
100
AcDbHatch
 10
0.0
 20
0.0
 30
0.0
210
0.0
220
0.0
230
1.0
  2

 70
     0
 71
     1
 91
        1
 92
        3
 72
     0
 73
     1
 93
       15
 10
541.2420772664243
 20
2718.27664172786
 10
544.4588376471884
 20
2721.276641727861
 10
544.4588376471884
 20
2723.126641727861
 10
543.6588376471883
 20
2723.126641727861
 10
543.6588376471883
 20
2720.651641727861
 10
541.6588376471883
 20
2720.651641727861
 10
541.0093185943495
 20
2720.276641727861
 10
524.4588376471884
 20
2720.276641727861
 10
524.4588376471884
 20
2716.276641727861
 10
541.0093185943495
 20
2716.276641727862
 10
541.6588376471883
 20
2715.901641727861
 10
543.6588376471883
 20
2715.901641727861
 10
543.6588376471883
 20
2713.426641727861
 10
544.4588376471884
 20
2713.426641727861
 10
544.4588376471888
 20
2715.276641727861
 97
        0
 75
     0
 76
     0
 52
0.0
 41
1.0
 77
     0
 78
     1
 53
45.0
 43
0.0
 44
0.0
 45
-1.25
 46
1.25
 79
     0
 98
        0
  0
HATCH
  5
197
330
188
100
AcDbEntity
  8
0
 62
   253
420
 11316396
100
AcDbHatch
 10
0.0
 20
0.0
 30
0.0
210
0.0
220
0.0
230
1.0
  2

 70
     0
 71
     1
 91
        1
 92
        3
 72
     0
 73
     1
 93
       10
 10
529.6588376471854
 20
2503.626641727861
 10
523.6588376471854
 20
2503.626641727861
 10
521.6588376471854
 20
2503.626641727861
 10
521.6588376471854
 20
2503.576641727861
 10
522.6588376471855
 20
2502.576641727861
 10
522.6588376471855
 20
2503.576641727861
 10
523.6588376471854
 20
2502.576641727861
 10
523.6588376471854
 20
2503.576641727861
 10
524.6588376471855
 20
2502.576641727861
 10
529.6588376471854
 20
2502.576641727861
 97
        0
 75
     0
 76
     0
 52
0.0
 41
1.0
 77
     0
 78
     1
 53
45.0
 43
0.0
 44
0.0
 45
-1.25
 46
1.25
 79
     0
 98
        0
  0
HATCH
  5
198
330
188
100
AcDbEntity
  8
0
 62
   253
420
 11316396
100
AcDbHatch
 10
0.0
 20
0.0
 30
0.0
210
0.0
220
0.0
230
1.0
  2

 70
     0
 71
     1
 91
        1
 92
        3
 72
     0
 73
     1
 93
       10
 10
529.6588376471854
 20
2507.976641727861
 10
524.6588376471855
 20
2507.976641727861
 10
523.6588376471854
 20
2506.976641727862
 10
523.6588376471854
 20
2507.976641727861
 10
522.6588376471855
 20
2506.976641727862
 10
522.6588376471855
 20
2507.976641727861
 10
521.6588376471854
 20
2506.976641727862
 10
521.6588376471854
 20
2506.926641727861
 10
523.6588376471854
 20
2506.926641727861
 10
529.6588376471854
 20
2506.926641727861
 97
        0
 75
     0
 76
     0
 52
0.0
 41
1.0
 77
     0
 78
     1
 53
45.0
 43
0.0
 44
0.0
 45
-1.25
 46
1.25
 79
     0
 98
        0
  0
HATCH
  5
199
330
188
100
AcDbEntity
  8
0
 62
   253
420
 11316396
100
AcDbHatch
 10
0.0
 20
0.0
 30
0.0
210
0.0
220
0.0
230
1.0
  2

 70
     0
 71
     1
 91
        1
 92
        3
 72
     0
 73
     1
 93
       15
 10
541.2420772664229
 20
2505.276641727858
 10
544.4588376471884
 20
2508.276641727861
 10
544.4588376471884
 20
2510.126641727862
 10
543.6588376471883
 20
2510.126641727862
 10
543.6588376471883
 20
2507.651641727861
 10
541.6588376471883
 20
2507.651641727861
 10
541.0093185943484
 20
2507.276641727861
 10
524.4588376471853
 20
2507.276641727861
 10
524.4588376471853
 20
2503.276641727861
 10
541.0093185943484
 20
2503.276641727862
 10
541.6588376471883
 20
2502.901641727861
 10
543.6588376471883
 20
2502.901641727861
 10
543.6588376471883
 20
2500.42664172786
 10
544.4588376471884
 20
2500.42664172786
 10
544.4588376471888
 20
2502.276641727858
 97
        0
 75
     0
 76
     0
 52
0.0
 41
1.0
 77
     0
 78
     1
 53
45.0
 43
0.0
 44
0.0
 45
-1.25
 46
1.25
 79
     0
 98
        0
  0
HATCH
  5
19A
330
188
100
AcDbEntity
  8
0
 62
   253
420
 11316396
100
AcDbHatch
 10
0.0
 20
0.0
 30
0.0
210
0.0
220
0.0
230
1.0
  2

 70
     0
 71
     1
 91
        1
 92
        3
 72
     0
 73
     1
 93
        8
 10
543.6588376471883
 20
2724.276641727861
 10
543.6588376471883
 20
2722.776641727861
 10
545.1588376471884
 20
2722.645408732572
 10
545.1588376471883
 20
2713.90787472315
 10
543.6588376471883
 20
2713.776641727861
 10
543.6588376471882
 20
2712.276641727861
 10
546.1588376471884
 20
2712.495363386676
 10
546.1588376471883
 20
2724.057920069046
 97
        0
 75
     0
 76
     0
 52
0.0
 41
1.0
 77
     0
 78
     1
 53
45.0
 43
0.0
 44
0.0
 45
-1.25
 46
1.25
 79
     0
 98
        0
  0
HATCH
  5
19B
330
188
100
AcDbEntity
  8
0
 62
   253
420
 11316396
100
AcDbHatch
 10
0.0
 20
0.0
 30
0.0
210
0.0
220
0.0
230
1.0
  2

 70
     0
 71
     1
 91
        1
 92
        3
 72
     0
 73
     1
 93
        8
 10
543.6588376471883
 20
2454.276641727864
 10
543.6588376471883
 20
2452.776641727864
 10
545.1588376471884
 20
2452.645408732575
 10
545.1588376471883
 20
2443.907874723153
 10
543.6588376471883
 20
2443.776641727864
 10
543.6588376471882
 20
2442.276641727864
 10
546.1588376471884
 20
2442.495363386679
 10
546.1588376471883
 20
2454.057920069049
 97
        0
 75
     0
 76
     0
 52
0.0
 41
1.0
 77
     0
 78
     1
 53
45.0
 43
0.0
 44
0.0
 45
-1.25
 46
1.25
 79
     0
 98
        0
  0
HATCH
  5
19C
330
188
100
AcDbEntity
  8
0
 62
   253
420
 11316396
100
AcDbHatch
 10
0.0
 20
0.0
 30
0.0
210
0.0
220
0.0
230
1.0
  2

 70
     0
 71
     1
 91
        1
 92
        3
 72
     0
 73
     1
 93
        4
 10
527.6588376471884
 20
2210.276641727861
 10
543.6588376471883
 20
2210.276641727861
 10
543.6588376471883
 20
2232.276641727859
 10
527.6588376471884
 20
2232.276641727859
 97
        0
 75
     0
 76
     0
 52
0.0
 41
1.0
 77
     0
 78
     1
 53
45.0
 43
0.0
 44
0.0
 45
-1.25
 46
1.25
 79
     0
 98
        0
  0
HATCH
  5
19D
330
188
100
AcDbEntity
  8
0
 62
   253
420
 11316396
100
AcDbHatch
 10
0.0
 20
0.0
 30
0.0
210
0.0
220
0.0
230
1.0
  2

 70
     0
 71
     1
 91
        1
 92
        3
 72
     0
 73
     1
 93
        4
 10
527.6588376471884
 20
2238.276641727859
 10
543.6588376471883
 20
2238.276641727859
 10
543.6588376471883
 20
2445.276641727861
 10
527.6588376471884
 20
2445.276641727861
 97
        0
 75
     0
 76
     0
 52
0.0
 41
1.0
 77
     0
 78
     1
 53
45.0
 43
0.0
 44
0.0
 45
-1.25
 46
1.25
 79
     0
 98
        0
  0
HATCH
  5
19E
330
188
100
AcDbEntity
  8
0
 62
   253
420
 11316396
100
AcDbHatch
 10
0.0
 20
0.0
 30
0.0
210
0.0
220
0.0
230
1.0
  2

 70
     0
 71
     1
 91
        1
 92
        3
 72
     0
 73
     1
 93
        4
 10
527.6588376471884
 20
2473.276641727861
 10
527.6588376471884
 20
2451.276641727861
 10
543.6588376471883
 20
2451.276641727861
 10
543.6588376471883
 20
2473.276641727861
 97
        0
 75
     0
 76
     0
 52
0.0
 41
1.0
 77
     0
 78
     1
 53
45.0
 43
0.0
 44
0.0
 45
-1.25
 46
1.25
 79
     0
 98
        0
  0
HATCH
  5
19F
330
188
100
AcDbEntity
  8
0
 62
   253
420
 11316396
100
AcDbHatch
 10
0.0
 20
0.0
 30
0.0
210
0.0
220
0.0
230
1.0
  2

 70
     0
 71
     1
 91
        1
 92
        3
 72
     0
 73
     1
 93
        4
 10
527.6588376471884
 20
2480.276641727861
 10
543.6588376471883
 20
2480.276641727861
 10
543.6588376471843
 20
2502.276641727861
 10
527.6588376471884
 20
2502.276641727861
 97
        0
 75
     0
 76
     0
 52
0.0
 41
1.0
 77
     0
 78
     1
 53
45.0
 43
0.0
 44
0.0
 45
-1.25
 46
1.25
 79
     0
 98
        0
  0
HATCH
  5
1A0
330
188
100
AcDbEntity
  8
0
 62
   253
420
 11316396
100
AcDbHatch
 10
0.0
 20
0.0
 30
0.0
210
0.0
220
0.0
230
1.0
  2

 70
     0
 71
     1
 91
        1
 92
        3
 72
     0
 73
     1
 93
        4
 10
527.6588376471884
 20
2508.276641727861
 10
543.6588376471883
 20
2508.276641727861
 10
543.6588376471883
 20
2715.276641727861
 10
527.6588376471884
 20
2715.276641727861
 97
        0
 75
     0
 76
     0
 52
0.0
 41
1.0
 77
     0
 78
     1
 53
45.0
 43
0.0
 44
0.0
 45
-1.25
 46
1.25
 79
     0
 98
        0
  0
HATCH
  5
1A1
330
188
100
AcDbEntity
  8
0
 62
   253
420
 11316396
100
AcDbHatch
 10
0.0
 20
0.0
 30
0.0
210
0.0
220
0.0
230
1.0
  2

 70
     0
 71
     1
 91
        1
 92
        3
 72
     0
 73
     1
 93
        4
 10
527.6588376471884
 20
2735.276641727861
 10
527.6588376471884
 20
2721.276641727861
 10
543.6588376471883
 20
2721.276641727861
 10
543.6588376471883
 20
2735.276641727861
 97
        0
 75
     0
 76
     0
 52
0.0
 41
1.0
 77
     0
 78
     1
 53
45.0
 43
0.0
 44
0.0
 45
-1.25
 46
1.25
 79
     0
 98
        0
  0
HATCH
  5
1A2
330
188
100
AcDbEntity
  8
0
 62
   253
420
 11316396
100
AcDbHatch
 10
0.0
 20
0.0
 30
0.0
210
0.0
220
0.0
230
1.0
  2

 70
     0
 71
     1
 91
        1
 92
        3
 72
     0
 73
     1
 93
       12
 10
521.1588376471844
 20
2237.776641727859
 10
527.6588376471884
 20
2237.776641727859
 10
527.6588376471884
 20
2445.776641727861
 10
521.1588376471844
 20
2445.776641727861
 10
521.1588376471844
 20
2450.776641727861
 10
527.6588376471884
 20
2450.776641727861
 10
527.6588376471884
 20
2475.276641727861
 10
517.6588376471884
 20
2475.276641727861
 10
517.6588376471884
 20
2208.276641727861
 10
527.6588376471884
 20
2208.276641727861
 10
527.6588376471884
 20
2232.776641727859
 10
521.1588376471844
 20
2232.776641727859
 97
        0
 75
     0
 76
     0
 52
0.0
 41
1.0
 77
     0
 78
     1
 53
45.0
 43
0.0
 44
0.0
 45
-1.25
 46
1.25
 79
     0
 98
        0
  0
HATCH
  5
1A3
330
188
100
AcDbEntity
  8
0
 62
   253
420
 11316396
100
AcDbHatch
 10
0.0
 20
0.0
 30
0.0
210
0.0
220
0.0
230
1.0
  2

 70
     0
 71
     1
 91
        1
 92
        3
 72
     0
 73
     1
 93
       12
 10
521.1588376471844
 20
2507.776641727861
 10
527.6588376471884
 20
2507.776641727861
 10
527.6588376471884
 20
2715.776641727861
 10
521.1588376471884
 20
2715.776641727861
 10
521.1588376471884
 20
2720.776641727861
 10
527.6588376471884
 20
2720.776641727861
 10
527.6588376471884
 20
2745.276641727861
 10
517.6588376471884
 20
2745.276641727861
 10
517.6588376471884
 20
2478.276641727861
 10
527.6588376471884
 20
2478.276641727861
 10
527.6588376471844
 20
2502.776641727861
 10
521.1588376471844
 20
2502.776641727861
 97
        0
 75
     0
 76
     0
 52
0.0
 41
1.0
 77
     0
 78
     1
 53
45.0
 43
0.0
 44
0.0
 45
-1.25
 46
1.25
 79
     0
 98
        0
  0
MTEXT
  5
1A4
330
188
100
AcDbEntity
  8
0
 62
     7
100
AcDbMText
 10
734.879159578778
 20
2790.941296322093
 30
0.0
 40
20.0
 41
0.0
 46
0.0
 71
     1
 72
     1
  1
{\fArial Narrow;A - A}
 73
     1
 44
1.0
  0
LINE
  5
1A5
330
188
100
AcDbEntity
  8
0
  6
________________
 62
     7
370
     9
100
AcDbLine
 10
521.1588376471844
 20
2502.776641727861
 30
0.0
 11
521.1588376471844
 21
2507.776641727861
 31
0.0
  0
LINE
  5
1A6
330
188
100
AcDbEntity
  8
0
  6
________________
 62
     7
370
     9
100
AcDbLine
 10
527.6588376471844
 20
2502.776641727861
 30
0.0
 11
524.4588376471854
 21
2502.776641727861
 31
0.0
  0
LINE
  5
1A7
330
188
100
AcDbEntity
  8
0
  6
________________
 62
     7
370
     9
100
AcDbLine
 10
524.4588376471854
 20
2502.776641727861
 30
0.0
 11
523.6588376471854
 21
2502.776641727861
 31
0.0
  0
LINE
  5
1A8
330
188
100
AcDbEntity
  8
0
  6
________________
 62
     7
370
     9
100
AcDbLine
 10
523.6588376471854
 20
2502.776641727861
 30
0.0
 11
523.4588376471853
 21
2502.776641727861
 31
0.0
  0
LINE
  5
1A9
330
188
100
AcDbEntity
  8
0
  6
________________
 62
     7
370
     9
100
AcDbLine
 10
523.4588376471853
 20
2502.776641727861
 30
0.0
 11
522.6588376471855
 21
2502.776641727861
 31
0.0
  0
LINE
  5
1AA
330
188
100
AcDbEntity
  8
0
  6
________________
 62
     7
370
     9
100
AcDbLine
 10
522.6588376471855
 20
2502.776641727861
 30
0.0
 11
522.4588376471854
 21
2502.776641727861
 31
0.0
  0
LINE
  5
1AB
330
188
100
AcDbEntity
  8
0
  6
________________
 62
     7
370
     9
100
AcDbLine
 10
522.4588376471854
 20
2502.776641727861
 30
0.0
 11
521.1588376471844
 21
2502.776641727861
 31
0.0
  0
LINE
  5
1AC
330
188
100
AcDbEntity
  8
0
  6
________________
 62
     7
370
     9
100
AcDbLine
 10
527.6588376471844
 20
2502.776641727861
 30
0.0
 11
527.6588376471844
 21
2502.576641727861
 31
0.0
  0
LINE
  5
1AD
330
188
100
AcDbEntity
  8
0
  6
________________
 62
     7
370
     9
100
AcDbLine
 10
527.6588376471844
 20
2502.576641727861
 30
0.0
 11
527.658837647188
 21
2480.276641727861
 31
0.0
  0
LINE
  5
1AE
330
188
100
AcDbEntity
  8
0
  6
________________
 62
     7
370
     9
100
AcDbLine
 10
527.658837647188
 20
2480.276641727861
 30
0.0
 11
527.6588376471884
 21
2478.276641727861
 31
0.0
  0
LINE
  5
1AF
330
188
100
AcDbEntity
  8
0
  6
________________
 62
     7
370
     9
100
AcDbLine
 10
527.6588376471884
 20
2478.276641727861
 30
0.0
 11
517.6588376471884
 21
2478.276641727861
 31
0.0
  0
LINE
  5
1B0
330
188
100
AcDbEntity
  8
0
  6
________________
 62
     7
370
     9
100
AcDbLine
 10
517.6588376471884
 20
2478.276641727861
 30
0.0
 11
517.6588376471884
 21
2745.276641727861
 31
0.0
  0
LINE
  5
1B1
330
188
100
AcDbEntity
  8
0
  6
________________
 62
     7
370
     9
100
AcDbLine
 10
517.6588376471884
 20
2745.276641727861
 30
0.0
 11
527.6588376471884
 21
2745.276641727861
 31
0.0
  0
LINE
  5
1B2
330
188
100
AcDbEntity
  8
0
  6
________________
 62
     7
370
     9
100
AcDbLine
 10
527.6588376471884
 20
2745.276641727861
 30
0.0
 11
527.6588376471884
 21
2735.276641727861
 31
0.0
  0
LINE
  5
1B3
330
188
100
AcDbEntity
  8
0
  6
________________
 62
     7
370
     9
100
AcDbLine
 10
527.6588376471884
 20
2735.276641727861
 30
0.0
 11
527.6588376471884
 21
2720.976641727861
 31
0.0
  0
LINE
  5
1B4
330
188
100
AcDbEntity
  8
0
  6
________________
 62
     7
370
     9
100
AcDbLine
 10
527.6588376471884
 20
2720.976641727861
 30
0.0
 11
527.6588376471884
 21
2720.776641727861
 31
0.0
  0
LINE
  5
1B5
330
188
100
AcDbEntity
  8
0
  6
________________
 62
     7
370
     9
100
AcDbLine
 10
521.1588376471884
 20
2720.776641727861
 30
0.0
 11
522.4588376471884
 21
2720.776641727861
 31
0.0
  0
LINE
  5
1B6
330
188
100
AcDbEntity
  8
0
  6
________________
 62
     7
370
     9
100
AcDbLine
 10
522.4588376471884
 20
2720.776641727861
 30
0.0
 11
522.6588376471883
 21
2720.776641727861
 31
0.0
  0
LINE
  5
1B7
330
188
100
AcDbEntity
  8
0
  6
________________
 62
     7
370
     9
100
AcDbLine
 10
522.6588376471883
 20
2720.776641727861
 30
0.0
 11
523.4588376471883
 21
2720.776641727861
 31
0.0
  0
LINE
  5
1B8
330
188
100
AcDbEntity
  8
0
  6
________________
 62
     7
370
     9
100
AcDbLine
 10
523.4588376471883
 20
2720.776641727861
 30
0.0
 11
523.6588376471884
 21
2720.776641727861
 31
0.0
  0
LINE
  5
1B9
330
188
100
AcDbEntity
  8
0
  6
________________
 62
     7
370
     9
100
AcDbLine
 10
523.6588376471884
 20
2720.776641727861
 30
0.0
 11
524.4588376471884
 21
2720.776641727861
 31
0.0
  0
LINE
  5
1BA
330
188
100
AcDbEntity
  8
0
  6
________________
 62
     7
370
     9
100
AcDbLine
 10
524.4588376471884
 20
2720.776641727861
 30
0.0
 11
527.6588376471884
 21
2720.776641727861
 31
0.0
  0
LINE
  5
1BB
330
188
100
AcDbEntity
  8
0
  6
________________
 62
     7
370
     9
100
AcDbLine
 10
521.1588376471884
 20
2715.776641727861
 30
0.0
 11
521.1588376471884
 21
2720.776641727861
 31
0.0
  0
LINE
  5
1BC
330
188
100
AcDbEntity
  8
0
  6
________________
 62
     7
370
     9
100
AcDbLine
 10
527.6588376471884
 20
2715.776641727861
 30
0.0
 11
524.4588376471884
 21
2715.776641727861
 31
0.0
  0
LINE
  5
1BD
330
188
100
AcDbEntity
  8
0
  6
________________
 62
     7
370
     9
100
AcDbLine
 10
524.4588376471884
 20
2715.776641727861
 30
0.0
 11
523.6588376471884
 21
2715.776641727861
 31
0.0
  0
LINE
  5
1BE
330
188
100
AcDbEntity
  8
0
  6
________________
 62
     7
370
     9
100
AcDbLine
 10
523.6588376471884
 20
2715.776641727861
 30
0.0
 11
523.4588376471883
 21
2715.776641727861
 31
0.0
  0
LINE
  5
1BF
330
188
100
AcDbEntity
  8
0
  6
________________
 62
     7
370
     9
100
AcDbLine
 10
523.4588376471883
 20
2715.776641727861
 30
0.0
 11
522.6588376471883
 21
2715.776641727861
 31
0.0
  0
LINE
  5
1C0
330
188
100
AcDbEntity
  8
0
  6
________________
 62
     7
370
     9
100
AcDbLine
 10
522.6588376471883
 20
2715.776641727861
 30
0.0
 11
522.4588376471884
 21
2715.776641727861
 31
0.0
  0
LINE
  5
1C1
330
188
100
AcDbEntity
  8
0
  6
________________
 62
     7
370
     9
100
AcDbLine
 10
522.4588376471884
 20
2715.776641727861
 30
0.0
 11
521.1588376471884
 21
2715.776641727861
 31
0.0
  0
LINE
  5
1C2
330
188
100
AcDbEntity
  8
0
  6
________________
 62
     7
370
     9
100
AcDbLine
 10
527.6588376471884
 20
2715.776641727861
 30
0.0
 11
527.6588376471884
 21
2715.576641727861
 31
0.0
  0
LINE
  5
1C3
330
188
100
AcDbEntity
  8
0
  6
________________
 62
     7
370
     9
100
AcDbLine
 10
527.6588376471884
 20
2715.576641727861
 30
0.0
 11
527.6588376471844
 21
2507.976641727861
 31
0.0
  0
LINE
  5
1C4
330
188
100
AcDbEntity
  8
0
  6
________________
 62
     7
370
     9
100
AcDbLine
 10
527.6588376471844
 20
2507.976641727861
 30
0.0
 11
527.6588376471844
 21
2507.776641727861
 31
0.0
  0
LINE
  5
1C5
330
188
100
AcDbEntity
  8
0
  6
________________
 62
     7
370
     9
100
AcDbLine
 10
521.1588376471844
 20
2507.776641727861
 30
0.0
 11
522.4588376471854
 21
2507.776641727861
 31
0.0
  0
LINE
  5
1C6
330
188
100
AcDbEntity
  8
0
  6
________________
 62
     7
370
     9
100
AcDbLine
 10
522.4588376471854
 20
2507.776641727861
 30
0.0
 11
522.6588376471855
 21
2507.776641727861
 31
0.0
  0
LINE
  5
1C7
330
188
100
AcDbEntity
  8
0
  6
________________
 62
     7
370
     9
100
AcDbLine
 10
522.6588376471855
 20
2507.776641727861
 30
0.0
 11
523.4588376471853
 21
2507.776641727861
 31
0.0
  0
LINE
  5
1C8
330
188
100
AcDbEntity
  8
0
  6
________________
 62
     7
370
     9
100
AcDbLine
 10
523.4588376471853
 20
2507.776641727861
 30
0.0
 11
523.6588376471854
 21
2507.776641727861
 31
0.0
  0
LINE
  5
1C9
330
188
100
AcDbEntity
  8
0
  6
________________
 62
     7
370
     9
100
AcDbLine
 10
523.6588376471854
 20
2507.776641727861
 30
0.0
 11
524.4588376471854
 21
2507.776641727861
 31
0.0
  0
LINE
  5
1CA
330
188
100
AcDbEntity
  8
0
  6
________________
 62
     7
370
     9
100
AcDbLine
 10
524.4588376471854
 20
2507.776641727861
 30
0.0
 11
527.6588376471844
 21
2507.776641727861
 31
0.0
  0
LINE
  5
1CB
330
188
100
AcDbEntity
  8
0
  6
________________
 62
     7
370
     9
100
AcDbLine
 10
521.1588376471844
 20
2232.776641727859
 30
0.0
 11
521.1588376471844
 21
2237.776641727859
 31
0.0
  0
LINE
  5
1CC
330
188
100
AcDbEntity
  8
0
  6
________________
 62
     7
370
     9
100
AcDbLine
 10
527.6588376471884
 20
2232.776641727859
 30
0.0
 11
524.4588376471854
 21
2232.776641727859
 31
0.0
  0
LINE
  5
1CD
330
188
100
AcDbEntity
  8
0
  6
________________
 62
     7
370
     9
100
AcDbLine
 10
524.4588376471854
 20
2232.776641727859
 30
0.0
 11
523.6588376471854
 21
2232.776641727859
 31
0.0
  0
LINE
  5
1CE
330
188
100
AcDbEntity
  8
0
  6
________________
 62
     7
370
     9
100
AcDbLine
 10
523.6588376471854
 20
2232.776641727859
 30
0.0
 11
523.4588376471853
 21
2232.776641727859
 31
0.0
  0
LINE
  5
1CF
330
188
100
AcDbEntity
  8
0
  6
________________
 62
     7
370
     9
100
AcDbLine
 10
523.4588376471853
 20
2232.776641727859
 30
0.0
 11
522.6588376471855
 21
2232.776641727859
 31
0.0
  0
LINE
  5
1D0
330
188
100
AcDbEntity
  8
0
  6
________________
 62
     7
370
     9
100
AcDbLine
 10
522.6588376471855
 20
2232.776641727859
 30
0.0
 11
522.4588376471854
 21
2232.776641727859
 31
0.0
  0
LINE
  5
1D1
330
188
100
AcDbEntity
  8
0
  6
________________
 62
     7
370
     9
100
AcDbLine
 10
522.4588376471854
 20
2232.776641727859
 30
0.0
 11
521.1588376471844
 21
2232.776641727859
 31
0.0
  0
LINE
  5
1D2
330
188
100
AcDbEntity
  8
0
  6
________________
 62
     7
370
     9
100
AcDbLine
 10
527.6588376471884
 20
2232.776641727859
 30
0.0
 11
527.6588376471884
 21
2232.576641727859
 31
0.0
  0
LINE
  5
1D3
330
188
100
AcDbEntity
  8
0
  6
________________
 62
     7
370
     9
100
AcDbLine
 10
527.6588376471884
 20
2232.576641727859
 30
0.0
 11
527.6588376471884
 21
2210.276641727861
 31
0.0
  0
LINE
  5
1D4
330
188
100
AcDbEntity
  8
0
  6
________________
 62
     7
370
     9
100
AcDbLine
 10
527.6588376471884
 20
2210.276641727861
 30
0.0
 11
527.6588376471884
 21
2208.276641727861
 31
0.0
  0
LINE
  5
1D5
330
188
100
AcDbEntity
  8
0
  6
________________
 62
     7
370
     9
100
AcDbLine
 10
527.6588376471884
 20
2208.276641727861
 30
0.0
 11
517.6588376471884
 21
2208.276641727861
 31
0.0
  0
LINE
  5
1D6
330
188
100
AcDbEntity
  8
0
  6
________________
 62
     7
370
     9
100
AcDbLine
 10
517.6588376471884
 20
2208.276641727861
 30
0.0
 11
517.6588376471884
 21
2475.276641727861
 31
0.0
  0
LINE
  5
1D7
330
188
100
AcDbEntity
  8
0
  6
________________
 62
     7
370
     9
100
AcDbLine
 10
517.6588376471884
 20
2475.276641727861
 30
0.0
 11
527.6588376471884
 21
2475.276641727861
 31
0.0
  0
LINE
  5
1D8
330
188
100
AcDbEntity
  8
0
  6
________________
 62
     7
370
     9
100
AcDbLine
 10
527.6588376471884
 20
2475.276641727861
 30
0.0
 11
527.6588376471883
 21
2473.276641727861
 31
0.0
  0
LINE
  5
1D9
330
188
100
AcDbEntity
  8
0
  6
________________
 62
     7
370
     9
100
AcDbLine
 10
527.6588376471883
 20
2473.276641727861
 30
0.0
 11
527.6588376471884
 21
2450.976641727861
 31
0.0
  0
LINE
  5
1DA
330
188
100
AcDbEntity
  8
0
  6
________________
 62
     7
370
     9
100
AcDbLine
 10
527.6588376471884
 20
2450.976641727861
 30
0.0
 11
527.6588376471884
 21
2450.776641727861
 31
0.0
  0
LINE
  5
1DB
330
188
100
AcDbEntity
  8
0
  6
________________
 62
     7
370
     9
100
AcDbLine
 10
521.1588376471844
 20
2450.776641727861
 30
0.0
 11
522.4588376471854
 21
2450.776641727861
 31
0.0
  0
LINE
  5
1DC
330
188
100
AcDbEntity
  8
0
  6
________________
 62
     7
370
     9
100
AcDbLine
 10
522.4588376471854
 20
2450.776641727861
 30
0.0
 11
522.6588376471855
 21
2450.776641727861
 31
0.0
  0
LINE
  5
1DD
330
188
100
AcDbEntity
  8
0
  6
________________
 62
     7
370
     9
100
AcDbLine
 10
522.6588376471855
 20
2450.776641727861
 30
0.0
 11
523.4588376471853
 21
2450.776641727861
 31
0.0
  0
LINE
  5
1DE
330
188
100
AcDbEntity
  8
0
  6
________________
 62
     7
370
     9
100
AcDbLine
 10
523.4588376471853
 20
2450.776641727861
 30
0.0
 11
523.6588376471854
 21
2450.776641727861
 31
0.0
  0
LINE
  5
1DF
330
188
100
AcDbEntity
  8
0
  6
________________
 62
     7
370
     9
100
AcDbLine
 10
523.6588376471854
 20
2450.776641727861
 30
0.0
 11
524.4588376471854
 21
2450.776641727861
 31
0.0
  0
LINE
  5
1E0
330
188
100
AcDbEntity
  8
0
  6
________________
 62
     7
370
     9
100
AcDbLine
 10
524.4588376471854
 20
2450.776641727861
 30
0.0
 11
527.6588376471884
 21
2450.776641727861
 31
0.0
  0
LINE
  5
1E1
330
188
100
AcDbEntity
  8
0
  6
________________
 62
     7
370
     9
100
AcDbLine
 10
521.1588376471844
 20
2445.776641727861
 30
0.0
 11
521.1588376471844
 21
2450.776641727861
 31
0.0
  0
LINE
  5
1E2
330
188
100
AcDbEntity
  8
0
  6
________________
 62
     7
370
     9
100
AcDbLine
 10
527.6588376471884
 20
2445.776641727861
 30
0.0
 11
524.4588376471854
 21
2445.776641727861
 31
0.0
  0
LINE
  5
1E3
330
188
100
AcDbEntity
  8
0
  6
________________
 62
     7
370
     9
100
AcDbLine
 10
524.4588376471854
 20
2445.776641727861
 30
0.0
 11
523.6588376471854
 21
2445.776641727861
 31
0.0
  0
LINE
  5
1E4
330
188
100
AcDbEntity
  8
0
  6
________________
 62
     7
370
     9
100
AcDbLine
 10
523.6588376471854
 20
2445.776641727861
 30
0.0
 11
523.4588376471853
 21
2445.776641727861
 31
0.0
  0
LINE
  5
1E5
330
188
100
AcDbEntity
  8
0
  6
________________
 62
     7
370
     9
100
AcDbLine
 10
523.4588376471853
 20
2445.776641727861
 30
0.0
 11
522.6588376471855
 21
2445.776641727861
 31
0.0
  0
LINE
  5
1E6
330
188
100
AcDbEntity
  8
0
  6
________________
 62
     7
370
     9
100
AcDbLine
 10
522.6588376471855
 20
2445.776641727861
 30
0.0
 11
522.4588376471854
 21
2445.776641727861
 31
0.0
  0
LINE
  5
1E7
330
188
100
AcDbEntity
  8
0
  6
________________
 62
     7
370
     9
100
AcDbLine
 10
522.4588376471854
 20
2445.776641727861
 30
0.0
 11
521.1588376471844
 21
2445.776641727861
 31
0.0
  0
LINE
  5
1E8
330
188
100
AcDbEntity
  8
0
  6
________________
 62
     7
370
     9
100
AcDbLine
 10
527.6588376471884
 20
2445.776641727861
 30
0.0
 11
527.6588376471884
 21
2445.576641727861
 31
0.0
  0
LINE
  5
1E9
330
188
100
AcDbEntity
  8
0
  6
________________
 62
     7
370
     9
100
AcDbLine
 10
527.6588376471884
 20
2445.576641727861
 30
0.0
 11
527.6588376471884
 21
2237.976641727859
 31
0.0
  0
LINE
  5
1EA
330
188
100
AcDbEntity
  8
0
  6
________________
 62
     7
370
     9
100
AcDbLine
 10
527.6588376471884
 20
2237.976641727859
 30
0.0
 11
527.6588376471884
 21
2237.776641727859
 31
0.0
  0
LINE
  5
1EB
330
188
100
AcDbEntity
  8
0
  6
________________
 62
     7
370
     9
100
AcDbLine
 10
521.1588376471844
 20
2237.776641727859
 30
0.0
 11
522.4588376471854
 21
2237.776641727859
 31
0.0
  0
LINE
  5
1EC
330
188
100
AcDbEntity
  8
0
  6
________________
 62
     7
370
     9
100
AcDbLine
 10
522.4588376471854
 20
2237.776641727859
 30
0.0
 11
522.6588376471855
 21
2237.776641727859
 31
0.0
  0
LINE
  5
1ED
330
188
100
AcDbEntity
  8
0
  6
________________
 62
     7
370
     9
100
AcDbLine
 10
522.6588376471855
 20
2237.776641727859
 30
0.0
 11
523.4588376471853
 21
2237.776641727859
 31
0.0
  0
LINE
  5
1EE
330
188
100
AcDbEntity
  8
0
  6
________________
 62
     7
370
     9
100
AcDbLine
 10
523.4588376471853
 20
2237.776641727859
 30
0.0
 11
523.6588376471854
 21
2237.776641727859
 31
0.0
  0
LINE
  5
1EF
330
188
100
AcDbEntity
  8
0
  6
________________
 62
     7
370
     9
100
AcDbLine
 10
523.6588376471854
 20
2237.776641727859
 30
0.0
 11
524.4588376471854
 21
2237.776641727859
 31
0.0
  0
LINE
  5
1F0
330
188
100
AcDbEntity
  8
0
  6
________________
 62
     7
370
     9
100
AcDbLine
 10
524.4588376471854
 20
2237.776641727859
 30
0.0
 11
527.6588376471884
 21
2237.776641727859
 31
0.0
  0
LINE
  5
1F1
330
188
100
AcDbEntity
  8
0
  6
________________
 62
     7
370
     9
100
AcDbLine
 10
527.6588376471884
 20
2508.276641727861
 30
0.0
 11
543.6588376471843
 21
2508.276641727861
 31
0.0
  0
LINE
  5
1F2
330
188
100
AcDbEntity
  8
0
  6
________________
 62
     7
370
     9
100
AcDbLine
 10
543.6588376471843
 20
2502.276641727861
 30
0.0
 11
527.6588376471884
 21
2502.276641727861
 31
0.0
  0
LINE
  5
1F3
330
188
100
AcDbEntity
  8
0
  6
________________
 62
     7
370
     9
100
AcDbLine
 10
543.6588376471883
 20
2715.276641727861
 30
0.0
 11
527.6588376471884
 21
2715.276641727861
 31
0.0
  0
LINE
  5
1F4
330
188
100
AcDbEntity
  8
0
  6
________________
 62
     7
370
     9
100
AcDbLine
 10
543.6588376471883
 20
2715.276641727861
 30
0.0
 11
543.6588376471883
 21
2713.426641727861
 31
0.0
  0
LINE
  5
1F5
330
188
100
AcDbEntity
  8
0
  6
________________
 62
     7
370
     9
100
AcDbLine
 10
543.6588376471883
 20
2713.426641727861
 30
0.0
 11
543.6588376471883
 21
2712.276641727861
 31
0.0
  0
LINE
  5
1F6
330
188
100
AcDbEntity
  8
0
  6
________________
 62
     7
370
     9
100
AcDbLine
 10
543.6588376471883
 20
2712.276641727861
 30
0.0
 11
543.6588376471844
 21
2510.126641727862
 31
0.0
  0
LINE
  5
1F7
330
188
100
AcDbEntity
  8
0
  6
________________
 62
     7
370
     9
100
AcDbLine
 10
543.6588376471844
 20
2510.126641727862
 30
0.0
 11
543.6588376471843
 21
2508.276641727861
 31
0.0
  0
LINE
  5
1F8
330
188
100
AcDbEntity
  8
0
  6
________________
 62
     7
370
     9
100
AcDbLine
 10
527.6588376471884
 20
2508.276641727861
 30
0.0
 11
527.6588376471884
 21
2715.276641727861
 31
0.0
  0
LINE
  5
1F9
330
188
100
AcDbEntity
  8
0
  6
________________
 62
     7
370
     9
100
AcDbLine
 10
543.6588376471883
 20
2735.276641727861
 30
0.0
 11
543.6588376471883
 21
2724.276641727861
 31
0.0
  0
LINE
  5
1FA
330
188
100
AcDbEntity
  8
0
  6
________________
 62
     7
370
     9
100
AcDbLine
 10
543.6588376471883
 20
2724.276641727861
 30
0.0
 11
543.6588376471883
 21
2723.126641727861
 31
0.0
  0
LINE
  5
1FB
330
188
100
AcDbEntity
  8
0
  6
________________
 62
     7
370
     9
100
AcDbLine
 10
543.6588376471883
 20
2723.126641727861
 30
0.0
 11
543.6588376471883
 21
2721.276641727861
 31
0.0
  0
LINE
  5
1FC
330
188
100
AcDbEntity
  8
0
  6
________________
 62
     7
370
     9
100
AcDbLine
 10
527.6588376471884
 20
2721.276641727861
 30
0.0
 11
543.6588376471883
 21
2721.276641727861
 31
0.0
  0
LINE
  5
1FD
330
188
100
AcDbEntity
  8
0
  6
________________
 62
     7
370
     9
100
AcDbLine
 10
527.6588376471884
 20
2735.276641727861
 30
0.0
 11
543.6588376471883
 21
2735.276641727861
 31
0.0
  0
LINE
  5
1FE
330
188
100
AcDbEntity
  8
0
  6
________________
 62
     7
370
     9
100
AcDbLine
 10
527.6588376471884
 20
2721.276641727861
 30
0.0
 11
527.6588376471884
 21
2735.276641727861
 31
0.0
  0
LINE
  5
1FF
330
188
100
AcDbEntity
  8
0
  6
________________
 62
     7
370
     9
100
AcDbLine
 10
543.6588376471843
 20
2502.276641727861
 30
0.0
 11
543.6588376471847
 21
2500.42664172786
 31
0.0
  0
LINE
  5
200
330
188
100
AcDbEntity
  8
0
  6
________________
 62
     7
370
     9
100
AcDbLine
 10
543.6588376471847
 20
2500.42664172786
 30
0.0
 11
543.6588376471883
 21
2480.276641727861
 31
0.0
  0
LINE
  5
201
330
188
100
AcDbEntity
  8
0
  6
________________
 62
     7
370
     9
100
AcDbLine
 10
543.6588376471883
 20
2480.276641727861
 30
0.0
 11
527.6588376471884
 21
2480.276641727861
 31
0.0
  0
LINE
  5
202
330
188
100
AcDbEntity
  8
0
  6
________________
 62
     7
370
     9
100
AcDbLine
 10
527.6588376471884
 20
2480.276641727861
 30
0.0
 11
527.6588376471884
 21
2502.276641727861
 31
0.0
  0
LINE
  5
203
330
188
100
AcDbEntity
  8
0
  6
________________
 62
     7
370
     9
100
AcDbLine
 10
527.6588376471884
 20
2451.276641727861
 30
0.0
 11
543.6588376471883
 21
2451.276641727861
 31
0.0
  0
LINE
  5
204
330
188
100
AcDbEntity
  8
0
  6
________________
 62
     7
370
     9
100
AcDbLine
 10
543.6588376471883
 20
2445.276641727861
 30
0.0
 11
527.6588376471884
 21
2445.276641727861
 31
0.0
  0
LINE
  5
205
330
188
100
AcDbEntity
  8
0
  6
________________
 62
     7
370
     9
100
AcDbLine
 10
527.6588376471884
 20
2238.276641727859
 30
0.0
 11
543.6588376471883
 21
2238.276641727859
 31
0.0
  0
LINE
  5
206
330
188
100
AcDbEntity
  8
0
  6
________________
 62
     7
370
     9
100
AcDbLine
 10
543.6588376471883
 20
2232.276641727859
 30
0.0
 11
527.6588376471884
 21
2232.276641727859
 31
0.0
  0
LINE
  5
207
330
188
100
AcDbEntity
  8
0
  6
________________
 62
     7
370
     9
100
AcDbLine
 10
543.6588376471883
 20
2445.276641727861
 30
0.0
 11
543.6588376471883
 21
2443.426641727861
 31
0.0
  0
LINE
  5
208
330
188
100
AcDbEntity
  8
0
  6
________________
 62
     7
370
     9
100
AcDbLine
 10
543.6588376471883
 20
2443.426641727861
 30
0.0
 11
543.6588376471883
 21
2442.276641727864
 31
0.0
  0
LINE
  5
209
330
188
100
AcDbEntity
  8
0
  6
________________
 62
     7
370
     9
100
AcDbLine
 10
543.6588376471883
 20
2442.276641727864
 30
0.0
 11
543.6588376471883
 21
2240.126641727859
 31
0.0
  0
LINE
  5
20A
330
188
100
AcDbEntity
  8
0
  6
________________
 62
     7
370
     9
100
AcDbLine
 10
543.6588376471883
 20
2240.126641727859
 30
0.0
 11
543.6588376471883
 21
2238.276641727859
 31
0.0
  0
LINE
  5
20B
330
188
100
AcDbEntity
  8
0
  6
________________
 62
     7
370
     9
100
AcDbLine
 10
527.6588376471884
 20
2238.276641727859
 30
0.0
 11
527.6588376471884
 21
2445.276641727861
 31
0.0
  0
LINE
  5
20C
330
188
100
AcDbEntity
  8
0
  6
________________
 62
     7
370
     9
100
AcDbLine
 10
527.6588376471884
 20
2473.276641727861
 30
0.0
 11
543.6588376471883
 21
2473.276641727861
 31
0.0
  0
LINE
  5
20D
330
188
100
AcDbEntity
  8
0
  6
________________
 62
     7
370
     9
100
AcDbLine
 10
543.6588376471883
 20
2473.276641727861
 30
0.0
 11
543.6588376471883
 21
2454.276641727864
 31
0.0
  0
LINE
  5
20E
330
188
100
AcDbEntity
  8
0
  6
________________
 62
     7
370
     9
100
AcDbLine
 10
543.6588376471883
 20
2454.276641727864
 30
0.0
 11
543.6588376471883
 21
2453.126641727861
 31
0.0
  0
LINE
  5
20F
330
188
100
AcDbEntity
  8
0
  6
________________
 62
     7
370
     9
100
AcDbLine
 10
543.6588376471883
 20
2453.126641727861
 30
0.0
 11
543.6588376471883
 21
2451.276641727861
 31
0.0
  0
LINE
  5
210
330
188
100
AcDbEntity
  8
0
  6
________________
 62
     7
370
     9
100
AcDbLine
 10
527.6588376471884
 20
2451.276641727861
 30
0.0
 11
527.6588376471884
 21
2473.276641727861
 31
0.0
  0
LINE
  5
211
330
188
100
AcDbEntity
  8
0
  6
________________
 62
     7
370
     9
100
AcDbLine
 10
543.6588376471883
 20
2232.276641727859
 30
0.0
 11
543.6588376471883
 21
2230.426641727859
 31
0.0
  0
LINE
  5
212
330
188
100
AcDbEntity
  8
0
  6
________________
 62
     7
370
     9
100
AcDbLine
 10
543.6588376471883
 20
2230.426641727859
 30
0.0
 11
543.6588376471883
 21
2210.276641727861
 31
0.0
  0
LINE
  5
213
330
188
100
AcDbEntity
  8
0
  6
________________
 62
     7
370
     9
100
AcDbLine
 10
543.6588376471883
 20
2210.276641727861
 30
0.0
 11
527.6588376471884
 21
2210.276641727861
 31
0.0
  0
LINE
  5
214
330
188
100
AcDbEntity
  8
0
  6
________________
 62
     7
370
     9
100
AcDbLine
 10
527.6588376471884
 20
2210.276641727861
 30
0.0
 11
527.6588376471884
 21
2232.276641727859
 31
0.0
  0
LINE
  5
215
330
188
100
AcDbEntity
  8
0
  6
________________
 62
     7
370
     9
100
AcDbLine
 10
541.6588376471883
 20
2208.276641727861
 30
0.0
 11
540.6588376471883
 21
2208.276641727861
 31
0.0
  0
LINE
  5
216
330
188
100
AcDbEntity
  8
0
  6
________________
 62
     7
370
     9
100
AcDbLine
 10
540.6588376471883
 20
2745.276641727861
 30
0.0
 11
541.6588376471883
 21
2745.276641727861
 31
0.0
  0
LINE
  5
217
330
188
100
AcDbEntity
  8
0
  6
________________
 62
     7
370
     9
100
AcDbLine
 10
540.6588376471883
 20
2208.276641727861
 30
0.0
 11
540.6588376471883
 21
2210.276641727861
 31
0.0
  0
LINE
  5
218
330
188
100
AcDbEntity
  8
0
  6
________________
 62
     7
370
     9
100
AcDbLine
 10
540.6588376471883
 20
2473.276641727861
 30
0.0
 11
540.6588376471883
 21
2480.276641727861
 31
0.0
  0
LINE
  5
219
330
188
100
AcDbEntity
  8
0
  6
________________
 62
     7
370
     9
100
AcDbLine
 10
540.6588376471883
 20
2735.276641727861
 30
0.0
 11
540.6588376471883
 21
2745.276641727861
 31
0.0
  0
LINE
  5
21A
330
188
100
AcDbEntity
  8
0
  6
________________
 62
     7
370
     9
100
AcDbLine
 10
541.6588376471883
 20
2208.276641727861
 30
0.0
 11
541.6588376471883
 21
2210.276641727861
 31
0.0
  0
LINE
  5
21B
330
188
100
AcDbEntity
  8
0
  6
________________
 62
     7
370
     9
100
AcDbLine
 10
541.6588376471883
 20
2473.276641727861
 30
0.0
 11
541.6588376471883
 21
2480.276641727861
 31
0.0
  0
LINE
  5
21C
330
188
100
AcDbEntity
  8
0
  6
________________
 62
     7
370
     9
100
AcDbLine
 10
541.6588376471883
 20
2735.276641727861
 30
0.0
 11
541.6588376471883
 21
2758.276641727861
 31
0.0
  0
LINE
  5
21D
330
188
100
AcDbEntity
  8
0
  6
________________
 62
     7
370
     9
100
AcDbLine
 10
541.6588376471883
 20
2758.276641727861
 30
0.0
 11
998.6588376471883
 21
2758.276641727861
 31
0.0
  0
LINE
  5
21E
330
188
100
AcDbEntity
  8
0
  6
________________
 62
     7
370
     9
100
AcDbLine
 10
998.6588376471883
 20
2758.276641727861
 30
0.0
 11
998.6588376471883
 21
2208.276641727861
 31
0.0
  0
LINE
  5
21F
330
188
100
AcDbEntity
  8
0
  6
________________
 62
     7
370
     9
100
AcDbLine
 10
998.6588376471883
 20
2208.276641727861
 30
0.0
 11
541.6588376471883
 21
2208.276641727861
 31
0.0
  0
CIRCLE
  5
220
330
188
100
AcDbEntity
  8
0
  6
________________
 62
     7
370
     9
100
AcDbCircle
 10
-606.6588376471884
 20
2747.776641727861
 30
0.0
 40
1.249999999999973
210
0.0
220
0.0
230
-1.0
  0
CIRCLE
  5
221
330
188
100
AcDbEntity
  8
0
  6
________________
 62
     7
370
     9
100
AcDbCircle
 10
948.6588376471884
 20
2293.276641727861
 30
0.0
 40
5.781278341185137
  0
CIRCLE
  5
222
330
188
100
AcDbEntity
  8
0
  6
________________
 62
     7
370
     9
100
AcDbCircle
 10
948.6588376471884
 20
2293.276641727861
 30
0.0
 40
6.000000000000005
  0
CIRCLE
  5
223
330
188
100
AcDbEntity
  8
0
  6
________________
 62
     7
370
     9
100
AcDbCircle
 10
590.6588376471884
 20
2293.276641727861
 30
0.0
 40
5.781278341185137
  0
CIRCLE
  5
224
330
188
100
AcDbEntity
  8
0
  6
________________
 62
     7
370
     9
100
AcDbCircle
 10
590.6588376471884
 20
2293.276641727861
 30
0.0
 40
6.000000000000005
  0
CIRCLE
  5
225
330
188
100
AcDbEntity
  8
0
  6
________________
 62
     7
370
     9
100
AcDbCircle
 10
948.6588376471884
 20
2660.276641727861
 30
0.0
 40
5.781278341185137
  0
CIRCLE
  5
226
330
188
100
AcDbEntity
  8
0
  6
________________
 62
     7
370
     9
100
AcDbCircle
 10
948.6588376471884
 20
2660.276641727861
 30
0.0
 40
6.000000000000005
  0
CIRCLE
  5
227
330
188
100
AcDbEntity
  8
0
  6
________________
 62
     7
370
     9
100
AcDbCircle
 10
590.6588376471884
 20
2660.276641727861
 30
0.0
 40
5.781278341185137
  0
CIRCLE
  5
228
330
188
100
AcDbEntity
  8
0
  6
________________
 62
     7
370
     9
100
AcDbCircle
 10
590.6588376471884
 20
2660.276641727861
 30
0.0
 40
6.000000000000005
  0
LINE
  5
229
330
188
100
AcDbEntity
  8
0
  6
________________
 62
     7
370
     9
100
AcDbLine
 10
545.1588376471884
 20
2443.907874723153
 30
0.0
 11
544.4588376471884
 21
2443.846632658684
 31
0.0
  0
LINE
  5
22A
330
188
100
AcDbEntity
  8
0
  6
________________
 62
     7
370
     9
100
AcDbLine
 10
544.4588376471884
 20
2443.846632658684
 30
0.0
 11
543.6588376471883
 21
2443.776641727864
 31
0.0
  0
LINE
  5
22B
330
188
100
AcDbEntity
  8
0
  6
________________
 62
     7
370
     9
100
AcDbLine
 10
543.6588376471883
 20
2452.776641727864
 30
0.0
 11
544.4588376471884
 21
2452.706650797043
 31
0.0
  0
LINE
  5
22C
330
188
100
AcDbEntity
  8
0
  6
________________
 62
     7
370
     9
100
AcDbLine
 10
544.4588376471884
 20
2452.706650797043
 30
0.0
 11
545.1588376471884
 21
2452.645408732575
 31
0.0
  0
LINE
  5
22D
330
188
100
AcDbEntity
  8
0
  6
________________
 62
     7
370
     9
100
AcDbLine
 10
546.1588376471884
 20
2442.495363386679
 30
0.0
 11
543.6588376471883
 21
2442.276641727864
 31
0.0
  0
LINE
  5
22E
330
188
100
AcDbEntity
  8
0
  6
________________
 62
     7
370
     9
100
AcDbLine
 10
543.6588376471883
 20
2454.276641727864
 30
0.0
 11
546.1588376471884
 21
2454.057920069049
 31
0.0
  0
LINE
  5
22F
330
188
100
AcDbEntity
  8
0
  6
________________
 62
     7
370
     9
100
AcDbLine
 10
546.1588376471884
 20
2454.057920069049
 30
0.0
 11
546.1588376471884
 21
2442.495363386679
 31
0.0
  0
LINE
  5
230
330
188
100
AcDbEntity
  8
0
  6
________________
 62
     7
370
     9
100
AcDbLine
 10
545.1588376471884
 20
2452.645408732575
 30
0.0
 11
545.1588376471884
 21
2443.907874723153
 31
0.0
  0
LINE
  5
231
330
188
100
AcDbEntity
  8
0
  6
________________
 62
     7
370
     9
100
AcDbLine
 10
543.6588376471883
 20
2443.776641727864
 30
0.0
 11
543.6588376471883
 21
2443.426641727861
 31
0.0
  0
LINE
  5
232
330
188
100
AcDbEntity
  8
0
  6
________________
 62
     7
370
     9
100
AcDbLine
 10
543.6588376471883
 20
2443.426641727861
 30
0.0
 11
543.6588376471883
 21
2442.276641727864
 31
0.0
  0
LINE
  5
233
330
188
100
AcDbEntity
  8
0
  6
________________
 62
     7
370
     9
100
AcDbLine
 10
543.6588376471883
 20
2454.276641727864
 30
0.0
 11
543.6588376471883
 21
2453.126641727861
 31
0.0
  0
LINE
  5
234
330
188
100
AcDbEntity
  8
0
  6
________________
 62
     7
370
     9
100
AcDbLine
 10
543.6588376471883
 20
2453.126641727861
 30
0.0
 11
543.6588376471883
 21
2452.776641727864
 31
0.0
  0
LINE
  5
235
330
188
100
AcDbEntity
  8
0
  6
________________
 62
     7
370
     9
100
AcDbLine
 10
543.6588376471883
 20
2724.276641727861
 30
0.0
 11
546.1588376471884
 21
2724.057920069046
 31
0.0
  0
LINE
  5
236
330
188
100
AcDbEntity
  8
0
  6
________________
 62
     7
370
     9
100
AcDbLine
 10
546.1588376471884
 20
2724.057920069046
 30
0.0
 11
546.1588376471884
 21
2712.495363386676
 31
0.0
  0
LINE
  5
237
330
188
100
AcDbEntity
  8
0
  6
________________
 62
     7
370
     9
100
AcDbLine
 10
546.1588376471884
 20
2712.495363386676
 30
0.0
 11
543.6588376471883
 21
2712.276641727861
 31
0.0
  0
LINE
  5
238
330
188
100
AcDbEntity
  8
0
  6
________________
 62
     7
370
     9
100
AcDbLine
 10
543.6588376471883
 20
2713.776641727861
 30
0.0
 11
543.6588376471883
 21
2713.426641727861
 31
0.0
  0
LINE
  5
239
330
188
100
AcDbEntity
  8
0
  6
________________
 62
     7
370
     9
100
AcDbLine
 10
543.6588376471883
 20
2713.426641727861
 30
0.0
 11
543.6588376471883
 21
2712.276641727861
 31
0.0
  0
LINE
  5
23A
330
188
100
AcDbEntity
  8
0
  6
________________
 62
     7
370
     9
100
AcDbLine
 10
545.1588376471884
 20
2713.90787472315
 30
0.0
 11
544.4588376471884
 21
2713.846632658682
 31
0.0
  0
LINE
  5
23B
330
188
100
AcDbEntity
  8
0
  6
________________
 62
     7
370
     9
100
AcDbLine
 10
544.4588376471884
 20
2713.846632658682
 30
0.0
 11
543.6588376471883
 21
2713.776641727861
 31
0.0
  0
LINE
  5
23C
330
188
100
AcDbEntity
  8
0
  6
________________
 62
     7
370
     9
100
AcDbLine
 10
545.1588376471884
 20
2722.645408732572
 30
0.0
 11
545.1588376471884
 21
2713.90787472315
 31
0.0
  0
LINE
  5
23D
330
188
100
AcDbEntity
  8
0
  6
________________
 62
     7
370
     9
100
AcDbLine
 10
543.6588376471883
 20
2722.776641727861
 30
0.0
 11
544.4588376471884
 21
2722.70665079704
 31
0.0
  0
LINE
  5
23E
330
188
100
AcDbEntity
  8
0
  6
________________
 62
     7
370
     9
100
AcDbLine
 10
544.4588376471884
 20
2722.70665079704
 30
0.0
 11
545.1588376471884
 21
2722.645408732572
 31
0.0
  0
LINE
  5
23F
330
188
100
AcDbEntity
  8
0
  6
________________
 62
     7
370
     9
100
AcDbLine
 10
543.6588376471883
 20
2724.276641727861
 30
0.0
 11
543.6588376471883
 21
2723.126641727861
 31
0.0
  0
LINE
  5
240
330
188
100
AcDbEntity
  8
0
  6
________________
 62
     7
370
     9
100
AcDbLine
 10
543.6588376471883
 20
2723.126641727861
 30
0.0
 11
543.6588376471883
 21
2722.776641727861
 31
0.0
  0
LINE
  5
241
330
188
100
AcDbEntity
  8
0
  6
________________
 62
     7
370
     9
100
AcDbLine
 10
541.2420772664224
 20
2505.276641727859
 30
0.0
 11
544.4588376471884
 21
2506.776641727861
 31
0.0
  0
LINE
  5
242
330
188
100
AcDbEntity
  8
0
  6
________________
 62
     7
370
     9
100
AcDbLine
 10
541.2420772664224
 20
2505.276641727859
 30
0.0
 11
544.4588376471884
 21
2508.276641727861
 31
0.0
  0
LINE
  5
243
330
188
100
AcDbEntity
  8
0
  6
________________
 62
     7
370
     9
100
AcDbLine
 10
544.4588376471884
 20
2508.276641727861
 30
0.0
 11
544.4588376471884
 21
2506.776641727861
 31
0.0
  0
LINE
  5
244
330
188
100
AcDbEntity
  8
0
  6
________________
 62
     7
370
     9
100
AcDbLine
 10
541.2420772664224
 20
2505.276641727859
 30
0.0
 11
544.4588376471884
 21
2502.276641727857
 31
0.0
  0
LINE
  5
245
330
188
100
AcDbEntity
  8
0
  6
________________
 62
     7
370
     9
100
AcDbLine
 10
544.4588376471884
 20
2503.776641727861
 30
0.0
 11
544.4588376471884
 21
2502.276641727857
 31
0.0
  0
LINE
  5
246
330
188
100
AcDbEntity
  8
0
  6
________________
 62
     7
370
     9
100
AcDbLine
 10
541.2420772664224
 20
2505.276641727859
 30
0.0
 11
544.4588376471884
 21
2503.776641727861
 31
0.0
  0
LINE
  5
247
330
188
100
AcDbEntity
  8
0
  6
________________
 62
     7
370
     9
100
AcDbLine
 10
541.2420772664224
 20
2505.276641727859
 30
0.0
 11
544.4588376471884
 21
2505.276641727861
 31
0.0
  0
LINE
  5
248
330
188
100
AcDbEntity
  8
0
  6
________________
 62
     7
370
     9
100
AcDbLine
 10
544.4588376471884
 20
2505.276641727861
 30
0.0
 11
544.4588376471884
 21
2503.776641727861
 31
0.0
  0
LINE
  5
249
330
188
100
AcDbEntity
  8
0
  6
________________
 62
     7
370
     9
100
AcDbLine
 10
544.4588376471884
 20
2506.776641727861
 30
0.0
 11
544.4588376471884
 21
2505.276641727861
 31
0.0
  0
LINE
  5
24A
330
188
100
AcDbEntity
  8
0
  6
________________
 62
     7
370
     9
100
AcDbLine
 10
541.0093185943484
 20
2503.276641727862
 30
0.0
 11
529.6588376471854
 21
2503.276641727862
 31
0.0
  0
LINE
  5
24B
330
188
100
AcDbEntity
  8
0
  6
________________
 62
     7
370
     9
100
AcDbLine
 10
529.6588376471854
 20
2503.276641727862
 30
0.0
 11
524.4588376471853
 21
2503.276641727861
 31
0.0
  0
LINE
  5
24C
330
188
100
AcDbEntity
  8
0
  6
________________
 62
     7
370
     9
100
AcDbLine
 10
524.4588376471853
 20
2507.276641727861
 30
0.0
 11
529.6588376471854
 21
2507.276641727861
 31
0.0
  0
LINE
  5
24D
330
188
100
AcDbEntity
  8
0
  6
________________
 62
     7
370
     9
100
AcDbLine
 10
529.6588376471854
 20
2507.276641727861
 30
0.0
 11
541.0093185943484
 21
2507.276641727861
 31
0.0
  0
LINE
  5
24E
330
188
100
AcDbEntity
  8
0
  6
________________
 62
     7
370
     9
100
AcDbLine
 10
544.4588376471884
 20
2500.42664172786
 30
0.0
 11
543.6588376471883
 21
2500.42664172786
 31
0.0
  0
LINE
  5
24F
330
188
100
AcDbEntity
  8
0
  6
________________
 62
     7
370
     9
100
AcDbLine
 10
543.6588376471883
 20
2502.901641727861
 30
0.0
 11
543.6588376471883
 21
2500.42664172786
 31
0.0
  0
LINE
  5
250
330
188
100
AcDbEntity
  8
0
  6
________________
 62
     7
370
     9
100
AcDbLine
 10
543.6588376471883
 20
2502.901641727861
 30
0.0
 11
541.6588376471883
 21
2502.901641727861
 31
0.0
  0
LINE
  5
251
330
188
100
AcDbEntity
  8
0
  6
________________
 62
     7
370
     9
100
AcDbLine
 10
541.6588376471883
 20
2502.901641727861
 30
0.0
 11
541.0093185943484
 21
2503.276641727862
 31
0.0
  0
LINE
  5
252
330
188
100
AcDbEntity
  8
0
  6
________________
 62
     7
370
     9
100
AcDbLine
 10
524.4588376471853
 20
2507.276641727861
 30
0.0
 11
524.4588376471853
 21
2503.276641727861
 31
0.0
  0
LINE
  5
253
330
188
100
AcDbEntity
  8
0
  6
________________
 62
     7
370
     9
100
AcDbLine
 10
541.0093185943484
 20
2507.276641727861
 30
0.0
 11
541.6588376471883
 21
2507.651641727861
 31
0.0
  0
LINE
  5
254
330
188
100
AcDbEntity
  8
0
  6
________________
 62
     7
370
     9
100
AcDbLine
 10
541.6588376471883
 20
2507.651641727861
 30
0.0
 11
543.6588376471883
 21
2507.651641727861
 31
0.0
  0
LINE
  5
255
330
188
100
AcDbEntity
  8
0
  6
________________
 62
     7
370
     9
100
AcDbLine
 10
543.6588376471883
 20
2510.126641727862
 30
0.0
 11
543.6588376471883
 21
2507.651641727861
 31
0.0
  0
LINE
  5
256
330
188
100
AcDbEntity
  8
0
  6
________________
 62
     7
370
     9
100
AcDbLine
 10
543.6588376471883
 20
2510.126641727862
 30
0.0
 11
544.4588376471884
 21
2510.126641727862
 31
0.0
  0
LINE
  5
257
330
188
100
AcDbEntity
  8
0
  6
________________
 62
     7
370
     9
100
AcDbLine
 10
544.4588376471884
 20
2508.276641727861
 30
0.0
 11
544.4588376471884
 21
2510.126641727862
 31
0.0
  0
LINE
  5
258
330
188
100
AcDbEntity
  8
0
  6
________________
 62
     7
370
     9
100
AcDbLine
 10
544.4588376471884
 20
2500.42664172786
 30
0.0
 11
544.4588376471884
 21
2502.276641727857
 31
0.0
  0
LINE
  5
259
330
188
100
AcDbEntity
  8
0
  6
________________
 62
     7
370
     9
100
AcDbLine
 10
521.6588376471854
 20
2506.976641727862
 30
0.0
 11
522.6588376471855
 21
2507.976641727861
 31
0.0
  0
LINE
  5
25A
330
188
100
AcDbEntity
  8
0
  6
________________
 62
     7
370
     9
100
AcDbLine
 10
522.6588376471855
 20
2502.576641727861
 30
0.0
 11
521.6588376471854
 21
2503.576641727861
 31
0.0
  0
LINE
  5
25B
330
188
100
AcDbEntity
  8
0
  6
________________
 62
     7
370
     9
100
AcDbLine
 10
529.6588376471854
 20
2507.976641727861
 30
0.0
 11
529.6588376471854
 21
2507.276641727861
 31
0.0
  0
LINE
  5
25C
330
188
100
AcDbEntity
  8
0
  6
________________
 62
     7
370
     9
100
AcDbLine
 10
529.6588376471854
 20
2507.276641727861
 30
0.0
 11
529.6588376471854
 21
2506.926641727861
 31
0.0
  0
LINE
  5
25D
330
188
100
AcDbEntity
  8
0
  6
________________
 62
     7
370
     9
100
AcDbLine
 10
523.6588376471854
 20
2506.926641727861
 30
0.0
 11
524.4588376471853
 21
2506.926641727861
 31
0.0
  0
LINE
  5
25E
330
188
100
AcDbEntity
  8
0
  6
________________
 62
     7
370
     9
100
AcDbLine
 10
524.4588376471853
 20
2506.926641727861
 30
0.0
 11
529.6588376471854
 21
2506.926641727861
 31
0.0
  0
LINE
  5
25F
330
188
100
AcDbEntity
  8
0
  6
________________
 62
     7
370
     9
100
AcDbLine
 10
521.6588376471854
 20
2506.926641727861
 30
0.0
 11
523.6588376471854
 21
2506.926641727861
 31
0.0
  0
LINE
  5
260
330
188
100
AcDbEntity
  8
0
  6
________________
 62
     7
370
     9
100
AcDbLine
 10
521.6588376471854
 20
2506.926641727861
 30
0.0
 11
521.6588376471854
 21
2506.976641727862
 31
0.0
  0
LINE
  5
261
330
188
100
AcDbEntity
  8
0
  6
________________
 62
     7
370
     9
100
AcDbLine
 10
522.6588376471855
 20
2507.976641727861
 30
0.0
 11
522.6588376471855
 21
2506.976641727862
 31
0.0
  0
LINE
  5
262
330
188
100
AcDbEntity
  8
0
  6
________________
 62
     7
370
     9
100
AcDbLine
 10
522.6588376471855
 20
2506.976641727862
 30
0.0
 11
523.6588376471854
 21
2507.976641727861
 31
0.0
  0
LINE
  5
263
330
188
100
AcDbEntity
  8
0
  6
________________
 62
     7
370
     9
100
AcDbLine
 10
523.6588376471854
 20
2507.976641727861
 30
0.0
 11
523.6588376471854
 21
2506.976641727862
 31
0.0
  0
LINE
  5
264
330
188
100
AcDbEntity
  8
0
  6
________________
 62
     7
370
     9
100
AcDbLine
 10
523.6588376471854
 20
2506.976641727862
 30
0.0
 11
524.6588376471855
 21
2507.976641727861
 31
0.0
  0
LINE
  5
265
330
188
100
AcDbEntity
  8
0
  6
________________
 62
     7
370
     9
100
AcDbLine
 10
524.6588376471855
 20
2507.976641727861
 30
0.0
 11
527.6588376471884
 21
2507.976641727861
 31
0.0
  0
LINE
  5
266
330
188
100
AcDbEntity
  8
0
  6
________________
 62
     7
370
     9
100
AcDbLine
 10
527.6588376471884
 20
2507.976641727861
 30
0.0
 11
529.6588376471854
 21
2507.976641727861
 31
0.0
  0
LINE
  5
267
330
188
100
AcDbEntity
  8
0
  6
________________
 62
     7
370
     9
100
AcDbLine
 10
529.6588376471854
 20
2503.626641727861
 30
0.0
 11
529.6588376471854
 21
2503.276641727861
 31
0.0
  0
LINE
  5
268
330
188
100
AcDbEntity
  8
0
  6
________________
 62
     7
370
     9
100
AcDbLine
 10
529.6588376471854
 20
2503.276641727861
 30
0.0
 11
529.6588376471854
 21
2502.576641727861
 31
0.0
  0
LINE
  5
269
330
188
100
AcDbEntity
  8
0
  6
________________
 62
     7
370
     9
100
AcDbLine
 10
529.6588376471854
 20
2502.576641727861
 30
0.0
 11
527.6588376471884
 21
2502.576641727861
 31
0.0
  0
LINE
  5
26A
330
188
100
AcDbEntity
  8
0
  6
________________
 62
     7
370
     9
100
AcDbLine
 10
527.6588376471884
 20
2502.576641727861
 30
0.0
 11
524.6588376471855
 21
2502.576641727861
 31
0.0
  0
LINE
  5
26B
330
188
100
AcDbEntity
  8
0
  6
________________
 62
     7
370
     9
100
AcDbLine
 10
524.6588376471855
 20
2502.576641727861
 30
0.0
 11
523.6588376471854
 21
2503.576641727861
 31
0.0
  0
LINE
  5
26C
330
188
100
AcDbEntity
  8
0
  6
________________
 62
     7
370
     9
100
AcDbLine
 10
523.6588376471854
 20
2503.576641727861
 30
0.0
 11
523.6588376471854
 21
2502.576641727861
 31
0.0
  0
LINE
  5
26D
330
188
100
AcDbEntity
  8
0
  6
________________
 62
     7
370
     9
100
AcDbLine
 10
523.6588376471854
 20
2502.576641727861
 30
0.0
 11
522.6588376471855
 21
2503.576641727861
 31
0.0
  0
LINE
  5
26E
330
188
100
AcDbEntity
  8
0
  6
________________
 62
     7
370
     9
100
AcDbLine
 10
522.6588376471855
 20
2503.576641727861
 30
0.0
 11
522.6588376471855
 21
2502.576641727861
 31
0.0
  0
LINE
  5
26F
330
188
100
AcDbEntity
  8
0
  6
________________
 62
     7
370
     9
100
AcDbLine
 10
521.6588376471854
 20
2503.576641727861
 30
0.0
 11
521.6588376471854
 21
2503.626641727861
 31
0.0
  0
LINE
  5
270
330
188
100
AcDbEntity
  8
0
  6
________________
 62
     7
370
     9
100
AcDbLine
 10
523.6588376471854
 20
2503.626641727861
 30
0.0
 11
521.6588376471854
 21
2503.626641727861
 31
0.0
  0
LINE
  5
271
330
188
100
AcDbEntity
  8
0
  6
________________
 62
     7
370
     9
100
AcDbLine
 10
529.6588376471854
 20
2503.626641727861
 30
0.0
 11
524.4588376471853
 21
2503.626641727861
 31
0.0
  0
LINE
  5
272
330
188
100
AcDbEntity
  8
0
  6
________________
 62
     7
370
     9
100
AcDbLine
 10
524.4588376471853
 20
2503.626641727861
 30
0.0
 11
523.6588376471854
 21
2503.626641727861
 31
0.0
  0
LINE
  5
273
330
188
100
AcDbEntity
  8
0
  6
________________
 62
   253
420
 11316396
370
     9
100
AcDbLine
 10
523.6588376471854
 20
2505.276641727861
 30
0.0
 11
523.6588376471854
 21
2506.926641727861
 31
0.0
  0
LINE
  5
274
330
188
100
AcDbEntity
  8
0
  6
________________
 62
   253
420
 11316396
370
     9
100
AcDbLine
 10
523.6588376471854
 20
2503.626641727861
 30
0.0
 11
523.6588376471854
 21
2505.276641727861
 31
0.0
  0
LINE
  5
275
330
188
100
AcDbEntity
  8
0
  6
________________
 62
     7
370
     9
100
AcDbLine
 10
521.6588376471854
 20
2503.626641727861
 30
0.0
 11
521.6588376471854
 21
2506.926641727861
 31
0.0
  0
LINE
  5
276
330
188
100
AcDbEntity
  8
0
  6
________________
 62
     7
370
     9
100
AcDbLine
 10
541.2420772664243
 20
2718.27664172786
 30
0.0
 11
544.4588376471884
 21
2715.276641727861
 31
0.0
  0
LINE
  5
277
330
188
100
AcDbEntity
  8
0
  6
________________
 62
     7
370
     9
100
AcDbLine
 10
544.4588376471884
 20
2713.426641727861
 30
0.0
 11
544.4588376471884
 21
2715.276641727861
 31
0.0
  0
LINE
  5
278
330
188
100
AcDbEntity
  8
0
  6
________________
 62
     7
370
     9
100
AcDbLine
 10
544.4588376471884
 20
2713.426641727861
 30
0.0
 11
543.6588376471883
 21
2713.426641727861
 31
0.0
  0
LINE
  5
279
330
188
100
AcDbEntity
  8
0
  6
________________
 62
     7
370
     9
100
AcDbLine
 10
543.6588376471883
 20
2715.901641727861
 30
0.0
 11
543.6588376471883
 21
2713.426641727861
 31
0.0
  0
LINE
  5
27A
330
188
100
AcDbEntity
  8
0
  6
________________
 62
     7
370
     9
100
AcDbLine
 10
543.6588376471883
 20
2715.901641727861
 30
0.0
 11
541.6588376471883
 21
2715.901641727861
 31
0.0
  0
LINE
  5
27B
330
188
100
AcDbEntity
  8
0
  6
________________
 62
     7
370
     9
100
AcDbLine
 10
541.6588376471883
 20
2715.901641727861
 30
0.0
 11
541.0093185943495
 21
2716.276641727862
 31
0.0
  0
LINE
  5
27C
330
188
100
AcDbEntity
  8
0
  6
________________
 62
     7
370
     9
100
AcDbLine
 10
541.0093185943495
 20
2716.276641727862
 30
0.0
 11
529.6588376471884
 21
2716.276641727861
 31
0.0
  0
LINE
  5
27D
330
188
100
AcDbEntity
  8
0
  6
________________
 62
     7
370
     9
100
AcDbLine
 10
529.6588376471884
 20
2716.276641727861
 30
0.0
 11
524.4588376471884
 21
2716.276641727861
 31
0.0
  0
LINE
  5
27E
330
188
100
AcDbEntity
  8
0
  6
________________
 62
     7
370
     9
100
AcDbLine
 10
524.4588376471884
 20
2720.276641727861
 30
0.0
 11
524.4588376471884
 21
2716.276641727861
 31
0.0
  0
LINE
  5
27F
330
188
100
AcDbEntity
  8
0
  6
________________
 62
     7
370
     9
100
AcDbLine
 10
524.4588376471884
 20
2720.276641727861
 30
0.0
 11
529.6588376471884
 21
2720.276641727861
 31
0.0
  0
LINE
  5
280
330
188
100
AcDbEntity
  8
0
  6
________________
 62
     7
370
     9
100
AcDbLine
 10
529.6588376471884
 20
2720.276641727861
 30
0.0
 11
541.0093185943495
 21
2720.276641727861
 31
0.0
  0
LINE
  5
281
330
188
100
AcDbEntity
  8
0
  6
________________
 62
     7
370
     9
100
AcDbLine
 10
541.0093185943495
 20
2720.276641727861
 30
0.0
 11
541.6588376471883
 21
2720.651641727861
 31
0.0
  0
LINE
  5
282
330
188
100
AcDbEntity
  8
0
  6
________________
 62
     7
370
     9
100
AcDbLine
 10
541.6588376471883
 20
2720.651641727861
 30
0.0
 11
543.6588376471883
 21
2720.651641727861
 31
0.0
  0
LINE
  5
283
330
188
100
AcDbEntity
  8
0
  6
________________
 62
     7
370
     9
100
AcDbLine
 10
543.6588376471883
 20
2723.126641727861
 30
0.0
 11
543.6588376471883
 21
2720.651641727861
 31
0.0
  0
LINE
  5
284
330
188
100
AcDbEntity
  8
0
  6
________________
 62
     7
370
     9
100
AcDbLine
 10
543.6588376471883
 20
2723.126641727861
 30
0.0
 11
544.4588376471884
 21
2723.126641727861
 31
0.0
  0
LINE
  5
285
330
188
100
AcDbEntity
  8
0
  6
________________
 62
     7
370
     9
100
AcDbLine
 10
544.4588376471884
 20
2721.276641727861
 30
0.0
 11
544.4588376471884
 21
2723.126641727861
 31
0.0
  0
LINE
  5
286
330
188
100
AcDbEntity
  8
0
  6
________________
 62
     7
370
     9
100
AcDbLine
 10
541.2420772664243
 20
2718.27664172786
 30
0.0
 11
544.4588376471884
 21
2721.276641727861
 31
0.0
  0
LINE
  5
287
330
188
100
AcDbEntity
  8
0
  6
________________
 62
     7
370
     9
100
AcDbLine
 10
541.2420772664243
 20
2718.27664172786
 30
0.0
 11
544.4588376471884
 21
2716.776641727861
 31
0.0
  0
LINE
  5
288
330
188
100
AcDbEntity
  8
0
  6
________________
 62
     7
370
     9
100
AcDbLine
 10
544.4588376471884
 20
2716.776641727861
 30
0.0
 11
544.4588376471884
 21
2715.276641727861
 31
0.0
  0
LINE
  5
289
330
188
100
AcDbEntity
  8
0
  6
________________
 62
     7
370
     9
100
AcDbLine
 10
541.2420772664243
 20
2718.27664172786
 30
0.0
 11
544.4588376471884
 21
2719.776641727861
 31
0.0
  0
LINE
  5
28A
330
188
100
AcDbEntity
  8
0
  6
________________
 62
     7
370
     9
100
AcDbLine
 10
544.4588376471884
 20
2721.276641727861
 30
0.0
 11
544.4588376471884
 21
2719.776641727861
 31
0.0
  0
LINE
  5
28B
330
188
100
AcDbEntity
  8
0
  6
________________
 62
     7
370
     9
100
AcDbLine
 10
541.2420772664243
 20
2718.27664172786
 30
0.0
 11
544.4588376471884
 21
2718.276641727861
 31
0.0
  0
LINE
  5
28C
330
188
100
AcDbEntity
  8
0
  6
________________
 62
     7
370
     9
100
AcDbLine
 10
544.4588376471884
 20
2719.776641727861
 30
0.0
 11
544.4588376471884
 21
2718.276641727861
 31
0.0
  0
LINE
  5
28D
330
188
100
AcDbEntity
  8
0
  6
________________
 62
     7
370
     9
100
AcDbLine
 10
544.4588376471884
 20
2718.276641727861
 30
0.0
 11
544.4588376471884
 21
2716.776641727861
 31
0.0
  0
LINE
  5
28E
330
188
100
AcDbEntity
  8
0
  6
________________
 62
     7
370
     9
100
AcDbLine
 10
529.6588376471884
 20
2715.576641727861
 30
0.0
 11
527.6588376471884
 21
2715.576641727861
 31
0.0
  0
LINE
  5
28F
330
188
100
AcDbEntity
  8
0
  6
________________
 62
     7
370
     9
100
AcDbLine
 10
527.6588376471884
 20
2715.576641727861
 30
0.0
 11
524.6588376471883
 21
2715.576641727861
 31
0.0
  0
LINE
  5
290
330
188
100
AcDbEntity
  8
0
  6
________________
 62
     7
370
     9
100
AcDbLine
 10
524.6588376471883
 20
2720.976641727861
 30
0.0
 11
527.6588376471884
 21
2720.976641727861
 31
0.0
  0
LINE
  5
291
330
188
100
AcDbEntity
  8
0
  6
________________
 62
     7
370
     9
100
AcDbLine
 10
527.6588376471884
 20
2720.976641727861
 30
0.0
 11
529.6588376471884
 21
2720.976641727861
 31
0.0
  0
LINE
  5
292
330
188
100
AcDbEntity
  8
0
  6
________________
 62
     7
370
     9
100
AcDbLine
 10
521.6588376471884
 20
2719.976641727861
 30
0.0
 11
522.6588376471883
 21
2720.976641727861
 31
0.0
  0
LINE
  5
293
330
188
100
AcDbEntity
  8
0
  6
________________
 62
     7
370
     9
100
AcDbLine
 10
522.6588376471883
 20
2715.576641727861
 30
0.0
 11
521.6588376471884
 21
2716.576641727861
 31
0.0
  0
LINE
  5
294
330
188
100
AcDbEntity
  8
0
  6
________________
 62
     7
370
     9
100
AcDbLine
 10
521.6588376471884
 20
2719.926641727861
 30
0.0
 11
523.6588376471884
 21
2719.926641727861
 31
0.0
  0
LINE
  5
295
330
188
100
AcDbEntity
  8
0
  6
________________
 62
   253
420
 11316396
370
     9
100
AcDbLine
 10
523.6588376471884
 20
2716.626641727861
 30
0.0
 11
523.6588376471884
 21
2719.926641727861
 31
0.0
  0
LINE
  5
296
330
188
100
AcDbEntity
  8
0
  6
________________
 62
     7
370
     9
100
AcDbLine
 10
523.6588376471884
 20
2716.626641727861
 30
0.0
 11
521.6588376471884
 21
2716.626641727861
 31
0.0
  0
LINE
  5
297
330
188
100
AcDbEntity
  8
0
  6
________________
 62
     7
370
     9
100
AcDbLine
 10
521.6588376471884
 20
2718.276641727861
 30
0.0
 11
521.6588376471884
 21
2719.926641727861
 31
0.0
  0
LINE
  5
298
330
188
100
AcDbEntity
  8
0
  6
________________
 62
     7
370
     9
100
AcDbLine
 10
521.6588376471884
 20
2716.626641727861
 30
0.0
 11
521.6588376471884
 21
2718.276641727861
 31
0.0
  0
LINE
  5
299
330
188
100
AcDbEntity
  8
0
  6
________________
 62
     7
370
     9
100
AcDbLine
 10
529.6588376471884
 20
2716.626641727861
 30
0.0
 11
529.6588376471884
 21
2716.276641727862
 31
0.0
  0
LINE
  5
29A
330
188
100
AcDbEntity
  8
0
  6
________________
 62
     7
370
     9
100
AcDbLine
 10
529.6588376471884
 20
2716.276641727862
 30
0.0
 11
529.6588376471884
 21
2715.576641727861
 31
0.0
  0
LINE
  5
29B
330
188
100
AcDbEntity
  8
0
  6
________________
 62
     7
370
     9
100
AcDbLine
 10
524.6588376471883
 20
2715.576641727861
 30
0.0
 11
523.6588376471884
 21
2716.576641727861
 31
0.0
  0
LINE
  5
29C
330
188
100
AcDbEntity
  8
0
  6
________________
 62
     7
370
     9
100
AcDbLine
 10
523.6588376471884
 20
2716.576641727861
 30
0.0
 11
523.6588376471884
 21
2715.576641727861
 31
0.0
  0
LINE
  5
29D
330
188
100
AcDbEntity
  8
0
  6
________________
 62
     7
370
     9
100
AcDbLine
 10
523.6588376471884
 20
2715.576641727861
 30
0.0
 11
522.6588376471883
 21
2716.576641727861
 31
0.0
  0
LINE
  5
29E
330
188
100
AcDbEntity
  8
0
  6
________________
 62
     7
370
     9
100
AcDbLine
 10
522.6588376471883
 20
2716.576641727861
 30
0.0
 11
522.6588376471883
 21
2715.576641727861
 31
0.0
  0
LINE
  5
29F
330
188
100
AcDbEntity
  8
0
  6
________________
 62
     7
370
     9
100
AcDbLine
 10
529.6588376471884
 20
2716.626641727861
 30
0.0
 11
524.4588376471884
 21
2716.626641727861
 31
0.0
  0
LINE
  5
2A0
330
188
100
AcDbEntity
  8
0
  6
________________
 62
     7
370
     9
100
AcDbLine
 10
524.4588376471884
 20
2716.626641727861
 30
0.0
 11
523.6588376471884
 21
2716.626641727861
 31
0.0
  0
LINE
  5
2A1
330
188
100
AcDbEntity
  8
0
  6
________________
 62
     7
370
     9
100
AcDbLine
 10
521.6588376471884
 20
2716.576641727861
 30
0.0
 11
521.6588376471884
 21
2716.626641727861
 31
0.0
  0
LINE
  5
2A2
330
188
100
AcDbEntity
  8
0
  6
________________
 62
     7
370
     9
100
AcDbLine
 10
529.6588376471884
 20
2720.976641727861
 30
0.0
 11
529.6588376471884
 21
2720.276641727861
 31
0.0
  0
LINE
  5
2A3
330
188
100
AcDbEntity
  8
0
  6
________________
 62
     7
370
     9
100
AcDbLine
 10
529.6588376471884
 20
2720.276641727861
 30
0.0
 11
529.6588376471884
 21
2719.926641727861
 31
0.0
  0
LINE
  5
2A4
330
188
100
AcDbEntity
  8
0
  6
________________
 62
     7
370
     9
100
AcDbLine
 10
523.6588376471884
 20
2719.926641727861
 30
0.0
 11
524.4588376471884
 21
2719.926641727861
 31
0.0
  0
LINE
  5
2A5
330
188
100
AcDbEntity
  8
0
  6
________________
 62
     7
370
     9
100
AcDbLine
 10
524.4588376471884
 20
2719.926641727861
 30
0.0
 11
529.6588376471884
 21
2719.926641727861
 31
0.0
  0
LINE
  5
2A6
330
188
100
AcDbEntity
  8
0
  6
________________
 62
     7
370
     9
100
AcDbLine
 10
522.6588376471883
 20
2720.976641727861
 30
0.0
 11
522.6588376471883
 21
2719.976641727861
 31
0.0
  0
LINE
  5
2A7
330
188
100
AcDbEntity
  8
0
  6
________________
 62
     7
370
     9
100
AcDbLine
 10
522.6588376471883
 20
2719.976641727861
 30
0.0
 11
523.6588376471884
 21
2720.976641727861
 31
0.0
  0
LINE
  5
2A8
330
188
100
AcDbEntity
  8
0
  6
________________
 62
     7
370
     9
100
AcDbLine
 10
523.6588376471884
 20
2720.976641727861
 30
0.0
 11
523.6588376471884
 21
2719.976641727861
 31
0.0
  0
LINE
  5
2A9
330
188
100
AcDbEntity
  8
0
  6
________________
 62
     7
370
     9
100
AcDbLine
 10
523.6588376471884
 20
2719.976641727861
 30
0.0
 11
524.6588376471883
 21
2720.976641727861
 31
0.0
  0
LINE
  5
2AA
330
188
100
AcDbEntity
  8
0
  6
________________
 62
     7
370
     9
100
AcDbLine
 10
521.6588376471884
 20
2719.926641727861
 30
0.0
 11
521.6588376471884
 21
2719.976641727861
 31
0.0
  0
LINE
  5
2AB
330
188
100
AcDbEntity
  8
0
  6
________________
 62
     7
370
     9
100
AcDbLine
 10
541.2420772664224
 20
2235.27664172786
 30
0.0
 11
544.4588376471884
 21
2235.276641727859
 31
0.0
  0
LINE
  5
2AC
330
188
100
AcDbEntity
  8
0
  6
________________
 62
     7
370
     9
100
AcDbLine
 10
544.4588376471884
 20
2236.776641727859
 30
0.0
 11
544.4588376471884
 21
2235.276641727859
 31
0.0
  0
LINE
  5
2AD
330
188
100
AcDbEntity
  8
0
  6
________________
 62
     7
370
     9
100
AcDbLine
 10
544.4588376471884
 20
2235.276641727859
 30
0.0
 11
544.4588376471884
 21
2233.776641727859
 31
0.0
  0
LINE
  5
2AE
330
188
100
AcDbEntity
  8
0
  6
________________
 62
     7
370
     9
100
AcDbLine
 10
541.2420772664224
 20
2235.27664172786
 30
0.0
 11
544.4588376471884
 21
2236.776641727859
 31
0.0
  0
LINE
  5
2AF
330
188
100
AcDbEntity
  8
0
  6
________________
 62
     7
370
     9
100
AcDbLine
 10
541.2420772664224
 20
2235.27664172786
 30
0.0
 11
544.4588376471884
 21
2238.276641727859
 31
0.0
  0
LINE
  5
2B0
330
188
100
AcDbEntity
  8
0
  6
________________
 62
     7
370
     9
100
AcDbLine
 10
544.4588376471884
 20
2238.276641727859
 30
0.0
 11
544.4588376471884
 21
2236.776641727859
 31
0.0
  0
LINE
  5
2B1
330
188
100
AcDbEntity
  8
0
  6
________________
 62
     7
370
     9
100
AcDbLine
 10
541.2420772664224
 20
2235.27664172786
 30
0.0
 11
544.4588376471884
 21
2232.276641727859
 31
0.0
  0
LINE
  5
2B2
330
188
100
AcDbEntity
  8
0
  6
________________
 62
     7
370
     9
100
AcDbLine
 10
544.4588376471884
 20
2233.776641727859
 30
0.0
 11
544.4588376471884
 21
2232.276641727859
 31
0.0
  0
LINE
  5
2B3
330
188
100
AcDbEntity
  8
0
  6
________________
 62
     7
370
     9
100
AcDbLine
 10
541.2420772664224
 20
2235.27664172786
 30
0.0
 11
544.4588376471884
 21
2233.776641727859
 31
0.0
  0
LINE
  5
2B4
330
188
100
AcDbEntity
  8
0
  6
________________
 62
     7
370
     9
100
AcDbLine
 10
541.0093185943484
 20
2233.27664172786
 30
0.0
 11
529.6588376471884
 21
2233.276641727859
 31
0.0
  0
LINE
  5
2B5
330
188
100
AcDbEntity
  8
0
  6
________________
 62
     7
370
     9
100
AcDbLine
 10
529.6588376471884
 20
2233.276641727859
 30
0.0
 11
524.4588376471884
 21
2233.276641727859
 31
0.0
  0
LINE
  5
2B6
330
188
100
AcDbEntity
  8
0
  6
________________
 62
     7
370
     9
100
AcDbLine
 10
524.4588376471884
 20
2237.276641727859
 30
0.0
 11
529.6588376471884
 21
2237.276641727859
 31
0.0
  0
LINE
  5
2B7
330
188
100
AcDbEntity
  8
0
  6
________________
 62
     7
370
     9
100
AcDbLine
 10
529.6588376471884
 20
2237.276641727859
 30
0.0
 11
541.0093185943484
 21
2237.276641727859
 31
0.0
  0
LINE
  5
2B8
330
188
100
AcDbEntity
  8
0
  6
________________
 62
     7
370
     9
100
AcDbLine
 10
544.4588376471884
 20
2230.426641727859
 30
0.0
 11
543.6588376471883
 21
2230.426641727859
 31
0.0
  0
LINE
  5
2B9
330
188
100
AcDbEntity
  8
0
  6
________________
 62
     7
370
     9
100
AcDbLine
 10
543.6588376471883
 20
2232.901641727859
 30
0.0
 11
543.6588376471883
 21
2230.426641727859
 31
0.0
  0
LINE
  5
2BA
330
188
100
AcDbEntity
  8
0
  6
________________
 62
     7
370
     9
100
AcDbLine
 10
543.6588376471883
 20
2232.901641727859
 30
0.0
 11
541.6588376471883
 21
2232.901641727859
 31
0.0
  0
LINE
  5
2BB
330
188
100
AcDbEntity
  8
0
  6
________________
 62
     7
370
     9
100
AcDbLine
 10
541.6588376471883
 20
2232.901641727859
 30
0.0
 11
541.0093185943484
 21
2233.27664172786
 31
0.0
  0
LINE
  5
2BC
330
188
100
AcDbEntity
  8
0
  6
________________
 62
     7
370
     9
100
AcDbLine
 10
541.0093185943484
 20
2237.276641727859
 30
0.0
 11
541.6588376471883
 21
2237.651641727859
 31
0.0
  0
LINE
  5
2BD
330
188
100
AcDbEntity
  8
0
  6
________________
 62
     7
370
     9
100
AcDbLine
 10
541.6588376471883
 20
2237.651641727859
 30
0.0
 11
543.6588376471883
 21
2237.651641727859
 31
0.0
  0
LINE
  5
2BE
330
188
100
AcDbEntity
  8
0
  6
________________
 62
     7
370
     9
100
AcDbLine
 10
543.6588376471883
 20
2240.126641727859
 30
0.0
 11
543.6588376471883
 21
2237.651641727859
 31
0.0
  0
LINE
  5
2BF
330
188
100
AcDbEntity
  8
0
  6
________________
 62
     7
370
     9
100
AcDbLine
 10
543.6588376471883
 20
2240.126641727859
 30
0.0
 11
544.4588376471884
 21
2240.126641727859
 31
0.0
  0
LINE
  5
2C0
330
188
100
AcDbEntity
  8
0
  6
________________
 62
     7
370
     9
100
AcDbLine
 10
524.4588376471884
 20
2237.276641727859
 30
0.0
 11
524.4588376471884
 21
2233.276641727859
 31
0.0
  0
LINE
  5
2C1
330
188
100
AcDbEntity
  8
0
  6
________________
 62
     7
370
     9
100
AcDbLine
 10
544.4588376471884
 20
2238.276641727859
 30
0.0
 11
544.4588376471884
 21
2240.126641727859
 31
0.0
  0
LINE
  5
2C2
330
188
100
AcDbEntity
  8
0
  6
________________
 62
     7
370
     9
100
AcDbLine
 10
544.4588376471884
 20
2230.426641727859
 30
0.0
 11
544.4588376471884
 21
2232.276641727859
 31
0.0
  0
LINE
  5
2C3
330
188
100
AcDbEntity
  8
0
  6
________________
 62
     7
370
     9
100
AcDbLine
 10
529.6588376471884
 20
2233.626641727859
 30
0.0
 11
529.6588376471884
 21
2233.276641727859
 31
0.0
  0
LINE
  5
2C4
330
188
100
AcDbEntity
  8
0
  6
________________
 62
     7
370
     9
100
AcDbLine
 10
529.6588376471884
 20
2233.276641727859
 30
0.0
 11
529.6588376471884
 21
2232.576641727859
 31
0.0
  0
LINE
  5
2C5
330
188
100
AcDbEntity
  8
0
  6
________________
 62
     7
370
     9
100
AcDbLine
 10
529.6588376471884
 20
2232.576641727859
 30
0.0
 11
527.6588376471884
 21
2232.576641727859
 31
0.0
  0
LINE
  5
2C6
330
188
100
AcDbEntity
  8
0
  6
________________
 62
     7
370
     9
100
AcDbLine
 10
527.6588376471884
 20
2232.576641727859
 30
0.0
 11
524.6588376471855
 21
2232.576641727859
 31
0.0
  0
LINE
  5
2C7
330
188
100
AcDbEntity
  8
0
  6
________________
 62
     7
370
     9
100
AcDbLine
 10
524.6588376471855
 20
2232.576641727859
 30
0.0
 11
523.6588376471854
 21
2233.576641727859
 31
0.0
  0
LINE
  5
2C8
330
188
100
AcDbEntity
  8
0
  6
________________
 62
     7
370
     9
100
AcDbLine
 10
523.6588376471854
 20
2233.576641727859
 30
0.0
 11
523.6588376471854
 21
2232.576641727859
 31
0.0
  0
LINE
  5
2C9
330
188
100
AcDbEntity
  8
0
  6
________________
 62
     7
370
     9
100
AcDbLine
 10
523.6588376471854
 20
2232.576641727859
 30
0.0
 11
522.6588376471855
 21
2233.576641727859
 31
0.0
  0
LINE
  5
2CA
330
188
100
AcDbEntity
  8
0
  6
________________
 62
     7
370
     9
100
AcDbLine
 10
522.6588376471855
 20
2233.576641727859
 30
0.0
 11
522.6588376471855
 21
2232.576641727859
 31
0.0
  0
LINE
  5
2CB
330
188
100
AcDbEntity
  8
0
  6
________________
 62
     7
370
     9
100
AcDbLine
 10
522.6588376471855
 20
2232.576641727859
 30
0.0
 11
521.6588376471854
 21
2233.576641727859
 31
0.0
  0
LINE
  5
2CC
330
188
100
AcDbEntity
  8
0
  6
________________
 62
     7
370
     9
100
AcDbLine
 10
521.6588376471854
 20
2233.576641727859
 30
0.0
 11
521.6588376471854
 21
2233.626641727859
 31
0.0
  0
LINE
  5
2CD
330
188
100
AcDbEntity
  8
0
  6
________________
 62
     7
370
     9
100
AcDbLine
 10
523.6588376471884
 20
2233.626641727859
 30
0.0
 11
521.6588376471854
 21
2233.626641727859
 31
0.0
  0
LINE
  5
2CE
330
188
100
AcDbEntity
  8
0
  6
________________
 62
     7
370
     9
100
AcDbLine
 10
529.6588376471884
 20
2233.626641727859
 30
0.0
 11
524.4588376471884
 21
2233.626641727859
 31
0.0
  0
LINE
  5
2CF
330
188
100
AcDbEntity
  8
0
  6
________________
 62
     7
370
     9
100
AcDbLine
 10
524.4588376471884
 20
2233.626641727859
 30
0.0
 11
523.6588376471884
 21
2233.626641727859
 31
0.0
  0
LINE
  5
2D0
330
188
100
AcDbEntity
  8
0
  6
________________
 62
     7
370
     9
100
AcDbLine
 10
521.6588376471854
 20
2233.626641727859
 30
0.0
 11
521.6588376471854
 21
2236.926641727859
 31
0.0
  0
LINE
  5
2D1
330
188
100
AcDbEntity
  8
0
  6
________________
 62
     7
370
     9
100
AcDbLine
 10
521.6588376471854
 20
2236.926641727859
 30
0.0
 11
523.6588376471884
 21
2236.926641727859
 31
0.0
  0
LINE
  5
2D2
330
188
100
AcDbEntity
  8
0
  6
________________
 62
   253
420
 11316396
370
     9
100
AcDbLine
 10
523.6588376471884
 20
2235.276641727859
 30
0.0
 11
523.6588376471884
 21
2236.926641727859
 31
0.0
  0
LINE
  5
2D3
330
188
100
AcDbEntity
  8
0
  6
________________
 62
   253
420
 11316396
370
     9
100
AcDbLine
 10
523.6588376471884
 20
2233.626641727859
 30
0.0
 11
523.6588376471884
 21
2235.276641727859
 31
0.0
  0
LINE
  5
2D4
330
188
100
AcDbEntity
  8
0
  6
________________
 62
     7
370
     9
100
AcDbLine
 10
529.6588376471884
 20
2237.976641727859
 30
0.0
 11
529.6588376471884
 21
2237.276641727859
 31
0.0
  0
LINE
  5
2D5
330
188
100
AcDbEntity
  8
0
  6
________________
 62
     7
370
     9
100
AcDbLine
 10
529.6588376471884
 20
2237.276641727859
 30
0.0
 11
529.6588376471884
 21
2236.926641727859
 31
0.0
  0
LINE
  5
2D6
330
188
100
AcDbEntity
  8
0
  6
________________
 62
     7
370
     9
100
AcDbLine
 10
523.6588376471884
 20
2236.926641727859
 30
0.0
 11
524.4588376471884
 21
2236.926641727859
 31
0.0
  0
LINE
  5
2D7
330
188
100
AcDbEntity
  8
0
  6
________________
 62
     7
370
     9
100
AcDbLine
 10
524.4588376471884
 20
2236.926641727859
 30
0.0
 11
529.6588376471884
 21
2236.926641727859
 31
0.0
  0
LINE
  5
2D8
330
188
100
AcDbEntity
  8
0
  6
________________
 62
     7
370
     9
100
AcDbLine
 10
521.6588376471854
 20
2236.926641727859
 30
0.0
 11
521.6588376471854
 21
2236.976641727859
 31
0.0
  0
LINE
  5
2D9
330
188
100
AcDbEntity
  8
0
  6
________________
 62
     7
370
     9
100
AcDbLine
 10
521.6588376471854
 20
2236.976641727859
 30
0.0
 11
522.6588376471855
 21
2237.976641727859
 31
0.0
  0
LINE
  5
2DA
330
188
100
AcDbEntity
  8
0
  6
________________
 62
     7
370
     9
100
AcDbLine
 10
522.6588376471855
 20
2237.976641727859
 30
0.0
 11
522.6588376471855
 21
2236.976641727859
 31
0.0
  0
LINE
  5
2DB
330
188
100
AcDbEntity
  8
0
  6
________________
 62
     7
370
     9
100
AcDbLine
 10
522.6588376471855
 20
2236.976641727859
 30
0.0
 11
523.6588376471854
 21
2237.976641727859
 31
0.0
  0
LINE
  5
2DC
330
188
100
AcDbEntity
  8
0
  6
________________
 62
     7
370
     9
100
AcDbLine
 10
523.6588376471854
 20
2237.976641727859
 30
0.0
 11
523.6588376471854
 21
2236.976641727859
 31
0.0
  0
LINE
  5
2DD
330
188
100
AcDbEntity
  8
0
  6
________________
 62
     7
370
     9
100
AcDbLine
 10
523.6588376471854
 20
2236.976641727859
 30
0.0
 11
524.6588376471855
 21
2237.976641727859
 31
0.0
  0
LINE
  5
2DE
330
188
100
AcDbEntity
  8
0
  6
________________
 62
     7
370
     9
100
AcDbLine
 10
524.6588376471855
 20
2237.976641727859
 30
0.0
 11
527.6588376471884
 21
2237.976641727859
 31
0.0
  0
LINE
  5
2DF
330
188
100
AcDbEntity
  8
0
  6
________________
 62
     7
370
     9
100
AcDbLine
 10
527.6588376471884
 20
2237.976641727859
 30
0.0
 11
529.6588376471884
 21
2237.976641727859
 31
0.0
  0
LINE
  5
2E0
330
188
100
AcDbEntity
  8
0
  6
________________
 62
     7
370
     9
100
AcDbLine
 10
541.2420772664224
 20
2448.276641727863
 30
0.0
 11
544.4588376471884
 21
2445.276641727861
 31
0.0
  0
LINE
  5
2E1
330
188
100
AcDbEntity
  8
0
  6
________________
 62
     7
370
     9
100
AcDbLine
 10
541.2420772664224
 20
2448.276641727863
 30
0.0
 11
544.4588376471884
 21
2446.776641727861
 31
0.0
  0
LINE
  5
2E2
330
188
100
AcDbEntity
  8
0
  6
________________
 62
     7
370
     9
100
AcDbLine
 10
544.4588376471884
 20
2446.776641727861
 30
0.0
 11
544.4588376471884
 21
2445.276641727861
 31
0.0
  0
LINE
  5
2E3
330
188
100
AcDbEntity
  8
0
  6
________________
 62
     7
370
     9
100
AcDbLine
 10
541.2420772664224
 20
2448.276641727863
 30
0.0
 11
544.4588376471884
 21
2449.776641727861
 31
0.0
  0
LINE
  5
2E4
330
188
100
AcDbEntity
  8
0
  6
________________
 62
     7
370
     9
100
AcDbLine
 10
541.2420772664224
 20
2448.276641727863
 30
0.0
 11
544.4588376471884
 21
2451.276641727861
 31
0.0
  0
LINE
  5
2E5
330
188
100
AcDbEntity
  8
0
  6
________________
 62
     7
370
     9
100
AcDbLine
 10
544.4588376471884
 20
2451.276641727861
 30
0.0
 11
544.4588376471884
 21
2449.776641727861
 31
0.0
  0
LINE
  5
2E6
330
188
100
AcDbEntity
  8
0
  6
________________
 62
     7
370
     9
100
AcDbLine
 10
541.2420772664224
 20
2448.276641727863
 30
0.0
 11
544.4588376471884
 21
2448.276641727861
 31
0.0
  0
LINE
  5
2E7
330
188
100
AcDbEntity
  8
0
  6
________________
 62
     7
370
     9
100
AcDbLine
 10
544.4588376471884
 20
2448.276641727861
 30
0.0
 11
544.4588376471884
 21
2446.776641727861
 31
0.0
  0
LINE
  5
2E8
330
188
100
AcDbEntity
  8
0
  6
________________
 62
     7
370
     9
100
AcDbLine
 10
544.4588376471884
 20
2449.776641727861
 30
0.0
 11
544.4588376471884
 21
2448.276641727861
 31
0.0
  0
LINE
  5
2E9
330
188
100
AcDbEntity
  8
0
  6
________________
 62
     7
370
     9
100
AcDbLine
 10
541.0093185943484
 20
2446.276641727862
 30
0.0
 11
529.6588376471884
 21
2446.276641727861
 31
0.0
  0
LINE
  5
2EA
330
188
100
AcDbEntity
  8
0
  6
________________
 62
     7
370
     9
100
AcDbLine
 10
529.6588376471884
 20
2446.276641727861
 30
0.0
 11
524.4588376471884
 21
2446.276641727861
 31
0.0
  0
LINE
  5
2EB
330
188
100
AcDbEntity
  8
0
  6
________________
 62
     7
370
     9
100
AcDbLine
 10
524.4588376471884
 20
2450.276641727861
 30
0.0
 11
529.6588376471884
 21
2450.276641727861
 31
0.0
  0
LINE
  5
2EC
330
188
100
AcDbEntity
  8
0
  6
________________
 62
     7
370
     9
100
AcDbLine
 10
529.6588376471884
 20
2450.276641727861
 30
0.0
 11
541.0093185943484
 21
2450.276641727861
 31
0.0
  0
LINE
  5
2ED
330
188
100
AcDbEntity
  8
0
  6
________________
 62
     7
370
     9
100
AcDbLine
 10
544.4588376471884
 20
2443.426641727861
 30
0.0
 11
543.6588376471883
 21
2443.426641727861
 31
0.0
  0
LINE
  5
2EE
330
188
100
AcDbEntity
  8
0
  6
________________
 62
     7
370
     9
100
AcDbLine
 10
543.6588376471883
 20
2445.901641727861
 30
0.0
 11
543.6588376471883
 21
2443.426641727861
 31
0.0
  0
LINE
  5
2EF
330
188
100
AcDbEntity
  8
0
  6
________________
 62
     7
370
     9
100
AcDbLine
 10
543.6588376471883
 20
2445.901641727861
 30
0.0
 11
541.6588376471883
 21
2445.901641727861
 31
0.0
  0
LINE
  5
2F0
330
188
100
AcDbEntity
  8
0
  6
________________
 62
     7
370
     9
100
AcDbLine
 10
541.6588376471883
 20
2445.901641727861
 30
0.0
 11
541.0093185943484
 21
2446.276641727862
 31
0.0
  0
LINE
  5
2F1
330
188
100
AcDbEntity
  8
0
  6
________________
 62
     7
370
     9
100
AcDbLine
 10
524.4588376471884
 20
2450.276641727861
 30
0.0
 11
524.4588376471884
 21
2446.276641727861
 31
0.0
  0
LINE
  5
2F2
330
188
100
AcDbEntity
  8
0
  6
________________
 62
     7
370
     9
100
AcDbLine
 10
541.0093185943484
 20
2450.276641727861
 30
0.0
 11
541.6588376471883
 21
2450.651641727861
 31
0.0
  0
LINE
  5
2F3
330
188
100
AcDbEntity
  8
0
  6
________________
 62
     7
370
     9
100
AcDbLine
 10
541.6588376471883
 20
2450.651641727861
 30
0.0
 11
543.6588376471883
 21
2450.651641727861
 31
0.0
  0
LINE
  5
2F4
330
188
100
AcDbEntity
  8
0
  6
________________
 62
     7
370
     9
100
AcDbLine
 10
543.6588376471883
 20
2453.126641727861
 30
0.0
 11
543.6588376471883
 21
2450.651641727861
 31
0.0
  0
LINE
  5
2F5
330
188
100
AcDbEntity
  8
0
  6
________________
 62
     7
370
     9
100
AcDbLine
 10
543.6588376471883
 20
2453.126641727861
 30
0.0
 11
544.4588376471884
 21
2453.126641727861
 31
0.0
  0
LINE
  5
2F6
330
188
100
AcDbEntity
  8
0
  6
________________
 62
     7
370
     9
100
AcDbLine
 10
544.4588376471884
 20
2451.276641727861
 30
0.0
 11
544.4588376471884
 21
2453.126641727861
 31
0.0
  0
LINE
  5
2F7
330
188
100
AcDbEntity
  8
0
  6
________________
 62
     7
370
     9
100
AcDbLine
 10
544.4588376471884
 20
2443.426641727861
 30
0.0
 11
544.4588376471884
 21
2445.276641727861
 31
0.0
  0
LINE
  5
2F8
330
188
100
AcDbEntity
  8
0
  6
________________
 62
     7
370
     9
100
AcDbLine
 10
529.6588376471884
 20
2445.576641727861
 30
0.0
 11
527.6588376471884
 21
2445.576641727861
 31
0.0
  0
LINE
  5
2F9
330
188
100
AcDbEntity
  8
0
  6
________________
 62
     7
370
     9
100
AcDbLine
 10
527.6588376471884
 20
2445.576641727861
 30
0.0
 11
524.6588376471855
 21
2445.576641727861
 31
0.0
  0
LINE
  5
2FA
330
188
100
AcDbEntity
  8
0
  6
________________
 62
     7
370
     9
100
AcDbLine
 10
524.6588376471855
 20
2450.976641727861
 30
0.0
 11
527.6588376471884
 21
2450.976641727861
 31
0.0
  0
LINE
  5
2FB
330
188
100
AcDbEntity
  8
0
  6
________________
 62
     7
370
     9
100
AcDbLine
 10
527.6588376471884
 20
2450.976641727861
 30
0.0
 11
529.6588376471884
 21
2450.976641727861
 31
0.0
  0
LINE
  5
2FC
330
188
100
AcDbEntity
  8
0
  6
________________
 62
     7
370
     9
100
AcDbLine
 10
529.6588376471884
 20
2450.976641727861
 30
0.0
 11
529.6588376471884
 21
2450.276641727861
 31
0.0
  0
LINE
  5
2FD
330
188
100
AcDbEntity
  8
0
  6
________________
 62
     7
370
     9
100
AcDbLine
 10
529.6588376471884
 20
2450.276641727861
 30
0.0
 11
529.6588376471884
 21
2449.926641727861
 31
0.0
  0
LINE
  5
2FE
330
188
100
AcDbEntity
  8
0
  6
________________
 62
     7
370
     9
100
AcDbLine
 10
523.6588376471884
 20
2449.926641727861
 30
0.0
 11
524.4588376471884
 21
2449.926641727861
 31
0.0
  0
LINE
  5
2FF
330
188
100
AcDbEntity
  8
0
  6
________________
 62
     7
370
     9
100
AcDbLine
 10
524.4588376471884
 20
2449.926641727861
 30
0.0
 11
529.6588376471884
 21
2449.926641727861
 31
0.0
  0
LINE
  5
300
330
188
100
AcDbEntity
  8
0
  6
________________
 62
     7
370
     9
100
AcDbLine
 10
521.6588376471854
 20
2449.926641727861
 30
0.0
 11
523.6588376471884
 21
2449.926641727861
 31
0.0
  0
LINE
  5
301
330
188
100
AcDbEntity
  8
0
  6
________________
 62
     7
370
     9
100
AcDbLine
 10
521.6588376471854
 20
2449.926641727861
 30
0.0
 11
521.6588376471854
 21
2449.976641727862
 31
0.0
  0
LINE
  5
302
330
188
100
AcDbEntity
  8
0
  6
________________
 62
     7
370
     9
100
AcDbLine
 10
521.6588376471854
 20
2449.976641727862
 30
0.0
 11
522.6588376471855
 21
2450.976641727861
 31
0.0
  0
LINE
  5
303
330
188
100
AcDbEntity
  8
0
  6
________________
 62
     7
370
     9
100
AcDbLine
 10
522.6588376471855
 20
2450.976641727861
 30
0.0
 11
522.6588376471855
 21
2449.976641727862
 31
0.0
  0
LINE
  5
304
330
188
100
AcDbEntity
  8
0
  6
________________
 62
     7
370
     9
100
AcDbLine
 10
522.6588376471855
 20
2449.976641727862
 30
0.0
 11
523.6588376471854
 21
2450.976641727861
 31
0.0
  0
LINE
  5
305
330
188
100
AcDbEntity
  8
0
  6
________________
 62
     7
370
     9
100
AcDbLine
 10
523.6588376471854
 20
2450.976641727861
 30
0.0
 11
523.6588376471854
 21
2449.976641727862
 31
0.0
  0
LINE
  5
306
330
188
100
AcDbEntity
  8
0
  6
________________
 62
     7
370
     9
100
AcDbLine
 10
523.6588376471854
 20
2449.976641727862
 30
0.0
 11
524.6588376471855
 21
2450.976641727861
 31
0.0
  0
LINE
  5
307
330
188
100
AcDbEntity
  8
0
  6
________________
 62
     7
370
     9
100
AcDbLine
 10
521.6588376471854
 20
2446.626641727861
 30
0.0
 11
521.6588376471854
 21
2448.276641727861
 31
0.0
  0
LINE
  5
308
330
188
100
AcDbEntity
  8
0
  6
________________
 62
     7
370
     9
100
AcDbLine
 10
521.6588376471854
 20
2448.276641727861
 30
0.0
 11
521.6588376471854
 21
2449.926641727861
 31
0.0
  0
LINE
  5
309
330
188
100
AcDbEntity
  8
0
  6
________________
 62
   253
420
 11316396
370
     9
100
AcDbLine
 10
523.6588376471884
 20
2446.626641727861
 30
0.0
 11
523.6588376471884
 21
2449.926641727861
 31
0.0
  0
LINE
  5
30A
330
188
100
AcDbEntity
  8
0
  6
________________
 62
     7
370
     9
100
AcDbLine
 10
523.6588376471884
 20
2446.626641727861
 30
0.0
 11
521.6588376471854
 21
2446.626641727861
 31
0.0
  0
LINE
  5
30B
330
188
100
AcDbEntity
  8
0
  6
________________
 62
     7
370
     9
100
AcDbLine
 10
529.6588376471884
 20
2446.626641727861
 30
0.0
 11
529.6588376471884
 21
2446.276641727861
 31
0.0
  0
LINE
  5
30C
330
188
100
AcDbEntity
  8
0
  6
________________
 62
     7
370
     9
100
AcDbLine
 10
529.6588376471884
 20
2446.276641727861
 30
0.0
 11
529.6588376471884
 21
2445.576641727861
 31
0.0
  0
LINE
  5
30D
330
188
100
AcDbEntity
  8
0
  6
________________
 62
     7
370
     9
100
AcDbLine
 10
524.6588376471855
 20
2445.576641727861
 30
0.0
 11
523.6588376471854
 21
2446.576641727861
 31
0.0
  0
LINE
  5
30E
330
188
100
AcDbEntity
  8
0
  6
________________
 62
     7
370
     9
100
AcDbLine
 10
523.6588376471854
 20
2446.576641727861
 30
0.0
 11
523.6588376471854
 21
2445.576641727861
 31
0.0
  0
LINE
  5
30F
330
188
100
AcDbEntity
  8
0
  6
________________
 62
     7
370
     9
100
AcDbLine
 10
523.6588376471854
 20
2445.576641727861
 30
0.0
 11
522.6588376471855
 21
2446.576641727861
 31
0.0
  0
LINE
  5
310
330
188
100
AcDbEntity
  8
0
  6
________________
 62
     7
370
     9
100
AcDbLine
 10
522.6588376471855
 20
2446.576641727861
 30
0.0
 11
522.6588376471855
 21
2445.576641727861
 31
0.0
  0
LINE
  5
311
330
188
100
AcDbEntity
  8
0
  6
________________
 62
     7
370
     9
100
AcDbLine
 10
522.6588376471855
 20
2445.576641727861
 30
0.0
 11
521.6588376471854
 21
2446.576641727861
 31
0.0
  0
LINE
  5
312
330
188
100
AcDbEntity
  8
0
  6
________________
 62
     7
370
     9
100
AcDbLine
 10
521.6588376471854
 20
2446.576641727861
 30
0.0
 11
521.6588376471854
 21
2446.626641727861
 31
0.0
  0
LINE
  5
313
330
188
100
AcDbEntity
  8
0
  6
________________
 62
     7
370
     9
100
AcDbLine
 10
529.6588376471884
 20
2446.626641727861
 30
0.0
 11
524.4588376471884
 21
2446.626641727861
 31
0.0
  0
LINE
  5
314
330
188
100
AcDbEntity
  8
0
  6
________________
 62
     7
370
     9
100
AcDbLine
 10
524.4588376471884
 20
2446.626641727861
 30
0.0
 11
523.6588376471884
 21
2446.626641727861
 31
0.0
  0
LINE
  5
315
330
188
100
AcDbEntity
  8
0
  6
________________
 62
     7
370
     9
100
AcDbLine
 10
583.1588376471883
 20
2748.276641727861
 30
0.0
 11
583.1588376471883
 21
2747.276641727861
 31
0.0
  0
LINE
  5
316
330
188
100
AcDbEntity
  8
0
  6
________________
 62
     7
370
     9
100
AcDbLine
 10
580.1588376471883
 20
2750.276641727861
 30
0.0
 11
581.1588376471693
 21
2750.276641727861
 31
0.0
  0
LINE
  5
317
330
188
100
AcDbEntity
  8
0
  6
________________
 62
     7
370
     9
100
AcDbLine
 10
578.1588376471883
 20
2747.276641727861
 30
0.0
 11
578.1588376471883
 21
2748.276641727861
 31
0.0
  0
LINE
  5
318
330
188
100
AcDbEntity
  8
0
  6
________________
 62
     7
370
     9
100
AcDbLine
 10
581.1588376471883
 20
2745.276641727861
 30
0.0
 11
580.1588376471883
 21
2745.276641727861
 31
0.0
  0
CIRCLE
  5
319
330
188
100
AcDbEntity
  8
0
  6
________________
 62
     7
370
     9
100
AcDbCircle
 10
-580.6588376471884
 20
2747.776641727861
 30
0.0
 40
4.499999999999948
210
0.0
220
0.0
230
-1.0
  0
LINE
  5
31A
330
188
100
AcDbEntity
  8
0
  6
________________
 62
     7
370
     9
100
AcDbLine
 10
580.1588376471883
 20
2745.276641727861
 30
0.0
 11
580.1588376471883
 21
2747.276641727861
 31
0.0
  0
LINE
  5
31B
330
188
100
AcDbEntity
  8
0
  6
________________
 62
     7
370
     9
100
AcDbLine
 10
581.1588376471883
 20
2748.276641727861
 30
0.0
 11
583.1588376471883
 21
2748.276641727861
 31
0.0
  0
LINE
  5
31C
330
188
100
AcDbEntity
  8
0
  6
________________
 62
     7
370
     9
100
AcDbLine
 10
578.1588376471883
 20
2748.276641727861
 30
0.0
 11
580.1588376471883
 21
2748.276641727861
 31
0.0
  0
LINE
  5
31D
330
188
100
AcDbEntity
  8
0
  6
________________
 62
     7
370
     9
100
AcDbLine
 10
581.1588376471883
 20
2747.276641727861
 30
0.0
 11
581.1588376471883
 21
2745.276641727861
 31
0.0
  0
LINE
  5
31E
330
188
100
AcDbEntity
  8
0
  6
________________
 62
     7
370
     9
100
AcDbLine
 10
580.1588376471883
 20
2748.276641727861
 30
0.0
 11
580.1588376471883
 21
2750.276641727861
 31
0.0
  0
LINE
  5
31F
330
188
100
AcDbEntity
  8
0
  6
________________
 62
     7
370
     9
100
AcDbLine
 10
583.1588376471883
 20
2747.276641727861
 30
0.0
 11
581.1588376471883
 21
2747.276641727861
 31
0.0
  0
LINE
  5
320
330
188
100
AcDbEntity
  8
0
  6
________________
 62
     7
370
     9
100
AcDbLine
 10
581.1588376471883
 20
2750.276641727861
 30
0.0
 11
581.1588376471883
 21
2748.276641727861
 31
0.0
  0
LINE
  5
321
330
188
100
AcDbEntity
  8
0
  6
________________
 62
     7
370
     9
100
AcDbLine
 10
580.1588376471883
 20
2747.276641727861
 30
0.0
 11
578.1588376471883
 21
2747.276641727861
 31
0.0
  0
LINE
  5
322
330
188
100
AcDbEntity
  8
0
  6
________________
 62
     7
370
     9
100
AcDbLine
 10
544.1588376471884
 20
2757.276641727861
 30
0.0
 11
544.1588376471884
 21
2740.276641727861
 31
0.0
  0
LINE
  5
323
330
188
100
AcDbEntity
  8
0
  6
________________
 62
     7
370
     9
100
AcDbLine
 10
547.9088376471883
 20
2740.276641727861
 30
0.0
 11
544.1588376471884
 21
2740.276641727861
 31
0.0
  0
LINE
  5
324
330
188
100
AcDbEntity
  8
0
  6
________________
 62
     7
370
     9
100
AcDbLine
 10
547.9088376471883
 20
2738.276641727861
 30
0.0
 11
547.9088376471883
 21
2740.276641727861
 31
0.0
  0
LINE
  5
325
330
188
100
AcDbEntity
  8
0
  6
________________
 62
     7
370
     9
100
AcDbLine
 10
542.1588376471884
 20
2738.276641727861
 30
0.0
 11
542.1588376471884
 21
2757.276641727861
 31
0.0
  0
LINE
  5
326
330
188
100
AcDbEntity
  8
0
  6
________________
 62
     7
370
     9
100
AcDbLine
 10
544.1588376471884
 20
2757.276641727861
 30
0.0
 11
542.1588376471884
 21
2757.276641727861
 31
0.0
  0
LINE
  5
327
330
188
100
AcDbEntity
  8
0
  6
________________
 62
     7
370
     9
100
AcDbLine
 10
547.9088376471883
 20
2738.276641727861
 30
0.0
 11
542.1588376471884
 21
2738.276641727861
 31
0.0
  0
LINE
  5
328
330
188
100
AcDbEntity
  8
0
  6
________________
 62
     7
370
     9
100
AcDbLine
 10
552.4088376471884
 20
2740.276641727861
 30
0.0
 11
552.4088376471884
 21
2738.276641727861
 31
0.0
  0
LINE
  5
329
330
188
100
AcDbEntity
  8
0
  6
________________
 62
     7
370
     9
100
AcDbLine
 10
552.4088376471884
 20
2740.276641727861
 30
0.0
 11
550.1588376471884
 21
2740.276641727861
 31
0.0
  0
LINE
  5
32A
330
188
100
AcDbEntity
  8
0
  6
________________
 62
     7
370
     9
100
AcDbLine
 10
550.1588376471884
 20
2740.276641727861
 30
0.0
 11
547.9088376471883
 21
2740.276641727861
 31
0.0
  0
LINE
  5
32B
330
188
100
AcDbEntity
  8
0
  6
________________
 62
     7
370
     9
100
AcDbLine
 10
547.9088376471883
 20
2738.276641727861
 30
0.0
 11
550.1588376471884
 21
2738.276641727861
 31
0.0
  0
LINE
  5
32C
330
188
100
AcDbEntity
  8
0
  6
________________
 62
     7
370
     9
100
AcDbLine
 10
550.1588376471884
 20
2738.276641727861
 30
0.0
 11
552.4088376471884
 21
2738.276641727861
 31
0.0
  0
LINE
  5
32D
330
188
100
AcDbEntity
  8
0
  6
________________
 62
     7
370
     9
100
AcDbLine
 10
561.1588376471884
 20
2740.276641727861
 30
0.0
 11
561.1588376471884
 21
2738.276641727861
 31
0.0
  0
LINE
  5
32E
330
188
100
AcDbEntity
  8
0
  6
________________
 62
     7
370
     9
100
AcDbLine
 10
561.1588376471884
 20
2740.276641727861
 30
0.0
 11
552.4088376471884
 21
2740.276641727861
 31
0.0
  0
LINE
  5
32F
330
188
100
AcDbEntity
  8
0
  6
________________
 62
     7
370
     9
100
AcDbLine
 10
561.1588376471884
 20
2738.276641727861
 30
0.0
 11
552.4088376471884
 21
2738.276641727861
 31
0.0
  0
LINE
  5
330
330
188
100
AcDbEntity
  8
0
  6
________________
 62
   253
420
 11316396
370
     9
100
AcDbLine
 10
546.1588376471884
 20
2740.276641727861
 30
0.0
 11
546.1588376471884
 21
2757.276641727861
 31
0.0
  0
LINE
  5
331
330
188
100
AcDbEntity
  8
0
  6
________________
 62
     7
370
     9
100
AcDbLine
 10
546.1588376471884
 20
2757.276641727861
 30
0.0
 11
544.1588376471884
 21
2757.276641727861
 31
0.0
  0
ARC
  5
332
330
188
100
AcDbEntity
  8
0
  6
________________
 62
     7
370
     9
100
AcDbCircle
 10
592.9588376471884
 20
2747.776641727861
 30
0.0
 40
11.99999999999983
100
AcDbArc
 50
307.6584620062057
 51
52.34153799379845
  0
CIRCLE
  5
333
330
188
100
AcDbEntity
  8
0
  6
________________
 62
     7
370
     9
100
AcDbCircle
 10
553.6588376471883
 20
2747.776641727861
 30
0.0
 40
3.599999999999937
  0
LINE
  5
334
330
188
100
AcDbEntity
  8
0
  6
________________
 62
     7
370
     9
100
AcDbLine
 10
546.1588376471884
 20
2757.276641727861
 30
0.0
 11
600.2902767964944
 21
2757.276641727861
 31
0.0
  0
LINE
  5
335
330
188
100
AcDbEntity
  8
0
  6
________________
 62
     7
370
     9
100
AcDbLine
 10
561.1588376471884
 20
2738.276641727861
 30
0.0
 11
600.2902767964954
 21
2738.276641727861
 31
0.0
  0
LINE
  5
336
330
188
100
AcDbEntity
  8
0
  6
________________
 62
     7
370
     9
100
AcDbLine
 10
550.1588376471884
 20
2208.776641727861
 30
0.0
 11
550.1588376471884
 21
2224.776641727861
 31
0.0
  0
LINE
  5
337
330
188
100
AcDbEntity
  8
0
  6
________________
 62
     7
370
     9
100
AcDbLine
 10
905.1588376471884
 20
2224.776641727861
 30
0.0
 11
550.1588376471884
 21
2224.776641727861
 31
0.0
  0
LINE
  5
338
330
188
100
AcDbEntity
  8
0
  6
________________
 62
     7
370
     9
100
AcDbLine
 10
905.1588376471884
 20
2224.776641727861
 30
0.0
 11
905.1588376471884
 21
2208.776641727861
 31
0.0
  0
LINE
  5
339
330
188
100
AcDbEntity
  8
0
  6
________________
 62
     7
370
     9
100
AcDbLine
 10
905.1588376471884
 20
2208.776641727861
 30
0.0
 11
550.1588376471884
 21
2208.776641727861
 31
0.0
  0
ENDBLK
  5
33D
330
188
100
AcDbEntity
  8
0
100
AcDbBlockEnd
  0
BLOCK
  5
3C3
330
33B
100
AcDbEntity
  8
0
100
AcDbBlockBegin
  2
D_FRAME_VIEW@61
 70
     0
 10
0.0
 20
0.0
 30
0.0
  3
D_FRAME_VIEW@61
  1

  0
HATCH
  5
33E
330
33B
100
AcDbEntity
  8
0
 62
   253
420
 11316396
100
AcDbHatch
 10
0.0
 20
0.0
 30
0.0
210
0.0
220
0.0
230
1.0
  2

 70
     0
 71
     1
 91
        1
 92
        3
 72
     0
 73
     1
 93
        5
 10
2782.158837647188
 20
207.0766417278611
 10
2778.34799784473
 20
207.0766417278611
 10
2778.34799784473
 20
206.2766417278611
 10
2785.969677449646
 20
206.2766417278611
 10
2785.969677449646
 20
207.0766417278611
 97
        0
 75
     0
 76
     0
 52
0.0
 41
1.0
 77
     0
 78
     1
 53
45.0
 43
0.0
 44
0.0
 45
-1.25
 46
1.25
 79
     0
 98
        0
  0
HATCH
  5
33F
330
33B
100
AcDbEntity
  8
0
 62
   253
420
 11316396
100
AcDbHatch
 10
0.0
 20
0.0
 30
0.0
210
0.0
220
0.0
230
1.0
  2

 70
     0
 71
     1
 91
        1
 92
        3
 72
     0
 73
     1
 93
        5
 10
2255.658837647189
 20
207.0766417278611
 10
2251.847997844729
 20
207.0766417278611
 10
2251.847997844729
 20
206.2766417278611
 10
2259.469677449647
 20
206.2766417278611
 10
2259.469677449647
 20
207.0766417278611
 97
        0
 75
     0
 76
     0
 52
0.0
 41
1.0
 77
     0
 78
     1
 53
45.0
 43
0.0
 44
0.0
 45
-1.25
 46
1.25
 79
     0
 98
        0
  0
HATCH
  5
340
330
33B
100
AcDbEntity
  8
0
 62
   253
420
 11316396
100
AcDbHatch
 10
0.0
 20
0.0
 30
0.0
210
0.0
220
0.0
230
1.0
  2

 70
     0
 71
     1
 91
        1
 92
        3
 72
     0
 73
     1
 93
        5
 10
1729.158837647188
 20
207.0766417278611
 10
1725.34799784473
 20
207.0766417278611
 10
1725.34799784473
 20
206.2766417278611
 10
1732.969677449647
 20
206.2766417278611
 10
1732.969677449647
 20
207.0766417278611
 97
        0
 75
     0
 76
     0
 52
0.0
 41
1.0
 77
     0
 78
     1
 53
45.0
 43
0.0
 44
0.0
 45
-1.25
 46
1.25
 79
     0
 98
        0
  0
HATCH
  5
341
330
33B
100
AcDbEntity
  8
0
 62
   253
420
 11316396
100
AcDbHatch
 10
0.0
 20
0.0
 30
0.0
210
0.0
220
0.0
230
1.0
  2

 70
     0
 71
     1
 91
        1
 92
        3
 72
     0
 73
     1
 93
        4
 10
1671.908837647188
 20
204.2766417278611
 10
1671.908837647188
 20
661.276641727861
 10
1655.908837647188
 20
661.276641727861
 10
1655.908837647188
 20
204.2766417278611
 97
        0
 75
     0
 76
     0
 52
0.0
 41
1.0
 77
     0
 78
     1
 53
45.0
 43
0.0
 44
0.0
 45
-1.25
 46
1.25
 79
     0
 98
        0
  0
HATCH
  5
342
330
33B
100
AcDbEntity
  8
0
 62
   253
420
 11316396
100
AcDbHatch
 10
0.0
 20
0.0
 30
0.0
210
0.0
220
0.0
230
1.0
  2

 70
     0
 71
     1
 91
        1
 92
        3
 72
     0
 73
     1
 93
        4
 10
2839.408837647189
 20
204.2766417278611
 10
2855.408837647189
 20
204.2766417278611
 10
2855.408837647189
 20
661.276641727861
 10
2839.408837647189
 20
661.276641727861
 97
        0
 75
     0
 76
     0
 52
0.0
 41
1.0
 77
     0
 78
     1
 53
45.0
 43
0.0
 44
0.0
 45
-1.25
 46
1.25
 79
     0
 98
        0
  0
HATCH
  5
343
330
33B
100
AcDbEntity
  8
0
 62
   253
420
 11316396
100
AcDbHatch
 10
0.0
 20
0.0
 30
0.0
210
0.0
220
0.0
230
1.0
  2

 70
     0
 71
     1
 91
        1
 92
        3
 72
     0
 73
     1
 93
        4
 10
1645.908837647188
 20
661.276641727861
 10
1645.908837647188
 20
203.2766417278611
 10
1655.908837647188
 20
203.2766417278611
 10
1655.908837647188
 20
661.276641727861
 97
        0
 75
     0
 76
     0
 52
0.0
 41
1.0
 77
     0
 78
     1
 53
45.0
 43
0.0
 44
0.0
 45
-1.25
 46
1.25
 79
     0
 98
        0
  0
HATCH
  5
344
330
33B
100
AcDbEntity
  8
0
 62
   253
420
 11316396
100
AcDbHatch
 10
0.0
 20
0.0
 30
0.0
210
0.0
220
0.0
230
1.0
  2

 70
     0
 71
     1
 91
        1
 92
        3
 72
     0
 73
     1
 93
        4
 10
2855.408837647189
 20
661.276641727861
 10
2855.408837647189
 20
203.2766417278611
 10
2865.408837647188
 20
203.2766417278611
 10
2865.408837647188
 20
661.276641727861
 97
        0
 75
     0
 76
     0
 52
0.0
 41
1.0
 77
     0
 78
     1
 53
45.0
 43
0.0
 44
0.0
 45
-1.25
 46
1.25
 79
     0
 98
        0
  0
HATCH
  5
345
330
33B
100
AcDbEntity
  8
0
 62
   253
420
 11316396
100
AcDbHatch
 10
0.0
 20
0.0
 30
0.0
210
0.0
220
0.0
230
1.0
  2

 70
     0
 71
     1
 91
        1
 92
        3
 72
     0
 73
     1
 93
        4
 10
1674.158837647188
 20
190.2766417278611
 10
1729.150713616162
 20
190.2766417278611
 10
1729.150713616162
 20
206.2766417278611
 10
1674.158837647188
 20
206.2766417278611
 97
        0
 75
     0
 76
     0
 52
0.0
 41
1.0
 77
     0
 78
     1
 53
45.0
 43
0.0
 44
0.0
 45
-1.25
 46
1.25
 79
     0
 98
        0
  0
HATCH
  5
346
330
33B
100
AcDbEntity
  8
0
 62
   253
420
 11316396
100
AcDbHatch
 10
0.0
 20
0.0
 30
0.0
210
0.0
220
0.0
230
1.0
  2

 70
     0
 71
     1
 91
        1
 92
        3
 72
     0
 73
     1
 93
        4
 10
1729.166961678215
 20
206.2766417278611
 10
1729.166961678215
 20
190.2766417278611
 10
2255.650713616078
 20
190.2766417278611
 10
2255.650713616078
 20
206.2766417278611
 97
        0
 75
     0
 76
     0
 52
0.0
 41
1.0
 77
     0
 78
     1
 53
45.0
 43
0.0
 44
0.0
 45
-1.25
 46
1.25
 79
     0
 98
        0
  0
HATCH
  5
347
330
33B
100
AcDbEntity
  8
0
 62
   253
420
 11316396
100
AcDbHatch
 10
0.0
 20
0.0
 30
0.0
210
0.0
220
0.0
230
1.0
  2

 70
     0
 71
     1
 91
        1
 92
        3
 72
     0
 73
     1
 93
        4
 10
2837.158837647189
 20
206.2766417278611
 10
2782.166961678215
 20
206.2766417278611
 10
2782.166961678215
 20
190.2766417278611
 10
2837.158837647189
 20
190.2766417278611
 97
        0
 75
     0
 76
     0
 52
0.0
 41
1.0
 77
     0
 78
     1
 53
45.0
 43
0.0
 44
0.0
 45
-1.25
 46
1.25
 79
     0
 98
        0
  0
HATCH
  5
348
330
33B
100
AcDbEntity
  8
0
 62
   253
420
 11316396
100
AcDbHatch
 10
0.0
 20
0.0
 30
0.0
210
0.0
220
0.0
230
1.0
  2

 70
     0
 71
     1
 91
        1
 92
        3
 72
     0
 73
     1
 93
        4
 10
2255.666961678299
 20
206.2766417278571
 10
2255.666961678215
 20
190.2766417278611
 10
2782.150713616162
 20
190.2766417278611
 10
2782.150713616162
 20
206.2766417278611
 97
        0
 75
     0
 76
     0
 52
0.0
 41
1.0
 77
     0
 78
     1
 53
45.0
 43
0.0
 44
0.0
 45
-1.25
 46
1.25
 79
     0
 98
        0
  0
HATCH
  5
349
330
33B
100
AcDbEntity
  8
0
 62
   253
420
 11316396
100
AcDbHatch
 10
0.0
 20
0.0
 30
0.0
210
0.0
220
0.0
230
1.0
  2

 70
     0
 71
     1
 91
        1
 92
        3
 72
     0
 73
     1
 93
        4
 10
1646.158837647188
 20
190.2766417278611
 10
1646.158837647188
 20
180.2766417278611
 10
2865.158837647189
 20
180.2766417278611
 10
2865.158837647189
 20
190.2766417278611
 97
        0
 75
     0
 76
     0
 52
0.0
 41
1.0
 77
     0
 78
     1
 53
45.0
 43
0.0
 44
0.0
 45
-1.25
 46
1.25
 79
     0
 98
        0
  0
MTEXT
  5
34A
330
33B
100
AcDbEntity
  8
0
 62
     7
100
AcDbMText
 10
2232.996195125391
 20
693.9412963220931
 30
0.0
 40
20.0
 41
0.0
 46
0.0
 71
     1
 72
     1
  1
{\fArial Narrow;B - B}
 73
     1
 44
1.0
  0
LINE
  5
34B
330
33B
100
AcDbEntity
  8
0
  6
________________
 62
     7
370
     9
100
AcDbLine
 10
2865.158837647189
 20
180.2766417278611
 30
0.0
 11
1646.158837647188
 21
180.2766417278611
 31
0.0
  0
LINE
  5
34C
330
33B
100
AcDbEntity
  8
0
  6
________________
 62
     7
370
     9
100
AcDbLine
 10
1646.158837647188
 20
190.2766417278611
 30
0.0
 11
1674.158837647188
 21
190.2766417278611
 31
0.0
  0
LINE
  5
34D
330
33B
100
AcDbEntity
  8
0
  6
________________
 62
     7
370
     9
100
AcDbLine
 10
1674.158837647188
 20
190.2766417278611
 30
0.0
 11
1729.150713616162
 21
190.2766417278611
 31
0.0
  0
LINE
  5
34E
330
33B
100
AcDbEntity
  8
0
  6
________________
 62
     7
370
     9
100
AcDbLine
 10
1729.150713616162
 20
190.2766417278611
 30
0.0
 11
1729.166961678215
 21
190.2766417278611
 31
0.0
  0
LINE
  5
34F
330
33B
100
AcDbEntity
  8
0
  6
________________
 62
     7
370
     9
100
AcDbLine
 10
1729.166961678215
 20
190.2766417278611
 30
0.0
 11
2255.650713616078
 21
190.2766417278611
 31
0.0
  0
LINE
  5
350
330
33B
100
AcDbEntity
  8
0
  6
________________
 62
     7
370
     9
100
AcDbLine
 10
2255.650713616078
 20
190.2766417278611
 30
0.0
 11
2255.666961678215
 21
190.2766417278611
 31
0.0
  0
LINE
  5
351
330
33B
100
AcDbEntity
  8
0
  6
________________
 62
     7
370
     9
100
AcDbLine
 10
2255.666961678215
 20
190.2766417278611
 30
0.0
 11
2782.150713616162
 21
190.2766417278611
 31
0.0
  0
LINE
  5
352
330
33B
100
AcDbEntity
  8
0
  6
________________
 62
     7
370
     9
100
AcDbLine
 10
2782.150713616162
 20
190.2766417278611
 30
0.0
 11
2782.166961678215
 21
190.2766417278611
 31
0.0
  0
LINE
  5
353
330
33B
100
AcDbEntity
  8
0
  6
________________
 62
     7
370
     9
100
AcDbLine
 10
2782.166961678215
 20
190.2766417278611
 30
0.0
 11
2837.158837647189
 21
190.2766417278611
 31
0.0
  0
LINE
  5
354
330
33B
100
AcDbEntity
  8
0
  6
________________
 62
     7
370
     9
100
AcDbLine
 10
2837.158837647189
 20
190.2766417278611
 30
0.0
 11
2865.158837647189
 21
190.2766417278611
 31
0.0
  0
LINE
  5
355
330
33B
100
AcDbEntity
  8
0
  6
________________
 62
     7
370
     9
100
AcDbLine
 10
1646.158837647188
 20
180.2766417278611
 30
0.0
 11
1646.158837647188
 21
190.2766417278611
 31
0.0
  0
LINE
  5
356
330
33B
100
AcDbEntity
  8
0
  6
________________
 62
     7
370
     9
100
AcDbLine
 10
2865.158837647189
 20
190.2766417278611
 30
0.0
 11
2865.158837647189
 21
180.2766417278611
 31
0.0
  0
LINE
  5
357
330
33B
100
AcDbEntity
  8
0
  6
________________
 62
     7
370
     9
100
AcDbLine
 10
1729.166961678215
 20
206.2766417278611
 30
0.0
 11
1732.969677449647
 21
206.2766417278611
 31
0.0
  0
LINE
  5
358
330
33B
100
AcDbEntity
  8
0
  6
________________
 62
     7
370
     9
100
AcDbLine
 10
1732.969677449647
 20
206.2766417278611
 30
0.0
 11
1734.008837647189
 21
206.2766417278611
 31
0.0
  0
LINE
  5
359
330
33B
100
AcDbEntity
  8
0
  6
________________
 62
     7
370
     9
100
AcDbLine
 10
1734.008837647189
 20
206.2766417278611
 30
0.0
 11
2250.808837647188
 21
206.2766417278611
 31
0.0
  0
LINE
  5
35A
330
33B
100
AcDbEntity
  8
0
  6
________________
 62
     7
370
     9
100
AcDbLine
 10
2250.808837647188
 20
206.2766417278611
 30
0.0
 11
2251.847997844729
 21
206.2766417278611
 31
0.0
  0
LINE
  5
35B
330
33B
100
AcDbEntity
  8
0
  6
________________
 62
     7
370
     9
100
AcDbLine
 10
2251.847997844729
 20
206.2766417278611
 30
0.0
 11
2255.650713616078
 21
206.2766417278571
 31
0.0
  0
LINE
  5
35C
330
33B
100
AcDbEntity
  8
0
  6
________________
 62
     7
370
     9
100
AcDbLine
 10
2255.650713616078
 20
190.2766417278611
 30
0.0
 11
2255.650713616078
 21
206.2766417278571
 31
0.0
  0
LINE
  5
35D
330
33B
100
AcDbEntity
  8
0
  6
________________
 62
     7
370
     9
100
AcDbLine
 10
2255.650713616078
 20
190.2766417278611
 30
0.0
 11
1729.166961678215
 21
190.2766417278611
 31
0.0
  0
LINE
  5
35E
330
33B
100
AcDbEntity
  8
0
  6
________________
 62
     7
370
     9
100
AcDbLine
 10
1729.166961678215
 20
206.2766417278611
 30
0.0
 11
1729.166961678215
 21
190.2766417278611
 31
0.0
  0
LINE
  5
35F
330
33B
100
AcDbEntity
  8
0
  6
________________
 62
     7
370
     9
100
AcDbLine
 10
2837.158837647189
 20
206.2766417278611
 30
0.0
 11
2837.158837647189
 21
190.2766417278611
 31
0.0
  0
LINE
  5
360
330
33B
100
AcDbEntity
  8
0
  6
________________
 62
     7
370
     9
100
AcDbLine
 10
2782.166961678215
 20
206.2766417278611
 30
0.0
 11
2782.166961678215
 21
190.2766417278611
 31
0.0
  0
LINE
  5
361
330
33B
100
AcDbEntity
  8
0
  6
________________
 62
     7
370
     9
100
AcDbLine
 10
2782.166961678215
 20
206.2766417278611
 30
0.0
 11
2785.969677449646
 21
206.2766417278611
 31
0.0
  0
LINE
  5
362
330
33B
100
AcDbEntity
  8
0
  6
________________
 62
     7
370
     9
100
AcDbLine
 10
2785.969677449646
 20
206.2766417278611
 30
0.0
 11
2787.008837647188
 21
206.2766417278611
 31
0.0
  0
LINE
  5
363
330
33B
100
AcDbEntity
  8
0
  6
________________
 62
     7
370
     9
100
AcDbLine
 10
2787.008837647188
 20
206.2766417278611
 30
0.0
 11
2837.158837647189
 21
206.2766417278611
 31
0.0
  0
LINE
  5
364
330
33B
100
AcDbEntity
  8
0
  6
________________
 62
     7
370
     9
100
AcDbLine
 10
2837.158837647189
 20
190.2766417278611
 30
0.0
 11
2782.166961678215
 21
190.2766417278611
 31
0.0
  0
LINE
  5
365
330
33B
100
AcDbEntity
  8
0
  6
________________
 62
     7
370
     9
100
AcDbLine
 10
2255.666961678299
 20
206.2766417278571
 30
0.0
 11
2255.666961678215
 21
190.2766417278611
 31
0.0
  0
LINE
  5
366
330
33B
100
AcDbEntity
  8
0
  6
________________
 62
     7
370
     9
100
AcDbLine
 10
2782.150713616162
 20
190.2766417278611
 30
0.0
 11
2782.150713616162
 21
206.2766417278611
 31
0.0
  0
LINE
  5
367
330
33B
100
AcDbEntity
  8
0
  6
________________
 62
     7
370
     9
100
AcDbLine
 10
2255.666961678299
 20
206.2766417278571
 30
0.0
 11
2259.469677449647
 21
206.2766417278611
 31
0.0
  0
LINE
  5
368
330
33B
100
AcDbEntity
  8
0
  6
________________
 62
     7
370
     9
100
AcDbLine
 10
2259.469677449647
 20
206.2766417278611
 30
0.0
 11
2260.508837647189
 21
206.2766417278611
 31
0.0
  0
LINE
  5
369
330
33B
100
AcDbEntity
  8
0
  6
________________
 62
     7
370
     9
100
AcDbLine
 10
2260.508837647189
 20
206.2766417278611
 30
0.0
 11
2777.308837647189
 21
206.2766417278611
 31
0.0
  0
LINE
  5
36A
330
33B
100
AcDbEntity
  8
0
  6
________________
 62
     7
370
     9
100
AcDbLine
 10
2777.308837647189
 20
206.2766417278611
 30
0.0
 11
2778.34799784473
 21
206.2766417278611
 31
0.0
  0
LINE
  5
36B
330
33B
100
AcDbEntity
  8
0
  6
________________
 62
     7
370
     9
100
AcDbLine
 10
2778.34799784473
 20
206.2766417278611
 30
0.0
 11
2782.150713616162
 21
206.2766417278611
 31
0.0
  0
LINE
  5
36C
330
33B
100
AcDbEntity
  8
0
  6
________________
 62
     7
370
     9
100
AcDbLine
 10
2782.150713616162
 20
190.2766417278611
 30
0.0
 11
2255.666961678215
 21
190.2766417278611
 31
0.0
  0
LINE
  5
36D
330
33B
100
AcDbEntity
  8
0
  6
________________
 62
     7
370
     9
100
AcDbLine
 10
1729.150713616162
 20
190.2766417278611
 30
0.0
 11
1729.150713616162
 21
206.2766417278611
 31
0.0
  0
LINE
  5
36E
330
33B
100
AcDbEntity
  8
0
  6
________________
 62
     7
370
     9
100
AcDbLine
 10
1674.158837647188
 20
206.2766417278611
 30
0.0
 11
1724.308837647189
 21
206.2766417278611
 31
0.0
  0
LINE
  5
36F
330
33B
100
AcDbEntity
  8
0
  6
________________
 62
     7
370
     9
100
AcDbLine
 10
1724.308837647189
 20
206.2766417278611
 30
0.0
 11
1725.34799784473
 21
206.2766417278611
 31
0.0
  0
LINE
  5
370
330
33B
100
AcDbEntity
  8
0
  6
________________
 62
     7
370
     9
100
AcDbLine
 10
1725.34799784473
 20
206.2766417278611
 30
0.0
 11
1729.150713616162
 21
206.2766417278611
 31
0.0
  0
LINE
  5
371
330
33B
100
AcDbEntity
  8
0
  6
________________
 62
     7
370
     9
100
AcDbLine
 10
1729.150713616162
 20
190.2766417278611
 30
0.0
 11
1674.158837647188
 21
190.2766417278611
 31
0.0
  0
LINE
  5
372
330
33B
100
AcDbEntity
  8
0
  6
________________
 62
     7
370
     9
100
AcDbLine
 10
1674.158837647188
 20
190.2766417278611
 30
0.0
 11
1674.158837647188
 21
206.2766417278611
 31
0.0
  0
LINE
  5
373
330
33B
100
AcDbEntity
  8
0
  6
________________
 62
     7
370
     9
100
AcDbLine
 10
2865.408837647188
 20
661.276641727861
 30
0.0
 11
2865.408837647188
 21
203.2766417278611
 31
0.0
  0
LINE
  5
374
330
33B
100
AcDbEntity
  8
0
  6
________________
 62
     7
370
     9
100
AcDbLine
 10
2855.408837647189
 20
203.2766417278611
 30
0.0
 11
2855.408837647189
 21
204.2766417278611
 31
0.0
  0
LINE
  5
375
330
33B
100
AcDbEntity
  8
0
  6
________________
 62
     7
370
     9
100
AcDbLine
 10
2855.408837647189
 20
204.2766417278611
 30
0.0
 11
2855.408837647189
 21
661.276641727861
 31
0.0
  0
LINE
  5
376
330
33B
100
AcDbEntity
  8
0
  6
________________
 62
     7
370
     9
100
AcDbLine
 10
2855.408837647189
 20
661.276641727861
 30
0.0
 11
2865.408837647188
 21
661.276641727861
 31
0.0
  0
LINE
  5
377
330
33B
100
AcDbEntity
  8
0
  6
________________
 62
     7
370
     9
100
AcDbLine
 10
2865.408837647188
 20
203.2766417278611
 30
0.0
 11
2855.408837647189
 21
203.2766417278611
 31
0.0
  0
LINE
  5
378
330
33B
100
AcDbEntity
  8
0
  6
________________
 62
     7
370
     9
100
AcDbLine
 10
1645.908837647188
 20
661.276641727861
 30
0.0
 11
1655.908837647188
 21
661.276641727861
 31
0.0
  0
LINE
  5
379
330
33B
100
AcDbEntity
  8
0
  6
________________
 62
     7
370
     9
100
AcDbLine
 10
1655.908837647188
 20
203.2766417278611
 30
0.0
 11
1645.908837647188
 21
203.2766417278611
 31
0.0
  0
LINE
  5
37A
330
33B
100
AcDbEntity
  8
0
  6
________________
 62
     7
370
     9
100
AcDbLine
 10
1655.908837647188
 20
661.276641727861
 30
0.0
 11
1655.908837647188
 21
204.276641727861
 31
0.0
  0
LINE
  5
37B
330
33B
100
AcDbEntity
  8
0
  6
________________
 62
     7
370
     9
100
AcDbLine
 10
1655.908837647188
 20
204.2766417278611
 30
0.0
 11
1655.908837647188
 21
203.2766417278611
 31
0.0
  0
LINE
  5
37C
330
33B
100
AcDbEntity
  8
0
  6
________________
 62
     7
370
     9
100
AcDbLine
 10
1645.908837647188
 20
203.2766417278611
 30
0.0
 11
1645.908837647188
 21
661.276641727861
 31
0.0
  0
LINE
  5
37D
330
33B
100
AcDbEntity
  8
0
  6
________________
 62
     7
370
     9
100
AcDbLine
 10
2839.408837647189
 20
204.2766417278611
 30
0.0
 11
2839.408837647189
 21
661.276641727861
 31
0.0
  0
LINE
  5
37E
330
33B
100
AcDbEntity
  8
0
  6
________________
 62
     7
370
     9
100
AcDbLine
 10
2839.408837647189
 20
661.276641727861
 30
0.0
 11
2855.408837647189
 21
661.276641727861
 31
0.0
  0
LINE
  5
37F
330
33B
100
AcDbEntity
  8
0
  6
________________
 62
     7
370
     9
100
AcDbLine
 10
2855.408837647189
 20
204.2766417278611
 30
0.0
 11
2839.408837647189
 21
204.2766417278611
 31
0.0
  0
LINE
  5
380
330
33B
100
AcDbEntity
  8
0
  6
________________
 62
     7
370
     9
100
AcDbLine
 10
2855.408837647189
 20
661.276641727861
 30
0.0
 11
2855.408837647189
 21
204.2766417278611
 31
0.0
  0
LINE
  5
381
330
33B
100
AcDbEntity
  8
0
  6
________________
 62
     7
370
     9
100
AcDbLine
 10
1671.908837647188
 20
204.2766417278611
 30
0.0
 11
1655.908837647188
 21
204.2766417278611
 31
0.0
  0
LINE
  5
382
330
33B
100
AcDbEntity
  8
0
  6
________________
 62
     7
370
     9
100
AcDbLine
 10
1655.908837647188
 20
661.276641727861
 30
0.0
 11
1671.908837647188
 21
661.276641727861
 31
0.0
  0
LINE
  5
383
330
33B
100
AcDbEntity
  8
0
  6
________________
 62
     7
370
     9
100
AcDbLine
 10
1671.908837647188
 20
661.276641727861
 30
0.0
 11
1671.908837647188
 21
204.2766417278611
 31
0.0
  0
LINE
  5
384
330
33B
100
AcDbEntity
  8
0
  6
________________
 62
     7
370
     9
100
AcDbLine
 10
1655.908837647188
 20
204.2766417278611
 30
0.0
 11
1655.908837647188
 21
661.276641727861
 31
0.0
  0
LINE
  5
385
330
33B
100
AcDbEntity
  8
0
  6
________________
 62
     7
370
     9
100
AcDbLine
 10
1674.408837647188
 20
617.0579200690462
 30
0.0
 11
1674.408837647188
 21
605.4953633866759
 31
0.0
  0
LINE
  5
386
330
33B
100
AcDbEntity
  8
0
  6
________________
 62
     7
370
     9
100
AcDbLine
 10
1674.408837647188
 20
259.0579200690462
 30
0.0
 11
1674.408837647188
 21
247.4953633866759
 31
0.0
  0
LINE
  5
387
330
33B
100
AcDbEntity
  8
0
  6
________________
 62
     7
370
     9
100
AcDbLine
 10
1723.377559306003
 20
208.7766417278611
 30
0.0
 11
1729.158837647188
 21
208.7766417278611
 31
0.0
  0
LINE
  5
388
330
33B
100
AcDbEntity
  8
0
  6
________________
 62
     7
370
     9
100
AcDbLine
 10
1729.158837647188
 20
208.7766417278611
 30
0.0
 11
1734.940115988373
 21
208.7766417278611
 31
0.0
  0
LINE
  5
389
330
33B
100
AcDbEntity
  8
0
  6
________________
 62
     7
370
     9
100
AcDbLine
 10
2249.877559306003
 20
208.7766417278611
 30
0.0
 11
2255.658837647188
 21
208.7766417278611
 31
0.0
  0
LINE
  5
38A
330
33B
100
AcDbEntity
  8
0
  6
________________
 62
     7
370
     9
100
AcDbLine
 10
2255.658837647188
 20
208.7766417278611
 30
0.0
 11
2261.440115988374
 21
208.7766417278611
 31
0.0
  0
LINE
  5
38B
330
33B
100
AcDbEntity
  8
0
  6
________________
 62
     7
370
     9
100
AcDbLine
 10
2776.377559306003
 20
208.7766417278611
 30
0.0
 11
2782.158837647188
 21
208.7766417278611
 31
0.0
  0
LINE
  5
38C
330
33B
100
AcDbEntity
  8
0
  6
________________
 62
     7
370
     9
100
AcDbLine
 10
2782.158837647188
 20
208.7766417278611
 30
0.0
 11
2787.940115988373
 21
208.7766417278611
 31
0.0
  0
LINE
  5
38D
330
33B
100
AcDbEntity
  8
0
  6
________________
 62
     7
370
     9
100
AcDbLine
 10
2836.908837647188
 20
247.4953633866759
 30
0.0
 11
2836.908837647188
 21
259.0579200690462
 31
0.0
  0
LINE
  5
38E
330
33B
100
AcDbEntity
  8
0
  6
________________
 62
     7
370
     9
100
AcDbLine
 10
2836.908837647188
 20
605.4953633866759
 30
0.0
 11
2836.908837647188
 21
617.0579200690462
 31
0.0
  0
LINE
  5
38F
330
33B
100
AcDbEntity
  8
0
  6
________________
 62
     7
370
     9
100
AcDbLine
 10
1732.969677449647
 20
207.0766417278611
 30
0.0
 11
1732.969677449647
 21
206.2766417278611
 31
0.0
  0
LINE
  5
390
330
33B
100
AcDbEntity
  8
0
  6
________________
 62
     7
370
     9
100
AcDbLine
 10
1725.34799784473
 20
206.2766417278611
 30
0.0
 11
1725.34799784473
 21
207.0766417278611
 31
0.0
  0
LINE
  5
391
330
33B
100
AcDbEntity
  8
0
  6
________________
 62
     7
370
     9
100
AcDbLine
 10
1725.34799784473
 20
206.2766417278611
 30
0.0
 11
1729.150713616162
 21
206.2766417278611
 31
0.0
  0
LINE
  5
392
330
33B
100
AcDbEntity
  8
0
  6
________________
 62
     7
370
     9
100
AcDbLine
 10
1729.150713616162
 20
206.2766417278611
 30
0.0
 11
1729.166961678215
 21
206.2766417278611
 31
0.0
  0
LINE
  5
393
330
33B
100
AcDbEntity
  8
0
  6
________________
 62
     7
370
     9
100
AcDbLine
 10
1729.166961678215
 20
206.2766417278611
 30
0.0
 11
1732.969677449647
 21
206.2766417278611
 31
0.0
  0
LINE
  5
394
330
33B
100
AcDbEntity
  8
0
  6
________________
 62
     7
370
     9
100
AcDbLine
 10
1729.158837647188
 20
207.0766417278611
 30
0.0
 11
1725.34799784473
 21
207.0766417278611
 31
0.0
  0
LINE
  5
395
330
33B
100
AcDbEntity
  8
0
  6
________________
 62
     7
370
     9
100
AcDbLine
 10
1732.969677449647
 20
207.0766417278611
 30
0.0
 11
1729.158837647188
 21
207.0766417278611
 31
0.0
  0
LINE
  5
396
330
33B
100
AcDbEntity
  8
0
  6
________________
 62
     7
370
     9
100
AcDbLine
 10
1725.34799784473
 20
207.0766417278611
 30
0.0
 11
1724.308837647189
 21
207.0766417278611
 31
0.0
  0
LINE
  5
397
330
33B
100
AcDbEntity
  8
0
  6
________________
 62
     7
370
     9
100
AcDbLine
 10
1734.008837647189
 20
207.0766417278611
 30
0.0
 11
1732.969677449647
 21
207.0766417278611
 31
0.0
  0
LINE
  5
398
330
33B
100
AcDbEntity
  8
0
  6
________________
 62
     7
370
     9
100
AcDbLine
 10
2259.469677449647
 20
207.0766417278611
 30
0.0
 11
2259.469677449647
 21
206.2766417278611
 31
0.0
  0
LINE
  5
399
330
33B
100
AcDbEntity
  8
0
  6
________________
 62
     7
370
     9
100
AcDbLine
 10
2251.847997844729
 20
206.2766417278611
 30
0.0
 11
2251.847997844729
 21
207.0766417278611
 31
0.0
  0
LINE
  5
39A
330
33B
100
AcDbEntity
  8
0
  6
________________
 62
     7
370
     9
100
AcDbLine
 10
2251.847997844729
 20
207.0766417278611
 30
0.0
 11
2250.808837647188
 21
207.0766417278611
 31
0.0
  0
LINE
  5
39B
330
33B
100
AcDbEntity
  8
0
  6
________________
 62
     7
370
     9
100
AcDbLine
 10
2260.508837647189
 20
207.0766417278611
 30
0.0
 11
2259.469677449647
 21
207.0766417278611
 31
0.0
  0
LINE
  5
39C
330
33B
100
AcDbEntity
  8
0
  6
________________
 62
     7
370
     9
100
AcDbLine
 10
2251.847997844729
 20
206.2766417278611
 30
0.0
 11
2255.650713616078
 21
206.2766417278591
 31
0.0
  0
LINE
  5
39D
330
33B
100
AcDbEntity
  8
0
  6
________________
 62
     7
370
     9
100
AcDbLine
 10
2255.650713616078
 20
206.2766417278591
 30
0.0
 11
2255.666961678299
 21
206.2766417278591
 31
0.0
  0
LINE
  5
39E
330
33B
100
AcDbEntity
  8
0
  6
________________
 62
     7
370
     9
100
AcDbLine
 10
2255.666961678299
 20
206.2766417278591
 30
0.0
 11
2259.469677449647
 21
206.2766417278611
 31
0.0
  0
LINE
  5
39F
330
33B
100
AcDbEntity
  8
0
  6
________________
 62
     7
370
     9
100
AcDbLine
 10
2255.658837647189
 20
207.0766417278611
 30
0.0
 11
2251.847997844729
 21
207.0766417278611
 31
0.0
  0
LINE
  5
3A0
330
33B
100
AcDbEntity
  8
0
  6
________________
 62
     7
370
     9
100
AcDbLine
 10
2259.469677449647
 20
207.0766417278611
 30
0.0
 11
2255.658837647189
 21
207.0766417278611
 31
0.0
  0
LINE
  5
3A1
330
33B
100
AcDbEntity
  8
0
  6
________________
 62
     7
370
     9
100
AcDbLine
 10
2785.969677449646
 20
207.0766417278611
 30
0.0
 11
2785.969677449646
 21
206.2766417278611
 31
0.0
  0
LINE
  5
3A2
330
33B
100
AcDbEntity
  8
0
  6
________________
 62
     7
370
     9
100
AcDbLine
 10
2778.34799784473
 20
206.2766417278611
 30
0.0
 11
2778.34799784473
 21
207.0766417278611
 31
0.0
  0
LINE
  5
3A3
330
33B
100
AcDbEntity
  8
0
  6
________________
 62
     7
370
     9
100
AcDbLine
 10
2778.34799784473
 20
207.0766417278611
 30
0.0
 11
2777.308837647189
 21
207.0766417278611
 31
0.0
  0
LINE
  5
3A4
330
33B
100
AcDbEntity
  8
0
  6
________________
 62
     7
370
     9
100
AcDbLine
 10
2787.008837647188
 20
207.0766417278611
 30
0.0
 11
2785.969677449646
 21
207.0766417278611
 31
0.0
  0
LINE
  5
3A5
330
33B
100
AcDbEntity
  8
0
  6
________________
 62
     7
370
     9
100
AcDbLine
 10
2778.34799784473
 20
206.2766417278611
 30
0.0
 11
2782.150713616162
 21
206.2766417278611
 31
0.0
  0
LINE
  5
3A6
330
33B
100
AcDbEntity
  8
0
  6
________________
 62
     7
370
     9
100
AcDbLine
 10
2782.150713616162
 20
206.2766417278611
 30
0.0
 11
2782.166961678215
 21
206.2766417278611
 31
0.0
  0
LINE
  5
3A7
330
33B
100
AcDbEntity
  8
0
  6
________________
 62
     7
370
     9
100
AcDbLine
 10
2782.166961678215
 20
206.2766417278611
 30
0.0
 11
2785.969677449646
 21
206.2766417278611
 31
0.0
  0
LINE
  5
3A8
330
33B
100
AcDbEntity
  8
0
  6
________________
 62
     7
370
     9
100
AcDbLine
 10
2782.158837647188
 20
207.0766417278611
 30
0.0
 11
2778.34799784473
 21
207.0766417278611
 31
0.0
  0
LINE
  5
3A9
330
33B
100
AcDbEntity
  8
0
  6
________________
 62
     7
370
     9
100
AcDbLine
 10
2785.969677449646
 20
207.0766417278611
 30
0.0
 11
2782.158837647188
 21
207.0766417278611
 31
0.0
  0
LINE
  5
3AA
330
33B
100
AcDbEntity
  8
0
  6
________________
 62
     7
370
     9
100
AcDbLine
 10
2839.408837647189
 20
212.7766417278611
 30
0.0
 11
1671.908837647188
 21
212.7766417278611
 31
0.0
  0
LINE
  5
3AB
330
33B
100
AcDbEntity
  8
0
  6
________________
 62
     7
370
     9
100
AcDbLine
 10
1671.908837647188
 20
567.7766417278611
 30
0.0
 11
2839.408837647189
 21
567.7766417278611
 31
0.0
  0
LINE
  5
3AC
330
33B
100
AcDbEntity
  8
0
  6
________________
 62
     7
370
     9
100
AcDbLine
 10
1671.908837647188
 20
605.276641727861
 30
0.0
 11
1674.408837647188
 21
605.4953633866759
 31
0.0
  0
LINE
  5
3AD
330
33B
100
AcDbEntity
  8
0
  6
________________
 62
     7
370
     9
100
AcDbLine
 10
1674.408837647188
 20
617.0579200690462
 30
0.0
 11
1671.908837647188
 21
617.276641727861
 31
0.0
  0
LINE
  5
3AE
330
33B
100
AcDbEntity
  8
0
  6
________________
 62
     7
370
     9
100
AcDbLine
 10
1671.908837647188
 20
247.2766417278611
 30
0.0
 11
1674.408837647188
 21
247.4953633866759
 31
0.0
  0
LINE
  5
3AF
330
33B
100
AcDbEntity
  8
0
  6
________________
 62
     7
370
     9
100
AcDbLine
 10
1674.408837647188
 20
259.0579200690462
 30
0.0
 11
1671.908837647188
 21
259.2766417278611
 31
0.0
  0
LINE
  5
3B0
330
33B
100
AcDbEntity
  8
0
  6
________________
 62
     7
370
     9
100
AcDbLine
 10
1735.158837647188
 20
206.2766417278611
 30
0.0
 11
1734.940115988374
 21
208.7766417278611
 31
0.0
  0
LINE
  5
3B1
330
33B
100
AcDbEntity
  8
0
  6
________________
 62
     7
370
     9
100
AcDbLine
 10
1723.377559306003
 20
208.7766417278611
 30
0.0
 11
1723.158837647188
 21
206.2766417278611
 31
0.0
  0
LINE
  5
3B2
330
33B
100
AcDbEntity
  8
0
  6
________________
 62
     7
370
     9
100
AcDbLine
 10
2261.658837647189
 20
206.2766417278611
 30
0.0
 11
2261.440115988374
 21
208.7766417278611
 31
0.0
  0
LINE
  5
3B3
330
33B
100
AcDbEntity
  8
0
  6
________________
 62
     7
370
     9
100
AcDbLine
 10
2249.877559306003
 20
208.7766417278611
 30
0.0
 11
2249.658837647188
 21
206.2766417278611
 31
0.0
  0
LINE
  5
3B4
330
33B
100
AcDbEntity
  8
0
  6
________________
 62
     7
370
     9
100
AcDbLine
 10
2788.158837647188
 20
206.2766417278611
 30
0.0
 11
2787.940115988373
 21
208.7766417278611
 31
0.0
  0
LINE
  5
3B5
330
33B
100
AcDbEntity
  8
0
  6
________________
 62
     7
370
     9
100
AcDbLine
 10
2776.377559306003
 20
208.7766417278611
 30
0.0
 11
2776.158837647189
 21
206.2766417278611
 31
0.0
  0
LINE
  5
3B6
330
33B
100
AcDbEntity
  8
0
  6
________________
 62
     7
370
     9
100
AcDbLine
 10
2839.408837647189
 20
259.2766417278611
 30
0.0
 11
2836.908837647188
 21
259.0579200690462
 31
0.0
  0
LINE
  5
3B7
330
33B
100
AcDbEntity
  8
0
  6
________________
 62
     7
370
     9
100
AcDbLine
 10
2836.908837647188
 20
247.4953633866759
 30
0.0
 11
2839.408837647189
 21
247.2766417278611
 31
0.0
  0
LINE
  5
3B8
330
33B
100
AcDbEntity
  8
0
  6
________________
 62
     7
370
     9
100
AcDbLine
 10
2839.408837647189
 20
617.276641727861
 30
0.0
 11
2836.908837647188
 21
617.0579200690462
 31
0.0
  0
LINE
  5
3B9
330
33B
100
AcDbEntity
  8
0
  6
________________
 62
     7
370
     9
100
AcDbLine
 10
2836.908837647188
 20
605.4953633866759
 30
0.0
 11
2839.408837647189
 21
605.276641727861
 31
0.0
  0
LINE
  5
3BA
330
33B
100
AcDbEntity
  8
0
  6
________________
 62
     7
370
     9
100
AcDbLine
 10
1734.008837647189
 20
206.2766417278611
 30
0.0
 11
1734.008837647189
 21
207.0766417278611
 31
0.0
  0
LINE
  5
3BB
330
33B
100
AcDbEntity
  8
0
  6
________________
 62
     7
370
     9
100
AcDbLine
 10
1724.308837647189
 20
207.0766417278611
 30
0.0
 11
1724.308837647189
 21
206.2766417278611
 31
0.0
  0
LINE
  5
3BC
330
33B
100
AcDbEntity
  8
0
  6
________________
 62
     7
370
     9
100
AcDbLine
 10
2260.508837647189
 20
206.2766417278611
 30
0.0
 11
2260.508837647189
 21
207.0766417278611
 31
0.0
  0
LINE
  5
3BD
330
33B
100
AcDbEntity
  8
0
  6
________________
 62
     7
370
     9
100
AcDbLine
 10
2250.808837647188
 20
207.0766417278611
 30
0.0
 11
2250.808837647188
 21
206.2766417278611
 31
0.0
  0
LINE
  5
3BE
330
33B
100
AcDbEntity
  8
0
  6
________________
 62
     7
370
     9
100
AcDbLine
 10
2787.008837647188
 20
206.2766417278611
 30
0.0
 11
2787.008837647188
 21
207.0766417278611
 31
0.0
  0
LINE
  5
3BF
330
33B
100
AcDbEntity
  8
0
  6
________________
 62
     7
370
     9
100
AcDbLine
 10
2777.308837647189
 20
207.0766417278611
 30
0.0
 11
2777.308837647189
 21
206.2766417278611
 31
0.0
  0
ENDBLK
  5
3C4
330
33B
100
AcDbEntity
  8
0
100
AcDbBlockEnd
  0
BLOCK
  5
3DD
330
3C1
100
AcDbEntity
  8
0
100
AcDbBlockBegin
  2
D_FRAME_DRAWING@24
 70
     0
 10
0.0
 20
0.0
 30
0.0
  3
D_FRAME_DRAWING@24
  1

  0
LINE
  5
3C5
330
3C1
100
AcDbEntity
  8
1
  6
________________
 62
     7
370
     9
100
AcDbLine
 10
0.0
 20
0.0
 30
0.0
 11
5000.0
 21
0.0
 31
0.0
  0
LINE
  5
3C6
330
3C1
100
AcDbEntity
  8
1
  6
________________
 62
     7
370
     9
100
AcDbLine
 10
5000.0
 20
0.0
 30
0.0
 11
5000.0
 21
3000.0
 31
0.0
  0
LINE
  5
3C7
330
3C1
100
AcDbEntity
  8
1
  6
________________
 62
     7
370
     9
100
AcDbLine
 10
5000.0
 20
3000.0
 30
0.0
 11
0.0
 21
3000.0
 31
0.0
  0
LINE
  5
3C8
330
3C1
100
AcDbEntity
  8
1
  6
________________
 62
     7
370
     9
100
AcDbLine
 10
0.0
 20
3000.0
 30
0.0
 11
0.0
 21
0.0
 31
0.0
  0
LINE
  5
3C9
330
3C1
100
AcDbEntity
  8
1
  6
________________
 62
     7
370
    20
100
AcDbLine
 10
20.0
 20
20.0
 30
0.0
 11
4980.0
 21
20.0
 31
0.0
  0
LINE
  5
3CA
330
3C1
100
AcDbEntity
  8
1
  6
________________
 62
     7
370
    20
100
AcDbLine
 10
4980.0
 20
20.0
 30
0.0
 11
4980.0
 21
2980.0
 31
0.0
  0
LINE
  5
3CB
330
3C1
100
AcDbEntity
  8
1
  6
________________
 62
     7
370
    20
100
AcDbLine
 10
4980.0
 20
2980.0
 30
0.0
 11
19.99999999999957
 21
2980.0
 31
0.0
  0
LINE
  5
3CC
330
3C1
100
AcDbEntity
  8
1
  6
________________
 62
     7
370
    20
100
AcDbLine
 10
20.0
 20
2980.0
 30
0.0
 11
20.0
 21
20.00000000000002
 31
0.0
  0
LINE
  5
3CD
330
3C1
100
AcDbEntity
  8
1
  6
________________
 62
     7
370
    20
100
AcDbLine
 10
2500.0
 20
15.0
 30
0.0
 11
2500.0
 21
25.0
 31
0.0
  0
LINE
  5
3CE
330
3C1
100
AcDbEntity
  8
1
  6
________________
 62
     7
370
    20
100
AcDbLine
 10
4985.0
 20
1500.0
 30
0.0
 11
4975.0
 21
1500.0
 31
0.0
  0
LINE
  5
3CF
330
3C1
100
AcDbEntity
  8
1
  6
________________
 62
     7
370
    20
100
AcDbLine
 10
2500.0
 20
2985.0
 30
0.0
 11
2500.0
 21
2975.0
 31
0.0
  0
LINE
  5
3D0
330
3C1
100
AcDbEntity
  8
1
  6
________________
 62
     7
370
    20
100
AcDbLine
 10
15.0
 20
1500.0
 30
0.0
 11
25.0
 21
1500.0
 31
0.0
  0
ENDBLK
  5
3DE
330
3C1
100
AcDbEntity
  8
0
100
AcDbBlockEnd
  0
ENDSEC
  0
SECTION
  2
ENTITIES
  0
INSERT
  5
CA
330
1F
100
AcDbEntity
  8
0
  6
________________
 62
     7
370
    20
100
AcDbBlockReference
  2
D_FRAME_VIEW@68
 10
0.0
 20
0.0
 30
0.0
  0
INSERT
  5
EF
330
1F
100
AcDbEntity
  8
0
  6
________________
 62
     7
370
    20
100
AcDbBlockReference
  2
D_FRAME_VIEW@39
 10
0.0
 20
0.0
 30
0.0
  0
INSERT
  5
106
330
1F
100
AcDbEntity
  8
0
  6
________________
 62
     7
370
    20
100
AcDbBlockReference
  2
D_FRAME_VIEW@43
 10
0.0
 20
0.0
 30
0.0
  0
INSERT
  5
174
330
1F
100
AcDbEntity
  8
0
  6
________________
 62
     7
370
    20
100
AcDbBlockReference
  2
D_FRAME_VIEW@45
 10
0.0
 20
0.0
 30
0.0
  0
LINE
  5
175
330
1F
100
AcDbEntity
  8
60
  6
______....__....
 62
     1
420
 16711680
370
     9
100
AcDbLine
 10
2915.408837647188
 20
2508.276641727861
 30
0.0
 11
1595.908837647188
 21
2508.276641727861
 31
0.0
  0
LINE
  5
177
330
1F
100
AcDbEntity
  8
60
  6
________________
 62
     7
370
     9
100
AcDbLine
 10
2915.408837647188
 20
2508.276641727861
 30
0.0
 11
2965.408837647188
 21
2508.276641727861
 31
0.0
  0
LINE
  5
178
330
1F
100
AcDbEntity
  8
60
  6
________________
 62
     7
370
     9
100
AcDbLine
 10
2940.408837647188
 20
2568.276641727861
 30
0.0
 11
2940.408837647188
 21
2508.276641727861
 31
0.0
  0
LWPOLYLINE
  5
179
330
1F
100
AcDbEntity
  8
60
  6
________________
 62
     7
370
     9
100
AcDbPolyline
 90
        3
 70
     0
 43
0.0
 10
2935.408837647188
 20
2528.276641727861
 10
2940.408837647188
 20
2508.276641727861
 10
2945.408837647188
 20
2528.276641727861
  0
MTEXT
  5
17A
330
1F
100
AcDbEntity
  8
60
 62
     7
100
AcDbMText
 10
2935.284759847054
 20
2492.941296322093
 30
0.0
 40
20.0
 41
0.0
 46
0.0
 71
     1
 72
     1
  1
{\fArial Narrow;B}
 73
     1
 44
1.0
  0
LINE
  5
17B
330
1F
100
AcDbEntity
  8
60
  6
________________
 62
     7
370
     9
100
AcDbLine
 10
1595.908837647188
 20
2508.276641727861
 30
0.0
 11
1545.908837647188
 21
2508.276641727861
 31
0.0
  0
LINE
  5
17C
330
1F
100
AcDbEntity
  8
60
  6
________________
 62
     7
370
     9
100
AcDbLine
 10
1570.908837647188
 20
2568.276641727861
 30
0.0
 11
1570.908837647188
 21
2508.276641727861
 31
0.0
  0
LWPOLYLINE
  5
17D
330
1F
100
AcDbEntity
  8
60
  6
________________
 62
     7
370
     9
100
AcDbPolyline
 90
        3
 70
     0
 43
0.0
 10
-1575.908837647188
 20
2528.276641727861
 10
-1570.908837647188
 20
2508.276641727861
 10
-1565.908837647188
 20
2528.276641727861
210
0.0
220
0.0
230
-1.0
  0
MTEXT
  5
17E
330
1F
100
AcDbEntity
  8
60
 62
     7
100
AcDbMText
 10
1565.784759847054
 20
2492.941296322093
 30
0.0
 40
20.0
 41
0.0
 46
0.0
 71
     1
 72
     1
  1
{\fArial Narrow;B}
 73
     1
 44
1.0
  0
LINE
  5
17F
330
1F
100
AcDbEntity
  8
60
  6
______....__....
 62
     1
420
 16711680
370
     9
100
AcDbLine
 10
2255.658837647188
 20
2158.276641727861
 30
0.0
 11
2255.658837647188
 21
2808.276641727862
 31
0.0
  0
LINE
  5
180
330
1F
100
AcDbEntity
  8
60
  6
________________
 62
     7
370
     9
100
AcDbLine
 10
2255.658837647188
 20
2158.276641727861
 30
0.0
 11
2255.658837647188
 21
2108.276641727862
 31
0.0
  0
LINE
  5
181
330
1F
100
AcDbEntity
  8
60
  6
________________
 62
     7
370
     9
100
AcDbLine
 10
2315.658837647189
 20
2133.276641727861
 30
0.0
 11
2255.658837647188
 21
2133.276641727861
 31
0.0
  0
LWPOLYLINE
  5
182
330
1F
100
AcDbEntity
  8
60
  6
________________
 62
     7
370
     9
100
AcDbPolyline
 90
        3
 70
     0
 43
0.0
 10
2275.658837647188
 20
2138.276641727861
 10
2255.658837647188
 20
2133.276641727861
 10
2275.658837647188
 20
2128.276641727862
  0
MTEXT
  5
183
330
1F
100
AcDbEntity
  8
60
 62
     7
100
AcDbMText
 10
2225.534759847054
 20
2142.941296322093
 30
0.0
 40
20.0
 41
0.0
 46
0.0
 71
     1
 72
     1
  1
{\fArial Narrow;A}
 73
     1
 44
1.0
  0
LINE
  5
184
330
1F
100
AcDbEntity
  8
60
  6
________________
 62
     7
370
     9
100
AcDbLine
 10
2255.658837647188
 20
2808.276641727862
 30
0.0
 11
2255.658837647188
 21
2858.276641727862
 31
0.0
  0
LINE
  5
185
330
1F
100
AcDbEntity
  8
60
  6
________________
 62
     7
370
     9
100
AcDbLine
 10
2315.658837647189
 20
2833.276641727862
 30
0.0
 11
2255.658837647188
 21
2833.276641727862
 31
0.0
  0
LWPOLYLINE
  5
186
330
1F
100
AcDbEntity
  8
60
  6
________________
 62
     7
370
     9
100
AcDbPolyline
 90
        3
 70
     0
 43
0.0
 10
-2275.658837647188
 20
2828.276641727862
 10
-2255.658837647188
 20
2833.276641727862
 10
-2275.658837647188
 20
2838.276641727861
210
0.0
220
0.0
230
-1.0
  0
MTEXT
  5
187
330
1F
100
AcDbEntity
  8
60
 62
     7
100
AcDbMText
 10
2225.534759847054
 20
2842.941296322093
 30
0.0
 40
20.0
 41
0.0
 46
0.0
 71
     1
 72
     1
  1
{\fArial Narrow;A}
 73
     1
 44
1.0
  0
INSERT
  5
33A
330
1F
100
AcDbEntity
  8
0
  6
________________
 62
     7
370
    20
100
AcDbBlockReference
  2
D_FRAME_VIEW@53
 10
0.0
 20
0.0
 30
0.0
  0
INSERT
  5
3C0
330
1F
100
AcDbEntity
  8
0
  6
________________
 62
     7
370
    20
100
AcDbBlockReference
  2
D_FRAME_VIEW@61
 10
0.0
 20
0.0
 30
0.0
  0
INSERT
  5
3C2
330
1F
100
AcDbEntity
  8
1
 62
     7
100
AcDbBlockReference
  2
D_FRAME_DRAWING@24
 10
0.0
 20
0.0
 30
0.0
  0
MTEXT
  5
3D1
330
1F
100
AcDbEntity
  8
1
 62
     7
100
AcDbMText
 10
4607.1741871097
 20
60.23977196512408
 30
0.0
 40
30.50000000000002
 41
0.0
 46
0.0
 71
     1
 72
     1
  1
{\fArial Narrow;markus.roth}
 73
     1
 44
1.0
  0
MTEXT
  5
3D2
330
1F
100
AcDbEntity
  8
1
 62
     7
100
AcDbMText
 10
4090.348460528468
 20
60.31136820925553
 30
0.0
 40
30.5
 41
0.0
 46
0.0
 71
     1
 72
     1
  1
{\fArial Narrow;22.06.2022}
 73
     1
 44
1.0
  0
POINT
  5
3D3
330
1F
100
AcDbEntity
  8
0
 62
     7
100
AcDbPoint
 10
2255.658837647188
 20
2483.276641727861
 30
0.0
  0
POINT
  5
3D4
330
1F
100
AcDbEntity
  8
0
 62
     7
100
AcDbPoint
 10
2253.158837647189
 20
2508.276641727861
 30
0.0
  0
POINT
  5
3D5
330
1F
100
AcDbEntity
  8
1
 62
     7
100
AcDbPoint
 10
4980.0
 20
20.0
 30
0.0
  0
LINE
  5
3D6
330
1F
100
AcDbEntity
  8
1
  6
________________
 62
     7
370
    20
100
AcDbLine
 10
20.00000000000046
 20
20.0
 30
0.0
 11
4980.0
 21
20.0
 31
0.0
  0
LINE
  5
3D7
330
1F
100
AcDbEntity
  8
1
  6
________________
 62
     7
370
    20
100
AcDbLine
 10
20.00000000000046
 20
70.0
 30
0.0
 11
4980.0
 21
70.0
 31
0.0
  0
LINE
  5
3D8
330
1F
100
AcDbEntity
  8
1
  6
________________
 62
     7
370
    20
100
AcDbLine
 10
20.00000000000046
 20
20.0
 30
0.0
 11
20.00000000000046
 21
70.0
 31
0.0
  0
LINE
  5
3D9
330
1F
100
AcDbEntity
  8
1
  6
________________
 62
     7
370
    20
100
AcDbLine
 10
4980.0
 20
20.0
 30
0.0
 11
4980.0
 21
70.0
 31
0.0
  0
LINE
  5
3DA
330
1F
100
AcDbEntity
  8
1
  6
________________
 62
     7
370
    20
100
AcDbLine
 10
4410.1682937365
 20
20.0
 30
0.0
 11
4410.1682937365
 21
70.0
 31
0.0
  0
LINE
  5
3DB
330
1F
100
AcDbEntity
  8
1
  6
________________
 62
     7
370
    20
100
AcDbLine
 10
3936.243248380127
 20
20.0
 30
0.0
 11
3936.243248380127
 21
70.0
 31
0.0
  0
LINE
  5
3DC
330
1F
100
AcDbEntity
  8
1
  6
________________
 62
     7
370
    20
100
AcDbLine
 10
1643.240742980559
 20
20.0
 30
0.0
 11
1643.240742980559
 21
70.0
 31
0.0
  0
ENDSEC
  0
SECTION
  2
OBJECTS
  0
DICTIONARY
  5
C
330
0
100
AcDbDictionary
281
     1
  3
ACAD_DETAILVIEWSTYLE
350
3E6
  3
ACAD_GROUP
350
D
  3
ACAD_LAYOUT
350
1A
  3
ACAD_MATERIAL
350
43
  3
ACAD_MLEADERSTYLE
350
5B
  3
ACAD_MLINESTYLE
350
17
  3
ACAD_PLOTSETTINGS
350
19
  3
ACAD_PLOTSTYLENAME
350
E
  3
ACAD_SCALELIST
350
47
  3
ACAD_SECTIONVIEWSTYLE
350
3E7
  3
ACAD_TABLESTYLE
350
59
  3
ACAD_VISUALSTYLE
350
2A
  3
ACDB_RECOMPOSE_DATA
350
3E3
  3
AcDbVariableDictionary
350
3DF
  0
SUN
  5
5D
330
29
100
AcDbSun
 90
        1
290
     0
 63
     7
421
 16777215
 40
1.0
291
     1
 91
  2455826
 92
 54000000
292
     0
 70
     2
 71
   256
280
     1
  0
DICTIONARY
  5
3E6
102
{ACAD_REACTORS
330
C
102
}
330
C
100
AcDbDictionary
281
     1
  0
DICTIONARY
  5
D
102
{ACAD_REACTORS
330
C
102
}
330
C
100
AcDbDictionary
281
     1
  0
DICTIONARY
  5
1A
102
{ACAD_REACTORS
330
C
102
}
330
C
100
AcDbDictionary
281
     1
  3
Layout1
350
1E
  3
Layout2
350
26
  3
Model
350
22
  0
DICTIONARY
  5
43
102
{ACAD_REACTORS
330
C
102
}
330
C
100
AcDbDictionary
281
     1
  3
ByBlock
350
45
  3
ByLayer
350
44
  3
Global
350
46
  0
DICTIONARY
  5
5B
102
{ACAD_REACTORS
330
C
102
}
330
C
100
AcDbDictionary
281
     1
  3
Standard
350
5C
  0
DICTIONARY
  5
17
102
{ACAD_REACTORS
330
C
102
}
330
C
100
AcDbDictionary
281
     1
  3
Standard
350
18
  0
DICTIONARY
  5
19
102
{ACAD_REACTORS
330
C
102
}
330
C
100
AcDbDictionary
281
     1
  0
ACDBDICTIONARYWDFLT
  5
E
102
{ACAD_REACTORS
330
C
102
}
330
C
100
AcDbDictionary
281
     1
  3
Normal
350
F
100
AcDbDictionaryWithDefault
340
F
  0
DICTIONARY
  5
47
102
{ACAD_REACTORS
330
C
102
}
330
C
100
AcDbDictionary
281
     1
  3
A0
350
48
  3
A1
350
49
  3
A2
350
4A
  3
A3
350
4B
  3
A4
350
4C
  3
A5
350
4D
  3
A6
350
4E
  3
A7
350
4F
  3
A8
350
50
  3
A9
350
51
  3
B1
350
52
  3
B2
350
53
  3
B3
350
54
  3
B4
350
55
  3
B5
350
56
  3
B6
350
57
  3
B7
350
58
  0
DICTIONARY
  5
3E7
102
{ACAD_REACTORS
330
C
102
}
330
C
100
AcDbDictionary
281
     1
  0
DICTIONARY
  5
59
102
{ACAD_REACTORS
330
C
102
}
330
C
100
AcDbDictionary
281
     1
  3
Standard
350
5A
  0
DICTIONARY
  5
2A
102
{ACAD_REACTORS
330
C
102
}
330
C
100
AcDbDictionary
281
     1
  3
2dWireframe
350
2F
  3
Basic
350
32
  3
Brighten
350
36
  3
ColorChange
350
3A
  3
Conceptual
350
34
  3
Dim
350
35
  3
EdgeColorOff
350
3D
  3
Facepattern
350
39
  3
Flat
350
2B
  3
FlatWithEdges
350
2C
  3
Gouraud
350
2D
  3
GouraudWithEdges
350
2E
  3
Hidden
350
31
  3
JitterOff
350
3B
  3
Linepattern
350
38
  3
OverhangOff
350
3C
  3
Realistic
350
33
  3
Shaded
350
42
  3
Shaded with edges
350
41
  3
Shades of Gray
350
3E
  3
Sketchy
350
3F
  3
Thicken
350
37
  3
Wireframe
350
30
  3
X-Ray
350
40
  0
XRECORD
  5
3E3
102
{ACAD_REACTORS
330
C
102
}
330
C
100
AcDbXrecord
280
     1
 90
        1
330
5A
  0
DICTIONARY
  5
3DF
102
{ACAD_REACTORS
330
C
102
}
330
C
100
AcDbDictionary
281
     1
  3
CANNOSCALE
350
3E0
  3
CMLEADERSTYLE
350
3E5
  3
CTABLESTYLE
350
3E4
  0
LAYOUT
  5
1E
102
{ACAD_REACTORS
330
1A
102
}
330
1A
100
AcDbPlotSettings
  1

  2
none_device
  4

  6

 40
0.0
 41
0.0
 42
0.0
 43
0.0
 44
0.0
 45
0.0
 46
0.0
 47
0.0
 48
0.0
 49
0.0
140
0.0
141
0.0
142
1.0
143
1.0
 70
   688
 72
     0
 73
     0
 74
     5
  7

 75
    16
 76
     0
 77
     2
 78
   300
147
1.0
148
0.0
149
0.0
100
AcDbLayout
  1
Layout1
 70
     1
 71
     1
 10
0.0
 20
0.0
 11
12.0
 21
9.0
 12
0.0
 22
0.0
 32
0.0
 14
1.000000000000000E+20
 24
1.000000000000000E+20
 34
1.000000000000000E+20
 15
-1.000000000000000E+20
 25
-1.000000000000000E+20
 35
-1.000000000000000E+20
146
0.0
 13
0.0
 23
0.0
 33
0.0
 16
1.0
 26
0.0
 36
0.0
 17
0.0
 27
1.0
 37
0.0
 76
     0
330
1B
  0
LAYOUT
  5
26
102
{ACAD_REACTORS
330
1A
102
}
330
1A
100
AcDbPlotSettings
  1

  2
none_device
  4

  6

 40
0.0
 41
0.0
 42
0.0
 43
0.0
 44
0.0
 45
0.0
 46
0.0
 47
0.0
 48
0.0
 49
0.0
140
0.0
141
0.0
142
1.0
143
1.0
 70
   688
 72
     0
 73
     0
 74
     5
  7

 75
    16
 76
     0
 77
     2
 78
   300
147
1.0
148
0.0
149
0.0
100
AcDbLayout
  1
Layout2
 70
     1
 71
     2
 10
0.0
 20
0.0
 11
0.0
 21
0.0
 12
0.0
 22
0.0
 32
0.0
 14
0.0
 24
0.0
 34
0.0
 15
0.0
 25
0.0
 35
0.0
146
0.0
 13
0.0
 23
0.0
 33
0.0
 16
1.0
 26
0.0
 36
0.0
 17
0.0
 27
1.0
 37
0.0
 76
     0
330
23
  0
LAYOUT
  5
22
102
{ACAD_REACTORS
330
1A
102
}
330
1A
100
AcDbPlotSettings
  1

  2
none_device
  4
Letter_(8.50_x_11.00_Inches)
  6

 40
6.35
 41
6.35
 42
6.35000508
 43
6.35000508
 44
215.9
 45
279.4
 46
0.0
 47
0.0
 48
0.0
 49
0.0
140
0.0
141
0.0
142
1.0
143
1.0
 70
  1712
 72
     0
 73
     0
 74
     0
  7

 75
     0
 76
     0
 77
     2
 78
   300
147
1.0
148
0.0
149
0.0
100
AcDbLayout
  1
Model
 70
     1
 71
     0
 10
0.0
 20
0.0
 11
12.0
 21
9.0
 12
0.0
 22
0.0
 32
0.0
 14
-20.0
 24
0.0
 34
-0.0000000000000002
 15
7188.415492957746
 25
2873.553283455723
 35
5.0
146
0.0
 13
0.0
 23
0.0
 33
0.0
 16
1.0
 26
0.0
 36
0.0
 17
0.0
 27
1.0
 37
0.0
 76
     0
330
1F
331
29
  0
MATERIAL
  5
45
102
{ACAD_REACTORS
330
43
102
}
330
43
100
AcDbMaterial
  1
ByBlock
 72
     1
 94
      127
  0
MATERIAL
  5
44
102
{ACAD_REACTORS
330
43
102
}
330
43
100
AcDbMaterial
  1
ByLayer
 72
     1
 94
      127
  0
MATERIAL
  5
46
102
{ACAD_REACTORS
330
43
102
}
330
43
100
AcDbMaterial
  1
Global
 72
     1
 94
      127
  0
MLEADERSTYLE
  5
5C
102
{ACAD_REACTORS
330
5B
102
}
330
5B
100
AcDbMLeaderStyle
179
     2
170
     2
171
     1
172
     0
 90
        2
 40
0.0
 41
0.0
173
     1
 91
-1056964608
340
14
 92
       -2
290
     1
 42
0.09
291
     1
 43
0.36
  3
Standard
341
0
 44
0.18
300

342
11
174
     1
178
     6
175
     1
176
     0
 93
-1056964608
 45
0.18
292
     0
297
     0
 46
0.18
343
0
 94
-1056964608
 47
1.0
 49
1.0
140
1.0
293
     1
141
0.0
294
     1
177
     0
142
1.0
295
     0
296
     0
143
0.125
271
     0
272
     9
273
     9
298
     0
  0
MLINESTYLE
  5
18
102
{ACAD_REACTORS
330
17
102
}
330
17
100
AcDbMlineStyle
  2
Standard
 70
     0
  3

 62
   256
 51
90.0
 52
90.0
 71
     2
 49
0.5
 62
   256
  6
BYLAYER
 49
-0.5
 62
   256
  6
BYLAYER
  0
ACDBPLACEHOLDER
  5
F
102
{ACAD_REACTORS
330
E
102
}
330
E
  0
SCALE
  5
48
102
{ACAD_REACTORS
330
47
102
}
330
47
100
AcDbScale
 70
     0
300
1:1
140
1.0
141
1.0
290
     1
  0
SCALE
  5
49
102
{ACAD_REACTORS
330
47
102
}
330
47
100
AcDbScale
 70
     0
300
1/128" = 1'-0"
140
0.0078125
141
12.0
290
     0
  0
SCALE
  5
4A
102
{ACAD_REACTORS
330
47
102
}
330
47
100
AcDbScale
 70
     0
300
1/64" = 1'-0"
140
0.015625
141
12.0
290
     0
  0
SCALE
  5
4B
102
{ACAD_REACTORS
330
47
102
}
330
47
100
AcDbScale
 70
     0
300
1/32" = 1'-0"
140
0.03125
141
12.0
290
     0
  0
SCALE
  5
4C
102
{ACAD_REACTORS
330
47
102
}
330
47
100
AcDbScale
 70
     0
300
1/16" = 1'-0"
140
0.0625
141
12.0
290
     0
  0
SCALE
  5
4D
102
{ACAD_REACTORS
330
47
102
}
330
47
100
AcDbScale
 70
     0
300
3/32" = 1'-0"
140
0.09375
141
12.0
290
     0
  0
SCALE
  5
4E
102
{ACAD_REACTORS
330
47
102
}
330
47
100
AcDbScale
 70
     0
300
1/8" = 1'-0"
140
0.125
141
12.0
290
     0
  0
SCALE
  5
4F
102
{ACAD_REACTORS
330
47
102
}
330
47
100
AcDbScale
 70
     0
300
3/16" = 1'-0"
140
0.1875
141
12.0
290
     0
  0
SCALE
  5
50
102
{ACAD_REACTORS
330
47
102
}
330
47
100
AcDbScale
 70
     0
300
1/4" = 1'-0"
140
0.25
141
12.0
290
     0
  0
SCALE
  5
51
102
{ACAD_REACTORS
330
47
102
}
330
47
100
AcDbScale
 70
     0
300
3/8" = 1'-0"
140
0.375
141
12.0
290
     0
  0
SCALE
  5
52
102
{ACAD_REACTORS
330
47
102
}
330
47
100
AcDbScale
 70
     0
300
1/2" = 1'-0"
140
0.5
141
12.0
290
     0
  0
SCALE
  5
53
102
{ACAD_REACTORS
330
47
102
}
330
47
100
AcDbScale
 70
     0
300
3/4" = 1'-0"
140
0.75
141
12.0
290
     0
  0
SCALE
  5
54
102
{ACAD_REACTORS
330
47
102
}
330
47
100
AcDbScale
 70
     0
300
1" = 1'-0"
140
1.0
141
12.0
290
     0
  0
SCALE
  5
55
102
{ACAD_REACTORS
330
47
102
}
330
47
100
AcDbScale
 70
     0
300
1-1/2" = 1'-0"
140
1.5
141
12.0
290
     0
  0
SCALE
  5
56
102
{ACAD_REACTORS
330
47
102
}
330
47
100
AcDbScale
 70
     0
300
3" = 1'-0"
140
3.0
141
12.0
290
     0
  0
SCALE
  5
57
102
{ACAD_REACTORS
330
47
102
}
330
47
100
AcDbScale
 70
     0
300
6" = 1'-0"
140
6.0
141
12.0
290
     0
  0
SCALE
  5
58
102
{ACAD_REACTORS
330
47
102
}
330
47
100
AcDbScale
 70
     0
300
1'-0" = 1'-0"
140
12.0
141
12.0
290
     0
  0
TABLESTYLE
  5
5A
102
{ACAD_REACTORS
330
59
102
}
102
{ACAD_XDICTIONARY
360
3E1
102
}
330
59
100
AcDbTableStyle
  3
Standard
 70
     0
 71
     0
 40
0.06
 41
0.06
280
     0
281
     0
  7
Standard
140
0.18
170
     2
 62
     0
 63
   257
283
     0
 90
        4
 91
        0
  1

274
    -2
284
     1
 64
     0
275
    -2
285
     1
 65
     0
276
    -2
286
     1
 66
     0
277
    -2
287
     1
 67
     0
278
    -2
288
     1
 68
     0
279
    -2
289
     1
 69
     0
  7
Standard
140
0.25
170
     5
 62
     0
 63
   257
283
     0
 90
        4
 91
        0
  1

274
    -2
284
     1
 64
     0
275
    -2
285
     1
 65
     0
276
    -2
286
     1
 66
     0
277
    -2
287
     1
 67
     0
278
    -2
288
     1
 68
     0
279
    -2
289
     1
 69
     0
  7
Standard
140
0.18
170
     5
 62
     0
 63
   257
283
     0
 90
        4
 91
        0
  1

274
    -2
284
     1
 64
     0
275
    -2
285
     1
 65
     0
276
    -2
286
     1
 66
     0
277
    -2
287
     1
 67
     0
278
    -2
288
     1
 68
     0
279
    -2
289
     1
 69
     0
  0
VISUALSTYLE
  5
2F
102
{ACAD_REACTORS
330
2A
102
}
330
2A
100
AcDbVisualStyle
  2
2dWireframe
 70
     4
177
     3
291
     0
 70
    58
 90
        0
176
     1
 90
        2
176
     1
 90
        0
176
     1
 90
        0
176
     1
 40
0.6
176
     1
 40
30.0
176
     1
 62
     7
420
 16777215
176
     1
 90
        1
176
     1
 90
        4
176
     1
 62
     7
176
     1
 62
   257
176
     1
 90
        1
176
     1
 90
        1
176
     1
 40
1.0
176
     1
 90
        0
176
     1
 62
   257
176
     1
 40
1.0
176
     1
 90
        1
176
     1
 90
        6
176
     1
 90
        2
176
     1
 62
     7
176
     1
 90
        5
176
     1
 90
        0
176
     1
 90
        0
176
     1
290
     0
176
     1
 90
        1
176
     1
 40
0.0
176
     1
 90
        0
176
     1
290
     1
176
     1
290
     1
176
     1
290
     0
176
     1
290
     0
176
     1
290
     0
176
     1
290
     0
176
     1
290
     0
176
     1
290
     0
176
     1
290
     0
176
     1
 90
       50
176
     1
 40
0.0
176
     1
 40
1.0
176
     1
 90
        0
176
     1
 62
    18
420
        0
176
     1
 90
       50
176
     1
 90
        3
176
     1
 62
     5
420
      255
176
     1
290
     0
176
     1
 90
       50
176
     1
 90
       50
176
     1
 90
       50
176
     1
290
     0
176
     1
 90
       50
176
     1
 62
   256
176
     0
 40
1.0
176
     0
 90
        2
176
     1
  1
strokes_ogs.tif
176
     1
290
     0
176
     1
 40
1.0
176
     1
 40
1.0
176
     1
  0
VISUALSTYLE
  5
32
102
{ACAD_REACTORS
330
2A
102
}
330
2A
100
AcDbVisualStyle
  2
Basic
 70
     7
177
     3
291
     1
 70
    58
 90
        1
176
     1
 90
        0
176
     1
 90
        1
176
     1
 90
        0
176
     1
 40
0.6
176
     1
 40
30.0
176
     1
 62
     7
420
 16777215
176
     1
 90
        0
176
     1
 90
        4
176
     1
 62
     7
176
     1
 62
   257
176
     1
 90
        1
176
     1
 90
        1
176
     1
 40
1.0
176
     1
 90
        8
176
     1
 62
     7
176
     1
 40
1.0
176
     1
 90
        1
176
     1
 90
        6
176
     1
 90
        2
176
     1
 62
     7
176
     1
 90
        5
176
     1
 90
        0
176
     1
 90
        0
176
     1
290
     0
176
     1
 90
        1
176
     1
 40
0.0
176
     1
 90
        0
176
     1
290
     0
176
     1
290
     1
176
     1
290
     1
176
     1
290
     0
176
     1
290
     0
176
     1
290
     0
176
     1
290
     0
176
     1
290
     0
176
     1
290
     0
176
     1
 90
       50
176
     1
 40
0.0
176
     1
 40
1.0
176
     1
 90
        0
176
     1
 62
    18
420
        0
176
     1
 90
       50
176
     1
 90
        3
176
     1
 62
     5
420
      255
176
     1
290
     0
176
     1
 90
       50
176
     1
 90
       50
176
     1
 90
       50
176
     1
290
     0
176
     1
 90
       50
176
     1
 62
   256
176
     0
 40
1.0
176
     0
 90
        2
176
     1
  1
strokes_ogs.tif
176
     1
290
     0
176
     1
 40
1.0
176
     1
 40
1.0
176
     1
  0
VISUALSTYLE
  5
36
102
{ACAD_REACTORS
330
2A
102
}
330
2A
100
AcDbVisualStyle
  2
Brighten
 70
    12
177
     3
291
     1
 70
    58
 90
        2
176
     1
 90
        2
176
     1
 90
        0
176
     1
 90
        0
176
     1
 40
0.6
176
     1
 40
30.0
176
     1
 62
     7
420
 16777215
176
     1
 90
        1
176
     1
 90
        4
176
     1
 62
     7
176
     1
 62
   257
176
     1
 90
        1
176
     1
 90
        1
176
     1
 40
1.0
176
     1
 90
        8
176
     1
 62
     7
176
     1
 40
1.0
176
     1
 90
        1
176
     1
 90
        6
176
     1
 90
        2
176
     1
 62
     7
176
     1
 90
        5
176
     1
 90
        0
176
     1
 90
        0
176
     1
290
     0
176
     1
 90
        1
176
     1
 40
50.0
176
     1
 90
        0
176
     1
290
     0
176
     1
290
     1
176
     1
290
     1
176
     1
290
     0
176
     1
290
     0
176
     1
290
     0
176
     1
290
     0
176
     1
290
     0
176
     1
290
     0
176
     1
 90
       50
176
     1
 40
0.0
176
     1
 40
1.0
176
     1
 90
        0
176
     1
 62
    18
420
        0
176
     1
 90
       50
176
     1
 90
        3
176
     1
 62
     5
420
      255
176
     1
290
     0
176
     1
 90
       50
176
     1
 90
       50
176
     1
 90
       50
176
     1
290
     0
176
     1
 90
       50
176
     1
 62
   256
176
     0
 40
1.0
176
     0
 90
        2
176
     1
  1
strokes_ogs.tif
176
     1
290
     0
176
     1
 40
1.0
176
     1
 40
1.0
176
     1
  0
VISUALSTYLE
  5
3A
102
{ACAD_REACTORS
330
2A
102
}
330
2A
100
AcDbVisualStyle
  2
ColorChange
 70
    16
177
     3
291
     1
 70
    58
 90
        2
176
     1
 90
        2
176
     1
 90
        3
176
     1
 90
        0
176
     1
 40
0.6
176
     1
 40
30.0
176
     1
 62
     8
420
  8421504
176
     1
 90
        1
176
     1
 90
        4
176
     1
 62
     7
176
     1
 62
   257
176
     1
 90
        1
176
     1
 90
        1
176
     1
 40
1.0
176
     1
 90
        8
176
     1
 62
     8
420
  8421504
176
     1
 40
1.0
176
     1
 90
        1
176
     1
 90
        6
176
     1
 90
        2
176
     1
 62
     7
176
     1
 90
        5
176
     1
 90
        0
176
     1
 90
        0
176
     1
290
     0
176
     1
 90
        1
176
     1
 40
0.0
176
     1
 90
        0
176
     1
290
     0
176
     1
290
     1
176
     1
290
     1
176
     1
290
     0
176
     1
290
     0
176
     1
290
     0
176
     1
290
     0
176
     1
290
     0
176
     1
290
     0
176
     1
 90
       50
176
     1
 40
0.0
176
     1
 40
1.0
176
     1
 90
        0
176
     1
 62
    18
420
        0
176
     1
 90
       50
176
     1
 90
        3
176
     1
 62
     5
420
      255
176
     1
290
     0
176
     1
 90
       50
176
     1
 90
       50
176
     1
 90
       50
176
     1
290
     0
176
     1
 90
       50
176
     1
 62
   256
176
     0
 40
1.0
176
     0
 90
        2
176
     1
  1
strokes_ogs.tif
176
     1
290
     0
176
     1
 40
1.0
176
     1
 40
1.0
176
     1
  0
VISUALSTYLE
  5
34
102
{ACAD_REACTORS
330
2A
102
}
330
2A
100
AcDbVisualStyle
  2
Conceptual
 70
     9
177
     3
291
     0
 70
    58
 90
        3
176
     1
 90
        2
176
     1
 90
        0
176
     1
 90
        0
176
     1
 40
0.6
176
     1
 40
30.0
176
     1
 62
     7
420
 16777215
176
     1
 90
        2
176
     1
 90
        2
176
     1
 62
     7
176
     1
 62
   257
176
     1
 90
        1
176
     1
 90
        1
176
     1
 40
179.0
176
     1
 90
        8
176
     1
 62
     7
176
     1
 40
1.0
176
     1
 90
        1
176
     1
 90
        6
176
     1
 90
        2
176
     1
 62
     7
176
     1
 90
        3
176
     1
 90
        0
176
     1
 90
        0
176
     1
290
     0
176
     1
 90
        1
176
     1
 40
0.0
176
     1
 90
        0
176
     1
290
     0
176
     1
290
     1
176
     1
290
     1
176
     1
290
     0
176
     1
290
     0
176
     1
290
     0
176
     1
290
     0
176
     1
290
     0
176
     1
290
     0
176
     1
 90
       50
176
     1
 40
0.0
176
     1
 40
1.0
176
     1
 90
        0
176
     1
 62
    18
420
        0
176
     1
 90
       50
176
     1
 90
        3
176
     1
 62
     5
420
      255
176
     1
290
     0
176
     1
 90
       50
176
     1
 90
       50
176
     1
 90
       50
176
     1
290
     0
176
     1
 90
       50
176
     1
 62
   256
176
     0
 40
1.0
176
     0
 90
        2
176
     1
  1
strokes_ogs.tif
176
     1
290
     0
176
     1
 40
1.0
176
     1
 40
1.0
176
     1
  0
VISUALSTYLE
  5
35
102
{ACAD_REACTORS
330
2A
102
}
330
2A
100
AcDbVisualStyle
  2
Dim
 70
    11
177
     3
291
     1
 70
    58
 90
        2
176
     1
 90
        2
176
     1
 90
        0
176
     1
 90
        0
176
     1
 40
0.6
176
     1
 40
30.0
176
     1
 62
     7
420
 16777215
176
     1
 90
        1
176
     1
 90
        4
176
     1
 62
     7
176
     1
 62
   257
176
     1
 90
        1
176
     1
 90
        1
176
     1
 40
1.0
176
     1
 90
        8
176
     1
 62
     7
176
     1
 40
1.0
176
     1
 90
        1
176
     1
 90
        6
176
     1
 90
        2
176
     1
 62
     7
176
     1
 90
        5
176
     1
 90
        0
176
     1
 90
        0
176
     1
290
     0
176
     1
 90
        1
176
     1
 40
-50.0
176
     1
 90
        0
176
     1
290
     0
176
     1
290
     1
176
     1
290
     1
176
     1
290
     0
176
     1
290
     0
176
     1
290
     0
176
     1
290
     0
176
     1
290
     0
176
     1
290
     0
176
     1
 90
       50
176
     1
 40
0.0
176
     1
 40
1.0
176
     1
 90
        0
176
     1
 62
    18
420
        0
176
     1
 90
       50
176
     1
 90
        3
176
     1
 62
     5
420
      255
176
     1
290
     0
176
     1
 90
       50
176
     1
 90
       50
176
     1
 90
       50
176
     1
290
     0
176
     1
 90
       50
176
     1
 62
   256
176
     0
 40
1.0
176
     0
 90
        2
176
     1
  1
strokes_ogs.tif
176
     1
290
     0
176
     1
 40
1.0
176
     1
 40
1.0
176
     1
  0
VISUALSTYLE
  5
3D
102
{ACAD_REACTORS
330
2A
102
}
330
2A
100
AcDbVisualStyle
  2
EdgeColorOff
 70
    22
177
     3
291
     1
 70
    58
 90
        2
176
     0
 90
        2
176
     0
 90
        0
176
     0
 90
        0
176
     0
 40
0.6
176
     0
 40
30.0
176
     0
 62
     7
420
 16777215
176
     0
 90
        1
176
     0
 90
        4
176
     0
 62
     7
176
     0
 62
   257
176
     0
 90
        1
176
     0
 90
        1
176
     0
 40
1.0
176
     0
 90
        8
176
     2
 62
     7
176
     0
 40
1.0
176
     0
 90
        1
176
     0
 90
        6
176
     0
 90
        2
176
     0
 62
     7
176
     0
 90
        5
176
     0
 90
        0
176
     0
 90
        0
176
     0
290
     0
176
     0
 90
        1
176
     0
 40
0.0
176
     0
 90
        0
176
     0
290
     0
176
     0
290
     1
176
     0
290
     1
176
     0
290
     0
176
     0
290
     0
176
     0
290
     0
176
     0
290
     0
176
     0
290
     0
176
     0
290
     0
176
     0
 90
       50
176
     0
 40
0.0
176
     0
 40
1.0
176
     0
 90
        0
176
     0
 62
    18
420
        0
176
     0
 90
       50
176
     0
 90
        3
176
     0
 62
     5
420
      255
176
     0
290
     0
176
     0
 90
       50
176
     0
 90
       50
176
     0
 90
       50
176
     0
290
     0
176
     0
 90
       50
176
     0
 62
   256
176
     0
 40
1.0
176
     0
 90
        2
176
     0
  1
strokes_ogs.tif
176
     0
290
     0
176
     0
 40
1.0
176
     0
 40
1.0
176
     0
  0
VISUALSTYLE
  5
39
102
{ACAD_REACTORS
330
2A
102
}
330
2A
100
AcDbVisualStyle
  2
Facepattern
 70
    15
177
     3
291
     1
 70
    58
 90
        2
176
     1
 90
        2
176
     1
 90
        0
176
     1
 90
        0
176
     1
 40
0.6
176
     1
 40
30.0
176
     1
 62
     7
420
 16777215
176
     1
 90
        1
176
     1
 90
        4
176
     1
 62
     7
176
     1
 62
   257
176
     1
 90
        1
176
     1
 90
        1
176
     1
 40
1.0
176
     1
 90
        8
176
     1
 62
     7
176
     1
 40
1.0
176
     1
 90
        1
176
     1
 90
        6
176
     1
 90
        2
176
     1
 62
     7
176
     1
 90
        5
176
     1
 90
        0
176
     1
 90
        0
176
     1
290
     0
176
     1
 90
        1
176
     1
 40
0.0
176
     1
 90
        0
176
     1
290
     0
176
     1
290
     1
176
     1
290
     1
176
     1
290
     0
176
     1
290
     0
176
     1
290
     0
176
     1
290
     0
176
     1
290
     0
176
     1
290
     0
176
     1
 90
       50
176
     1
 40
0.0
176
     1
 40
1.0
176
     1
 90
        0
176
     1
 62
    18
420
        0
176
     1
 90
       50
176
     1
 90
        3
176
     1
 62
     5
420
      255
176
     1
290
     0
176
     1
 90
       50
176
     1
 90
       50
176
     1
 90
       50
176
     1
290
     0
176
     1
 90
       50
176
     1
 62
   256
176
     0
 40
1.0
176
     0
 90
        2
176
     1
  1
strokes_ogs.tif
176
     1
290
     0
176
     1
 40
1.0
176
     1
 40
1.0
176
     1
  0
VISUALSTYLE
  5
2B
102
{ACAD_REACTORS
330
2A
102
}
330
2A
100
AcDbVisualStyle
  2
Flat
 70
     0
177
     3
291
     1
 70
    58
 90
        2
176
     1
 90
        1
176
     1
 90
        1
176
     1
 90
        2
176
     1
 40
0.6
176
     1
 40
30.0
176
     1
 62
     7
420
 16777215
176
     1
 90
        0
176
     1
 90
        0
176
     1
 62
     7
176
     1
 62
   257
176
     1
 90
        1
176
     1
 90
        1
176
     1
 40
1.0
176
     1
 90
        8
176
     1
 62
     7
176
     1
 40
1.0
176
     1
 90
        1
176
     1
 90
        6
176
     1
 90
        2
176
     1
 62
     7
176
     1
 90
        5
176
     1
 90
        0
176
     1
 90
        0
176
     1
290
     0
176
     1
 90
       13
176
     1
 40
0.0
176
     1
 90
        0
176
     1
290
     0
176
     1
290
     1
176
     1
290
     1
176
     1
290
     0
176
     1
290
     0
176
     1
290
     0
176
     1
290
     0
176
     1
290
     0
176
     1
290
     0
176
     1
 90
       50
176
     1
 40
0.0
176
     1
 40
1.0
176
     1
 90
        0
176
     1
 62
    18
420
        0
176
     1
 90
       50
176
     1
 90
        3
176
     1
 62
     5
420
      255
176
     1
290
     0
176
     1
 90
       50
176
     1
 90
       50
176
     1
 90
       50
176
     1
290
     0
176
     1
 90
       50
176
     1
 62
   256
176
     0
 40
1.0
176
     0
 90
        2
176
     1
  1
strokes_ogs.tif
176
     1
290
     0
176
     1
 40
1.0
176
     1
 40
1.0
176
     1
  0
VISUALSTYLE
  5
2C
102
{ACAD_REACTORS
330
2A
102
}
330
2A
100
AcDbVisualStyle
  2
FlatWithEdges
 70
     1
177
     3
291
     1
 70
    58
 90
        2
176
     1
 90
        1
176
     1
 90
        1
176
     1
 90
        2
176
     1
 40
0.6
176
     1
 40
30.0
176
     1
 62
     7
420
 16777215
176
     1
 90
        1
176
     1
 90
        0
176
     1
 62
     7
176
     1
 62
   257
176
     1
 90
        1
176
     1
 90
        1
176
     1
 40
1.0
176
     1
 90
        0
176
     1
 62
   257
176
     1
 40
1.0
176
     1
 90
        1
176
     1
 90
        6
176
     1
 90
        2
176
     1
 62
     7
176
     1
 90
        5
176
     1
 90
        0
176
     1
 90
        0
176
     1
290
     0
176
     1
 90
       13
176
     1
 40
0.0
176
     1
 90
        0
176
     1
290
     0
176
     1
290
     1
176
     1
290
     1
176
     1
290
     0
176
     1
290
     0
176
     1
290
     0
176
     1
290
     0
176
     1
290
     0
176
     1
290
     0
176
     1
 90
       50
176
     1
 40
0.0
176
     1
 40
1.0
176
     1
 90
        0
176
     1
 62
    18
420
        0
176
     1
 90
       50
176
     1
 90
        3
176
     1
 62
     5
420
      255
176
     1
290
     0
176
     1
 90
       50
176
     1
 90
       50
176
     1
 90
       50
176
     1
290
     0
176
     1
 90
       50
176
     1
 62
   256
176
     0
 40
1.0
176
     0
 90
        2
176
     1
  1
strokes_ogs.tif
176
     1
290
     0
176
     1
 40
1.0
176
     1
 40
1.0
176
     1
  0
VISUALSTYLE
  5
2D
102
{ACAD_REACTORS
330
2A
102
}
330
2A
100
AcDbVisualStyle
  2
Gouraud
 70
     2
177
     3
291
     1
 70
    58
 90
        2
176
     1
 90
        2
176
     1
 90
        1
176
     1
 90
        2
176
     1
 40
0.6
176
     1
 40
30.0
176
     1
 62
     7
420
 16777215
176
     1
 90
        0
176
     1
 90
        0
176
     1
 62
     7
176
     1
 62
   257
176
     1
 90
        1
176
     1
 90
        1
176
     1
 40
1.0
176
     1
 90
        0
176
     1
 62
     7
176
     1
 40
1.0
176
     1
 90
        1
176
     1
 90
        6
176
     1
 90
        2
176
     1
 62
     7
176
     1
 90
        5
176
     1
 90
        0
176
     1
 90
        0
176
     1
290
     0
176
     1
 90
       13
176
     1
 40
0.0
176
     1
 90
        0
176
     1
290
     0
176
     1
290
     1
176
     1
290
     1
176
     1
290
     0
176
     1
290
     0
176
     1
290
     0
176
     1
290
     0
176
     1
290
     0
176
     1
290
     0
176
     1
 90
       50
176
     1
 40
0.0
176
     1
 40
1.0
176
     1
 90
        0
176
     1
 62
    18
420
        0
176
     1
 90
       50
176
     1
 90
        3
176
     1
 62
     5
420
      255
176
     1
290
     0
176
     1
 90
       50
176
     1
 90
       50
176
     1
 90
       50
176
     1
290
     0
176
     1
 90
       50
176
     1
 62
   256
176
     0
 40
1.0
176
     0
 90
        2
176
     1
  1
strokes_ogs.tif
176
     1
290
     0
176
     1
 40
1.0
176
     1
 40
1.0
176
     1
  0
VISUALSTYLE
  5
2E
102
{ACAD_REACTORS
330
2A
102
}
330
2A
100
AcDbVisualStyle
  2
GouraudWithEdges
 70
     3
177
     3
291
     1
 70
    58
 90
        2
176
     1
 90
        2
176
     1
 90
        1
176
     1
 90
        2
176
     1
 40
0.6
176
     1
 40
30.0
176
     1
 62
     7
420
 16777215
176
     1
 90
        1
176
     1
 90
        0
176
     1
 62
     7
176
     1
 62
   257
176
     1
 90
        1
176
     1
 90
        1
176
     1
 40
1.0
176
     1
 90
        0
176
     1
 62
   257
176
     1
 40
1.0
176
     1
 90
        1
176
     1
 90
        6
176
     1
 90
        2
176
     1
 62
     7
176
     1
 90
        5
176
     1
 90
        0
176
     1
 90
        0
176
     1
290
     0
176
     1
 90
       13
176
     1
 40
0.0
176
     1
 90
        0
176
     1
290
     0
176
     1
290
     1
176
     1
290
     1
176
     1
290
     0
176
     1
290
     0
176
     1
290
     0
176
     1
290
     0
176
     1
290
     0
176
     1
290
     0
176
     1
 90
       50
176
     1
 40
0.0
176
     1
 40
1.0
176
     1
 90
        0
176
     1
 62
    18
420
        0
176
     1
 90
       50
176
     1
 90
        3
176
     1
 62
     5
420
      255
176
     1
290
     0
176
     1
 90
       50
176
     1
 90
       50
176
     1
 90
       50
176
     1
290
     0
176
     1
 90
       50
176
     1
 62
   256
176
     0
 40
1.0
176
     0
 90
        2
176
     1
  1
strokes_ogs.tif
176
     1
290
     0
176
     1
 40
1.0
176
     1
 40
1.0
176
     1
  0
VISUALSTYLE
  5
31
102
{ACAD_REACTORS
330
2A
102
}
330
2A
100
AcDbVisualStyle
  2
Hidden
 70
     6
177
     3
291
     0
 70
    58
 90
        1
176
     1
 90
        2
176
     1
 90
        2
176
     1
 90
        0
176
     1
 40
0.6
176
     1
 40
30.0
176
     1
 62
     7
420
 16777215
176
     1
 90
        2
176
     1
 90
        2
176
     1
 62
     7
176
     1
 62
   257
176
     1
 90
        2
176
     1
 90
        1
176
     1
 40
40.0
176
     1
 90
        0
176
     1
 62
   257
176
     1
 40
1.0
176
     1
 90
        1
176
     1
 90
        6
176
     1
 90
        2
176
     1
 62
     7
176
     1
 90
        3
176
     1
 90
        0
176
     1
 90
        0
176
     1
290
     0
176
     1
 90
        1
176
     1
 40
0.0
176
     1
 90
        0
176
     1
290
     0
176
     1
290
     1
176
     1
290
     1
176
     1
290
     0
176
     1
290
     0
176
     1
290
     0
176
     1
290
     0
176
     1
290
     0
176
     1
290
     0
176
     1
 90
       50
176
     1
 40
0.0
176
     1
 40
1.0
176
     1
 90
        0
176
     1
 62
    18
420
        0
176
     1
 90
       50
176
     1
 90
        3
176
     1
 62
     5
420
      255
176
     1
290
     0
176
     1
 90
       50
176
     1
 90
       50
176
     1
 90
       50
176
     1
290
     0
176
     1
 90
       50
176
     1
 62
   256
176
     0
 40
1.0
176
     0
 90
        2
176
     1
  1
strokes_ogs.tif
176
     1
290
     0
176
     1
 40
1.0
176
     1
 40
1.0
176
     1
  0
VISUALSTYLE
  5
3B
102
{ACAD_REACTORS
330
2A
102
}
330
2A
100
AcDbVisualStyle
  2
JitterOff
 70
    20
177
     3
291
     1
 70
    58
 90
        2
176
     0
 90
        2
176
     0
 90
        0
176
     0
 90
        0
176
     0
 40
0.6
176
     0
 40
30.0
176
     0
 62
     7
420
 16777215
176
     0
 90
        1
176
     0
 90
        4
176
     0
 62
     7
176
     0
 62
   257
176
     0
 90
        1
176
     0
 90
        1
176
     0
 40
1.0
176
     0
 90
       10
176
     2
 62
     7
176
     0
 40
1.0
176
     0
 90
        1
176
     0
 90
        6
176
     0
 90
        2
176
     0
 62
     7
176
     0
 90
        5
176
     0
 90
        0
176
     0
 90
        0
176
     0
290
     0
176
     0
 90
        1
176
     0
 40
0.0
176
     0
 90
        0
176
     0
290
     0
176
     0
290
     1
176
     0
290
     1
176
     0
290
     0
176
     0
290
     0
176
     0
290
     0
176
     0
290
     0
176
     0
290
     0
176
     0
290
     0
176
     0
 90
       50
176
     0
 40
0.0
176
     0
 40
1.0
176
     0
 90
        0
176
     0
 62
    18
420
        0
176
     0
 90
       50
176
     0
 90
        3
176
     0
 62
     5
420
      255
176
     0
290
     0
176
     0
 90
       50
176
     0
 90
       50
176
     0
 90
       50
176
     0
290
     0
176
     0
 90
       50
176
     0
 62
   256
176
     0
 40
1.0
176
     0
 90
        2
176
     0
  1
strokes_ogs.tif
176
     0
290
     0
176
     0
 40
1.0
176
     0
 40
1.0
176
     0
  0
VISUALSTYLE
  5
38
102
{ACAD_REACTORS
330
2A
102
}
330
2A
100
AcDbVisualStyle
  2
Linepattern
 70
    14
177
     3
291
     1
 70
    58
 90
        2
176
     1
 90
        2
176
     1
 90
        0
176
     1
 90
        0
176
     1
 40
0.6
176
     1
 40
30.0
176
     1
 62
     7
420
 16777215
176
     1
 90
        1
176
     1
 90
        4
176
     1
 62
     7
176
     1
 62
   257
176
     1
 90
        7
176
     1
 90
        7
176
     1
 40
1.0
176
     1
 90
        8
176
     1
 62
     7
176
     1
 40
1.0
176
     1
 90
        1
176
     1
 90
        6
176
     1
 90
        2
176
     1
 62
     7
176
     1
 90
        5
176
     1
 90
        0
176
     1
 90
        0
176
     1
290
     0
176
     1
 90
        1
176
     1
 40
0.0
176
     1
 90
        0
176
     1
290
     0
176
     1
290
     1
176
     1
290
     1
176
     1
290
     0
176
     1
290
     0
176
     1
290
     0
176
     1
290
     0
176
     1
290
     0
176
     1
290
     0
176
     1
 90
       50
176
     1
 40
0.0
176
     1
 40
1.0
176
     1
 90
        0
176
     1
 62
    18
420
        0
176
     1
 90
       50
176
     1
 90
        3
176
     1
 62
     5
420
      255
176
     1
290
     0
176
     1
 90
       50
176
     1
 90
       50
176
     1
 90
       50
176
     1
290
     0
176
     1
 90
       50
176
     1
 62
   256
176
     0
 40
1.0
176
     0
 90
        2
176
     1
  1
strokes_ogs.tif
176
     1
290
     0
176
     1
 40
1.0
176
     1
 40
1.0
176
     1
  0
VISUALSTYLE
  5
3C
102
{ACAD_REACTORS
330
2A
102
}
330
2A
100
AcDbVisualStyle
  2
OverhangOff
 70
    21
177
     3
291
     1
 70
    58
 90
        2
176
     0
 90
        2
176
     0
 90
        0
176
     0
 90
        0
176
     0
 40
0.6
176
     0
 40
30.0
176
     0
 62
     7
420
 16777215
176
     0
 90
        1
176
     0
 90
        4
176
     0
 62
     7
176
     0
 62
   257
176
     0
 90
        1
176
     0
 90
        1
176
     0
 40
1.0
176
     0
 90
        9
176
     2
 62
     7
176
     0
 40
1.0
176
     0
 90
        1
176
     0
 90
        6
176
     0
 90
        2
176
     0
 62
     7
176
     0
 90
        5
176
     0
 90
        0
176
     0
 90
        0
176
     0
290
     0
176
     0
 90
        1
176
     0
 40
0.0
176
     0
 90
        0
176
     0
290
     0
176
     0
290
     1
176
     0
290
     1
176
     0
290
     0
176
     0
290
     0
176
     0
290
     0
176
     0
290
     0
176
     0
290
     0
176
     0
290
     0
176
     0
 90
       50
176
     0
 40
0.0
176
     0
 40
1.0
176
     0
 90
        0
176
     0
 62
    18
420
        0
176
     0
 90
       50
176
     0
 90
        3
176
     0
 62
     5
420
      255
176
     0
290
     0
176
     0
 90
       50
176
     0
 90
       50
176
     0
 90
       50
176
     0
290
     0
176
     0
 90
       50
176
     0
 62
   256
176
     0
 40
1.0
176
     0
 90
        2
176
     0
  1
strokes_ogs.tif
176
     0
290
     0
176
     0
 40
1.0
176
     0
 40
1.0
176
     0
  0
VISUALSTYLE
  5
33
102
{ACAD_REACTORS
330
2A
102
}
330
2A
100
AcDbVisualStyle
  2
Realistic
 70
     8
177
     3
291
     0
 70
    58
 90
        2
176
     1
 90
        3
176
     1
 90
        0
176
     1
 90
        2
176
     1
 40
0.6
176
     1
 40
30.0
176
     1
 62
     7
420
 16777215
176
     1
 90
        0
176
     1
 90
        0
176
     1
 62
     7
176
     1
 62
   257
176
     1
 90
        1
176
     1
 90
        1
176
     1
 40
1.0
176
     1
 90
        8
176
     1
 62
   257
176
     1
 40
1.0
176
     1
 90
        1
176
     1
 90
        6
176
     1
 90
        2
176
     1
 62
     7
176
     1
 90
        3
176
     1
 90
        0
176
     1
 90
        0
176
     1
290
     0
176
     1
 90
       13
176
     1
 40
0.0
176
     1
 90
        0
176
     1
290
     0
176
     1
290
     1
176
     1
290
     1
176
     1
290
     0
176
     1
290
     0
176
     1
290
     0
176
     1
290
     0
176
     1
290
     0
176
     1
290
     0
176
     1
 90
       50
176
     1
 40
0.0
176
     1
 40
1.0
176
     1
 90
        0
176
     1
 62
    18
420
        0
176
     1
 90
       50
176
     1
 90
        3
176
     1
 62
     5
420
      255
176
     1
290
     0
176
     1
 90
       50
176
     1
 90
       50
176
     1
 90
       50
176
     1
290
     0
176
     1
 90
       50
176
     1
 62
   256
176
     0
 40
1.0
176
     0
 90
        2
176
     1
  1
strokes_ogs.tif
176
     1
290
     0
176
     1
 40
1.0
176
     1
 40
1.0
176
     1
  0
VISUALSTYLE
  5
42
102
{ACAD_REACTORS
330
2A
102
}
330
2A
100
AcDbVisualStyle
  2
Shaded
 70
    27
177
     3
291
     0
 70
    58
 90
        2
176
     1
 90
        2
176
     1
 90
        1
176
     1
 90
        2
176
     1
 40
0.6
176
     1
 40
30.0
176
     1
 62
     7
420
 16777215
176
     1
 90
        0
176
     1
 90
        4
176
     1
 62
     7
176
     1
 62
   257
176
     1
 90
        1
176
     1
 90
        1
176
     1
 40
1.0
176
     1
 90
        8
176
     1
 62
   257
176
     1
 40
1.0
176
     1
 90
        1
176
     1
 90
        6
176
     1
 90
        2
176
     1
 62
     8
420
  7895160
176
     1
 90
        3
176
     1
 90
        0
176
     1
 90
        0
176
     1
290
     0
176
     1
 90
        5
176
     1
 40
0.0
176
     1
 90
        0
176
     1
290
     0
176
     1
290
     1
176
     1
290
     1
176
     1
290
     0
176
     1
290
     0
176
     1
290
     0
176
     1
290
     0
176
     1
290
     0
176
     1
290
     0
176
     1
 90
       50
176
     1
 40
0.0
176
     1
 40
1.0
176
     1
 90
        0
176
     1
 62
    18
420
        0
176
     1
 90
       50
176
     1
 90
        3
176
     1
 62
     5
420
      255
176
     1
290
     0
176
     1
 90
       50
176
     1
 90
       50
176
     1
 90
       50
176
     1
290
     0
176
     1
 90
       50
176
     1
 62
   256
176
     0
 40
1.0
176
     0
 90
        2
176
     1
  1
strokes_ogs.tif
176
     1
290
     0
176
     1
 40
1.0
176
     1
 40
1.0
176
     1
  0
VISUALSTYLE
  5
41
102
{ACAD_REACTORS
330
2A
102
}
330
2A
100
AcDbVisualStyle
  2
Shaded with edges
 70
    26
177
     3
291
     0
 70
    58
 90
        2
176
     1
 90
        2
176
     1
 90
        1
176
     1
 90
        2
176
     1
 40
0.6
176
     1
 40
30.0
176
     1
 62
     7
420
 16777215
176
     1
 90
        1
176
     1
 90
       10
176
     1
 62
     7
176
     1
 62
   257
176
     1
 90
        2
176
     1
 90
        1
176
     1
 40
1.0
176
     1
 90
        8
176
     1
 62
   257
176
     1
 40
1.0
176
     1
 90
        1
176
     1
 90
        6
176
     1
 90
        2
176
     1
 62
     7
176
     1
 90
        3
176
     1
 90
        0
176
     1
 90
        0
176
     1
290
     0
176
     1
 90
        5
176
     1
 40
0.0
176
     1
 90
        0
176
     1
290
     0
176
     1
290
     1
176
     1
290
     1
176
     1
290
     0
176
     1
290
     0
176
     1
290
     0
176
     1
290
     0
176
     1
290
     0
176
     1
290
     0
176
     1
 90
       50
176
     1
 40
0.0
176
     1
 40
1.0
176
     1
 90
        0
176
     1
 62
    18
420
        0
176
     1
 90
       50
176
     1
 90
        3
176
     1
 62
     5
420
      255
176
     1
290
     0
176
     1
 90
       50
176
     1
 90
       50
176
     1
 90
       50
176
     1
290
     0
176
     1
 90
       50
176
     1
 62
   256
176
     0
 40
1.0
176
     0
 90
        2
176
     1
  1
strokes_ogs.tif
176
     1
290
     0
176
     1
 40
1.0
176
     1
 40
1.0
176
     1
  0
VISUALSTYLE
  5
3E
102
{ACAD_REACTORS
330
2A
102
}
330
2A
100
AcDbVisualStyle
  2
Shades of Gray
 70
    23
177
     3
291
     0
 70
    58
 90
        2
176
     1
 90
        2
176
     1
 90
        3
176
     1
 90
        0
176
     1
 40
0.6
176
     1
 40
30.0
176
     1
 62
     7
420
 16777215
176
     1
 90
        2
176
     1
 90
        2
176
     1
 62
     7
176
     1
 62
     7
176
     1
 90
        1
176
     1
 90
        1
176
     1
 40
40.0
176
     1
 90
        8
176
     1
 62
     7
176
     1
 40
1.0
176
     1
 90
        1
176
     1
 90
        6
176
     1
 90
        2
176
     1
 62
     7
176
     1
 90
        3
176
     1
 90
        0
176
     1
 90
        0
176
     1
290
     0
176
     1
 90
        1
176
     1
 40
0.0
176
     1
 90
        0
176
     1
290
     0
176
     1
290
     1
176
     1
290
     1
176
     1
290
     0
176
     1
290
     0
176
     1
290
     0
176
     1
290
     0
176
     1
290
     0
176
     1
290
     0
176
     1
 90
       50
176
     1
 40
0.0
176
     1
 40
1.0
176
     1
 90
        0
176
     1
 62
    18
420
        0
176
     1
 90
       50
176
     1
 90
        3
176
     1
 62
     5
420
      255
176
     1
290
     0
176
     1
 90
       50
176
     1
 90
       50
176
     1
 90
       50
176
     1
290
     0
176
     1
 90
       50
176
     1
 62
   256
176
     0
 40
1.0
176
     0
 90
        2
176
     1
  1
strokes_ogs.tif
176
     1
290
     0
176
     1
 40
1.0
176
     1
 40
1.0
176
     1
  0
VISUALSTYLE
  5
3F
102
{ACAD_REACTORS
330
2A
102
}
330
2A
100
AcDbVisualStyle
  2
Sketchy
 70
    24
177
     3
291
     0
 70
    58
 90
        1
176
     1
 90
        2
176
     1
 90
        2
176
     1
 90
        0
176
     1
 40
0.6
176
     1
 40
30.0
176
     1
 62
     7
420
 16777215
176
     1
 90
        2
176
     1
 90
        2
176
     1
 62
     7
176
     1
 62
     7
176
     1
 90
        1
176
     1
 90
        1
176
     1
 40
40.0
176
     1
 90
       11
176
     1
 62
     7
176
     1
 40
1.0
176
     1
 90
        1
176
     1
 90
        6
176
     1
 90
        2
176
     1
 62
     7
176
     1
 90
        6
176
     1
 90
        0
176
     1
 90
        0
176
     1
290
     0
176
     1
 90
        1
176
     1
 40
0.0
176
     1
 90
        0
176
     1
290
     0
176
     1
290
     1
176
     1
290
     1
176
     1
290
     0
176
     1
290
     0
176
     1
290
     0
176
     1
290
     0
176
     1
290
     0
176
     1
290
     0
176
     1
 90
       50
176
     1
 40
0.0
176
     1
 40
1.0
176
     1
 90
        0
176
     1
 62
    18
420
        0
176
     1
 90
       50
176
     1
 90
        3
176
     1
 62
     5
420
      255
176
     1
290
     0
176
     1
 90
       50
176
     1
 90
       50
176
     1
 90
       50
176
     1
290
     0
176
     1
 90
       50
176
     1
 62
   256
176
     0
 40
1.0
176
     0
 90
        2
176
     1
  1
strokes_ogs.tif
176
     1
290
     0
176
     1
 40
1.0
176
     1
 40
1.0
176
     1
  0
VISUALSTYLE
  5
37
102
{ACAD_REACTORS
330
2A
102
}
330
2A
100
AcDbVisualStyle
  2
Thicken
 70
    13
177
     3
291
     1
 70
    58
 90
        2
176
     1
 90
        2
176
     1
 90
        0
176
     1
 90
        0
176
     1
 40
0.6
176
     1
 40
30.0
176
     1
 62
     7
420
 16777215
176
     1
 90
        1
176
     1
 90
        4
176
     1
 62
     7
176
     1
 62
   257
176
     1
 90
        1
176
     1
 90
        1
176
     1
 40
1.0
176
     1
 90
       12
176
     1
 62
     7
176
     1
 40
1.0
176
     1
 90
        1
176
     1
 90
        6
176
     1
 90
        2
176
     1
 62
     7
176
     1
 90
        5
176
     1
 90
        0
176
     1
 90
        0
176
     1
290
     0
176
     1
 90
        1
176
     1
 40
0.0
176
     1
 90
        0
176
     1
290
     0
176
     1
290
     1
176
     1
290
     1
176
     1
290
     0
176
     1
290
     0
176
     1
290
     0
176
     1
290
     0
176
     1
290
     0
176
     1
290
     0
176
     1
 90
       50
176
     1
 40
0.0
176
     1
 40
1.0
176
     1
 90
        0
176
     1
 62
    18
420
        0
176
     1
 90
       50
176
     1
 90
        3
176
     1
 62
     5
420
      255
176
     1
290
     0
176
     1
 90
       50
176
     1
 90
       50
176
     1
 90
       50
176
     1
290
     0
176
     1
 90
       50
176
     1
 62
   256
176
     0
 40
1.0
176
     0
 90
        2
176
     1
  1
strokes_ogs.tif
176
     1
290
     0
176
     1
 40
1.0
176
     1
 40
1.0
176
     1
  0
VISUALSTYLE
  5
30
102
{ACAD_REACTORS
330
2A
102
}
330
2A
100
AcDbVisualStyle
  2
Wireframe
 70
     5
177
     3
291
     0
 70
    58
 90
        0
176
     1
 90
        2
176
     1
 90
        0
176
     1
 90
        0
176
     1
 40
0.6
176
     1
 40
30.0
176
     1
 62
     7
420
 16777215
176
     1
 90
        1
176
     1
 90
        4
176
     1
 62
     7
176
     1
 62
   257
176
     1
 90
        1
176
     1
 90
        1
176
     1
 40
1.0
176
     1
 90
        0
176
     1
 62
   257
176
     1
 40
1.0
176
     1
 90
        1
176
     1
 90
        6
176
     1
 90
        2
176
     1
 62
     7
176
     1
 90
        3
176
     1
 90
        0
176
     1
 90
        0
176
     1
290
     0
176
     1
 90
        1
176
     1
 40
0.0
176
     1
 90
        0
176
     1
290
     0
176
     1
290
     1
176
     1
290
     1
176
     1
290
     0
176
     1
290
     0
176
     1
290
     0
176
     1
290
     0
176
     1
290
     0
176
     1
290
     0
176
     1
 90
       50
176
     1
 40
0.0
176
     1
 40
1.0
176
     1
 90
        0
176
     1
 62
    18
420
        0
176
     1
 90
       50
176
     1
 90
        3
176
     1
 62
     5
420
      255
176
     1
290
     0
176
     1
 90
       50
176
     1
 90
       50
176
     1
 90
       50
176
     1
290
     0
176
     1
 90
       50
176
     1
 62
   256
176
     0
 40
1.0
176
     0
 90
        2
176
     1
  1
strokes_ogs.tif
176
     1
290
     0
176
     1
 40
1.0
176
     1
 40
1.0
176
     1
  0
VISUALSTYLE
  5
40
102
{ACAD_REACTORS
330
2A
102
}
330
2A
100
AcDbVisualStyle
  2
X-Ray
 70
    25
177
     3
291
     0
 70
    58
 90
        2
176
     1
 90
        2
176
     1
 90
        1
176
     1
 90
        1
176
     1
 40
0.5
176
     1
 40
30.0
176
     1
 62
     7
420
 16777215
176
     1
 90
        1
176
     1
 90
        0
176
     1
 62
     7
176
     1
 62
   257
176
     1
 90
        1
176
     1
 90
        1
176
     1
 40
1.0
176
     1
 90
        8
176
     1
 62
     7
176
     1
 40
1.0
176
     1
 90
        1
176
     1
 90
        6
176
     1
 90
        2
176
     1
 62
     7
176
     1
 90
        3
176
     1
 90
        0
176
     1
 90
        0
176
     1
290
     0
176
     1
 90
       13
176
     1
 40
0.0
176
     1
 90
        0
176
     1
290
     0
176
     1
290
     1
176
     1
290
     1
176
     1
290
     0
176
     1
290
     0
176
     1
290
     0
176
     1
290
     0
176
     1
290
     0
176
     1
290
     0
176
     1
 90
       50
176
     1
 40
0.0
176
     1
 40
1.0
176
     1
 90
        0
176
     1
 62
    18
420
        0
176
     1
 90
       50
176
     1
 90
        3
176
     1
 62
     5
420
      255
176
     1
290
     0
176
     1
 90
       50
176
     1
 90
       50
176
     1
 90
       50
176
     1
290
     0
176
     1
 90
       50
176
     1
 62
   256
176
     0
 40
1.0
176
     0
 90
        2
176
     1
  1
strokes_ogs.tif
176
     1
290
     0
176
     1
 40
1.0
176
     1
 40
1.0
176
     1
  0
DICTIONARYVAR
  5
3E0
102
{ACAD_REACTORS
330
3DF
102
}
330
3DF
100
DictionaryVariables
280
     0
  1
1:1
  0
DICTIONARYVAR
  5
3E5
102
{ACAD_REACTORS
330
3DF
102
}
330
3DF
100
DictionaryVariables
280
     0
  1
Standard
  0
DICTIONARYVAR
  5
3E4
102
{ACAD_REACTORS
330
3DF
102
}
330
3DF
100
DictionaryVariables
280
     0
  1
Standard
  0
DICTIONARY
  5
3E1
330
5A
100
AcDbDictionary
280
     1
281
     1
  3
ACAD_ROUNDTRIP_2008_TABLESTYLE_CELLSTYLEMAP
360
3E2
  0
CELLSTYLEMAP
  5
3E2
102
{ACAD_REACTORS
330
3E1
102
}
330
3E1
100
AcDbCellStyleMap
 90
        3
300
CELLSTYLE
  1
TABLEFORMAT_BEGIN
 90
        5
170
     1
 91
        0
 92
    32768
 62
   257
 93
        1
300
CONTENTFORMAT
  1
CONTENTFORMAT_BEGIN
 90
        0
 91
        0
 92
        4
 93
        0
300

 40
0.0
140
1.0
 94
        5
 62
     0
340
11
144
0.25
309
CONTENTFORMAT_END
171
     1
301
MARGIN
  1
CELLMARGIN_BEGIN
 40
0.06
 40
0.06
 40
0.06
 40
0.06
 40
0.06
 40
0.06
309
CELLMARGIN_END
 94
        6
 95
        1
302
GRIDFORMAT
  1
GRIDFORMAT_BEGIN
 90
        0
 91
        1
 62
     0
 92
       -2
340
14
 93
        0
 40
0.045
309
GRIDFORMAT_END
 95
        2
302
GRIDFORMAT
  1
GRIDFORMAT_BEGIN
 90
        0
 91
        1
 62
     0
 92
       -2
340
14
 93
        0
 40
0.045
309
GRIDFORMAT_END
 95
        4
302
GRIDFORMAT
  1
GRIDFORMAT_BEGIN
 90
        0
 91
        1
 62
     0
 92
       -2
340
14
 93
        0
 40
0.045
309
GRIDFORMAT_END
 95
        8
302
GRIDFORMAT
  1
GRIDFORMAT_BEGIN
 90
        0
 91
        1
 62
     0
 92
       -2
340
14
 93
        0
 40
0.045
309
GRIDFORMAT_END
 95
       16
302
GRIDFORMAT
  1
GRIDFORMAT_BEGIN
 90
        0
 91
        1
 62
     0
 92
       -2
340
14
 93
        0
 40
0.045
309
GRIDFORMAT_END
 95
       32
302
GRIDFORMAT
  1
GRIDFORMAT_BEGIN
 90
        0
 91
        1
 62
     0
 92
       -2
340
14
 93
        0
 40
0.045
309
GRIDFORMAT_END
309
TABLEFORMAT_END
  1
CELLSTYLE_BEGIN
 90
        1
 91
        1
300
_TITLE
309
CELLSTYLE_END
300
CELLSTYLE
  1
TABLEFORMAT_BEGIN
 90
        5
170
     1
 91
        0
 92
        0
 62
   257
 93
        1
300
CONTENTFORMAT
  1
CONTENTFORMAT_BEGIN
 90
        0
 91
        0
 92
        4
 93
        0
300

 40
0.0
140
1.0
 94
        5
 62
     0
340
11
144
0.18
309
CONTENTFORMAT_END
171
     1
301
MARGIN
  1
CELLMARGIN_BEGIN
 40
0.06
 40
0.06
 40
0.06
 40
0.06
 40
0.06
 40
0.06
309
CELLMARGIN_END
 94
        6
 95
        1
302
GRIDFORMAT
  1
GRIDFORMAT_BEGIN
 90
        0
 91
        1
 62
     0
 92
       -2
340
14
 93
        0
 40
0.045
309
GRIDFORMAT_END
 95
        2
302
GRIDFORMAT
  1
GRIDFORMAT_BEGIN
 90
        0
 91
        1
 62
     0
 92
       -2
340
14
 93
        0
 40
0.045
309
GRIDFORMAT_END
 95
        4
302
GRIDFORMAT
  1
GRIDFORMAT_BEGIN
 90
        0
 91
        1
 62
     0
 92
       -2
340
14
 93
        0
 40
0.045
309
GRIDFORMAT_END
 95
        8
302
GRIDFORMAT
  1
GRIDFORMAT_BEGIN
 90
        0
 91
        1
 62
     0
 92
       -2
340
14
 93
        0
 40
0.045
309
GRIDFORMAT_END
 95
       16
302
GRIDFORMAT
  1
GRIDFORMAT_BEGIN
 90
        0
 91
        1
 62
     0
 92
       -2
340
14
 93
        0
 40
0.045
309
GRIDFORMAT_END
 95
       32
302
GRIDFORMAT
  1
GRIDFORMAT_BEGIN
 90
        0
 91
        1
 62
     0
 92
       -2
340
14
 93
        0
 40
0.045
309
GRIDFORMAT_END
309
TABLEFORMAT_END
  1
CELLSTYLE_BEGIN
 90
        2
 91
        1
300
_HEADER
309
CELLSTYLE_END
300
CELLSTYLE
  1
TABLEFORMAT_BEGIN
 90
        5
170
     1
 91
        0
 92
        0
 62
   257
 93
        1
300
CONTENTFORMAT
  1
CONTENTFORMAT_BEGIN
 90
        0
 91
        0
 92
        4
 93
        0
300

 40
0.0
140
1.0
 94
        2
 62
     0
340
11
144
0.18
309
CONTENTFORMAT_END
171
     1
301
MARGIN
  1
CELLMARGIN_BEGIN
 40
0.06
 40
0.06
 40
0.06
 40
0.06
 40
0.06
 40
0.06
309
CELLMARGIN_END
 94
        6
 95
        1
302
GRIDFORMAT
  1
GRIDFORMAT_BEGIN
 90
        0
 91
        1
 62
     0
 92
       -2
340
14
 93
        0
 40
0.045
309
GRIDFORMAT_END
 95
        2
302
GRIDFORMAT
  1
GRIDFORMAT_BEGIN
 90
        0
 91
        1
 62
     0
 92
       -2
340
14
 93
        0
 40
0.045
309
GRIDFORMAT_END
 95
        4
302
GRIDFORMAT
  1
GRIDFORMAT_BEGIN
 90
        0
 91
        1
 62
     0
 92
       -2
340
14
 93
        0
 40
0.045
309
GRIDFORMAT_END
 95
        8
302
GRIDFORMAT
  1
GRIDFORMAT_BEGIN
 90
        0
 91
        1
 62
     0
 92
       -2
340
14
 93
        0
 40
0.045
309
GRIDFORMAT_END
 95
       16
302
GRIDFORMAT
  1
GRIDFORMAT_BEGIN
 90
        0
 91
        1
 62
     0
 92
       -2
340
14
 93
        0
 40
0.045
309
GRIDFORMAT_END
 95
       32
302
GRIDFORMAT
  1
GRIDFORMAT_BEGIN
 90
        0
 91
        1
 62
     0
 92
       -2
340
14
 93
        0
 40
0.045
309
GRIDFORMAT_END
309
TABLEFORMAT_END
  1
CELLSTYLE_BEGIN
 90
        3
 91
        2
300
_DATA
309
CELLSTYLE_END
  0
ENDSEC
  0
EOF
