  0
SECTION
  2
HEADER
  9
$ACADVER
  1
AC1021
  9
$ACADMAINTVER
 70
    25
  9
$DWGCODEPAGE
  3
UNDEFINED
  9
$INSBASE
 10
0.0
 20
0.0
 30
0.0
  9
$EXTMIN
 10
1.000000000000000E+20
 20
1.000000000000000E+20
 30
1.000000000000000E+20
  9
$EXTMAX
 10
-1.000000000000000E+20
 20
-1.000000000000000E+20
 30
-1.000000000000000E+20
  9
$LIMMIN
 10
0.0
 20
0.0
  9
$LIMMAX
 10
12.0
 20
9.0
  9
$ORTHOMODE
 70
     0
  9
$REGENMODE
 70
     1
  9
$FILLMODE
 70
     1
  9
$QTEXTMODE
 70
     0
  9
$MIRRTEXT
 70
     1
  9
$LTSCALE
 40
1.0
  9
$ATTMODE
 70
     1
  9
$TEXTSIZE
 40
0.2
  9
$TRACEWID
 40
0.05
  9
$TEXTSTYLE
  7
Standard
  9
$CLAYER
  8
0
  9
$CELTYPE
  6
ByLayer
  9
$CECOLOR
 62
   256
  9
$CELTSCALE
 40
1.0
  9
$DISPSILH
 70
     0
  9
$DIMSCALE
 40
1.0
  9
$DIMASZ
 40
0.18
  9
$DIMEXO
 40
0.0625
  9
$DIMDLI
 40
0.38
  9
$DIMRND
 40
0.0
  9
$DIMDLE
 40
0.0
  9
$DIMEXE
 40
0.18
  9
$DIMTP
 40
0.0
  9
$DIMTM
 40
0.0
  9
$DIMTXT
 40
0.18
  9
$DIMCEN
 40
0.09
  9
$DIMTSZ
 40
0.0
  9
$DIMTOL
 70
     0
  9
$DIMLIM
 70
     0
  9
$DIMTIH
 70
     1
  9
$DIMTOH
 70
     1
  9
$DIMSE1
 70
     0
  9
$DIMSE2
 70
     0
  9
$DIMTAD
 70
     0
  9
$DIMZIN
 70
     0
  9
$DIMBLK
  1

  9
$DIMASO
 70
     1
  9
$DIMSHO
 70
     1
  9
$DIMPOST
  1

  9
$DIMAPOST
  1

  9
$DIMALT
 70
     0
  9
$DIMALTD
 70
     2
  9
$DIMALTF
 40
25.4
  9
$DIMLFAC
 40
1.0
  9
$DIMTOFL
 70
     0
  9
$DIMTVP
 40
0.0
  9
$DIMTIX
 70
     0
  9
$DIMSOXD
 70
     0
  9
$DIMSAH
 70
     0
  9
$DIMBLK1
  1

  9
$DIMBLK2
  1

  9
$DIMSTYLE
  2
Standard
  9
$DIMCLRD
 70
     0
  9
$DIMCLRE
 70
     0
  9
$DIMCLRT
 70
     0
  9
$DIMTFAC
 40
1.0
  9
$DIMGAP
 40
0.09
  9
$DIMJUST
 70
     0
  9
$DIMSD1
 70
     0
  9
$DIMSD2
 70
     0
  9
$DIMTOLJ
 70
     1
  9
$DIMTZIN
 70
     0
  9
$DIMALTZ
 70
     0
  9
$DIMALTTZ
 70
     0
  9
$DIMUPT
 70
     0
  9
$DIMDEC
 70
     4
  9
$DIMTDEC
 70
     4
  9
$DIMALTU
 70
     2
  9
$DIMALTTD
 70
     2
  9
$DIMTXSTY
  7
Standard
  9
$DIMAUNIT
 70
     0
  9
$DIMADEC
 70
     0
  9
$DIMALTRND
 40
0.0
  9
$DIMAZIN
 70
     0
  9
$DIMDSEP
 70
    46
  9
$DIMATFIT
 70
     3
  9
$DIMFRAC
 70
     0
  9
$DIMLDRBLK
  1

  9
$DIMLUNIT
 70
     2
  9
$DIMLWD
 70
    -2
  9
$DIMLWE
 70
    -2
  9
$DIMTMOVE
 70
     0
  9
$DIMFXL
 40
1.0
  9
$DIMFXLON
 70
     0
  9
$DIMJOGANG
 40
0.7853981633974483
  9
$DIMTFILL
 70
     0
  9
$DIMTFILLCLR
 70
     0
  9
$DIMARCSYM
 70
     0
  9
$DIMLTYPE
  6

  9
$DIMLTEX1
  6

  9
$DIMLTEX2
  6

  9
$LUNITS
 70
     2
  9
$LUPREC
 70
     4
  9
$SKETCHINC
 40
0.1
  9
$FILLETRAD
 40
0.5
  9
$AUNITS
 70
     0
  9
$AUPREC
 70
     0
  9
$MENU
  1
.
  9
$ELEVATION
 40
0.0
  9
$PELEVATION
 40
0.0
  9
$THICKNESS
 40
0.0
  9
$LIMCHECK
 70
     0
  9
$CHAMFERA
 40
0.5
  9
$CHAMFERB
 40
0.5
  9
$CHAMFERC
 40
1.0
  9
$CHAMFERD
 40
0.0
  9
$SKPOLY
 70
     0
  9
$TDCREATE
 40
2459380.439618044
  9
$TDUCREATE
 40
2459380.397951389
  9
$TDUPDATE
 40
2459380.439618044
  9
$TDUUPDATE
 40
2459380.397951389
  9
$TDINDWG
 40
0.0000000116
  9
$TDUSRTIMER
 40
0.0000000116
  9
$USRTIMER
 70
     1
  9
$ANGBASE
 50
0.0
  9
$ANGDIR
 70
     0
  9
$PDMODE
 70
     0
  9
$PDSIZE
 40
0.0
  9
$PLINEWID
 40
0.0
  9
$SPLFRAME
 70
     0
  9
$SPLINETYPE
 70
     6
  9
$SPLINESEGS
 70
     8
  9
$HANDSEED
  5
B2
  9
$SURFTAB1
 70
     6
  9
$SURFTAB2
 70
     6
  9
$SURFTYPE
 70
     6
  9
$SURFU
 70
     6
  9
$SURFV
 70
     6
  9
$UCSBASE
  2

  9
$UCSNAME
  2

  9
$UCSORG
 10
0.0
 20
0.0
 30
0.0
  9
$UCSXDIR
 10
1.0
 20
0.0
 30
0.0
  9
$UCSYDIR
 10
0.0
 20
1.0
 30
0.0
  9
$UCSORTHOREF
  2

  9
$UCSORTHOVIEW
 70
     0
  9
$UCSORGTOP
 10
0.0
 20
0.0
 30
0.0
  9
$UCSORGBOTTOM
 10
0.0
 20
0.0
 30
0.0
  9
$UCSORGLEFT
 10
0.0
 20
0.0
 30
0.0
  9
$UCSORGRIGHT
 10
0.0
 20
0.0
 30
0.0
  9
$UCSORGFRONT
 10
0.0
 20
0.0
 30
0.0
  9
$UCSORGBACK
 10
0.0
 20
0.0
 30
0.0
  9
$PUCSBASE
  2

  9
$PUCSNAME
  2

  9
$PUCSORG
 10
0.0
 20
0.0
 30
0.0
  9
$PUCSXDIR
 10
1.0
 20
0.0
 30
0.0
  9
$PUCSYDIR
 10
0.0
 20
1.0
 30
0.0
  9
$PUCSORTHOREF
  2

  9
$PUCSORTHOVIEW
 70
     0
  9
$PUCSORGTOP
 10
0.0
 20
0.0
 30
0.0
  9
$PUCSORGBOTTOM
 10
0.0
 20
0.0
 30
0.0
  9
$PUCSORGLEFT
 10
0.0
 20
0.0
 30
0.0
  9
$PUCSORGRIGHT
 10
0.0
 20
0.0
 30
0.0
  9
$PUCSORGFRONT
 10
0.0
 20
0.0
 30
0.0
  9
$PUCSORGBACK
 10
0.0
 20
0.0
 30
0.0
  9
$USERI1
 70
     0
  9
$USERI2
 70
     0
  9
$USERI3
 70
     0
  9
$USERI4
 70
     0
  9
$USERI5
 70
     0
  9
$USERR1
 40
0.0
  9
$USERR2
 40
0.0
  9
$USERR3
 40
0.0
  9
$USERR4
 40
0.0
  9
$USERR5
 40
0.0
  9
$WORLDVIEW
 70
     1
  9
$SHADEDGE
 70
     3
  9
$SHADEDIF
 70
    70
  9
$TILEMODE
 70
     1
  9
$MAXACTVP
 70
    64
  9
$PINSBASE
 10
0.0
 20
0.0
 30
0.0
  9
$PLIMCHECK
 70
     0
  9
$PEXTMIN
 10
1.000000000000000E+20
 20
1.000000000000000E+20
 30
1.000000000000000E+20
  9
$PEXTMAX
 10
-1.000000000000000E+20
 20
-1.000000000000000E+20
 30
-1.000000000000000E+20
  9
$PLIMMIN
 10
0.0
 20
0.0
  9
$PLIMMAX
 10
12.0
 20
9.0
  9
$UNITMODE
 70
     0
  9
$VISRETAIN
 70
     1
  9
$PLINEGEN
 70
     0
  9
$PSLTSCALE
 70
     1
  9
$TREEDEPTH
 70
  3020
  9
$CMLSTYLE
  2
Standard
  9
$CMLJUST
 70
     0
  9
$CMLSCALE
 40
1.0
  9
$PROXYGRAPHICS
 70
     1
  9
$MEASUREMENT
 70
     0
  9
$CELWEIGHT
370
    -1
  9
$ENDCAPS
280
     0
  9
$JOINSTYLE
280
     0
  9
$LWDISPLAY
290
     1
  9
$INSUNITS
 70
     1
  9
$HYPERLINKBASE
  1

  9
$STYLESHEET
  1

  9
$XEDIT
290
     1
  9
$CEPSNTYPE
380
     0
  9
$PSTYLEMODE
290
     1
  9
$FINGERPRINTGUID
  2
{B3B18721-E744-12FA-7812-54F00A58DC33}
  9
$VERSIONGUID
  2
{FAEB1C32-E019-11D5-929B-00C0DF256EC4}
  9
$EXTNAMES
290
     1
  9
$PSVPSCALE
 40
0.0
  9
$OLESTARTUP
290
     0
  9
$SORTENTS
280
   127
  9
$INDEXCTL
280
     0
  9
$HIDETEXT
280
     1
  9
$XCLIPFRAME
290
     0
  9
$HALOGAP
280
     0
  9
$OBSCOLOR
 70
   257
  9
$OBSLTYPE
280
     0
  9
$INTERSECTIONDISPLAY
280
     0
  9
$INTERSECTIONCOLOR
 70
   257
  9
$DIMASSOC
280
     2
  9
$PROJECTNAME
  1

  9
$CAMERADISPLAY
290
     0
  9
$LENSLENGTH
 40
50.0
  9
$CAMERAHEIGHT
 40
0.0
  9
$STEPSPERSEC
 40
2.0
  9
$STEPSIZE
 40
6.0
  9
$3DDWFPREC
 40
2.0
  9
$PSOLWIDTH
 40
0.25
  9
$PSOLHEIGHT
 40
4.0
  9
$LOFTANG1
 40
1.570796326794897
  9
$LOFTANG2
 40
1.570796326794897
  9
$LOFTMAG1
 40
0.0
  9
$LOFTMAG2
 40
0.0
  9
$LOFTPARAM
 70
     7
  9
$LOFTNORMALS
280
     1
  9
$LATITUDE
 40
37.795
  9
$LONGITUDE
 40
-122.394
  9
$NORTHDIRECTION
 40
0.0
  9
$TIMEZONE
 70
 -8000
  9
$LIGHTGLYPHDISPLAY
280
     1
  9
$TILEMODELIGHTSYNCH
280
     1
  9
$CMATERIAL
347
3C
  9
$SOLIDHIST
280
     1
  9
$SHOWHIST
280
     1
  9
$DWFFRAME
280
     2
  9
$DGNFRAME
280
     2
  9
$REALWORLDSCALE
290
     1
  9
$INTERFERECOLOR
 62
   256
  9
$CSHADOW
280
     0
  9
$SHADOWPLANELOCATION
 40
0.0
  0
ENDSEC
  0
SECTION
  2
CLASSES
  0
CLASS
  1
ACDBDICTIONARYWDFLT
  2
AcDbDictionaryWithDefault
  3
ObjectDBX Classes
 90
        0
 91
        4
280
     0
281
     0
  0
CLASS
  1
VISUALSTYLE
  2
AcDbVisualStyle
  3
ObjectDBX Classes
 90
     4095
 91
        4
280
     0
281
     0
  0
CLASS
  1
MATERIAL
  2
AcDbMaterial
  3
ObjectDBX Classes
 90
     1153
 91
        4
280
     0
281
     0
  0
CLASS
  1
SUN
  2
AcDbSun
  3
SCENEOE
 90
     1024
 91
        4
280
     0
281
     0
  0
ENDSEC
  0
SECTION
  2
TABLES
  0
TABLE
  2
VPORT
  5
8
330
0
100
AcDbSymbolTable
 70
     1
  0
VPORT
  5
29
330
8
100
AcDbSymbolTableRecord
100
AcDbViewportTableRecord
  2
*Active
 70
     0
 10
0.0
 20
0.0
 11
1.0
 21
1.0
 12
0.0
 22
0.0
 13
0.0
 23
0.0
 14
0.5
 24
0.5
 15
0.5
 25
0.5
 16
0.0
 26
0.0
 36
1.0
 17
105.0007777515277
 27
-148.5000416295416
 37
0.0
 40
297.0000832590831
 41
0.7070757462376333
 42
50.0
 43
0.0
 44
0.0
 50
0.0
 51
0.0
 71
     0
 72
   100
 73
     1
 74
     3
 75
     0
 76
     0
 77
     0
 78
     0
281
     0
 65
     1
110
0.0
120
0.0
130
0.0
111
1.0
121
0.0
131
0.0
112
0.0
122
1.0
132
0.0
 79
     0
146
0.0
 60
     3
 61
     5
292
     1
282
     1
141
0.0
142
0.0
 63
   250
361
3F
  0
ENDTAB
  0
TABLE
  2
LTYPE
  5
5
330
0
100
AcDbSymbolTable
 70
    10
  0
LTYPE
  5
14
330
5
100
AcDbSymbolTableRecord
100
AcDbLinetypeTableRecord
  2
ByBlock
 70
     0
  3

 72
    65
 73
     0
 40
0.0
  0
LTYPE
  5
15
330
5
100
AcDbSymbolTableRecord
100
AcDbLinetypeTableRecord
  2
ByLayer
 70
     0
  3

 72
    65
 73
     0
 40
0.0
  0
LTYPE
  5
16
330
5
100
AcDbSymbolTableRecord
100
AcDbLinetypeTableRecord
  2
Continuous
 70
     0
  3
Solid line
 72
    65
 73
     0
 40
0.0
  0
LTYPE
  5
65
330
5
100
AcDbSymbolTableRecord
100
AcDbLinetypeTableRecord
  2
AI-Linetype-1
 70
     0
  3
Adobe Illustrator Linetype No. 1
 72
    65
 73
     4
 40
33.75016590970075
 49
22.50016623040469
 74
     0
 49
-3.749999893098687
 74
     0
 49
3.749999893098687
 74
     0
 49
-3.749999893098687
 74
     0
  0
LTYPE
  5
6A
330
5
100
AcDbSymbolTableRecord
100
AcDbLinetypeTableRecord
  2
AI-Linetype-2
 70
     0
  3
Adobe Illustrator Linetype No. 2
 72
    65
 73
     4
 40
33.75016590970075
 49
22.50016623040469
 74
     0
 49
-3.749999893098687
 74
     0
 49
3.749999893098687
 74
     0
 49
-3.749999893098687
 74
     0
  0
LTYPE
  5
6F
330
5
100
AcDbSymbolTableRecord
100
AcDbLinetypeTableRecord
  2
AI-Linetype-3
 70
     0
  3
Adobe Illustrator Linetype No. 3
 72
    65
 73
     4
 40
33.75016590970075
 49
22.50016623040469
 74
     0
 49
-3.749999893098687
 74
     0
 49
3.749999893098687
 74
     0
 49
-3.749999893098687
 74
     0
  0
LTYPE
  5
74
330
5
100
AcDbSymbolTableRecord
100
AcDbLinetypeTableRecord
  2
AI-Linetype-4
 70
     0
  3
Adobe Illustrator Linetype No. 4
 72
    65
 73
     4
 40
33.75016590970075
 49
22.50016623040469
 74
     0
 49
-3.749999893098687
 74
     0
 49
3.749999893098687
 74
     0
 49
-3.749999893098687
 74
     0
  0
LTYPE
  5
7A
330
5
100
AcDbSymbolTableRecord
100
AcDbLinetypeTableRecord
  2
AI-Linetype-5
 70
     0
  3
Adobe Illustrator Linetype No. 5
 72
    65
 73
     4
 40
33.75016590970075
 49
22.50016623040469
 74
     0
 49
-3.749999893098687
 74
     0
 49
3.749999893098687
 74
     0
 49
-3.749999893098687
 74
     0
  0
LTYPE
  5
7F
330
5
100
AcDbSymbolTableRecord
100
AcDbLinetypeTableRecord
  2
AI-Linetype-6
 70
     0
  3
Adobe Illustrator Linetype No. 6
 72
    65
 73
     4
 40
33.75016590970075
 49
22.50016623040469
 74
     0
 49
-3.749999893098687
 74
     0
 49
3.749999893098687
 74
     0
 49
-3.749999893098687
 74
     0
  0
LTYPE
  5
84
330
5
100
AcDbSymbolTableRecord
100
AcDbLinetypeTableRecord
  2
AI-Linetype-7
 70
     0
  3
Adobe Illustrator Linetype No. 7
 72
    65
 73
     4
 40
33.75016590970075
 49
22.50016623040469
 74
     0
 49
-3.749999893098687
 74
     0
 49
3.749999893098687
 74
     0
 49
-3.749999893098687
 74
     0
  0
LTYPE
  5
89
330
5
100
AcDbSymbolTableRecord
100
AcDbLinetypeTableRecord
  2
AI-Linetype-8
 70
     0
  3
Adobe Illustrator Linetype No. 8
 72
    65
 73
     4
 40
33.75016590970075
 49
22.50016623040469
 74
     0
 49
-3.749999893098687
 74
     0
 49
3.749999893098687
 74
     0
 49
-3.749999893098687
 74
     0
  0
LTYPE
  5
8E
330
5
100
AcDbSymbolTableRecord
100
AcDbLinetypeTableRecord
  2
AI-Linetype-9
 70
     0
  3
Adobe Illustrator Linetype No. 9
 72
    65
 73
     4
 40
33.75016590970075
 49
22.50016623040469
 74
     0
 49
-3.749999893098687
 74
     0
 49
3.749999893098687
 74
     0
 49
-3.749999893098687
 74
     0
  0
ENDTAB
  0
TABLE
  2
LAYER
  5
2
330
0
100
AcDbSymbolTable
 70
     1
  0
LAYER
  5
10
330
2
100
AcDbSymbolTableRecord
100
AcDbLayerTableRecord
  2
0
 70
     0
 62
     7
  6
Continuous
370
    -3
390
F
347
3E
  0
ENDTAB
  0
TABLE
  2
STYLE
  5
3
330
0
100
AcDbSymbolTable
 70
     1
  0
STYLE
  5
11
330
3
100
AcDbSymbolTableRecord
100
AcDbTextStyleTableRecord
  2
Standard
 70
     0
 40
0.0
 41
1.0
 50
0.0
 71
     0
 42
0.2
  3
txt
  4

  0
ENDTAB
  0
TABLE
  2
VIEW
  5
6
330
0
100
AcDbSymbolTable
 70
     0
  0
ENDTAB
  0
TABLE
  2
UCS
  5
7
330
0
100
AcDbSymbolTable
 70
     0
  0
ENDTAB
  0
TABLE
  2
APPID
  5
9
330
0
100
AcDbSymbolTable
 70
     1
  0
APPID
  5
12
330
9
100
AcDbSymbolTableRecord
100
AcDbRegAppTableRecord
  2
ACAD
 70
     0
  0
ENDTAB
  0
TABLE
  2
DIMSTYLE
  5
A
330
0
100
AcDbSymbolTable
 70
     1
100
AcDbDimStyleTable
  0
DIMSTYLE
105
27
330
A
100
AcDbSymbolTableRecord
100
AcDbDimStyleTableRecord
  2
Standard
 70
     0
178
     0
340
11
  0
ENDTAB
  0
TABLE
  2
BLOCK_RECORD
  5
1
330
0
100
AcDbSymbolTable
 70
     1
  0
BLOCK_RECORD
  5
1F
330
1
100
AcDbSymbolTableRecord
100
AcDbBlockTableRecord
  2
*Model_Space
340
22
 70
     0
280
     1
281
     0
  0
BLOCK_RECORD
  5
1B
330
1
100
AcDbSymbolTableRecord
100
AcDbBlockTableRecord
  2
*Paper_Space
340
1E
 70
     0
280
     1
281
     0
  0
BLOCK_RECORD
  5
23
330
1
100
AcDbSymbolTableRecord
100
AcDbBlockTableRecord
  2
*Paper_Space0
340
26
 70
     0
280
     1
281
     0
  0
ENDTAB
  0
ENDSEC
  0
SECTION
  2
BLOCKS
  0
BLOCK
  5
20
330
1F
100
AcDbEntity
  8
0
100
AcDbBlockBegin
  2
*Model_Space
 70
     0
 10
0.0
 20
0.0
 30
0.0
  3
*Model_Space
  1

  0
ENDBLK
  5
21
330
1F
100
AcDbEntity
  8
0
100
AcDbBlockEnd
  0
BLOCK
  5
1C
330
1B
100
AcDbEntity
 67
     1
  8
0
100
AcDbBlockBegin
  2
*Paper_Space
 70
     0
 10
0.0
 20
0.0
 30
0.0
  3
*Paper_Space
  1

  0
ENDBLK
  5
1D
330
1B
100
AcDbEntity
 67
     1
  8
0
100
AcDbBlockEnd
  0
BLOCK
  5
24
330
23
100
AcDbEntity
  8
0
100
AcDbBlockBegin
  2
*Paper_Space0
 70
     0
 10
0.0
 20
0.0
 30
0.0
  3
*Paper_Space0
  1

  0
ENDBLK
  5
25
330
23
100
AcDbEntity
  8
0
100
AcDbBlockEnd
  0
ENDSEC
  0
SECTION
  2
ENTITIES
  0
POLYLINE
  5
40
330
1F
100
AcDbEntity
  8
0
 62
   250
370
    25
100
AcDb2dPolyline
 66
     1
 10
0.0
 20
0.0
 30
0.0
  0
VERTEX
  5
41
330
40
100
AcDbEntity
  8
0
 62
   250
370
    25
100
AcDbVertex
100
AcDb2dVertex
 10
311.233183840304
 20
36.39630902232659
 30
0.0
  0
VERTEX
  5
42
330
40
100
AcDbEntity
  8
0
 62
   250
370
    25
100
AcDbVertex
100
AcDb2dVertex
 10
311.233183840304
 20
-333.1036908852988
 30
0.0
  0
SEQEND
  5
43
330
40
100
AcDbEntity
  8
0
 62
   250
370
    25
  0
SPLINE
  5
44
330
1F
100
AcDbEntity
  8
0
 62
   250
370
    25
100
AcDbSpline
210
0.0
220
0.0
230
1.0
 70
     8
 71
     3
 72
    77
 73
    73
 74
     0
 42
0.0000000001
 43
0.0000000001
 12
1.0
 22
0.0
 32
0.0
 13
1.0
 23
0.0
 33
0.0
 40
0.0
 40
0.0
 40
0.0
 40
0.0
 40
1.0
 40
1.0
 40
1.0
 40
2.0
 40
2.0
 40
2.0
 40
3.0
 40
3.0
 40
3.0
 40
4.0
 40
4.0
 40
4.0
 40
5.0
 40
5.0
 40
5.0
 40
6.0
 40
6.0
 40
6.0
 40
7.0
 40
7.0
 40
7.0
 40
8.0
 40
8.0
 40
8.0
 40
9.0
 40
9.0
 40
9.0
 40
10.0
 40
10.0
 40
10.0
 40
11.0
 40
11.0
 40
11.0
 40
12.0
 40
12.0
 40
12.0
 40
13.0
 40
13.0
 40
13.0
 40
14.0
 40
14.0
 40
14.0
 40
15.0
 40
15.0
 40
15.0
 40
16.0
 40
16.0
 40
16.0
 40
17.0
 40
17.0
 40
17.0
 40
18.0
 40
18.0
 40
18.0
 40
19.0
 40
19.0
 40
19.0
 40
20.0
 40
20.0
 40
20.0
 40
21.0
 40
21.0
 40
21.0
 40
22.0
 40
22.0
 40
22.0
 40
23.0
 40
23.0
 40
23.0
 40
24.0
 40
24.0
 40
24.0
 40
24.0
 10
-169.2716411712723
 20
-148.3518434968562
 30
0.0
 10
-169.2716411712723
 20
-146.9104143960313
 30
0.0
 10
-169.2543196091572
 20
-145.4689852952103
 30
0.0
 10
-169.2197823193228
 20
-144.0279795319425
 30
0.0
 10
-169.2024960353416
 20
-143.3074590112434
 30
0.0
 10
-169.1808705412986
 20
-142.5870443249357
 30
0.0
 10
-169.1549411153238
 20
-141.8668060292777
 30
0.0
 10
-169.1393834597356
 20
-141.4346489406255
 30
0.0
 10
-169.122308844541
 20
-141.002527130107
 30
0.0
 10
-169.1036467134628
 20
-140.5705111539741
 30
0.0
 10
-168.8423416002809
 20
-134.5215113693104
 30
0.0
 10
-168.276057048265
 20
-128.4849647644206
 30
0.0
 10
-167.4075094734656
 20
-122.4924099872482
 30
0.0
 10
-166.1668128992112
 20
-113.9325598784678
 30
0.0
 10
-164.3093487680821
 20
-105.4623867753486
 30
0.0
 10
-161.8539203236724
 20
-97.16913349260085
 30
0.0
 10
-159.3988446605742
 20
-88.8770796662629
 30
0.0
 10
-156.3460163529851
 20
-80.76187510404164
 30
0.0
 10
-152.7271857184179
 20
-72.90758758897384
 30
0.0
 10
-149.1086020307638
 20
-65.05386452397725
 30
0.0
 10
-144.9240512942692
 20
-57.46102322800883
 30
0.0
 10
-140.216713940752
 20
-50.20741642709566
 30
0.0
 10
-135.5092001965883
 20
-42.95349212301706
 30
0.0
 10
-130.278829279138
 20
-36.03880231399276
 30
0.0
 10
-124.5797531188579
 20
-29.53492632515896
 30
0.0
 10
-118.8799008396964
 20
-23.03016838308337
 30
0.0
 10
-112.7112022051698
 20
-16.93633009558227
 30
0.0
 10
-106.1372989628395
 20
-11.31627708976288
 30
0.0
 10
-99.56244321097795
 20
-5.695412686957162
 30
0.0
 10
-92.58227701692708
 20
-0.548474678352404
 30
0.0
 10
-85.26947332966456
 20
4.070984735197912
 30
0.0
 10
-77.41747869466839
 20
9.031054490864877
 30
0.0
 10
-69.18197550217208
 20
13.38303512513429
 30
0.0
 10
-60.66036667069649
 20
17.07535001241895
 30
0.0
 10
-56.39965045028227
 20
18.92145453886399
 30
0.0
 10
-52.0673901810604
 20
20.60267802253762
 30
0.0
 10
-47.67677988387136
 20
22.11431063962224
 30
0.0
 10
-41.82265633969409
 20
24.12978551760376
 30
0.0
 10
-35.86485036975463
 20
25.84377349167355
 30
0.0
 10
-29.83458311961155
 20
27.24664363219264
 30
0.0
 10
-20.78905877094308
 20
29.35098412109565
 30
0.0
 10
-11.58054945900726
 20
30.75523010870566
 30
0.0
 10
-2.318876004292556
 20
31.44181308599437
 30
0.0
 10
-0.4667388708803486
 20
31.57911557019723
 30
0.0
 10
1.387514950363587
 20
31.68770165610984
 30
0.0
 10
3.243003506182714
 20
31.76792412504124
 30
0.0
 10
3.688601573499951
 20
31.78722126246916
 30
0.0
 10
4.134270197072
 20
31.80482504962504
 30
0.0
 10
4.580009376911374
 20
31.8207002083877
 30
0.0
 10
4.999678018253846
 20
31.83562285761977
 30
0.0
 10
5.419417215857225
 20
31.84899326910834
 30
0.0
 10
5.839226969721834
 20
31.86074088658896
 30
0.0
 10
6.381416558557239
 20
31.87591048273806
 30
0.0
 10
6.92371198177791
 20
31.8884342190938
 30
0.0
 10
7.466007405004999
 20
31.90021711470488
 30
0.0
 10
8.824850438566141
 20
31.9297449099975
 30
0.0
 10
10.18376402838178
 20
31.95479238270899
 30
0.0
 10
11.54264234006727
 20
31.98096875559758
 30
0.0
 10
13.01282315372285
 20
32.00929709445155
 30
0.0
 10
14.48300396738485
 20
32.0389660022631
 30
0.0
 10
15.95314950290998
 20
32.06814101625022
 30
0.0
 10
17.42333031656556
 20
32.09731603023733
 30
0.0
 10
18.89351113022146
 20
32.12596187226635
 30
0.0
 10
20.36369194388346
 20
32.15450187990401
 30
0.0
 10
42.82661825108321
 20
32.59057485196436
 30
0.0
 10
65.29000317397984
 20
33.00248230457616
 30
0.0
 10
87.7538114344432
 20
33.38898950317771
 30
0.0
 10
113.318461538217
 20
33.8288372352085
 30
0.0
 10
138.8837113702093
 20
34.23577047141217
 30
0.0
 10
164.4494198178993
 20
34.6100714368295
 30
0.0
 10
190.0151282655887
 20
34.98433712412631
 30
0.0
 10
285.6665934393513
 20
36.08734315473231
 30
0.0
 10
311.233183840304
 20
36.39630902232659
 30
0.0
  0
SPLINE
  5
45
330
1F
100
AcDbEntity
  8
0
 62
   250
370
    25
100
AcDbSpline
210
0.0
220
0.0
230
1.0
 70
     8
 71
     3
 72
     8
 73
     4
 74
     0
 42
0.0000000001
 43
0.0000000001
 12
1.0
 22
0.0
 32
0.0
 13
1.0
 23
0.0
 33
0.0
 40
0.0
 40
0.0
 40
0.0
 40
0.0
 40
1.0
 40
1.0
 40
1.0
 40
1.0
 10
170.4185645154137
 20
-47.64378459638785
 30
0.0
 10
173.9757931138112
 20
-52.19258022906752
 30
0.0
 10
176.2421580289791
 20
-56.08619923603139
 30
0.0
 10
179.0056703877106
 20
-61.20537335657402
 30
0.0
  0
SPLINE
  5
46
330
1F
100
AcDbEntity
  8
0
 62
   250
370
    25
100
AcDbSpline
210
0.0
220
0.0
230
1.0
 70
     8
 71
     3
 72
     8
 73
     4
 74
     0
 42
0.0000000001
 43
0.0000000001
 12
1.0
 22
0.0
 32
0.0
 13
1.0
 23
0.0
 33
0.0
 40
0.0
 40
0.0
 40
0.0
 40
0.0
 40
1.0
 40
1.0
 40
1.0
 40
1.0
 10
179.0056703877106
 20
-61.20537335657402
 30
0.0
 10
179.8327308809565
 20
-62.73863142896518
 30
0.0
 10
180.6108606070876
 20
-64.29362082925202
 30
0.0
 10
181.342246810203
 20
-65.87475132363284
 30
0.0
  0
SPLINE
  5
47
330
1F
100
AcDbEntity
  8
0
 62
   250
370
    25
100
AcDbSpline
210
0.0
220
0.0
230
1.0
 70
     8
 71
     3
 72
     8
 73
     4
 74
     0
 42
0.0000000001
 43
0.0000000001
 12
1.0
 22
0.0
 32
0.0
 13
1.0
 23
0.0
 33
0.0
 40
0.0
 40
0.0
 40
0.0
 40
0.0
 40
1.0
 40
1.0
 40
1.0
 40
1.0
 10
181.342246810203
 20
-65.87475132363284
 30
0.0
 10
182.0103087689321
 20
-67.318720449792
 30
0.0
 10
182.6384711619825
 20
-68.77800028423704
 30
0.0
 10
183.2281098364443
 20
-70.25569530237799
 30
0.0
  0
SPLINE
  5
48
330
1F
100
AcDbEntity
  8
0
 62
   250
370
    25
100
AcDbSpline
210
0.0
220
0.0
230
1.0
 70
     8
 71
     3
 72
    23
 73
    19
 74
     0
 42
0.0000000001
 43
0.0000000001
 12
1.0
 22
0.0
 32
0.0
 13
1.0
 23
0.0
 33
0.0
 40
0.0
 40
0.0
 40
0.0
 40
0.0
 40
1.0
 40
1.0
 40
1.0
 40
2.0
 40
2.0
 40
2.0
 40
3.0
 40
3.0
 40
3.0
 40
4.0
 40
4.0
 40
4.0
 40
5.0
 40
5.0
 40
5.0
 40
6.0
 40
6.0
 40
6.0
 40
6.0
 10
183.2281098364443
 20
-70.25569530237799
 30
0.0
 10
183.7385491077605
 20
-71.53392777527539
 30
0.0
 10
184.2197075307011
 20
-72.82404897787653
 30
0.0
 10
184.6721848334786
 20
-74.12401277865997
 30
0.0
 10
185.1883744400787
 20
-75.60717590690193
 30
0.0
 10
185.6672045063971
 20
-77.10318027434741
 30
0.0
 10
186.1089925356106
 20
-78.61012086199874
 30
0.0
 10
187.0069267931765
 20
-81.67293280317163
 30
0.0
 10
187.7519303546978
 20
-84.7808654722101
 30
0.0
 10
188.3454849016548
 20
-87.91666786370303
 30
0.0
 10
188.7395063420674
 20
-89.99828918393202
 30
0.0
 10
189.0667462812939
 20
-92.09215201516093
 30
0.0
 10
189.3755710363632
 20
-94.18844903733536
 30
0.0
 10
189.7160755526905
 20
-96.49997792871778
 30
0.0
 10
190.0341431779727
 20
-98.81439962674673
 30
0.0
 10
190.321977445348
 20
-101.132737197165
 30
0.0
 10
190.9206825993635
 20
-105.9552575251836
 30
0.0
 10
191.3886117233344
 20
-110.794676077324
 30
0.0
 10
191.754410659287
 20
-115.6402330240292
 30
0.0
  0
SPLINE
  5
49
330
1F
100
AcDbEntity
  8
0
 62
   250
370
    25
100
AcDbSpline
210
0.0
220
0.0
230
1.0
 70
     8
 71
     3
 72
     8
 73
     4
 74
     0
 42
0.0000000001
 43
0.0000000001
 12
1.0
 22
0.0
 32
0.0
 13
1.0
 23
0.0
 33
0.0
 40
0.0
 40
0.0
 40
0.0
 40
0.0
 40
1.0
 40
1.0
 40
1.0
 40
1.0
 10
191.754410659287
 20
-115.6402330240292
 30
0.0
 10
191.8939356657168
 20
-117.5049291248204
 30
0.0
 10
192.017620791524
 20
-119.3705071788545
 30
0.0
 10
192.1255013148262
 20
-121.2373199674229
 30
0.0
  0
SPLINE
  5
4A
330
1F
100
AcDbEntity
  8
0
 62
   250
370
    25
100
AcDbSpline
210
0.0
220
0.0
230
1.0
 70
     8
 71
     3
 72
     8
 73
     4
 74
     0
 42
0.0000000001
 43
0.0000000001
 12
1.0
 22
0.0
 32
0.0
 13
1.0
 23
0.0
 33
0.0
 40
0.0
 40
0.0
 40
0.0
 40
0.0
 40
1.0
 40
1.0
 40
1.0
 40
1.0
 10
192.1255013148262
 20
-121.2373199674229
 30
0.0
 10
192.6483584881033
 20
-130.2728250987552
 30
0.0
 10
192.7995252776284
 20
-139.304943529637
 30
0.0
 10
192.7995605557589
 20
-148.3513143249109
 30
0.0
  0
SPLINE
  5
4B
330
1F
100
AcDbEntity
  8
0
 62
   250
370
    25
100
AcDbSpline
210
0.0
220
0.0
230
1.0
 70
     8
 71
     3
 72
     8
 73
     4
 74
     0
 42
0.0000000001
 43
0.0000000001
 12
1.0
 22
0.0
 32
0.0
 13
1.0
 23
0.0
 33
0.0
 40
0.0
 40
0.0
 40
0.0
 40
0.0
 40
1.0
 40
1.0
 40
1.0
 40
1.0
 10
241.1479210080654
 20
-332.3386493456085
 30
0.0
 10
264.5093813010572
 20
-332.6209096683599
 30
0.0
 10
287.8710885409628
 20
-332.8759352743002
 30
0.0
 10
311.2331485621735
 20
-333.1036908852988
 30
0.0
  0
SPLINE
  5
4C
330
1F
100
AcDbEntity
  8
0
 62
   250
370
    25
100
AcDbSpline
210
0.0
220
0.0
230
1.0
 70
     8
 71
     3
 72
    77
 73
    73
 74
     0
 42
0.0000000001
 43
0.0000000001
 12
1.0
 22
0.0
 32
0.0
 13
1.0
 23
0.0
 33
0.0
 40
0.0
 40
0.0
 40
0.0
 40
0.0
 40
1.0
 40
1.0
 40
1.0
 40
2.0
 40
2.0
 40
2.0
 40
3.0
 40
3.0
 40
3.0
 40
4.0
 40
4.0
 40
4.0
 40
5.0
 40
5.0
 40
5.0
 40
6.0
 40
6.0
 40
6.0
 40
7.0
 40
7.0
 40
7.0
 40
8.0
 40
8.0
 40
8.0
 40
9.0
 40
9.0
 40
9.0
 40
10.0
 40
10.0
 40
10.0
 40
11.0
 40
11.0
 40
11.0
 40
12.0
 40
12.0
 40
12.0
 40
13.0
 40
13.0
 40
13.0
 40
14.0
 40
14.0
 40
14.0
 40
15.0
 40
15.0
 40
15.0
 40
16.0
 40
16.0
 40
16.0
 40
17.0
 40
17.0
 40
17.0
 40
18.0
 40
18.0
 40
18.0
 40
19.0
 40
19.0
 40
19.0
 40
20.0
 40
20.0
 40
20.0
 40
21.0
 40
21.0
 40
21.0
 40
22.0
 40
22.0
 40
22.0
 40
23.0
 40
23.0
 40
23.0
 40
24.0
 40
24.0
 40
24.0
 40
24.0
 10
-169.2716411712723
 20
-148.3518434968562
 30
0.0
 10
-169.2716411712723
 20
-149.7932725976811
 30
0.0
 10
-169.2543196091572
 20
-151.2347016984957
 30
0.0
 10
-169.2197823193228
 20
-152.6757074617634
 30
0.0
 10
-169.2024960353416
 20
-153.3962279824722
 30
0.0
 10
-169.1808705412986
 20
-154.1166426687793
 30
0.0
 10
-169.1549411153238
 20
-154.8369162425652
 30
0.0
 10
-169.1393834597356
 20
-155.2690733312141
 30
0.0
 10
-169.122308844541
 20
-155.7011598636022
 30
0.0
 10
-169.1036467134628
 20
-156.1332111178655
 30
0.0
 10
-168.8423416002809
 20
-162.1822109025331
 30
0.0
 10
-168.276057048265
 20
-168.2187222292921
 30
0.0
 10
-167.4075094734656
 20
-174.2112770064642
 30
0.0
 10
-166.1668128992112
 20
-182.7711623933786
 30
0.0
 10
-164.3093487680821
 20
-191.2413002183638
 30
0.0
 10
-161.8539203236724
 20
-199.534588779242
 30
0.0
 10
-159.3988446605742
 20
-207.8266073274463
 30
0.0
 10
-156.3460163529851
 20
-215.9418118896733
 30
0.0
 10
-152.7271857184179
 20
-223.79613468287
 30
0.0
 10
-149.1086020307638
 20
-231.6498224697358
 30
0.0
 10
-144.9240512942692
 20
-239.2426637657004
 30
0.0
 10
-140.216713940752
 20
-246.4963058447478
 30
0.0
 10
-135.5092001965883
 20
-253.7501948706957
 30
0.0
 10
-130.278829279138
 20
-260.6648846797193
 30
0.0
 10
-124.5797531188579
 20
-267.1687606685534
 30
0.0
 10
-118.8799008396964
 20
-273.6735186106258
 30
0.0
 10
-112.7112022051698
 20
-279.7673921762606
 30
0.0
 10
-106.1372989628395
 20
-285.38744518208
 30
0.0
 10
-99.56244321097795
 20
-291.0082743067584
 30
0.0
 10
-92.58227701692708
 20
-296.15521231536
 30
0.0
 10
-85.26947332966456
 20
-300.774670912209
 30
0.0
 10
-77.41747869466839
 20
-305.7347760713059
 30
0.0
 10
-69.18197550217208
 20
-310.0867568155215
 30
0.0
 10
-60.66036667069649
 20
-313.7790365179447
 30
0.0
 10
-56.39965045028227
 20
-315.6251763691589
 30
0.0
 10
-52.0673901810604
 20
-317.3063556817968
 30
0.0
 10
-47.67677988387136
 20
-318.8179882988814
 30
0.0
 10
-41.82265633969409
 20
-320.8334631768661
 30
0.0
 10
-35.86485036975463
 20
-322.5474864290696
 30
0.0
 10
-29.83458311961155
 20
-323.9503565695823
 30
0.0
 10
-20.78905877094308
 20
-326.0546617803612
 30
0.0
 10
-11.58054945900726
 20
-327.4589077679712
 30
0.0
 10
-2.318876004292556
 20
-328.1454907452567
 30
0.0
 10
-0.4667388708803486
 20
-328.282793229457
 30
0.0
 10
1.387514950363587
 20
-328.3914145935065
 30
0.0
 10
3.243003506182714
 20
-328.4716370624373
 30
0.0
 10
3.688601573499951
 20
-328.490898921735
 30
0.0
 10
4.134270197072
 20
-328.5085379870217
 30
0.0
 10
4.580009376911374
 20
-328.5243778676501
 30
0.0
 10
4.999678018253846
 20
-328.5393005168854
 30
0.0
 10
5.419417215857225
 20
-328.5526709283774
 30
0.0
 10
5.839226969721834
 20
-328.5644185458584
 30
0.0
 10
6.381416558557239
 20
-328.5795881420075
 30
0.0
 10
6.92371198177791
 20
-328.5921118783533
 30
0.0
 10
7.466007405004999
 20
-328.6038947739705
 30
0.0
 10
8.824850438566141
 20
-328.6334225692598
 30
0.0
 10
10.18376402838178
 20
-328.658470041972
 30
0.0
 10
11.54264234006727
 20
-328.6846464148599
 30
0.0
 10
13.01282315372285
 20
-328.7129747537177
 30
0.0
 10
14.48300396738485
 20
-328.7426789396594
 30
0.0
 10
15.95314950290998
 20
-328.7718186755126
 30
0.0
 10
17.42333031656556
 20
-328.8009936895032
 30
0.0
 10
18.89351113022146
 20
-328.8296395315287
 30
0.0
 10
20.36369194388346
 20
-328.8581795391635
 30
0.0
 10
42.82661825108321
 20
-329.2942525112235
 30
0.0
 10
65.29000317397984
 20
-329.7061599638417
 30
0.0
 10
87.7538114344432
 20
-330.0926671624375
 30
0.0
 10
113.318461538217
 20
-330.5325148944709
 30
0.0
 10
138.8837113702093
 20
-330.9394481306778
 30
0.0
 10
164.4494198178993
 20
-331.3137490960954
 30
0.0
 10
190.0151282655887
 20
-331.688050061513
 30
0.0
 10
215.5813306071121
 20
-332.0296834780174
 30
0.0
 10
241.1479210080654
 20
-332.3386493456085
 30
0.0
  0
SPLINE
  5
4D
330
1F
100
AcDbEntity
  8
0
 62
   250
370
    25
100
AcDbSpline
210
0.0
220
0.0
230
1.0
 70
     8
 71
     3
 72
     8
 73
     4
 74
     0
 42
0.0000000001
 43
0.0000000001
 12
1.0
 22
0.0
 32
0.0
 13
1.0
 23
0.0
 33
0.0
 40
0.0
 40
0.0
 40
0.0
 40
0.0
 40
1.0
 40
1.0
 40
1.0
 40
1.0
 10
168.705875763447
 20
-252.7081505738571
 30
0.0
 10
172.5832245388836
 20
-248.3549352050353
 30
0.0
 10
176.2421580289791
 20
-240.6174877576772
 30
0.0
 10
179.0056703877106
 20
-235.498313637139
 30
0.0
  0
SPLINE
  5
4E
330
1F
100
AcDbEntity
  8
0
 62
   250
370
    25
100
AcDbSpline
210
0.0
220
0.0
230
1.0
 70
     8
 71
     3
 72
     8
 73
     4
 74
     0
 42
0.0000000001
 43
0.0000000001
 12
1.0
 22
0.0
 32
0.0
 13
1.0
 23
0.0
 33
0.0
 40
0.0
 40
0.0
 40
0.0
 40
0.0
 40
1.0
 40
1.0
 40
1.0
 40
1.0
 10
179.0056703877106
 20
-235.498313637139
 30
0.0
 10
179.8327308809565
 20
-233.965055564744
 30
0.0
 10
180.6108606070876
 20
-232.4100661644604
 30
0.0
 10
181.342246810203
 20
-230.8289356700796
 30
0.0
  0
SPLINE
  5
4F
330
1F
100
AcDbEntity
  8
0
 62
   250
370
    25
100
AcDbSpline
210
0.0
220
0.0
230
1.0
 70
     8
 71
     3
 72
     8
 73
     4
 74
     0
 42
0.0000000001
 43
0.0000000001
 12
1.0
 22
0.0
 32
0.0
 13
1.0
 23
0.0
 33
0.0
 40
0.0
 40
0.0
 40
0.0
 40
0.0
 40
1.0
 40
1.0
 40
1.0
 40
1.0
 10
181.342246810203
 20
-230.8289356700796
 30
0.0
 10
182.0103087689321
 20
-229.3849665439236
 30
0.0
 10
182.6384711619825
 20
-227.9257219876065
 30
0.0
 10
183.2281098364443
 20
-226.4479916913376
 30
0.0
  0
SPLINE
  5
50
330
1F
100
AcDbEntity
  8
0
 62
   250
370
    25
100
AcDbSpline
210
0.0
220
0.0
230
1.0
 70
     8
 71
     3
 72
    23
 73
    19
 74
     0
 42
0.0000000001
 43
0.0000000001
 12
1.0
 22
0.0
 32
0.0
 13
1.0
 23
0.0
 33
0.0
 40
0.0
 40
0.0
 40
0.0
 40
0.0
 40
1.0
 40
1.0
 40
1.0
 40
2.0
 40
2.0
 40
2.0
 40
3.0
 40
3.0
 40
3.0
 40
4.0
 40
4.0
 40
4.0
 40
5.0
 40
5.0
 40
5.0
 40
6.0
 40
6.0
 40
6.0
 40
6.0
 10
183.2281098364443
 20
-226.4479916913376
 30
0.0
 10
183.7385491077605
 20
-225.1697592184409
 30
0.0
 10
184.2197075307011
 20
-223.8796732939663
 30
0.0
 10
184.6721848334786
 20
-222.5796742150556
 30
0.0
 10
185.1883744400787
 20
-221.0965463649441
 30
0.0
 10
185.6672045063971
 20
-219.600506719365
 30
0.0
 10
186.1089925356106
 20
-218.0936014098441
 30
0.0
 10
187.0069267931765
 20
-215.0307894686709
 30
0.0
 10
187.7519303546978
 20
-211.9228567996302
 30
0.0
 10
188.3454849016548
 20
-208.7870191300094
 30
0.0
 10
188.7395063420674
 20
-206.7054330879076
 30
0.0
 10
189.0667462812939
 20
-204.6115349785515
 30
0.0
 10
189.3755710363632
 20
-202.5152379563771
 30
0.0
 10
189.7160755526905
 20
-200.2037443431219
 30
0.0
 10
190.0341431779727
 20
-197.8892873669657
 30
0.0
 10
190.321977445348
 20
-195.5709497965474
 30
0.0
 10
190.9206825993635
 20
-190.7484294685288
 30
0.0
 10
191.3886117233344
 20
-185.9090109163884
 30
0.0
 10
191.754410659287
 20
-181.0634539696833
 30
0.0
  0
SPLINE
  5
51
330
1F
100
AcDbEntity
  8
0
 62
   250
370
    25
100
AcDbSpline
210
0.0
220
0.0
230
1.0
 70
     8
 71
     3
 72
     8
 73
     4
 74
     0
 42
0.0000000001
 43
0.0000000001
 12
1.0
 22
0.0
 32
0.0
 13
1.0
 23
0.0
 33
0.0
 40
0.0
 40
0.0
 40
0.0
 40
0.0
 40
1.0
 40
1.0
 40
1.0
 40
1.0
 10
191.754410659287
 20
-181.0634539696833
 30
0.0
 10
191.8939356657168
 20
-179.1987578688958
 30
0.0
 10
192.017620791524
 20
-177.3331798148644
 30
0.0
 10
192.1255013148262
 20
-175.4663670262895
 30
0.0
  0
SPLINE
  5
52
330
1F
100
AcDbEntity
  8
0
 62
   250
370
    25
100
AcDbSpline
210
0.0
220
0.0
230
1.0
 70
     8
 71
     3
 72
     8
 73
     4
 74
     0
 42
0.0000000001
 43
0.0000000001
 12
1.0
 22
0.0
 32
0.0
 13
1.0
 23
0.0
 33
0.0
 40
0.0
 40
0.0
 40
0.0
 40
0.0
 40
1.0
 40
1.0
 40
1.0
 40
1.0
 10
192.1255013148262
 20
-175.4663670262895
 30
0.0
 10
192.6483584881033
 20
-166.430720782438
 30
0.0
 10
192.7995252776284
 20
-157.3983906827799
 30
0.0
 10
192.7995605557589
 20
-148.3518434968562
 30
0.0
  0
SPLINE
  5
53
330
1F
100
AcDbEntity
  8
0
 62
   250
370
    25
100
AcDbSpline
210
0.0
220
0.0
230
1.0
 70
     8
 71
     3
 72
     8
 73
     4
 74
     0
 42
0.0000000001
 43
0.0000000001
 12
1.0
 22
0.0
 32
0.0
 13
1.0
 23
0.0
 33
0.0
 40
0.0
 40
0.0
 40
0.0
 40
0.0
 40
1.0
 40
1.0
 40
1.0
 40
1.0
 10
85.73092814904004
 20
-277.6819960961513
 30
0.0
 10
90.73075648316984
 20
-277.7791520653128
 30
0.0
 10
95.72264723790997
 20
-278.0234178352543
 30
0.0
 10
100.7310834358965
 20
-277.8235319524536
 30
0.0
  0
SPLINE
  5
54
330
1F
100
AcDbEntity
  8
0
 62
   250
370
    25
100
AcDbSpline
210
0.0
220
0.0
230
1.0
 70
     8
 71
     3
 72
    59
 73
    55
 74
     0
 42
0.0000000001
 43
0.0000000001
 12
1.0
 22
0.0
 32
0.0
 13
1.0
 23
0.0
 33
0.0
 40
0.0
 40
0.0
 40
0.0
 40
0.0
 40
1.0
 40
1.0
 40
1.0
 40
2.0
 40
2.0
 40
2.0
 40
3.0
 40
3.0
 40
3.0
 40
4.0
 40
4.0
 40
4.0
 40
5.0
 40
5.0
 40
5.0
 40
6.0
 40
6.0
 40
6.0
 40
7.0
 40
7.0
 40
7.0
 40
8.0
 40
8.0
 40
8.0
 40
9.0
 40
9.0
 40
9.0
 40
10.0
 40
10.0
 40
10.0
 40
11.0
 40
11.0
 40
11.0
 40
12.0
 40
12.0
 40
12.0
 40
13.0
 40
13.0
 40
13.0
 40
14.0
 40
14.0
 40
14.0
 40
15.0
 40
15.0
 40
15.0
 40
16.0
 40
16.0
 40
16.0
 40
17.0
 40
17.0
 40
17.0
 40
18.0
 40
18.0
 40
18.0
 40
18.0
 10
170.6577468846768
 20
-250.0917186481127
 30
0.0
 10
168.5591936188414
 20
-251.7064086383856
 30
0.0
 10
163.5323295354269
 20
-255.2280662794863
 30
0.0
 10
162.4010657222185
 20
-256.1172515382075
 30
0.0
 10
161.1776201538209
 20
-257.0789333534374
 30
0.0
 10
159.9080307906201
 20
-257.981630135833
 30
0.0
 10
158.6031632968472
 20
-258.8296105390849
 30
0.0
 10
157.1958128337502
 20
-259.744160773057
 30
0.0
 10
155.7473986266534
 20
-260.5950692610731
 30
0.0
 10
154.2724905434997
 20
-261.3962003080986
 30
0.0
 10
152.6037996890906
 20
-262.3026012941098
 30
0.0
 10
150.9011007168014
 20
-263.1453252560473
 30
0.0
 10
149.1822443607084
 20
-263.9527358101544
 30
0.0
 10
147.8707445783878
 20
-264.5687977888567
 30
0.0
 10
146.5497902570657
 20
-265.1642926179453
 30
0.0
 10
145.2245672819548
 20
-265.7503329082892
 30
0.0
 10
144.3067008806042
 20
-266.1562077903184
 30
0.0
 10
143.3867883476833
 20
-266.5575670717555
 30
0.0
 10
142.4658880271071
 20
-266.9565627184978
 30
0.0
 10
141.4407055525492
 20
-267.4007496493639
 30
0.0
 10
140.4142883434169
 20
-267.8420084954723
 30
0.0
 10
139.3871655716731
 20
-268.281820938268
 30
0.0
 10
136.7100140765925
 20
-269.4281837623982
 30
0.0
 10
134.0278883651006
 20
-270.5646687102222
 30
0.0
 10
131.3031466718709
 20
-271.5929203561601
 30
0.0
 10
130.560365632574
 20
-271.8732403746413
 30
0.0
 10
129.8144095615285
 20
-272.1454817014283
 30
0.0
 10
129.0651020680829
 20
-272.4078804300342
 30
0.0
 10
127.7663729690289
 20
-272.862686077934
 30
0.0
 10
126.4575190464994
 20
-273.2878580969038
 30
0.0
 10
125.1408686571081
 20
-273.6873829155984
 30
0.0
 10
122.9528837206056
 20
-274.3513173162808
 30
0.0
 10
120.7433085681908
 20
-274.9444485106823
 30
0.0
 10
118.5154240660094
 20
-275.4587683633687
 30
0.0
 10
112.4990211211787
 20
-276.8477388853495
 30
0.0
 10
106.3491962865137
 20
-277.6619933966197
 30
0.0
 10
100.1778870703213
 20
-277.8704871430656
 30
0.0
 10
98.6487565004725
 20
-277.9221696030531
 30
0.0
 10
97.11832063979368
 20
-277.9366336362261
 30
0.0
 10
95.58859034171945
 20
-277.9122211704795
 30
0.0
 10
95.22138028054552
 20
-277.9063650009525
 30
0.0
 10
94.85420549750202
 20
-277.8982863092588
 30
0.0
 10
94.48703071445887
 20
-277.8900665050434
 30
0.0
 10
93.39083336304587
 20
-277.8655129267819
 30
0.0
 10
92.29467128976367
 20
-277.8399010046301
 30
0.0
 10
91.19850921648145
 20
-277.8154179826302
 30
0.0
 10
90.21615439244407
 20
-277.7935102640938
 30
0.0
 10
89.23379956840026
 20
-277.7724844987963
 30
0.0
 10
88.25144474436223
 20
-277.7520231835745
 30
0.0
 10
86.00055890104021
 20
-277.7051032710994
 30
0.0
 10
83.74963777958806
 20
-277.6610408871211
 30
0.0
 10
81.49864610187467
 20
-277.6185307408539
 30
0.0
 10
75.10892997928768
 20
-277.4977737029353
 30
0.0
 10
68.71896690978078
 20
-277.3891523416387
 30
0.0
 10
62.32903911841074
 20
-277.2805309803293
 30
0.0
  0
SPLINE
  5
55
330
1F
100
AcDbEntity
  8
0
 62
   250
370
    25
100
AcDbSpline
210
0.0
220
0.0
230
1.0
 70
     8
 71
     3
 72
    47
 73
    43
 74
     0
 42
0.0000000001
 43
0.0000000001
 12
1.0
 22
0.0
 32
0.0
 13
1.0
 23
0.0
 33
0.0
 40
0.0
 40
0.0
 40
0.0
 40
0.0
 40
1.0
 40
1.0
 40
1.0
 40
2.0
 40
2.0
 40
2.0
 40
3.0
 40
3.0
 40
3.0
 40
4.0
 40
4.0
 40
4.0
 40
5.0
 40
5.0
 40
5.0
 40
6.0
 40
6.0
 40
6.0
 40
7.0
 40
7.0
 40
7.0
 40
8.0
 40
8.0
 40
8.0
 40
9.0
 40
9.0
 40
9.0
 40
10.0
 40
10.0
 40
10.0
 40
11.0
 40
11.0
 40
11.0
 40
12.0
 40
12.0
 40
12.0
 40
13.0
 40
13.0
 40
13.0
 40
14.0
 40
14.0
 40
14.0
 40
14.0
 10
-113.9187726148141
 20
-148.3518434968562
 30
0.0
 10
-113.9177495490223
 20
-153.3655712877693
 30
0.0
 10
-113.6204960207875
 20
-158.379157966167
 30
0.0
 10
-113.0286701022263
 20
-163.3578192961764
 30
0.0
 10
-112.4370205743241
 20
-168.3348225540884
 30
0.0
 10
-111.551010324891
 20
-173.2769004636133
 30
0.0
 10
-110.3769894174233
 20
-178.1495157357909
 30
0.0
 10
-108.0342040439508
 20
-187.873191342889
 30
0.0
 10
-104.5446324798211
 20
-197.3202158570121
 30
0.0
 10
-100.0071240469011
 20
-206.2335528252332
 30
0.0
 10
-95.4517296017807
 20
-215.1820268106331
 30
0.0
 10
-89.8401079271947
 20
-223.5926151527141
 30
0.0
 10
-83.33041088251322
 20
-231.2380208619173
 30
0.0
 10
-76.74303139429946
 20
-238.9746558144871
 30
0.0
 10
-69.23605687634534
 20
-245.9277635067325
 30
0.0
 10
-61.01956859622658
 20
-251.9060659195156
 30
0.0
 10
-53.54593191166565
 20
-257.3438721073776
 30
0.0
 10
-45.48526713430898
 20
-261.9751496943714
 30
0.0
 10
-37.02154971511077
 20
-265.6884550688205
 30
0.0
 10
-28.68522162542609
 20
-269.3459151639688
 30
0.0
 10
-19.95790601455489
 20
-272.1127788752123
 30
0.0
 10
-11.03571401038172
 20
-273.9203949621682
 30
0.0
 10
-4.709921860393835
 20
-275.201978857383
 30
0.0
 10
1.713837658203449
 20
-276.0013459979334
 30
0.0
 10
8.160986577370622
 20
-276.304102906895
 30
0.0
 10
8.954427012172642
 20
-276.3413918899775
 30
0.0
 10
9.748255506410299
 20
-276.3711313532995
 30
0.0
 10
10.54226039130087
 20
-276.3937446344264
 30
0.0
 10
11.20732370893503
 20
-276.412724268198
 30
0.0
 10
11.87252813909101
 20
-276.4266944075561
 30
0.0
 10
12.53776784737744
 20
-276.4386889716423
 30
0.0
 10
13.35491518593049
 20
-276.4534352298588
 30
0.0
 10
14.1720978026079
 20
-276.4651828470388
 30
0.0
 10
14.98928041929173
 20
-276.477636026815
 30
0.0
 10
15.82367876368874
 20
-276.4903361535064
 30
0.0
 10
16.65807710809249
 20
-276.5037418427818
 30
0.0
 10
17.49247545249623
 20
-276.5173592008476
 30
0.0
 10
19.50209416080572
 20
-276.5501325833238
 30
0.0
 10
21.51167759097801
 20
-276.5840348659527
 30
0.0
 10
23.52129629928749
 20
-276.6181135392275
 30
0.0
 10
36.45722233170379
 20
-276.8373318370921
 30
0.0
 10
49.39307780785822
 20
-277.0620888013231
 30
0.0
 10
62.32903911841074
 20
-277.2805309803293
 30
0.0
  0
SPLINE
  5
56
330
1F
100
AcDbEntity
  8
0
 62
   250
370
    25
100
AcDbSpline
210
0.0
220
0.0
230
1.0
 70
     8
 71
     3
 72
     8
 73
     4
 74
     0
 42
0.0000000001
 43
0.0000000001
 12
1.0
 22
0.0
 32
0.0
 13
1.0
 23
0.0
 33
0.0
 40
0.0
 40
0.0
 40
0.0
 40
0.0
 40
1.0
 40
1.0
 40
1.0
 40
1.0
 10
62.32903911841074
 20
-277.2805309803293
 30
0.0
 10
70.12991574219886
 20
-277.400864680694
 30
0.0
 10
77.93051014094911
 20
-277.5346746265893
 30
0.0
 10
85.73092814904004
 20
-277.6819960961513
 30
0.0
  0
SPLINE
  5
57
330
1F
100
AcDbEntity
  8
0
 62
   250
370
    25
100
AcDbSpline
210
0.0
220
0.0
230
1.0
 70
     8
 71
     3
 72
    26
 73
    22
 74
     0
 42
0.0000000001
 43
0.0000000001
 12
1.0
 22
0.0
 32
0.0
 13
1.0
 23
0.0
 33
0.0
 40
0.0
 40
0.0
 40
0.0
 40
0.0
 40
1.0
 40
1.0
 40
1.0
 40
2.0
 40
2.0
 40
2.0
 40
3.0
 40
3.0
 40
3.0
 40
4.0
 40
4.0
 40
4.0
 40
5.0
 40
5.0
 40
5.0
 40
6.0
 40
6.0
 40
6.0
 40
7.0
 40
7.0
 40
7.0
 40
7.0
 10
169.6474841264327
 20
-251.581113368623
 30
0.0
 10
179.8882952179117
 20
-240.3452464212326
 30
0.0
 10
181.342246810203
 20
-237.2785876325997
 30
0.0
 10
186.3537808856991
 20
-228.8012677011671
 30
0.0
 10
189.7502104099233
 20
-223.0559970380014
 30
0.0
 10
191.5102859956948
 20
-216.4705604974023
 30
0.0
 10
193.1327977771838
 20
-209.9970237000963
 30
0.0
 10
193.4156578281472
 20
-208.8685468877103
 30
0.0
 10
193.6787268478617
 20
-207.7351311371788
 30
0.0
 10
193.934458016413
 20
-206.6000925926676
 30
0.0
 10
194.2015840211394
 20
-205.4143240976801
 30
0.0
 10
194.4607018902277
 20
-204.2268269743351
 30
0.0
 10
194.7115999548888
 20
-203.037565944502
 30
0.0
 10
195.2847637423652
 20
-200.3209382899333
 30
0.0
 10
195.8151704355895
 20
-197.5953147122959
 30
0.0
 10
196.3020086375524
 20
-194.8618946679956
 30
0.0
 10
197.2284123464986
 20
-189.6603813927664
 30
0.0
 10
197.9968758648507
 20
-184.4306808919141
 30
0.0
 10
198.6074344707449
 20
-179.1827063198877
 30
0.0
 10
199.7976833182711
 20
-168.9519075985515
 30
0.0
 10
200.3877806084295
 20
-158.6516109617315
 30
0.0
 10
200.3852053049006
 20
-148.3518434968562
 30
0.0
  0
SPLINE
  5
58
330
1F
100
AcDbEntity
  8
0
 62
   250
370
    25
100
AcDbSpline
210
0.0
220
0.0
230
1.0
 70
     8
 71
     3
 72
    68
 73
    64
 74
     0
 42
0.0000000001
 43
0.0000000001
 12
1.0
 22
0.0
 32
0.0
 13
1.0
 23
0.0
 33
0.0
 40
0.0
 40
0.0
 40
0.0
 40
0.0
 40
1.0
 40
1.0
 40
1.0
 40
2.0
 40
2.0
 40
2.0
 40
3.0
 40
3.0
 40
3.0
 40
4.0
 40
4.0
 40
4.0
 40
5.0
 40
5.0
 40
5.0
 40
6.0
 40
6.0
 40
6.0
 40
7.0
 40
7.0
 40
7.0
 40
8.0
 40
8.0
 40
8.0
 40
9.0
 40
9.0
 40
9.0
 40
10.0
 40
10.0
 40
10.0
 40
11.0
 40
11.0
 40
11.0
 40
12.0
 40
12.0
 40
12.0
 40
13.0
 40
13.0
 40
13.0
 40
14.0
 40
14.0
 40
14.0
 40
15.0
 40
15.0
 40
15.0
 40
16.0
 40
16.0
 40
16.0
 40
17.0
 40
17.0
 40
17.0
 40
18.0
 40
18.0
 40
18.0
 40
19.0
 40
19.0
 40
19.0
 40
20.0
 40
20.0
 40
20.0
 40
21.0
 40
21.0
 40
21.0
 40
21.0
 10
-123.2512139994642
 20
-148.3518434968562
 30
0.0
 10
-123.2513903901171
 20
-153.9712967744759
 30
0.0
 10
-122.8981857467844
 20
-159.5904678270512
 30
0.0
 10
-122.1955864982173
 20
-165.1657176081765
 30
0.0
 10
-121.4845557764393
 20
-170.8075372200092
 30
0.0
 10
-120.4157342543532
 20
-176.4043419383722
 30
0.0
 10
-118.996177558072
 20
-181.9106582540889
 30
0.0
 10
-116.1449284885997
 20
-192.970316632383
 30
0.0
 10
-111.8787088798151
 20
-203.6648110903087
 30
0.0
 10
-106.333903984544
 20
-213.6497212477379
 30
0.0
 10
-100.8784585940191
 20
-223.4736220212841
 30
0.0
 10
-94.1852799922044
 20
-232.6106576098528
 30
0.0
 10
-86.46455528108677
 20
-240.7752515536341
 30
0.0
 10
-78.50178731607829
 20
-249.1958236064186
 30
0.0
 10
-69.44599703140504
 20
-256.5820408968179
 30
0.0
 10
-59.59577852428092
 20
-262.6890732048206
 30
0.0
 10
-55.7079168659322
 20
-265.0994866937202
 30
0.0
 10
-51.69633480365864
 20
-267.3106140280177
 30
0.0
 10
-47.58329283783988
 20
-269.312753722062
 30
0.0
 10
-43.46520609934856
 20
-271.317362885192
 30
0.0
 10
-39.24548306667261
 20
-273.1125257923711
 30
0.0
 10
-34.94486728057862
 20
-274.6870592764962
 30
0.0
 10
-25.92177982294912
 20
-277.990644452771
 30
0.0
 10
-16.54273602780572
 20
-280.3232696657157
 30
0.0
 10
-7.023249994838142
 20
-281.6325116146077
 30
0.0
 10
-2.152504340493937
 20
-282.3024080192034
 30
0.0
 10
2.755001125912254
 20
-282.7043670288466
 30
0.0
 10
7.669809165351606
 20
-282.8357427837861
 30
0.0
 10
8.340552262008103
 20
-282.8536640736742
 30
0.0
 10
9.011436471186416
 20
-282.8665405910108
 30
0.0
 10
9.682285402234275
 20
-282.879417108348
 30
0.0
 10
15.36178220005205
 20
-282.9884618071978
 30
0.0
 10
21.04110260721692
 20
-283.097118446632
 30
0.0
 10
26.72045829251257
 20
-283.2042228483607
 30
0.0
 10
35.94745334486721
 20
-283.3782498620956
 30
0.0
 10
45.17458950975072
 20
-283.5482904471835
 30
0.0
 10
54.40172567462782
 20
-283.7138859879261
 30
0.0
 10
67.38608858033095
 20
-283.9468980345023
 30
0.0
 10
80.37048676415908
 20
-284.1711963830361
 30
0.0
 10
93.3554141199514
 20
-284.4007158947732
 30
0.0
 10
94.57293296241227
 20
-284.4222355538733
 30
0.0
 10
95.79045180488019
 20
-284.4437904911161
 30
0.0
 10
97.0079706473481
 20
-284.4426968691022
 30
0.0
 10
104.7100685055244
 20
-284.4357117994231
 30
0.0
 10
112.4123074762226
 20
-283.5215496248802
 30
0.0
 10
119.9059821389526
 20
-281.7382401692777
 30
0.0
 10
123.628001305455
 20
-280.8524768891284
 30
0.0
 10
127.2985849575798
 20
-279.7522931367516
 30
0.0
 10
130.8940261915714
 20
-278.4448856506086
 30
0.0
 10
134.4871037908167
 20
-277.1383248395721
 30
0.0
 10
138.0051800844565
 20
-275.6247872416715
 30
0.0
 10
141.4320976886863
 20
-273.9287911570366
 30
0.0
 10
145.0626053844736
 20
-272.1320407340224
 30
0.0
 10
148.5908065015889
 20
-270.1304654900409
 30
0.0
 10
151.9934527519791
 20
-267.9327791231557
 30
0.0
 10
153.4752753487307
 20
-266.9756834647854
 30
0.0
 10
154.9332499292082
 20
-265.9814046577309
 30
0.0
 10
156.3632489521343
 20
-264.9484610205344
 30
0.0
 10
157.9935219223468
 20
-263.7708770516261
 30
0.0
 10
159.6949830278261
 20
-262.6633311395627
 30
0.0
 10
161.1391317133564
 20
-261.2639073217782
 30
0.0
 10
163.9292309261337
 20
-258.5602166759064
 30
0.0
 10
166.6251043819661
 20
-255.4227489595532
 30
0.0
 10
169.0653693864284
 20
-252.2910260638205
 30
0.0
  0
SPLINE
  5
59
330
1F
100
AcDbEntity
  8
0
 62
   250
370
    25
100
AcDbSpline
210
0.0
220
0.0
230
1.0
 70
     8
 71
     3
 72
     8
 73
     4
 74
     0
 42
0.0000000001
 43
0.0000000001
 12
1.0
 22
0.0
 32
0.0
 13
1.0
 23
0.0
 33
0.0
 40
0.0
 40
0.0
 40
0.0
 40
0.0
 40
1.0
 40
1.0
 40
1.0
 40
1.0
 10
-106.0461049952991
 20
-82.54811264441092
 30
0.0
 10
-107.0275778660732
 20
-84.45874087005346
 30
0.0
 10
-107.965129464281
 20
-86.3889484576712
 30
0.0
 10
-108.8601356370132
 20
-88.34159293576612
 30
0.0
  0
SPLINE
  5
5A
330
1F
100
AcDbEntity
  8
0
 62
   250
370
    25
100
AcDbSpline
210
0.0
220
0.0
230
1.0
 70
     8
 71
     3
 72
    59
 73
    55
 74
     0
 42
0.0000000001
 43
0.0000000001
 12
1.0
 22
0.0
 32
0.0
 13
1.0
 23
0.0
 33
0.0
 40
0.0
 40
0.0
 40
0.0
 40
0.0
 40
1.0
 40
1.0
 40
1.0
 40
2.0
 40
2.0
 40
2.0
 40
3.0
 40
3.0
 40
3.0
 40
4.0
 40
4.0
 40
4.0
 40
5.0
 40
5.0
 40
5.0
 40
6.0
 40
6.0
 40
6.0
 40
7.0
 40
7.0
 40
7.0
 40
8.0
 40
8.0
 40
8.0
 40
9.0
 40
9.0
 40
9.0
 40
10.0
 40
10.0
 40
10.0
 40
11.0
 40
11.0
 40
11.0
 40
12.0
 40
12.0
 40
12.0
 40
13.0
 40
13.0
 40
13.0
 40
14.0
 40
14.0
 40
14.0
 40
15.0
 40
15.0
 40
15.0
 40
16.0
 40
16.0
 40
16.0
 40
17.0
 40
17.0
 40
17.0
 40
18.0
 40
18.0
 40
18.0
 40
18.0
 10
166.651299932427
 20
-43.7342786829955
 30
0.0
 10
165.6015991571163
 20
-42.75030108980318
 30
0.0
 10
164.509776293896
 20
-41.81066810562762
 30
0.0
 10
163.3785124806876
 20
-40.92144756877215
 30
0.0
 10
162.1550669122899
 20
-39.95976575354544
 30
0.0
 10
159.9080307906201
 20
-38.72205685787939
 30
0.0
 10
158.6031632968472
 20
-37.87411173275761
 30
0.0
 10
157.1958128337502
 20
-36.95952622065538
 30
0.0
 10
155.7473986266534
 20
-36.10861773264252
 30
0.0
 10
154.2724905434997
 20
-35.30748668560737
 30
0.0
 10
152.6037996890906
 20
-34.40108569959943
 30
0.0
 10
150.9011007168014
 20
-33.55836173767157
 30
0.0
 10
149.1822443607084
 20
-32.75095118355871
 30
0.0
 10
147.8707445783878
 20
-32.13488920485567
 30
0.0
 10
146.5497902570657
 20
-31.53939437576388
 30
0.0
 10
145.2245672819548
 20
-30.9533540854271
 30
0.0
 10
144.3067008806042
 20
-30.54747920339396
 30
0.0
 10
143.3867883476833
 20
-30.1461199219633
 30
0.0
 10
142.4658880271071
 20
-29.74715955334833
 30
0.0
 10
141.4407055525492
 20
-29.30297262247577
 30
0.0
 10
140.4142883434169
 20
-28.86167849824012
 30
0.0
 10
139.3871655716731
 20
-28.42186605545081
 30
0.0
 10
136.7100140765925
 20
-27.27550323131798
 30
0.0
 10
134.0278883651006
 20
-26.13901828349664
 30
0.0
 10
131.3031466718709
 20
-25.1107666375491
 30
0.0
 10
130.560365632574
 20
-24.83048189719898
 30
0.0
 10
129.8144095615285
 20
-24.55820529228414
 30
0.0
 10
129.0651020680829
 20
-24.29580656368145
 30
0.0
 10
127.7663729690289
 20
-23.84100091577519
 30
0.0
 10
126.4575190464994
 20
-23.4158288968047
 30
0.0
 10
125.1408686571081
 20
-23.01630407811722
 30
0.0
 10
122.9528837206056
 20
-22.3523696774348
 30
0.0
 10
120.7433085681908
 20
-21.7592384830308
 30
0.0
 10
118.5154240660094
 20
-21.2449186303437
 30
0.0
 10
112.4990211211787
 20
-19.85598338649335
 30
0.0
 10
106.3491962865137
 20
-19.04169359709277
 30
0.0
 10
100.1778870703213
 20
-18.83319985064681
 30
0.0
 10
98.6487565004725
 20
-18.78155266878971
 30
0.0
 10
97.11832063979368
 20
-18.76705335748693
 30
0.0
 10
95.58859034171945
 20
-18.79146582322909
 30
0.0
 10
95.22138028054552
 20
-18.79732199275674
 30
0.0
 10
94.85420549750202
 20
-18.8054006844568
 30
0.0
 10
94.48703071445887
 20
-18.81362048867225
 30
0.0
 10
93.39083336304587
 20
-18.83817406693365
 30
0.0
 10
92.29467128976367
 20
-18.86378598908557
 30
0.0
 10
91.19850921648145
 20
-18.88826901108607
 30
0.0
 10
90.21615439244407
 20
-18.91021200775228
 30
0.0
 10
89.23379956840026
 20
-18.93120249491612
 30
0.0
 10
88.25144474436223
 20
-18.9516990882626
 30
0.0
 10
86.00055890104021
 20
-18.99858372261301
 30
0.0
 10
83.74963777958806
 20
-19.04264610659128
 30
0.0
 10
81.49864610187467
 20
-19.08519153099212
 30
0.0
 10
75.10892997928768
 20
-19.20594856890754
 30
0.0
 10
68.71896690978078
 20
-19.31453465207689
 30
0.0
 10
62.32903911841074
 20
-19.42319129151421
 30
0.0
  0
SPLINE
  5
5B
330
1F
100
AcDbEntity
  8
0
 62
   250
370
    25
100
AcDbSpline
210
0.0
220
0.0
230
1.0
 70
     8
 71
     3
 72
    32
 73
    28
 74
     0
 42
0.0000000001
 43
0.0000000001
 12
1.0
 22
0.0
 32
0.0
 13
1.0
 23
0.0
 33
0.0
 40
0.0
 40
0.0
 40
0.0
 40
0.0
 40
1.0
 40
1.0
 40
1.0
 40
2.0
 40
2.0
 40
2.0
 40
3.0
 40
3.0
 40
3.0
 40
4.0
 40
4.0
 40
4.0
 40
5.0
 40
5.0
 40
5.0
 40
6.0
 40
6.0
 40
6.0
 40
7.0
 40
7.0
 40
7.0
 40
8.0
 40
8.0
 40
8.0
 40
9.0
 40
9.0
 40
9.0
 40
9.0
 10
120.7312434475351
 20
-21.81360208087445
 30
0.0
 10
122.9045526817162
 20
-22.37067902673934
 30
0.0
 10
125.0615986977015
 20
-22.9943963595821
 30
0.0
 10
127.1935266847209
 20
-23.69396167124718
 30
0.0
 10
129.2950802013116
 20
-24.38357855033986
 30
0.0
 10
131.3722212515403
 20
-25.14692672047702
 30
0.0
 10
133.4271018013769
 20
-25.96534405105408
 30
0.0
 10
135.0296814390881
 20
-26.60363125145412
 30
0.0
 10
136.6187495527912
 20
-27.27539739692277
 30
0.0
 10
138.2062301506149
 20
-27.9504796865912
 30
0.0
 10
140.6332244217751
 20
-28.98257664867416
 30
0.0
 10
143.0565850454845
 20
-30.02236424302667
 30
0.0
 10
145.4672808203192
 20
-31.09238519451917
 30
0.0
 10
147.9832818149273
 20
-32.20911438971625
 30
0.0
 10
150.485453782346
 20
-33.35875807990878
 30
0.0
 10
152.9283937685279
 20
-34.6267951733283
 30
0.0
 10
154.557820063607
 20
-35.47262361066937
 30
0.0
 10
156.1609288732763
 20
-36.37112229563658
 30
0.0
 10
157.718281947591
 20
-37.34342282789763
 30
0.0
 10
159.1722348211819
 20
-38.25119966096504
 30
0.0
 10
161.5638054438234
 20
-39.55830063772343
 30
0.0
 10
162.9231776493362
 20
-40.60221577324921
 30
0.0
 10
164.1855349957644
 20
-41.57165877700766
 30
0.0
 10
165.4006902034797
 20
-42.60301489836777
 30
0.0
 10
166.5635984998163
 20
-43.68982823958417
 30
0.0
 10
167.8177360418167
 20
-44.86190882026413
 30
0.0
 10
169.2756941972526
 20
-46.36311793254174
 30
0.0
 10
170.4185645154137
 20
-47.64378459638785
 30
0.0
  0
SPLINE
  5
5C
330
1F
100
AcDbEntity
  8
0
 62
   250
370
    25
100
AcDbSpline
210
0.0
220
0.0
230
1.0
 70
     8
 71
     3
 72
     8
 73
     4
 74
     0
 42
0.0000000001
 43
0.0000000001
 12
1.0
 22
0.0
 32
0.0
 13
1.0
 23
0.0
 33
0.0
 40
0.0
 40
0.0
 40
0.0
 40
0.0
 40
1.0
 40
1.0
 40
1.0
 40
1.0
 10
100.7310834358965
 20
-18.88015504125877
 30
0.0
 10
107.5373284462082
 20
-19.1576175312374
 30
0.0
 10
114.1319752293186
 20
-20.12483801282666
 30
0.0
 10
120.7312434475351
 20
-21.81360208087445
 30
0.0
  0
SPLINE
  5
5D
330
1F
100
AcDbEntity
  8
0
 62
   250
370
    25
100
AcDbSpline
210
0.0
220
0.0
230
1.0
 70
     8
 71
     3
 72
    47
 73
    43
 74
     0
 42
0.0000000001
 43
0.0000000001
 12
1.0
 22
0.0
 32
0.0
 13
1.0
 23
0.0
 33
0.0
 40
0.0
 40
0.0
 40
0.0
 40
0.0
 40
1.0
 40
1.0
 40
1.0
 40
2.0
 40
2.0
 40
2.0
 40
3.0
 40
3.0
 40
3.0
 40
4.0
 40
4.0
 40
4.0
 40
5.0
 40
5.0
 40
5.0
 40
6.0
 40
6.0
 40
6.0
 40
7.0
 40
7.0
 40
7.0
 40
8.0
 40
8.0
 40
8.0
 40
9.0
 40
9.0
 40
9.0
 40
10.0
 40
10.0
 40
10.0
 40
11.0
 40
11.0
 40
11.0
 40
12.0
 40
12.0
 40
12.0
 40
13.0
 40
13.0
 40
13.0
 40
14.0
 40
14.0
 40
14.0
 40
14.0
 10
-113.9187726148141
 20
-148.3518434968562
 30
0.0
 10
-113.9177495490223
 20
-143.3381509840704
 30
0.0
 10
-113.6204960207875
 20
-138.3245290275422
 30
0.0
 10
-113.0286701022263
 20
-133.3459029756671
 30
0.0
 10
-112.4370205743241
 20
-128.368864439624
 30
0.0
 10
-111.551010324891
 20
-123.4268218082302
 30
0.0
 10
-110.3769894174233
 20
-118.5542065360591
 30
0.0
 10
-108.0342040439508
 20
-108.8305309289443
 30
0.0
 10
-104.5446324798211
 20
-99.3835064148346
 30
0.0
 10
-100.0071240469011
 20
-90.47016944660643
 30
0.0
 10
-95.4517296017807
 20
-81.52169546120976
 30
0.0
 10
-89.8401079271947
 20
-73.11110711912877
 30
0.0
 10
-83.33041088251322
 20
-65.46570140992557
 30
0.0
 10
-76.74303139429946
 20
-57.72903117923178
 30
0.0
 10
-69.23605687634534
 20
-50.77592348698056
 30
0.0
 10
-61.01956859622658
 20
-44.79762107419999
 30
0.0
 10
-53.54593191166565
 20
-39.35981488633513
 30
0.0
 10
-45.48526713430898
 20
-34.72853729934103
 30
0.0
 10
-37.02158499323801
 20
-31.0152319248951
 30
0.0
 10
-28.68525690355654
 20
-27.35780710787475
 30
0.0
 10
-19.95790601455489
 20
-24.5909081185033
 30
0.0
 10
-11.03571401038172
 20
-22.78332730967397
 30
0.0
 10
-4.709921860393835
 20
-21.50170813632614
 30
0.0
 10
1.713837658203449
 20
-20.70234099577903
 30
0.0
 10
8.160986577370622
 20
-20.39958408681744
 30
0.0
 10
8.954427012172642
 20
-20.36233038186855
 30
0.0
 10
9.748220228279845
 20
-20.33259091854399
 30
0.0
 10
10.54222511317041
 20
-20.30994235928603
 30
0.0
 10
11.20732370893503
 20
-20.29099800364488
 30
0.0
 10
11.87252813909101
 20
-20.27702786428993
 30
0.0
 10
12.53776784737744
 20
-20.26499802206695
 30
0.0
 10
13.35491518593049
 20
-20.25028704199043
 30
0.0
 10
14.1720978026079
 20
-20.238504146671
 30
0.0
 10
14.98928041929173
 20
-20.22605096689413
 30
0.0
 10
15.82367876368874
 20
-20.213350840206
 30
0.0
 10
16.65807710809249
 20
-20.19994515092419
 30
0.0
 10
17.49247545249623
 20
-20.18636307099589
 30
0.0
 10
19.50209416080572
 20
-20.15358968851839
 30
0.0
 10
21.51167759097801
 20
-20.11965212776287
 30
0.0
 10
23.52129629928749
 20
-20.08560873261534
 30
0.0
 10
36.45722233170379
 20
-19.86635515662028
 30
0.0
 10
49.39307780785822
 20
-19.64159819239249
 30
0.0
 10
62.32903911841074
 20
-19.42319129151421
 30
0.0
  0
SPLINE
  5
5E
330
1F
100
AcDbEntity
  8
0
 62
   250
370
    25
100
AcDbSpline
210
0.0
220
0.0
230
1.0
 70
     8
 71
     3
 72
    26
 73
    22
 74
     0
 42
0.0000000001
 43
0.0000000001
 12
1.0
 22
0.0
 32
0.0
 13
1.0
 23
0.0
 33
0.0
 40
0.0
 40
0.0
 40
0.0
 40
0.0
 40
1.0
 40
1.0
 40
1.0
 40
2.0
 40
2.0
 40
2.0
 40
3.0
 40
3.0
 40
3.0
 40
4.0
 40
4.0
 40
4.0
 40
5.0
 40
5.0
 40
5.0
 40
6.0
 40
6.0
 40
6.0
 40
7.0
 40
7.0
 40
7.0
 40
7.0
 10
169.9506944019568
 20
-47.13993054377057
 30
0.0
 10
176.4765312165252
 20
-51.82700930135518
 30
0.0
 10
183.5272331056099
 20
-62.0024474186904
 30
0.0
 10
186.3537874836762
 20
-67.90246766169867
 30
0.0
 10
189.2373865988938
 20
-73.92148103613624
 30
0.0
 10
191.5102859956948
 20
-80.2331264963069
 30
0.0
 10
193.1327977771838
 20
-86.70666329361671
 30
0.0
 10
193.4156578281472
 20
-87.83517538412936
 30
0.0
 10
193.6787268478617
 20
-88.96855585653749
 30
0.0
 10
193.934458016413
 20
-90.10359440103845
 30
0.0
 10
194.2015840211394
 20
-91.28936289603551
 30
0.0
 10
194.4607018902277
 20
-92.47689529751099
 30
0.0
 10
194.7115999548888
 20
-93.6661563273402
 30
0.0
 10
195.2847637423652
 20
-96.38274870377973
 30
0.0
 10
195.8151704355895
 20
-99.10837228141716
 30
0.0
 10
196.3020086375524
 20
-101.8417923257168
 30
0.0
 10
197.2284123464986
 20
-107.0433056009492
 30
0.0
 10
197.9968758648507
 20
-112.273006101799
 30
0.0
 10
198.6074344707449
 20
-117.5210159519558
 30
0.0
 10
199.7976833182711
 20
-127.7517793951648
 30
0.0
 10
200.3877806084295
 20
-138.0520407538536
 30
0.0
 10
200.3852053049006
 20
-148.3518082187258
 30
0.0
  0
SPLINE
  5
5F
330
1F
100
AcDbEntity
  8
0
 62
   250
370
    25
100
AcDbSpline
210
0.0
220
0.0
230
1.0
 70
     8
 71
     3
 72
    68
 73
    64
 74
     0
 42
0.0000000001
 43
0.0000000001
 12
1.0
 22
0.0
 32
0.0
 13
1.0
 23
0.0
 33
0.0
 40
0.0
 40
0.0
 40
0.0
 40
0.0
 40
1.0
 40
1.0
 40
1.0
 40
2.0
 40
2.0
 40
2.0
 40
3.0
 40
3.0
 40
3.0
 40
4.0
 40
4.0
 40
4.0
 40
5.0
 40
5.0
 40
5.0
 40
6.0
 40
6.0
 40
6.0
 40
7.0
 40
7.0
 40
7.0
 40
8.0
 40
8.0
 40
8.0
 40
9.0
 40
9.0
 40
9.0
 40
10.0
 40
10.0
 40
10.0
 40
11.0
 40
11.0
 40
11.0
 40
12.0
 40
12.0
 40
12.0
 40
13.0
 40
13.0
 40
13.0
 40
14.0
 40
14.0
 40
14.0
 40
15.0
 40
15.0
 40
15.0
 40
16.0
 40
16.0
 40
16.0
 40
17.0
 40
17.0
 40
17.0
 40
18.0
 40
18.0
 40
18.0
 40
19.0
 40
19.0
 40
19.0
 40
20.0
 40
20.0
 40
20.0
 40
21.0
 40
21.0
 40
21.0
 40
21.0
 10
-123.2512139994642
 20
-148.3518434968562
 30
0.0
 10
-123.2513903901171
 20
-142.7324254973702
 30
0.0
 10
-122.8981857467844
 20
-137.1132544447916
 30
0.0
 10
-122.1955864982173
 20
-131.5379693855391
 30
0.0
 10
-121.4845557764393
 20
-125.896185051833
 30
0.0
 10
-120.4157342543532
 20
-120.2993450553473
 30
0.0
 10
-118.996177558072
 20
-114.7930640177571
 30
0.0
 10
-116.1449284885997
 20
-103.7333703613262
 30
0.0
 10
-111.8787088798151
 20
-93.03887590340052
 30
0.0
 10
-106.333903984544
 20
-83.0540010241024
 30
0.0
 10
-100.8784585940191
 20
-73.23006497242795
 30
0.0
 10
-94.18531527033485
 20
-64.09306466199071
 30
0.0
 10
-86.46455528108677
 20
-55.92843544007832
 30
0.0
 10
-78.50178731607829
 20
-47.5078986654243
 30
0.0
 10
-69.4460323095355
 20
-40.12164609689486
 30
0.0
 10
-59.59577852428092
 20
-34.01464906702545
 30
0.0
 10
-55.70795214406265
 20
-31.60423557812647
 30
0.0
 10
-51.69633480365864
 20
-29.39310824382198
 30
0.0
 10
-47.58329283783988
 20
-27.39093327165037
 30
0.0
 10
-43.46524137747934
 20
-25.38632410852363
 30
0.0
 10
-39.24548306667261
 20
-23.59119647946862
 30
0.0
 10
-34.94486728057862
 20
-22.0166277172162
 30
0.0
 10
-25.92177982294912
 20
-18.71304254093819
 30
0.0
 10
-16.54273602780572
 20
-16.3804526061278
 30
0.0
 10
-7.023249994838142
 20
-15.07117537910472
 30
0.0
 10
-2.152504340493937
 20
-14.40131425263631
 30
0.0
 10
2.755001125912254
 20
-13.99931996486903
 30
0.0
 10
7.669809165351606
 20
-13.867979488051
 30
0.0
 10
8.340552262008103
 20
-13.85005819816927
 30
0.0
 10
9.011401193055962
 20
-13.83714640270483
 30
0.0
 10
9.682285402234275
 20
-13.82426988537085
 30
0.0
 10
15.36174692192128
 20
-13.71522518651073
 30
0.0
 10
21.04106732908647
 20
-13.60660382521093
 30
0.0
 10
26.72045829251257
 20
-13.4994641453549
 30
0.0
 10
35.94745334486721
 20
-13.32543713161678
 30
0.0
 10
45.17455423162026
 20
-13.15543182465994
 30
0.0
 10
54.40172567462782
 20
-12.98980100578633
 30
0.0
 10
67.38608858033095
 20
-12.75678895921263
 30
0.0
 10
80.37045148602863
 20
-12.53252588880349
 30
0.0
 10
93.3554141199514
 20
-12.3029710989392
 30
0.0
 10
94.57293296241227
 20
-12.28145143982945
 30
0.0
 10
95.79045180488019
 20
-12.2598965025931
 30
0.0
 10
97.0079706473481
 20
-12.26099012461407
 30
0.0
 10
104.7100685055244
 20
-12.26797519428995
 30
0.0
 10
112.4123074762226
 20
-13.18213736883283
 30
0.0
 10
119.9059821389526
 20
-14.96548210256842
 30
0.0
 10
123.628001305455
 20
-15.85124538271448
 30
0.0
 10
127.2985849575798
 20
-16.9513938569614
 30
0.0
 10
130.8940261915714
 20
-18.2588366212381
 30
0.0
 10
134.4871037908167
 20
-19.56539743227398
 30
0.0
 10
138.0051448063254
 20
-21.07889975204409
 30
0.0
 10
141.4320976886863
 20
-22.77489583667901
 30
0.0
 10
145.0625701063425
 20
-24.57164625969384
 30
0.0
 10
148.5908065015889
 20
-26.57322150366506
 30
0.0
 10
151.9934527519791
 20
-28.7709078705605
 30
0.0
 10
153.4752400705996
 20
-29.72800352893023
 30
0.0
 10
154.9332499292082
 20
-30.72228233598794
 30
0.0
 10
156.3632489521343
 20
-31.75522597318062
 30
0.0
 10
157.9935219223468
 20
-32.93284522021672
 30
0.0
 10
159.5873878618096
 20
-34.16070052392384
 30
0.0
 10
161.1391317133564
 20
-35.43977967193096
 30
0.0
 10
163.8461990631691
 20
-37.67119193080498
 30
0.0
 10
167.7477883202004
 20
-42.36243238569025
 30
0.0
 10
170.6577468846768
 20
-47.72219566420191
 30
0.0
  0
SPLINE
  5
60
330
1F
100
AcDbEntity
  8
0
 62
   250
370
    25
100
AcDbSpline
210
0.0
220
0.0
230
1.0
 70
     8
 71
     3
 72
    20
 73
    16
 74
     0
 42
0.0000000001
 43
0.0000000001
 12
1.0
 22
0.0
 32
0.0
 13
1.0
 23
0.0
 33
0.0
 40
0.0
 40
0.0
 40
0.0
 40
0.0
 40
1.0
 40
1.0
 40
1.0
 40
2.0
 40
2.0
 40
2.0
 40
3.0
 40
3.0
 40
3.0
 40
4.0
 40
4.0
 40
4.0
 40
5.0
 40
5.0
 40
5.0
 40
5.0
 10
141.9770534358152
 20
-199.287207122314
 30
0.0
 10
137.7790379738792
 20
-198.4299755319804
 30
0.0
 10
130.1784374802612
 20
-196.1428018742789
 30
0.0
 10
126.2411473421289
 20
-192.7965881788441
 30
0.0
 10
122.3038572039966
 20
-189.4503744834093
 30
0.0
 10
119.2298860915073
 20
-183.6742038257791
 30
0.0
 10
118.6151231387413
 20
-173.4586695676345
 30
0.0
 10
118.0003601859747
 20
-163.2431353094956
 30
0.0
 10
118.0003601859747
 20
-125.0589889921045
 30
0.0
 10
119.2299642658395
 20
-119.1379715283187
 30
0.0
 10
120.4595683457037
 20
-113.216954064538
 30
0.0
 10
123.0251435617387
 20
-107.6198499127698
 30
0.0
 10
126.3532344481268
 20
-105.4999856692006
 30
0.0
 10
129.6813253345148
 20
-103.3801214256307
 30
0.0
 10
139.8511667379545
 20
-99.44665850051274
 30
0.0
 10
141.9770534358152
 20
-99.07678075627842
 30
0.0
  0
SPLINE
  5
61
330
1F
100
AcDbEntity
  8
0
 62
   250
370
    25
100
AcDbSpline
210
0.0
220
0.0
230
1.0
 70
    11
 71
     3
 72
    17
 73
    13
 74
     0
 42
0.0000000001
 43
0.0000000001
 12
1.0
 22
0.0
 32
0.0
 13
1.0
 23
0.0
 33
0.0
 40
0.0
 40
0.0
 40
0.0
 40
0.0
 40
1.0
 40
1.0
 40
1.0
 40
2.0
 40
2.0
 40
2.0
 40
3.0
 40
3.0
 40
3.0
 40
4.0
 40
4.0
 40
4.0
 40
4.0
 10
247.500579671118
 20
-55.42931877347226
 30
0.0
 10
247.500579671118
 20
-50.94031435478395
 30
0.0
 10
251.1390676156205
 20
-47.30139576902845
 30
0.0
 10
255.6276413930558
 20
-47.30139576902845
 30
0.0
 10
260.1166458117441
 20
-47.30139576902845
 30
0.0
 10
263.7547031149942
 20
-50.94031435478395
 30
0.0
 10
263.7547031149942
 20
-55.42931877347226
 30
0.0
 10
263.7547031149942
 20
-59.9174619096552
 30
0.0
 10
260.1166458117441
 20
-63.55638049541005
 30
0.0
 10
255.6276413930558
 20
-63.55638049541005
 30
0.0
 10
251.1390676156205
 20
-63.55638049541005
 30
0.0
 10
247.500579671118
 20
-59.9174619096552
 30
0.0
 10
247.500579671118
 20
-55.42931877347226
 30
0.0
  0
POLYLINE
  5
62
330
1F
100
AcDbEntity
  8
0
  6
AI-Linetype-1
 62
     4
370
    25
100
AcDb2dPolyline
 66
     1
 10
0.0
 20
0.0
 30
0.0
  0
VERTEX
  5
63
330
62
100
AcDbEntity
  8
0
  6
AI-Linetype-1
 62
     4
370
    25
100
AcDbVertex
100
AcDb2dVertex
 10
242.1778537871015
 20
-55.42931877347226
 30
0.0
  0
VERTEX
  5
64
330
62
100
AcDbEntity
  8
0
  6
AI-Linetype-1
 62
     4
370
    25
100
AcDbVertex
100
AcDb2dVertex
 10
229.169042823965
 20
-55.42931877347226
 30
0.0
  0
SEQEND
  5
66
330
62
100
AcDbEntity
  8
0
  6
AI-Linetype-1
 62
     4
370
    25
  0
POLYLINE
  5
67
330
1F
100
AcDbEntity
  8
0
  6
AI-Linetype-2
 62
     4
370
    25
100
AcDb2dPolyline
 66
     1
 10
0.0
 20
0.0
 30
0.0
  0
VERTEX
  5
68
330
67
100
AcDbEntity
  8
0
  6
AI-Linetype-2
 62
     4
370
    25
100
AcDbVertex
100
AcDb2dVertex
 10
281.6456939605818
 20
-55.42501236094508
 30
0.0
  0
VERTEX
  5
69
330
67
100
AcDbEntity
  8
0
  6
AI-Linetype-2
 62
     4
370
    25
100
AcDbVertex
100
AcDb2dVertex
 10
268.6368829974453
 20
-55.42501236094508
 30
0.0
  0
SEQEND
  5
6B
330
67
100
AcDbEntity
  8
0
  6
AI-Linetype-2
 62
     4
370
    25
  0
POLYLINE
  5
6C
330
1F
100
AcDbEntity
  8
0
  6
AI-Linetype-3
 62
     4
370
    25
100
AcDb2dPolyline
 66
     1
 10
0.0
 20
0.0
 30
0.0
  0
VERTEX
  5
6D
330
6C
100
AcDbEntity
  8
0
  6
AI-Linetype-3
 62
     4
370
    25
100
AcDbVertex
100
AcDb2dVertex
 10
255.4041385828778
 20
-68.65603421050089
 30
0.0
  0
VERTEX
  5
6E
330
6C
100
AcDbEntity
  8
0
  6
AI-Linetype-3
 62
     4
370
    25
100
AcDbVertex
100
AcDb2dVertex
 10
255.4041385828778
 20
-81.66484517363742
 30
0.0
  0
SEQEND
  5
70
330
6C
100
AcDbEntity
  8
0
  6
AI-Linetype-3
 62
     4
370
    25
  0
POLYLINE
  5
71
330
1F
100
AcDbEntity
  8
0
  6
AI-Linetype-4
 62
     4
370
    25
100
AcDb2dPolyline
 66
     1
 10
0.0
 20
0.0
 30
0.0
  0
VERTEX
  5
72
330
71
100
AcDbEntity
  8
0
  6
AI-Linetype-4
 62
     4
370
    25
100
AcDbVertex
100
AcDb2dVertex
 10
255.4002628116026
 20
-29.18862467827422
 30
0.0
  0
VERTEX
  5
73
330
71
100
AcDbEntity
  8
0
  6
AI-Linetype-4
 62
     4
370
    25
100
AcDbVertex
100
AcDb2dVertex
 10
255.4002628116026
 20
-42.19743564141011
 30
0.0
  0
SEQEND
  5
75
330
71
100
AcDbEntity
  8
0
  6
AI-Linetype-4
 62
     4
370
    25
  0
SPLINE
  5
76
330
1F
100
AcDbEntity
  8
0
 62
   250
370
    25
100
AcDbSpline
210
0.0
220
0.0
230
1.0
 70
    11
 71
     3
 72
    17
 73
    13
 74
     0
 42
0.0000000001
 43
0.0000000001
 12
1.0
 22
0.0
 32
0.0
 13
1.0
 23
0.0
 33
0.0
 40
0.0
 40
0.0
 40
0.0
 40
0.0
 40
1.0
 40
1.0
 40
1.0
 40
2.0
 40
2.0
 40
2.0
 40
3.0
 40
3.0
 40
3.0
 40
4.0
 40
4.0
 40
4.0
 40
4.0
 10
247.4967038998428
 20
-242.8991233368483
 30
0.0
 10
247.4967038998428
 20
-238.41011891816
 30
0.0
 10
251.135622485599
 20
-234.7720616149099
 30
0.0
 10
255.6237656217812
 20
-234.7720616149099
 30
0.0
 10
260.1127700404696
 20
-234.7720616149099
 30
0.0
 10
263.7516886262251
 20
-238.41011891816
 30
0.0
 10
263.7516886262251
 20
-242.8991233368483
 30
0.0
 10
263.7516886262251
 20
-247.3872664730306
 30
0.0
 10
260.1127700404696
 20
-251.0261850587868
 30
0.0
 10
255.6237656217812
 20
-251.0261850587868
 30
0.0
 10
251.135622485599
 20
-251.0261850587868
 30
0.0
 10
247.4967038998428
 20
-247.3872664730306
 30
0.0
 10
247.4967038998428
 20
-242.8991233368483
 30
0.0
  0
POLYLINE
  5
77
330
1F
100
AcDbEntity
  8
0
  6
AI-Linetype-5
 62
     4
370
    25
100
AcDb2dPolyline
 66
     1
 10
0.0
 20
0.0
 30
0.0
  0
VERTEX
  5
78
330
77
100
AcDbEntity
  8
0
  6
AI-Linetype-5
 62
     4
370
    25
100
AcDbVertex
100
AcDb2dVertex
 10
242.1739780158263
 20
-242.8991233368483
 30
0.0
  0
VERTEX
  5
79
330
77
100
AcDbEntity
  8
0
  6
AI-Linetype-5
 62
     4
370
    25
100
AcDbVertex
100
AcDb2dVertex
 10
229.1651670526905
 20
-242.8991233368483
 30
0.0
  0
SEQEND
  5
7B
330
77
100
AcDbEntity
  8
0
  6
AI-Linetype-5
 62
     4
370
    25
  0
POLYLINE
  5
7C
330
1F
100
AcDbEntity
  8
0
  6
AI-Linetype-6
 62
     4
370
    25
100
AcDb2dPolyline
 66
     1
 10
0.0
 20
0.0
 30
0.0
  0
VERTEX
  5
7D
330
7C
100
AcDbEntity
  8
0
  6
AI-Linetype-6
 62
     4
370
    25
100
AcDbVertex
100
AcDb2dVertex
 10
281.6422171539497
 20
-242.9025684668698
 30
0.0
  0
VERTEX
  5
7E
330
7C
100
AcDbEntity
  8
0
  6
AI-Linetype-6
 62
     4
370
    25
100
AcDbVertex
100
AcDb2dVertex
 10
268.6334378674231
 20
-242.9025684668698
 30
0.0
  0
SEQEND
  5
80
330
7C
100
AcDbEntity
  8
0
  6
AI-Linetype-6
 62
     4
370
    25
  0
POLYLINE
  5
81
330
1F
100
AcDbEntity
  8
0
  6
AI-Linetype-7
 62
     4
370
    25
100
AcDb2dPolyline
 66
     1
 10
0.0
 20
0.0
 30
0.0
  0
VERTEX
  5
82
330
81
100
AcDbEntity
  8
0
  6
AI-Linetype-7
 62
     4
370
    25
100
AcDbVertex
100
AcDb2dVertex
 10
255.4002628116026
 20
-229.6715466173137
 30
0.0
  0
VERTEX
  5
83
330
81
100
AcDbEntity
  8
0
  6
AI-Linetype-7
 62
     4
370
    25
100
AcDbVertex
100
AcDb2dVertex
 10
255.4002628116026
 20
-216.6627356541772
 30
0.0
  0
SEQEND
  5
85
330
81
100
AcDbEntity
  8
0
  6
AI-Linetype-7
 62
     4
370
    25
  0
POLYLINE
  5
86
330
1F
100
AcDbEntity
  8
0
  6
AI-Linetype-8
 62
     4
370
    25
100
AcDb2dPolyline
 66
     1
 10
0.0
 20
0.0
 30
0.0
  0
VERTEX
  5
87
330
86
100
AcDbEntity
  8
0
  6
AI-Linetype-8
 62
     4
370
    25
100
AcDbVertex
100
AcDb2dVertex
 10
255.3963870403281
 20
-269.139817432047
 30
0.0
  0
VERTEX
  5
88
330
86
100
AcDbEntity
  8
0
  6
AI-Linetype-8
 62
     4
370
    25
100
AcDbVertex
100
AcDb2dVertex
 10
255.3963870403281
 20
-256.1310064689098
 30
0.0
  0
SEQEND
  5
8A
330
86
100
AcDbEntity
  8
0
  6
AI-Linetype-8
 62
     4
370
    25
  0
POLYLINE
  5
8B
330
1F
100
AcDbEntity
  8
0
  6
AI-Linetype-9
 62
     4
370
    25
100
AcDb2dPolyline
 66
     1
 10
0.0
 20
0.0
 30
0.0
  0
VERTEX
  5
8C
330
8B
100
AcDbEntity
  8
0
  6
AI-Linetype-9
 62
     4
370
    25
100
AcDbVertex
100
AcDb2dVertex
 10
-216.4462086116363
 20
-152.0109001783569
 30
0.0
  0
VERTEX
  5
8D
330
8B
100
AcDbEntity
  8
0
  6
AI-Linetype-9
 62
     4
370
    25
100
AcDbVertex
100
AcDb2dVertex
 10
350.1864007811542
 20
-152.0109001783569
 30
0.0
  0
SEQEND
  5
8F
330
8B
100
AcDbEntity
  8
0
  6
AI-Linetype-9
 62
     4
370
    25
  0
ENDSEC
  0
SECTION
  2
OBJECTS
  0
DICTIONARY
  5
C
330
0
100
AcDbDictionary
281
     1
  3
ACAD_GROUP
350
D
  3
ACAD_LAYOUT
350
1A
  3
ACAD_MATERIAL
350
3B
  3
ACAD_MLEADERSTYLE
350
B1
  3
ACAD_MLINESTYLE
350
17
  3
ACAD_PLOTSETTINGS
350
19
  3
ACAD_PLOTSTYLENAME
350
E
  3
ACAD_TABLESTYLE
350
B0
  3
ACAD_VISUALSTYLE
350
2A
  0
SUN
  5
3F
330
29
100
AcDbSun
 90
        1
290
     0
 63
     7
421
 16777215
 40
1.0
291
     1
 91
  2455826
 92
 54000000
292
     0
 70
     2
 71
   256
280
     1
  0
DICTIONARY
  5
D
102
{ACAD_REACTORS
330
C
102
}
330
C
100
AcDbDictionary
281
     1
  0
DICTIONARY
  5
1A
102
{ACAD_REACTORS
330
C
102
}
330
C
100
AcDbDictionary
281
     1
  3
Layout1
350
1E
  3
Layout2
350
26
  3
Model
350
22
  0
DICTIONARY
  5
3B
102
{ACAD_REACTORS
330
C
102
}
330
C
100
AcDbDictionary
281
     1
  3
ByBlock
350
3D
  3
ByLayer
350
3C
  3
Global
350
3E
  0
DICTIONARY
  5
B1
102
{ACAD_REACTORS
330
C
102
}
330
C
100
AcDbDictionary
281
     1
  0
DICTIONARY
  5
17
102
{ACAD_REACTORS
330
C
102
}
330
C
100
AcDbDictionary
281
     1
  3
Standard
350
18
  0
DICTIONARY
  5
19
102
{ACAD_REACTORS
330
C
102
}
330
C
100
AcDbDictionary
281
     1
  0
ACDBDICTIONARYWDFLT
  5
E
102
{ACAD_REACTORS
330
C
102
}
330
C
100
AcDbDictionary
281
     1
  3
Normal
350
F
100
AcDbDictionaryWithDefault
340
F
  0
DICTIONARY
  5
B0
102
{ACAD_REACTORS
330
C
102
}
330
C
100
AcDbDictionary
281
     1
  0
DICTIONARY
  5
2A
102
{ACAD_REACTORS
330
C
102
}
330
C
100
AcDbDictionary
281
     1
  3
2dWireframe
350
2F
  3
3D Hidden
350
31
  3
3dWireframe
350
30
  3
Basic
350
32
  3
Brighten
350
36
  3
ColorChange
350
3A
  3
Conceptual
350
34
  3
Dim
350
35
  3
Facepattern
350
39
  3
Flat
350
2B
  3
FlatWithEdges
350
2C
  3
Gouraud
350
2D
  3
GouraudWithEdges
350
2E
  3
Linepattern
350
38
  3
Realistic
350
33
  3
Thicken
350
37
  0
LAYOUT
  5
1E
102
{ACAD_REACTORS
330
1A
102
}
330
1A
100
AcDbPlotSettings
  1

  2
none_device
  4

  6

 40
0.0
 41
0.0
 42
0.0
 43
0.0
 44
0.0
 45
0.0
 46
0.0
 47
0.0
 48
0.0
 49
0.0
140
0.0
141
0.0
142
1.0
143
1.0
 70
   688
 72
     0
 73
     0
 74
     5
  7

 75
    16
 76
     0
 77
     2
 78
   300
147
1.0
148
0.0
149
0.0
100
AcDbLayout
  1
Layout1
 70
     1
 71
     1
 10
0.0
 20
0.0
 11
12.0
 21
9.0
 12
0.0
 22
0.0
 32
0.0
 14
1.000000000000000E+20
 24
1.000000000000000E+20
 34
1.000000000000000E+20
 15
-1.000000000000000E+20
 25
-1.000000000000000E+20
 35
-1.000000000000000E+20
146
0.0
 13
0.0
 23
0.0
 33
0.0
 16
1.0
 26
0.0
 36
0.0
 17
0.0
 27
1.0
 37
0.0
 76
     0
330
1B
  0
LAYOUT
  5
26
102
{ACAD_REACTORS
330
1A
102
}
330
1A
100
AcDbPlotSettings
  1

  2
none_device
  4

  6

 40
0.0
 41
0.0
 42
0.0
 43
0.0
 44
0.0
 45
0.0
 46
0.0
 47
0.0
 48
0.0
 49
0.0
140
0.0
141
0.0
142
1.0
143
1.0
 70
   688
 72
     0
 73
     0
 74
     5
  7

 75
    16
 76
     0
 77
     2
 78
   300
147
1.0
148
0.0
149
0.0
100
AcDbLayout
  1
Layout2
 70
     1
 71
     2
 10
0.0
 20
0.0
 11
0.0
 21
0.0
 12
0.0
 22
0.0
 32
0.0
 14
0.0
 24
0.0
 34
0.0
 15
0.0
 25
0.0
 35
0.0
146
0.0
 13
0.0
 23
0.0
 33
0.0
 16
1.0
 26
0.0
 36
0.0
 17
0.0
 27
1.0
 37
0.0
 76
     0
330
23
  0
LAYOUT
  5
22
102
{ACAD_REACTORS
330
1A
102
}
330
1A
100
AcDbPlotSettings
  1

  2
none_device
  4

  6

 40
0.0
 41
0.0
 42
0.0
 43
0.0
 44
0.0
 45
0.0
 46
0.0
 47
0.0
 48
0.0
 49
0.0
140
0.0
141
0.0
142
1.0
143
1.0
 70
  1712
 72
     0
 73
     0
 74
     0
  7

 75
     0
 76
     0
 77
     2
 78
   300
147
1.0
148
0.0
149
0.0
100
AcDbLayout
  1
Model
 70
     1
 71
     0
 10
0.0
 20
0.0
 11
12.0
 21
9.0
 12
0.0
 22
0.0
 32
0.0
 14
1.000000000000000E+20
 24
1.000000000000000E+20
 34
1.000000000000000E+20
 15
-1.000000000000000E+20
 25
-1.000000000000000E+20
 35
-1.000000000000000E+20
146
0.0
 13
0.0
 23
0.0
 33
0.0
 16
1.0
 26
0.0
 36
0.0
 17
0.0
 27
1.0
 37
0.0
 76
     0
330
1F
331
29
  0
MATERIAL
  5
3D
102
{ACAD_REACTORS
330
3B
102
}
330
3B
100
AcDbMaterial
  1
ByBlock
 72
     1
 94
      127
  0
MATERIAL
  5
3C
102
{ACAD_REACTORS
330
3B
102
}
330
3B
100
AcDbMaterial
  1
ByLayer
 72
     1
 94
      127
  0
MATERIAL
  5
3E
102
{ACAD_REACTORS
330
3B
102
}
330
3B
100
AcDbMaterial
  1
Global
 72
     1
 94
      127
  0
MLINESTYLE
  5
18
102
{ACAD_REACTORS
330
17
102
}
330
17
100
AcDbMlineStyle
  2
Standard
 70
     0
  3

 62
   256
 51
90.0
 52
90.0
 71
     2
 49
0.5
 62
   256
  6
BYLAYER
 49
-0.5
 62
   256
  6
BYLAYER
  0
ACDBPLACEHOLDER
  5
F
102
{ACAD_REACTORS
330
E
102
}
330
E
  0
VISUALSTYLE
  5
2F
102
{ACAD_REACTORS
330
2A
102
}
102
{ACAD_XDICTIONARY
360
98
102
}
330
2A
100
AcDbVisualStyle
  2
2dWireframe
 70
     4
 71
     0
 72
     2
 73
     0
 90
        0
 40
-0.6
 41
-30.0
 62
     5
 63
     7
421
 16777215
 74
     1
 91
        4
 64
     7
 65
   257
 75
     1
175
     1
 42
1.0
 92
        0
 66
   257
 43
1.0
 76
     1
 77
     6
 78
     2
 67
     7
 79
     5
170
     0
171
     0
290
     0
174
     0
 93
        1
 44
0.0
173
     0
291
     0
 45
0.0
  0
VISUALSTYLE
  5
31
102
{ACAD_REACTORS
330
2A
102
}
102
{ACAD_XDICTIONARY
360
9C
102
}
330
2A
100
AcDbVisualStyle
  2
3D Hidden
 70
     6
 71
     1
 72
     2
 73
     2
 90
        0
 40
-0.6
 41
-30.0
 62
     5
 63
     7
421
 16777215
 74
     2
 91
        2
 64
     7
 65
   257
 75
     2
175
     1
 42
40.0
 92
        0
 66
   257
 43
1.0
 76
     1
 77
     6
 78
     2
 67
     7
 79
     3
170
     0
171
     0
290
     0
174
     0
 93
        1
 44
0.0
173
     0
291
     0
 45
0.0
  0
VISUALSTYLE
  5
30
102
{ACAD_REACTORS
330
2A
102
}
102
{ACAD_XDICTIONARY
360
9A
102
}
330
2A
100
AcDbVisualStyle
  2
3dWireframe
 70
     5
 71
     0
 72
     2
 73
     0
 90
        0
 40
-0.6
 41
-30.0
 62
     5
 63
     7
421
 16777215
 74
     1
 91
        4
 64
     7
 65
   257
 75
     1
175
     1
 42
1.0
 92
        0
 66
   257
 43
1.0
 76
     1
 77
     6
 78
     2
 67
     7
 79
     5
170
     0
171
     0
290
     0
174
     0
 93
        1
 44
0.0
173
     0
291
     0
 45
0.0
  0
VISUALSTYLE
  5
32
102
{ACAD_REACTORS
330
2A
102
}
102
{ACAD_XDICTIONARY
360
9E
102
}
330
2A
100
AcDbVisualStyle
  2
Basic
 70
     7
 71
     1
 72
     0
 73
     1
 90
        0
 40
-0.6
 41
-30.0
 62
     5
 63
     7
421
 16777215
 74
     0
 91
        4
 64
     7
 65
   257
 75
     1
175
     1
 42
1.0
 92
        8
 66
     7
 43
1.0
 76
     1
 77
     6
 78
     2
 67
     7
 79
     5
170
     0
171
     0
290
     0
174
     0
 93
        1
 44
0.0
173
     0
291
     1
 45
0.0
  0
VISUALSTYLE
  5
36
102
{ACAD_REACTORS
330
2A
102
}
102
{ACAD_XDICTIONARY
360
A6
102
}
330
2A
100
AcDbVisualStyle
  2
Brighten
 70
    12
 71
     2
 72
     2
 73
     0
 90
        0
 40
-0.6
 41
-30.0
 62
     5
 63
     7
421
 16777215
 74
     1
 91
        4
 64
     7
 65
   257
 75
     1
175
     1
 42
1.0
 92
        8
 66
     7
 43
1.0
 76
     1
 77
     6
 78
     2
 67
     7
 79
     5
170
     0
171
     0
290
     0
174
     0
 93
        1
 44
50.0
173
     0
291
     1
 45
0.0
  0
VISUALSTYLE
  5
3A
102
{ACAD_REACTORS
330
2A
102
}
102
{ACAD_XDICTIONARY
360
AE
102
}
330
2A
100
AcDbVisualStyle
  2
ColorChange
 70
    16
 71
     2
 72
     2
 73
     3
 90
        0
 40
-0.6
 41
-30.0
 62
     5
 63
     8
421
  8421504
 74
     1
 91
        4
 64
     7
 65
   257
 75
     1
175
     1
 42
1.0
 92
        8
 66
     8
424
  8421504
 43
1.0
 76
     1
 77
     6
 78
     2
 67
     7
 79
     5
170
     0
171
     0
290
     0
174
     0
 93
        1
 44
0.0
173
     0
291
     1
 45
0.0
  0
VISUALSTYLE
  5
34
102
{ACAD_REACTORS
330
2A
102
}
102
{ACAD_XDICTIONARY
360
A2
102
}
330
2A
100
AcDbVisualStyle
  2
Conceptual
 70
     9
 71
     3
 72
     2
 73
     0
 90
        0
 40
-0.6
 41
-30.0
 62
     5
 63
     7
421
 16777215
 74
     2
 91
        2
 64
     7
 65
   257
 75
     1
175
     1
 42
40.0
 92
        8
 66
     7
 43
1.0
 76
     1
 77
     6
 78
     2
 67
     7
 79
     3
170
     0
171
     0
290
     0
174
     0
 93
        1
 44
0.0
173
     0
291
     0
 45
0.0
  0
VISUALSTYLE
  5
35
102
{ACAD_REACTORS
330
2A
102
}
102
{ACAD_XDICTIONARY
360
A4
102
}
330
2A
100
AcDbVisualStyle
  2
Dim
 70
    11
 71
     2
 72
     2
 73
     0
 90
        0
 40
-0.6
 41
-30.0
 62
     5
 63
     7
421
 16777215
 74
     1
 91
        4
 64
     7
 65
   257
 75
     1
175
     1
 42
1.0
 92
        8
 66
     7
 43
1.0
 76
     1
 77
     6
 78
     2
 67
     7
 79
     5
170
     0
171
     0
290
     0
174
     0
 93
        1
 44
-50.0
173
     0
291
     1
 45
0.0
  0
VISUALSTYLE
  5
39
102
{ACAD_REACTORS
330
2A
102
}
102
{ACAD_XDICTIONARY
360
AC
102
}
330
2A
100
AcDbVisualStyle
  2
Facepattern
 70
    15
 71
     2
 72
     2
 73
     0
 90
        0
 40
-0.6
 41
-30.0
 62
     5
 63
     7
421
 16777215
 74
     1
 91
        4
 64
     7
 65
   257
 75
     1
175
     1
 42
1.0
 92
        8
 66
     7
 43
1.0
 76
     1
 77
     6
 78
     2
 67
     7
 79
     5
170
     0
171
     0
290
     0
174
     0
 93
        1
 44
0.0
173
     0
291
     1
 45
0.0
  0
VISUALSTYLE
  5
2B
102
{ACAD_REACTORS
330
2A
102
}
102
{ACAD_XDICTIONARY
360
90
102
}
330
2A
100
AcDbVisualStyle
  2
Flat
 70
     0
 71
     2
 72
     1
 73
     1
 90
        2
 40
-0.6
 41
30.0
 62
     5
 63
     7
421
 16777215
 74
     0
 91
        4
 64
     7
 65
   257
 75
     1
175
     1
 42
1.0
 92
        8
 66
     7
 43
1.0
 76
     1
 77
     6
 78
     2
 67
     7
 79
     5
170
     0
171
     0
290
     0
174
     0
 93
       13
 44
0.0
173
     0
291
     1
 45
0.0
  0
VISUALSTYLE
  5
2C
102
{ACAD_REACTORS
330
2A
102
}
102
{ACAD_XDICTIONARY
360
92
102
}
330
2A
100
AcDbVisualStyle
  2
FlatWithEdges
 70
     1
 71
     2
 72
     1
 73
     1
 90
        2
 40
-0.6
 41
30.0
 62
     5
 63
     7
421
 16777215
 74
     1
 91
        4
 64
     7
 65
   257
 75
     1
175
     1
 42
1.0
 92
        0
 66
   257
 43
1.0
 76
     1
 77
     6
 78
     2
 67
     7
 79
     5
170
     0
171
     0
290
     0
174
     0
 93
       13
 44
0.0
173
     0
291
     1
 45
0.0
  0
VISUALSTYLE
  5
2D
102
{ACAD_REACTORS
330
2A
102
}
102
{ACAD_XDICTIONARY
360
94
102
}
330
2A
100
AcDbVisualStyle
  2
Gouraud
 70
     2
 71
     2
 72
     2
 73
     1
 90
        2
 40
-0.6
 41
30.0
 62
     5
 63
     7
421
 16777215
 74
     0
 91
        4
 64
     7
 65
   257
 75
     1
175
     1
 42
1.0
 92
        0
 66
     7
 43
1.0
 76
     1
 77
     6
 78
     2
 67
     7
 79
     5
170
     0
171
     0
290
     0
174
     0
 93
       13
 44
0.0
173
     0
291
     1
 45
0.0
  0
VISUALSTYLE
  5
2E
102
{ACAD_REACTORS
330
2A
102
}
102
{ACAD_XDICTIONARY
360
96
102
}
330
2A
100
AcDbVisualStyle
  2
GouraudWithEdges
 70
     3
 71
     2
 72
     2
 73
     1
 90
        2
 40
-0.6
 41
30.0
 62
     5
 63
     7
421
 16777215
 74
     1
 91
        4
 64
     7
 65
   257
 75
     1
175
     1
 42
1.0
 92
        0
 66
   257
 43
1.0
 76
     1
 77
     6
 78
     2
 67
     7
 79
     5
170
     0
171
     0
290
     0
174
     0
 93
       13
 44
0.0
173
     0
291
     1
 45
0.0
  0
VISUALSTYLE
  5
38
102
{ACAD_REACTORS
330
2A
102
}
102
{ACAD_XDICTIONARY
360
AA
102
}
330
2A
100
AcDbVisualStyle
  2
Linepattern
 70
    14
 71
     2
 72
     2
 73
     0
 90
        0
 40
-0.6
 41
-30.0
 62
     5
 63
     7
421
 16777215
 74
     1
 91
        4
 64
     7
 65
   257
 75
     7
175
     7
 42
1.0
 92
        8
 66
     7
 43
1.0
 76
     1
 77
     6
 78
     2
 67
     7
 79
     5
170
     0
171
     0
290
     0
174
     0
 93
        1
 44
0.0
173
     0
291
     1
 45
0.0
  0
VISUALSTYLE
  5
33
102
{ACAD_REACTORS
330
2A
102
}
102
{ACAD_XDICTIONARY
360
A0
102
}
330
2A
100
AcDbVisualStyle
  2
Realistic
 70
     8
 71
     2
 72
     2
 73
     0
 90
        0
 40
-0.6
 41
-30.0
 62
     5
 63
     7
421
 16777215
 74
     1
 91
        0
 64
     7
 65
   257
 75
     1
175
     1
 42
1.0
 92
        8
 66
     8
424
  7895160
 43
1.0
 76
     1
 77
     6
 78
     2
 67
     7
 79
     5
170
     0
171
     0
290
     0
174
     0
 93
       13
 44
0.0
173
     0
291
     0
 45
0.0
  0
VISUALSTYLE
  5
37
102
{ACAD_REACTORS
330
2A
102
}
102
{ACAD_XDICTIONARY
360
A8
102
}
330
2A
100
AcDbVisualStyle
  2
Thicken
 70
    13
 71
     2
 72
     2
 73
     0
 90
        0
 40
-0.6
 41
-30.0
 62
     5
 63
     7
421
 16777215
 74
     1
 91
        4
 64
     7
 65
   257
 75
     1
175
     1
 42
1.0
 92
       12
 66
     7
 43
1.0
 76
     1
 77
     6
 78
     2
 67
     7
 79
     5
170
     0
171
     0
290
     0
174
     0
 93
        1
 44
0.0
173
     0
291
     1
 45
0.0
  0
DICTIONARY
  5
98
330
2F
100
AcDbDictionary
280
     1
281
     1
  3
ACAD_XREC_ROUNDTRIP
360
99
  0
DICTIONARY
  5
9C
330
31
100
AcDbDictionary
280
     1
281
     1
  3
ACAD_XREC_ROUNDTRIP
360
9D
  0
DICTIONARY
  5
9A
330
30
100
AcDbDictionary
280
     1
281
     1
  3
ACAD_XREC_ROUNDTRIP
360
9B
  0
DICTIONARY
  5
9E
330
32
100
AcDbDictionary
280
     1
281
     1
  3
ACAD_XREC_ROUNDTRIP
360
9F
  0
DICTIONARY
  5
A6
330
36
100
AcDbDictionary
280
     1
281
     1
  3
ACAD_XREC_ROUNDTRIP
360
A7
  0
DICTIONARY
  5
AE
330
3A
100
AcDbDictionary
280
     1
281
     1
  3
ACAD_XREC_ROUNDTRIP
360
AF
  0
DICTIONARY
  5
A2
330
34
100
AcDbDictionary
280
     1
281
     1
  3
ACAD_XREC_ROUNDTRIP
360
A3
  0
DICTIONARY
  5
A4
330
35
100
AcDbDictionary
280
     1
281
     1
  3
ACAD_XREC_ROUNDTRIP
360
A5
  0
DICTIONARY
  5
AC
330
39
100
AcDbDictionary
280
     1
281
     1
  3
ACAD_XREC_ROUNDTRIP
360
AD
  0
DICTIONARY
  5
90
330
2B
100
AcDbDictionary
280
     1
281
     1
  3
ACAD_XREC_ROUNDTRIP
360
91
  0
DICTIONARY
  5
92
330
2C
100
AcDbDictionary
280
     1
281
     1
  3
ACAD_XREC_ROUNDTRIP
360
93
  0
DICTIONARY
  5
94
330
2D
100
AcDbDictionary
280
     1
281
     1
  3
ACAD_XREC_ROUNDTRIP
360
95
  0
DICTIONARY
  5
96
330
2E
100
AcDbDictionary
280
     1
281
     1
  3
ACAD_XREC_ROUNDTRIP
360
97
  0
DICTIONARY
  5
AA
330
38
100
AcDbDictionary
280
     1
281
     1
  3
ACAD_XREC_ROUNDTRIP
360
AB
  0
DICTIONARY
  5
A0
330
33
100
AcDbDictionary
280
     1
281
     1
  3
ACAD_XREC_ROUNDTRIP
360
A1
  0
DICTIONARY
  5
A8
330
37
100
AcDbDictionary
280
     1
281
     1
  3
ACAD_XREC_ROUNDTRIP
360
A9
  0
XRECORD
  5
99
102
{ACAD_REACTORS
330
98
102
}
330
98
100
AcDbXrecord
280
     1
102
RTVSPropertyOp0
 70
     1
102
RTVSPropertyOp1
 70
     1
102
RTVSPropertyOp2
 70
     1
102
RTVSPropertyOp3
 70
     1
102
RTVSPropertyOp4
 70
     1
102
RTVSPropertyOp5
 70
     1
102
RTVSPropertyOp6
 70
     1
102
RTVSPropertyOp7
 70
     1
102
RTVSPropertyOp8
 70
     1
102
RTVSPropertyOp9
 70
     1
102
RTVSPropertyOp10
 70
     1
102
RTVSPropertyOp11
 70
     1
102
RTVSPropertyOp12
 70
     1
102
RTVSPropertyOp13
 70
     1
102
RTVSPropertyOp14
 70
     1
102
RTVSPropertyOp15
 70
     1
102
RTVSPropertyOp16
 70
     1
102
RTVSPropertyOp17
 70
     1
102
RTVSPropertyOp18
 70
     1
102
RTVSPropertyOp19
 70
     1
102
RTVSPropertyOp20
 70
     1
102
RTVSPropertyOp21
 70
     1
102
RTVSPropertyOp22
 70
     1
102
RTVSPropertyOp23
 70
     1
102
RTVSPropertyOp24
 70
     1
102
RTVSPropertyOp25
 70
     1
102
RTVSPropertyOp26
 70
     1
102
RTVSPropertyOp27
 70
     1
102
RTVSPropertyOp28
 70
     1
102
RTVSPropertyOp29
 70
     1
102
RTVSPropertyOp30
 70
     1
102
RTVSPropertyOp31
 70
     1
102
RTVSPropertyOp32
 70
     1
  0
XRECORD
  5
9D
102
{ACAD_REACTORS
330
9C
102
}
330
9C
100
AcDbXrecord
280
     1
102
RTVSPropertyOp0
 70
     1
102
RTVSPropertyOp1
 70
     1
102
RTVSPropertyOp2
 70
     1
102
RTVSPropertyOp3
 70
     1
102
RTVSPropertyOp4
 70
     1
102
RTVSPropertyOp5
 70
     1
102
RTVSPropertyOp6
 70
     1
102
RTVSPropertyOp7
 70
     1
102
RTVSPropertyOp8
 70
     1
102
RTVSPropertyOp9
 70
     1
102
RTVSPropertyOp10
 70
     1
102
RTVSPropertyOp11
 70
     1
102
RTVSPropertyOp12
 70
     1
102
RTVSPropertyOp13
 70
     1
102
RTVSPropertyOp14
 70
     1
102
RTVSPropertyOp15
 70
     1
102
RTVSPropertyOp16
 70
     1
102
RTVSPropertyOp17
 70
     1
102
RTVSPropertyOp18
 70
     1
102
RTVSPropertyOp19
 70
     1
102
RTVSPropertyOp20
 70
     1
102
RTVSPropertyOp21
 70
     1
102
RTVSPropertyOp22
 70
     1
102
RTVSPropertyOp23
 70
     1
102
RTVSPropertyOp24
 70
     1
102
RTVSPropertyOp25
 70
     1
102
RTVSPropertyOp26
 70
     1
102
RTVSPropertyOp27
 70
     1
102
RTVSPropertyOp28
 70
     1
102
RTVSPropertyOp29
 70
     1
102
RTVSPropertyOp30
 70
     1
102
RTVSPropertyOp31
 70
     1
102
RTVSPropertyOp32
 70
     1
  0
XRECORD
  5
9B
102
{ACAD_REACTORS
330
9A
102
}
330
9A
100
AcDbXrecord
280
     1
102
RTVSPropertyOp0
 70
     1
102
RTVSPropertyOp1
 70
     1
102
RTVSPropertyOp2
 70
     1
102
RTVSPropertyOp3
 70
     1
102
RTVSPropertyOp4
 70
     1
102
RTVSPropertyOp5
 70
     1
102
RTVSPropertyOp6
 70
     1
102
RTVSPropertyOp7
 70
     1
102
RTVSPropertyOp8
 70
     1
102
RTVSPropertyOp9
 70
     1
102
RTVSPropertyOp10
 70
     1
102
RTVSPropertyOp11
 70
     1
102
RTVSPropertyOp12
 70
     1
102
RTVSPropertyOp13
 70
     1
102
RTVSPropertyOp14
 70
     1
102
RTVSPropertyOp15
 70
     1
102
RTVSPropertyOp16
 70
     1
102
RTVSPropertyOp17
 70
     1
102
RTVSPropertyOp18
 70
     1
102
RTVSPropertyOp19
 70
     1
102
RTVSPropertyOp20
 70
     1
102
RTVSPropertyOp21
 70
     1
102
RTVSPropertyOp22
 70
     1
102
RTVSPropertyOp23
 70
     1
102
RTVSPropertyOp24
 70
     1
102
RTVSPropertyOp25
 70
     1
102
RTVSPropertyOp26
 70
     1
102
RTVSPropertyOp27
 70
     1
102
RTVSPropertyOp28
 70
     1
102
RTVSPropertyOp29
 70
     1
102
RTVSPropertyOp30
 70
     1
102
RTVSPropertyOp31
 70
     1
102
RTVSPropertyOp32
 70
     1
  0
XRECORD
  5
9F
102
{ACAD_REACTORS
330
9E
102
}
330
9E
100
AcDbXrecord
280
     1
102
RTVSPropertyOp0
 70
     1
102
RTVSPropertyOp1
 70
     1
102
RTVSPropertyOp2
 70
     1
102
RTVSPropertyOp3
 70
     1
102
RTVSPropertyOp4
 70
     1
102
RTVSPropertyOp5
 70
     1
102
RTVSPropertyOp6
 70
     1
102
RTVSPropertyOp7
 70
     1
102
RTVSPropertyOp8
 70
     1
102
RTVSPropertyOp9
 70
     1
102
RTVSPropertyOp10
 70
     1
102
RTVSPropertyOp11
 70
     1
102
RTVSPropertyOp12
 70
     1
102
RTVSPropertyOp13
 70
     1
102
RTVSPropertyOp14
 70
     1
102
RTVSPropertyOp15
 70
     1
102
RTVSPropertyOp16
 70
     1
102
RTVSPropertyOp17
 70
     1
102
RTVSPropertyOp18
 70
     1
102
RTVSPropertyOp19
 70
     1
102
RTVSPropertyOp20
 70
     1
102
RTVSPropertyOp21
 70
     1
102
RTVSPropertyOp22
 70
     1
102
RTVSPropertyOp23
 70
     1
102
RTVSPropertyOp24
 70
     1
102
RTVSPropertyOp25
 70
     1
102
RTVSPropertyOp26
 70
     1
102
RTVSPropertyOp27
 70
     1
102
RTVSPropertyOp28
 70
     1
102
RTVSPropertyOp29
 70
     1
102
RTVSPropertyOp30
 70
     1
102
RTVSPropertyOp31
 70
     1
102
RTVSPropertyOp32
 70
     1
  0
XRECORD
  5
A7
102
{ACAD_REACTORS
330
A6
102
}
330
A6
100
AcDbXrecord
280
     1
102
RTVSPropertyOp0
 70
     1
102
RTVSPropertyOp1
 70
     1
102
RTVSPropertyOp2
 70
     1
102
RTVSPropertyOp3
 70
     1
102
RTVSPropertyOp4
 70
     1
102
RTVSPropertyOp5
 70
     1
102
RTVSPropertyOp6
 70
     1
102
RTVSPropertyOp7
 70
     1
102
RTVSPropertyOp8
 70
     1
102
RTVSPropertyOp9
 70
     1
102
RTVSPropertyOp10
 70
     1
102
RTVSPropertyOp11
 70
     1
102
RTVSPropertyOp12
 70
     1
102
RTVSPropertyOp13
 70
     1
102
RTVSPropertyOp14
 70
     1
102
RTVSPropertyOp15
 70
     1
102
RTVSPropertyOp16
 70
     1
102
RTVSPropertyOp17
 70
     1
102
RTVSPropertyOp18
 70
     1
102
RTVSPropertyOp19
 70
     1
102
RTVSPropertyOp20
 70
     1
102
RTVSPropertyOp21
 70
     1
102
RTVSPropertyOp22
 70
     1
102
RTVSPropertyOp23
 70
     1
102
RTVSPropertyOp24
 70
     1
102
RTVSPropertyOp25
 70
     1
102
RTVSPropertyOp26
 70
     1
102
RTVSPropertyOp27
 70
     1
102
RTVSPropertyOp28
 70
     1
102
RTVSPropertyOp29
 70
     1
102
RTVSPropertyOp30
 70
     1
102
RTVSPropertyOp31
 70
     1
102
RTVSPropertyOp32
 70
     1
  0
XRECORD
  5
AF
102
{ACAD_REACTORS
330
AE
102
}
330
AE
100
AcDbXrecord
280
     1
102
RTVSPropertyOp0
 70
     1
102
RTVSPropertyOp1
 70
     1
102
RTVSPropertyOp2
 70
     1
102
RTVSPropertyOp3
 70
     1
102
RTVSPropertyOp4
 70
     1
102
RTVSPropertyOp5
 70
     1
102
RTVSPropertyOp6
 70
     1
102
RTVSPropertyOp7
 70
     1
102
RTVSPropertyOp8
 70
     1
102
RTVSPropertyOp9
 70
     1
102
RTVSPropertyOp10
 70
     1
102
RTVSPropertyOp11
 70
     1
102
RTVSPropertyOp12
 70
     1
102
RTVSPropertyOp13
 70
     1
102
RTVSPropertyOp14
 70
     1
102
RTVSPropertyOp15
 70
     1
102
RTVSPropertyOp16
 70
     1
102
RTVSPropertyOp17
 70
     1
102
RTVSPropertyOp18
 70
     1
102
RTVSPropertyOp19
 70
     1
102
RTVSPropertyOp20
 70
     1
102
RTVSPropertyOp21
 70
     1
102
RTVSPropertyOp22
 70
     1
102
RTVSPropertyOp23
 70
     1
102
RTVSPropertyOp24
 70
     1
102
RTVSPropertyOp25
 70
     1
102
RTVSPropertyOp26
 70
     1
102
RTVSPropertyOp27
 70
     1
102
RTVSPropertyOp28
 70
     1
102
RTVSPropertyOp29
 70
     1
102
RTVSPropertyOp30
 70
     1
102
RTVSPropertyOp31
 70
     1
102
RTVSPropertyOp32
 70
     1
  0
XRECORD
  5
A3
102
{ACAD_REACTORS
330
A2
102
}
330
A2
100
AcDbXrecord
280
     1
102
RTVSPropertyOp0
 70
     1
102
RTVSPropertyOp1
 70
     1
102
RTVSPropertyOp2
 70
     1
102
RTVSPropertyOp3
 70
     1
102
RTVSPropertyOp4
 70
     1
102
RTVSPropertyOp5
 70
     1
102
RTVSPropertyOp6
 70
     1
102
RTVSPropertyOp7
 70
     1
102
RTVSPropertyOp8
 70
     1
102
RTVSPropertyOp9
 70
     1
102
RTVSPropertyOp10
 70
     1
102
RTVSPropertyOp11
 70
     1
102
RTVSPropertyOp12
 70
     1
102
RTVSPropertyOp13
 70
     1
102
RTVSPropertyOp14
 70
     1
102
RTVSPropertyOp15
 70
     1
102
RTVSPropertyOp16
 70
     1
102
RTVSPropertyOp17
 70
     1
102
RTVSPropertyOp18
 70
     1
102
RTVSPropertyOp19
 70
     1
102
RTVSPropertyOp20
 70
     1
102
RTVSPropertyOp21
 70
     1
102
RTVSPropertyOp22
 70
     1
102
RTVSPropertyOp23
 70
     1
102
RTVSPropertyOp24
 70
     1
102
RTVSPropertyOp25
 70
     1
102
RTVSPropertyOp26
 70
     1
102
RTVSPropertyOp27
 70
     1
102
RTVSPropertyOp28
 70
     1
102
RTVSPropertyOp29
 70
     1
102
RTVSPropertyOp30
 70
     1
102
RTVSPropertyOp31
 70
     1
102
RTVSPropertyOp32
 70
     1
  0
XRECORD
  5
A5
102
{ACAD_REACTORS
330
A4
102
}
330
A4
100
AcDbXrecord
280
     1
102
RTVSPropertyOp0
 70
     1
102
RTVSPropertyOp1
 70
     1
102
RTVSPropertyOp2
 70
     1
102
RTVSPropertyOp3
 70
     1
102
RTVSPropertyOp4
 70
     1
102
RTVSPropertyOp5
 70
     1
102
RTVSPropertyOp6
 70
     1
102
RTVSPropertyOp7
 70
     1
102
RTVSPropertyOp8
 70
     1
102
RTVSPropertyOp9
 70
     1
102
RTVSPropertyOp10
 70
     1
102
RTVSPropertyOp11
 70
     1
102
RTVSPropertyOp12
 70
     1
102
RTVSPropertyOp13
 70
     1
102
RTVSPropertyOp14
 70
     1
102
RTVSPropertyOp15
 70
     1
102
RTVSPropertyOp16
 70
     1
102
RTVSPropertyOp17
 70
     1
102
RTVSPropertyOp18
 70
     1
102
RTVSPropertyOp19
 70
     1
102
RTVSPropertyOp20
 70
     1
102
RTVSPropertyOp21
 70
     1
102
RTVSPropertyOp22
 70
     1
102
RTVSPropertyOp23
 70
     1
102
RTVSPropertyOp24
 70
     1
102
RTVSPropertyOp25
 70
     1
102
RTVSPropertyOp26
 70
     1
102
RTVSPropertyOp27
 70
     1
102
RTVSPropertyOp28
 70
     1
102
RTVSPropertyOp29
 70
     1
102
RTVSPropertyOp30
 70
     1
102
RTVSPropertyOp31
 70
     1
102
RTVSPropertyOp32
 70
     1
  0
XRECORD
  5
AD
102
{ACAD_REACTORS
330
AC
102
}
330
AC
100
AcDbXrecord
280
     1
102
RTVSPropertyOp0
 70
     1
102
RTVSPropertyOp1
 70
     1
102
RTVSPropertyOp2
 70
     1
102
RTVSPropertyOp3
 70
     1
102
RTVSPropertyOp4
 70
     1
102
RTVSPropertyOp5
 70
     1
102
RTVSPropertyOp6
 70
     1
102
RTVSPropertyOp7
 70
     1
102
RTVSPropertyOp8
 70
     1
102
RTVSPropertyOp9
 70
     1
102
RTVSPropertyOp10
 70
     1
102
RTVSPropertyOp11
 70
     1
102
RTVSPropertyOp12
 70
     1
102
RTVSPropertyOp13
 70
     1
102
RTVSPropertyOp14
 70
     1
102
RTVSPropertyOp15
 70
     1
102
RTVSPropertyOp16
 70
     1
102
RTVSPropertyOp17
 70
     1
102
RTVSPropertyOp18
 70
     1
102
RTVSPropertyOp19
 70
     1
102
RTVSPropertyOp20
 70
     1
102
RTVSPropertyOp21
 70
     1
102
RTVSPropertyOp22
 70
     1
102
RTVSPropertyOp23
 70
     1
102
RTVSPropertyOp24
 70
     1
102
RTVSPropertyOp25
 70
     1
102
RTVSPropertyOp26
 70
     1
102
RTVSPropertyOp27
 70
     1
102
RTVSPropertyOp28
 70
     1
102
RTVSPropertyOp29
 70
     1
102
RTVSPropertyOp30
 70
     1
102
RTVSPropertyOp31
 70
     1
102
RTVSPropertyOp32
 70
     1
  0
XRECORD
  5
91
102
{ACAD_REACTORS
330
90
102
}
330
90
100
AcDbXrecord
280
     1
102
RTVSPropertyOp0
 70
     1
102
RTVSPropertyOp1
 70
     1
102
RTVSPropertyOp2
 70
     1
102
RTVSPropertyOp3
 70
     1
102
RTVSPropertyOp4
 70
     1
102
RTVSPropertyOp5
 70
     1
102
RTVSPropertyOp6
 70
     1
102
RTVSPropertyOp7
 70
     1
102
RTVSPropertyOp8
 70
     1
102
RTVSPropertyOp9
 70
     1
102
RTVSPropertyOp10
 70
     1
102
RTVSPropertyOp11
 70
     1
102
RTVSPropertyOp12
 70
     1
102
RTVSPropertyOp13
 70
     1
102
RTVSPropertyOp14
 70
     1
102
RTVSPropertyOp15
 70
     1
102
RTVSPropertyOp16
 70
     1
102
RTVSPropertyOp17
 70
     1
102
RTVSPropertyOp18
 70
     1
102
RTVSPropertyOp19
 70
     1
102
RTVSPropertyOp20
 70
     1
102
RTVSPropertyOp21
 70
     1
102
RTVSPropertyOp22
 70
     1
102
RTVSPropertyOp23
 70
     1
102
RTVSPropertyOp24
 70
     1
102
RTVSPropertyOp25
 70
     1
102
RTVSPropertyOp26
 70
     1
102
RTVSPropertyOp27
 70
     1
102
RTVSPropertyOp28
 70
     1
102
RTVSPropertyOp29
 70
     1
102
RTVSPropertyOp30
 70
     1
102
RTVSPropertyOp31
 70
     1
102
RTVSPropertyOp32
 70
     1
  0
XRECORD
  5
93
102
{ACAD_REACTORS
330
92
102
}
330
92
100
AcDbXrecord
280
     1
102
RTVSPropertyOp0
 70
     1
102
RTVSPropertyOp1
 70
     1
102
RTVSPropertyOp2
 70
     1
102
RTVSPropertyOp3
 70
     1
102
RTVSPropertyOp4
 70
     1
102
RTVSPropertyOp5
 70
     1
102
RTVSPropertyOp6
 70
     1
102
RTVSPropertyOp7
 70
     1
102
RTVSPropertyOp8
 70
     1
102
RTVSPropertyOp9
 70
     1
102
RTVSPropertyOp10
 70
     1
102
RTVSPropertyOp11
 70
     1
102
RTVSPropertyOp12
 70
     1
102
RTVSPropertyOp13
 70
     1
102
RTVSPropertyOp14
 70
     1
102
RTVSPropertyOp15
 70
     1
102
RTVSPropertyOp16
 70
     1
102
RTVSPropertyOp17
 70
     1
102
RTVSPropertyOp18
 70
     1
102
RTVSPropertyOp19
 70
     1
102
RTVSPropertyOp20
 70
     1
102
RTVSPropertyOp21
 70
     1
102
RTVSPropertyOp22
 70
     1
102
RTVSPropertyOp23
 70
     1
102
RTVSPropertyOp24
 70
     1
102
RTVSPropertyOp25
 70
     1
102
RTVSPropertyOp26
 70
     1
102
RTVSPropertyOp27
 70
     1
102
RTVSPropertyOp28
 70
     1
102
RTVSPropertyOp29
 70
     1
102
RTVSPropertyOp30
 70
     1
102
RTVSPropertyOp31
 70
     1
102
RTVSPropertyOp32
 70
     1
  0
XRECORD
  5
95
102
{ACAD_REACTORS
330
94
102
}
330
94
100
AcDbXrecord
280
     1
102
RTVSPropertyOp0
 70
     1
102
RTVSPropertyOp1
 70
     1
102
RTVSPropertyOp2
 70
     1
102
RTVSPropertyOp3
 70
     1
102
RTVSPropertyOp4
 70
     1
102
RTVSPropertyOp5
 70
     1
102
RTVSPropertyOp6
 70
     1
102
RTVSPropertyOp7
 70
     1
102
RTVSPropertyOp8
 70
     1
102
RTVSPropertyOp9
 70
     1
102
RTVSPropertyOp10
 70
     1
102
RTVSPropertyOp11
 70
     1
102
RTVSPropertyOp12
 70
     1
102
RTVSPropertyOp13
 70
     1
102
RTVSPropertyOp14
 70
     1
102
RTVSPropertyOp15
 70
     1
102
RTVSPropertyOp16
 70
     1
102
RTVSPropertyOp17
 70
     1
102
RTVSPropertyOp18
 70
     1
102
RTVSPropertyOp19
 70
     1
102
RTVSPropertyOp20
 70
     1
102
RTVSPropertyOp21
 70
     1
102
RTVSPropertyOp22
 70
     1
102
RTVSPropertyOp23
 70
     1
102
RTVSPropertyOp24
 70
     1
102
RTVSPropertyOp25
 70
     1
102
RTVSPropertyOp26
 70
     1
102
RTVSPropertyOp27
 70
     1
102
RTVSPropertyOp28
 70
     1
102
RTVSPropertyOp29
 70
     1
102
RTVSPropertyOp30
 70
     1
102
RTVSPropertyOp31
 70
     1
102
RTVSPropertyOp32
 70
     1
  0
XRECORD
  5
97
102
{ACAD_REACTORS
330
96
102
}
330
96
100
AcDbXrecord
280
     1
102
RTVSPropertyOp0
 70
     1
102
RTVSPropertyOp1
 70
     1
102
RTVSPropertyOp2
 70
     1
102
RTVSPropertyOp3
 70
     1
102
RTVSPropertyOp4
 70
     1
102
RTVSPropertyOp5
 70
     1
102
RTVSPropertyOp6
 70
     1
102
RTVSPropertyOp7
 70
     1
102
RTVSPropertyOp8
 70
     1
102
RTVSPropertyOp9
 70
     1
102
RTVSPropertyOp10
 70
     1
102
RTVSPropertyOp11
 70
     1
102
RTVSPropertyOp12
 70
     1
102
RTVSPropertyOp13
 70
     1
102
RTVSPropertyOp14
 70
     1
102
RTVSPropertyOp15
 70
     1
102
RTVSPropertyOp16
 70
     1
102
RTVSPropertyOp17
 70
     1
102
RTVSPropertyOp18
 70
     1
102
RTVSPropertyOp19
 70
     1
102
RTVSPropertyOp20
 70
     1
102
RTVSPropertyOp21
 70
     1
102
RTVSPropertyOp22
 70
     1
102
RTVSPropertyOp23
 70
     1
102
RTVSPropertyOp24
 70
     1
102
RTVSPropertyOp25
 70
     1
102
RTVSPropertyOp26
 70
     1
102
RTVSPropertyOp27
 70
     1
102
RTVSPropertyOp28
 70
     1
102
RTVSPropertyOp29
 70
     1
102
RTVSPropertyOp30
 70
     1
102
RTVSPropertyOp31
 70
     1
102
RTVSPropertyOp32
 70
     1
  0
XRECORD
  5
AB
102
{ACAD_REACTORS
330
AA
102
}
330
AA
100
AcDbXrecord
280
     1
102
RTVSPropertyOp0
 70
     1
102
RTVSPropertyOp1
 70
     1
102
RTVSPropertyOp2
 70
     1
102
RTVSPropertyOp3
 70
     1
102
RTVSPropertyOp4
 70
     1
102
RTVSPropertyOp5
 70
     1
102
RTVSPropertyOp6
 70
     1
102
RTVSPropertyOp7
 70
     1
102
RTVSPropertyOp8
 70
     1
102
RTVSPropertyOp9
 70
     1
102
RTVSPropertyOp10
 70
     1
102
RTVSPropertyOp11
 70
     1
102
RTVSPropertyOp12
 70
     1
102
RTVSPropertyOp13
 70
     1
102
RTVSPropertyOp14
 70
     1
102
RTVSPropertyOp15
 70
     1
102
RTVSPropertyOp16
 70
     1
102
RTVSPropertyOp17
 70
     1
102
RTVSPropertyOp18
 70
     1
102
RTVSPropertyOp19
 70
     1
102
RTVSPropertyOp20
 70
     1
102
RTVSPropertyOp21
 70
     1
102
RTVSPropertyOp22
 70
     1
102
RTVSPropertyOp23
 70
     1
102
RTVSPropertyOp24
 70
     1
102
RTVSPropertyOp25
 70
     1
102
RTVSPropertyOp26
 70
     1
102
RTVSPropertyOp27
 70
     1
102
RTVSPropertyOp28
 70
     1
102
RTVSPropertyOp29
 70
     1
102
RTVSPropertyOp30
 70
     1
102
RTVSPropertyOp31
 70
     1
102
RTVSPropertyOp32
 70
     1
  0
XRECORD
  5
A1
102
{ACAD_REACTORS
330
A0
102
}
330
A0
100
AcDbXrecord
280
     1
102
RTVSPropertyOp0
 70
     1
102
RTVSPropertyOp1
 70
     1
102
RTVSPropertyOp2
 70
     1
102
RTVSPropertyOp3
 70
     1
102
RTVSPropertyOp4
 70
     1
102
RTVSPropertyOp5
 70
     1
102
RTVSPropertyOp6
 70
     1
102
RTVSPropertyOp7
 70
     1
102
RTVSPropertyOp8
 70
     1
102
RTVSPropertyOp9
 70
     1
102
RTVSPropertyOp10
 70
     1
102
RTVSPropertyOp11
 70
     1
102
RTVSPropertyOp12
 70
     1
102
RTVSPropertyOp13
 70
     1
102
RTVSPropertyOp14
 70
     1
102
RTVSPropertyOp15
 70
     1
102
RTVSPropertyOp16
 70
     1
102
RTVSPropertyOp17
 70
     1
102
RTVSPropertyOp18
 70
     1
102
RTVSPropertyOp19
 70
     1
102
RTVSPropertyOp20
 70
     1
102
RTVSPropertyOp21
 70
     1
102
RTVSPropertyOp22
 70
     1
102
RTVSPropertyOp23
 70
     1
102
RTVSPropertyOp24
 70
     1
102
RTVSPropertyOp25
 70
     1
102
RTVSPropertyOp26
 70
     1
102
RTVSPropertyOp27
 70
     1
102
RTVSPropertyOp28
 70
     1
102
RTVSPropertyOp29
 70
     1
102
RTVSPropertyOp30
 70
     1
102
RTVSPropertyOp31
 70
     1
102
RTVSPropertyOp32
 70
     1
  0
XRECORD
  5
A9
102
{ACAD_REACTORS
330
A8
102
}
330
A8
100
AcDbXrecord
280
     1
102
RTVSPropertyOp0
 70
     1
102
RTVSPropertyOp1
 70
     1
102
RTVSPropertyOp2
 70
     1
102
RTVSPropertyOp3
 70
     1
102
RTVSPropertyOp4
 70
     1
102
RTVSPropertyOp5
 70
     1
102
RTVSPropertyOp6
 70
     1
102
RTVSPropertyOp7
 70
     1
102
RTVSPropertyOp8
 70
     1
102
RTVSPropertyOp9
 70
     1
102
RTVSPropertyOp10
 70
     1
102
RTVSPropertyOp11
 70
     1
102
RTVSPropertyOp12
 70
     1
102
RTVSPropertyOp13
 70
     1
102
RTVSPropertyOp14
 70
     1
102
RTVSPropertyOp15
 70
     1
102
RTVSPropertyOp16
 70
     1
102
RTVSPropertyOp17
 70
     1
102
RTVSPropertyOp18
 70
     1
102
RTVSPropertyOp19
 70
     1
102
RTVSPropertyOp20
 70
     1
102
RTVSPropertyOp21
 70
     1
102
RTVSPropertyOp22
 70
     1
102
RTVSPropertyOp23
 70
     1
102
RTVSPropertyOp24
 70
     1
102
RTVSPropertyOp25
 70
     1
102
RTVSPropertyOp26
 70
     1
102
RTVSPropertyOp27
 70
     1
102
RTVSPropertyOp28
 70
     1
102
RTVSPropertyOp29
 70
     1
102
RTVSPropertyOp30
 70
     1
102
RTVSPropertyOp31
 70
     1
102
RTVSPropertyOp32
 70
     1
  0
ENDSEC
  0
EOF
