  0
SECTION
  2
HEADER
  9
$ACADVER
  1
AC1018
  9
$ACADMAINTVER
 70
   104
  9
$DWGCODEPAGE
  3
ANSI_1252
  9
$LASTSAVEDBY
  1
Administrator
  9
$CUSTOMPROPERTYTAG
  1
AmdtFileType
  9
$CUSTOMPROPERTY
  1
84
  9
$INSBASE
 10
0.0
 20
0.0
 30
0.0
  9
$EXTMIN
 10
-315.0605349096358
 20
-489.6281392760211
 30
0.0
  9
$EXTMAX
 10
314.9394650903641
 20
10.98849279289583
 30
0.0
  9
$LIMMIN
 10
0.0
 20
0.0
  9
$LIMMAX
 10
420.0
 20
297.0
  9
$ORTHOMODE
 70
     0
  9
$REGENMODE
 70
     1
  9
$FILLMODE
 70
     1
  9
$QTEXTMODE
 70
     0
  9
$MIRRTEXT
 70
     1
  9
$LTSCALE
 40
1.0
  9
$ATTMODE
 70
     1
  9
$TEXTSIZE
 40
2.5
  9
$TRACEWID
 40
1.0
  9
$TEXTSTYLE
  7
STANDARD
  9
$CLAYER
  8
0
  9
$CELTYPE
  6
ByLayer
  9
$CECOLOR
 62
   256
  9
$CELTSCALE
 40
1.0
  9
$DISPSILH
 70
     0
  9
$DIMSCALE
 40
1.0
  9
$DIMASZ
 40
3.5
  9
$DIMEXO
 40
1.0
  9
$DIMDLI
 40
10.0
  9
$DIMRND
 40
0.0
  9
$DIMDLE
 40
0.0
  9
$DIMEXE
 40
1.0
  9
$DIMTP
 40
0.1
  9
$DIMTM
 40
0.1
  9
$DIMTXT
 40
3.5
  9
$DIMCEN
 40
0.0
  9
$DIMTSZ
 40
0.0
  9
$DIMTOL
 70
     0
  9
$DIMLIM
 70
     0
  9
$DIMTIH
 70
     0
  9
$DIMTOH
 70
     0
  9
$DIMSE1
 70
     0
  9
$DIMSE2
 70
     0
  9
$DIMTAD
 70
     1
  9
$DIMZIN
 70
     8
  9
$DIMBLK
  1

  9
$DIMASO
 70
     1
  9
$DIMSHO
 70
     1
  9
$DIMPOST
  1

  9
$DIMAPOST
  1
"
  9
$DIMALT
 70
     0
  9
$DIMALTD
 70
     2
  9
$DIMALTF
 40
0.0393701
  9
$DIMLFAC
 40
1.0
  9
$DIMTOFL
 70
     1
  9
$DIMTVP
 40
0.0
  9
$DIMTIX
 70
     0
  9
$DIMSOXD
 70
     0
  9
$DIMSAH
 70
     0
  9
$DIMBLK1
  1

  9
$DIMBLK2
  1

  9
$DIMSTYLE
  2
AM_DIN
  9
$DIMCLRD
 70
   256
  9
$DIMCLRE
 70
   256
  9
$DIMCLRT
 70
   140
  9
$DIMTFAC
 40
0.71
  9
$DIMGAP
 40
1.5
  9
$DIMJUST
 70
     0
  9
$DIMSD1
 70
     0
  9
$DIMSD2
 70
     0
  9
$DIMTOLJ
 70
     0
  9
$DIMTZIN
 70
     8
  9
$DIMALTZ
 70
     0
  9
$DIMALTTZ
 70
     0
  9
$DIMUPT
 70
     0
  9
$DIMDEC
 70
     2
  9
$DIMTDEC
 70
     3
  9
$DIMALTU
 70
     2
  9
$DIMALTTD
 70
     4
  9
$DIMTXSTY
  7
STANDARD
  9
$DIMAUNIT
 70
     0
  9
$DIMADEC
 70
     0
  9
$DIMALTRND
 40
0.0
  9
$DIMAZIN
 70
     2
  9
$DIMDSEP
 70
    46
  9
$DIMATFIT
 70
     3
  9
$DIMFRAC
 70
     0
  9
$DIMLDRBLK
  1

  9
$DIMLUNIT
 70
     2
  9
$DIMLWD
 70
    -1
  9
$DIMLWE
 70
    -1
  9
$DIMTMOVE
 70
     0
  9
$LUNITS
 70
     2
  9
$LUPREC
 70
     2
  9
$SKETCHINC
 40
1.0
  9
$FILLETRAD
 40
0.0
  9
$AUNITS
 70
     0
  9
$AUPREC
 70
     0
  9
$MENU
  1
.
  9
$ELEVATION
 40
0.0
  9
$PELEVATION
 40
0.0
  9
$THICKNESS
 40
0.0
  9
$LIMCHECK
 70
     0
  9
$CHAMFERA
 40
2.5
  9
$CHAMFERB
 40
2.5
  9
$CHAMFERC
 40
20.0
  9
$CHAMFERD
 40
0.0
  9
$SKPOLY
 70
     0
  9
$TDCREATE
 40
2453918.262673241
  9
$TDUCREATE
 40
2453918.179339908
  9
$TDUPDATE
 40
2457548.603450290
  9
$TDUUPDATE
 40
2457548.520116956
  9
$TDINDWG
 40
1.2054609491
  9
$TDUSRTIMER
 40
1.2054567940
  9
$USRTIMER
 70
     1
  9
$ANGBASE
 50
0.0
  9
$ANGDIR
 70
     0
  9
$PDMODE
 70
     0
  9
$PDSIZE
 40
0.0
  9
$PLINEWID
 40
0.0
  9
$SPLFRAME
 70
     0
  9
$SPLINETYPE
 70
     6
  9
$SPLINESEGS
 70
     8
  9
$HANDSEED
  5
5A2E
  9
$SURFTAB1
 70
     6
  9
$SURFTAB2
 70
     6
  9
$SURFTYPE
 70
     6
  9
$SURFU
 70
     6
  9
$SURFV
 70
     6
  9
$UCSBASE
  2

  9
$UCSNAME
  2

  9
$UCSORG
 10
0.0
 20
0.0
 30
0.0
  9
$UCSXDIR
 10
1.0
 20
0.0
 30
0.0
  9
$UCSYDIR
 10
0.0
 20
1.0
 30
0.0
  9
$UCSORTHOREF
  2

  9
$UCSORTHOVIEW
 70
     0
  9
$UCSORGTOP
 10
0.0
 20
0.0
 30
0.0
  9
$UCSORGBOTTOM
 10
0.0
 20
0.0
 30
0.0
  9
$UCSORGLEFT
 10
0.0
 20
0.0
 30
0.0
  9
$UCSORGRIGHT
 10
0.0
 20
0.0
 30
0.0
  9
$UCSORGFRONT
 10
0.0
 20
0.0
 30
0.0
  9
$UCSORGBACK
 10
0.0
 20
0.0
 30
0.0
  9
$PUCSBASE
  2

  9
$PUCSNAME
  2

  9
$PUCSORG
 10
0.0
 20
0.0
 30
0.0
  9
$PUCSXDIR
 10
1.0
 20
0.0
 30
0.0
  9
$PUCSYDIR
 10
0.0
 20
1.0
 30
0.0
  9
$PUCSORTHOREF
  2

  9
$PUCSORTHOVIEW
 70
     0
  9
$PUCSORGTOP
 10
0.0
 20
0.0
 30
0.0
  9
$PUCSORGBOTTOM
 10
0.0
 20
0.0
 30
0.0
  9
$PUCSORGLEFT
 10
0.0
 20
0.0
 30
0.0
  9
$PUCSORGRIGHT
 10
0.0
 20
0.0
 30
0.0
  9
$PUCSORGFRONT
 10
0.0
 20
0.0
 30
0.0
  9
$PUCSORGBACK
 10
0.0
 20
0.0
 30
0.0
  9
$USERI1
 70
     0
  9
$USERI2
 70
     0
  9
$USERI3
 70
     0
  9
$USERI4
 70
     0
  9
$USERI5
 70
     0
  9
$USERR1
 40
0.0
  9
$USERR2
 40
0.0
  9
$USERR3
 40
0.0
  9
$USERR4
 40
0.0
  9
$USERR5
 40
0.0
  9
$WORLDVIEW
 70
     1
  9
$SHADEDGE
 70
     3
  9
$SHADEDIF
 70
    70
  9
$TILEMODE
 70
     1
  9
$MAXACTVP
 70
    64
  9
$PINSBASE
 10
0.0
 20
0.0
 30
0.0
  9
$PLIMCHECK
 70
     0
  9
$PEXTMIN
 10
1.000000000000000E+20
 20
1.000000000000000E+20
 30
1.000000000000000E+20
  9
$PEXTMAX
 10
-1.000000000000000E+20
 20
-1.000000000000000E+20
 30
-1.000000000000000E+20
  9
$PLIMMIN
 10
0.0
 20
0.0
  9
$PLIMMAX
 10
420.0
 20
297.0
  9
$UNITMODE
 70
     0
  9
$VISRETAIN
 70
     1
  9
$PLINEGEN
 70
     0
  9
$PSLTSCALE
 70
     1
  9
$TREEDEPTH
 70
  3020
  9
$CMLSTYLE
  2
Standard
  9
$CMLJUST
 70
     0
  9
$CMLSCALE
 40
20.0
  9
$PROXYGRAPHICS
 70
     1
  9
$MEASUREMENT
 70
     1
  9
$CELWEIGHT
370
    -1
  9
$ENDCAPS
280
     0
  9
$JOINSTYLE
280
     0
  9
$LWDISPLAY
290
     0
  9
$INSUNITS
 70
     4
  9
$HYPERLINKBASE
  1

  9
$STYLESHEET
  1

  9
$XEDIT
290
     1
  9
$CEPSNTYPE
380
     0
  9
$PSTYLEMODE
290
     1
  9
$FINGERPRINTGUID
  2
{E66C8CC1-E66B-408F-9010-06FD783B68A0}
  9
$VERSIONGUID
  2
{5F6DDF15-16F0-410B-ACBA-4AC70ABDD05F}
  9
$EXTNAMES
290
     1
  9
$PSVPSCALE
 40
0.0
  9
$OLESTARTUP
290
     0
  9
$SORTENTS
280
   127
  9
$INDEXCTL
280
     0
  9
$HIDETEXT
280
     1
  9
$XCLIPFRAME
290
     0
  9
$HALOGAP
280
     0
  9
$OBSCOLOR
 70
   257
  9
$OBSLTYPE
280
     0
  9
$INTERSECTIONDISPLAY
280
     0
  9
$INTERSECTIONCOLOR
 70
   257
  9
$DIMASSOC
280
     2
  9
$PROJECTNAME
  1

  0
ENDSEC
  0
SECTION
  2
CLASSES
  0
CLASS
  1
ACDBDICTIONARYWDFLT
  2
AcDbDictionaryWithDefault
  3
ObjectDBX Classes
 90
        0
 91
        1
280
     0
281
     0
  0
CLASS
  1
ACME_DOCUMENT
  2
AcMeDbDoc
  3
AcMeServices
 90
     1024
 91
        2
280
     0
281
     0
  0
CLASS
  1
ACMESCOPE
  2
AcMeScope
  3
AcMeServices
 90
     1024
 91
        1
280
     0
281
     0
  0
CLASS
  1
ACMECOMMANDHISTORY
  2
AcMeCommandHistory
  3
AcMeServices
 90
     1024
 91
        1
280
     0
281
     0
  0
CLASS
  1
ACIMSYSVARMAN
  2
AcImSysVarManager
  3
AcMeServices
 90
     1024
 91
        4
280
     0
281
     0
  0
CLASS
  1
ACIMREALSYSVAR
  2
AcImRealSysVar
  3
AcMeServices
 90
     1024
 91
        1
280
     0
281
     0
  0
CLASS
  1
ACIMINTSYSVAR
  2
AcImIntSysVar
  3
AcMeServices
 90
     1024
 91
       27
280
     0
281
     0
  0
CLASS
  1
ACMEDRAWINGMAN
  2
AcMeDrawingMan
  3
AcMeServices
 90
     1024
 91
        0
280
     0
281
     0
  0
CLASS
  1
ACMEVIEW
  2
AcMeView
  3
AcMeServices
 90
     1024
 91
        0
280
     0
281
     0
  0
CLASS
  1
ACDBENTITYCACHE
  2
AcMeEntityCache
  3
AcMeServices
 90
     1024
 91
        1
280
     0
281
     0
  0
CLASS
  1
GSMANAGER
  2
AcMeGSManager
  3
AcMeServices
 90
     1024
 91
        0
280
     0
281
     0
  0
CLASS
  1
AMDTINTERNALREACTOR
  2
AmdtInternalReactor
  3
AcMeServices
 90
     1024
 91
        1
280
     0
281
     0
  0
CLASS
  1
ACMESTATEMGR
  2
AcMeStateMgr
  3
AcMeServices
 90
     1024
 91
        1
280
     0
281
     0
  0
CLASS
  1
ACGREFMASTER
  2
AcGrefMaster
  3
AcAttribServices
 90
     1024
 91
        1
280
     0
281
     0
  0
CLASS
  1
ACME_DATABASE
  2
AcMeDbDatabase
  3
AcMeServices
 90
     1024
 91
        3
280
     0
281
     0
  0
CLASS
  1
ACRFINSADJUSTERMGR
  2
AcRfInsAdjusterMgr
  3
AcMeServices
 90
     1024
 91
        1
280
     0
281
     0
  0
CLASS
  1
ACGREFACADMASTER
  2
AcGrefacadMaster
  3
AcGrefServices
 90
     1024
 91
        1
280
     0
281
     0
  0
CLASS
  1
AMIMASTER
  2
AmiMaster
  3
AmiServices
 90
     1024
 91
        1
280
     0
281
     0
  0
CLASS
  1
AMGSETTINGSOBJ
  2
AmgSettingsObj
  3
"AcadM|Product Description: AutoCAD Mechanical|Company: Autodesk, Inc."
 90
     1024
 91
        2
280
     0
281
     0
  0
CLASS
  1
ACMDATADICTIONARY
  2
AcmDataDictionary
  3
"AcmSymBB|Product Description: AutoCAD Mechanical|Company: Autodesk, Inc."
 90
     1024
 91
        1
280
     0
281
     0
  0
CLASS
  1
ACMDATAENTRYBLOCK
  2
AcmDataEntryBlock
  3
AcmSymBB|Product Description: AutoCAD Mechanical|Company: Autodesk, Inc.
 90
     1024
 91
        0
280
     0
281
     0
  0
CLASS
  1
ACIMSTRSYSVAR
  2
AcImStrSysVar
  3
AcMeServices
 90
     1024
 91
        5
280
     0
281
     0
  0
CLASS
  1
ACMSTANDARDDIN
  2
AcmStandardDIN
  3
"Amdt_StdImp|Product Description: AutoCAD Mechanical|Company: Autodesk, Inc."
 90
     1024
 91
        1
280
     0
281
     0
  0
CLASS
  1
AMGOBJPROPCFG
  2
AmgObjPropCfg
  3
"AmgLay|Product Description: AutoCAD Mechanical|Company: Autodesk, Inc."
 90
     1025
 91
        1
280
     0
281
     0
  0
CLASS
  1
AMDTEDGESTANDARDDIN
  2
AmdtEdgeStdDIN
  3
"Amdt_StdImp|Product Description: AutoCAD Mechanical|Company: Autodesk, Inc."
 90
     1024
 91
        0
280
     0
281
     0
  0
CLASS
  1
ACMSURFSTANDARDDIN
  2
AcmSurfTextStdDIN
  3
"Amdt_StdImp|Product Description: AutoCAD Mechanical|Company: Autodesk, Inc."
 90
     1024
 91
        0
280
     0
281
     0
  0
CLASS
  1
ACMFCFSTANDARDDIN
  2
AcmFCFStdDIN
  3
"Amdt_StdImp|Product Description: AutoCAD Mechanical|Company: Autodesk, Inc."
 90
     1024
 91
        1
280
     0
281
     0
  0
CLASS
  1
ACMWELDSTANDARDDIN
  2
AcmWeldingStdDIN
  3
"Amdt_StdImp|Product Description: AutoCAD Mechanical|Company: Autodesk, Inc."
 90
     1024
 91
        1
280
     0
281
     0
  0
CLASS
  1
ACMIDSTANDARDDIN
  2
AcmIdStdDIN
  3
"Amdt_StdImp|Product Description: AutoCAD Mechanical|Company: Autodesk, Inc."
 90
     1024
 91
        1
280
     0
281
     0
  0
CLASS
  1
ACMDATUMSTANDARDDIN
  2
AcmDatumStdDIN
  3
"Amdt_StdImp|Product Description: AutoCAD Mechanical|Company: Autodesk, Inc."
 90
     1024
 91
        1
280
     0
281
     0
  0
CLASS
  1
ACMBOMSTANDARDDIN
  2
AcmBOMStdDIN
  3
"Amdt_StdImp|Product Description: AutoCAD Mechanical|Company: Autodesk, Inc."
 90
     1024
 91
        1
280
     0
281
     0
  0
CLASS
  1
ACMDETAILSTANDARDDIN
  2
AmdtDetailSymStdDIN
  3
"Amdt_StdImp|Product Description: AutoCAD Mechanical|Company: Autodesk, Inc."
 90
     1024
 91
        1
280
     0
281
     0
  0
CLASS
  1
ACMSECTIONSTANDARDDIN
  2
AmdtSectionSymStdDIN
  3
"Amdt_StdImp|Product Description: AutoCAD Mechanical|Company: Autodesk, Inc."
 90
     1024
 91
        1
280
     0
281
     0
  0
CLASS
  1
ACMCENTERLINESTANDARDDIN
  2
AmdtCenterLineStdDIN
  3
"Amdt_StdImp|Product Description: AutoCAD Mechanical|Company: Autodesk, Inc."
 90
     1024
 91
        1
280
     0
281
     0
  0
CLASS
  1
ACMNOTESTANDARDDIN
  2
AmdtNoteStdDIN
  3
"Amdt_StdImp|Product Description: AutoCAD Mechanical|Company: Autodesk, Inc."
 90
     1024
 91
        1
280
     0
281
     0
  0
CLASS
  1
ACAMGLAYSTD
  2
AcAmgLayStd
  3
"AmgLay|Product Description: AutoCAD Mechanical|Company: Autodesk, Inc."
 90
     1024
 91
        1
280
     0
281
     0
  0
CLASS
  1
ACAMGDIMSTD
  2
AcAmgDimStd
  3
"AmgDim|Product Description: AutoCAD Mechanical|Company: Autodesk, Inc."
 90
     1024
 91
        1
280
     0
281
     0
  0
CLASS
  1
ACAMGHOLECHARTSTDDIN
  2
AcAmgHoleChartStdDIN
  3
AmgDim|Product Description: AutoCAD Mechanical|Company: Autodesk, Inc.
 90
     1024
 91
        1
280
     0
281
     0
  0
CLASS
  1
ACAMGTITLESTD
  2
AcAmgTitleStd
  3
"AmgTitle|Product Description: AutoCAD Mechanical|Company: Autodesk, Inc."
 90
     4095
 91
        1
280
     0
281
     0
  0
CLASS
  1
LAYER_INDEX
  2
AcDbLayerIndex
  3
ObjectDBX Classes
 90
        0
 91
        0
280
     0
281
     0
  0
CLASS
  1
IDBUFFER
  2
AcDbIdBuffer
  3
ObjectDBX Classes
 90
        0
 91
        0
280
     0
281
     0
  0
CLASS
  1
DICTIONARYVAR
  2
AcDbDictionaryVar
  3
ObjectDBX Classes
 90
        0
 91
       10
280
     0
281
     0
  0
CLASS
  1
ACAMGFILTERDAT
  2
AcAmgFilterDat
  3
"AcadM|Product Description: AutoCAD Mechanical|Company: Autodesk, Inc."
 90
     1024
 91
        0
280
     0
281
     0
  0
CLASS
  1
ACMSTANDARDANSI
  2
AcmStandardANSI
  3
"Amdt_StdImp|Product Description: AutoCAD Mechanical|Company: Autodesk, Inc."
 90
     1024
 91
        0
280
     0
281
     0
  0
CLASS
  1
ACMSURFSTANDARDANSI
  2
AcmSurfTextStdANSI
  3
"Amdt_StdImp|Product Description: AutoCAD Mechanical|Company: Autodesk, Inc."
 90
     1024
 91
        0
280
     0
281
     0
  0
CLASS
  1
ACMFCFSTANDARDANSI
  2
AcmFCFStdANSI
  3
"Amdt_StdImp|Product Description: AutoCAD Mechanical|Company: Autodesk, Inc."
 90
     1024
 91
        0
280
     0
281
     0
  0
CLASS
  1
ACMWELDSTANDARDANSI
  2
AcmWeldingStdANSI
  3
"Amdt_StdImp|Product Description: AutoCAD Mechanical|Company: Autodesk, Inc."
 90
     1024
 91
        0
280
     0
281
     0
  0
CLASS
  1
ACMIDSTANDARDANSI
  2
AcmIdStdANSI
  3
"Amdt_StdImp|Product Description: AutoCAD Mechanical|Company: Autodesk, Inc."
 90
     1024
 91
        0
280
     0
281
     0
  0
CLASS
  1
ACMDATUMSTANDARDANSI
  2
AcmDatumStdANSI
  3
"Amdt_StdImp|Product Description: AutoCAD Mechanical|Company: Autodesk, Inc."
 90
     1024
 91
        0
280
     0
281
     0
  0
CLASS
  1
ACMBOMSTANDARDANSI
  2
AcmBOMStdANSI
  3
"Amdt_StdImp|Product Description: AutoCAD Mechanical|Company: Autodesk, Inc."
 90
     1024
 91
        0
280
     0
281
     0
  0
CLASS
  1
ACMDETAILSTANDARDANSI
  2
AmdtDetailSymStdANSI
  3
"Amdt_StdImp|Product Description: AutoCAD Mechanical|Company: Autodesk, Inc."
 90
     1024
 91
        0
280
     0
281
     0
  0
CLASS
  1
ACMSECTIONSTANDARDANSI
  2
AmdtSectionSymStdANSI
  3
"Amdt_StdImp|Product Description: AutoCAD Mechanical|Company: Autodesk, Inc."
 90
     1024
 91
        0
280
     0
281
     0
  0
CLASS
  1
ACMCENTERLINESTANDARDANSI
  2
AmdtCenterLineStdANSI
  3
"Amdt_StdImp|Product Description: AutoCAD Mechanical|Company: Autodesk, Inc."
 90
     1024
 91
        0
280
     0
281
     0
  0
CLASS
  1
ACMNOTESTANDARDANSI
  2
AmdtNoteStdANSI
  3
"Amdt_StdImp|Product Description: AutoCAD Mechanical|Company: Autodesk, Inc."
 90
     1024
 91
        0
280
     0
281
     0
  0
CLASS
  1
ACAMGHOLECHARTSTDANSI
  2
AcAmgHoleChartStdANSI
  3
AmgDim|Product Description: AutoCAD Mechanical|Company: Autodesk, Inc.
 90
     1024
 91
        0
280
     0
281
     0
  0
CLASS
  1
AMDTFORMULAUPDATEDISPATCHER
  2
AmdtFormulaUpdateDispatcher
  3
AcMeServices
 90
     1024
 91
        0
280
     0
281
     0
  0
CLASS
  1
DIMASSOC
  2
AcDbDimAssoc
  3
"AcDbDimAssoc|Product Desc:     AcDim ARX App For Dimension|Company:          Autodesk, Inc.|WEB Address:      www.autodesk.com"
 90
        0
 91
        0
280
     0
281
     0
  0
CLASS
  1
MATERIAL
  2
AcDbMaterial
  3
ObjectDBX Classes
 90
     1153
 91
        3
280
     0
281
     0
  0
CLASS
  1
VISUALSTYLE
  2
AcDbVisualStyle
  3
ObjectDBX Classes
 90
     4095
 91
       26
280
     0
281
     0
  0
CLASS
  1
TABLESTYLE
  2
AcDbTableStyle
  3
ObjectDBX Classes
 90
     4095
 91
        1
280
     0
281
     0
  0
CLASS
  1
SCALE
  2
AcDbScale
  3
ObjectDBX Classes
 90
     1153
 91
       17
280
     0
281
     0
  0
CLASS
  1
MLEADERSTYLE
  2
AcDbMLeaderStyle
  3
ACDB_MLEADERSTYLE_CLASS
 90
     4095
 91
        1
280
     0
281
     0
  0
CLASS
  1
AM_DRAWING_MGR
  2
AcDmDwgMgr
  3
AcMechDwgViewMgmt
 90
     1024
 91
        1
280
     0
281
     0
  0
CLASS
  1
AM_DWG_DOCUMENT
  2
AcDmDwgDocument
  3
AcMechDwgViewMgmt
 90
     1024
 91
        1
280
     0
281
     0
  0
CLASS
  1
AM_DWG_SHEET
  2
AcDmSheet
  3
AcMechDwgViewMgmt
 90
     1024
 91
        2
280
     0
281
     0
  0
CLASS
  1
AM_VIEWDIMPARMAP
  2
AcDmViewDimParMap
  3
AcMechDwgViewMgmt
 90
     1024
 91
        2
280
     0
281
     0
  0
CLASS
  1
AM_DWGMGR_NAME
  2
AcDmDwgMgrName
  3
AcMechDwgViewMgmt
 90
     1024
 91
        1
280
     0
281
     0
  0
CLASS
  1
AMDTMENUSTATEMGR
  2
AmdtMenuStateMgr
  3
McadcomServices
 90
     1024
 91
        1
280
     0
281
     0
  0
CLASS
  1
AMDTMCOMMENUSTATE
  2
AmdtMcomMenuState
  3
McadcomServices
 90
     1024
 91
        1
280
     0
281
     0
  0
CLASS
  1
MAPIAMMOUDLE
  2
MApiAmModule
  3
MApiAmServices
 90
     1024
 91
        1
280
     0
281
     0
  0
CLASS
  1
AMDTADMENUSTATE
  2
AmdtAdMenuState
  3
DesignerServices
 90
     1024
 91
        0
280
     0
281
     0
  0
CLASS
  1
ADAPPL
  2
AcAdAppl
  3
DesignerAssemblies
 90
     1024
 91
        0
280
     0
281
     0
  0
CLASS
  1
DEPMGR
  2
AcAdDepMgr
  3
DesignerAssemblies
 90
     1024
 91
        0
280
     0
281
     0
  0
CLASS
  1
PARAMMGR
  2
AcAdParamMgr
  3
DesignerAssemblies
 90
     1024
 91
        0
280
     0
281
     0
  0
CLASS
  1
PARAMSCOPE
  2
AcAdParamScope
  3
DesignerAssemblies
 90
     1024
 91
        0
280
     0
281
     0
  0
CLASS
  1
NAMEDAPPL
  2
AcAdNamedAppl
  3
DesignerAssemblies
 90
     1024
 91
        0
280
     0
281
     0
  0
CLASS
  1
AMDTDMMENUSTATE
  2
AmdtDmMenuState
  3
AcMechDwgViewMgmt
 90
     1024
 91
        1
280
     0
281
     0
  0
CLASS
  1
AMDTAMMENUSTATE
  2
AmdtAmMenuState
  3
DesignerAssemblies
 90
     1024
 91
        1
280
     0
281
     0
  0
CLASS
  1
ACAMPROJECT
  2
AcAmProject
  3
DesignerAssemblies
 90
     1024
 91
        1
280
     0
281
     0
  0
CLASS
  1
ACAMGRCOMPDEF
  2
AcAmGrCompDef
  3
DesignerAssemblies
 90
     1024
 91
        1
280
     0
281
     0
  0
CLASS
  1
ACCMCONTEXT
  2
AcCmContext
  3
DesignerAssemblies
 90
     1024
 91
        0
280
     0
281
     0
  0
CLASS
  1
ACAMCOMPDEF
  2
AcAmCompDef
  3
DesignerAssemblies
 90
     1024
 91
        1
280
     0
281
     0
  0
CLASS
  1
ACAMCOMPDEFMGR
  2
AcAmCompDefMgr
  3
DesignerAssemblies
 90
     1024
 91
        1
280
     0
281
     0
  0
CLASS
  1
AMCONTEXTMGR
  2
AcAmContextMgr
  3
DesignerAssemblies
 90
     1024
 91
        1
280
     0
281
     0
  0
CLASS
  1
ACAMCONTEXTMODELER
  2
AcAmContextModeler
  3
DesignerAssemblies
 90
     1024
 91
        1
280
     0
281
     0
  0
CLASS
  1
ACRFATTGENMGR
  2
AcRfAttGeneralMgr
  3
AcAttribServices
 90
     1024
 91
        0
280
     0
281
     0
  0
CLASS
  1
ACRFOBJATTMGR
  2
AcRfObjAttGroupMgr
  3
AcAttribServices
 90
     1024
 91
        0
280
     0
281
     0
  0
CLASS
  1
ACRFMCADAPIATTHOLDER
  2
AcRfMCADAPIAttHolder
  3
AcAttribServices
 90
     1024
 91
        0
280
     0
281
     0
  0
CLASS
  1
AMDTSYSATTR
  2
AmdtSystemAttribute
  3
AcAttribServices
 90
     1024
 91
        0
280
     0
281
     0
  0
CLASS
  1
ACMTHREADLINESTANDARDDIN
  2
AmdtThreadLineStdDIN
  3
"Amdt_StdImp|Product Description: AutoCAD Mechanical|Company: Autodesk, Inc."
 90
     1024
 91
        1
280
     0
281
     0
  0
CLASS
  1
ACMTAPERSTANDARDDIN
  2
AcmTaperStdDIN
  3
"Amdt_StdImp|Product Description: AutoCAD Mechanical|Company: Autodesk, Inc."
 90
     1024
 91
        1
280
     0
281
     0
  0
CLASS
  1
ACMANOOTATIONVIEWSTANDARDDIN
  2
AmdtAnViewStdDIN
  3
"Amdt_StdImp|Product Description: AutoCAD Mechanical|Company: Autodesk, Inc."
 90
     1024
 91
        1
280
     0
281
     0
  0
CLASS
  1
ACMTHREADLINESTANDARDANSI
  2
AmdtThreadLineStdANSI
  3
"Amdt_StdImp|Product Description: AutoCAD Mechanical|Company: Autodesk, Inc."
 90
     1024
 91
        0
280
     0
281
     0
  0
CLASS
  1
ACMTAPERSTANDARDANSI
  2
AcmTaperStdANSI
  3
"Amdt_StdImp|Product Description: AutoCAD Mechanical|Company: Autodesk, Inc."
 90
     1024
 91
        0
280
     0
281
     0
  0
CLASS
  1
ACMANOOTATIONVIEWSTANDARDANSI
  2
AmdtAnViewStdANSI
  3
"Amdt_StdImp|Product Description: AutoCAD Mechanical|Company: Autodesk, Inc."
 90
     1024
 91
        0
280
     0
281
     0
  0
CLASS
  1
CATALOGSTATE
  2
AcAmCatalogState
  3
DesignerAssemblies
 90
     1024
 91
        0
280
     0
281
     0
  0
CLASS
  1
ACAMGRCOMPDEFSET
  2
AcAmGrCompDefSet
  3
DesignerAssemblies
 90
     1024
 91
        1
280
     0
281
     0
  0
CLASS
  1
AMDTBROWSERDBTAB
  2
AmdtBrowserDbTab
  3
McadcomServices
 90
     1024
 91
        1
280
     0
281
     0
  0
CLASS
  1
CBROWSERAPPOBJECT
  2
CBrowserAppObject
  3
McadcomServices
 90
     1024
 91
        2
280
     0
281
     0
  0
CLASS
  1
DM_PLACEHOLDER
  2
AcDmSelsetPlaceholder
  3
AcMechDwgViewMgmt
 90
     1024
 91
        1
280
     0
281
     0
  0
CLASS
  1
SORTENTSTABLE
  2
AcDbSortentsTable
  3
ObjectDBX Classes
 90
        0
 91
        2
280
     0
281
     0
  0
CLASS
  1
CAMSSTRUCTBTNSTATE
  2
StructBtnState
  3
DesignerAssemblies
 90
     1024
 91
        1
280
     0
281
     0
  0
CLASS
  1
CELLSTYLEMAP
  2
AcDbCellStyleMap
  3
ObjectDBX Classes
 90
     1152
 91
        3
280
     0
281
     0
  0
CLASS
  1
AMDTEDGESTANDARDDIN13715
  2
AmdtEdgeStdDIN13715
  3
"Amdt_StdImp|Product Description: AutoCAD Mechanical|Company: Autodesk, Inc."
 90
     1024
 91
        1
280
     0
281
     0
  0
CLASS
  1
ACMSURFSTANDARDDIN2002
  2
AcmSurfTextStdDIN2002
  3
"Amdt_StdImp|Product Description: AutoCAD Mechanical|Company: Autodesk, Inc."
 90
     1024
 91
        1
280
     0
281
     0
  0
CLASS
  1
AMDTNOTETEMPLATEDB
  2
AmdtNoteTemplateDB
  3
AcmSymBB|Product Description: AutoCAD Mechanical|Company: Autodesk, Inc.
 90
     1024
 91
        6
280
     0
281
     0
  0
CLASS
  1
IMAGEDEF
  2
AcDbRasterImageDef
  3
ISM
 90
        0
 91
        1
280
     0
281
     0
  0
CLASS
  1
RASTERVARIABLES
  2
AcDbRasterVariables
  3
ISM
 90
        0
 91
        1
280
     0
281
     0
  0
CLASS
  1
IMAGEDEF_REACTOR
  2
AcDbRasterImageDefReactor
  3
ISM
 90
        1
 91
        0
280
     0
281
     0
  0
CLASS
  1
IMAGE
  2
AcDbRasterImage
  3
ISM
 90
     2175
 91
        0
280
     0
281
     1
  0
CLASS
  1
AEC_REFEDIT_STATUS_TRACKER
  2
AecDbRefEditStatusTracker
  3
AecArchBase60|Product Desc: Autodesk Architectural Desktop 2007 |Company: Autodesk,Inc. |WEB Address: www.autodesk.com
 90
      129
 91
        1
280
     0
281
     0
  0
CLASS
  1
NPOCOLLECTION
  2
AcDbImpNonPersistentObjectsCollection
  3
ObjectDBX Classes
 90
     1153
 91
        1
280
     0
281
     0
  0
ENDSEC
  0
SECTION
  2
TABLES
  0
TABLE
  2
VPORT
  5
8
102
{ACAD_XDICTIONARY
360
3C5C
102
}
330
0
100
AcDbSymbolTable
 70
     1
  0
VPORT
  5
3AB9
330
8
100
AcDbSymbolTableRecord
100
AcDbViewportTableRecord
  2
*Active
 70
     0
 10
0.0
 20
0.0
 11
1.0
 21
1.0
 12
19.37419299259363
 22
-275.1365220429807
 13
0.0
 23
0.0
 14
2.5
 24
2.5
 15
10.0
 25
10.0
 16
0.0
 26
0.0
 36
1.0
 17
0.0
 27
0.0
 37
0.0
 40
640.5385606572785
 41
2.251154201292705
 42
50.0
 43
0.0
 44
0.0
 50
0.0
 51
0.0
 71
     0
 72
   100
 73
     1
 74
     3
 75
     0
 76
     0
 77
     0
 78
     0
281
     0
 65
     1
110
0.0
120
0.0
130
0.0
111
1.0
121
0.0
131
0.0
112
0.0
122
1.0
132
0.0
 79
     0
146
0.0
  0
ENDTAB
  0
TABLE
  2
LTYPE
  5
5
330
0
100
AcDbSymbolTable
 70
    25
  0
LTYPE
  5
14
330
5
100
AcDbSymbolTableRecord
100
AcDbLinetypeTableRecord
  2
ByBlock
 70
     0
  3

 72
    65
 73
     0
 40
0.0
  0
LTYPE
  5
15
330
5
100
AcDbSymbolTableRecord
100
AcDbLinetypeTableRecord
  2
ByLayer
 70
     0
  3

 72
    65
 73
     0
 40
0.0
  0
LTYPE
  5
16
330
5
100
AcDbSymbolTableRecord
100
AcDbLinetypeTableRecord
  2
Continuous
 70
     0
  3
Solid line
 72
    65
 73
     0
 40
0.0
  0
LTYPE
  5
50
330
5
100
AcDbSymbolTableRecord
100
AcDbLinetypeTableRecord
  2
Amconstr
 70
     0
  3
_______________________
 72
    65
 73
     2
 40
9999.0
 49
9999.0
 74
     0
 49
0.0
 74
     0
  0
LTYPE
  5
55
330
5
100
AcDbSymbolTableRecord
100
AcDbLinetypeTableRecord
  2
Amzigzag
 70
     0
  3
/\/-/\/-/\/-/\/-/\/-/\/
 72
    65
 73
     2
 40
11.0001
 49
0.0001
 74
     4
 75
   135
340
54
 46
0.04
 50
0.0
 44
0.0
 45
0.0
 49
-11.0
 74
     0
  0
LTYPE
  5
56
330
5
100
AcDbSymbolTableRecord
100
AcDbLinetypeTableRecord
  2
AM_DIN_F_W050
 70
     0
  3
__ __ __ __ __ __ __ __ __ __ __ __ __ __ __
 72
    65
 73
     2
 40
6.25
 49
4.75
 74
     0
 49
-1.5
 74
     0
  0
LTYPE
  5
57
330
5
100
AcDbSymbolTableRecord
100
AcDbLinetypeTableRecord
  2
AM_DIN_G_W050
 70
     0
  3
____ . ____ . ____ . ____ . ____ . ____ . ____
 72
    65
 73
     4
 40
13.75
 49
9.75
 74
     0
 49
-1.5
 74
     0
 49
1.0
 74
     0
 49
-1.5
 74
     0
  0
LTYPE
  5
58
330
5
100
AcDbSymbolTableRecord
100
AcDbLinetypeTableRecord
  2
AM_DIN_K_W050
 70
     0
  3
_____ . . _____ . . _____ . . ____ .. ____
 72
    65
 73
     6
 40
16.25
 49
9.75
 74
     0
 49
-1.5
 74
     0
 49
1.0
 74
     0
 49
-1.5
 74
     0
 49
1.0
 74
     0
 49
-1.5
 74
     0
  0
LTYPE
  5
59
330
5
100
AcDbSymbolTableRecord
100
AcDbLinetypeTableRecord
  2
AM_DIN_G_W050x2
 70
     0
  3
__ . __ . __ . __ . __ . __
 72
    65
 73
     4
 40
6.875
 49
4.75
 74
     0
 49
-0.875
 74
     0
 49
0.375
 74
     0
 49
-0.875
 74
     0
  0
LTYPE
  5
5A
330
5
100
AcDbSymbolTableRecord
100
AcDbLinetypeTableRecord
  2
AM_DIN_F_W050x2
 70
     0
  3
 _ _ _ _ _ _ _ _ _ _ _ _
 72
    65
 73
     2
 40
3.125
 49
2.25
 74
     0
 49
-0.875
 74
     0
  0
LTYPE
  5
68
330
5
100
AcDbSymbolTableRecord
100
AcDbLinetypeTableRecord
  2
ACDINWELD
 70
     0
  3
_ _ _ _ _
 72
    65
 73
     2
 40
2.0
 49
2.0
 74
     0
 49
-1.0
 74
     0
  0
LTYPE
  5
69
330
5
100
AcDbSymbolTableRecord
100
AcDbLinetypeTableRecord
  2
ACDINTGB
 70
     0
  3
__ . . __ . .
 72
    65
 73
     6
 40
9.0
 49
4.0
 74
     0
 49
-1.0
 74
     0
 49
1.0
 74
     0
 49
-1.0
 74
     0
 49
1.0
 74
     0
 49
-1.0
 74
     0
  0
LTYPE
  5
6A
330
5
100
AcDbSymbolTableRecord
100
AcDbLinetypeTableRecord
  2
ACDINTGL
 70
     0
  3
_ _ _ _ _
 72
    65
 73
     2
 40
3.0
 49
2.0
 74
     0
 49
-1.0
 74
     0
  0
LTYPE
  5
6C
330
5
100
AcDbSymbolTableRecord
100
AcDbLinetypeTableRecord
  2
CENTER
 70
     0
  3
__ . __
 72
    65
 73
     4
 40
7.0
 49
4.0
 74
     0
 49
-1.0
 74
     0
 49
1.0
 74
     0
 49
-1.0
 74
     0
  0
LTYPE
  5
33D
330
5
100
AcDbSymbolTableRecord
100
AcDbLinetypeTableRecord
  2
PHANTOM2
 70
     0
  3
Phantom (.5x) ___ _ _ ___ _ _ ___ _ _ ___ _ _
 72
    65
 73
     6
 40
1.25
 49
0.625
 74
     0
 49
-0.125
 74
     0
 49
0.125
 74
     0
 49
-0.125
 74
     0
 49
0.125
 74
     0
 49
-0.125
 74
     0
  0
LTYPE
  5
341
330
5
100
AcDbSymbolTableRecord
100
AcDbLinetypeTableRecord
  2
ACANSTGB
 70
     0
  3
__ . . __ . .
 72
    65
 73
     6
 40
0.35433070866
 49
0.15748031496
 74
     0
 49
-0.03937007874
 74
     0
 49
0.03937007874
 74
     0
 49
-0.03937007874
 74
     0
 49
0.03937007874
 74
     0
 49
-0.03937007874
 74
     0
  0
LTYPE
  5
342
330
5
100
AcDbSymbolTableRecord
100
AcDbLinetypeTableRecord
  2
ACANSTGL
 70
     0
  3
_ _ _ _ _
 72
    65
 73
     2
 40
0.11811023622
 49
0.07874015748
 74
     0
 49
-0.03937007874
 74
     0
  0
LTYPE
  5
3B2A
330
5
100
AcDbSymbolTableRecord
100
AcDbLinetypeTableRecord
  2
HIDDEN
 70
     0
  3
Verdeckt
 72
    65
 73
     2
 40
9.525
 49
6.349999999999999
 74
     0
 49
-3.174999999999999
 74
     0
  0
LTYPE
  5
3CDD
330
5
100
AcDbSymbolTableRecord
100
AcDbLinetypeTableRecord
  2
AM_ISO02W050
 70
     0
  3
__ __ __ __ __ __ __ __ __ __ __ __ __ __ __
 72
    65
 73
     2
 40
7.5
 49
6.0
 74
     0
 49
-1.5
 74
     0
  0
LTYPE
  5
3CDE
330
5
100
AcDbSymbolTableRecord
100
AcDbLinetypeTableRecord
  2
AM_ISO08W050
 70
     0
  3
____ . ____ . ____ . ____ . ____ . ____ . ____
 72
    65
 73
     4
 40
18.0
 49
12.0
 74
     0
 49
-1.5
 74
     0
 49
3.0
 74
     0
 49
-1.5
 74
     0
  0
LTYPE
  5
3CDF
330
5
100
AcDbSymbolTableRecord
100
AcDbLinetypeTableRecord
  2
AM_ISO09W050
 70
     0
  3
_____ . . _____ . . _____ . . ____ .. ____
 72
    65
 73
     6
 40
22.5
 49
12.0
 74
     0
 49
-1.5
 74
     0
 49
3.0
 74
     0
 49
-1.5
 74
     0
 49
3.0
 74
     0
 49
-1.5
 74
     0
  0
LTYPE
  5
3CE0
330
5
100
AcDbSymbolTableRecord
100
AcDbLinetypeTableRecord
  2
AM_ISO08W050x2
 70
     0
  3
__ . __ . __ . __ . __ . __
 72
    65
 73
     4
 40
9.0
 49
6.0
 74
     0
 49
-0.75
 74
     0
 49
1.5
 74
     0
 49
-0.75
 74
     0
  0
LTYPE
  5
3CE1
330
5
100
AcDbSymbolTableRecord
100
AcDbLinetypeTableRecord
  2
AM_ISO02W050x2
 70
     0
  3
 _ _ _ _ _ _ _ _ _ _ _ _
 72
    65
 73
     2
 40
3.75
 49
3.0
 74
     0
 49
-0.75
 74
     0
  0
LTYPE
  5
3F9C
330
5
100
AcDbSymbolTableRecord
100
AcDbLinetypeTableRecord
  2
CENTER2
 70
     0
  3
Center (.5x) ___ _ ___ _ ___ _ ___ _ ___ _ ___
 72
    65
 73
     4
 40
1.125
 49
0.75
 74
     0
 49
-0.125
 74
     0
 49
0.125
 74
     0
 49
-0.125
 74
     0
  0
LTYPE
  5
3F9D
330
5
100
AcDbSymbolTableRecord
100
AcDbLinetypeTableRecord
  2
HIDDEN2
 70
     0
  3
Hidden (.5x) _ _ _ _ _ _ _ _ _ _ _ _ _ _ _ _ _
 72
    65
 73
     2
 40
0.1875
 49
0.125
 74
     0
 49
-0.0625
 74
     0
  0
LTYPE
  5
3F9E
330
5
100
AcDbSymbolTableRecord
100
AcDbLinetypeTableRecord
  2
Amzigzag2
 70
     0
  3
/\/-/\/-/\/-/\/-/\/-/\/
 72
    65
 73
     2
 40
0.4401
 49
0.0001
 74
     4
 75
   135
340
54
 46
0.0016
 50
0.0
 44
0.0
 45
0.0
 49
-0.4400000000000001
 74
     0
  0
ENDTAB
  0
TABLE
  2
LAYER
  5
2
102
{ACAD_XDICTIONARY
360
458C
102
}
330
0
100
AcDbSymbolTable
 70
     1
  0
LAYER
  5
10
102
{ACAD_XDICTIONARY
360
3B84
102
}
330
2
100
AcDbSymbolTableRecord
100
AcDbLayerTableRecord
  2
0
 70
     0
 62
     7
  6
Continuous
370
    -3
390
F
  0
ENDTAB
  0
TABLE
  2
STYLE
  5
3
330
0
100
AcDbSymbolTable
 70
     7
  0
STYLE
  5
11
330
3
100
AcDbSymbolTableRecord
100
AcDbTextStyleTableRecord
  2
STANDARD
 70
     0
 40
0.0
 41
1.0
 50
0.0
 71
     0
 42
2.5
  3
ISOCP.SHX
  4

  0
STYLE
  5
54
330
3
100
AcDbSymbolTableRecord
100
AcDbTextStyleTableRecord
  2

 70
     1
 40
0.0
 41
1.0
 50
0.0
 71
     0
 42
2.5
  3
ltypeshp.shx
  4

  0
STYLE
  5
5B
330
3
100
AcDbSymbolTableRecord
100
AcDbTextStyleTableRecord
  2
ACDINTS
 70
     0
 40
1.0
 41
1.0
 50
0.0
 71
     0
 42
2.5
  3
isocp.shx
  4

  0
STYLE
  5
67
330
3
100
AcDbSymbolTableRecord
100
AcDbTextStyleTableRecord
  2
ACDINGDT
 70
     0
 40
0.0
 41
1.0
 50
0.0
 71
     0
 42
2.5
  3
amgdt.shx
  4

  0
STYLE
  5
343
330
3
100
AcDbSymbolTableRecord
100
AcDbTextStyleTableRecord
  2
ACANSTS
 70
     0
 40
1.0
 41
1.0
 50
0.0
 71
     0
 42
0.2
  3
romans.shx
  4

  0
STYLE
  5
344
330
3
100
AcDbSymbolTableRecord
100
AcDbTextStyleTableRecord
  2
ACANSGDT
 70
     0
 40
0.0
 41
1.0
 50
0.0
 71
     0
 42
0.2
  3
amgdtans.shx
  4

  0
STYLE
  5
4693
330
3
100
AcDbSymbolTableRecord
100
AcDbTextStyleTableRecord
  2

 70
     1
 40
0.0
 41
1.0
 50
0.0
 71
     0
 42
0.2
  3
genltshp.shx
  4

  0
ENDTAB
  0
TABLE
  2
VIEW
  5
6
330
0
100
AcDbSymbolTable
 70
     2
  0
ENDTAB
  0
TABLE
  2
UCS
  5
7
330
0
100
AcDbSymbolTable
 70
     0
  0
ENDTAB
  0
TABLE
  2
APPID
  5
9
330
0
100
AcDbSymbolTable
 70
    22
  0
APPID
  5
12
330
9
100
AcDbSymbolTableRecord
100
AcDbRegAppTableRecord
  2
ACAD
 70
     0
  0
APPID
  5
2C
330
9
100
AcDbSymbolTableRecord
100
AcDbRegAppTableRecord
  2
MCAD_NO_VIS
 70
     0
  0
APPID
  5
2D
330
9
100
AcDbSymbolTableRecord
100
AcDbRegAppTableRecord
  2
ACAD_TEMP_GRAPHIC
 70
     0
  0
APPID
  5
3E
330
9
100
AcDbSymbolTableRecord
100
AcDbRegAppTableRecord
  2
ACATTRIBSERVICES
 70
     0
  0
APPID
  5
3A3E
330
9
100
AcDbSymbolTableRecord
100
AcDbRegAppTableRecord
  2
DCO15
 70
     0
  0
APPID
  5
3AFC
330
9
100
AcDbSymbolTableRecord
100
AcDbRegAppTableRecord
  2
ACAD_MLEADERVER
 70
     0
  0
APPID
  5
3B2C
330
9
100
AcDbSymbolTableRecord
100
AcDbRegAppTableRecord
  2
AD_DRAW
 70
     0
  0
APPID
  5
3B4B
330
9
100
AcDbSymbolTableRecord
100
AcDbRegAppTableRecord
  2
DESIGNERASSEMBLIES
 70
     0
  0
APPID
  5
3B5A
330
9
100
AcDbSymbolTableRecord
100
AcDbRegAppTableRecord
  2
ACADM_DIM_EDIT
 70
     0
  0
APPID
  5
3B5B
330
9
100
AcDbSymbolTableRecord
100
AcDbRegAppTableRecord
  2
AMDT_DM_ADJ
 70
     0
  0
APPID
  5
3B76
330
9
100
AcDbSymbolTableRecord
100
AcDbRegAppTableRecord
  2
ACAD_EXEMPT_FROM_CAD_STANDARDS
 70
     0
  0
APPID
  5
3BA8
330
9
100
AcDbSymbolTableRecord
100
AcDbRegAppTableRecord
  2
GENIUS_GENODEF_13
 70
     0
  0
APPID
  5
3BA9
330
9
100
AcDbSymbolTableRecord
100
AcDbRegAppTableRecord
  2
GENIUS_GENOBJ-N-FIL_13
 70
     0
  0
APPID
  5
3CF0
330
9
100
AcDbSymbolTableRecord
100
AcDbRegAppTableRecord
  2
ACAD_DSTYLE_DIMJOGGED_JOGANGLE_SYMBOL
 70
     0
  0
APPID
  5
3CF1
330
9
100
AcDbSymbolTableRecord
100
AcDbRegAppTableRecord
  2
ACAD_DSTYLE_DIM_LINETYPE
 70
     0
  0
APPID
  5
3CF2
330
9
100
AcDbSymbolTableRecord
100
AcDbRegAppTableRecord
  2
ACAD_DSTYLE_DIM_EXT1_LINETYPE
 70
     0
  0
APPID
  5
3CF3
330
9
100
AcDbSymbolTableRecord
100
AcDbRegAppTableRecord
  2
ACAD_DSTYLE_DIM_EXT2_LINETYPE
 70
     0
  0
APPID
  5
41F2
330
9
100
AcDbSymbolTableRecord
100
AcDbRegAppTableRecord
  2
GENIUS_GENREC_14
 70
     0
  0
APPID
  5
41F3
330
9
100
AcDbSymbolTableRecord
100
AcDbRegAppTableRecord
  2
GENIUS_GENOBJ-N-REC_13
 70
     0
  0
APPID
  5
457E
330
9
100
AcDbSymbolTableRecord
100
AcDbRegAppTableRecord
  2
ACAD_DSTYLE_DIMBREAK
 70
     0
  0
APPID
  5
457F
330
9
100
AcDbSymbolTableRecord
100
AcDbRegAppTableRecord
  2
ACAD_DSTYLE_DIMJAG
 70
     0
  0
APPID
  5
4A07
330
9
100
AcDbSymbolTableRecord
100
AcDbRegAppTableRecord
  2
ACAD_PSEXT
 70
     0
  0
ENDTAB
  0
TABLE
  2
DIMSTYLE
  5
A
330
0
100
AcDbSymbolTable
 70
    15
100
AcDbDimStyleTable
 71
     1
340
6F
  0
DIMSTYLE
105
6F
102
{ACAD_REACTORS
330
58B6
102
}
330
A
100
AcDbSymbolTableRecord
100
AcDbDimStyleTableRecord
  2
AM_DIN
 70
     0
  4
"
 41
3.5
 42
1.0
 43
10.0
 44
1.0
 47
0.1
 48
0.1
 73
     0
 74
     0
 77
     1
 78
     8
 79
     2
140
3.5
141
0.0
143
0.0393701
146
0.71
147
1.5
172
     1
176
   256
177
   256
178
   140
271
     2
272
     3
274
     4
283
     0
284
     8
340
11
371
    -1
372
    -1
1001
ACAD_DSTYLE_DIMJOGGED_JOGANGLE_SYMBOL
1070
   384
1040
1.570796326794896
1001
ACAD_DSTYLE_DIM_LINETYPE
1070
   380
1005
14
1001
ACAD_DSTYLE_DIM_EXT1_LINETYPE
1070
   381
1005
14
1001
ACAD_DSTYLE_DIM_EXT2_LINETYPE
1070
   382
1005
14
  0
DIMSTYLE
105
70
330
A
100
AcDbSymbolTableRecord
100
AcDbDimStyleTableRecord
  2
AM_DIN$3
 70
     0
  4
"
 41
3.5
 42
1.0
 43
10.0
 44
1.0
 47
0.1
 48
0.1
 73
     0
 77
     1
 78
     8
 79
     2
140
3.5
141
0.0
143
0.0393701
146
0.71
147
1.5
176
   256
177
   256
178
   140
271
     2
272
     3
274
     4
283
     0
284
     8
288
     1
289
     0
340
11
371
    -1
372
    -1
1001
ACAD_DSTYLE_DIMJOGGED_JOGANGLE_SYMBOL
1070
   384
1040
1.570796326794896
1001
ACAD_DSTYLE_DIM_LINETYPE
1070
   380
1005
14
1001
ACAD_DSTYLE_DIM_EXT1_LINETYPE
1070
   381
1005
14
1001
ACAD_DSTYLE_DIM_EXT2_LINETYPE
1070
   382
1005
14
  0
DIMSTYLE
105
71
330
A
100
AcDbSymbolTableRecord
100
AcDbDimStyleTableRecord
  2
AM_DIN$4
 70
     0
  4
"
 41
3.5
 42
1.0
 43
10.0
 44
1.0
 47
0.1
 48
0.1
 73
     0
 74
     0
 77
     1
 78
     8
 79
     2
140
3.5
141
0.0
143
0.0393701
146
0.71
147
1.5
172
     1
176
   256
177
   256
178
   140
271
     2
272
     3
274
     4
283
     0
284
     8
340
11
371
    -1
372
    -1
1001
ACAD_DSTYLE_DIMJOGGED_JOGANGLE_SYMBOL
1070
   384
1040
1.570796326794896
1001
ACAD_DSTYLE_DIM_LINETYPE
1070
   380
1005
14
1001
ACAD_DSTYLE_DIM_EXT1_LINETYPE
1070
   381
1005
14
1001
ACAD_DSTYLE_DIM_EXT2_LINETYPE
1070
   382
1005
14
  0
DIMSTYLE
105
72
330
A
100
AcDbSymbolTableRecord
100
AcDbDimStyleTableRecord
  2
AM_DIN$6
 70
     0
  4
"
 41
3.5
 42
1.0
 43
10.0
 44
1.0
 47
0.1
 48
0.1
 73
     0
 74
     0
 78
     8
 79
     2
140
3.5
141
0.0
143
0.0393701
146
0.71
147
1.5
172
     1
176
   256
177
   256
178
   140
271
     2
272
     3
274
     4
283
     0
284
     8
340
11
371
    -1
372
    -1
1001
ACAD_DSTYLE_DIMJOGGED_JOGANGLE_SYMBOL
1070
   384
1040
1.570796326794896
1001
ACAD_DSTYLE_DIM_LINETYPE
1070
   380
1005
14
1001
ACAD_DSTYLE_DIM_EXT1_LINETYPE
1070
   381
1005
14
1001
ACAD_DSTYLE_DIM_EXT2_LINETYPE
1070
   382
1005
14
  0
DIMSTYLE
105
73
330
A
100
AcDbSymbolTableRecord
100
AcDbDimStyleTableRecord
  2
AM_DIN$7
 70
     0
  4
"
 41
3.5
 42
1.0
 43
10.0
 44
1.0
 47
0.1
 48
0.1
 73
     0
 74
     0
 77
     1
 78
     8
 79
     2
140
3.5
141
0.0
143
0.0393701
146
0.71
147
1.5
172
     1
176
   256
177
   256
178
   140
271
     2
272
     3
274
     4
283
     0
284
     8
340
11
371
    -1
372
    -1
1001
ACAD_DSTYLE_DIMJOGGED_JOGANGLE_SYMBOL
1070
   384
1040
1.570796326794896
1001
ACAD_DSTYLE_DIM_LINETYPE
1070
   380
1005
14
1001
ACAD_DSTYLE_DIM_EXT1_LINETYPE
1070
   381
1005
14
1001
ACAD_DSTYLE_DIM_EXT2_LINETYPE
1070
   382
1005
14
  0
DIMSTYLE
105
74
330
A
100
AcDbSymbolTableRecord
100
AcDbDimStyleTableRecord
  2
AM_DIN$SF
 70
     0
  4
"
 41
3.5
 42
1.0
 43
10.0
 44
1.0
 47
0.1
 48
0.1
 73
     0
 74
     0
 75
     1
 76
     1
 77
     1
 78
     8
 79
     2
140
3.5
141
0.0
143
0.0393701
146
0.71
147
1.5
172
     1
176
   256
177
   256
178
   140
271
     2
272
     3
274
     4
283
     0
284
     8
340
11
371
    -1
372
    -1
1001
ACAD_DSTYLE_DIMJOGGED_JOGANGLE_SYMBOL
1070
   384
1040
1.570796326794896
1001
ACAD_DSTYLE_DIM_LINETYPE
1070
   380
1005
14
1001
ACAD_DSTYLE_DIM_EXT1_LINETYPE
1070
   381
1005
14
1001
ACAD_DSTYLE_DIM_EXT2_LINETYPE
1070
   382
1005
14
  0
DIMSTYLE
105
79
330
A
100
AcDbSymbolTableRecord
100
AcDbDimStyleTableRecord
  2
AM_DIN$SH
 70
     0
  4
"
 41
3.5
 42
1.0
 43
10.0
 44
1.0
 47
0.1
 48
0.1
 73
     0
 74
     0
 75
     1
 76
     1
 77
     1
 78
     8
 79
     2
140
3.5
141
0.0
143
0.0393701
144
2.0
146
0.71
147
1.5
172
     1
173
     1
176
   256
177
   256
178
   140
271
     2
272
     3
274
     4
283
     0
284
     8
340
11
343
75
371
    -1
372
    -1
1001
ACAD_DSTYLE_DIMJOGGED_JOGANGLE_SYMBOL
1070
   384
1040
1.570796326794896
1001
ACAD_DSTYLE_DIM_LINETYPE
1070
   380
1005
14
1001
ACAD_DSTYLE_DIM_EXT1_LINETYPE
1070
   381
1005
14
1001
ACAD_DSTYLE_DIM_EXT2_LINETYPE
1070
   382
1005
14
  0
DIMSTYLE
105
92
330
A
100
AcDbSymbolTableRecord
100
AcDbDimStyleTableRecord
  2
STANDARD
 70
     0
279
     2
340
11
  0
DIMSTYLE
105
345
330
A
100
AcDbSymbolTableRecord
100
AcDbDimStyleTableRecord
  2
AM_ANSI
 70
     0
  4
mm
 41
0.1
 42
0.05
 43
0.5
 44
0.1
 47
0.1
 48
0.1
 78
     7
 79
     2
140
0.12
141
0.0
146
0.71
147
0.06
176
   256
177
   256
178
     2
274
     4
284
     7
340
11
371
    -1
372
    -1
  0
DIMSTYLE
105
346
330
A
100
AcDbSymbolTableRecord
100
AcDbDimStyleTableRecord
  2
AM_ANSI$3
 70
     0
  4
mm
 41
0.1
 42
0.05
 43
0.5
 44
0.1
 47
0.1
 48
0.1
 78
     7
 79
     2
140
0.12
141
0.0
146
0.71
147
0.06
176
   256
177
   256
178
     2
274
     4
284
     7
288
     1
289
     0
340
11
371
    -1
372
    -1
  0
DIMSTYLE
105
347
330
A
100
AcDbSymbolTableRecord
100
AcDbDimStyleTableRecord
  2
AM_ANSI$4
 70
     0
  4
mm
 41
0.1
 42
0.05
 43
0.5
 44
0.1
 47
0.1
 48
0.1
 78
     7
 79
     2
140
0.12
141
0.0
146
0.71
147
0.06
176
   256
177
   256
178
     2
274
     4
284
     7
288
     1
289
     0
340
11
371
    -1
372
    -1
  0
DIMSTYLE
105
348
330
A
100
AcDbSymbolTableRecord
100
AcDbDimStyleTableRecord
  2
AM_ANSI$7
 70
     0
  4
mm
 41
0.1
 42
0.05
 43
0.5
 44
0.1
 47
0.1
 48
0.1
 78
     7
 79
     2
140
0.24
141
0.0
146
0.71
147
0.06
176
   256
177
   256
178
     2
274
     4
284
     7
340
11
371
    -1
372
    -1
  0
DIMSTYLE
105
349
330
A
100
AcDbSymbolTableRecord
100
AcDbDimStyleTableRecord
  2
AM_ANSI$SF
 70
     0
  4
mm
 41
0.1
 42
0.05
 43
0.5
 44
0.1
 47
0.1
 48
0.1
 75
     1
 76
     1
 78
     7
 79
     2
140
0.12
141
0.0
146
0.71
147
0.06
176
   256
177
   256
178
     2
274
     4
284
     7
340
11
371
    -1
372
    -1
  0
DIMSTYLE
105
34A
330
A
100
AcDbSymbolTableRecord
100
AcDbDimStyleTableRecord
  2
AM_ANSI$SH
 70
     0
  4
mm
 41
0.1
 42
0.05
 43
0.5
 44
0.1
 47
0.1
 48
0.1
 75
     1
 76
     1
 78
     7
 79
     2
140
0.12
141
0.0
146
0.71
147
0.06
173
     1
176
   256
177
   256
178
     2
274
     4
284
     7
340
11
343
75
371
    -1
372
    -1
  0
ENDTAB
  0
TABLE
  2
BLOCK_RECORD
  5
1
330
0
100
AcDbSymbolTable
 70
     7
  0
BLOCK_RECORD
  5
1F
102
{ACAD_XDICTIONARY
360
81
102
}
330
1
100
AcDbSymbolTableRecord
100
AcDbBlockTableRecord
  2
*Model_Space
340
22
  0
BLOCK_RECORD
  5
1B
330
1
100
AcDbSymbolTableRecord
100
AcDbBlockTableRecord
  2
*Paper_Space
340
1E
  0
BLOCK_RECORD
  5
23
330
1
100
AcDbSymbolTableRecord
100
AcDbBlockTableRecord
  2
*Paper_Space0
340
26
  0
BLOCK_RECORD
  5
75
330
1
100
AcDbSymbolTableRecord
100
AcDbBlockTableRecord
  2
GENAXEH
340
0
  0
BLOCK_RECORD
  5
4646
330
1
100
AcDbSymbolTableRecord
100
AcDbBlockTableRecord
  2
block 2
340
0
  0
BLOCK_RECORD
  5
58D1
330
1
100
AcDbSymbolTableRecord
100
AcDbBlockTableRecord
  2
A$C29795954
340
0
1001
ACAD
1000
DesignCenter Data
1002
{
1070
     1
1070
     4
1002
}
  0
ENDTAB
  0
ENDSEC
  0
SECTION
  2
BLOCKS
  0
BLOCK
  5
20
330
1F
100
AcDbEntity
  8
0
100
AcDbBlockBegin
  2
*Model_Space
 70
     0
 10
0.0
 20
0.0
 30
0.0
  3
*Model_Space
  1

  0
ENDBLK
  5
21
330
1F
100
AcDbEntity
  8
0
100
AcDbBlockEnd
  0
BLOCK
  5
1C
330
1B
100
AcDbEntity
 67
     1
  8
0
100
AcDbBlockBegin
  2
*Paper_Space
 70
     0
 10
0.0
 20
0.0
 30
0.0
  3
*Paper_Space
  1

  0
ENDBLK
  5
1D
330
1B
100
AcDbEntity
 67
     1
  8
0
100
AcDbBlockEnd
  0
BLOCK
  5
24
330
23
100
AcDbEntity
 67
     1
  8
0
100
AcDbBlockBegin
  2
*Paper_Space0
 70
     0
 10
0.0
 20
0.0
 30
0.0
  3
*Paper_Space0
  1

  0
ENDBLK
  5
25
330
23
100
AcDbEntity
 67
     1
  8
0
100
AcDbBlockEnd
  0
BLOCK
  5
77
330
75
100
AcDbEntity
  8
0
100
AcDbBlockBegin
  2
GENAXEH
 70
     0
 10
0.0
 20
0.0
 30
0.0
  3
GENAXEH
  1

  0
LINE
  5
76
330
75
100
AcDbEntity
  8
0
100
AcDbLine
 10
-1.0
 20
0.0
 30
0.0
 11
1.0
 21
0.0
 31
0.0
  0
ENDBLK
  5
78
330
75
100
AcDbEntity
  8
0
100
AcDbBlockEnd
  0
BLOCK
  5
4647
330
4646
100
AcDbEntity
  8
0
100
AcDbBlockBegin
  2
block 2
 70
     0
 10
0.0
 20
0.0
 30
0.0
  3
block 2
  1

  0
SPLINE
  5
4648
330
4646
100
AcDbEntity
  8
0
 62
   250
420
  1842203
370
     9
100
AcDbSpline
210
0.0
220
0.0
230
1.0
 70
     8
 71
     3
 72
    11
 73
     7
 74
     0
 42
0.0000000001
 43
0.0000000001
 40
0.0
 40
0.0
 40
0.0
 40
0.0
 40
1.0
 40
1.0
 40
1.0
 40
2.0
 40
2.0
 40
2.0
 40
2.0
 10
335.6377386313683
 20
342.0015190117219
 30
0.0
 10
345.2316405386921
 20
342.7401474837594
 30
0.0
 10
346.1218532120807
 20
342.7732204004178
 30
0.0
 10
346.1218532120807
 20
340.18250859551
 30
0.0
 10
346.1218532120807
 20
340.18250859551
 30
0.0
 10
346.1218532120807
 20
19.53506943956068
 30
0.0
 10
346.1218532120807
 20
19.53506943956068
 30
0.0
  0
POLYLINE
  5
4649
330
4646
100
AcDbEntity
  8
0
 62
   250
420
  1842203
370
     9
100
AcDb2dPolyline
 66
     1
 10
0.0
 20
0.0
 30
0.0
  0
VERTEX
  5
464A
330
4649
100
AcDbEntity
  8
0
 62
   250
420
  1842203
370
     9
100
AcDbVertex
100
AcDb2dVertex
 10
230.2453775466053
 20
330.668532903444
 30
0.0
  0
VERTEX
  5
464B
330
4649
100
AcDbEntity
  8
0
 62
   250
420
  1842203
370
     9
100
AcDbVertex
100
AcDb2dVertex
 10
309.5652559989976
 20
330.668532903444
 30
0.0
  0
SEQEND
  5
464C
330
4649
100
AcDbEntity
  8
0
370
     9
  0
POLYLINE
  5
464D
330
4646
100
AcDbEntity
  8
0
 62
   250
420
  1842203
370
     9
100
AcDb2dPolyline
 66
     1
 10
0.0
 20
0.0
 30
0.0
  0
VERTEX
  5
464E
330
464D
100
AcDbEntity
  8
0
 62
   250
420
  1842203
370
     9
100
AcDbVertex
100
AcDb2dVertex
 10
217.057552029069
 20
336.2468315131605
 30
0.0
  0
VERTEX
  5
464F
330
464D
100
AcDbEntity
  8
0
 62
   250
420
  1842203
370
     9
100
AcDbVertex
100
AcDb2dVertex
 10
-184.4917534260993
 20
336.2468315131605
 30
0.0
  0
SEQEND
  5
4650
330
464D
100
AcDbEntity
  8
0
370
     9
  0
POLYLINE
  5
4651
330
4646
100
AcDbEntity
  8
0
 62
   250
420
  1842203
370
     9
100
AcDb2dPolyline
 66
     1
 10
0.0
 20
0.0
 30
0.0
  0
VERTEX
  5
4652
330
4651
100
AcDbEntity
  8
0
 62
   250
420
  1842203
370
     9
100
AcDbVertex
100
AcDb2dVertex
 10
62.01171873449707
 20
202.4227864077277
 30
0.0
  0
VERTEX
  5
4653
330
4651
100
AcDbEntity
  8
0
 62
   250
420
  1842203
370
     9
100
AcDbVertex
100
AcDb2dVertex
 10
153.2874565589003
 20
202.4227864077277
 30
0.0
  0
SEQEND
  5
4654
330
4651
100
AcDbEntity
  8
0
370
     9
  0
POLYLINE
  5
4655
330
4646
100
AcDbEntity
  8
0
 62
   250
420
  1842203
370
     9
100
AcDb2dPolyline
 66
     1
 10
0.0
 20
0.0
 30
0.0
  0
VERTEX
  5
4656
330
4655
100
AcDbEntity
  8
0
 62
   250
420
  1842203
370
     9
100
AcDbVertex
100
AcDb2dVertex
 10
84.42413192333843
 20
189.370008633213
 30
0.0
  0
VERTEX
  5
4657
330
4655
100
AcDbEntity
  8
0
 62
   250
420
  1842203
370
     9
100
AcDbVertex
100
AcDb2dVertex
 10
141.3894747910415
 20
189.370008633213
 30
0.0
  0
SEQEND
  5
4658
330
4655
100
AcDbEntity
  8
0
370
     9
  0
POLYLINE
  5
4659
330
4646
100
AcDbEntity
  8
0
 62
   250
420
  1842203
370
     9
100
AcDb2dPolyline
 66
     1
 10
0.0
 20
0.0
 30
0.0
  0
VERTEX
  5
465A
330
4659
100
AcDbEntity
  8
0
 62
   250
420
  1842203
370
     9
100
AcDbVertex
100
AcDb2dVertex
 10
88.913780359716
 20
179.4564018648581
 30
0.0
  0
VERTEX
  5
465B
330
4659
100
AcDbEntity
  8
0
 62
   250
420
  1842203
370
     9
100
AcDbVertex
100
AcDb2dVertex
 10
135.9875650701698
 20
179.4564018648581
 30
0.0
  0
SEQEND
  5
465C
330
4659
100
AcDbEntity
  8
0
370
     9
  0
POLYLINE
  5
465D
330
4646
100
AcDbEntity
  8
0
 62
   250
420
  1842203
370
     9
100
AcDb2dPolyline
 66
     1
 10
0.0
 20
0.0
 30
0.0
  0
VERTEX
  5
465E
330
465D
100
AcDbEntity
  8
0
 62
   250
420
  1842203
370
     9
100
AcDbVertex
100
AcDb2dVertex
 10
84.42137584695021
 20
165.9102864168557
 30
0.0
  0
VERTEX
  5
465F
330
465D
100
AcDbEntity
  8
0
 62
   250
420
  1842203
370
     9
100
AcDbVertex
100
AcDb2dVertex
 10
141.3867187146533
 20
165.9102864168557
 30
0.0
  0
SEQEND
  5
4660
330
465D
100
AcDbEntity
  8
0
370
     9
  0
POLYLINE
  5
4661
330
4646
100
AcDbEntity
  8
0
 62
   250
420
  1842203
370
     9
100
AcDb2dPolyline
 66
     1
 10
0.0
 20
0.0
 30
0.0
  0
VERTEX
  5
4662
330
4661
100
AcDbEntity
  8
0
 62
   250
420
  1842203
370
     9
100
AcDbVertex
100
AcDb2dVertex
 10
84.749348937146
 20
156.1592881554046
 30
0.0
  0
VERTEX
  5
4663
330
4661
100
AcDbEntity
  8
0
 62
   250
420
  1842203
370
     9
100
AcDbVertex
100
AcDb2dVertex
 10
141.7146918048491
 20
156.1592881554046
 30
0.0
  0
SEQEND
  5
4664
330
4661
100
AcDbEntity
  8
0
370
     9
  0
POLYLINE
  5
4665
330
4646
100
AcDbEntity
  8
0
 62
   250
420
  1842203
370
     9
100
AcDb2dPolyline
 66
     1
 10
0.0
 20
0.0
 30
0.0
  0
VERTEX
  5
4666
330
4665
100
AcDbEntity
  8
0
 62
   250
420
  1842203
370
     9
100
AcDbVertex
100
AcDb2dVertex
 10
154.3182291280871
 20
194.1187282500814
 30
0.0
  0
VERTEX
  5
4667
330
4665
100
AcDbEntity
  8
0
 62
   250
420
  1842203
370
     9
100
AcDbVertex
100
AcDb2dVertex
 10
149.7596787820045
 20
202.4062499493985
 30
0.0
  0
VERTEX
  5
4668
330
4665
100
AcDbEntity
  8
0
 62
   250
420
  1842203
370
     9
100
AcDbVertex
100
AcDb2dVertex
 10
136.0647352090394
 20
189.921223910853
 30
0.0
  0
VERTEX
  5
4669
330
4665
100
AcDbEntity
  8
0
 62
   250
420
  1842203
370
     9
100
AcDbVertex
100
AcDb2dVertex
 10
136.1363931951325
 20
179.0154296427461
 30
0.0
  0
VERTEX
  5
466A
330
4665
100
AcDbEntity
  8
0
 62
   250
420
  1842203
370
     9
100
AcDbVertex
100
AcDb2dVertex
 10
137.1919704518131
 20
179.0154296427461
 30
0.0
  0
VERTEX
  5
466B
330
4665
100
AcDbEntity
  8
0
 62
   250
420
  1842203
370
     9
100
AcDbVertex
100
AcDb2dVertex
 10
154.3182291280871
 20
194.1187282500814
 30
0.0
  0
VERTEX
  5
466C
330
4665
100
AcDbEntity
  8
0
 62
   250
420
  1842203
370
     9
100
AcDbVertex
100
AcDb2dVertex
 10
154.3182291280871
 20
194.1187282500814
 30
0.0
  0
SEQEND
  5
466D
330
4665
100
AcDbEntity
  8
0
370
     9
  0
HATCH
  5
466E
330
4646
100
AcDbEntity
  8
0
 62
   250
420
  1842203
100
AcDbHatch
 10
0.0
 20
0.0
 30
0.0
210
0.0
220
0.0
230
1.0
  2
SOLID
 70
     1
 71
     0
 91
        1
 92
        1
 93
        5
 72
     1
 10
154.3182291280871
 20
194.1187282500814
 11
149.7596787820045
 21
202.4062499493985
 72
     1
 10
149.7596787820045
 20
202.4062499493985
 11
136.0647352090394
 21
189.921223910853
 72
     1
 10
136.0647352090394
 20
189.921223910853
 11
136.1363931951325
 21
179.0154296427461
 72
     1
 10
136.1363931951325
 20
179.0154296427461
 11
137.1919704518131
 21
179.0154296427461
 72
     1
 10
137.1919704518131
 20
179.0154296427461
 11
154.3182291280871
 21
194.1187282500814
 97
        0
 75
     2
 76
     1
 98
        0
450
        0
451
        0
460
0.0
461
0.0
452
        1
462
0.0
453
        0
470

  0
POLYLINE
  5
466F
330
4646
100
AcDbEntity
  8
0
 62
   250
420
  1842203
370
     9
100
AcDb2dPolyline
 66
     1
 10
0.0
 20
0.0
 30
0.0
  0
VERTEX
  5
4670
330
466F
100
AcDbEntity
  8
0
 62
   250
420
  1842203
370
     9
100
AcDbVertex
100
AcDb2dVertex
 10
39.19140624020215
 20
19.1547308979891
 30
0.0
  0
VERTEX
  5
4671
330
466F
100
AcDbEntity
  8
0
 62
   250
420
  1842203
370
     9
100
AcDbVertex
100
AcDb2dVertex
 10
347.0864799479506
 20
19.53506943956068
 30
0.0
  0
SEQEND
  5
4672
330
466F
100
AcDbEntity
  8
0
370
     9
  0
POLYLINE
  5
4673
330
4646
100
AcDbEntity
  8
0
 62
   250
420
  1842203
370
     9
100
AcDb2dPolyline
 66
     1
 10
0.0
 20
0.0
 30
0.0
  0
VERTEX
  5
4674
330
4673
100
AcDbEntity
  8
0
 62
   250
420
  1842203
370
     9
100
AcDbVertex
100
AcDb2dVertex
 10
245.2797742442356
 20
334.8164278676848
 30
0.0
  0
VERTEX
  5
4675
330
4673
100
AcDbEntity
  8
0
 62
   250
420
  1842203
370
     9
100
AcDbVertex
100
AcDb2dVertex
 10
311.5992403734891
 20
335.4778862008528
 30
0.0
  0
SEQEND
  5
4676
330
4673
100
AcDbEntity
  8
0
370
     9
  0
SPLINE
  5
4677
330
4646
100
AcDbEntity
  8
0
 62
   250
420
  1842203
370
     9
100
AcDbSpline
210
0.0
220
0.0
230
1.0
 70
     8
 71
     3
 72
    17
 73
    13
 74
     0
 42
0.0000000001
 43
0.0000000001
 40
0.0
 40
0.0
 40
0.0
 40
0.0
 40
1.0
 40
1.0
 40
1.0
 40
2.0
 40
2.0
 40
2.0
 40
3.0
 40
3.0
 40
3.0
 40
4.0
 40
4.0
 40
4.0
 40
4.0
 10
157.0412325996286
 20
165.7228732224582
 30
0.0
 10
193.4214409238668
 20
165.7228732224582
 30
0.0
 10
212.2619791136012
 20
191.0126301605802
 30
0.0
 10
216.175607584845
 20
227.7621527208373
 30
0.0
 10
220.491623208766
 20
268.2930120857045
 30
0.0
 10
220.4750867504368
 20
272.9976344803617
 30
0.0
 10
226.2766275475975
 20
325.2252820367492
 30
0.0
 10
226.9380858807655
 20
330.296462591037
 30
0.0
 10
230.2453775466053
 20
334.8439886315668
 30
0.0
 10
237.411176155925
 20
334.8439886315668
 30
0.0
 10
241.5811197312714
 20
334.8439886315668
 30
0.0
 10
243.8355902168189
 20
334.8439886315668
 30
0.0
 10
247.6940971602987
 20
334.8439886315668
 30
0.0
  0
SPLINE
  5
4678
330
4646
100
AcDbEntity
  8
0
 62
   250
420
  1842203
370
     9
100
AcDbSpline
210
0.0
220
0.0
230
1.0
 70
     8
 71
     3
 72
    11
 73
     7
 74
     0
 42
0.0000000001
 43
0.0000000001
 40
0.0
 40
0.0
 40
0.0
 40
0.0
 40
1.0
 40
1.0
 40
1.0
 40
2.0
 40
2.0
 40
2.0
 40
2.0
 10
199.7273437000681
 20
320.4572698851635
 30
0.0
 10
200.5899956095747
 20
329.524761202341
 30
0.0
 10
205.8816622749185
 20
336.2495875895488
 30
0.0
 10
214.3703775505741
 20
336.2495875895488
 30
0.0
 10
225.3946831033736
 20
336.2495875895488
 30
0.0
 10
231.6096353587643
 20
336.2495875895488
 30
0.0
 10
245.2797742442356
 20
336.2495875895488
 30
0.0
  0
SPLINE
  5
4679
330
4646
100
AcDbEntity
  8
0
 62
   250
420
  1842203
370
     9
100
AcDbSpline
210
0.0
220
0.0
230
1.0
 70
     8
 71
     3
 72
    11
 73
     7
 74
     0
 42
0.0000000001
 43
0.0000000001
 40
0.0
 40
0.0
 40
0.0
 40
0.0
 40
1.0
 40
1.0
 40
1.0
 40
2.0
 40
2.0
 40
2.0
 40
2.0
 10
195.5711805066627
 20
292.5850693712982
 30
0.0
 10
189.397569397095
 20
253.779513825444
 30
0.0
 10
188.5156249528711
 20
250.1029079235854
 30
0.0
 10
183.5960285999343
 20
226.1636284156813
 30
0.0
 10
180.8950737394984
 20
213.0336805022972
 30
0.0
 10
170.3310329435283
 20
201.7447916162305
 30
0.0
 10
151.0908636775051
 20
197.7705294644462
 30
0.0
  0
POLYLINE
  5
467A
330
4646
100
AcDbEntity
  8
0
 62
   250
420
  1842203
370
     9
100
AcDb2dPolyline
 66
     1
 10
0.0
 20
0.0
 30
0.0
  0
VERTEX
  5
467B
330
467A
100
AcDbEntity
  8
0
 62
   250
420
  1842203
370
     9
100
AcDbVertex
100
AcDb2dVertex
 10
112.9825954578654
 20
226.2132377906689
 30
0.0
  0
VERTEX
  5
467C
330
467A
100
AcDbEntity
  8
0
 62
   250
420
  1842203
370
     9
100
AcDbVertex
100
AcDb2dVertex
 10
112.9825954578654
 20
130.7703124673074
 30
0.0
  0
SEQEND
  5
467D
330
467A
100
AcDbEntity
  8
0
370
     9
  0
SPLINE
  5
467E
330
4646
100
AcDbEntity
  8
0
 62
   250
420
  1842203
370
     9
100
AcDbSpline
210
0.0
220
0.0
230
1.0
 70
    11
 71
     3
 72
    26
 73
    22
 74
     0
 42
0.0000000001
 43
0.0000000001
 40
0.0
 40
0.0
 40
0.0
 40
0.0
 40
1.0
 40
1.0
 40
1.0
 40
2.0
 40
2.0
 40
2.0
 40
3.0
 40
3.0
 40
3.0
 40
4.0
 40
4.0
 40
4.0
 40
5.0
 40
5.0
 40
5.0
 40
6.0
 40
6.0
 40
6.0
 40
7.0
 40
7.0
 40
7.0
 40
7.0
 10
158.6921223561603
 20
170.2979600268699
 30
0.0
 10
148.9934895460849
 20
170.2979600268699
 30
0.0
 10
142.8143662837408
 20
170.1270832908015
 30
0.0
 10
135.2406683689676
 20
170.1270832908015
 30
0.0
 10
135.2406683689676
 20
170.1270832908015
 30
0.0
 10
135.2406683689676
 20
155.7183159332926
 30
0.0
 10
135.2406683689676
 20
155.7183159332926
 30
0.0
 10
135.2406683689676
 20
155.7183159332926
 30
0.0
 10
145.0192273943007
 20
155.7183159332926
 30
0.0
 10
145.0192273943007
 20
155.7183159332926
 30
0.0
 10
145.0192273943007
 20
158.9704860713685
 30
0.0
 10
147.2544053451308
 20
161.100933119447
 30
0.0
 10
150.1537977055171
 20
161.100933119447
 30
0.0
 10
154.8225911071277
 20
161.0099825986364
 30
0.0
 10
155.7210720096808
 20
161.0651041264004
 30
0.0
 10
158.6397569047845
 20
161.2304687096924
 30
0.0
 10
158.6397569047845
 20
164.6755641949422
 30
0.0
 10
158.6921223561603
 20
170.2979600268699
 30
0.0
 10
158.6921223561603
 20
170.2979600268699
 30
0.0
 10
158.6921223561603
 20
170.2979600268699
 30
0.0
 10
158.6921223561603
 20
170.2979600268699
 30
0.0
 10
158.6921223561603
 20
170.2979600268699
 30
0.0
  0
HATCH
  5
467F
330
4646
100
AcDbEntity
  8
0
 62
   250
420
  1842203
100
AcDbHatch
 10
0.0
 20
0.0
 30
0.0
210
0.0
220
0.0
230
1.0
  2
SOLID
 70
     1
 71
     0
 91
        1
 92
        1
 93
        1
 72
     4
 94
        3
 73
     0
 74
     1
 95
       22
 96
       22
 40
0.0
 40
0.0
 40
0.0
 40
1.0
 40
1.0
 40
1.0
 40
2.0
 40
2.0
 40
2.0
 40
3.0
 40
3.0
 40
3.0
 40
4.0
 40
4.0
 40
4.0
 40
5.0
 40
5.0
 40
5.0
 40
6.0
 40
6.0
 40
6.0
 40
7.0
 10
150.1537977055171
 20
161.100933119447
 10
154.8225911071277
 20
161.0099825986364
 10
155.7210720096808
 20
161.0651041264004
 10
158.6397569047845
 20
161.2304687096924
 10
158.6397569047845
 20
164.6755641949422
 10
158.6921223561603
 20
170.2979600268699
 10
158.6921223561603
 20
170.2979600268699
 10
158.6921223561603
 20
170.2979600268699
 10
158.6921223561603
 20
170.2979600268699
 10
158.6921223561603
 20
170.2979600268699
 10
148.9934895460849
 20
170.2979600268699
 10
142.8143662837408
 20
170.1270832908015
 10
135.2406683689676
 20
170.1270832908015
 10
135.2406683689676
 20
170.1270832908015
 10
135.2406683689676
 20
155.7183159332926
 10
135.2406683689676
 20
155.7183159332926
 10
135.2406683689676
 20
155.7183159332926
 10
145.0192273943007
 20
155.7183159332926
 10
145.0192273943007
 20
155.7183159332926
 10
145.0192273943007
 20
158.9704860713685
 10
147.2544053451308
 20
161.100933119447
 10
150.1537977055171
 20
161.100933119447
 97
        0
 75
     2
 76
     1
 98
        0
450
        0
451
        0
460
0.0
461
0.0
452
        1
462
0.0
453
        0
470

  0
POLYLINE
  5
4680
330
4646
100
AcDbEntity
  8
0
 62
   250
420
  1842203
370
     9
100
AcDb2dPolyline
 66
     1
 10
0.0
 20
0.0
 30
0.0
  0
VERTEX
  5
4681
330
4680
100
AcDbEntity
  8
0
 62
   250
420
  1842203
370
     9
100
AcDbVertex
100
AcDb2dVertex
 10
135.7036892021852
 20
159.3012152379525
 30
0.0
  0
VERTEX
  5
4682
330
4680
100
AcDbEntity
  8
0
 62
   250
420
  1842203
370
     9
100
AcDbVertex
100
AcDb2dVertex
 10
135.7036892021852
 20
189.259765577685
 30
0.0
  0
SEQEND
  5
4683
330
4680
100
AcDbEntity
  8
0
370
     9
  0
POLYLINE
  5
4684
330
4646
100
AcDbEntity
  8
0
 62
   250
420
  1842203
370
     9
100
AcDb2dPolyline
 66
     1
 10
0.0
 20
0.0
 30
0.0
  0
VERTEX
  5
4685
330
4684
100
AcDbEntity
  8
0
 62
   250
420
  1842203
370
     9
100
AcDbVertex
100
AcDb2dVertex
 10
144.2475260056047
 20
163.3884765216528
 30
0.0
  0
VERTEX
  5
4686
330
4684
100
AcDbEntity
  8
0
 62
   250
420
  1842203
370
     9
100
AcDbVertex
100
AcDb2dVertex
 10
144.2475260056047
 20
193.3470268613854
 30
0.0
  0
SEQEND
  5
4687
330
4684
100
AcDbEntity
  8
0
370
     9
  0
SPLINE
  5
4688
330
4646
100
AcDbEntity
  8
0
 62
   250
420
  1842203
370
     9
100
AcDbSpline
210
0.0
220
0.0
230
1.0
 70
    11
 71
     3
 72
    32
 73
    28
 74
     0
 42
0.0000000001
 43
0.0000000001
 40
0.0
 40
0.0
 40
0.0
 40
0.0
 40
1.0
 40
1.0
 40
1.0
 40
2.0
 40
2.0
 40
2.0
 40
3.0
 40
3.0
 40
3.0
 40
4.0
 40
4.0
 40
4.0
 40
5.0
 40
5.0
 40
5.0
 40
6.0
 40
6.0
 40
6.0
 40
7.0
 40
7.0
 40
7.0
 40
8.0
 40
8.0
 40
8.0
 40
9.0
 40
9.0
 40
9.0
 40
9.0
 10
72.48480900965657
 20
191.0677516883442
 30
0.0
 10
72.48480900965657
 20
191.0677516883442
 30
0.0
 10
72.48480900965657
 20
202.4227864077277
 30
0.0
 10
72.48480900965657
 20
202.4227864077277
 30
0.0
 10
72.48480900965657
 20
202.4227864077277
 30
0.0
 10
74.57942706468847
 20
202.4227864077277
 30
0.0
 10
74.57942706468847
 20
202.4227864077277
 30
0.0
 10
74.57942706468847
 20
202.4227864077277
 30
0.0
 10
88.67400171394262
 20
189.755859327561
 30
0.0
 10
88.67400171394262
 20
189.755859327561
 30
0.0
 10
88.67400171394262
 20
189.755859327561
 30
0.0
 10
88.69053817227181
 20
155.6907551694106
 30
0.0
 10
88.69053817227181
 20
155.6907551694106
 30
0.0
 10
88.69053817227181
 20
155.6907551694106
 30
0.0
 10
78.97261282747907
 20
155.6907551694106
 30
0.0
 10
78.97261282747907
 20
155.6907551694106
 30
0.0
 10
78.2505208137707
 20
168.3769747842946
 30
0.0
 10
78.09066838325512
 20
171.2901475266219
 30
0.0
 10
77.38511282787595
 20
183.9074652318009
 30
0.0
 10
77.30243053622995
 20
185.4177950925344
 30
0.0
 10
76.85594616134157
 20
186.1261067243018
 30
0.0
 10
75.79485675188462
 20
187.4490233906377
 30
0.0
 10
75.79485675188462
 20
187.4490233906377
 30
0.0
 10
72.48480900965657
 20
191.0677516883442
 30
0.0
 10
72.48480900965657
 20
191.0677516883442
 30
0.0
 10
72.48480900965657
 20
191.0677516883442
 30
0.0
 10
72.48480900965657
 20
191.0677516883442
 30
0.0
 10
72.48480900965657
 20
191.0677516883442
 30
0.0
  0
HATCH
  5
4689
330
4646
100
AcDbEntity
  8
0
 62
   250
420
  1842203
100
AcDbHatch
 10
0.0
 20
0.0
 30
0.0
210
0.0
220
0.0
230
1.0
  2
SOLID
 70
     1
 71
     0
 91
        1
 92
        1
 93
        1
 72
     4
 94
        3
 73
     0
 74
     1
 95
       28
 96
       28
 40
0.0
 40
0.0
 40
0.0
 40
1.0
 40
1.0
 40
1.0
 40
2.0
 40
2.0
 40
2.0
 40
3.0
 40
3.0
 40
3.0
 40
4.0
 40
4.0
 40
4.0
 40
5.0
 40
5.0
 40
5.0
 40
6.0
 40
6.0
 40
6.0
 40
7.0
 40
7.0
 40
7.0
 40
8.0
 40
8.0
 40
8.0
 40
9.0
 10
72.48480900965657
 20
191.0677516883442
 10
72.48480900965657
 20
191.0677516883442
 10
72.48480900965657
 20
191.0677516883442
 10
72.48480900965657
 20
191.0677516883442
 10
72.48480900965657
 20
191.0677516883442
 10
72.48480900965657
 20
202.4227864077277
 10
72.48480900965657
 20
202.4227864077277
 10
72.48480900965657
 20
202.4227864077277
 10
74.57942706468847
 20
202.4227864077277
 10
74.57942706468847
 20
202.4227864077277
 10
74.57942706468847
 20
202.4227864077277
 10
88.67400171394262
 20
189.755859327561
 10
88.67400171394262
 20
189.755859327561
 10
88.67400171394262
 20
189.755859327561
 10
88.69053817227181
 20
155.6907551694106
 10
88.69053817227181
 20
155.6907551694106
 10
88.69053817227181
 20
155.6907551694106
 10
78.97261282747907
 20
155.6907551694106
 10
78.97261282747907
 20
155.6907551694106
 10
78.2505208137707
 20
168.3769747842946
 10
78.09066838325512
 20
171.2901475266219
 10
77.38511282787595
 20
183.9074652318009
 10
77.30243053622995
 20
185.4177950925344
 10
76.85594616134157
 20
186.1261067243018
 10
75.79485675188462
 20
187.4490233906377
 10
75.79485675188462
 20
187.4490233906377
 10
72.48480900965657
 20
191.0677516883442
 10
72.48480900965657
 20
191.0677516883442
 97
        0
 75
     2
 76
     1
 98
        0
450
        0
451
        0
460
0.0
461
0.0
452
        1
462
0.0
453
        0
470

  0
SPLINE
  5
468A
330
4646
100
AcDbEntity
  8
0
 62
   250
420
  1842203
370
     9
100
AcDbSpline
210
0.0
220
0.0
230
1.0
 70
    11
 71
     3
 72
    41
 73
    37
 74
     0
 42
0.0000000001
 43
0.0000000001
 40
0.0
 40
0.0
 40
0.0
 40
0.0
 40
1.0
 40
1.0
 40
1.0
 40
2.0
 40
2.0
 40
2.0
 40
3.0
 40
3.0
 40
3.0
 40
4.0
 40
4.0
 40
4.0
 40
5.0
 40
5.0
 40
5.0
 40
6.0
 40
6.0
 40
6.0
 40
7.0
 40
7.0
 40
7.0
 40
8.0
 40
8.0
 40
8.0
 40
9.0
 40
9.0
 40
9.0
 40
10.0
 40
10.0
 40
10.0
 40
11.0
 40
11.0
 40
11.0
 40
12.0
 40
12.0
 40
12.0
 40
12.0
 10
300.1312065221894
 20
335.1609374162098
 30
0.0
 10
300.1312065221894
 20
335.1609374162098
 30
0.0
 10
297.4385198909181
 20
336.1806856798438
 30
0.0
 10
297.4385198909181
 20
336.1806856798438
 30
0.0
 10
314.1651474909032
 20
336.1806856798438
 30
0.0
 10
321.650650961254
 20
336.8476561657881
 30
0.0
 10
338.0658419293724
 20
338.1044269988072
 30
0.0
 10
340.582139671799
 20
338.2890841168166
 30
0.0
 10
341.9987629353337
 20
338.25325512377
 30
0.0
 10
341.9987629353337
 20
336.5389756103097
 30
0.0
 10
341.9987629353337
 20
336.5389756103097
 30
0.0
 10
342.0015190117219
 20
325.8674478351998
 30
0.0
 10
342.0015190117219
 20
325.8674478351998
 30
0.0
 10
340.0171440122179
 20
324.8587238771187
 30
0.0
 10
338.473741234826
 20
323.0562499192359
 30
0.0
 10
338.473741234826
 20
321.3309461002229
 30
0.0
 10
338.473741234826
 20
288.886414858334
 30
0.0
 10
338.473741234826
 20
284.8294704149038
 30
0.0
 10
338.473741234826
 20
259.363324587937
 30
0.0
 10
338.473741234826
 20
255.4414278875285
 30
0.0
 10
341.5054252618459
 20
255.185112783426
 30
0.0
 10
341.5054252618459
 20
253.0987629575586
 30
0.0
 10
341.5054252618459
 20
244.5907551471857
 30
0.0
 10
341.4503037340819
 20
248.8185763266843
 30
0.0
 10
341.4503037340819
 20
240.3023002871467
 30
0.0
 10
341.4503037340819
 20
240.3023002871467
 30
0.0
 10
316.893663115221
 20
236.7745225102508
 30
0.0
 10
316.893663115221
 20
236.7745225102508
 30
0.0
 10
313.9033202340242
 20
285.0499565259598
 30
0.0
 10
313.390690025819
 20
289.8923827400269
 30
0.0
 10
311.8224825609333
 20
326.2918835989826
 30
0.0
 10
311.6736544359705
 20
329.759027695338
 30
0.0
 10
305.6874565208004
 20
335.1609374162098
 30
0.0
 10
300.1312065221894
 20
335.1609374162098
 30
0.0
 10
300.1312065221894
 20
335.1609374162098
 30
0.0
 10
300.1312065221894
 20
335.1609374162098
 30
0.0
 10
300.1312065221894
 20
335.1609374162098
 30
0.0
  0
SPLINE
  5
468B
330
4646
100
AcDbEntity
  8
0
 62
   250
420
  1842203
370
     9
100
AcDbSpline
210
0.0
220
0.0
230
1.0
 70
     8
 71
     3
 72
    11
 73
     7
 74
     0
 42
0.0000000001
 43
0.0000000001
 40
0.0
 40
0.0
 40
0.0
 40
0.0
 40
1.0
 40
1.0
 40
1.0
 40
2.0
 40
2.0
 40
2.0
 40
2.0
 10
312.7044270051572
 20
238.3179252876427
 30
0.0
 10
312.7044270051572
 20
238.3179252876427
 30
0.0
 10
323.111371447
 20
22.98567707758691
 30
0.0
 10
323.111371447
 20
22.98567707758691
 30
0.0
 10
323.3373697108323
 20
20.69262152260462
 30
0.0
 10
325.0516492242927
 20
19.53506943956068
 30
0.0
 10
326.7052950572126
 20
19.53506943956068
 30
0.0
  0
POLYLINE
  5
468C
330
4646
100
AcDbEntity
  8
0
 62
   250
420
  1842203
370
     9
100
AcDb2dPolyline
 66
     1
 10
0.0
 20
0.0
 30
0.0
  0
VERTEX
  5
468D
330
468C
100
AcDbEntity
  8
0
 62
   250
420
  1842203
370
     9
100
AcDbVertex
100
AcDb2dVertex
 10
319.9391275241819
 20
83.37131074304606
 30
0.0
  0
VERTEX
  5
468E
330
468C
100
AcDbEntity
  8
0
 62
   250
420
  1842203
370
     9
100
AcDbVertex
100
AcDb2dVertex
 10
345.2784938372915
 20
83.37131074304606
 30
0.0
  0
SEQEND
  5
468F
330
468C
100
AcDbEntity
  8
0
370
     9
  0
SPLINE
  5
4690
330
4646
100
AcDbEntity
  8
0
 62
   250
420
  1842203
370
     9
100
AcDbSpline
210
0.0
220
0.0
230
1.0
 70
     8
 71
     3
 72
    44
 73
    40
 74
     0
 42
0.0000000001
 43
0.0000000001
 40
0.0
 40
0.0
 40
0.0
 40
0.0
 40
1.0
 40
1.0
 40
1.0
 40
2.0
 40
2.0
 40
2.0
 40
3.0
 40
3.0
 40
3.0
 40
4.0
 40
4.0
 40
4.0
 40
5.0
 40
5.0
 40
5.0
 40
6.0
 40
6.0
 40
6.0
 40
7.0
 40
7.0
 40
7.0
 40
8.0
 40
8.0
 40
8.0
 40
9.0
 40
9.0
 40
9.0
 40
10.0
 40
10.0
 40
10.0
 40
11.0
 40
11.0
 40
11.0
 40
12.0
 40
12.0
 40
12.0
 40
13.0
 40
13.0
 40
13.0
 40
13.0
 10
76.13661022402141
 20
193.8348523820968
 30
0.0
 10
74.37272133557349
 20
195.7089843260727
 30
0.0
 10
70.30475258659048
 20
197.4728732145207
 30
0.0
 10
68.72000866337555
 20
197.6602864089182
 30
0.0
 10
0.5126302082051759
 20
205.7025173096855
 30
0.0
 10
-91.00288626197151
 20
206.5679252955802
 30
0.0
 10
-160.6792534320524
 20
327.8711153694211
 30
0.0
 10
-163.51525603551
 20
332.8127603334635
 30
0.0
 10
-166.8473523888437
 20
336.3405381103593
 30
0.0
 10
-172.5799912762994
 20
336.3405381103593
 30
0.0
 10
-172.5799912762994
 20
336.3405381103593
 30
0.0
 10
-185.701670960519
 20
336.3405381103593
 30
0.0
 10
-185.935937453516
 20
336.3405381103593
 30
0.0
 10
-189.4637152304118
 20
336.3405381103593
 30
0.0
 10
-190.5661457856918
 20
333.0249782153549
 30
0.0
 10
-190.5661457856918
 20
329.9464408897356
 30
0.0
 10
-190.5661457856918
 20
316.2763020042643
 30
0.0
 10
-190.5661457856918
 20
311.4256075610325
 30
0.0
 10
-190.5661457856918
 20
299.2988714529531
 30
0.0
 10
-190.5661457856918
 20
298.2157334323905
 30
0.0
 10
-190.0562716538748
 20
297.6782985366916
 30
0.0
 10
-189.6842013414678
 20
296.6530381202812
 30
0.0
 10
-147.229600657637
 20
216.0488280709878
 30
0.0
 10
-36.41328124089668
 20
137.8396484030401
 30
0.0
 10
26.07248263237077
 20
27.5332031181167
 30
0.0
 10
26.07248263237077
 20
27.5332031181167
 30
0.0
 10
28.82855902057064
 20
23.01323784146891
 30
0.0
 10
30.59244790901856
 20
23.01323784146891
 30
0.0
 10
34.12022568591439
 20
23.01323784146891
 30
0.0
 10
39.30164929573015
 20
23.01323784146891
 30
0.0
 10
43.04991318368196
 20
23.01323784146891
 30
0.0
 10
45.91623262740983
 20
23.01323784146891
 30
0.0
 10
45.91347655102163
 20
23.3522352372175
 30
0.0
 10
45.91347655102163
 20
28.63563367339665
 30
0.0
 10
45.91347655102163
 20
28.63563367339665
 30
0.0
 10
50.10822481386184
 20
189.4058376262596
 30
0.0
 10
50.10822481386184
 20
189.4058376262596
 30
0.0
 10
50.54919703597381
 20
193.9258029029074
 30
0.0
 10
55.42194009031118
 20
199.1485676585462
 30
0.0
 10
61.80501300538208
 20
198.4457681795552
 30
0.0
  0
SPLINE
  5
4691
330
4646
100
AcDbEntity
  8
0
 62
   250
420
  1842203
370
     9
100
AcDbSpline
210
0.0
220
0.0
230
1.0
 70
     8
 71
     3
 72
     8
 73
     4
 74
     0
 42
0.0000000001
 43
0.0000000001
 40
0.0
 40
0.0
 40
0.0
 40
0.0
 40
1.0
 40
1.0
 40
1.0
 40
1.0
 10
50.09995658469724
 20
189.039279466629
 30
0.0
 10
50.69802516093661
 20
195.5160589788987
 30
0.0
 10
46.6190321064008
 20
199.8927082833602
 30
0.0
 10
41.61399738542983
 20
200.6423610609505
 30
0.0
  0
ENDBLK
  5
4692
330
4646
100
AcDbEntity
  8
0
100
AcDbBlockEnd
  0
BLOCK
  5
5961
330
58D1
100
AcDbEntity
  8
0
100
AcDbBlockBegin
  2
A$C29795954
 70
     0
 10
0.0
 20
0.0
 30
0.0
  3
A$C29795954
  1

  0
ELLIPSE
  5
58D2
330
58D1
100
AcDbEntity
  8
0
100
AcDbEllipse
 10
314.9742475229393
 20
144.170203777001
 30
0.0
 11
-12.5
 21
0.0000000277877158
 31
0.0
210
0.0
220
0.0
230
1.0
 40
0.9993879090027238
 41
4.712388980175701
 42
7.853981633765494
  0
ARC
  5
58D3
330
58D1
100
AcDbEntity
  8
0
100
AcDbCircle
 10
179.9742474938347
 20
117.000000286701
 30
0.0
 40
10.0
100
AcDbArc
 50
269.9999999999968
 51
90.0
  0
LINE
  5
58D4
330
58D1
100
AcDbEntity
  8
0
100
AcDbLine
 10
169.9742474938345
 20
107.000000286701
 30
0.0
 11
179.9742474938345
 21
107.000000286701
 31
0.0
  0
ARC
  5
58D5
330
58D1
100
AcDbEntity
  8
0
100
AcDbCircle
 10
1062.639826607256
 20
222.1666531925844
 30
0.0
 40
1000.000003276797
100
AcDbArc
 50
183.7749393805571
 51
191.8996167587253
  0
ARC
  5
58D6
330
58D1
100
AcDbEntity
  8
0
100
AcDbCircle
 10
-432.6913316196072
 20
222.1666531925844
 30
0.0
 40
1000.000003276797
100
AcDbArc
 50
348.1003832412747
 51
356.2250606194429
  0
ARC
  5
58D7
330
58D1
100
AcDbEntity
  8
0
100
AcDbCircle
 10
540.9264838217421
 20
17.00000061019477
 30
0.0
 40
5.000000323493685
100
AcDbArc
 50
269.9999982476966
 51
348.1003815496582
  0
ARC
  5
58D8
330
58D1
100
AcDbEntity
  8
0
100
AcDbCircle
 10
89.02201116590731
 20
17.00000061019477
 30
0.0
 40
5.000000323493685
100
AcDbArc
 50
191.8996184503418
 51
270.0000017523034
  0
ARC
  5
58D9
330
58D1
100
AcDbEntity
  8
0
100
AcDbCircle
 10
169.9742474938347
 20
117.000000286701
 30
0.0
 40
10.0
100
AcDbArc
 50
89.99999999999674
 51
269.9999999999968
  0
SPLINE
  5
58DA
330
58D1
100
AcDbEntity
  8
0
100
AcDbSpline
210
0.0
220
0.0
230
1.0
 70
    24
 71
     3
 72
    20
 73
    16
 74
     0
 42
0.0000000001
 43
0.0000000001
 40
1029.982534466667
 40
1029.982534466667
 40
1029.982534466667
 40
1029.982534466667
 40
1042.173552528489
 40
1042.173552528489
 40
1042.173552528489
 40
1057.861139082227
 40
1057.861139082227
 40
1057.861139082227
 40
1065.705075871443
 40
1065.705075871443
 40
1065.705075871443
 40
1071.2117963
 40
1071.2117963
 40
1071.2117963
 40
1073.48064488
 40
1073.48064488
 40
1073.48064488
 40
1073.48064488
 10
64.80381273058231
 20
156.322979002702
 30
0.0
 10
64.80381286150276
 20
156.322978321103
 30
0.0
 10
64.80393841035271
 20
156.3231154047271
 30
0.0
 10
64.80420968310113
 20
156.323412601334
 30
0.0
 10
64.8045587609796
 20
156.3237950384259
 30
0.0
 10
64.80514972359447
 20
156.324443366765
 30
0.0
 10
64.80601882436179
 20
156.3253983544096
 30
0.0
 10
64.80645338269602
 20
156.3258758569682
 30
0.0
 10
64.80695731507819
 20
156.326429860238
 30
0.0
 10
64.80753356030248
 20
156.3270637846227
 30
0.0
 10
64.8079381047848
 20
156.3275088219112
 30
0.0
 10
64.80837820387546
 20
156.3279931559895
 30
0.0
 10
64.80885457277293
 20
156.3285176535184
 30
0.0
 10
64.80905084365872
 20
156.3287337540976
 30
0.0
 10
64.80925331187859
 20
156.3289567273558
 30
0.0
 10
64.80946291760528
 20
156.3291876082572
 30
0.0
  0
SPLINE
  5
58DB
330
58D1
100
AcDbEntity
  8
0
100
AcDbSpline
210
0.0
220
0.0
230
1.0
 70
    27
 71
     5
 72
    12
 73
     6
 74
     0
 42
0.0000000001
 43
0.0000000001
 40
197.4569117721938
 40
197.4569117721938
 40
197.4569117721938
 40
197.4569117721938
 40
197.4569117721938
 40
197.4569117721938
 40
197.4569800891532
 40
197.4569800891532
 40
197.4569800891532
 40
197.4569800891532
 40
197.4569800891532
 40
197.4569800891532
 10
545.8232620032456
 20
15.96258596001866
 30
0.0
 10
545.8232620032579
 20
15.96258596007646
 30
0.0
 10
545.8232620032548
 20
15.962585960062
 30
0.0
 10
545.8232620032517
 20
15.96258596004753
 30
0.0
 10
545.8232620032487
 20
15.96258596003309
 30
0.0
 10
545.8232620032456
 20
15.96258596001866
 30
0.0
  0
SPLINE
  5
58DC
330
58D1
100
AcDbEntity
  8
0
100
AcDbSpline
210
0.0
220
0.0
230
1.0
 70
     8
 71
     3
 72
    14
 73
    10
 74
     0
 42
0.0000000001
 43
0.0000000001
 40
20.26952785544671
 40
20.26952785544671
 40
20.26952785544671
 40
20.26952785544671
 40
23.9263617302
 40
23.9263617302
 40
23.9263617302
 40
29.1527899512
 40
29.1527899512
 40
29.1527899512
 40
32.91735050154404
 40
32.91735050154404
 40
32.91735050154404
 40
32.91735050154404
 10
514.6890224627991
 20
12.00000028671684
 30
0.0
 10
513.7010809928556
 20
12.00000173638438
 30
0.0
 10
512.6589992928282
 20
12.10036418542802
 30
0.0
 10
511.6229337349645
 20
12.31671158924308
 30
0.0
 10
510.1421658204554
 20
12.62592010556261
 30
0.0
 10
508.6862717152646
 20
13.17296320911569
 30
0.0
 10
507.3848213001229
 20
13.89853744171094
 30
0.0
 10
506.4473954551863
 20
14.4211636056749
 30
0.0
 10
505.5863359794408
 20
15.03382474779462
 30
0.0
 10
504.8154327871148
 20
15.70788804779715
 30
0.0
  0
SPLINE
  5
58DD
330
58D1
100
AcDbEntity
  8
0
100
AcDbSpline
210
0.0
220
0.0
230
1.0
 70
     8
 71
     3
 72
     8
 73
     4
 74
     0
 42
0.0000000001
 43
0.0000000001
 40
9.40554554014
 40
9.40554554014
 40
9.40554554014
 40
9.40554554014
 40
17.164318793
 40
17.164318793
 40
17.164318793
 40
17.164318793
 10
500.8020008698959
 20
19.15277707672925
 30
0.0
 10
502.1531322115056
 20
18.01440304429786
 30
0.0
 10
503.4948896347225
 20
16.86254789531466
 30
0.0
 10
504.8154247428317
 20
15.70789508170111
 30
0.0
  0
SPLINE
  5
58DE
330
58D1
100
AcDbEntity
  8
0
100
AcDbSpline
210
0.0
220
0.0
230
1.0
 70
     8
 71
     5
 72
    12
 73
     6
 74
     0
 42
0.0000000001
 43
0.0000000001
 40
71.9302732668
 40
71.9302732668
 40
71.9302732668
 40
71.9302732668
 40
71.9302732668
 40
71.9302732668
 40
360.041620423
 40
360.041620423
 40
360.041620423
 40
360.041620423
 40
360.041620423
 40
360.041620423
 10
500.8019607738317
 20
19.15277312470107
 30
0.0
 10
469.928950378832
 20
45.16417819870111
 30
0.0
 10
434.4977348348324
 20
65.78107005070103
 30
0.0
 10
395.7615470322327
 20
79.92933630480104
 30
0.0
 10
355.3676549646328
 20
87.00000028670103
 30
0.0
 10
314.9742474938332
 20
87.00000028670103
 30
0.0
  0
SPLINE
  5
58DF
330
58D1
100
AcDbEntity
  8
0
100
AcDbSpline
210
0.0
220
0.0
230
1.0
 70
     8
 71
     5
 72
    12
 73
     6
 74
     0
 42
0.0000000001
 43
0.0000000001
 40
71.9302732668
 40
71.9302732668
 40
71.9302732668
 40
71.9302732668
 40
71.9302732668
 40
71.9302732668
 40
360.041620423
 40
360.041620423
 40
360.041620423
 40
360.041620423
 40
360.041620423
 40
360.041620423
 10
129.1465342138316
 20
19.15277312470107
 30
0.0
 10
160.0195446088321
 20
45.16417819870111
 30
0.0
 10
195.4507601528324
 20
65.78107005070103
 30
0.0
 10
234.1869479554327
 20
79.92933630480104
 30
0.0
 10
274.5808400230328
 20
87.00000028670103
 30
0.0
 10
314.9742474938328
 20
87.00000028670103
 30
0.0
  0
SPLINE
  5
58E0
330
58D1
100
AcDbEntity
  8
0
100
AcDbSpline
210
0.0
220
0.0
230
1.0
 70
     8
 71
     3
 72
     8
 73
     4
 74
     0
 42
0.0000000001
 43
0.0000000001
 40
9.40554554014
 40
9.40554554014
 40
9.40554554014
 40
9.40554554014
 40
17.164318793
 40
17.164318793
 40
17.164318793
 40
17.164318793
 10
129.1464941177673
 20
19.15277707672916
 30
0.0
 10
127.7953627761577
 20
18.01440304429786
 30
0.0
 10
126.4536053529407
 20
16.86254789531466
 30
0.0
 10
125.1330702448318
 20
15.70789508170105
 30
0.0
  0
ELLIPSE
  5
58E1
330
58D1
100
AcDbEntity
  8
0
100
AcDbEllipse
 10
504.4896567759803
 20
16.99981542163965
 30
0.0
 11
10.07771147851642
 21
-0.4457185042400051
 31
0.0
210
0.0
220
0.0
230
1.0
 40
0.0256018838955934
 41
0.0034338762435748
 42
0.0038285903063123
  0
SPLINE
  5
58E2
330
58D1
100
AcDbEntity
  8
0
100
AcDbSpline
210
0.0
220
0.0
230
1.0
 70
    27
 71
     3
 72
     8
 73
     4
 74
     0
 42
0.0000000001
 43
0.0000000001
 40
2.681318228409539
 40
2.681318228409539
 40
2.681318228409539
 40
2.681318228409539
 40
2.681330862747264
 40
2.681330862747264
 40
2.681330862747264
 40
2.681330862747264
 10
501.7509851686518
 20
158.455146716923
 30
0.0
 10
501.7509852004255
 20
158.4551464452813
 30
0.0
 10
501.7509851845407
 20
158.4551465811022
 30
0.0
 10
501.7509851686518
 20
158.455146716923
 30
0.0
  0
SPLINE
  5
58E3
330
58D1
100
AcDbEntity
  8
0
100
AcDbSpline
210
0.0
220
0.0
230
1.0
 70
    27
 71
     3
 72
     8
 73
     4
 74
     0
 42
0.0000000001
 43
0.0000000001
 40
2.681318228409613
 40
2.681318228409613
 40
2.681318228409613
 40
2.681318228409613
 40
2.681330862747561
 40
2.681330862747561
 40
2.681330862747561
 40
2.681330862747561
 10
128.1975098190246
 20
158.455146716923
 30
0.0
 10
128.1975097872509
 20
158.4551464452813
 30
0.0
 10
128.1975098031357
 20
158.4551465811022
 30
0.0
 10
128.1975098190246
 20
158.455146716923
 30
0.0
  0
ELLIPSE
  5
58E4
330
58D1
100
AcDbEntity
  8
0
100
AcDbEllipse
 10
125.4588382116919
 20
16.99981542163965
 30
0.0
 11
-10.07771147851648
 21
-0.445718504240158
 31
0.0
210
0.0
220
0.0
230
1.0
 40
0.025601883895567
 41
6.279356716872673
 42
6.279751430935275
  0
ELLIPSE
  5
58E5
330
58D1
100
AcDbEntity
  8
0
100
AcDbEllipse
 10
208.227556621313
 20
49.42194037070288
 30
0.0
 11
0.2021804132051951
 21
4.996312200543482
 31
0.0
210
0.0
220
0.0
230
1.0
 40
0.6111021392837958
 41
6.282922917907641
 42
6.282932186777262
  0
SPLINE
  5
58E6
330
58D1
100
AcDbEntity
  8
0
100
AcDbSpline
210
0.0
220
0.0
230
1.0
 70
    24
 71
     3
 72
    50
 73
    46
 74
     0
 42
0.0000000001
 43
0.0000000001
 40
512.3513363699999
 40
512.3513363699999
 40
512.3513363699999
 40
512.3513363699999
 40
519.389000627
 40
519.389000627
 40
519.389000627
 40
520.5620333509999
 40
520.5620333509999
 40
520.5620333509999
 40
521.7350660741961
 40
521.7350660741961
 40
521.7350660741961
 40
527.386501492
 40
527.386501492
 40
527.386501492
 40
531.3011925629999
 40
531.3011925629999
 40
531.3011925629999
 40
532.834541317
 40
532.834541317
 40
532.834541317
 40
536.2121878257823
 40
536.2121878257823
 40
536.2121878257823
 40
539.5898343349723
 40
539.5898343349723
 40
539.5898343349723
 40
546.3451273542027
 40
546.3451273542027
 40
546.3451273542027
 40
553.128302319
 40
553.128302319
 40
553.128302319
 40
559.865230393
 40
559.865230393
 40
559.865230393
 40
592.1445203367891
 40
592.1445203367891
 40
592.1445203367891
 40
595.6912278309999
 40
595.6912278309999
 40
595.6912278309999
 40
613.4082895789999
 40
613.4082895789999
 40
613.4082895789999
 40
617.941743467
 40
617.941743467
 40
617.941743467
 40
617.941743467
 10
134.3980715252618
 20
162.9999999161011
 30
0.0
 10
134.2963879122766
 20
162.9999999286009
 30
0.0
 10
134.2144725100395
 20
162.9999999408766
 30
0.0
 10
134.1521840540335
 20
162.9999999533631
 30
0.0
 10
134.1418018598062
 20
162.9999999554443
 30
0.0
 10
134.1319609009351
 20
162.9999999575678
 30
0.0
 10
134.1226701993235
 20
162.9999999596415
 30
0.0
 10
134.1133794977182
 20
162.9999999617151
 30
0.0
 10
134.1046471585313
 20
162.9999999637692
 30
0.0
 10
134.096496425071
 20
162.9999999658109
 30
0.0
 10
134.0572278327739
 20
162.9999999756468
 30
0.0
 10
134.0332819115889
 20
162.9999999846591
 30
0.0
 10
134.0186626421671
 20
162.9999999941473
 30
0.0
 10
134.0085360249026
 20
163.0000000007196
 30
0.0
 10
134.002509549637
 20
163.0000000074902
 30
0.0
 10
133.9966112108305
 20
163.0000000144362
 30
0.0
 10
133.9943008853679
 20
163.0000000171569
 30
0.0
 10
133.9921806812946
 20
163.0000000197357
 30
0.0
 10
133.9897667534143
 20
163.000000022458
 30
0.0
 10
133.9844493753189
 20
163.0000000284544
 30
0.0
 10
133.9785818710156
 20
163.0000000345343
 30
0.0
 10
133.9723811730993
 20
163.000000040576
 30
0.0
 10
133.9661804751823
 20
163.0000000466177
 30
0.0
 10
133.9596415763657
 20
163.0000000526011
 30
0.0
 10
133.9528330383985
 20
163.000000058601
 30
0.0
 10
133.9392159624624
 20
163.0000000706011
 30
0.0
 10
133.9245034481185
 20
163.0000000826293
 30
0.0
 10
133.9086353592935
 20
163.000000094771
 30
0.0
 10
133.8927017761683
 20
163.0000001069627
 30
0.0
 10
133.8759455126231
 20
163.000000118826
 30
0.0
 10
133.8579123155431
 20
163.0000001309507
 30
0.0
 10
133.8400020666842
 20
163.0000001429927
 30
0.0
 10
133.821131902259
 20
163.0000001549911
 30
0.0
 10
133.8013481177041
 20
163.0000001669414
 30
0.0
 10
133.7065561723519
 20
163.0000002241998
 30
0.0
 10
133.5896559260151
 20
163.0000002818296
 30
0.0
 10
133.467371511751
 20
163.0000003399345
 30
0.0
 10
133.4539354340291
 20
163.0000003463188
 30
0.0
 10
133.4404437120237
 20
163.000000352706
 30
0.0
 10
133.4269225768849
 20
163.0000003590945
 30
0.0
 10
133.3593797116925
 20
163.0000003910075
 30
0.0
 10
133.2910632570818
 20
163.0000004229711
 30
0.0
 10
133.2256559810009
 20
163.0000004548212
 30
0.0
 10
133.2089195224238
 20
163.0000004629711
 30
0.0
 10
133.1928255008385
 20
163.0000004709343
 30
0.0
 10
133.1772853408383
 20
163.000000478601
 30
0.0
  0
SPLINE
  5
58E7
330
58D1
100
AcDbEntity
  8
0
100
AcDbSpline
210
0.0
220
0.0
230
1.0
 70
     8
 71
     3
 72
    14
 73
    10
 74
     0
 42
0.0000000001
 43
0.0000000001
 40
20.2695133862
 40
20.2695133862
 40
20.2695133862
 40
20.2695133862
 40
23.9263617302
 40
23.9263617302
 40
23.9263617302
 40
29.1527899512
 40
29.1527899512
 40
29.1527899512
 40
32.9173635959
 40
32.9173635959
 40
32.9173635959
 40
32.9173635959
 10
115.2595109168225
 20
12.00000028682137
 30
0.0
 10
116.2474716606497
 20
12.00000424333999
 30
0.0
 10
117.2894915953646
 20
12.10036332939131
 30
0.0
 10
118.3255612527001
 20
12.31671158924308
 30
0.0
 10
119.8063291672088
 20
12.62592010556261
 30
0.0
 10
121.2622232723994
 20
13.17296320911569
 30
0.0
 10
122.5636736875409
 20
13.89853744171094
 30
0.0
 10
123.5011027931468
 20
14.4211654235373
 30
0.0
 10
124.3621400209488
 20
15.03380916002743
 30
0.0
 10
125.1330537263937
 20
15.70788063816042
 30
0.0
  0
LINE
  5
58E8
330
58D1
100
AcDbEntity
  8
0
100
AcDbLine
 10
134.3980016209401
 20
163.000000504452
 30
0.0
 11
134.3980125319596
 21
163.0000005044521
 31
0.0
  0
SPLINE
  5
58E9
330
58D1
100
AcDbEntity
  8
0
100
AcDbSpline
210
0.0
220
0.0
230
1.0
 70
     8
 71
     5
 72
    54
 73
    48
 74
     0
 42
0.0000000001
 43
0.0000000001
 40
-4.02869928721
 40
-4.02869928721
 40
-4.02869928721
 40
-4.02869928721
 40
-4.02869928721
 40
-4.02869928721
 40
10.3482178528
 40
10.3482178528
 40
10.3482178528
 40
17.5366764228
 40
17.5366764228
 40
17.5366764228
 40
24.7251349927
 40
24.7251349927
 40
24.7251349927
 40
39.1020521327
 40
39.1020521327
 40
39.1020521327
 40
53.47896927269999
 40
53.47896927269999
 40
53.47896927269999
 40
57.0731985577
 40
57.0731985577
 40
57.0731985577
 40
60.6674278427
 40
60.6674278427
 40
60.6674278427
 40
67.8558864127
 40
67.8558864127
 40
67.8558864127
 40
75.0443449827
 40
75.0443449827
 40
75.0443449827
 40
78.6385742677
 40
78.6385742677
 40
78.6385742677
 40
82.2328035527
 40
82.2328035527
 40
82.2328035527
 40
96.60972069260001
 40
96.60972069260001
 40
96.60972069260001
 40
100.203949978
 40
100.203949978
 40
100.203949978
 40
103.798179263
 40
103.798179263
 40
103.798179263
 40
110.9866305015712
 40
110.9866305015712
 40
110.9866305015712
 40
110.9866305015712
 40
110.9866305015712
 40
110.9866305015712
 10
152.4922223088879
 20
67.42961011570105
 30
0.0
 10
154.636441946888
 20
66.15854747570108
 30
0.0
 10
156.7966384368879
 20
64.93121984770107
 30
0.0
 10
158.9534871328879
 20
63.75831248470103
 30
0.0
 10
162.1972626978879
 20
62.06537470870102
 30
0.0
 10
165.5547221318879
 20
60.42598304570105
 30
0.0
 10
166.6920267058879
 20
59.88279253470108
 30
0.0
 10
169.0299765558879
 20
58.79244297370104
 30
0.0
 10
171.4367331758879
 20
57.72262422370108
 30
0.0
 10
172.6496124908879
 20
57.19671762270104
 30
0.0
 10
176.3015333258879
 20
55.65184995170108
 30
0.0
 10
179.9757209538879
 20
54.21015082570102
 30
0.0
 10
182.4185313318879
 20
53.2992545997011
 30
0.0
 10
187.3667468978879
 20
51.537654534701
 30
0.0
 10
192.8468388428879
 20
49.78404603870103
 30
0.0
 10
195.5915986698879
 20
48.95874921070106
 30
0.0
 10
198.9819838668879
 20
47.99045688770104
 30
0.0
 10
202.4659338778879
 20
47.06317908670103
 30
0.0
 10
203.167911883888
 20
46.87898130370103
 30
0.0
 10
204.5861510268879
 20
46.51214910170108
 30
0.0
 10
206.042888736888
 20
46.1462815217011
 30
0.0
 10
206.781860736888
 20
45.96344547470107
 30
0.0
 10
209.017670860888
 20
45.41866996070109
 30
0.0
 10
211.3046801988879
 20
44.88653382670105
 30
0.0
 10
212.8408183808879
 20
44.54032170270108
 30
0.0
 10
215.923082413288
 20
43.86715911370106
 30
0.0
 10
219.022843361788
 20
43.23182810670107
 30
0.0
 10
220.5764798888879
 20
42.92344659270099
 30
0.0
 10
222.9204991455879
 20
42.47263359070109
 30
0.0
 10
225.3124741873879
 20
42.03461186670108
 30
0.0
 10
226.1166606085879
 20
41.88975668370107
 30
0.0
 10
227.742691838188
 20
41.60172387570105
 30
0.0
 10
229.413743295488
 20
41.31569181770106
 30
0.0
 10
230.264998168288
 20
41.17248882870103
 30
0.0
 10
234.5852634179879
 20
40.45881523570108
 30
0.0
 10
239.1487585629879
 20
39.77055369470105
 30
0.0
 10
242.800515799988
 20
39.26506463770108
 30
0.0
 10
247.353038931488
 20
38.67737346370103
 30
0.0
 10
252.200191474888
 20
38.11514378170102
 30
0.0
 10
253.1845020447879
 20
38.00341884570105
 30
0.0
 10
255.190690106688
 20
37.78074469270104
 30
0.0
 10
257.2910455994879
 20
37.55826357670105
 30
0.0
 10
258.357512100088
 20
37.44803605170103
 30
0.0
 10
261.5876475543337
 20
37.12244052608202
 30
0.0
 10
264.8851410447824
 20
36.81472366815069
 30
0.0
 10
267.0895918408966
 20
36.6200392253711
 30
0.0
 10
269.3153203410957
 20
36.43352591559318
 30
0.0
 10
271.6151712335137
 20
36.25193587971023
 30
0.0
  0
LINE
  5
58EA
330
58D1
100
AcDbEntity
  8
0
100
AcDbLine
 10
495.5504933667341
 20
163.000000504452
 30
0.0
 11
495.5504824557146
 21
163.0000005044521
 31
0.0
  0
SPLINE
  5
58EB
330
58D1
100
AcDbEntity
  8
0
100
AcDbSpline
210
0.0
220
0.0
230
1.0
 70
    24
 71
     3
 72
    50
 73
    46
 74
     0
 42
0.0000000001
 43
0.0000000001
 40
512.3513363699999
 40
512.3513363699999
 40
512.3513363699999
 40
512.3513363699999
 40
519.389000627
 40
519.389000627
 40
519.389000627
 40
520.5620333509999
 40
520.5620333509999
 40
520.5620333509999
 40
521.7350660741961
 40
521.7350660741961
 40
521.7350660741961
 40
527.386501492
 40
527.386501492
 40
527.386501492
 40
531.3011925629999
 40
531.3011925629999
 40
531.3011925629999
 40
532.834541317
 40
532.834541317
 40
532.834541317
 40
536.2121878257823
 40
536.2121878257823
 40
536.2121878257823
 40
539.5898343349723
 40
539.5898343349723
 40
539.5898343349723
 40
546.3451273542027
 40
546.3451273542027
 40
546.3451273542027
 40
553.128302319
 40
553.128302319
 40
553.128302319
 40
559.865230393
 40
559.865230393
 40
559.865230393
 40
592.1445203367891
 40
592.1445203367891
 40
592.1445203367891
 40
595.6912278309999
 40
595.6912278309999
 40
595.6912278309999
 40
613.4082895789999
 40
613.4082895789999
 40
613.4082895789999
 40
617.941743467
 40
617.941743467
 40
617.941743467
 40
617.941743467
 10
495.5504234624583
 20
162.9999999161011
 30
0.0
 10
495.6521070754424
 20
162.9999999286009
 30
0.0
 10
495.7340224776786
 20
162.9999999408766
 30
0.0
 10
495.7963109336836
 20
162.9999999533631
 30
0.0
 10
495.8066931279108
 20
162.9999999554443
 30
0.0
 10
495.8165340867816
 20
162.9999999575678
 30
0.0
 10
495.8258247883931
 20
162.9999999596415
 30
0.0
 10
495.8351154899983
 20
162.9999999617151
 30
0.0
 10
495.843847829185
 20
162.9999999637692
 30
0.0
 10
495.8519985626451
 20
162.9999999658109
 30
0.0
 10
495.8912671549415
 20
162.9999999756468
 30
0.0
 10
495.9152130761258
 20
162.9999999846591
 30
0.0
 10
495.9298323455469
 20
162.9999999941473
 30
0.0
 10
495.9399589628108
 20
163.0000000007196
 30
0.0
 10
495.9459854380759
 20
163.0000000074902
 30
0.0
 10
495.9518837768819
 20
163.0000000144362
 30
0.0
 10
495.9541941023443
 20
163.0000000171569
 30
0.0
 10
495.9563143064174
 20
163.0000000197357
 30
0.0
 10
495.9587282342974
 20
163.000000022458
 30
0.0
 10
495.9640456123924
 20
163.0000000284544
 30
0.0
 10
495.9699131166953
 20
163.0000000345343
 30
0.0
 10
495.976113814611
 20
163.000000040576
 30
0.0
 10
495.9823145125277
 20
163.0000000466177
 30
0.0
 10
495.9888534113438
 20
163.0000000526011
 30
0.0
 10
495.9956619493104
 20
163.000000058601
 30
0.0
 10
496.0092790252456
 20
163.0000000706011
 30
0.0
 10
496.0239915395886
 20
163.0000000826293
 30
0.0
 10
496.0398596284127
 20
163.000000094771
 30
0.0
 10
496.055793211537
 20
163.0000001069627
 30
0.0
 10
496.0725494750812
 20
163.000000118826
 30
0.0
 10
496.0905826721603
 20
163.0000001309507
 30
0.0
 10
496.1084929210183
 20
163.0000001429927
 30
0.0
 10
496.1273630854426
 20
163.0000001549911
 30
0.0
 10
496.1471468699965
 20
163.0000001669414
 30
0.0
 10
496.2419388153443
 20
163.0000002241998
 30
0.0
 10
496.3588390616767
 20
163.0000002818296
 30
0.0
 10
496.4811234759363
 20
163.0000003399345
 30
0.0
 10
496.4945595536577
 20
163.0000003463188
 30
0.0
 10
496.5080512756626
 20
163.000000352706
 30
0.0
 10
496.5215724108009
 20
163.0000003590945
 30
0.0
 10
496.5891152759907
 20
163.0000003910075
 30
0.0
 10
496.6574317305991
 20
163.0000004229711
 30
0.0
 10
496.7228390066776
 20
163.0000004548212
 30
0.0
 10
496.7395754652541
 20
163.0000004629711
 30
0.0
 10
496.7556694868386
 20
163.0000004709343
 30
0.0
 10
496.7712096468383
 20
163.000000478601
 30
0.0
  0
SPLINE
  5
58EC
330
58D1
100
AcDbEntity
  8
0
100
AcDbSpline
210
0.0
220
0.0
230
1.0
 70
    24
 71
     3
 72
    35
 73
    31
 74
     0
 42
0.0000000001
 43
0.0000000001
 40
45.2705019913
 40
45.2705019913
 40
45.2705019913
 40
45.2705019913
 40
48.05042900570001
 40
48.05042900570001
 40
48.05042900570001
 40
57.522043445
 40
57.522043445
 40
57.522043445
 40
62.87671409003663
 40
62.87671409003663
 40
62.87671409003663
 40
65.55404941272009
 40
65.55404941272009
 40
65.55404941272009
 40
68.23138473573917
 40
68.23138473573917
 40
68.23138473573917
 40
70.312397
 40
70.312397
 40
70.312397
 40
72.2275895849
 40
72.2275895849
 40
72.2275895849
 40
89.8884989819
 40
89.8884989819
 40
89.8884989819
 40
125.212767175
 40
125.212767175
 40
125.212767175
 40
134.049394190237
 40
134.049394190237
 40
134.049394190237
 40
134.049394190237
 10
495.55041254886
 20
162.999999916101
 30
0.0
 10
494.6375271371296
 20
162.999999916517
 30
0.0
 10
493.7243305413684
 20
162.999999916899
 30
0.0
 10
492.8107250522457
 20
162.9999999172451
 30
0.0
 10
489.6979386741235
 20
162.9999999184243
 30
0.0
 10
486.5792317198248
 20
162.999999919168
 30
0.0
 10
483.4591766548448
 20
162.9999999193939
 30
0.0
 10
481.6952886319092
 20
162.9999999195217
 30
0.0
 10
479.9308675282204
 20
162.9999999195603
 30
0.0
 10
478.1667316956521
 20
162.9999999194122
 30
0.0
 10
477.2846637793135
 20
162.9999999193381
 30
0.0
 10
476.4026501106512
 20
162.9999999192511
 30
0.0
 10
475.5207883523611
 20
162.9999999191261
 30
0.0
 10
474.6389265939606
 20
162.999999919001
 30
0.0
 10
473.7572119162974
 20
162.9999999188635
 30
0.0
 10
472.875833055955
 20
162.9999999186759
 30
0.0
 10
472.1907637625933
 20
162.9999999185302
 30
0.0
 10
471.6696593058631
 20
162.9999999184482
 30
0.0
 10
470.9849336226135
 20
162.9999999183199
 30
0.0
 10
470.3547684026524
 20
162.9999999182017
 30
0.0
 10
469.7246569836094
 20
162.9999999180756
 30
0.0
 10
469.0945975021302
 20
162.9999999179436
 30
0.0
 10
463.2845168319889
 20
162.9999999167259
 30
0.0
 10
457.478757912897
 20
162.9999999153158
 30
0.0
 10
451.6735162693302
 20
162.9999999141122
 30
0.0
 10
440.0622278507428
 20
162.9999999117047
 30
0.0
 10
428.4697860659077
 20
162.9999999102557
 30
0.0
 10
416.8512440305677
 20
162.9999999096691
 30
0.0
 10
413.9447797871781
 20
162.9999999095224
 30
0.0
 10
411.0512940516099
 20
162.9999999094677
 30
0.0
 10
408.1443982572617
 20
162.9999999093011
 30
0.0
  0
SPLINE
  5
58ED
330
58D1
100
AcDbEntity
  8
0
100
AcDbSpline
210
0.0
220
0.0
230
1.0
 70
    24
 71
     3
 72
    20
 73
    16
 74
     0
 42
0.0000000001
 43
0.0000000001
 40
131.966286656
 40
131.966286656
 40
131.966286656
 40
131.966286656
 40
132.961449588
 40
132.961449588
 40
132.961449588
 40
135.3334792054116
 40
135.3334792054116
 40
135.3334792054116
 40
138.7006708752041
 40
138.7006708752041
 40
138.7006708752041
 40
145.4348901442035
 40
145.4348901442035
 40
145.4348901442035
 40
185.838336623
 40
185.838336623
 40
185.838336623
 40
185.838336623
 10
408.1443982533603
 20
162.9999999093011
 30
0.0
 10
407.8143840293636
 20
162.9999999093011
 30
0.0
 10
407.4867749898489
 20
162.9999999093011
 30
0.0
 10
407.1592890875751
 20
162.999999909301
 30
0.0
 10
406.3787070999435
 20
162.9999999093007
 30
0.0
 10
405.5982595968917
 20
162.9999999093054
 30
0.0
 10
404.8177154980886
 20
162.9999999092761
 30
0.0
 10
403.7097016823659
 20
162.9999999092344
 30
0.0
 10
402.6016541632146
 20
162.9999999092085
 30
0.0
 10
401.4935508447745
 20
162.9999999091899
 30
0.0
 10
399.2773982016013
 20
162.9999999091529
 30
0.0
 10
397.0610169303778
 20
162.9999999091085
 30
0.0
 10
394.844301138747
 20
162.9999999090899
 30
0.0
 10
381.5446216557586
 20
162.9999999089788
 30
0.0
 10
368.2287492674603
 20
162.999999908901
 30
0.0
 10
354.9159315431603
 20
162.999999908901
 30
0.0
  0
LINE
  5
58EE
330
58D1
100
AcDbEntity
  8
0
100
AcDbLine
 10
354.9159274788788
 20
162.9999999091101
 30
0.0
 11
354.6865463755441
 21
163.0000000106921
 31
0.0
  0
SPLINE
  5
58EF
330
58D1
100
AcDbEntity
  8
0
100
AcDbSpline
210
0.0
220
0.0
230
1.0
 70
    24
 71
     3
 72
    20
 73
    16
 74
     0
 42
0.0000000001
 43
0.0000000001
 40
3.532209427379999
 40
3.532209427379999
 40
3.532209427379999
 40
3.532209427379999
 40
4.675486873559999
 40
4.675486873559999
 40
4.675486873559999
 40
9.616405130869999
 40
9.616405130869999
 40
9.616405130869999
 40
14.5286503061
 40
14.5286503061
 40
14.5286503061
 40
19.43406366
 40
19.43406366
 40
19.43406366
 40
21.0662910907
 40
21.0662910907
 40
21.0662910907
 40
21.0662910907
 10
354.6865463859564
 20
163.000000010501
 30
0.0
 10
354.6803360181229
 20
163.0000000132562
 30
0.0
 10
354.6569600733548
 20
163.0000000160015
 30
0.0
 10
354.6164843773389
 20
163.000000018723
 30
0.0
 10
354.4415599912323
 20
163.0000000304845
 30
0.0
 10
353.9429224878655
 20
163.0000000421152
 30
0.0
 10
353.1592675439813
 20
163.0000000523947
 30
0.0
 10
352.3801602977837
 20
163.0000000626145
 30
0.0
 10
351.3198101320087
 20
163.0000000715598
 30
0.0
 10
350.0672824800819
 20
163.0000000784567
 30
0.0
 10
348.8164968106545
 20
163.000000085344
 30
0.0
 10
347.3756568082692
 20
163.0000000901631
 30
0.0
 10
345.8701944712433
 20
163.0000000924794
 30
0.0
 10
345.3692668745045
 20
163.0000000932501
 30
0.0
 10
344.8613899430653
 20
163.0000000937514
 30
0.0
 10
344.3515860514511
 20
163.000000094001
 30
0.0
  0
LINE
  5
58F0
330
58D1
100
AcDbEntity
  8
0
100
AcDbLine
 10
314.974247493853
 20
163.0000001007011
 30
0.0
 11
344.3515855971644
 21
163.0000000941011
 31
0.0
  0
LINE
  5
58F1
330
58D1
100
AcDbEntity
  8
0
100
AcDbLine
 10
314.974247493853
 20
163.0000001007011
 30
0.0
 11
285.5969093905431
 21
163.000000094001
 31
0.0
  0
SPLINE
  5
58F2
330
58D1
100
AcDbEntity
  8
0
100
AcDbSpline
210
0.0
220
0.0
230
1.0
 70
    24
 71
     3
 72
    20
 73
    16
 74
     0
 42
0.0000000001
 43
0.0000000001
 40
3.532209427379999
 40
3.532209427379999
 40
3.532209427379999
 40
3.532209427379999
 40
4.675486873559999
 40
4.675486873559999
 40
4.675486873559999
 40
9.616405130869999
 40
9.616405130869999
 40
9.616405130869999
 40
14.5286503061
 40
14.5286503061
 40
14.5286503061
 40
19.43406366
 40
19.43406366
 40
19.43406366
 40
21.0662910907
 40
21.0662910907
 40
21.0662910907
 40
21.0662910907
 10
275.2619486017564
 20
163.000000010501
 30
0.0
 10
275.2681589695896
 20
163.0000000132562
 30
0.0
 10
275.2915349143576
 20
163.0000000160015
 30
0.0
 10
275.3320106103733
 20
163.000000018723
 30
0.0
 10
275.5069349964789
 20
163.0000000304845
 30
0.0
 10
276.0055724998448
 20
163.0000000421152
 30
0.0
 10
276.7892274437282
 20
163.0000000523947
 30
0.0
 10
277.5683346899251
 20
163.0000000626145
 30
0.0
 10
278.6286848556994
 20
163.0000000715598
 30
0.0
 10
279.8812125076257
 20
163.0000000784567
 30
0.0
 10
281.1319981770525
 20
163.000000085344
 30
0.0
 10
282.5728381794375
 20
163.0000000901631
 30
0.0
 10
284.0783005164632
 20
163.0000000924794
 30
0.0
 10
284.5792281132019
 20
163.0000000932501
 30
0.0
 10
285.087105044641
 20
163.0000000937514
 30
0.0
 10
285.5969089362552
 20
163.000000094001
 30
0.0
  0
LINE
  5
58F3
330
58D1
100
AcDbEntity
  8
0
100
AcDbLine
 10
275.0325675085567
 20
162.9999999089095
 30
0.0
 11
275.2619486121687
 21
163.0000000104926
 31
0.0
  0
SPLINE
  5
58F4
330
58D1
100
AcDbEntity
  8
0
100
AcDbSpline
210
0.0
220
0.0
230
1.0
 70
    24
 71
     3
 72
    20
 73
    16
 74
     0
 42
0.0000000001
 43
0.0000000001
 40
131.9662982057222
 40
131.9662982057222
 40
131.9662982057222
 40
131.9662982057222
 40
132.961449588
 40
132.961449588
 40
132.961449588
 40
135.3334792054116
 40
135.3334792054116
 40
135.3334792054116
 40
138.7006708752041
 40
138.7006708752041
 40
138.7006708752041
 40
145.4348901442035
 40
145.4348901442035
 40
145.4348901442035
 40
185.838336623
 40
185.838336623
 40
185.838336623
 40
185.838336623
 10
221.8041082246565
 20
162.9999999093011
 30
0.0
 10
222.1341185627266
 20
162.9999999093011
 30
0.0
 10
222.4617237986274
 20
162.9999999093011
 30
0.0
 10
222.7892059001454
 20
162.999999909301
 30
0.0
 10
223.5697878877772
 20
162.9999999093007
 30
0.0
 10
224.3502353908289
 20
162.9999999093054
 30
0.0
 10
225.130779489632
 20
162.9999999092761
 30
0.0
 10
226.2387933053546
 20
162.9999999092344
 30
0.0
 10
227.346840824506
 20
162.9999999092085
 30
0.0
 10
228.4549441429461
 20
162.9999999091899
 30
0.0
 10
230.6710967861193
 20
162.9999999091529
 30
0.0
 10
232.8874780573428
 20
162.9999999091085
 30
0.0
 10
235.1041938489736
 20
162.9999999090899
 30
0.0
 10
248.403873331962
 20
162.9999999089788
 30
0.0
 10
261.7197457202604
 20
162.999999908901
 30
0.0
 10
275.0325634445603
 20
162.999999908901
 30
0.0
  0
SPLINE
  5
58F5
330
58D1
100
AcDbEntity
  8
0
100
AcDbSpline
210
0.0
220
0.0
230
1.0
 70
    24
 71
     3
 72
    35
 73
    31
 74
     0
 42
0.0000000001
 43
0.0000000001
 40
45.2705019913
 40
45.2705019913
 40
45.2705019913
 40
45.2705019913
 40
48.05042900570001
 40
48.05042900570001
 40
48.05042900570001
 40
57.522043445
 40
57.522043445
 40
57.522043445
 40
62.87671409003663
 40
62.87671409003663
 40
62.87671409003663
 40
65.55404941272009
 40
65.55404941272009
 40
65.55404941272009
 40
68.23138473573917
 40
68.23138473573917
 40
68.23138473573917
 40
70.312397
 40
70.312397
 40
70.312397
 40
72.2275895849
 40
72.2275895849
 40
72.2275895849
 40
89.8884989819
 40
89.8884989819
 40
89.8884989819
 40
125.212767175
 40
125.212767175
 40
125.212767175
 40
134.049394190237
 40
134.049394190237
 40
134.049394190237
 40
134.049394190237
 10
134.39808243886
 20
162.999999916101
 30
0.0
 10
135.3109678505904
 20
162.999999916517
 30
0.0
 10
136.2241644463515
 20
162.999999916899
 30
0.0
 10
137.1377699354742
 20
162.9999999172451
 30
0.0
 10
140.2505563135963
 20
162.9999999184243
 30
0.0
 10
143.369263267895
 20
162.999999919168
 30
0.0
 10
146.4893183328749
 20
162.9999999193939
 30
0.0
 10
148.2532063558107
 20
162.9999999195217
 30
0.0
 10
150.0176274594993
 20
162.9999999195603
 30
0.0
 10
151.7817632920677
 20
162.9999999194122
 30
0.0
 10
152.6638312084063
 20
162.9999999193381
 30
0.0
 10
153.5458448770687
 20
162.9999999192511
 30
0.0
 10
154.4277066353586
 20
162.9999999191261
 30
0.0
 10
155.3095683937592
 20
162.999999919001
 30
0.0
 10
156.1912830714224
 20
162.9999999188635
 30
0.0
 10
157.0726619317648
 20
162.9999999186759
 30
0.0
 10
157.7577312251265
 20
162.9999999185302
 30
0.0
 10
158.2788356818568
 20
162.9999999184482
 30
0.0
 10
158.9635613651062
 20
162.9999999183199
 30
0.0
 10
159.5937265850675
 20
162.9999999182017
 30
0.0
 10
160.2238380041104
 20
162.9999999180756
 30
0.0
 10
160.8538974855897
 20
162.9999999179436
 30
0.0
 10
166.6639781557311
 20
162.9999999167259
 30
0.0
 10
172.4697370748232
 20
162.9999999153158
 30
0.0
 10
178.27497871839
 20
162.9999999141122
 30
0.0
 10
189.8862671369776
 20
162.9999999117047
 30
0.0
 10
201.4787089218128
 20
162.9999999102557
 30
0.0
 10
213.0972509571528
 20
162.9999999096691
 30
0.0
 10
216.0037152005425
 20
162.9999999095224
 30
0.0
 10
218.8972009361107
 20
162.9999999094677
 30
0.0
 10
221.8040967304589
 20
162.9999999093011
 30
0.0
  0
LINE
  5
58F6
330
58D1
100
AcDbEntity
  8
0
100
AcDbLine
 10
221.8041082224515
 20
163.000000306601
 30
0.0
 11
221.8040967304475
 21
163.000000306601
 31
0.0
  0
LINE
  5
58F7
330
58D1
100
AcDbEntity
  8
0
100
AcDbLine
 10
229.974247493845
 20
165.000000306601
 30
0.0
 11
199.9742474938449
 21
165.000000306601
 31
0.0
  0
ARC
  5
58F8
330
58D1
100
AcDbEntity
  8
0
100
AcDbCircle
 10
353.9622171155867
 20
42.13816436573392
 30
0.0
 40
5.000173506181892
100
AcDbArc
 50
94.15867248962582
 51
132.9993039844744
  0
SPLINE
  5
58F9
330
58D1
100
AcDbEntity
  8
0
100
AcDbSpline
210
0.0
220
0.0
230
1.0
 70
     8
 71
     3
 72
    95
 73
    91
 74
     0
 42
0.0000000001
 43
0.0000000001
 40
-114.408203425
 40
-114.408203425
 40
-114.408203425
 40
-114.408203425
 40
-97.37605022841231
 40
-97.37605022841231
 40
-97.37605022841231
 40
-95.68150479596388
 40
-95.68150479596388
 40
-95.68150479596388
 40
-78.38898375214579
 40
-78.38898375214579
 40
-78.38898375214579
 40
-73.56523219957885
 40
-73.56523219957885
 40
-73.56523219957885
 40
-56.1841292339501
 40
-56.1841292339501
 40
-56.1841292339501
 40
-41.95721979067339
 40
-41.95721979067339
 40
-41.95721979067339
 40
-40.27099871269291
 40
-40.27099871269291
 40
-40.27099871269291
 40
-24.02075401893903
 40
-24.02075401893903
 40
-24.02075401893903
 40
-14.00622440898345
 40
-14.00622440898345
 40
-14.00622440898345
 40
-5.594174031981536
 40
-5.594174031981536
 40
-5.594174031981536
 40
-3.898900159332554
 40
-3.898900159332554
 40
-3.898900159332554
 40
9.506171138119029
 40
9.506171138119029
 40
9.506171138119029
 40
20.53895364797
 40
20.53895364797
 40
20.53895364797
 40
21.27993181241111
 40
21.27993181241111
 40
21.27993181241111
 40
30.38495334265788
 40
30.38495334265788
 40
30.38495334265788
 40
37.55101854573187
 40
37.55101854573187
 40
37.55101854573187
 40
44.31631379729019
 40
44.31631379729019
 40
44.31631379729019
 40
47.63584354422099
 40
47.63584354422099
 40
47.63584354422099
 40
56.04386872967294
 40
56.04386872967294
 40
56.04386872967294
 40
63.18718388481858
 40
63.18718388481858
 40
63.18718388481858
 40
64.40476005972449
 40
64.40476005972449
 40
64.40476005972449
 40
72.54134992911213
 40
72.54134992911213
 40
72.54134992911213
 40
79.72813290733377
 40
79.72813290733377
 40
79.72813290733377
 40
80.67793979849978
 40
80.67793979849978
 40
80.67793979849978
 40
89.876807634641
 40
89.876807634641
 40
89.876807634641
 40
96.75877936575714
 40
96.75877936575714
 40
96.75877936575714
 40
99.07567547078222
 40
99.07567547078222
 40
99.07567547078222
 40
106.2246164233911
 40
106.2246164233911
 40
106.2246164233911
 40
111.5589024997526
 40
111.5589024997526
 40
111.5589024997526
 40
113.373557376
 40
113.373557376
 40
113.373557376
 40
113.373557376
 10
534.455601390888
 20
137.024369990301
 30
0.0
 10
531.6453352235812
 20
133.304195109384
 30
0.0
 10
528.8020681844309
 20
129.6634069225712
 30
0.0
 10
525.9409908698684
 20
126.1393646027046
 30
0.0
 10
525.6563395143225
 20
125.7887542161046
 30
0.0
 10
525.3711642427829
 20
125.438875054188
 30
0.0
 10
525.0851144576205
 20
125.0893209766037
 30
0.0
 10
522.1660295899134
 20
121.522186613115
 30
0.0
 10
519.1510631009824
 20
117.9861187334327
 30
0.0
 10
516.1160173739883
 20
114.5971309802922
 30
0.0
 10
515.2693908757119
 20
113.6517722963608
 30
0.0
 10
514.420267174218
 20
112.7166367829854
 30
0.0
 10
513.5617816025062
 20
111.7848682042959
 30
0.0
 10
510.4684576711592
 20
108.4274884906322
 30
0.0
 10
507.2795616274826
 20
105.144466387097
 30
0.0
 10
504.0348741373139
 20
102.0074651546921
 30
0.0
 10
501.37900844308
 20
99.43974361566615
 30
0.0
 10
498.6451991568497
 20
96.93025550765169
 30
0.0
 10
495.8536601325461
 20
94.51594507438789
 30
0.0
 10
495.5227975540252
 20
94.2297928951258
 30
0.0
 10
495.1906361899717
 20
93.94453971671191
 30
0.0
 10
494.8568000204386
 20
93.65990872729197
 30
0.0
 10
491.6395946887174
 20
90.91689757300185
 30
0.0
 10
488.3005451157361
 20
88.26455111553611
 30
0.0
 10
484.9176014439425
 20
85.78091184897516
 30
0.0
 10
482.8327965558653
 20
84.25032080593803
 30
0.0
 10
480.7243950893102
 20
82.77605438223014
 30
0.0
 10
478.5357215315079
 20
81.32478570214846
 30
0.0
 10
476.697269507886
 20
80.10574239977746
 30
0.0
 10
474.8369958209935
 20
78.92664183434511
 30
0.0
 10
472.9407081046341
 20
77.77988763977112
 30
0.0
 10
472.5585507379405
 20
77.54878317209852
 30
0.0
 10
472.1740697399227
 20
77.31847718816408
 30
0.0
 10
471.7864902009849
 20
77.08856535837606
 30
0.0
 10
468.721775150091
 20
75.27057917917523
 30
0.0
 10
465.5073045563987
 20
73.50739812530827
 30
0.0
 10
462.2554881804743
 20
71.86611827851852
 30
0.0
 10
459.5791441281778
 20
70.51529490834553
 30
0.0
 10
456.8415954548775
 20
69.22520335633084
 30
0.0
 10
453.9769244189571
 20
67.97138145036058
 30
0.0
 10
453.7845288302624
 20
67.88717289702493
 30
0.0
 10
453.5912908051733
 20
67.80301539619433
 30
0.0
 10
453.3970725710708
 20
67.71885669096878
 30
0.0
 10
451.0105498799415
 20
66.68472794088012
 30
0.0
 10
448.5044785833955
 20
65.6659197640954
 30
0.0
 10
446.0455276011623
 20
64.72760547568481
 30
0.0
 10
444.1102215712635
 20
63.98910954249135
 30
0.0
 10
442.2039237744298
 20
63.29705464412012
 30
0.0
 10
440.192096681957
 20
62.60326169860002
 30
0.0
 10
438.292783196807
 20
61.9482698743729
 30
0.0
 10
436.31475063287
 20
61.29957195229628
 30
0.0
 10
434.3665145816827
 20
60.69191003929535
 30
0.0
 10
433.4105729286604
 20
60.39374835953435
 30
0.0
 10
432.4556186207566
 20
60.10308863245654
 30
0.0
 10
431.4689218684288
 20
59.81029202784362
 30
0.0
 10
428.9697211453002
 20
59.06866854093959
 30
0.0
 10
426.2680624498501
 20
58.31752903211082
 30
0.0
 10
423.5766599590395
 20
57.61990343420212
 30
0.0
 10
421.2900901906153
 20
57.02721259464789
 30
0.0
 10
419.0338905075311
 20
56.47606423667918
 30
0.0
 10
416.696394506
 20
55.93733102968787
 30
0.0
 10
416.2979689320769
 20
55.84550409734385
 30
0.0
 10
415.8959530915686
 20
55.75378265056918
 30
0.0
 10
415.4883416101449
 20
55.66175423589453
 30
0.0
 10
412.7644319946705
 20
55.04676399383026
 30
0.0
 10
409.8149943679547
 20
54.42638512635273
 30
0.0
 10
406.8907854604153
 20
53.8562044373549
 30
0.0
 10
404.3079276368281
 20
53.35258253481601
 30
0.0
 10
401.7593798580971
 20
52.88737569048937
 30
0.0
 10
399.0514112756979
 20
52.42567881849748
 30
0.0
 10
398.6935255250891
 20
52.36466085371728
 30
0.0
 10
398.3319675520848
 20
52.30357955658201
 30
0.0
 10
397.9663677589858
 20
52.24239908345964
 30
0.0
 10
394.4255383452201
 20
51.64986696810046
 30
0.0
 10
390.5322449679102
 20
51.05691651939776
 30
0.0
 10
386.7157098783325
 20
50.53178212946568
 30
0.0
 10
383.8604360484278
 20
50.1389120403498
 30
0.0
 10
381.0521263144261
 20
49.78104827087133
 30
0.0
 10
378.1183074747526
 20
49.43496399999554
 30
0.0
 10
377.1306031208165
 20
49.31845069094243
 30
0.0
 10
376.124814202914
 20
49.20290234714298
 30
0.0
 10
375.0798844472416
 20
49.08632118693913
 30
0.0
 10
371.8556824181888
 20
48.72660206588045
 30
0.0
 10
368.2752896295307
 20
48.36156282916715
 30
0.0
 10
364.6819988512592
 20
48.03274471638383
 30
0.0
 10
362.0008127715424
 20
47.78739230792178
 30
0.0
 10
359.3265981231746
 20
47.56165309374028
 30
0.0
 10
356.5290821316221
 20
47.34503778895282
 30
0.0
 10
355.5774035071954
 20
47.27134807425153
 30
0.0
 10
354.6077979178861
 20
47.19846599506041
 30
0.0
 10
353.5996113618805
 20
47.12517270301924
 30
0.0
  0
SPLINE
  5
58FA
330
58D1
100
AcDbEntity
  8
0
100
AcDbSpline
210
0.0
220
0.0
230
1.0
 70
     8
 71
     5
 72
    15
 73
     9
 74
     0
 42
0.0000000001
 43
0.0000000001
 40
-25.54067612521257
 40
-25.54067612521257
 40
-25.54067612521257
 40
-25.54067612521257
 40
-25.54067612521257
 40
-25.54067612521257
 40
-0.7637118654190001
 40
-0.7637118654190001
 40
-0.7637118654190001
 40
28.8430783762
 40
28.8430783762
 40
28.8430783762
 40
28.8430783762
 40
28.8430783762
 40
28.8430783762
 10
560.4411422998046
 20
174.6027226477826
 30
0.0
 10
558.1337571815163
 20
171.0086553971747
 30
0.0
 10
555.8037373052892
 20
167.4319692842504
 30
0.0
 10
553.4744674440905
 20
163.9126675138934
 30
0.0
 10
548.3825592458466
 20
156.3396223572472
 30
0.0
 10
543.088046183888
 20
148.7665771050011
 30
0.0
 10
540.2337349708879
 20
144.784447022501
 30
0.0
 10
537.3866309158879
 20
140.904409025201
 30
0.0
 10
534.455601390888
 20
137.024369990301
 30
0.0
  0
SPLINE
  5
58FB
330
58D1
100
AcDbEntity
  8
0
100
AcDbSpline
210
0.0
220
0.0
230
1.0
 70
    27
 71
     5
 72
    12
 73
     6
 74
     0
 42
0.0000000001
 43
0.0000000001
 40
227.4224807277577
 40
227.4224807277577
 40
227.4224807277577
 40
227.4224807277577
 40
227.4224807277577
 40
227.4224807277577
 40
227.4225313322974
 40
227.4225313322974
 40
227.4225313322974
 40
227.4225313322974
 40
227.4225313322974
 40
227.4225313322974
 10
560.5366478830551
 20
174.5211078538696
 30
0.0
 10
560.5366478939608
 20
174.5211078723407
 30
0.0
 10
560.5366478912344
 20
174.5211078677228
 30
0.0
 10
560.536647888508
 20
174.5211078631051
 30
0.0
 10
560.5366478857815
 20
174.5211078584872
 30
0.0
 10
560.5366478830551
 20
174.5211078538696
 30
0.0
  0
SPLINE
  5
58FC
330
58D1
100
AcDbEntity
  8
0
100
AcDbSpline
210
0.0
220
0.0
230
1.0
 70
    27
 71
     5
 72
    12
 73
     6
 74
     0
 42
0.0000000001
 43
0.0000000001
 40
325.4809797618995
 40
325.4809797618995
 40
325.4809797618995
 40
325.4809797618995
 40
325.4809797618995
 40
325.4809797618995
 40
325.481228599966
 40
325.481228599966
 40
325.481228599966
 40
325.481228599966
 40
325.481228599966
 40
325.481228599966
 10
560.4382458887006
 20
174.6066936475398
 30
0.0
 10
560.4382458914918
 20
174.6066936518709
 30
0.0
 10
560.4382458907941
 20
174.6066936507882
 30
0.0
 10
560.4382458900961
 20
174.6066936497054
 30
0.0
 10
560.4382458893984
 20
174.6066936486226
 30
0.0
 10
560.4382458887006
 20
174.6066936475398
 30
0.0
  0
SPLINE
  5
58FD
330
58D1
100
AcDbEntity
  8
0
100
AcDbSpline
210
0.0
220
0.0
230
1.0
 70
     8
 71
     4
 72
    10
 73
     5
 74
     0
 42
0.0000000001
 43
0.0000000001
 40
0.0
 40
0.0
 40
0.0
 40
0.0
 40
0.0
 40
5.213562854485139
 40
5.213562854485139
 40
5.213562854485139
 40
5.213562854485139
 40
5.213562854485139
 10
560.4411445048879
 20
174.602726082501
 30
0.0
 10
561.1454362757463
 20
175.6997566550764
 30
0.0
 10
562.2184216110944
 20
176.5639512391052
 30
0.0
 10
563.5253232420819
 20
176.9999992444435
 30
0.0
 10
564.8289731171771
 20
177.0000002866994
 30
0.0
  0
SPLINE
  5
58FE
330
58D1
100
AcDbEntity
  8
0
100
AcDbSpline
210
0.0
220
0.0
230
1.0
 70
    27
 71
     5
 72
    12
 73
     6
 74
     0
 42
0.0000000001
 43
0.0000000001
 40
227.4224807277905
 40
227.4224807277905
 40
227.4224807277905
 40
227.4224807277905
 40
227.4224807277905
 40
227.4224807277905
 40
227.4225313322926
 40
227.4225313322926
 40
227.4225313322926
 40
227.4225313322926
 40
227.4225313322926
 40
227.4225313322926
 10
69.41184710480678
 20
174.5211078538696
 30
0.0
 10
69.41184709390086
 20
174.5211078723406
 30
0.0
 10
69.41184709662735
 20
174.5211078677228
 30
0.0
 10
69.41184709935379
 20
174.5211078631051
 30
0.0
 10
69.41184710208029
 20
174.5211078584872
 30
0.0
 10
69.41184710480678
 20
174.5211078538696
 30
0.0
  0
SPLINE
  5
58FF
330
58D1
100
AcDbEntity
  8
0
100
AcDbSpline
210
0.0
220
0.0
230
1.0
 70
    27
 71
     5
 72
    12
 73
     6
 74
     0
 42
0.0000000001
 43
0.0000000001
 40
325.4809797620804
 40
325.4809797620804
 40
325.4809797620804
 40
325.4809797620804
 40
325.4809797620804
 40
325.4809797620804
 40
325.4812285999589
 40
325.4812285999589
 40
325.4812285999589
 40
325.4812285999589
 40
325.4812285999589
 40
325.4812285999589
 10
69.51024909910291
 20
174.6066936475398
 30
0.0
 10
69.51024909631172
 20
174.6066936518709
 30
0.0
 10
69.51024909700947
 20
174.6066936507882
 30
0.0
 10
69.51024909770729
 20
174.6066936497054
 30
0.0
 10
69.51024909840509
 20
174.6066936486226
 30
0.0
 10
69.51024909910291
 20
174.6066936475398
 30
0.0
  0
SPLINE
  5
5900
330
58D1
100
AcDbEntity
  8
0
100
AcDbSpline
210
0.0
220
0.0
230
1.0
 70
     8
 71
     4
 72
    10
 73
     5
 74
     0
 42
0.0000000001
 43
0.0000000001
 40
0.0
 40
0.0
 40
0.0
 40
0.0
 40
0.0
 40
5.213562854485139
 40
5.213562854485139
 40
5.213562854485139
 40
5.213562854485139
 40
5.213562854485139
 10
69.50735048288788
 20
174.602726082501
 30
0.0
 10
68.80305871202949
 20
175.6997566550764
 30
0.0
 10
67.7300733766815
 20
176.5639512391052
 30
0.0
 10
66.42317174569399
 20
176.9999992444435
 30
0.0
 10
65.11952187059875
 20
177.0000002866994
 30
0.0
  0
SPLINE
  5
5901
330
58D1
100
AcDbEntity
  8
0
100
AcDbSpline
210
0.0
220
0.0
230
1.0
 70
     8
 71
     5
 72
    15
 73
     9
 74
     0
 42
0.0000000001
 43
0.0000000001
 40
-25.54067612521254
 40
-25.54067612521254
 40
-25.54067612521254
 40
-25.54067612521254
 40
-25.54067612521254
 40
-25.54067612521254
 40
-0.7637118654190001
 40
-0.7637118654190001
 40
-0.7637118654190001
 40
28.8430783762
 40
28.8430783762
 40
28.8430783762
 40
28.8430783762
 40
28.8430783762
 40
28.8430783762
 10
69.50735268797131
 20
174.6027226477826
 30
0.0
 10
71.81473780625964
 20
171.0086553971747
 30
0.0
 10
74.14475768248667
 20
167.4319692842504
 30
0.0
 10
76.47402754368528
 20
163.9126675138934
 30
0.0
 10
81.56593574192925
 20
156.3396223572472
 30
0.0
 10
86.86044880388795
 20
148.7665771050011
 30
0.0
 10
89.71476001688802
 20
144.784447022501
 30
0.0
 10
92.56186407188796
 20
140.904409025201
 30
0.0
 10
95.49289359688799
 20
137.024369990301
 30
0.0
  0
SPLINE
  5
5902
330
58D1
100
AcDbEntity
  8
0
100
AcDbSpline
210
0.0
220
0.0
230
1.0
 70
     8
 71
     3
 72
    95
 73
    91
 74
     0
 42
0.0000000001
 43
0.0000000001
 40
-114.408203425
 40
-114.408203425
 40
-114.408203425
 40
-114.408203425
 40
-97.37605022841231
 40
-97.37605022841231
 40
-97.37605022841231
 40
-95.68150479596388
 40
-95.68150479596388
 40
-95.68150479596388
 40
-78.38898375214579
 40
-78.38898375214579
 40
-78.38898375214579
 40
-73.56523219957885
 40
-73.56523219957885
 40
-73.56523219957885
 40
-56.1841292339501
 40
-56.1841292339501
 40
-56.1841292339501
 40
-41.95721979067339
 40
-41.95721979067339
 40
-41.95721979067339
 40
-40.27099871269291
 40
-40.27099871269291
 40
-40.27099871269291
 40
-24.02075401893903
 40
-24.02075401893903
 40
-24.02075401893903
 40
-14.00622440898345
 40
-14.00622440898345
 40
-14.00622440898345
 40
-5.594174031981536
 40
-5.594174031981536
 40
-5.594174031981536
 40
-3.898900159332554
 40
-3.898900159332554
 40
-3.898900159332554
 40
9.506171138119029
 40
9.506171138119029
 40
9.506171138119029
 40
20.53895364797
 40
20.53895364797
 40
20.53895364797
 40
21.27993181241111
 40
21.27993181241111
 40
21.27993181241111
 40
30.38495334265788
 40
30.38495334265788
 40
30.38495334265788
 40
37.55101854573187
 40
37.55101854573187
 40
37.55101854573187
 40
44.31631379729019
 40
44.31631379729019
 40
44.31631379729019
 40
47.63584354422099
 40
47.63584354422099
 40
47.63584354422099
 40
56.04386872967294
 40
56.04386872967294
 40
56.04386872967294
 40
63.18718388481858
 40
63.18718388481858
 40
63.18718388481858
 40
64.40476005972449
 40
64.40476005972449
 40
64.40476005972449
 40
72.54134992911213
 40
72.54134992911213
 40
72.54134992911213
 40
79.72813290733377
 40
79.72813290733377
 40
79.72813290733377
 40
80.67793979849978
 40
80.67793979849978
 40
80.67793979849978
 40
89.876807634641
 40
89.876807634641
 40
89.876807634641
 40
96.75877936575714
 40
96.75877936575714
 40
96.75877936575714
 40
99.07567547078222
 40
99.07567547078222
 40
99.07567547078222
 40
106.2246164233911
 40
106.2246164233911
 40
106.2246164233911
 40
111.5589024997526
 40
111.5589024997526
 40
111.5589024997526
 40
113.373557376
 40
113.373557376
 40
113.373557376
 40
113.373557376
 10
95.49289359688799
 20
137.024369990301
 30
0.0
 10
98.30315976419463
 20
133.304195109384
 30
0.0
 10
101.146426803345
 20
129.6634069225712
 30
0.0
 10
104.0075041179075
 20
126.1393646027046
 30
0.0
 10
104.2921554734534
 20
125.7887542161046
 30
0.0
 10
104.5773307449929
 20
125.438875054188
 30
0.0
 10
104.8633805301554
 20
125.0893209766037
 30
0.0
 10
107.7824653978624
 20
121.522186613115
 30
0.0
 10
110.7974318867934
 20
117.9861187334327
 30
0.0
 10
113.8324776137875
 20
114.5971309802922
 30
0.0
 10
114.6791041120639
 20
113.6517722963608
 30
0.0
 10
115.5282278135578
 20
112.7166367829854
 30
0.0
 10
116.3867133852696
 20
111.7848682042959
 30
0.0
 10
119.4800373166167
 20
108.4274884906322
 30
0.0
 10
122.6689333602932
 20
105.144466387097
 30
0.0
 10
125.9136208504619
 20
102.0074651546921
 30
0.0
 10
128.5694865446959
 20
99.43974361566615
 30
0.0
 10
131.3032958309261
 20
96.93025550765169
 30
0.0
 10
134.0948348552297
 20
94.51594507438789
 30
0.0
 10
134.4256974337506
 20
94.2297928951258
 30
0.0
 10
134.7578587978041
 20
93.94453971671191
 30
0.0
 10
135.0916949673373
 20
93.65990872729197
 30
0.0
 10
138.3089002990584
 20
90.91689757300185
 30
0.0
 10
141.6479498720398
 20
88.26455111553611
 30
0.0
 10
145.0308935438334
 20
85.78091184897516
 30
0.0
 10
147.1156984319105
 20
84.25032080593803
 30
0.0
 10
149.2240998984656
 20
82.77605438223014
 30
0.0
 10
151.4127734562679
 20
81.32478570214846
 30
0.0
 10
153.2512254798899
 20
80.10574239977746
 30
0.0
 10
155.1114991667823
 20
78.92664183434511
 30
0.0
 10
157.0077868831417
 20
77.77988763977112
 30
0.0
 10
157.3899442498353
 20
77.54878317209852
 30
0.0
 10
157.774425247853
 20
77.31847718816408
 30
0.0
 10
158.1620047867908
 20
77.08856535837606
 30
0.0
 10
161.2267198376848
 20
75.27057917917523
 30
0.0
 10
164.4411904313771
 20
73.50739812530827
 30
0.0
 10
167.6930068073015
 20
71.86611827851852
 30
0.0
 10
170.3693508595981
 20
70.51529490834553
 30
0.0
 10
173.1068995328984
 20
69.22520335633084
 30
0.0
 10
175.9715705688187
 20
67.97138145036058
 30
0.0
 10
176.1639661575135
 20
67.88717289702493
 30
0.0
 10
176.3572041826025
 20
67.80301539619433
 30
0.0
 10
176.551422416705
 20
67.71885669096878
 30
0.0
 10
178.9379451078343
 20
66.68472794088012
 30
0.0
 10
181.4440164043803
 20
65.6659197640954
 30
0.0
 10
183.9029673866136
 20
64.72760547568481
 30
0.0
 10
185.8382734165124
 20
63.98910954249135
 30
0.0
 10
187.744571213346
 20
63.29705464412012
 30
0.0
 10
189.7563983058189
 20
62.60326169860002
 30
0.0
 10
191.6557117909689
 20
61.9482698743729
 30
0.0
 10
193.6337443549058
 20
61.29957195229628
 30
0.0
 10
195.5819804060931
 20
60.69191003929535
 30
0.0
 10
196.5379220591155
 20
60.39374835953435
 30
0.0
 10
197.4928763670193
 20
60.10308863245654
 30
0.0
 10
198.4795731193471
 20
59.81029202784362
 30
0.0
 10
200.9787738424756
 20
59.06866854093959
 30
0.0
 10
203.6804325379258
 20
58.31752903211082
 30
0.0
 10
206.3718350287364
 20
57.61990343420212
 30
0.0
 10
208.6584047971606
 20
57.02721259464789
 30
0.0
 10
210.9146044802448
 20
56.47606423667918
 30
0.0
 10
213.2521004817759
 20
55.93733102968787
 30
0.0
 10
213.650526055699
 20
55.84550409734385
 30
0.0
 10
214.0525418962072
 20
55.75378265056918
 30
0.0
 10
214.460153377631
 20
55.66175423589453
 30
0.0
 10
217.1840629931054
 20
55.04676399383026
 30
0.0
 10
220.1335006198212
 20
54.42638512635273
 30
0.0
 10
223.0577095273606
 20
53.8562044373549
 30
0.0
 10
225.6405673509477
 20
53.35258253481601
 30
0.0
 10
228.1891151296787
 20
52.88737569048937
 30
0.0
 10
230.897083712078
 20
52.42567881849748
 30
0.0
 10
231.2549694626868
 20
52.36466085371728
 30
0.0
 10
231.6165274356911
 20
52.30357955658201
 30
0.0
 10
231.9821272287901
 20
52.24239908345964
 30
0.0
 10
235.5229566425557
 20
51.64986696810046
 30
0.0
 10
239.4162500198657
 20
51.05691651939776
 30
0.0
 10
243.2327851094434
 20
50.53178212946568
 30
0.0
 10
246.0880589393481
 20
50.1389120403498
 30
0.0
 10
248.8963686733498
 20
49.78104827087133
 30
0.0
 10
251.8301875130233
 20
49.43496399999554
 30
0.0
 10
252.8178918669594
 20
49.31845069094243
 30
0.0
 10
253.8236807848619
 20
49.20290234714298
 30
0.0
 10
254.8686105405343
 20
49.08632118693913
 30
0.0
 10
258.0928125695871
 20
48.72660206588045
 30
0.0
 10
261.6732053582451
 20
48.36156282916715
 30
0.0
 10
265.2664961365167
 20
48.03274471638383
 30
0.0
 10
267.9476822162334
 20
47.78739230792178
 30
0.0
 10
270.6218968646013
 20
47.56165309374028
 30
0.0
 10
273.4194128561538
 20
47.34503778895282
 30
0.0
 10
274.3710914805805
 20
47.27134807425153
 30
0.0
 10
275.3406970698899
 20
47.19846599506041
 30
0.0
 10
276.3488836258954
 20
47.12517270301924
 30
0.0
  0
ARC
  5
5903
330
58D1
100
AcDbEntity
  8
0
100
AcDbCircle
 10
275.9862778721891
 20
42.13816436573369
 30
0.0
 40
5.000173506182146
100
AcDbArc
 50
47.00069601552553
 51
85.84132751037419
  0
ELLIPSE
  5
5904
330
58D1
100
AcDbEntity
  8
0
100
AcDbEllipse
 10
314.9742474647853
 20
144.170203777001
 30
0.0
 11
12.5
 21
-0.0000000277876984
 31
0.0
210
0.0
220
0.0
230
1.0
 40
0.9993879090027236
 41
4.712388980175701
 42
7.853981633765495
  0
LINE
  5
5905
330
58D1
100
AcDbEntity
  8
0
100
AcDbLine
 10
399.974247493845
 20
165.0000003070011
 30
0.0
 11
429.9742474938449
 21
165.0000003070011
 31
0.0
  0
SPLINE
  5
5906
330
58D1
100
AcDbEntity
  8
0
100
AcDbSpline
210
0.0
220
0.0
230
1.0
 70
    27
 71
     3
 72
     8
 73
     4
 74
     0
 42
0.0000000001
 43
0.0000000001
 40
54.21889796065038
 40
54.21889796065038
 40
54.21889796065038
 40
54.21889796065038
 40
54.21899718609999
 40
54.21899718609999
 40
54.21899718609999
 40
54.21899718609999
 10
274.6316185787879
 20
34.92421156070105
 30
0.0
 10
274.6316185791236
 20
34.92421156032896
 30
0.0
 10
274.6316185789384
 20
34.92421156051467
 30
0.0
 10
274.6316185787879
 20
34.92421156070105
 30
0.0
  0
SPLINE
  5
5907
330
58D1
100
AcDbEntity
  8
0
100
AcDbSpline
210
0.0
220
0.0
230
1.0
 70
     8
 71
     5
 72
    54
 73
    48
 74
     0
 42
0.0000000001
 43
0.0000000001
 40
-4.02869928721
 40
-4.02869928721
 40
-4.02869928721
 40
-4.02869928721
 40
-4.02869928721
 40
-4.02869928721
 40
10.3482178528
 40
10.3482178528
 40
10.3482178528
 40
17.5366764228
 40
17.5366764228
 40
17.5366764228
 40
24.7251349927
 40
24.7251349927
 40
24.7251349927
 40
39.1020521327
 40
39.1020521327
 40
39.1020521327
 40
53.47896927269999
 40
53.47896927269999
 40
53.47896927269999
 40
57.0731985577
 40
57.0731985577
 40
57.0731985577
 40
60.6674278427
 40
60.6674278427
 40
60.6674278427
 40
67.8558864127
 40
67.8558864127
 40
67.8558864127
 40
75.0443449827
 40
75.0443449827
 40
75.0443449827
 40
78.6385742677
 40
78.6385742677
 40
78.6385742677
 40
82.2328035527
 40
82.2328035527
 40
82.2328035527
 40
96.60972069260001
 40
96.60972069260001
 40
96.60972069260001
 40
100.203949978
 40
100.203949978
 40
100.203949978
 40
103.798179263
 40
103.798179263
 40
103.798179263
 40
110.9866305015712
 40
110.9866305015712
 40
110.9866305015712
 40
110.9866305015712
 40
110.9866305015712
 40
110.9866305015712
 10
477.4562726788879
 20
67.42961011570105
 30
0.0
 10
475.3120530408879
 20
66.15854747570108
 30
0.0
 10
473.1518565508879
 20
64.93121984770107
 30
0.0
 10
470.9950078548879
 20
63.75831248470103
 30
0.0
 10
467.751232289888
 20
62.06537470870102
 30
0.0
 10
464.393772855888
 20
60.42598304570105
 30
0.0
 10
463.2564682818879
 20
59.88279253470108
 30
0.0
 10
460.9185184318879
 20
58.79244297370104
 30
0.0
 10
458.5117618118879
 20
57.72262422370108
 30
0.0
 10
457.2988824968879
 20
57.19671762270104
 30
0.0
 10
453.6469616618879
 20
55.65184995170108
 30
0.0
 10
449.972774033888
 20
54.21015082570102
 30
0.0
 10
447.5299636558879
 20
53.2992545997011
 30
0.0
 10
442.5817480898879
 20
51.537654534701
 30
0.0
 10
437.1016561448879
 20
49.78404603870103
 30
0.0
 10
434.356896317888
 20
48.95874921070106
 30
0.0
 10
430.9665111208879
 20
47.99045688770104
 30
0.0
 10
427.4825611098879
 20
47.06317908670103
 30
0.0
 10
426.7805831038879
 20
46.87898130370103
 30
0.0
 10
425.362343960888
 20
46.51214910170108
 30
0.0
 10
423.9056062508879
 20
46.1462815217011
 30
0.0
 10
423.1666342508879
 20
45.96344547470107
 30
0.0
 10
420.9308241268879
 20
45.41866996070109
 30
0.0
 10
418.6438147888879
 20
44.88653382670105
 30
0.0
 10
417.1076766068879
 20
44.54032170270108
 30
0.0
 10
414.0254125744879
 20
43.86715911370106
 30
0.0
 10
410.9256516259879
 20
43.23182810670107
 30
0.0
 10
409.3720150988879
 20
42.92344659270099
 30
0.0
 10
407.0279958421879
 20
42.47263359070109
 30
0.0
 10
404.6360208003879
 20
42.03461186670108
 30
0.0
 10
403.8318343791879
 20
41.88975668370107
 30
0.0
 10
402.2058031495879
 20
41.60172387570105
 30
0.0
 10
400.534751692288
 20
41.31569181770106
 30
0.0
 10
399.683496819488
 20
41.17248882870103
 30
0.0
 10
395.363231569788
 20
40.45881523570108
 30
0.0
 10
390.799736424788
 20
39.77055369470105
 30
0.0
 10
387.1479791877879
 20
39.26506463770108
 30
0.0
 10
382.5954560562879
 20
38.67737346370103
 30
0.0
 10
377.7483035128879
 20
38.11514378170102
 30
0.0
 10
376.763992942988
 20
38.00341884570105
 30
0.0
 10
374.757804881088
 20
37.78074469270104
 30
0.0
 10
372.6574493882879
 20
37.55826357670105
 30
0.0
 10
371.590982887688
 20
37.44803605170103
 30
0.0
 10
368.3608474334422
 20
37.12244052608202
 30
0.0
 10
365.0633539429936
 20
36.81472366815069
 30
0.0
 10
362.8589031468793
 20
36.6200392253711
 30
0.0
 10
360.6331746466802
 20
36.43352591559318
 30
0.0
 10
358.3333237542622
 20
36.25193587971023
 30
0.0
  0
ARC
  5
5908
330
58D1
100
AcDbEntity
  8
0
100
AcDbCircle
 10
358.7269450262493
 20
31.26728581054556
 30
0.0
 40
5.000167399230806
100
AcDbArc
 50
94.51522294005242
 51
132.9993304129275
  0
ARC
  5
5909
330
58D1
100
AcDbEntity
  8
0
100
AcDbCircle
 10
271.2215499620862
 20
31.26728580758334
 30
0.0
 40
5.000167400981903
100
AcDbArc
 50
47.00066958664155
 51
85.48477707728569
  0
ELLIPSE
  5
590A
330
58D1
100
AcDbEntity
  8
0
100
AcDbEllipse
 10
421.7220894694657
 20
49.42123973279558
 30
0.0
 11
-0.2040428215829438
 21
4.996983918465323
 31
0.0
210
0.0
220
0.0
230
1.0
 40
0.6111016806899949
 41
0.000028989883134
 42
0.0000382642131141
  0
ELLIPSE
  5
590B
330
58D1
100
AcDbEntity
  8
0
100
AcDbEllipse
 10
519.5475036262668
 20
17.00000025020546
 30
0.0
 11
-0.0000001400059388
 21
4.999999963503901
 31
0.0
210
0.0
220
0.0
230
1.0
 40
0.9999999217605868
 41
1.659896400488992
 42
2.195862379016444
  0
ELLIPSE
  5
590C
330
58D1
100
AcDbEntity
  8
0
100
AcDbEllipse
 10
519.5475036262676
 20
17.00000025020588
 30
0.0
 11
-0.0000000984315207
 21
-4.999999963504854
 31
0.0
210
0.0
220
0.0
230
1.0
 40
0.9999999217605868
 41
5.337568223313383
 42
6.2831853071796
  0
ELLIPSE
  5
590D
330
58D1
100
AcDbEntity
  8
0
100
AcDbEllipse
 10
110.4009913614049
 20
17.00000025020563
 30
0.0
 11
0.0000001423387497
 21
4.999999963504347
 31
0.0
210
0.0
220
0.0
230
1.0
 40
0.9999999217605864
 41
4.087217308373769
 42
4.623288907157127
  0
ELLIPSE
  5
590E
330
58D1
100
AcDbEntity
  8
0
100
AcDbEllipse
 10
110.4009913614045
 20
17.000000250206
 30
0.0
 11
0.0000000984315562
 21
-4.999999963504961
 31
0.0
210
0.0
220
0.0
230
1.0
 40
0.9999999217605866
 41
0.0
 42
0.9456170838678366
  0
LINE
  5
590F
330
58D1
100
AcDbEntity
  8
0
100
AcDbLine
 10
449.9742474938345
 20
107.000000286701
 30
0.0
 11
459.9742474938345
 21
107.000000286701
 31
0.0
  0
ARC
  5
5910
330
58D1
100
AcDbEntity
  8
0
100
AcDbCircle
 10
449.9742474938346
 20
117.000000286701
 30
0.0
 40
10.0
100
AcDbArc
 50
89.99999999999674
 51
269.9999999999968
  0
LINE
  5
5911
330
58D1
100
AcDbEntity
  8
0
100
AcDbLine
 10
459.9742474938348
 20
127.000000286701
 30
0.0
 11
449.9742474938348
 21
127.000000286701
 31
0.0
  0
ARC
  5
5912
330
58D1
100
AcDbEntity
  8
0
100
AcDbCircle
 10
459.9742474938347
 20
117.000000286701
 30
0.0
 40
10.0
100
AcDbArc
 50
269.9999999999968
 51
89.99999999999674
  0
SPLINE
  5
5913
330
58D1
100
AcDbEntity
  8
0
100
AcDbSpline
210
0.0
220
0.0
230
1.0
 70
    27
 71
     5
 72
    12
 73
     6
 74
     0
 42
0.0000000001
 43
0.0000000001
 40
197.4569117716211
 40
197.4569117716211
 40
197.4569117716211
 40
197.4569117716211
 40
197.4569117716211
 40
197.4569117716211
 40
197.4888931915644
 40
197.4888931915644
 40
197.4888931915644
 40
197.4888931915644
 40
197.4888931915644
 40
197.4888931915644
 10
84.12523299373788
 20
15.96258592944795
 30
0.0
 10
84.12523298589553
 20
15.96258595334566
 30
0.0
 10
84.12523298753979
 20
15.96258594689226
 30
0.0
 10
84.12523298939504
 20
15.96258594075823
 30
0.0
 10
84.12523299146107
 20
15.96258593494346
 30
0.0
 10
84.12523299373788
 20
15.96258592944795
 30
0.0
  0
LINE
  5
5914
330
58D1
100
AcDbEntity
  8
0
100
AcDbLine
 10
179.9742474938348
 20
127.000000286701
 30
0.0
 11
169.9742474938348
 21
127.000000286701
 31
0.0
  0
LINE
  5
5915
330
58D1
100
AcDbEntity
  8
0
100
AcDbLine
 10
337.974247493888
 20
33.1963912917351
 30
0.0
 11
337.974247493888
 21
0.0000002867010664
 31
0.0
  0
LINE
  5
5916
330
58D1
100
AcDbEntity
  8
0
100
AcDbLine
 10
291.974247493888
 20
33.1963912917351
 30
0.0
 11
291.974247493888
 21
0.0000002867010664
 31
0.0
  0
LINE
  5
5917
330
58D1
100
AcDbEntity
  8
0
100
AcDbLine
 10
291.3382442140134
 20
34.65909869497295
 30
0.0
 11
279.3963438952169
 21
45.79510089941033
 31
0.0
  0
LINE
  5
5918
330
58D1
100
AcDbEntity
  8
0
100
AcDbLine
 10
338.6102507737625
 20
34.65909869497295
 30
0.0
 11
350.552151092559
 21
45.79510089941033
 31
0.0
  0
LINE
  5
5919
330
58D1
100
AcDbEntity
  8
0
100
AcDbLine
 10
302.4742474996745
 20
144.4501347376207
 30
0.0
 11
302.4742475229394
 21
144.17020273803
 31
0.0
  0
LINE
  5
591A
330
58D1
100
AcDbEntity
  8
0
100
AcDbLine
 10
297.4742474938449
 20
163.000000306801
 30
0.0
 11
297.4742474938449
 21
175.000000286701
 31
0.0
  0
LINE
  5
591B
330
58D1
100
AcDbEntity
  8
0
100
AcDbLine
 10
332.4742474938449
 20
163.000000306801
 30
0.0
 11
332.4742474938449
 21
175.000000286701
 31
0.0
  0
SPLINE
  5
591C
330
58D1
100
AcDbEntity
  8
0
100
AcDbSpline
210
0.0
220
0.0
230
1.0
 70
     8
 71
     3
 72
    10
 73
     6
 74
     0
 42
0.0000000001
 43
0.0000000001
 40
0.0
 40
0.0
 40
0.0
 40
0.0
 40
10.00000305402593
 40
10.00000305402593
 40
14.26715717925508
 40
14.26715717925508
 40
14.26715717925508
 40
14.26715717925508
 10
501.7510372079313
 20
158.4551518251064
 30
0.0
 10
504.7811696819791
 20
125.305296871057
 30
0.0
 10
507.7833062556421
 20
92.15288452718244
 30
0.0
 10
512.0353389750032
 20
44.85105682778526
 30
0.0
 10
513.3030985037034
 20
30.70322931359465
 30
0.0
 10
514.5673392544668
 20
16.55508908216902
 30
0.0
  0
SPLINE
  5
591D
330
58D1
100
AcDbEntity
  8
0
100
AcDbSpline
210
0.0
220
0.0
230
1.0
 70
     8
 71
     3
 72
    10
 73
     6
 74
     0
 42
0.0000000001
 43
0.0000000001
 40
0.0000104080452595
 40
0.0000104080452595
 40
0.0000104080452595
 40
0.0000104080452595
 40
10.00000205972098
 40
10.00000205972098
 40
14.26716773973812
 40
14.26716773973812
 40
14.26716773973812
 40
14.26716773973812
 10
115.3811557332053
 20
16.55508908216904
 30
0.0
 10
118.3438790335529
 20
49.71097706957215
 30
0.0
 10
121.3258971076407
 20
82.86515680856155
 30
0.0
 10
125.6165419032471
 20
130.1635105498529
 30
0.0
 10
126.9044504447163
 20
144.3095638094591
 30
0.0
 10
128.1974577797451
 20
158.4551518251064
 30
0.0
  0
SPLINE
  5
591E
330
58D1
100
AcDbEntity
  8
0
100
AcDbSpline
210
0.0
220
0.0
230
1.0
 70
     8
 71
     3
 72
    14
 73
    10
 74
     0
 42
0.0000000001
 43
0.0000000001
 40
0.0
 40
0.0
 40
0.0
 40
0.0
 40
1.922237971640146
 40
1.922237971640146
 40
3.668579666164888
 40
3.668579666164888
 40
6.229867926554573
 40
6.229867926554573
 40
9.383785558899845
 40
9.383785558899845
 40
9.383785558899845
 40
9.383785558899845
 10
222.5542806999668
 20
54.21110581575891
 30
0.0
 10
228.0722571549278
 20
54.22323701084906
 30
0.0
 10
234.2479670191281
 20
54.08766820439495
 30
0.0
 10
246.2414370019286
 20
53.43500121505286
 30
0.0
 10
252.0817807696897
 20
52.92201434303246
 30
0.0
 10
266.3864101594023
 20
52.06944523379838
 30
0.0
 10
274.9116961603759
 20
51.72964014818717
 30
0.0
 10
293.9451767575782
 20
51.237698756653
 30
0.0
 10
304.4611936134824
 20
51.13963669881343
 30
0.0
 10
314.9742523876684
 20
51.1396866511551
 30
0.0
  0
SPLINE
  5
591F
330
58D1
100
AcDbEntity
  8
0
100
AcDbSpline
210
0.0
220
0.0
230
1.0
 70
     8
 71
     3
 72
     8
 73
     4
 74
     0
 42
0.0000000001
 43
0.0000000001
 40
0.0
 40
0.0
 40
0.0
 40
0.0
 40
1.734875742994542
 40
1.734875742994542
 40
1.734875742994542
 40
1.734875742994542
 10
208.43053818068
 20
54.4182184695656
 30
0.0
 10
212.9749952223188
 20
54.23245863948443
 30
0.0
 10
217.5807870049867
 20
54.20016364148143
 30
0.0
 10
222.5542764492798
 20
54.21110591849412
 30
0.0
  0
SPLINE
  5
5920
330
58D1
100
AcDbEntity
  8
0
100
AcDbSpline
210
0.0
220
0.0
230
1.0
 70
     8
 71
     3
 72
    12
 73
     8
 74
     0
 42
0.0000000001
 43
0.0000000001
 40
0.0
 40
0.0
 40
0.0
 40
0.0
 40
4.195161478655752
 40
4.195161478655752
 40
8.082053770167489
 40
8.082053770167489
 40
9.27202846378228
 40
9.27202846378228
 40
9.27202846378228
 40
9.27202846378228
 10
152.4921390619902
 20
67.42965994522581
 30
0.0
 10
158.1245108824351
 20
64.09101394686991
 30
0.0
 10
165.0481772437814
 20
61.18898102209493
 30
0.0
 10
180.8806997514591
 20
57.07098293793364
 30
0.0
 10
189.6684604305628
 20
55.70088871088308
 30
0.0
 10
202.2720945286614
 20
54.72221686608856
 30
0.0
 10
205.3157924019979
 20
54.54548932878561
 30
0.0
 10
208.4305098276709
 20
54.41822011254487
 30
0.0
  0
SPLINE
  5
5921
330
58D1
100
AcDbEntity
  8
0
100
AcDbSpline
210
0.0
220
0.0
230
1.0
 70
     8
 71
     3
 72
    16
 73
    12
 74
     0
 42
0.0000000001
 43
0.0000000001
 40
0.0
 40
0.0
 40
0.0
 40
0.0
 40
0.1621747636356452
 40
0.1621747636356452
 40
0.3213887153381927
 40
0.3213887153381927
 40
0.4807109103610438
 40
0.4807109103610438
 40
0.6400274811897248
 40
0.6400274811897248
 40
0.7369045814779502
 40
0.7369045814779502
 40
0.7369045814779502
 40
0.7369045814779502
 10
128.1974573234418
 20
158.4551493601179
 30
0.0
 10
128.2466664845465
 20
158.9934874943577
 30
0.0
 10
128.3861268228895
 20
159.5305717631534
 30
0.0
 10
128.8199708198866
 20
160.5100889407096
 30
0.0
 10
129.1167881994728
 20
160.966280042777
 30
0.0
 10
129.830175219816
 20
161.7527092661176
 30
0.0
 10
130.2556987998308
 20
162.0926562472561
 30
0.0
 10
131.1805588520993
 20
162.6149132363276
 30
0.0
 10
131.6913979059182
 20
162.8037374626511
 30
0.0
 10
132.5293466414224
 20
162.9684246955122
 30
0.0
 10
132.8552941906658
 20
163.0000004786761
 30
0.0
 10
133.1766989744751
 20
163.0000004791997
 30
0.0
  0
LINE
  5
5922
330
58D1
100
AcDbEntity
  8
0
100
AcDbLine
 10
199.9742474938452
 20
163.000000306601
 30
0.0
 11
199.9742474938409
 21
165.000000306601
 31
0.0
  0
LINE
  5
5923
330
58D1
100
AcDbEntity
  8
0
100
AcDbLine
 10
229.9742474938452
 20
163.000000306601
 30
0.0
 11
229.974247493841
 21
165.000000306601
 31
0.0
  0
LINE
  5
5924
330
58D1
100
AcDbEntity
  8
0
100
AcDbLine
 10
278.3453541426724
 20
12.00000028670106
 30
0.0
 11
277.3787614592036
 21
30.44368740370186
 31
0.0
  0
LINE
  5
5925
330
58D1
100
AcDbEntity
  8
0
100
AcDbLine
 10
351.6031408451035
 20
12.00000028670106
 30
0.0
 11
352.5697335285722
 21
30.44368740370186
 31
0.0
  0
SPLINE
  5
5926
330
58D1
100
AcDbEntity
  8
0
100
AcDbSpline
210
0.0
220
0.0
230
1.0
 70
     8
 71
     3
 72
    24
 73
    20
 74
     0
 42
0.0000000001
 43
0.0000000001
 40
0.0
 40
0.0
 40
0.0
 40
0.0
 40
1.94593236248894
 40
1.94593236248894
 40
3.399720499418841
 40
3.399720499418841
 40
4.807881088914076
 40
4.807881088914076
 40
5.761955453922368
 40
5.761955453922368
 40
6.362449584182967
 40
6.362449584182967
 40
6.44657615328354
 40
6.44657615328354
 40
7.532764667284537
 40
7.532764667284537
 40
8.481500379210849
 40
8.481500379210849
 40
9.851500062525788
 40
9.851500062525788
 40
9.851500062525788
 40
9.851500062525788
 10
560.5366466145449
 20
174.5211057167729
 30
0.0
 10
557.853961944251
 20
169.9772998785192
 30
0.0
 10
555.0548576208604
 20
165.6780528291251
 30
0.0
 10
550.5446092188069
 20
159.1128517181419
 30
0.0
 10
548.6117231049498
 20
156.4277444081414
 30
0.0
 10
545.2473656624057
 20
151.8721909827883
 30
0.0
 10
543.7666652521561
 20
149.9262350725221
 30
0.0
 10
541.9037550266508
 20
147.4918437257678
 30
0.0
 10
541.31456128742
 20
146.7267717175783
 30
0.0
 10
540.7586349854788
 20
146.0028351139314
 30
0.0
 10
540.6410357970156
 20
145.8490173062471
 30
0.0
 10
540.6410357970157
 20
145.8490173062482
 30
0.0
 10
540.6433196447176
 20
145.8520097461528
 30
0.0
 10
540.7072840426626
 20
145.9359367030873
 30
0.0
 10
541.1880444370017
 20
146.5663114219227
 30
0.0
 10
542.7235161890187
 20
148.6356101775618
 30
0.0
 10
543.6926711508059
 20
149.9580297242551
 30
0.0
 10
546.1914482991246
 20
153.430280293187
 30
0.0
 10
547.7467472030623
 20
155.6351112816399
 30
0.0
 10
549.4797497425192
 20
158.1453561491502
 30
0.0
  0
SPLINE
  5
5927
330
58D1
100
AcDbEntity
  8
0
100
AcDbSpline
210
0.0
220
0.0
230
1.0
 70
     8
 71
     3
 72
    10
 73
     6
 74
     0
 42
0.0000000001
 43
0.0000000001
 40
9.851503232771387
 40
9.851503232771387
 40
9.851503232771387
 40
9.851503232771387
 40
10.01542252822344
 40
10.01542252822344
 40
12.4048690252333
 40
12.4048690252333
 40
12.4048690252333
 40
12.4048690252333
 10
549.4797617502711
 20
158.1453735448104
 30
0.0
 10
549.6871141172968
 20
158.4457223619868
 30
0.0
 10
549.8961225654926
 20
158.749253641012
 30
0.0
 10
553.1985371806761
 20
163.5554573899878
 30
0.0
 10
556.9652066027599
 20
169.2184145548864
 30
0.0
 10
560.4382473439245
 20
174.6066959151901
 30
0.0
  0
SPLINE
  5
5928
330
58D1
100
AcDbEntity
  8
0
100
AcDbSpline
210
0.0
220
0.0
230
1.0
 70
     8
 71
     3
 72
    18
 73
    14
 74
     0
 42
0.0000000001
 43
0.0000000001
 40
0.0
 40
0.0
 40
0.0
 40
0.0
 40
0.1442866838059943
 40
0.1442866838059943
 40
0.2474394632465227
 40
0.2474394632465227
 40
0.4090056134837522
 40
0.4090056134837522
 40
0.5694196375965214
 40
0.5694196375965214
 40
0.7385174088783455
 40
0.7385174088783455
 40
0.8400067270167312
 40
0.8400067270167312
 40
0.8400067270167312
 40
0.8400067270167312
 10
564.8807362124424
 20
177.000000286701
 30
0.0
 10
564.7439651365787
 20
177.0000002697925
 30
0.0
 10
564.6311366246801
 20
176.996413582453
 30
0.0
 10
564.3555263242943
 20
176.9739628801069
 30
0.0
 10
564.2265117247579
 20
176.9596692891445
 30
0.0
 10
563.8510184760982
 20
176.8993871057127
 30
0.0
 10
563.5745589541105
 20
176.8397993563783
 30
0.0
 10
562.9389394191528
 20
176.6236317090748
 30
0.0
 10
562.5740620123074
 20
176.4628463346783
 30
0.0
 10
561.8224287932035
 20
175.9935779264002
 30
0.0
 10
561.4293194505163
 20
175.6711191461379
 30
0.0
 10
560.8862626061612
 20
175.0528428656348
 30
0.0
 10
560.6988469762504
 20
174.7958330935021
 30
0.0
 10
560.5366478966873
 20
174.5211078769585
 30
0.0
  0
SPLINE
  5
5929
330
58D1
100
AcDbEntity
  8
0
100
AcDbSpline
210
0.0
220
0.0
230
1.0
 70
     8
 71
     3
 72
    56
 73
    52
 74
     0
 42
0.0000000001
 43
0.0000000001
 40
0.0
 40
0.0
 40
0.0
 40
0.0
 40
0.1763694945996199
 40
0.1763694945996199
 40
0.3443198591376756
 40
0.3443198591376756
 40
0.5046818170108161
 40
0.5046818170108161
 40
0.684707602370289
 40
0.684707602370289
 40
0.8202690204428416
 40
0.8202690204428416
 40
0.8710432278219601
 40
0.8710432278219601
 40
0.8900820337832623
 40
0.8900820337832623
 40
0.8972215250962902
 40
0.8972215250962902
 40
0.897890851574898
 40
0.897890851574898
 40
0.8981627544777762
 40
0.8981627544777762
 40
0.8982987059446555
 40
0.8982987059446555
 40
0.8983326941228822
 40
0.8983326941228822
 40
0.898349699039428
 40
0.898349699039428
 40
0.8983630926034601
 40
0.8983630926034601
 40
0.8983800871668218
 40
0.8983800871668218
 40
0.898414075142843
 40
0.898414075142843
 40
0.8985500266454044
 40
0.8985500266454044
 40
0.8990938324514011
 40
0.8990938324514011
 40
0.9034442788762049
 40
0.9034442788762049
 40
0.9164956181501457
 40
0.9164956181501457
 40
0.9556496359719615
 40
0.9556496359719615
 40
1.073111689437561
 40
1.073111689437561
 40
1.425497849837844
 40
1.425497849837844
 40
2.482656331070598
 40
2.482656331070598
 40
4.860315495363021
 40
4.860315495363021
 40
4.860315495363021
 40
4.860315495363021
 10
560.4382458921896
 20
174.6066936529535
 30
0.0
 10
560.7372096499132
 20
175.070523753492
 30
0.0
 10
561.1098485268168
 20
175.4798293820175
 30
0.0
 10
561.8748079596794
 20
176.1117387379256
 30
0.0
 10
562.2727841931641
 20
176.3492951560867
 30
0.0
 10
562.9774932399999
 20
176.6757134973943
 30
0.0
 10
563.2927669698021
 20
176.7765129906245
 30
0.0
 10
563.8517301747682
 20
176.9169306057258
 30
0.0
 10
564.0896591408932
 20
176.9511852606861
 30
0.0
 10
564.4296165497423
 20
176.9868385465879
 30
0.0
 10
564.5523027818971
 20
176.9937990462454
 30
0.0
 10
564.6988171733791
 20
176.9985509866338
 30
0.0
 10
564.7364836408046
 20
176.9993176330433
 30
0.0
 10
564.7855878573241
 20
176.9998439172756
 30
0.0
 10
564.7987045781626
 20
176.9999330349094
 30
0.0
 10
564.8163823233492
 20
176.9999892286612
 30
0.0
 10
564.8211669967277
 20
176.9999977622429
 30
0.0
 10
564.8263608485274
 20
176.9999999954102
 30
0.0
 10
564.8268057273029
 20
177.0000001297582
 30
0.0
 10
564.8274308073559
 20
177.0000002387741
 30
0.0
 10
564.827611345809
 20
177.0000002608892
 30
0.0
 10
564.8278818623237
 20
177.0000002800196
 30
0.0
 10
564.8279723619993
 20
177.000000284056
 30
0.0
 10
564.8280838572627
 20
177.000000286179
 30
0.0
 10
564.8281064898311
 20
177.000000286457
 30
0.0
 10
564.8281372904059
 20
177.0000002866574
 30
0.0
 10
564.8281470238521
 20
177.0000002866845
 30
0.0
 10
564.8281555667802
 20
177.0000002866995
 30
0.0
 10
564.8281567167575
 20
177.0000002866993
 30
0.0
 10
564.8281585951742
 20
177.0000002867006
 30
0.0
 10
564.8281589364573
 20
177.0000002867006
 30
0.0
 10
564.8281598190639
 20
177.000000286701
 30
0.0
 10
564.8281599703802
 20
177.000000286701
 30
0.0
 10
564.8281607092185
 20
177.000000286701
 30
0.0
 10
564.8281606401261
 20
177.000000286701
 30
0.0
 10
564.8281609624533
 20
177.000000286701
 30
0.0
 10
564.8281608955158
 20
177.000000286701
 30
0.0
 10
564.8281610666406
 20
177.000000286701
 30
0.0
 10
564.8281609796498
 20
177.000000286701
 30
0.0
 10
564.8281610022593
 20
177.000000286701
 30
0.0
 10
564.8281610163626
 20
177.000000286701
 30
0.0
 10
564.8281611216403
 20
177.000000286701
 30
0.0
 10
564.8281612802123
 20
177.000000286701
 30
0.0
 10
564.8281622387197
 20
177.000000286701
 30
0.0
 10
564.8281636810779
 20
177.000000286701
 30
0.0
 10
564.8281721559026
 20
177.000000286701
 30
0.0
 10
564.8281845949153
 20
177.000000286701
 30
0.0
 10
564.8282535851997
 20
177.000000286701
 30
0.0
 10
564.8283484258445
 20
177.000000286701
 30
0.0
 10
564.8286903357014
 20
177.000000286701
 30
0.0
 10
564.8288027338903
 20
177.000000286701
 30
0.0
 10
564.828977271888
 20
177.000000286701
 30
0.0
  0
SPLINE
  5
592A
330
58D1
100
AcDbEntity
  8
0
100
AcDbSpline
210
0.0
220
0.0
230
1.0
 70
     8
 71
     3
 72
    52
 73
    48
 74
     0
 42
0.0000000001
 43
0.0000000001
 40
0.0
 40
0.0
 40
0.0
 40
0.0
 40
1.876409762098111
 40
1.876409762098111
 40
3.271543489166186
 40
3.271543489166186
 40
3.736588064845618
 40
3.736588064845618
 40
3.891602923403075
 40
3.891602923403075
 40
3.943274542922101
 40
3.943274542922101
 40
3.960498416095145
 40
3.960498416095145
 40
3.961574908168875
 40
3.961574908168875
 40
3.961844031196272
 40
3.961844031196272
 40
3.961911311982182
 40
3.961911311982182
 40
3.961944952875434
 40
3.961944952875434
 40
3.961961780182086
 40
3.961961780182086
 40
3.962230908978247
 40
3.962230908978247
 40
3.962769155019877
 40
3.962769155019877
 40
3.963845647123613
 40
3.963845647123613
 40
3.966507427580495
 40
3.966507427580495
 40
3.97360551655974
 40
3.97360551655974
 40
3.992533916795388
 40
3.992533916795388
 40
4.043013716548593
 40
4.043013716548593
 40
4.177789762415116
 40
4.177789762415116
 40
4.357327851470159
 40
4.357327851470159
 40
4.517698383497015
 40
4.517698383497015
 40
4.685818145428362
 40
4.685818145428362
 40
4.860334784616823
 40
4.860334784616823
 40
4.860334784616823
 40
4.860334784616823
 10
65.11952187059875
 20
177.0000002866994
 30
0.0
 10
65.11964386129602
 20
177.0000002866023
 30
0.0
 10
65.11969571070449
 20
177.000000286701
 30
0.0
 10
65.12003069518437
 20
177.000000286701
 30
0.0
 10
65.12018132482911
 20
177.000000286701
 30
0.0
 10
65.12029448760387
 20
177.000000286701
 30
0.0
 10
65.12031541600425
 20
177.000000286701
 30
0.0
 10
65.12032962965628
 20
177.000000286701
 30
0.0
 10
65.12033204114402
 20
177.000000286701
 30
0.0
 10
65.12033358809339
 20
177.000000286701
 30
0.0
 10
65.12033383472282
 20
177.000000286701
 30
0.0
 10
65.12033397745648
 20
177.000000286701
 30
0.0
 10
65.1203338769352
 20
177.000000286701
 30
0.0
 10
65.12033404443116
 20
177.000000286701
 30
0.0
 10
65.1203340080541
 20
177.000000286701
 30
0.0
 10
65.1203341774168
 20
177.000000286701
 30
0.0
 10
65.12033412546265
 20
177.000000286701
 30
0.0
 10
65.1203345507945
 20
177.000000286701
 30
0.0
 10
65.12033461938329
 20
177.000000286701
 30
0.0
 10
65.12033522152012
 20
177.0000002867009
 30
0.0
 10
65.12033534424915
 20
177.000000286701
 30
0.0
 10
65.12033698440984
 20
177.0000002867002
 30
0.0
 10
65.12033749059992
 20
177.0000002867007
 30
0.0
 10
65.12038799432002
 20
177.0000002866382
 30
0.0
 10
65.12068038690586
 20
177.0000002782672
 30
0.0
 10
65.12121620593632
 20
177.0000002243994
 30
0.0
 10
65.1215737842412
 20
177.0000001517859
 30
0.0
 10
65.12264702897323
 20
176.9999998234633
 30
0.0
 10
65.12336336803184
 20
176.9999994572724
 30
0.0
 10
65.12585378312838
 20
176.9999976705698
 30
0.0
 10
65.12763205044587
 20
176.9999954915866
 30
0.0
 10
65.13417080509658
 20
176.9999841205718
 30
0.0
 10
65.13896204200967
 20
176.9999692937538
 30
0.0
 10
65.15666383745247
 20
176.9998897825595
 30
0.0
 10
65.16979754630665
 20
176.9997832368267
 30
0.0
 10
65.21896186205168
 20
176.9991912669195
 30
0.0
 10
65.25666784211489
 20
176.9983733773152
 30
0.0
 10
65.40330289646249
 20
176.9934199701286
 30
0.0
 10
65.52603522958509
 20
176.9862840535556
 30
0.0
 10
65.86639082955731
 20
176.9501203731336
 30
0.0
 10
66.10485827677212
 20
176.9154101111348
 30
0.0
 10
66.6650693079298
 20
176.7736945021338
 30
0.0
 10
66.98138223805869
 20
176.6718630757974
 30
0.0
 10
67.68770595496949
 20
176.3427032046043
 30
0.0
 10
68.08626904472816
 20
176.1032697679505
 30
0.0
 10
68.84657675471476
 20
175.4712137263809
 30
0.0
 10
69.21442611128788
 20
175.0656509714132
 30
0.0
 10
69.51024909561391
 20
174.6066936529535
 30
0.0
  0
SPLINE
  5
592B
330
58D1
100
AcDbEntity
  8
0
100
AcDbSpline
210
0.0
220
0.0
230
1.0
 70
     8
 71
     3
 72
    18
 73
    14
 74
     0
 42
0.0000000001
 43
0.0000000001
 40
0.0
 40
0.0
 40
0.0
 40
0.0
 40
0.1714275859795249
 40
0.1714275859795249
 40
0.3360876455767725
 40
0.3360876455767725
 40
0.4943108398303271
 40
0.4943108398303271
 40
0.6665912736185958
 40
0.6665912736185958
 40
0.7529421048892178
 40
0.7529421048892178
 40
0.8396791570805415
 40
0.8396791570805415
 40
0.8396791570805415
 40
0.8396791570805415
 10
69.41184709117436
 20
174.5211078769585
 30
0.0
 10
69.13787346352695
 20
174.9851515964757
 30
0.0
 10
68.7884340706617
 20
175.3997366624348
 30
0.0
 10
68.05124919494125
 20
176.0523158078892
 30
0.0
 10
67.65785456610984
 20
176.3038309939343
 30
0.0
 10
66.94265466861025
 20
176.6552067793486
 30
0.0
 10
66.61359197535649
 20
176.766152428667
 30
0.0
 10
66.03267602820409
 20
176.916865973889
 30
0.0
 10
65.78283901770714
 20
176.9534095920503
 30
0.0
 10
65.47462050574393
 20
176.9846651094892
 30
0.0
 10
65.38209448363256
 20
176.9909237837624
 30
0.0
 10
65.21344805628075
 20
176.9986101084091
 30
0.0
 10
65.14449232555762
 20
177.0000002772148
 30
0.0
 10
65.06775877542293
 20
177.000000286701
 30
0.0
  0
SPLINE
  5
592C
330
58D1
100
AcDbEntity
  8
0
100
AcDbSpline
210
0.0
220
0.0
230
1.0
 70
     8
 71
     3
 72
    24
 73
    20
 74
     0
 42
0.0000000001
 43
0.0000000001
 40
0.0
 40
0.0
 40
0.0
 40
0.0
 40
2.746971028991185
 40
2.746971028991185
 40
4.043511889090038
 40
4.043511889090038
 40
5.463294277948198
 40
5.463294277948198
 40
6.034533815856596
 40
6.034533815856596
 40
6.659663354047472
 40
6.659663354047472
 40
7.665021984792161
 40
7.665021984792161
 40
9.05679724075675
 40
9.05679724075675
 40
10.99901142366338
 40
10.99901142366338
 40
12.39469689038269
 40
12.39469689038269
 40
12.39469689038269
 40
12.39469689038269
 10
69.51024764387899
 20
174.6066959151901
 30
0.0
 10
73.50294733832839
 20
168.4121848385189
 30
0.0
 10
77.8298315579326
 20
161.9428132974216
 30
0.0
 10
82.8064976762538
 20
154.7755533829483
 30
0.0
 10
84.2564130806906
 20
152.7298272561917
 30
0.0
 10
87.13353654110846
 20
148.7478443841108
 30
0.0
 10
88.43673321844391
 20
147.0012671118191
 30
0.0
 10
89.19859968136155
 20
145.9914762586212
 30
0.0
 10
89.30745919081573
 20
145.8490173062473
 30
0.0
 10
89.3074591908171
 20
145.8490173062471
 30
0.0
 10
89.17766694739919
 20
146.0187503772338
 30
0.0
 10
88.57041273199502
 20
146.809422935875
 30
0.0
 10
87.92329368735778
 20
147.6495586436504
 30
0.0
 10
85.96395073236493
 20
150.2126236869107
 30
0.0
 10
84.4764293342888
 20
152.1714384333521
 30
0.0
 10
80.51798047200817
 20
157.5442924542505
 30
0.0
 10
77.90451384996543
 20
161.2124756210335
 30
0.0
 10
73.32954059412611
 20
168.1129548252726
 30
0.0
 10
71.33595636303403
 20
171.2621415850855
 30
0.0
 10
69.4118483733169
 20
174.5211057167729
 30
0.0
  0
LINE
  5
592D
330
58D1
100
AcDbEntity
  8
0
100
AcDbLine
 10
275.7956055856333
 20
33.83877613064249
 30
0.0
 11
274.6316185943181
 21
34.92421156011256
 31
0.0
  0
LINE
  5
592E
330
58D1
100
AcDbEntity
  8
0
100
AcDbLine
 10
354.1528894021426
 20
33.83877613064249
 30
0.0
 11
355.316876393428
 21
34.92421156008481
 31
0.0
  0
LINE
  5
592F
330
58D1
100
AcDbEntity
  8
0
100
AcDbLine
 10
327.4742474647853
 20
144.170202740573
 30
0.0
 11
327.4742474880549
 21
144.4501347376207
 31
0.0
  0
ARC
  5
5930
330
58D1
100
AcDbEntity
  8
0
100
AcDbCircle
 10
357.5628812023879
 20
30.18200762170108
 30
0.0
 40
5.0
100
AcDbArc
 50
132.9999999928292
 51
176.9999999910305
  0
ARC
  5
5931
330
58D1
100
AcDbEntity
  8
0
100
AcDbCircle
 10
272.3856137853879
 20
30.18200762170108
 30
0.0
 40
5.0
100
AcDbArc
 50
3.000000008969428
 51
47.00000000717078
  0
LINE
  5
5932
330
58D1
100
AcDbEntity
  8
0
100
AcDbLine
 10
429.9742474938489
 20
165.0000003070011
 30
0.0
 11
429.9742474938447
 21
163.000000307001
 31
0.0
  0
LINE
  5
5933
330
58D1
100
AcDbEntity
  8
0
100
AcDbLine
 10
399.974247493849
 20
165.0000003070011
 30
0.0
 11
399.9742474938448
 21
163.000000307001
 31
0.0
  0
SPLINE
  5
5934
330
58D1
100
AcDbEntity
  8
0
100
AcDbSpline
210
0.0
220
0.0
230
1.0
 70
     8
 71
     3
 72
    14
 73
    10
 74
     0
 42
0.0000000001
 43
0.0000000001
 40
0.0
 40
0.0
 40
0.0
 40
0.0
 40
0.5218436267887917
 40
0.5218436267887917
 40
2.088810031782766
 40
2.088810031782766
 40
5.825968957369265
 40
5.825968957369265
 40
9.276758237367097
 40
9.276758237367097
 40
9.276758237367097
 40
9.276758237367097
 10
421.5179581642546
 20
54.41821900947792
 30
0.0
 10
422.8838683864511
 20
54.47403077615945
 30
0.0
 10
424.2360536260642
 20
54.53983778800864
 30
0.0
 10
429.5865616704626
 20
54.84051842745373
 30
0.0
 10
433.4623932995888
 20
55.15313930046165
 30
0.0
 10
446.0392272457544
 20
56.55871160359549
 30
0.0
 10
454.0498330351216
 20
58.13672467933412
 30
0.0
 10
467.3348482257834
 20
62.22533124396972
 30
0.0
 10
472.8234454044851
 20
64.6834474117502
 30
0.0
 10
477.456424306063
 20
67.42970047838935
 30
0.0
  0
SPLINE
  5
5935
330
58D1
100
AcDbEntity
  8
0
100
AcDbSpline
210
0.0
220
0.0
230
1.0
 70
     8
 71
     3
 72
     8
 73
     4
 74
     0
 42
0.0000000001
 43
0.0000000001
 40
0.0
 40
0.0
 40
0.0
 40
0.0
 40
1.734877076571689
 40
1.734877076571689
 40
1.734877076571689
 40
1.734877076571689
 10
407.3941774710652
 20
54.21110600884532
 30
0.0
 10
412.3676710061821
 20
54.20016427128257
 30
0.0
 10
416.9734702627308
 20
54.23245785254755
 30
0.0
 10
421.5179298634359
 20
54.41821736821225
 30
0.0
  0
SPLINE
  5
5936
330
58D1
100
AcDbEntity
  8
0
100
AcDbSpline
210
0.0
220
0.0
230
1.0
 70
     8
 71
     3
 72
    14
 73
    10
 74
     0
 42
0.0000000001
 43
0.0000000001
 40
0.0
 40
0.0
 40
0.0
 40
0.0
 40
4.073416782109273
 40
4.073416782109273
 40
6.679862507486365
 40
6.679862507486365
 40
7.997222882817714
 40
7.997222882817714
 40
9.387794081552765
 40
9.387794081552765
 40
9.387794081552765
 40
9.387794081552765
 10
314.9742523875922
 20
51.13968665110855
 30
0.0
 10
328.5523083275724
 20
51.13962221908213
 30
0.0
 10
342.1378524661256
 20
51.29852400410754
 30
0.0
 10
364.3674357364507
 20
52.11236030322766
 30
0.0
 10
373.0332837545981
 20
52.5697729217901
 30
0.0
 10
386.0395133623114
 20
53.55271513593516
 30
0.0
 10
390.424668593537
 20
53.82728830214728
 30
0.0
 10
399.0832978936494
 20
54.15207122376893
 30
0.0
 10
403.4023974853194
 20
54.21988116408295
 30
0.0
 10
407.3941731442041
 20
54.21110590620952
 30
0.0
  0
SPLINE
  5
5937
330
58D1
100
AcDbEntity
  8
0
100
AcDbSpline
210
0.0
220
0.0
230
1.0
 70
     8
 71
     3
 72
    16
 73
    12
 74
     0
 42
0.0000000001
 43
0.0000000001
 40
0.0
 40
0.0
 40
0.0
 40
0.0
 40
0.2005192052622308
 40
0.2005192052622308
 40
0.3265235973354383
 40
0.3265235973354383
 40
0.452527937889102
 40
0.452527937889102
 40
0.5785321301624034
 40
0.5785321301624034
 40
0.7367760272980466
 40
0.7367760272980466
 40
0.7367760272980466
 40
0.7367760272980466
 10
496.7717960131542
 20
163.0000004791997
 30
0.0
 10
497.426617915841
 20
163.0000004781332
 30
0.0
 10
498.1216135485789
 20
162.8605262242806
 30
0.0
 10
499.1225008797869
 20
162.4328988015903
 30
0.0
 10
499.4906465159118
 20
162.2171433583181
 30
0.0
 10
500.156082359519
 20
161.7044601797368
 30
0.0
 10
500.458597617208
 20
161.4035187899169
 30
0.0
 10
500.9747320916362
 20
160.7407571518131
 30
0.0
 10
501.1924000603531
 20
160.3737406050161
 30
0.0
 10
501.5691961471032
 20
159.5043909110475
 30
0.0
 10
501.7030212574066
 20
158.9804390070954
 30
0.0
 10
501.7510376642348
 20
158.4551493601178
 30
0.0
  0
LINE
  5
5938
330
58D1
100
AcDbEntity
  8
0
100
AcDbLine
 10
9.921019561968705
 20
177.000000286701
 30
0.0
 11
4.993148109967251
 21
177.000000286701
 31
0.0
  0
LINE
  5
5939
330
58D1
100
AcDbEntity
  8
0
100
AcDbLine
 10
314.9742474940711
 20
177.0000002866605
 30
0.0
 11
9.921019561106277
 21
177.0000002866605
 31
0.0
  0
LINE
  5
593A
330
58D1
100
AcDbEntity
  8
0
100
AcDbLine
 10
314.9742474938954
 20
177.0000002866605
 30
0.0
 11
620.0274754268312
 21
177.0000002866605
 31
0.0
  0
LINE
  5
593B
330
58D1
100
AcDbEntity
  8
0
100
AcDbLine
 10
620.0274754259687
 20
177.000000286701
 30
0.0
 11
624.9553468779686
 21
177.000000286701
 31
0.0
  0
SPLINE
  5
593C
330
58D1
100
AcDbEntity
  8
0
100
AcDbSpline
210
0.0
220
0.0
230
1.0
 70
     8
 71
     3
 72
    14
 73
    10
 74
     0
 42
0.0000000001
 43
0.0000000001
 40
0.0
 40
0.0
 40
0.0
 40
0.0
 40
0.1819981419710063
 40
0.1819981419710063
 40
0.3773771270802699
 40
0.3773771270802699
 40
0.5727560988484007
 40
0.5727560988484007
 40
0.7547542590695189
 40
0.7547542590695189
 40
0.7547542590695189
 40
0.7547542590695189
 10
59.82031070175719
 20
161.000000286701
 30
0.0
 10
60.42697117499386
 20
161.000000286701
 30
0.0
 10
61.02846953634116
 20
160.889610217974
 30
0.0
 10
62.20430623260369
 20
160.4430376189039
 30
0.0
 10
62.76203888490659
 20
160.0951676793273
 30
0.0
 10
63.71291729620963
 20
159.2049613780916
 30
0.0
 10
64.09675223317197
 20
158.6713417724136
 30
0.0
 10
64.6197701791026
 20
157.5274574758048
 30
0.0
 10
64.76952192274723
 20
156.93453190599
 30
0.0
 10
64.80946291760528
 20
156.3291876082572
 30
0.0
  0
SPLINE
  5
593D
330
58D1
100
AcDbEntity
  8
0
100
AcDbSpline
210
0.0
220
0.0
230
1.0
 70
     8
 71
     3
 72
    14
 73
    10
 74
     0
 42
0.0000000001
 43
0.0000000001
 40
0.0
 40
0.0
 40
0.0
 40
0.0
 40
0.1819981419710039
 40
0.1819981419710039
 40
0.377377127080257
 40
0.377377127080257
 40
0.5727560988484082
 40
0.5727560988484082
 40
0.754754259069553
 40
0.754754259069553
 40
0.754754259069553
 40
0.754754259069553
 10
570.1281842858921
 20
161.000000286701
 30
0.0
 10
569.5215238126555
 20
161.000000286701
 30
0.0
 10
568.9200254513082
 20
160.889610217974
 30
0.0
 10
567.7441887550456
 20
160.4430376189039
 30
0.0
 10
567.1864561027428
 20
160.0951676793273
 30
0.0
 10
566.2355776914396
 20
159.2049613780915
 30
0.0
 10
565.8517427544774
 20
158.6713417724136
 30
0.0
 10
565.3287248085468
 20
157.5274574758049
 30
0.0
 10
565.1789730649021
 20
156.9345319059901
 30
0.0
 10
565.1390320700441
 20
156.3291876082572
 30
0.0
  0
LINE
  5
593E
330
58D1
100
AcDbEntity
  8
0
100
AcDbLine
 10
619.7129663529686
 20
161.000000286701
 30
0.0
 11
624.6409002119687
 21
161.000000286701
 31
0.0
  0
LINE
  5
593F
330
58D1
100
AcDbEntity
  8
0
100
AcDbLine
 10
619.7129663534544
 20
161.000000286701
 30
0.0
 11
314.974247493965
 21
161.000000286701
 31
0.0
  0
LINE
  5
5940
330
58D1
100
AcDbEntity
  8
0
100
AcDbLine
 10
314.9742474938993
 20
161.000000286701
 30
0.0
 11
10.23552863442762
 21
161.000000286701
 31
0.0
  0
LINE
  5
5941
330
58D1
100
AcDbEntity
  8
0
100
AcDbLine
 10
10.23552863496866
 20
161.000000286701
 30
0.0
 11
5.307594775967174
 21
161.000000286701
 31
0.0
  0
LINE
  5
5942
330
58D1
100
AcDbEntity
  8
0
100
AcDbLine
 10
0.000000444945556
 20
171.7383205325918
 30
0.0
 11
0.3144471196265499
 21
165.7383205501627
 31
0.0
  0
ARC
  5
5943
330
58D1
100
AcDbEntity
  8
0
100
AcDbCircle
 10
624.9553468679673
 20
172.000000286701
 30
0.0
 40
4.999999999999992
100
AcDbArc
 50
356.99999999959
 51
89.99999994269831
  0
ARC
  5
5944
330
58D1
100
AcDbEntity
  8
0
100
AcDbCircle
 10
624.6409001919673
 20
166.000000286701
 30
0.0
 40
4.999999999999962
100
AcDbArc
 50
270.0000001146034
 51
356.9999997925297
  0
SPLINE
  5
5945
330
58D1
100
AcDbEntity
  8
0
100
AcDbSpline
210
0.0
220
0.0
230
1.0
 70
    24
 71
     3
 72
    20
 73
    16
 74
     0
 42
0.0000000001
 43
0.0000000001
 40
1029.982534466354
 40
1029.982534466354
 40
1029.982534466354
 40
1029.982534466354
 40
1042.173552527766
 40
1042.173552527766
 40
1042.173552527766
 40
1057.861421546017
 40
1057.861421546017
 40
1057.861421546017
 40
1065.65387302
 40
1065.65387302
 40
1065.65387302
 40
1065.705343481353
 40
1065.705343481353
 40
1065.705343481353
 40
1073.48064652
 40
1073.48064652
 40
1073.48064652
 40
1073.48064652
 10
565.1446822570858
 20
156.3229790027005
 30
0.0
 10
565.1446821261636
 20
156.3229783211002
 30
0.0
 10
565.1445565773117
 20
156.3231154047224
 30
0.0
 10
565.1442853045612
 20
156.3234126013257
 30
0.0
 10
565.1439362203948
 20
156.323795045299
 30
0.0
 10
565.1433452648928
 20
156.3244433308396
 30
0.0
 10
565.142476160272
 20
156.3253983080682
 30
0.0
 10
565.1420444601109
 20
156.3258726627243
 30
0.0
 10
565.1415442929867
 20
156.3264225228639
 30
0.0
 10
565.140972758859
 20
156.3270512693126
 30
0.0
 10
565.1409689837793
 20
156.3270554222893
 30
0.0
 10
565.1409652056023
 20
156.3270595786914
 30
0.0
 10
565.140961424328
 20
156.3270637385188
 30
0.0
 10
565.1403902121625
 20
156.3276921362119
 30
0.0
 10
565.1397503847568
 20
156.3283964180885
 30
0.0
 10
565.1390320700441
 20
156.3291876082572
 30
0.0
  0
SPLINE
  5
5946
330
58D1
100
AcDbEntity
  8
0
100
AcDbSpline
210
0.0
220
0.0
230
1.0
 70
    27
 71
     5
 72
    12
 73
     6
 74
     0
 42
0.0000000001
 43
0.0000000001
 40
197.4569800891532
 40
197.4569800891532
 40
197.4569800891532
 40
197.4569800891532
 40
197.4569800891532
 40
197.4569800891532
 40
197.4888931913899
 40
197.4888931913899
 40
197.4888931913899
 40
197.4888931913899
 40
197.4888931913899
 40
197.4888931913899
 10
545.8232619939852
 20
15.96258592942035
 30
0.0
 10
545.8232620018135
 20
15.96258595326293
 30
0.0
 10
545.8232620001713
 20
15.96258594682538
 30
0.0
 10
545.8232619983192
 20
15.96258594070579
 30
0.0
 10
545.8232619962571
 20
15.96258593490415
 30
0.0
 10
545.8232619939852
 20
15.96258592942035
 30
0.0
  0
SPLINE
  5
5947
330
58D1
100
AcDbEntity
  8
0
100
AcDbSpline
210
0.0
220
0.0
230
1.0
 70
    24
 71
     3
 72
   251
 73
   247
 74
     0
 42
0.0000000001
 43
0.0000000001
 40
197.4571438637586
 40
197.4571438637586
 40
197.4571438637586
 40
197.4571438637586
 40
227.9284306208441
 40
227.9284306208441
 40
227.9284306208441
 40
235.898338489
 40
235.898338489
 40
235.898338489
 40
250.97356232
 40
250.97356232
 40
250.97356232
 40
258.511234407
 40
258.511234407
 40
258.511234407
 40
266.141140273
 40
266.141140273
 40
266.141140273
 40
277.6117660131746
 40
277.6117660131746
 40
277.6117660131746
 40
289.082391754
 40
289.082391754
 40
289.082391754
 40
331.205686197917
 40
331.205686197917
 40
331.205686197917
 40
342.547649184
 40
342.547649184
 40
342.547649184
 40
344.248852601
 40
344.248852601
 40
344.248852601
 40
350.6450546652264
 40
350.6450546652264
 40
350.6450546652264
 40
357.042959656
 40
357.042959656
 40
357.042959656
 40
361.930840812
 40
361.930840812
 40
361.930840812
 40
365.5746228802267
 40
365.5746228802267
 40
365.5746228802267
 40
370.8471506610965
 40
370.8471506610965
 40
370.8471506610965
 40
376.119678441829
 40
376.119678441829
 40
376.119678441829
 40
386.159515742
 40
386.159515742
 40
386.159515742
 40
416.4218653109999
 40
416.4218653109999
 40
416.4218653109999
 40
462.2927430709999
 40
462.2927430709999
 40
462.2927430709999
 40
502.458166678
 40
502.458166678
 40
502.458166678
 40
518.9441455329999
 40
518.9441455329999
 40
518.9441455329999
 40
522.6082164561306
 40
522.6082164561306
 40
522.6082164561306
 40
526.2722873781358
 40
526.2722873781358
 40
526.2722873781358
 40
528.258572104
 40
528.258572104
 40
528.258572104
 40
530.312911316
 40
530.312911316
 40
530.312911316
 40
534.421589328
 40
534.421589328
 40
534.421589328
 40
542.6570939949999
 40
542.6570939949999
 40
542.6570939949999
 40
545.7377155709999
 40
545.7377155709999
 40
545.7377155709999
 40
548.814581725
 40
548.814581725
 40
548.814581725
 40
554.975817837
 40
554.975817837
 40
554.975817837
 40
574.5935657597242
 40
574.5935657597242
 40
574.5935657597242
 40
580.604480547
 40
580.604480547
 40
580.604480547
 40
586.6090441989999
 40
586.6090441989999
 40
586.6090441989999
 40
592.712819708
 40
592.712819708
 40
592.712819708
 40
595.7710114957081
 40
595.7710114957081
 40
595.7710114957081
 40
603.042375781618
 40
603.042375781618
 40
603.042375781618
 40
611.5531428049999
 40
611.5531428049999
 40
611.5531428049999
 40
613.3719318559999
 40
613.3719318559999
 40
613.3719318559999
 40
623.0723863709999
 40
623.0723863709999
 40
623.0723863709999
 40
627.4794423143309
 40
627.4794423143309
 40
627.4794423143309
 40
629.682972514
 40
629.682972514
 40
629.682972514
 40
640.660508369
 40
640.660508369
 40
640.660508369
 40
650.5467070769999
 40
650.5467070769999
 40
650.5467070769999
 40
653.110759035
 40
653.110759035
 40
653.110759035
 40
655.674810993
 40
655.674810993
 40
655.674810993
 40
664.9567587641618
 40
664.9567587641618
 40
664.9567587641618
 40
669.597732649045
 40
669.597732649045
 40
669.597732649045
 40
674.2387065342717
 40
674.2387065342717
 40
674.2387065342717
 40
677.5775198229999
 40
677.5775198229999
 40
677.5775198229999
 40
680.9368685249999
 40
680.9368685249999
 40
680.9368685249999
 40
684.257893264
 40
684.257893264
 40
684.257893264
 40
687.371870561
 40
687.371870561
 40
687.371870561
 40
690.5950032629999
 40
690.5950032629999
 40
690.5950032629999
 40
697.041118424
 40
697.041118424
 40
697.041118424
 40
725.67653268
 40
725.67653268
 40
725.67653268
 40
735.2214778369999
 40
735.2214778369999
 40
735.2214778369999
 40
739.9939524899999
 40
739.9939524899999
 40
739.9939524899999
 40
744.7664271419999
 40
744.7664271419999
 40
744.7664271419999
 40
751.2554203859999
 40
751.2554203859999
 40
751.2554203859999
 40
753.1757548959999
 40
753.1757548959999
 40
753.1757548959999
 40
755.0960894072464
 40
755.0960894072464
 40
755.0960894072464
 40
758.825892102
 40
758.825892102
 40
758.825892102
 40
760.7090079169999
 40
760.7090079169999
 40
760.7090079169999
 40
762.6182015409999
 40
762.6182015409999
 40
762.6182015409999
 40
767.6346121419835
 40
767.6346121419835
 40
767.6346121419835
 40
774.560216366
 40
774.560216366
 40
774.560216366
 40
779.930756962
 40
779.930756962
 40
779.930756962
 40
807.2504671969999
 40
807.2504671969999
 40
807.2504671969999
 40
813.0825309289999
 40
813.0825309289999
 40
813.0825309289999
 40
818.6752390269999
 40
818.6752390269999
 40
818.6752390269999
 40
839.030559144
 40
839.030559144
 40
839.030559144
 40
850.6505043209999
 40
850.6505043209999
 40
850.6505043209999
 40
862.2704494979998
 40
862.2704494979998
 40
862.2704494979998
 40
867.7277466846513
 40
867.7277466846513
 40
867.7277466846513
 40
871.2699331759999
 40
871.2699331759999
 40
871.2699331759999
 40
919.5541596674484
 40
919.5541596674484
 40
919.5541596674484
 40
925.0852570782898
 40
925.0852570782898
 40
925.0852570782898
 40
927.8508057831778
 40
927.8508057831778
 40
927.8508057831778
 40
930.6163544889999
 40
930.6163544889999
 40
930.6163544889999
 40
932.6227197898544
 40
932.6227197898544
 40
932.6227197898544
 40
934.629085091
 40
934.629085091
 40
934.629085091
 40
935.6487497359999
 40
935.6487497359999
 40
935.6487497359999
 40
935.6487497359999
 10
540.9320708731993
 20
12.00000028670106
 30
0.0
 10
540.9320736405071
 20
12.00000028670106
 30
0.0
 10
540.9312337959115
 20
12.00000028670106
 30
0.0
 10
540.9299326442567
 20
12.00000028670106
 30
0.0
 10
540.9295923219429
 20
12.00000028670106
 30
0.0
 10
540.9292193152231
 20
12.00000028670106
 30
0.0
 10
540.9288177773995
 20
12.00000028670106
 30
0.0
 10
540.9280582613966
 20
12.00000028670106
 30
0.0
 10
540.9271979881924
 20
12.00000028670106
 30
0.0
 10
540.926250703425
 20
12.00000028670106
 30
0.0
 10
540.9257770572603
 20
12.00000028670106
 30
0.0
 10
540.9252813115333
 20
12.00000028670106
 30
0.0
 10
540.9247629488298
 20
12.00000028670106
 30
0.0
 10
540.9242382432461
 20
12.00000028670106
 30
0.0
 10
540.923709892885
 20
12.00000028670106
 30
0.0
 10
540.9231386291231
 20
12.00000028670106
 30
0.0
 10
540.9222798042662
 20
12.00000028670106
 30
0.0
 10
540.9213692916396
 20
12.00000028670106
 30
0.0
 10
540.9204138813288
 20
12.00000028670106
 30
0.0
 10
540.9194584710179
 20
12.00000028670106
 30
0.0
 10
540.9184581591084
 20
12.00000028670106
 30
0.0
 10
540.9174190568235
 20
12.00000028670106
 30
0.0
 10
540.9136031872716
 20
12.00000028670106
 30
0.0
 10
540.9092571590607
 20
12.00000028670106
 30
0.0
 10
540.9046415045373
 20
12.00000028670106
 30
0.0
 10
540.9033987104145
 20
12.00000028670106
 30
0.0
 10
540.9021358731381
 20
12.00000028670106
 30
0.0
 10
540.9008541796867
 20
12.00000028670106
 30
0.0
 10
540.9006619359559
 20
12.00000028670106
 30
0.0
 10
540.9004691558569
 20
12.00000028670106
 30
0.0
 10
540.9002767899848
 20
12.00000028670106
 30
0.0
 10
540.8995535308056
 20
12.00000028670106
 30
0.0
 10
540.8988413702935
 20
12.00000028670106
 30
0.0
 10
540.8981521809781
 20
12.00000028670106
 30
0.0
 10
540.8974628081729
 20
12.00000028670106
 30
0.0
 10
540.896791328685
 20
12.00000028670106
 30
0.0
 10
540.8960909982408
 20
12.00000028670106
 30
0.0
 10
540.8955559587261
 20
12.00000028670106
 30
0.0
 10
540.8950023737441
 20
12.00000028670106
 30
0.0
 10
540.894430857777
 20
12.00000028670106
 30
0.0
 10
540.8940048082135
 20
12.00000028670106
 30
0.0
 10
540.8936156336133
 20
12.00000028670106
 30
0.0
 10
540.8931790772127
 20
12.00000028670106
 30
0.0
 10
540.8925473830811
 20
12.00000028670106
 30
0.0
 10
540.8919109447372
 20
12.00000028670106
 30
0.0
 10
540.8912693559316
 20
12.00000028670106
 30
0.0
 10
540.890627767126
 20
12.00000028670106
 30
0.0
 10
540.8899810276274
 20
12.00000028670106
 30
0.0
 10
540.8893286165242
 20
12.00000028670106
 30
0.0
 10
540.8880863089252
 20
12.00000028670106
 30
0.0
 10
540.8868341672468
 20
12.00000028670106
 30
0.0
 10
540.8855477272672
 20
12.00000028670106
 30
0.0
 10
540.8816701050311
 20
12.00000028670106
 30
0.0
 10
540.8776086266374
 20
12.00000028670106
 30
0.0
 10
540.8735227599093
 20
12.00000028670106
 30
0.0
 10
540.8673295100161
 20
12.00000028670106
 30
0.0
 10
540.8610714530142
 20
12.00000028670106
 30
0.0
 10
540.8550991875762
 20
12.00000028670106
 30
0.0
 10
540.8498697569893
 20
12.00000028670106
 30
0.0
 10
540.8448677558973
 20
12.00000028670106
 30
0.0
 10
540.8400636924129
 20
12.00000028670106
 30
0.0
 10
540.8380918548991
 20
12.00000028670106
 30
0.0
 10
540.8361518940999
 20
12.00000028670106
 30
0.0
 10
540.8342284970108
 20
12.00000028670106
 30
0.0
 10
540.83380101476
 20
12.00000028670106
 30
0.0
 10
540.8333743285687
 20
12.00000028670106
 30
0.0
 10
540.8329482019021
 20
12.00000028670106
 30
0.0
 10
540.8325220752358
 20
12.00000028670106
 30
0.0
 10
540.8320965111854
 20
12.00000028670106
 30
0.0
 10
540.8316711070592
 20
12.00000028670106
 30
0.0
 10
540.8314404964253
 20
12.00000028670106
 30
0.0
 10
540.8311858386212
 20
12.00000028670106
 30
0.0
 10
540.8309556295119
 20
12.00000028670106
 30
0.0
 10
540.8307175329317
 20
12.00000028670106
 30
0.0
 10
540.8304946119752
 20
12.00000028670106
 30
0.0
 10
540.8302657951077
 20
12.00000028670106
 30
0.0
 10
540.8298081614185
 20
12.00000028670106
 30
0.0
 10
540.8294249987423
 20
12.00000028670106
 30
0.0
 10
540.8275937820987
 20
12.00000028670106
 30
0.0
 10
540.823923260055
 20
12.00000028670106
 30
0.0
 10
540.8140695042995
 20
12.00000028670106
 30
0.0
 10
540.7775738427261
 20
12.00000028670106
 30
0.0
 10
540.7639220597427
 20
12.00000028670106
 30
0.0
 10
540.7466187506734
 20
12.00000028670106
 30
0.0
 10
540.7249411703019
 20
12.00000028670106
 30
0.0
 10
540.7032900159163
 20
12.00000028670106
 30
0.0
 10
540.677158300881
 20
12.00000028670106
 30
0.0
 10
540.6460535179046
 20
12.00000028670106
 30
0.0
 10
540.5837680941849
 20
12.00000028670106
 30
0.0
 10
540.5010683953013
 20
12.00000028670106
 30
0.0
 10
540.3940123751346
 20
12.00000028670106
 30
0.0
 10
540.0531395406799
 20
12.00000028670106
 30
0.0
 10
539.4579304508318
 20
12.00000028670106
 30
0.0
 10
538.5720532844656
 20
12.00000028670106
 30
0.0
 10
538.3006188578435
 20
12.00000028670106
 30
0.0
 10
538.0034849732781
 20
12.00000028670106
 30
0.0
 10
537.678417461529
 20
12.00000028670106
 30
0.0
 10
537.3536934162595
 20
12.00000028670106
 30
0.0
 10
537.0027956074538
 20
12.00000028670106
 30
0.0
 10
536.6256051855283
 20
12.00000028670106
 30
0.0
 10
536.2421825435164
 20
12.00000028670106
 30
0.0
 10
535.8307366259341
 20
12.00000028670106
 30
0.0
 10
535.3904618883177
 20
12.00000028670106
 30
0.0
 10
535.1698697998754
 20
12.00000028670106
 30
0.0
 10
534.9438105341302
 20
12.00000028670106
 30
0.0
 10
534.7093563643085
 20
12.00000028670106
 30
0.0
 10
534.1519022229508
 20
12.00000028670106
 30
0.0
 10
533.5528423721259
 20
12.00000028670106
 30
0.0
 10
532.9040948311633
 20
12.00000028670106
 30
0.0
 10
532.1447683882807
 20
12.00000028670106
 30
0.0
 10
531.3159638565243
 20
12.00000028670106
 30
0.0
 10
530.4292370937867
 20
12.00000028670106
 30
0.0
 10
530.2397396110257
 20
12.00000028670106
 30
0.0
 10
530.0478388555126
 20
12.00000028670106
 30
0.0
 10
529.8527249359437
 20
12.00000028670106
 30
0.0
 10
528.8120909487425
 20
12.00000028670106
 30
0.0
 10
527.6664112099108
 20
12.00000028670106
 30
0.0
 10
526.3854287019567
 20
12.00000028670106
 30
0.0
 10
525.8034599327353
 20
12.00000028670106
 30
0.0
 10
525.1958933374194
 20
12.00000028670106
 30
0.0
 10
524.5702387887441
 20
12.00000028670106
 30
0.0
 10
524.2574111981046
 20
12.00000028670106
 30
0.0
 10
523.9404058992994
 20
12.00000028670106
 30
0.0
 10
523.6181386382009
 20
12.00000028670106
 30
0.0
 10
522.0126691900706
 20
12.00000028670106
 30
0.0
 10
520.2637832771935
 20
12.00000028670106
 30
0.0
 10
518.3022861896898
 20
12.00000028670106
 30
0.0
 10
516.5357923035965
 20
12.00000028670106
 30
0.0
 10
514.5998225126496
 20
12.00000030264118
 30
0.0
 10
512.5672801558687
 20
12.00000029083281
 30
0.0
 10
512.0401266600155
 20
12.0000002877702
 30
0.0
 10
511.5074349424372
 20
12.00000028684769
 30
0.0
 10
510.9699478335803
 20
12.00000028674995
 30
0.0
 10
510.4324607247235
 20
12.00000028665221
 30
0.0
 10
509.8899923361265
 20
12.00000028670106
 30
0.0
 10
509.3427982995494
 20
12.00000028670106
 30
0.0
 10
507.3619388819571
 20
12.00000028670106
 30
0.0
 10
505.3183979375022
 20
12.00000028670106
 30
0.0
 10
503.231418567314
 20
12.00000028670106
 30
0.0
 10
502.1879288823767
 20
12.00000028670106
 30
0.0
 10
501.1337194057345
 20
12.00000028670106
 30
0.0
 10
500.0716710416046
 20
12.00000028670106
 30
0.0
 10
499.0096226773961
 20
12.00000028670106
 30
0.0
 10
497.9397533699964
 20
12.00000028670106
 30
0.0
 10
496.8649111111225
 20
12.00000028670106
 30
0.0
 10
496.0916472001493
 20
12.00000028670106
 30
0.0
 10
495.3282447660419
 20
12.00000028670106
 30
0.0
 10
494.5507098800107
 20
12.00000028670106
 30
0.0
 10
493.7683927558498
 20
12.00000028670106
 30
0.0
 10
493.0101642763877
 20
12.00000028670106
 30
0.0
 10
492.2238737789083
 20
12.00000028670106
 30
0.0
 10
491.446553403499
 20
12.00000028670106
 30
0.0
 10
490.6689035411217
 20
12.00000028670106
 30
0.0
 10
489.8947518888152
 20
12.00000028670106
 30
0.0
 10
489.1688642911084
 20
12.00000028670106
 30
0.0
 10
488.3699217434704
 20
12.00000028670106
 30
0.0
 10
487.6473364152759
 20
12.00000028670106
 30
0.0
 10
486.8994220346754
 20
12.00000028670106
 30
0.0
 10
486.1521836400034
 20
12.00000028670106
 30
0.0
 10
485.4059855391771
 20
12.00000028670106
 30
0.0
 10
483.9136241207783
 20
12.00000028670106
 30
0.0
 10
482.4253086559009
 20
12.00000028670106
 30
0.0
 10
480.9407256778516
 20
12.00000028670106
 30
0.0
 10
474.3458002829334
 20
12.00000028670106
 30
0.0
 10
467.823582861019
 20
12.00000028670106
 30
0.0
 10
461.2432322519018
 20
12.00000028670106
 30
0.0
 10
459.0498263833383
 20
12.00000028670106
 30
0.0
 10
456.8509350734099
 20
12.00000028670106
 30
0.0
 10
454.6505581211743
 20
12.00000028670106
 30
0.0
 10
453.5503691668261
 20
12.00000028670106
 30
0.0
 10
452.4499314662336
 20
12.00000028670106
 30
0.0
 10
451.3506510740351
 20
12.00000028670106
 30
0.0
 10
450.251370682067
 20
12.00000028670106
 30
0.0
 10
449.1537334906452
 20
12.00000028670106
 30
0.0
 10
448.0566501008404
 20
12.00000028670106
 30
0.0
 10
446.5649781227473
 20
12.00000028670106
 30
0.0
 10
445.0740406280152
 20
12.00000028670106
 30
0.0
 10
443.5814009549402
 20
12.00000028670106
 30
0.0
 10
443.1396733452142
 20
12.00000028670106
 30
0.0
 10
442.6990434472003
 20
12.00000028670106
 30
0.0
 10
442.255302615695
 20
12.00000028670106
 30
0.0
 10
441.8115617839015
 20
12.00000028670106
 30
0.0
 10
441.3591707194346
 20
12.00000028670106
 30
0.0
 10
440.8964329694372
 20
12.00000028670106
 30
0.0
 10
439.9976726249262
 20
12.00000028670106
 30
0.0
 10
439.0388285252627
 20
12.00000028670106
 30
0.0
 10
438.1262129134232
 20
12.00000028670106
 30
0.0
 10
437.6654483549953
 20
12.00000028670106
 30
0.0
 10
437.2104688993598
 20
12.00000028670106
 30
0.0
 10
436.766228681148
 20
12.00000028670106
 30
0.0
 10
436.315836525032
 20
12.00000028670106
 30
0.0
 10
435.8944866236749
 20
12.00000028670106
 30
0.0
 10
435.4527859164775
 20
12.00000028670106
 30
0.0
 10
434.2922163010164
 20
12.00000028670106
 30
0.0
 10
433.1287912493466
 20
12.00000028670106
 30
0.0
 10
431.9622669478603
 20
12.00000028670106
 30
0.0
 10
430.3517756479243
 20
12.00000028670106
 30
0.0
 10
428.736573877576
 20
12.00000028670106
 30
0.0
 10
427.1267979344744
 20
12.00000028670106
 30
0.0
 10
425.8784783982654
 20
12.00000028670106
 30
0.0
 10
424.6334229137969
 20
12.00000028670106
 30
0.0
 10
423.3898196508536
 20
12.00000028670106
 30
0.0
 10
417.0636630594269
 20
12.00000028670106
 30
0.0
 10
410.7488457894218
 20
12.00000028670106
 30
0.0
 10
404.3665795955117
 20
12.00000028670106
 30
0.0
 10
403.0041279853996
 20
12.00000028670106
 30
0.0
 10
401.640479628141
 20
12.00000028670106
 30
0.0
 10
400.2768849750865
 20
12.00000028670106
 30
0.0
 10
398.9692540559178
 20
12.00000028670106
 30
0.0
 10
397.4934774346915
 20
12.00000028670106
 30
0.0
 10
396.1855018760417
 20
12.00000028670106
 30
0.0
 10
391.4249707102812
 20
12.00000028670106
 30
0.0
 10
386.6528405716071
 20
12.00000028670106
 30
0.0
 10
381.8891307796216
 20
12.00000028670106
 30
0.0
 10
379.1697411407538
 20
12.00000028670106
 30
0.0
 10
376.4526517833238
 20
12.00000028670106
 30
0.0
 10
373.7432733018238
 20
12.00000028670106
 30
0.0
 10
371.0338948203238
 20
12.00000028670106
 30
0.0
 10
368.3333245810948
 20
12.00000028670106
 30
0.0
 10
365.6421506932365
 20
12.00000028670106
 30
0.0
 10
364.3782432080215
 20
12.00000028670106
 30
0.0
 10
363.185028984655
 20
12.00000028670106
 30
0.0
 10
361.9918854617318
 20
12.00000028670106
 30
0.0
 10
361.217447727339
 20
12.00000028670106
 30
0.0
 10
360.4151653507678
 20
12.00000028670106
 30
0.0
 10
359.5965457973748
 20
12.00000028670106
 30
0.0
 10
348.4377849520903
 20
12.00000028670106
 30
0.0
 10
337.2518868573063
 20
12.00000028670106
 30
0.0
 10
326.0321921934348
 20
12.00000028670106
 30
0.0
 10
324.746943808711
 20
12.00000028670106
 30
0.0
 10
323.461431639646
 20
12.00000028670106
 30
0.0
 10
322.1757830738841
 20
12.00000028670106
 30
0.0
 10
321.532958791127
 20
12.00000028670106
 30
0.0
 10
320.8901008355138
 20
12.00000028670106
 30
0.0
 10
320.2472276738813
 20
12.00000028670106
 30
0.0
 10
319.6043545120317
 20
12.00000028670106
 30
0.0
 10
318.9614661448895
 20
12.00000028670106
 30
0.0
 10
318.3185827202434
 20
12.00000028670106
 30
0.0
 10
317.8521801604225
 20
12.00000028670106
 30
0.0
 10
317.3828821785803
 20
12.00000028670106
 30
0.0
 10
316.9273744049781
 20
12.00000028670106
 30
0.0
 10
316.4718666313099
 20
12.00000028670106
 30
0.0
 10
316.0318766470439
 20
12.00000028670109
 30
0.0
 10
315.6090179232357
 20
12.00000028670118
 30
0.0
 10
315.39411483941
 20
12.00000028670121
 30
0.0
 10
315.1832022867151
 20
12.00000028670121
 30
0.0
 10
314.9742474938845
 20
12.00000028670124
 30
0.0
  0
SPLINE
  5
5948
330
58D1
100
AcDbEntity
  8
0
100
AcDbSpline
210
0.0
220
0.0
230
1.0
 70
    24
 71
     3
 72
   239
 73
   235
 74
     0
 42
0.0000000001
 43
0.0000000001
 40
197.4571437740848
 40
197.4571437740848
 40
197.4571437740848
 40
197.4571437740848
 40
227.9525226440775
 40
227.9525226440775
 40
227.9525226440775
 40
235.898338489
 40
235.898338489
 40
235.898338489
 40
250.97356232
 40
250.97356232
 40
250.97356232
 40
258.511234407
 40
258.511234407
 40
258.511234407
 40
266.141140273
 40
266.141140273
 40
266.141140273
 40
277.6117660131918
 40
277.6117660131918
 40
277.6117660131918
 40
289.0823917541651
 40
289.0823917541651
 40
289.0823917541651
 40
331.2056854982179
 40
331.2056854982179
 40
331.2056854982179
 40
342.5476491836247
 40
342.5476491836247
 40
342.5476491836247
 40
350.6450546651871
 40
350.6450546651871
 40
350.6450546651871
 40
357.042959656
 40
357.042959656
 40
357.042959656
 40
361.930840812
 40
361.930840812
 40
361.930840812
 40
365.5746228802267
 40
365.5746228802267
 40
365.5746228802267
 40
370.8471506610965
 40
370.8471506610965
 40
370.8471506610965
 40
376.119678441829
 40
376.119678441829
 40
376.119678441829
 40
386.159515742
 40
386.159515742
 40
386.159515742
 40
416.4218653109999
 40
416.4218653109999
 40
416.4218653109999
 40
462.2927430709999
 40
462.2927430709999
 40
462.2927430709999
 40
502.4581666771017
 40
502.4581666771017
 40
502.4581666771017
 40
518.9441455319961
 40
518.9441455319961
 40
518.9441455319961
 40
522.6082164553742
 40
522.6082164553742
 40
522.6082164553742
 40
526.2722873779999
 40
526.2722873779999
 40
526.2722873779999
 40
528.258572104
 40
528.258572104
 40
528.258572104
 40
530.312911316
 40
530.312911316
 40
530.312911316
 40
534.421589328
 40
534.421589328
 40
534.421589328
 40
542.6570939949999
 40
542.6570939949999
 40
542.6570939949999
 40
545.7377155709999
 40
545.7377155709999
 40
545.7377155709999
 40
548.814581725
 40
548.814581725
 40
548.814581725
 40
554.975817837
 40
554.975817837
 40
554.975817837
 40
574.5935657597242
 40
574.5935657597242
 40
574.5935657597242
 40
580.604480547
 40
580.604480547
 40
580.604480547
 40
586.6090441989999
 40
586.6090441989999
 40
586.6090441989999
 40
592.712819708
 40
592.712819708
 40
592.712819708
 40
595.771011496
 40
595.771011496
 40
595.771011496
 40
603.042375782
 40
603.042375782
 40
603.042375782
 40
603.042452222805
 40
603.042452222805
 40
603.042452222805
 40
611.5531428049999
 40
611.5531428049999
 40
611.5531428049999
 40
613.3719318559999
 40
613.3719318559999
 40
613.3719318559999
 40
623.072386371219
 40
623.072386371219
 40
623.072386371219
 40
627.479442314485
 40
627.479442314485
 40
627.479442314485
 40
640.6605083693307
 40
640.6605083693307
 40
640.6605083693307
 40
655.674810993232
 40
655.674810993232
 40
655.674810993232
 40
664.956758764198
 40
664.956758764198
 40
664.956758764198
 40
669.5977326490535
 40
669.5977326490535
 40
669.5977326490535
 40
674.2387065342717
 40
674.2387065342717
 40
674.2387065342717
 40
677.5775198229999
 40
677.5775198229999
 40
677.5775198229999
 40
680.9368685249999
 40
680.9368685249999
 40
680.9368685249999
 40
684.257893264
 40
684.257893264
 40
684.257893264
 40
687.371870561
 40
687.371870561
 40
687.371870561
 40
690.5950032628805
 40
690.5950032628805
 40
690.5950032628805
 40
697.0411184237137
 40
697.0411184237137
 40
697.0411184237137
 40
725.6765326808276
 40
725.6765326808276
 40
725.6765326808276
 40
739.9939524901838
 40
739.9939524901838
 40
739.9939524901838
 40
744.7664271422328
 40
744.7664271422328
 40
744.7664271422328
 40
751.2554203868993
 40
751.2554203868993
 40
751.2554203868993
 40
755.096089407
 40
755.096089407
 40
755.096089407
 40
758.825892102
 40
758.825892102
 40
758.825892102
 40
760.7090079169999
 40
760.7090079169999
 40
760.7090079169999
 40
762.6182015409999
 40
762.6182015409999
 40
762.6182015409999
 40
767.6345752768229
 40
767.6345752768229
 40
767.6345752768229
 40
774.560216366
 40
774.560216366
 40
774.560216366
 40
779.930756962
 40
779.930756962
 40
779.930756962
 40
807.2504671969999
 40
807.2504671969999
 40
807.2504671969999
 40
813.0825309289999
 40
813.0825309289999
 40
813.0825309289999
 40
818.6752390269999
 40
818.6752390269999
 40
818.6752390269999
 40
839.030559144
 40
839.030559144
 40
839.030559144
 40
850.6505043209999
 40
850.6505043209999
 40
850.6505043209999
 40
862.2704494979998
 40
862.2704494979998
 40
862.2704494979998
 40
867.7277466847836
 40
867.7277466847836
 40
867.7277466847836
 40
871.2699331759999
 40
871.2699331759999
 40
871.2699331759999
 40
903.4593414559999
 40
903.4593414559999
 40
903.4593414559999
 40
919.5540455959999
 40
919.5540455959999
 40
919.5540455959999
 40
919.5541588526149
 40
919.5541588526149
 40
919.5541588526149
 40
925.0852569081208
 40
925.0852569081208
 40
925.0852569081208
 40
927.8508057448838
 40
927.8508057448838
 40
927.8508057448838
 40
930.6163544889999
 40
930.6163544889999
 40
930.6163544889999
 40
932.6227197899999
 40
932.6227197899999
 40
932.6227197899999
 40
935.6487497359999
 40
935.6487497359999
 40
935.6487497359999
 40
935.6487497359999
 10
89.0164241030709
 20
12.00000028670106
 30
0.0
 10
89.01642132403845
 20
12.00000028670106
 30
0.0
 10
89.01726249137714
 20
12.00000028670106
 30
0.0
 10
89.01856543057908
 20
12.00000028670106
 30
0.0
 10
89.01890492185088
 20
12.00000028670106
 30
0.0
 10
89.01927688625688
 20
12.00000028670106
 30
0.0
 10
89.01967721028359
 20
12.00000028670106
 30
0.0
 10
89.02043672628849
 20
12.00000028670106
 30
0.0
 10
89.02129699949483
 20
12.00000028670106
 30
0.0
 10
89.02224428426427
 20
12.00000028670106
 30
0.0
 10
89.02271793043007
 20
12.00000028670106
 30
0.0
 10
89.0232136761581
 20
12.00000028670106
 30
0.0
 10
89.02373203886265
 20
12.00000028670106
 30
0.0
 10
89.02425674444742
 20
12.00000028670106
 30
0.0
 10
89.02478509480955
 20
12.00000028670106
 30
0.0
 10
89.02535635857276
 20
12.00000028670106
 30
0.0
 10
89.02621518343108
 20
12.00000028670106
 30
0.0
 10
89.02712569604307
 20
12.00000028670106
 30
0.0
 10
89.02808110635049
 20
12.00000028670106
 30
0.0
 10
89.02903651665804
 20
12.00000028670106
 30
0.0
 10
89.03003682857548
 20
12.00000028670106
 30
0.0
 10
89.03107593090732
 20
12.00000028670106
 30
0.0
 10
89.03489180056807
 20
12.00000028670106
 30
0.0
 10
89.03923782836073
 20
12.00000028670106
 30
0.0
 10
89.04385348296756
 20
12.00000028670106
 30
0.0
 10
89.04509627721006
 20
12.00000028670106
 30
0.0
 10
89.04635911461502
 20
12.00000028670106
 30
0.0
 10
89.04764080804966
 20
12.00000028670106
 30
0.0
 10
89.04855585166387
 20
12.00000028670106
 30
0.0
 10
89.04947031357124
 20
12.00000028670106
 30
0.0
 10
89.05034280693655
 20
12.00000028670106
 30
0.0
 10
89.05103217955957
 20
12.00000028670106
 30
0.0
 10
89.05170365904826
 20
12.00000028670106
 30
0.0
 10
89.05240398949331
 20
12.00000028670106
 30
0.0
 10
89.05293902900849
 20
12.00000028670106
 30
0.0
 10
89.05349261399123
 20
12.00000028670106
 30
0.0
 10
89.05406412995899
 20
12.00000028670106
 30
0.0
 10
89.05449017952298
 20
12.00000028670106
 30
0.0
 10
89.05487935412384
 20
12.00000028670106
 30
0.0
 10
89.05531591052477
 20
12.00000028670106
 30
0.0
 10
89.05594760465708
 20
12.00000028670106
 30
0.0
 10
89.05658404300169
 20
12.00000028670106
 30
0.0
 10
89.05722563180814
 20
12.00000028670106
 30
0.0
 10
89.0578672206144
 20
12.00000028670106
 30
0.0
 10
89.05851396011376
 20
12.00000028670106
 30
0.0
 10
89.05916637121766
 20
12.00000028670106
 30
0.0
 10
89.06040867881802
 20
12.00000028670106
 30
0.0
 10
89.06166082049793
 20
12.00000028670106
 30
0.0
 10
89.06294726047889
 20
12.00000028670106
 30
0.0
 10
89.06682488271929
 20
12.00000028670106
 30
0.0
 10
89.07088636111746
 20
12.00000028670106
 30
0.0
 10
89.07497222784996
 20
12.00000028670106
 30
0.0
 10
89.08116547774978
 20
12.00000028670106
 30
0.0
 10
89.08742353475844
 20
12.00000028670106
 30
0.0
 10
89.09339580020287
 20
12.00000028670106
 30
0.0
 10
89.09862523079551
 20
12.00000028670106
 30
0.0
 10
89.10362723141373
 20
12.00000028670106
 30
0.0
 10
89.1084312952047
 20
12.00000028670106
 30
0.0
 10
89.11040313284434
 20
12.00000028670106
 30
0.0
 10
89.11234309314016
 20
12.00000028670106
 30
0.0
 10
89.11426649025605
 20
12.00000028670106
 30
0.0
 10
89.11469397251289
 20
12.00000028670106
 30
0.0
 10
89.11512065873637
 20
12.00000028670106
 30
0.0
 10
89.11554678547389
 20
12.00000028670106
 30
0.0
 10
89.11597291221131
 20
12.00000028670106
 30
0.0
 10
89.11639847637161
 20
12.00000028670106
 30
0.0
 10
89.11682388065941
 20
12.00000028670106
 30
0.0
 10
89.11705449138095
 20
12.00000028670106
 30
0.0
 10
89.11730914918535
 20
12.00000028670106
 30
0.0
 10
89.11753935829494
 20
12.00000028670106
 30
0.0
 10
89.1177774548754
 20
12.00000028670106
 30
0.0
 10
89.11800037583219
 20
12.00000028670106
 30
0.0
 10
89.11822919269992
 20
12.00000028670106
 30
0.0
 10
89.11868682638981
 20
12.00000028670106
 30
0.0
 10
89.11906998906664
 20
12.00000028670106
 30
0.0
 10
89.1209012057107
 20
12.00000028670106
 30
0.0
 10
89.1245717277556
 20
12.00000028670106
 30
0.0
 10
89.13442548351213
 20
12.00000028670106
 30
0.0
 10
89.1709211450866
 20
12.00000028670106
 30
0.0
 10
89.18457292807062
 20
12.00000028670106
 30
0.0
 10
89.20187623714019
 20
12.00000028670106
 30
0.0
 10
89.2235538175122
 20
12.00000028670106
 30
0.0
 10
89.24520497189831
 20
12.00000028670106
 30
0.0
 10
89.27133668693386
 20
12.00000028670106
 30
0.0
 10
89.30244146991077
 20
12.00000028670106
 30
0.0
 10
89.36472689363132
 20
12.00000028670106
 30
0.0
 10
89.44742659251579
 20
12.00000028670106
 30
0.0
 10
89.55448261268339
 20
12.00000028670106
 30
0.0
 10
89.89535544714073
 20
12.00000028670106
 30
0.0
 10
90.49056453699137
 20
12.00000028670106
 30
0.0
 10
91.37644170336001
 20
12.00000028670106
 30
0.0
 10
91.64787612998276
 20
12.00000028670106
 30
0.0
 10
91.94501001454899
 20
12.00000028670106
 30
0.0
 10
92.27007752629857
 20
12.00000028670106
 30
0.0
 10
92.59480157156872
 20
12.00000028670106
 30
0.0
 10
92.94569938037511
 20
12.00000028670106
 30
0.0
 10
93.32288980230135
 20
12.00000028670106
 30
0.0
 10
93.70631244431393
 20
12.00000028670106
 30
0.0
 10
94.11775836189679
 20
12.00000028670106
 30
0.0
 10
94.55803309951376
 20
12.00000028670106
 30
0.0
 10
94.77862518797763
 20
12.00000028670106
 30
0.0
 10
95.00468445373575
 20
12.00000028670106
 30
0.0
 10
95.23913862354703
 20
12.00000028670106
 30
0.0
 10
95.79659276483358
 20
12.00000028670106
 30
0.0
 10
96.39562491876802
 20
12.00000028671474
 30
0.0
 10
97.04436625485175
 20
12.00000028672153
 30
0.0
 10
97.04437307479748
 20
12.00000028672153
 30
0.0
 10
97.04437989474861
 20
12.00000028672153
 30
0.0
 10
97.04438671470512
 20
12.00000028672153
 30
0.0
 10
97.80370027623968
 20
12.00000028672946
 30
0.0
 10
98.63253909564974
 20
12.00000028670106
 30
0.0
 10
99.51925789405976
 20
12.00000028670106
 30
0.0
 10
99.70875537681843
 20
12.00000028670106
 30
0.0
 10
99.90065613232212
 20
12.00000028670106
 30
0.0
 10
100.0957700519088
 20
12.00000028670106
 30
0.0
 10
101.136404039229
 20
12.00000028670106
 30
0.0
 10
102.2820837776894
 20
12.00000028670106
 30
0.0
 10
103.563066285551
 20
12.00000028670106
 30
0.0
 10
104.1450350547086
 20
12.00000028670106
 30
0.0
 10
104.7526016506197
 20
12.00000028670106
 30
0.0
 10
105.3782561989663
 20
12.00000028670106
 30
0.0
 10
107.2495267331812
 20
12.00000028670106
 30
0.0
 10
109.2909787163693
 20
12.00000028670106
 30
0.0
 10
111.6462087982428
 20
12.00000028670106
 30
0.0
 10
114.3290067639783
 20
12.00000028670106
 30
0.0
 10
117.4014960737413
 20
12.00000028670106
 30
0.0
 10
120.6056966882862
 20
12.00000028670106
 30
0.0
 10
122.5865561059295
 20
12.00000028670106
 30
0.0
 10
124.6300970503717
 20
12.00000028670106
 30
0.0
 10
126.7170764205342
 20
12.00000028670106
 30
0.0
 10
127.7605661054742
 20
12.00000028670106
 30
0.0
 10
128.8147755821154
 20
12.00000028670106
 30
0.0
 10
129.8768239462422
 20
12.00000028670106
 30
0.0
 10
130.9388723104521
 20
12.00000028670106
 30
0.0
 10
132.0087416178512
 20
12.00000028670106
 30
0.0
 10
133.0835838767233
 20
12.00000028670106
 30
0.0
 10
133.8568477876965
 20
12.00000028670106
 30
0.0
 10
134.6202502218039
 20
12.00000028670106
 30
0.0
 10
135.397785107835
 20
12.00000028670106
 30
0.0
 10
136.180102231996
 20
12.00000028670106
 30
0.0
 10
136.9383307114582
 20
12.00000028670106
 30
0.0
 10
137.7246212089376
 20
12.00000028670106
 30
0.0
 10
138.5019415843469
 20
12.00000028670106
 30
0.0
 10
139.2795914467243
 20
12.00000028670106
 30
0.0
 10
140.0537430990307
 20
12.00000028670106
 30
0.0
 10
140.7796306967375
 20
12.00000028670106
 30
0.0
 10
141.5785732443755
 20
12.00000028670106
 30
0.0
 10
142.3011585725701
 20
12.00000028670106
 30
0.0
 10
143.0490729531428
 20
12.00000028670106
 30
0.0
 10
143.7963113478269
 20
12.00000028670106
 30
0.0
 10
144.5425094486667
 20
12.00000028670106
 30
0.0
 10
146.0348708671096
 20
12.00000028670106
 30
0.0
 10
147.5231863319823
 20
12.00000028670106
 30
0.0
 10
149.007769309993
 20
12.00000028670106
 30
0.0
 10
155.6026947051673
 20
12.00000028670106
 30
0.0
 10
162.1249121265817
 20
12.00000028670106
 30
0.0
 10
168.7052627362497
 20
12.00000028670106
 30
0.0
 10
171.9953720158096
 20
12.00000028670106
 30
0.0
 10
175.3000036923956
 20
12.00000028670106
 30
0.0
 10
178.5978439139794
 20
12.00000028670106
 30
0.0
 10
179.697124306228
 20
12.00000028670106
 30
0.0
 10
180.7947614972909
 20
12.00000028670106
 30
0.0
 10
181.8918448869977
 20
12.00000028670106
 30
0.0
 10
183.3835168650955
 20
12.00000028670106
 30
0.0
 10
184.8744543598627
 20
12.00000028670106
 30
0.0
 10
186.3670940333265
 20
12.00000028670106
 30
0.0
 10
187.2505492529413
 20
12.00000028670106
 30
0.0
 10
188.1265865192873
 20
12.00000028670106
 30
0.0
 10
189.0520620183727
 20
12.00000028670106
 30
0.0
 10
189.9508223626198
 20
12.00000028670106
 30
0.0
 10
190.9096664625238
 20
12.00000028670106
 30
0.0
 10
191.8222820744237
 20
12.00000028670106
 30
0.0
 10
192.2830466328516
 20
12.00000028670106
 30
0.0
 10
192.7380260884872
 20
12.00000028670106
 30
0.0
 10
193.1822663066989
 20
12.00000028670106
 30
0.0
 10
193.632658462815
 20
12.00000028670106
 30
0.0
 10
194.0540083641529
 20
12.00000028670106
 30
0.0
 10
194.4957090713501
 20
12.00000028670106
 30
0.0
 10
195.6562701578866
 20
12.00000028670106
 30
0.0
 10
196.8197083688545
 20
12.00000028670106
 30
0.0
 10
197.9862280399979
 20
12.00000028670106
 30
0.0
 10
199.5967333554434
 20
12.00000028670106
 30
0.0
 10
201.2119125414182
 20
12.00000028670106
 30
0.0
 10
202.8216970533725
 20
12.00000028670106
 30
0.0
 10
204.0700165895629
 20
12.00000028670106
 30
0.0
 10
205.3150720740501
 20
12.00000028670106
 30
0.0
 10
206.5586753369934
 20
12.00000028670106
 30
0.0
 10
212.8848319284203
 20
12.00000028670106
 30
0.0
 10
219.1996491984255
 20
12.00000028670106
 30
0.0
 10
225.5819153923356
 20
12.00000028670106
 30
0.0
 10
226.9443670024477
 20
12.00000028670106
 30
0.0
 10
228.3080153597064
 20
12.00000028670106
 30
0.0
 10
229.6716100127608
 20
12.00000028670106
 30
0.0
 10
230.9792409319297
 20
12.00000028670106
 30
0.0
 10
232.4550175531559
 20
12.00000028670106
 30
0.0
 10
233.7629931118058
 20
12.00000028670106
 30
0.0
 10
238.5235242775663
 20
12.00000028670106
 30
0.0
 10
243.2956544162405
 20
12.00000028670106
 30
0.0
 10
248.0593642082259
 20
12.00000028670106
 30
0.0
 10
250.7787538470938
 20
12.00000028670106
 30
0.0
 10
253.4958432045238
 20
12.00000028670106
 30
0.0
 10
256.2052216860238
 20
12.00000028670106
 30
0.0
 10
258.9146001675238
 20
12.00000028670106
 30
0.0
 10
261.6151704067528
 20
12.00000028670106
 30
0.0
 10
264.3063442946111
 20
12.00000028670106
 30
0.0
 10
265.5702517798568
 20
12.00000028670106
 30
0.0
 10
266.7634660032452
 20
12.00000028670106
 30
0.0
 10
267.9566095261881
 20
12.00000028670106
 30
0.0
 10
268.7310472605461
 20
12.00000028670106
 30
0.0
 10
269.5333296370774
 20
12.00000028670106
 30
0.0
 10
270.3519491904257
 20
12.00000028670106
 30
0.0
 10
277.7911055121107
 20
12.00000028670106
 30
0.0
 10
285.2388674125239
 20
12.00000028670106
 30
0.0
 10
292.7055074518572
 20
12.00000028670106
 30
0.0
 10
296.4388274715239
 20
12.00000028670106
 30
0.0
 10
300.176335129279
 20
12.00000028670106
 30
0.0
 10
303.916223842685
 20
12.00000028670106
 30
0.0
 10
303.9162501598594
 20
12.00000028670106
 30
0.0
 10
303.9162764770339
 20
12.00000028670106
 30
0.0
 10
303.9163027942085
 20
12.00000028670106
 30
0.0
 10
305.2015511083753
 20
12.00000028670106
 30
0.0
 10
306.4870632852354
 20
12.00000028670106
 30
0.0
 10
307.7727119139339
 20
12.00000028670106
 30
0.0
 10
308.4155361838893
 20
12.00000028670106
 30
0.0
 10
309.0583941404799
 20
12.00000028670106
 30
0.0
 10
309.7012673139611
 20
12.00000028670106
 30
0.0
 10
310.3441404659058
 20
12.00000028670106
 30
0.0
 10
310.9870288340133
 20
12.00000028670106
 30
0.0
 10
311.6299122675844
 20
12.00000028670106
 30
0.0
 10
312.0963148274559
 20
12.00000028670106
 30
0.0
 10
312.5656128093191
 20
12.00000028670106
 30
0.0
 10
313.0211205828725
 20
12.00000028670115
 30
0.0
 10
313.7081241722595
 20
12.00000028670115
 30
0.0
 10
314.354138261216
 20
12.00000028670106
 30
0.0
 10
314.9742474939277
 20
12.00000028670106
 30
0.0
  0
ARC
  5
5949
330
58D1
100
AcDbEntity
  8
0
100
AcDbCircle
 10
5.30759477841525
 20
166.0000003122693
 30
0.0
 40
5.000000025568251
100
AcDbArc
 50
183.0000003155044
 51
270.0000000822951
  0
LINE
  5
594A
330
58D1
100
AcDbEntity
  8
0
100
AcDbLine
 10
348.127353793688
 20
0.0000002867010664
 30
0.0
 11
281.8211411940879
 21
0.0000002867010664
 31
0.0
  0
ARC
  5
594B
330
58D1
100
AcDbEntity
  8
0
100
AcDbCircle
 10
4.99314808780457
 20
172.0000002960568
 30
0.0
 40
4.999999990644218
100
AcDbArc
 50
89.99999969083665
 51
183.0000001187629
  0
ELLIPSE
  5
594C
330
58D1
100
AcDbEntity
  8
0
100
AcDbEllipse
 10
519.5474954381761
 20
16.99999434034004
 30
0.0
 11
0.0016709044296148
 21
4.999989585862809
 31
0.0
210
0.0
220
0.0
230
1.0
 40
0.9999999218329945
 41
2.196196588377061
 42
2.196309731624335
  0
LINE
  5
594D
330
58D1
100
AcDbEntity
  8
0
100
AcDbLine
 10
629.9484945414869
 20
171.7383205039333
 30
0.0
 11
629.6340478668103
 21
165.7383205215879
 31
0.0
  0
ELLIPSE
  5
594E
330
58D1
100
AcDbEntity
  8
0
100
AcDbEllipse
 10
110.3992705638257
 20
17.00124231308967
 30
0.0
 11
0.3721596660275073
 21
4.988258675626483
 31
0.0
210
0.0
220
0.0
230
1.0
 40
0.9999999021390488
 41
4.161678917423772
 42
4.161686436975531
  0
SPLINE
  5
594F
330
58D1
100
AcDbEntity
  8
0
100
AcDbSpline
210
0.0
220
0.0
230
1.0
 70
     8
 71
     3
 72
    10
 73
     6
 74
     0
 42
0.0000000001
 43
0.0000000001
 40
0.0
 40
0.0
 40
0.0
 40
0.0
 40
8.824616838215856
 40
8.824616838215856
 40
14.179294835869
 40
14.179294835869
 40
14.179294835869
 40
14.179294835869
 10
565.1446822266877
 20
156.3229788261329
 30
0.0
 10
563.2445988600741
 20
126.9694280047095
 30
0.0
 10
560.0225622578289
 20
97.67203131113308
 30
0.0
 10
552.7523766814762
 20
50.97927460841276
 30
0.0
 10
549.5250927167452
 20
33.41586642323699
 30
0.0
 10
545.8232627694715
 20
15.9625741253767
 30
0.0
  0
SPLINE
  5
5950
330
58D1
100
AcDbEntity
  8
0
100
AcDbSpline
210
0.0
220
0.0
230
1.0
 70
    24
 71
     3
 72
    10
 73
     6
 74
     0
 42
0.0000000001
 43
0.0000000001
 40
0.0
 40
0.0
 40
0.0
 40
0.0
 40
1.92384030818804
 40
1.92384030818804
 40
2.92384031150803
 40
2.92384031150803
 40
2.92384031150803
 40
2.92384031150803
 10
540.9322250341136
 20
12.00000028914343
 30
0.0
 10
540.9314139638358
 20
12.00000026379365
 30
0.0
 10
540.9314046163693
 20
12.00000028670109
 30
0.0
 10
540.9289535036471
 20
12.00000028670109
 30
0.0
 10
540.9278580071578
 20
12.00000028670115
 30
0.0
 10
540.9264836688246
 20
12.00000028670109
 30
0.0
  0
SPLINE
  5
5951
330
58D1
100
AcDbEntity
  8
0
100
AcDbSpline
210
0.0
220
0.0
230
1.0
 70
     8
 71
     3
 72
    28
 73
    24
 74
     0
 42
0.0000000001
 43
0.0000000001
 40
0.0000011430017907
 40
0.0000011430017907
 40
0.0000011430017907
 40
0.0000011430017907
 40
0.1621667219489083
 40
0.1621667219489083
 40
0.3213821700210349
 40
0.3213821700210349
 40
0.4807030606895327
 40
0.4807030606895327
 40
0.6400211655301447
 40
0.6400211655301447
 40
0.659685406131393
 40
0.659685406131393
 40
0.6744323382179114
 40
0.6744323382179114
 40
0.6771970979000259
 40
0.6771970979000259
 40
0.6777154883776955
 40
0.6777154883776955
 40
0.6779655198696081
 40
0.6779655198696081
 40
0.678090535622015
 40
0.678090535622015
 40
0.6781167011614809
 40
0.6781167011614809
 40
0.6781167011614809
 40
0.6781167011614809
 10
545.8232596223024
 20
15.96257479289369
 30
0.0
 10
545.7111031319113
 20
15.43378616168993
 30
0.0
 10
545.5094789907179
 20
14.9168533161835
 30
0.0
 10
544.9635098404017
 20
13.99514984311625
 30
0.0
 10
544.6151157848829
 20
13.57701288459071
 30
0.0
 10
543.8142228727137
 20
12.87990179870945
 30
0.0
 10
543.3516896725944
 20
12.59233972338973
 30
0.0
 10
542.3718480472313
 20
12.18242449595351
 30
0.0
 10
541.8423478543768
 20
12.05495863899719
 30
0.0
 10
541.2474723601485
 20
12.00952698748636
 30
0.0
 10
541.1820043897708
 20
12.005820334362
 30
0.0
 10
541.0673785303406
 20
12.00158960420444
 30
0.0
 10
541.01822345606
 20
12.00050088110149
 30
0.0
 10
540.9598527480236
 20
12.00006898051404
 30
0.0
 10
540.9506369109672
 20
12.00002626797342
 30
0.0
 10
540.9396930962413
 20
12.00000580049442
 30
0.0
 10
540.937965129098
 20
12.00000346444852
 30
0.0
 10
540.9354037234227
 20
12.00000132931649
 30
0.0
 10
540.9345702852061
 20
12.00000084294024
 30
0.0
 10
540.9333201277948
 20
12.00000042591469
 30
0.0
 10
540.9329034085992
 20
12.0000003389959
 30
0.0
 10
540.9323994710279
 20
12.00000029687732
 30
0.0
 10
540.9323122523894
 20
12.00000029186938
 30
0.0
 10
540.9322250341136
 20
12.00000028914337
 30
0.0
  0
LINE
  5
5952
330
58D1
100
AcDbEntity
  8
0
100
AcDbLine
 10
278.8252525899022
 20
2.842992417701793
 30
0.0
 11
278.3453541426724
 21
12.00000028670106
 31
0.0
  0
LINE
  5
5953
330
58D1
100
AcDbEntity
  8
0
100
AcDbLine
 10
351.1232423978737
 20
2.842992417701793
 30
0.0
 11
351.6031408451035
 21
12.00000028670106
 31
0.0
  0
ARC
  5
5954
330
58D1
100
AcDbEntity
  8
0
100
AcDbCircle
 10
281.8211411940879
 20
3.000000286701038
 30
0.0
 40
3.0
100
AcDbArc
 50
183.0000000052352
 51
270.0
  0
ARC
  5
5955
330
58D1
100
AcDbEntity
  8
0
100
AcDbCircle
 10
348.1273537936879
 20
3.000000286701038
 30
0.0
 40
3.0
100
AcDbArc
 50
270.0
 51
356.9999999947648
  0
SPLINE
  5
5956
330
58D1
100
AcDbEntity
  8
0
100
AcDbSpline
210
0.0
220
0.0
230
1.0
 70
    24
 71
     3
 72
     8
 73
     4
 74
     0
 42
0.0000000001
 43
0.0000000001
 40
9.851500062525788
 40
9.851500062525788
 40
9.851500062525788
 40
9.851500062525788
 40
9.851503232771387
 40
9.851503232771387
 40
9.851503232771387
 40
9.851503232771387
 10
549.4797497425192
 20
158.1453561491502
 30
0.0
 10
549.4797537527711
 20
158.1453619579783
 30
0.0
 10
549.4797577400175
 20
158.1453677359792
 30
0.0
 10
549.4797617502711
 20
158.1453735448104
 30
0.0
  0
SPLINE
  5
5957
330
58D1
100
AcDbEntity
  8
0
100
AcDbSpline
210
0.0
220
0.0
230
1.0
 70
     8
 71
     3
 72
    24
 73
    20
 74
     0
 42
0.0000000001
 43
0.0000000001
 40
0.0
 40
0.0
 40
0.0
 40
0.0
 40
0.0001429812278062
 40
0.0001429812278062
 40
0.0003812832718387
 40
0.0003812832718387
 40
0.0022877030334998
 40
0.0022877030334998
 40
0.0328045766939395
 40
0.0328045766939395
 40
0.155747901085045
 40
0.155747901085045
 40
0.2786912588935285
 40
0.2786912588935285
 40
0.4016345909479879
 40
0.4016345909479879
 40
0.524577867159069
 40
0.524577867159069
 40
0.6789402309767395
 40
0.6789402309767395
 40
0.6789402309767395
 40
0.6789402309767395
 10
89.01558210748465
 20
12.00000035794906
 30
0.0
 10
89.01510550344415
 20
12.00000043840279
 30
0.0
 10
89.01462889935828
 20
12.00000058699316
 30
0.0
 10
89.01335795525017
 20
12.00000116493231
 30
0.0
 10
89.01256361524934
 20
12.00000171541302
 30
0.0
 10
89.00541454566406
 20
12.00000837317145
 30
0.0
 10
88.99905981561692
 20
12.00002640449668
 30
0.0
 10
88.89098338688825
 20
12.00053908668889
 30
0.0
 10
88.78922902094007
 20
12.00412865871092
 30
0.0
 10
88.27880150006013
 20
12.03775561792929
 30
0.0
 10
87.87018451941845
 20
12.11593774015753
 30
0.0
 10
87.09020764236584
 20
12.36776455170155
 30
0.0
 10
86.71301915525333
 20
12.54328947481744
 30
0.0
 10
86.01807155230853
 20
12.97783353778362
 30
0.0
 10
85.69511915443314
 20
13.24009657359721
 30
0.0
 10
85.12721826163398
 20
13.83108628897079
 30
0.0
 10
84.87802903070194
 20
14.16422985285629
 30
0.0
 10
84.41956406685818
 20
14.96687344942882
 30
0.0
 10
84.2319950176784
 20
15.45923084711359
 30
0.0
 10
84.12523536535161
 20
15.96257479295533
 30
0.0
  0
SPLINE
  5
5958
330
58D1
100
AcDbEntity
  8
0
100
AcDbSpline
210
0.0
220
0.0
230
1.0
 70
     8
 71
     3
 72
    10
 73
     6
 74
     0
 42
0.0000000001
 43
0.0000000001
 40
0.0
 40
0.0
 40
0.0
 40
0.0
 40
8.802375426112268
 40
8.802375426112268
 40
14.17930211695949
 40
14.17930211695949
 40
14.17930211695949
 40
14.17930211695949
 10
84.12523221818133
 20
15.96257412544295
 30
0.0
 10
78.03991822286389
 20
44.65345549961256
 30
0.0
 10
73.23619109249131
 20
73.65371007303105
 30
0.0
 10
67.60916291410239
 20
120.5773765153155
 30
0.0
 10
65.96155242901176
 20
138.4375687537831
 30
0.0
 10
64.80381276098035
 20
156.3229788261342
 30
0.0
  0
ARC
  5
5959
330
58D1
100
AcDbEntity
  8
0
100
AcDbCircle
 10
289.9742474938879
 20
33.19639129173504
 30
0.0
 40
2.0
100
AcDbArc
 50
0.0
 51
46.99999999998232
  0
ARC
  5
595A
330
58D1
100
AcDbEntity
  8
0
100
AcDbCircle
 10
339.974247493888
 20
33.19639129173504
 30
0.0
 40
2.0
100
AcDbArc
 50
133.0000000000211
 51
180.0
  0
SPLINE
  5
595B
330
58D1
100
AcDbEntity
  8
0
100
AcDbSpline
210
0.0
220
0.0
230
1.0
 70
     8
 71
     3
 72
    16
 73
    12
 74
     0
 42
0.0000000001
 43
0.0000000001
 40
0.000000001089821
 40
0.000000001089821
 40
0.000000001089821
 40
0.000000001089821
 40
0.296275260318585
 40
0.296275260318585
 40
0.5925505195473491
 40
0.5925505195473491
 40
0.888825778776113
 40
0.888825778776113
 40
1.185101038004877
 40
1.185101038004877
 40
1.481376297233641
 40
1.481376297233641
 40
1.481376297233641
 40
1.481376297233641
 10
314.9742475025539
 20
131.9608020415681
 30
0.0
 10
314.122725785153
 20
131.9608020410007
 30
0.0
 10
313.2624863405524
 20
132.0486080351913
 30
0.0
 10
311.5785863856029
 20
132.3995787193234
 30
0.0
 10
310.757253018495
 20
132.6618653540176
 30
0.0
 10
309.1948425192048
 20
133.342637308399
 30
0.0
 10
308.4423109457009
 20
133.7665487767191
 30
0.0
 10
307.0433220962753
 20
134.7577119299175
 30
0.0
 10
306.4000594450155
 20
135.3210995503029
 30
0.0
 10
305.2366162119501
 20
136.5717232550234
 30
0.0
 10
304.7178271392521
 20
137.2593674072334
 30
0.0
 10
304.2773751998374
 20
137.987317739479
 30
0.0
  0
SPLINE
  5
595C
330
58D1
100
AcDbEntity
  8
0
100
AcDbSpline
210
0.0
220
0.0
230
1.0
 70
     8
 71
     3
 72
    16
 73
    12
 74
     0
 42
0.0000000001
 43
0.0000000001
 40
0.0000000003769957
 40
0.0000000003769957
 40
0.0000000003769957
 40
0.0000000003769957
 40
0.1568169522808731
 40
0.1568169522808731
 40
0.3136339041847505
 40
0.3136339041847505
 40
0.470450856088628
 40
0.470450856088628
 40
0.6272678079925054
 40
0.6272678079925054
 40
0.7840847598963828
 40
0.7840847598963828
 40
0.7840847598963828
 40
0.7840847598963828
 10
304.2773751998374
 20
137.987317739479
 30
0.0
 10
304.0442462819336
 20
138.3726180595498
 30
0.0
 10
303.8308885866752
 20
138.7724383905919
 30
0.0
 10
303.4482726657505
 20
139.5947474491744
 30
0.0
 10
303.2790351399698
 20
140.0172105760532
 30
0.0
 10
302.9879007369875
 20
140.8771948556011
 30
0.0
 10
302.8660103028361
 20
141.3146851151127
 30
0.0
 10
302.6710192069414
 20
142.1967629661794
 30
0.0
 10
302.5977306293257
 20
142.641138549627
 30
0.0
 10
302.4991493686838
 20
143.5412751515106
 30
0.0
 10
302.4742475374546
 20
143.9955958013213
 30
0.0
 10
302.4742474996745
 20
144.4501347376208
 30
0.0
  0
SPLINE
  5
595D
330
58D1
100
AcDbEntity
  8
0
100
AcDbSpline
210
0.0
220
0.0
230
1.0
 70
     8
 71
     3
 72
    16
 73
    12
 74
     0
 42
0.0000000001
 43
0.0000000001
 40
-3.052421047320983
 40
-3.052421047320983
 40
-3.052421047320983
 40
-3.052421047320983
 40
-2.89535523811347
 40
-2.89535523811347
 40
-2.738289428905958
 40
-2.738289428905958
 40
-2.581223619698445
 40
-2.581223619698445
 40
-2.424157810490932
 40
-2.424157810490932
 40
-2.26709200128342
 40
-2.26709200128342
 40
-2.26709200128342
 40
-2.26709200128342
 10
325.6711197861122
 20
137.9873177365372
 30
0.0
 10
325.9046186630608
 20
138.3732295006266
 30
0.0
 10
326.1181314038876
 20
138.7734593764124
 30
0.0
 10
326.5007503444792
 20
139.5959898961997
 30
0.0
 10
326.6698383894725
 20
140.0182639816848
 30
0.0
 10
326.9605826905098
 20
140.8772255613501
 30
0.0
 10
327.0820977291426
 20
141.3132390961665
 30
0.0
 10
327.2770794319882
 20
142.194666784872
 30
0.0
 10
327.350958197538
 20
142.6423061788353
 30
0.0
 10
327.4495453843973
 20
143.5437038972307
 30
0.0
 10
327.4742474504273
 20
143.9974315223606
 30
0.0
 10
327.4742474880549
 20
144.4501347376194
 30
0.0
  0
SPLINE
  5
595E
330
58D1
100
AcDbEntity
  8
0
100
AcDbSpline
210
0.0
220
0.0
230
1.0
 70
     8
 71
     3
 72
    16
 73
    12
 74
     0
 42
0.0000000001
 43
0.0000000001
 40
-1.481528514430276
 40
-1.481528514430276
 40
-1.481528514430276
 40
-1.481528514430276
 40
-1.185222811580476
 40
-1.185222811580476
 40
-0.8889171087306763
 40
-0.8889171087306763
 40
-0.5926114058808763
 40
-0.5926114058808763
 40
-0.2963057030310761
 40
-0.2963057030310761
 40
-0.0000000001812761
 40
-0.0000000001812761
 40
-0.0000000001812761
 40
-0.0000000001812761
 10
314.9742475025539
 20
131.9608020415681
 30
0.0
 10
315.825856717636
 20
131.9608020421831
 30
0.0
 10
316.6840921040543
 20
132.0486356369115
 30
0.0
 10
318.35989824041
 20
132.397068254114
 30
0.0
 10
319.1745686849291
 20
132.6556179302365
 30
0.0
 10
320.7455427621888
 20
133.3381022409011
 30
0.0
 10
321.497680862197
 20
133.7617801918504
 30
0.0
 10
322.8893553641291
 20
134.7452714143047
 30
0.0
 10
323.5387539047784
 20
135.3115221959726
 30
0.0
 10
324.7104232889121
 20
136.5693367972465
 30
0.0
 10
325.2306225880656
 20
137.2592926042197
 30
0.0
 10
325.6711197861121
 20
137.9873177365372
 30
0.0
  0
ARC
  5
595F
330
58D1
100
AcDbEntity
  8
0
100
AcDbCircle
 10
334.474247493845
 20
175.000000286701
 30
0.0
 40
2.0
100
AcDbArc
 50
90.0
 51
180.0
  0
ARC
  5
5960
330
58D1
100
AcDbEntity
  8
0
100
AcDbCircle
 10
295.474247493845
 20
175.000000286701
 30
0.0
 40
2.0
100
AcDbArc
 50
0.0
 51
90.0
  0
ENDBLK
  5
5962
330
58D1
100
AcDbEntity
  8
0
100
AcDbBlockEnd
  0
ENDSEC
  0
SECTION
  2
ENTITIES
  0
LINE
  5
50DE
330
1F
100
AcDbEntity
  8
0
  6
CENTER2
 62
     4
 48
30.0
100
AcDbLine
 10
-0.0605349096358623
 20
10.98849279289583
 30
0.0
 11
-0.0605349096358623
 21
-11.00778322202156
 31
0.0
  0
CIRCLE
  5
50E4
330
1F
100
AcDbEntity
  8
0
100
AcDbCircle
 10
-0.0605349096359262
 20
-67.5096452145468
 30
0.0
 40
17.5
  0
LINE
  5
50E5
330
1F
100
AcDbEntity
  8
0
  6
CENTER2
 62
     4
 48
30.0
100
AcDbLine
 10
-0.0605349096359262
 20
-41.4478170699312
 30
0.0
 11
-0.0605349096359262
 21
-93.57147335916243
 31
0.0
  0
LINE
  5
50E6
330
1F
100
AcDbEntity
  8
0
  6
CENTER2
 62
     4
 48
30.0
100
AcDbLine
 10
-0.0605349096776493
 20
-171.9671535633404
 30
0.0
 11
-0.0605349096776493
 21
-258.0521368657853
 31
0.0
  0
LINE
  5
50E7
330
1F
100
AcDbEntity
  8
0
  6
CENTER2
 62
     4
 48
30.0
100
AcDbLine
 10
42.98195674154481
 20
-215.0096452145629
 30
0.0
 11
-43.1030265609
 21
-215.0096452145629
 31
0.0
  0
CIRCLE
  5
50E8
330
1F
100
AcDbEntity
  8
0
100
AcDbCircle
 10
-0.0605349096776493
 20
-215.0096452145629
 30
0.0
 40
26.0
  0
CIRCLE
  5
50E9
330
1F
100
AcDbEntity
  8
0
100
AcDbCircle
 10
-0.0605349096776493
 20
-215.0096452145629
 30
0.0
 40
37.5
  0
LINE
  5
50EA
330
1F
100
AcDbEntity
  8
0
  6
CENTER2
 62
     4
 48
30.0
100
AcDbLine
 10
26.00129323497975
 20
-67.5096452145468
 30
0.0
 11
-26.12236305425149
 21
-67.5096452145468
 31
0.0
  0
ELLIPSE
  5
51CA
330
1F
100
AcDbEntity
  8
0
100
AcDbEllipse
 10
-0.0603982995321602
 20
-141.6280045861683
 30
0.0
 11
12.5
 21
-0.0000001471465412
 31
0.0
210
0.0
220
0.0
230
1.0
 40
0.1109609798519393
 41
4.712378052886561
 42
7.853992564087587
  0
ELLIPSE
  5
51CC
330
1F
100
AcDbEntity
  8
0
100
AcDbEllipse
 10
-0.0606715196330541
 20
-141.6280045861683
 30
0.0
 11
-12.5
 21
-0.0000001471473616
 31
0.0
210
0.0
220
0.0
230
1.0
 40
0.1109609798519392
 41
4.71237805027099
 42
7.853992561472016
  0
ARC
  5
5236
330
1F
100
AcDbEntity
  8
0
100
AcDbCircle
 10
-0.0605349097108871
 20
28305.09917814417
 30
0.0
 40
28440.16099487975
100
AcDbArc
 50
269.5975027427499
 51
270.4024972572502
  0
LINE
  5
531E
330
1F
100
AcDbEntity
  8
0
  6
CENTER2
 62
     4
 48
30.0
100
AcDbLine
 10
-100.0605349096359
 20
-41.44781706993118
 30
0.0
 11
-100.0605349096359
 21
-93.57147335916241
 31
0.0
  0
LINE
  5
531F
330
1F
100
AcDbEntity
  8
0
  6
CENTER2
 62
     4
 48
30.0
100
AcDbLine
 10
-73.99870676502025
 20
-67.5096452145468
 30
0.0
 11
-126.1223630542515
 21
-67.5096452145468
 31
0.0
  0
LINE
  5
5322
330
1F
100
AcDbEntity
  8
0
  6
CENTER2
 62
     4
 48
30.0
100
AcDbLine
 10
99.93946509036408
 20
-41.44781706993118
 30
0.0
 11
99.93946509036408
 21
-93.57147335916241
 31
0.0
  0
LINE
  5
5323
330
1F
100
AcDbEntity
  8
0
  6
CENTER2
 62
     4
 48
30.0
100
AcDbLine
 10
73.8776369457484
 20
-67.5096452145468
 30
0.0
 11
126.0012932349796
 21
-67.5096452145468
 31
0.0
  0
ARC
  5
54E3
330
1F
100
AcDbEntity
  8
0
100
AcDbCircle
 10
-0.0605338308648308
 20
15560.22971327353
 30
0.0
 40
15985.30096053525
100
AcDbArc
 50
269.2817219892395
 51
270.7182780030105
  0
LINE
  5
54E4
330
1F
100
AcDbEntity
  8
0
100
AcDbLine
 10
-240.0605349096777
 20
-174.3595059310027
 30
0.0
 11
-240.0605349096777
 21
-383.8170612793183
 31
0.0
  0
LINE
  5
54E5
330
1F
100
AcDbEntity
  8
0
100
AcDbLine
 10
239.9394650903224
 20
-174.3595059310027
 30
0.0
 11
239.9394650903224
 21
-383.8170613063812
 31
0.0
  0
ARC
  5
54F4
330
1F
100
AcDbEntity
  8
0
100
AcDbCircle
 10
199.9394650903224
 20
-383.8170613063812
 30
0.0
 40
40.0
100
AcDbArc
 50
270.5608455946183
 51
0.0
1001
GENIUS_GENODEF_13
1002
{
1000
HIER
1070
     0
1002
}
1002
{
1000
MANEDIT
1070
     0
1002
}
1002
{
1000
NOSEL
1070
     0
1002
}
1002
{
1000
BEHIND
1070
     0
1002
}
1002
{
1000
OTHER
1070
     0
1002
}
1002
{
1000
REACTOR
1002
}
1001
GENIUS_GENOBJ-N-FIL_13
1002
{
1000
OWNER
1000
GEN
1002
}
  0
ARC
  5
54F5
330
1F
100
AcDbEntity
  8
0
100
AcDbCircle
 10
199.9394650903224
 20
-174.3595059310027
 30
0.0
 40
40.0
100
AcDbArc
 50
0.0
 51
90.30408285393265
1001
GENIUS_GENODEF_13
1002
{
1000
HIER
1070
     0
1002
}
1002
{
1000
MANEDIT
1070
     0
1002
}
1002
{
1000
NOSEL
1070
     0
1002
}
1002
{
1000
BEHIND
1070
     0
1002
}
1002
{
1000
OTHER
1070
     0
1002
}
1002
{
1000
REACTOR
1002
}
1001
GENIUS_GENOBJ-N-FIL_13
1002
{
1000
OWNER
1000
GEN
1002
}
  0
ARC
  5
54F6
330
1F
100
AcDbEntity
  8
0
100
AcDbCircle
 10
-200.0605349096777
 20
-174.3595059310027
 30
0.0
 40
40.0
100
AcDbArc
 50
89.69591714606734
 51
180.0
1001
GENIUS_GENODEF_13
1002
{
1000
HIER
1070
     0
1002
}
1002
{
1000
MANEDIT
1070
     0
1002
}
1002
{
1000
NOSEL
1070
     0
1002
}
1002
{
1000
BEHIND
1070
     0
1002
}
1002
{
1000
OTHER
1070
     0
1002
}
1002
{
1000
REACTOR
1002
}
1001
GENIUS_GENOBJ-N-FIL_13
1002
{
1000
OWNER
1000
GEN
1002
}
  0
ARC
  5
54F7
330
1F
100
AcDbEntity
  8
0
100
AcDbCircle
 10
-200.0605349096777
 20
-383.8170612793183
 30
0.0
 40
40.0
100
AcDbArc
 50
180.0
 51
269.4391543990435
1001
GENIUS_GENODEF_13
1002
{
1000
HIER
1070
     0
1002
}
1002
{
1000
MANEDIT
1070
     0
1002
}
1002
{
1000
NOSEL
1070
     0
1002
}
1002
{
1000
BEHIND
1070
     0
1002
}
1002
{
1000
OTHER
1070
     0
1002
}
1002
{
1000
REACTOR
1002
}
1001
GENIUS_GENOBJ-N-FIL_13
1002
{
1000
OWNER
1000
GEN
1002
}
  0
LWPOLYLINE
  5
59A0
330
1F
100
AcDbEntity
  8
0
100
AcDbPolyline
 90
        6
 70
     1
 43
0.0
 10
314.9394650903641
 20
-0.0096452145627381
 10
-315.0605349096358
 20
-0.0096452145629655
 10
-315.0605349096357
 20
-478.8926004067168
 42
0.4041720306900447
 10
-307.4554711345468
 20
-486.5761026410989
 42
0.0111682758187837
 10
307.4291202863835
 20
-486.5759872194756
 42
0.4075666854058491
 10
314.9394650903641
 20
-478.7111079045846
  0
ENDSEC
  0
SECTION
  2
OBJECTS
  0
DICTIONARY
  5
C
330
0
100
AcDbDictionary
281
     1
  3
ACAD_2007HEADERVARS_RT
350
59F1
  3
ACAD_COLOR
350
3AE5
  3
ACAD_GROUP
350
D
  3
ACAD_IMAGE_DICT
350
4767
  3
ACAD_IMAGE_VARS
350
4769
  3
ACAD_LAYOUT
350
1A
  3
ACAD_MATERIAL
350
3ABB
  3
ACAD_MLEADERSTYLE
350
3AFA
  3
ACAD_MLINESTYLE
350
17
  3
ACAD_PLOTSETTINGS
350
19
  3
ACAD_PLOTSTYLENAME
350
E
  3
ACAD_SCALELIST
350
3AE8
  3
ACAD_TABLESTYLE
350
3AE6
  3
ACAD_VISUALSTYLE
350
3AD4
  3
ACDB_RECOMPOSE_DATA
350
59F0
  3
AcDbVariableDictionary
350
86
  3
AcmDictionary
350
45
  3
AEC_PROPERTY_SET_DEFS
350
49CC
  3
AMG
350
41
  3
AMGSNAPSETTINGS
350
332
  3
ASE_INDEX_DICTIONARY
350
4E37
  0
DICTIONARY
  5
3C5C
330
8
100
AcDbDictionary
280
     1
281
     1
  0
DICTIONARY
  5
458C
330
2
100
AcDbDictionary
280
     1
281
     1
  3
ACAD_LAYERSTATES
360
458D
  0
DICTIONARY
  5
3B84
330
10
100
AcDbDictionary
280
     1
281
     1
  3
ADSK_XREC_LAYER_RECONCILED
360
3B85
  0
DICTIONARY
  5
81
330
1F
100
AcDbDictionary
280
     1
281
     1
  3
ACAD_SORTENTS
360
3B74
  0
DICTIONARY
  5
59F1
102
{ACAD_REACTORS
330
C
102
}
330
C
100
AcDbDictionary
281
     1
  3
DIMJOGANG
350
59F2
  3
DIMLTEX1
350
59F4
  3
DIMLTEX2
350
59F5
  3
DIMLTYPE
350
59F3
  0
DICTIONARY
  5
3AE5
102
{ACAD_REACTORS
330
C
102
}
330
C
100
AcDbDictionary
281
     1
  0
DICTIONARY
  5
D
102
{ACAD_REACTORS
330
C
102
}
330
C
100
AcDbDictionary
281
     1
  0
DICTIONARY
  5
4767
102
{ACAD_REACTORS
330
C
102
}
330
C
100
AcDbDictionary
281
     1
  3
Unbenannt
350
4768
  0
RASTERVARIABLES
  5
4769
102
{ACAD_REACTORS
330
C
102
}
330
C
100
AcDbRasterVariables
 90
        0
 70
     1
 71
     1
 72
     1
  0
DICTIONARY
  5
1A
102
{ACAD_REACTORS
330
C
102
}
330
C
100
AcDbDictionary
281
     1
  3
Layout1
350
1E
  3
Layout2
350
26
  3
Model
350
22
  0
DICTIONARY
  5
3ABB
102
{ACAD_REACTORS
330
C
102
}
330
C
100
AcDbDictionary
281
     1
  3
ByBlock
350
3AC4
  3
ByLayer
350
3ABC
  3
Global
350
3ACC
  0
DICTIONARY
  5
3AFA
102
{ACAD_REACTORS
330
C
102
}
330
C
100
AcDbDictionary
281
     1
  3
Standard
350
3AFB
  0
DICTIONARY
  5
17
102
{ACAD_REACTORS
330
C
102
}
330
C
100
AcDbDictionary
281
     1
  3
Standard
350
18
  0
DICTIONARY
  5
19
102
{ACAD_REACTORS
330
C
102
}
330
C
100
AcDbDictionary
281
     1
  0
ACDBDICTIONARYWDFLT
  5
E
102
{ACAD_REACTORS
330
C
102
}
330
C
100
AcDbDictionary
281
     1
  3
Normal
350
F
100
AcDbDictionaryWithDefault
340
F
  0
DICTIONARY
  5
3AE8
102
{ACAD_REACTORS
330
C
102
}
330
C
100
AcDbDictionary
281
     1
  3
A0
350
3AE9
  3
A1
350
3AEA
  3
A2
350
3AEB
  3
A3
350
3AEC
  3
A4
350
3AED
  3
A5
350
3AEE
  3
A6
350
3AEF
  3
A7
350
3AF0
  3
A8
350
3AF1
  3
A9
350
3AF2
  3
B0
350
3AF3
  3
B1
350
3AF4
  3
B2
350
3AF5
  3
B3
350
3AF6
  3
B4
350
3AF7
  3
B5
350
3AF8
  3
B6
350
3AF9
  0
DICTIONARY
  5
3AE6
102
{ACAD_REACTORS
330
C
102
}
330
C
100
AcDbDictionary
281
     1
  3
Standard
350
3AE7
  0
DICTIONARY
  5
3AD4
102
{ACAD_REACTORS
330
C
102
}
330
C
100
AcDbDictionary
281
     1
  3
2dWireframe
350
3ADA
  3
3D Hidden
350
3ADC
  3
3dWireframe
350
3ADB
  3
Basic
350
3AD9
  3
Brighten
350
3AE0
  3
ColorChange
350
3AE4
  3
Conceptual
350
3ADD
  3
Dim
350
3ADF
  3
EdgeColorOff
350
4516
  3
Facepattern
350
3AE3
  3
Flat
350
3AD5
  3
FlatWithEdges
350
3AD6
  3
Gouraud
350
3AD7
  3
GouraudWithEdges
350
3AD8
  3
Hidden
350
450E
  3
JitterOff
350
4514
  3
Linepattern
350
3AE2
  3
OverhangOff
350
4515
  3
Realistic
350
3ADE
  3
Shaded
350
4513
  3
Shaded with edges
350
4512
  3
Shades of Gray
350
450F
  3
Sketchy
350
4510
  3
Thicken
350
3AE1
  3
Wireframe
350
450D
  3
X-Ray
350
4511
  0
XRECORD
  5
59F0
102
{ACAD_REACTORS
330
C
102
}
330
C
100
AcDbXrecord
280
     1
 90
        1
330
3AE7
  0
DICTIONARY
  5
86
102
{ACAD_REACTORS
330
C
102
}
330
C
100
AcDbDictionary
281
     1
  3
CANNOSCALE
350
3C64
  3
CMLEADERSTYLE
350
3C63
  3
CTABLESTYLE
350
3C62
  3
DIMASSOC
350
89
  3
HIDETEXT
350
88
  3
INDEXCTL
350
87
  3
LAYEREVAL
350
3E31
  3
LAYERNOTIFY
350
3E32
  3
LIGHTINGUNITS
350
3E30
  3
MSLTSCALE
350
3E2F
  0
DICTIONARY
  5
45
102
{ACAD_REACTORS
330
C
102
}
330
C
100
AcDbDictionary
281
     1
  3
AcmStdDictionary
350
4A
  3
AMDTSECTSYM_ARROWCOLOR
350
3B53
  0
DICTIONARY
  5
49CC
102
{ACAD_REACTORS
330
C
102
}
330
C
100
AcDbDictionary
281
     1
  0
DICTIONARY
  5
41
102
{ACAD_REACTORS
330
C
102
}
330
C
100
AcDbDictionary
281
     1
  0
DICTIONARY
  5
332
102
{ACAD_REACTORS
330
C
102
}
330
C
100
AcDbDictionary
281
     1
  0
DICTIONARY
  5
4E37
102
{ACAD_REACTORS
330
C
102
}
330
C
100
AcDbDictionary
281
     1
  3
ASEBlockHierarchyIndexRecord
350
4E38
1001
DCO15
1040
1827582103.131
  0
DICTIONARY
  5
458D
102
{ACAD_REACTORS
330
458C
102
}
330
458C
100
AcDbDictionary
281
     1
  0
XRECORD
  5
3B85
102
{ACAD_REACTORS
330
3B84
102
}
330
3B84
100
AcDbXrecord
280
     1
290
     1
  0
SORTENTSTABLE
  5
3B74
102
{ACAD_REACTORS
330
81
102
}
330
81
100
AcDbSortentsTable
330
1F
331
50E8
  5
50E8
331
50E7
  5
50E7
331
50E6
  5
50E6
331
50E5
  5
50E5
331
50E4
  5
50E4
331
54F7
  5
54F2
331
5323
  5
54DD
331
5322
  5
54DC
331
54F6
  5
53E1
331
54F5
  5
53E2
331
54F4
  5
54F3
331
51CC
  5
51CC
331
531F
  5
54D3
331
531E
  5
54CE
331
51CA
  5
51CA
331
50DE
  5
50DE
331
54E5
  5
54F7
331
54E4
  5
54F6
331
54E3
  5
54E9
331
5236
  5
5236
331
50EA
  5
50EA
331
50E9
  5
50E9
  0
XRECORD
  5
59F2
102
{ACAD_REACTORS
330
59F1
102
}
330
59F1
100
AcDbXrecord
280
     1
 40
1.570796326794896
  0
XRECORD
  5
59F4
102
{ACAD_REACTORS
330
59F1
102
}
330
59F1
100
AcDbXrecord
280
     1
340
14
  0
XRECORD
  5
59F5
102
{ACAD_REACTORS
330
59F1
102
}
330
59F1
100
AcDbXrecord
280
     1
340
14
  0
XRECORD
  5
59F3
102
{ACAD_REACTORS
330
59F1
102
}
330
59F1
100
AcDbXrecord
280
     1
340
14
  0
IMAGEDEF
  5
4768
102
{ACAD_REACTORS
330
4767
102
}
330
4767
100
AcDbRasterImageDef
 90
        0
  1
C:\Users\Administrator\Desktop\Unbenannt.JPG
 10
1187.0
 20
616.0
 11
0.2645833333333333
 21
0.2645833333333333
280
     1
281
     5
  0
LAYOUT
  5
1E
102
{ACAD_REACTORS
330
1A
102
}
330
1A
100
AcDbPlotSettings
  1

  2
Epson Stylus COLOR 440 ESC/P 2
  4

  6

 40
0.0
 41
0.0
 42
0.0
 43
0.0
 44
0.0
 45
0.0
 46
0.0
 47
0.0
 48
0.0
 49
0.0
140
0.0
141
0.0
142
1.0
143
1.0
 70
   688
 72
     0
 73
     0
 74
     5
  7

 75
    16
147
1.0
 76
     0
 77
     2
 78
   300
148
0.0
149
0.0
100
AcDbLayout
  1
Layout1
 70
     1
 71
     1
 10
0.0
 20
0.0
 11
420.0
 21
297.0
 12
0.0
 22
0.0
 32
0.0
 14
1.000000000000000E+20
 24
1.000000000000000E+20
 34
1.000000000000000E+20
 15
-1.000000000000000E+20
 25
-1.000000000000000E+20
 35
-1.000000000000000E+20
146
0.0
 13
0.0
 23
0.0
 33
0.0
 16
1.0
 26
0.0
 36
0.0
 17
0.0
 27
1.0
 37
0.0
 76
     0
330
1B
  0
LAYOUT
  5
26
102
{ACAD_REACTORS
330
1A
102
}
330
1A
100
AcDbPlotSettings
  1

  2
Epson Stylus COLOR 440 ESC/P 2
  4

  6

 40
0.0
 41
0.0
 42
0.0
 43
0.0
 44
0.0
 45
0.0
 46
0.0
 47
0.0
 48
0.0
 49
0.0
140
0.0
141
0.0
142
1.0
143
1.0
 70
   688
 72
     0
 73
     0
 74
     5
  7

 75
    16
147
1.0
 76
     0
 77
     2
 78
   300
148
0.0
149
0.0
100
AcDbLayout
  1
Layout2
 70
     1
 71
     2
 10
0.0
 20
0.0
 11
12.0
 21
9.0
 12
0.0
 22
0.0
 32
0.0
 14
0.0
 24
0.0
 34
0.0
 15
0.0
 25
0.0
 35
0.0
146
0.0
 13
0.0
 23
0.0
 33
0.0
 16
1.0
 26
0.0
 36
0.0
 17
0.0
 27
1.0
 37
0.0
 76
     0
330
23
  0
LAYOUT
  5
22
102
{ACAD_XDICTIONARY
360
4592
102
}
102
{ACAD_REACTORS
330
1A
102
}
330
1A
100
AcDbPlotSettings
  1

  2
none_device
  4
ISO_A4_(210.00_x_297.00_MM)
  6

 40
7.5
 41
20.0
 42
7.5
 43
20.0
 44
210.0
 45
297.0
 46
0.0
 47
0.0
 48
0.0
 49
0.0
140
0.0
141
0.0
142
1.0
143
16.87468400535302
 70
 11952
 72
     1
 73
     1
 74
     0
  7

 75
     0
147
0.0592603689457402
 76
     0
 77
     2
 78
   300
148
3246.513469396662
149
582.1649480311509
100
AcDbLayout
  1
Model
 70
     1
 71
     0
 10
0.0
 20
0.0
 11
12.0
 21
9.0
 12
0.0
 22
0.0
 32
0.0
 14
0.0
 24
0.0
 34
0.0
 15
0.0
 25
0.0
 35
0.0
146
0.0
 13
0.0
 23
0.0
 33
0.0
 16
1.0
 26
0.0
 36
0.0
 17
0.0
 27
1.0
 37
0.0
 76
     0
330
1F
331
3AB9
1001
ACAD_PSEXT
1000
Kein
1000
Kein
1000
Nicht anwendbar
1000
Das Layout wird erst geplottet, wenn ein neuer Plotter-Konfigurationsname ausgewählt wird.
1070
     0
  0
MATERIAL
  5
3AC4
102
{ACAD_XDICTIONARY
360
3AC5
102
}
102
{ACAD_REACTORS
330
3ABB
102
}
330
3ABB
100
AcDbMaterial
  1
ByBlock
 72
     0
 43
0.0008202099737533
 43
0.0
 43
0.0
 43
0.0
 43
0.0
 43
0.0008202099737533
 43
0.0
 43
0.0
 43
0.0
 43
0.0
 43
1.0
 43
0.0
 43
0.0
 43
0.0
 43
0.0
 43
1.0
 77
     0
 47
0.0008202099737533
 47
0.0
 47
0.0
 47
0.0
 47
0.0
 47
0.0008202099737533
 47
0.0
 47
0.0
 47
0.0
 47
0.0
 47
1.0
 47
0.0
 47
0.0
 47
0.0
 47
0.0
 47
1.0
171
     0
 49
0.0008202099737533
 49
0.0
 49
0.0
 49
0.0
 49
0.0
 49
0.0008202099737533
 49
0.0
 49
0.0
 49
0.0
 49
0.0
 49
1.0
 49
0.0
 49
0.0
 49
0.0
 49
0.0
 49
1.0
175
     0
142
0.0008202099737533
142
0.0
142
0.0
142
0.0
142
0.0
142
0.0008202099737533
142
0.0
142
0.0
142
0.0
142
0.0
142
1.0
142
0.0
142
0.0
142
0.0
142
0.0
142
1.0
179
     0
144
0.0008202099737533
144
0.0
144
0.0
144
0.0
144
0.0
144
0.0008202099737533
144
0.0
144
0.0
144
0.0
144
0.0
144
1.0
144
0.0
144
0.0
144
0.0
144
0.0
144
1.0
147
0.0008202099737533
147
0.0
147
0.0
147
0.0
147
0.0
147
0.0008202099737533
147
0.0
147
0.0
147
0.0
147
0.0
147
1.0
147
0.0
147
0.0
147
0.0
147
0.0
147
1.0
  0
MATERIAL
  5
3ABC
102
{ACAD_XDICTIONARY
360
3ABD
102
}
102
{ACAD_REACTORS
330
3ABB
102
}
330
3ABB
100
AcDbMaterial
  1
ByLayer
 72
     0
 43
0.0008202099737533
 43
0.0
 43
0.0
 43
0.0
 43
0.0
 43
0.0008202099737533
 43
0.0
 43
0.0
 43
0.0
 43
0.0
 43
1.0
 43
0.0
 43
0.0
 43
0.0
 43
0.0
 43
1.0
 77
     0
 47
0.0008202099737533
 47
0.0
 47
0.0
 47
0.0
 47
0.0
 47
0.0008202099737533
 47
0.0
 47
0.0
 47
0.0
 47
0.0
 47
1.0
 47
0.0
 47
0.0
 47
0.0
 47
0.0
 47
1.0
171
     0
 49
0.0008202099737533
 49
0.0
 49
0.0
 49
0.0
 49
0.0
 49
0.0008202099737533
 49
0.0
 49
0.0
 49
0.0
 49
0.0
 49
1.0
 49
0.0
 49
0.0
 49
0.0
 49
0.0
 49
1.0
175
     0
142
0.0008202099737533
142
0.0
142
0.0
142
0.0
142
0.0
142
0.0008202099737533
142
0.0
142
0.0
142
0.0
142
0.0
142
1.0
142
0.0
142
0.0
142
0.0
142
0.0
142
1.0
179
     0
144
0.0008202099737533
144
0.0
144
0.0
144
0.0
144
0.0
144
0.0008202099737533
144
0.0
144
0.0
144
0.0
144
0.0
144
1.0
144
0.0
144
0.0
144
0.0
144
0.0
144
1.0
147
0.0008202099737533
147
0.0
147
0.0
147
0.0
147
0.0
147
0.0008202099737533
147
0.0
147
0.0
147
0.0
147
0.0
147
1.0
147
0.0
147
0.0
147
0.0
147
0.0
147
1.0
  0
MATERIAL
  5
3ACC
102
{ACAD_XDICTIONARY
360
3ACD
102
}
102
{ACAD_REACTORS
330
3ABB
102
}
330
3ABB
100
AcDbMaterial
  1
Global
 72
     0
 43
0.0008202099737533
 43
0.0
 43
0.0
 43
0.0
 43
0.0
 43
0.0008202099737533
 43
0.0
 43
0.0
 43
0.0
 43
0.0
 43
1.0
 43
0.0
 43
0.0
 43
0.0
 43
0.0
 43
1.0
 77
     0
 47
0.0008202099737533
 47
0.0
 47
0.0
 47
0.0
 47
0.0
 47
0.0008202099737533
 47
0.0
 47
0.0
 47
0.0
 47
0.0
 47
1.0
 47
0.0
 47
0.0
 47
0.0
 47
0.0
 47
1.0
171
     0
 49
0.0008202099737533
 49
0.0
 49
0.0
 49
0.0
 49
0.0
 49
0.0008202099737533
 49
0.0
 49
0.0
 49
0.0
 49
0.0
 49
1.0
 49
0.0
 49
0.0
 49
0.0
 49
0.0
 49
1.0
175
     0
142
0.0008202099737533
142
0.0
142
0.0
142
0.0
142
0.0
142
0.0008202099737533
142
0.0
142
0.0
142
0.0
142
0.0
142
1.0
142
0.0
142
0.0
142
0.0
142
0.0
142
1.0
179
     0
144
0.0008202099737533
144
0.0
144
0.0
144
0.0
144
0.0
144
0.0008202099737533
144
0.0
144
0.0
144
0.0
144
0.0
144
1.0
144
0.0
144
0.0
144
0.0
144
0.0
144
1.0
147
0.0008202099737533
147
0.0
147
0.0
147
0.0
147
0.0
147
0.0008202099737533
147
0.0
147
0.0
147
0.0
147
0.0
147
1.0
147
0.0
147
0.0
147
0.0
147
0.0
147
1.0
  0
MLEADERSTYLE
  5
3AFB
102
{ACAD_REACTORS
330
3AFA
102
}
330
3AFA
100
AcDbMLeaderStyle
170
     2
171
     1
172
     0
 90
        2
 40
0.0
 41
0.0
173
     1
 91
-1056964608
340
14
 92
       -2
290
     1
 42
2.0
291
     1
 43
0.36
  3
Standard
 44
4.0
300

342
11
174
     1
178
     6
175
     1
176
     0
 93
-1056964608
 45
4.0
292
     0
297
     0
 46
4.0
 94
-1056964608
 47
1.0
 49
1.0
140
1.0
293
     1
141
0.0
294
     1
177
     0
142
1.0
295
     0
296
     0
143
0.125
1001
ACAD_MLEADERVER
1070
     2
  0
MLINESTYLE
  5
18
102
{ACAD_REACTORS
330
17
102
}
330
17
100
AcDbMlineStyle
  2
STANDARD
 70
     0
  3

 62
   256
 51
90.0
 52
90.0
 71
     2
 49
0.5
 62
   256
  6
BYLAYER
 49
-0.5
 62
   256
  6
BYLAYER
  0
ACDBPLACEHOLDER
  5
F
102
{ACAD_REACTORS
330
E
102
}
330
E
  0
SCALE
  5
3AE9
102
{ACAD_REACTORS
330
3AE8
102
}
330
3AE8
100
AcDbScale
 70
     0
300
1:1
140
1.0
141
1.0
290
     1
  0
SCALE
  5
3AEA
102
{ACAD_REACTORS
330
3AE8
102
}
330
3AE8
100
AcDbScale
 70
     0
300
1:2
140
1.0
141
2.0
290
     0
  0
SCALE
  5
3AEB
102
{ACAD_REACTORS
330
3AE8
102
}
330
3AE8
100
AcDbScale
 70
     0
300
1:4
140
1.0
141
4.0
290
     0
  0
SCALE
  5
3AEC
102
{ACAD_REACTORS
330
3AE8
102
}
330
3AE8
100
AcDbScale
 70
     0
300
1:5
140
1.0
141
5.0
290
     0
  0
SCALE
  5
3AED
102
{ACAD_REACTORS
330
3AE8
102
}
330
3AE8
100
AcDbScale
 70
     0
300
1:8
140
1.0
141
8.0
290
     0
  0
SCALE
  5
3AEE
102
{ACAD_REACTORS
330
3AE8
102
}
330
3AE8
100
AcDbScale
 70
     0
300
1:10
140
1.0
141
10.0
290
     0
  0
SCALE
  5
3AEF
102
{ACAD_REACTORS
330
3AE8
102
}
330
3AE8
100
AcDbScale
 70
     0
300
1:16
140
1.0
141
16.0
290
     0
  0
SCALE
  5
3AF0
102
{ACAD_REACTORS
330
3AE8
102
}
330
3AE8
100
AcDbScale
 70
     0
300
1:20
140
1.0
141
20.0
290
     0
  0
SCALE
  5
3AF1
102
{ACAD_REACTORS
330
3AE8
102
}
330
3AE8
100
AcDbScale
 70
     0
300
1:30
140
1.0
141
30.0
290
     0
  0
SCALE
  5
3AF2
102
{ACAD_REACTORS
330
3AE8
102
}
330
3AE8
100
AcDbScale
 70
     0
300
1:40
140
1.0
141
40.0
290
     0
  0
SCALE
  5
3AF3
102
{ACAD_REACTORS
330
3AE8
102
}
330
3AE8
100
AcDbScale
 70
     0
300
1:50
140
1.0
141
50.0
290
     0
  0
SCALE
  5
3AF4
102
{ACAD_REACTORS
330
3AE8
102
}
330
3AE8
100
AcDbScale
 70
     0
300
1:100
140
1.0
141
100.0
290
     0
  0
SCALE
  5
3AF5
102
{ACAD_REACTORS
330
3AE8
102
}
330
3AE8
100
AcDbScale
 70
     0
300
2:1
140
2.0
141
1.0
290
     0
  0
SCALE
  5
3AF6
102
{ACAD_REACTORS
330
3AE8
102
}
330
3AE8
100
AcDbScale
 70
     0
300
4:1
140
4.0
141
1.0
290
     0
  0
SCALE
  5
3AF7
102
{ACAD_REACTORS
330
3AE8
102
}
330
3AE8
100
AcDbScale
 70
     0
300
8:1
140
8.0
141
1.0
290
     0
  0
SCALE
  5
3AF8
102
{ACAD_REACTORS
330
3AE8
102
}
330
3AE8
100
AcDbScale
 70
     0
300
10:1
140
10.0
141
1.0
290
     0
  0
SCALE
  5
3AF9
102
{ACAD_REACTORS
330
3AE8
102
}
330
3AE8
100
AcDbScale
 70
     0
300
100:1
140
100.0
141
1.0
290
     0
  0
TABLESTYLE
  5
3AE7
102
{ACAD_XDICTIONARY
360
3C59
102
}
102
{ACAD_REACTORS
330
3AE6
102
}
330
3AE6
100
AcDbTableStyle
  3
Standard
 70
     0
 71
     0
 40
1.5
 41
1.5
280
     0
281
     0
  7
STANDARD
140
4.5
170
     2
 62
     0
 63
     7
283
     0
274
    -2
284
     1
 64
     0
275
    -2
285
     1
 65
     0
276
    -2
286
     1
 66
     0
277
    -2
287
     1
 67
     0
278
    -2
288
     1
 68
     0
279
    -2
289
     1
 69
     0
  7
STANDARD
140
6.0
170
     5
 62
     0
 63
     7
283
     0
274
    -2
284
     1
 64
     0
275
    -2
285
     1
 65
     0
276
    -2
286
     1
 66
     0
277
    -2
287
     1
 67
     0
278
    -2
288
     1
 68
     0
279
    -2
289
     1
 69
     0
  7
STANDARD
140
4.5
170
     5
 62
     0
 63
     7
283
     0
274
    -2
284
     1
 64
     0
275
    -2
285
     1
 65
     0
276
    -2
286
     1
 66
     0
277
    -2
287
     1
 67
     0
278
    -2
288
     1
 68
     0
279
    -2
289
     1
 69
     0
  0
VISUALSTYLE
  5
3ADA
102
{ACAD_XDICTIONARY
360
5A03
102
}
102
{ACAD_REACTORS
330
3AD4
102
}
330
3AD4
100
AcDbVisualStyle
  2
2dWireframe
 70
     4
 71
     0
 72
     2
 73
     0
 90
        0
 40
-0.6
 41
-30.0
 62
     5
 63
     7
421
 16777215
 74
     1
 91
        4
 64
     7
 65
   257
 75
     1
175
     1
 42
1.0
 92
        0
 66
   257
 43
1.0
 76
     1
 77
     6
 78
     2
 67
     7
 79
     5
170
     0
171
     0
290
     0
174
     0
 93
        1
 44
0.0
173
     0
291
     0
 45
0.0
1001
ACAD
1000
AcDbSavedByObjectVersion
1070
     0
  0
VISUALSTYLE
  5
3ADC
102
{ACAD_XDICTIONARY
360
5A07
102
}
102
{ACAD_REACTORS
330
3AD4
102
}
330
3AD4
100
AcDbVisualStyle
  2
3D Hidden
 70
     6
 71
     1
 72
     2
 73
     2
 90
        0
 40
-0.6
 41
-30.0
 62
     5
 63
     7
421
 16777215
 74
     2
 91
        2
 64
     7
 65
   257
 75
     2
175
     1
 42
40.0
 92
        0
 66
   257
 43
1.0
 76
     1
 77
     6
 78
     2
 67
     7
 79
     3
170
     0
171
     0
290
     0
174
     0
 93
        1
 44
0.0
173
     0
291
     0
 45
0.0
1001
ACAD
1000
AcDbSavedByObjectVersion
1070
     0
  0
VISUALSTYLE
  5
3ADB
102
{ACAD_XDICTIONARY
360
5A05
102
}
102
{ACAD_REACTORS
330
3AD4
102
}
330
3AD4
100
AcDbVisualStyle
  2
3dWireframe
 70
     5
 71
     0
 72
     2
 73
     0
 90
        0
 40
-0.6
 41
-30.0
 62
     5
 63
     7
421
 16777215
 74
     1
 91
        4
 64
     7
 65
   257
 75
     1
175
     1
 42
1.0
 92
        0
 66
   257
 43
1.0
 76
     1
 77
     6
 78
     2
 67
     7
 79
     5
170
     0
171
     0
290
     0
174
     0
 93
        1
 44
0.0
173
     0
291
     0
 45
0.0
1001
ACAD
1000
AcDbSavedByObjectVersion
1070
     0
  0
VISUALSTYLE
  5
3AD9
102
{ACAD_XDICTIONARY
360
5A01
102
}
102
{ACAD_REACTORS
330
3AD4
102
}
330
3AD4
100
AcDbVisualStyle
  2
Basic
 70
     7
 71
     1
 72
     0
 73
     1
 90
        0
 40
-0.6
 41
-30.0
 62
     5
 63
     7
421
 16777215
 74
     0
 91
        4
 64
     7
 65
   257
 75
     1
175
     1
 42
1.0
 92
        8
 66
     7
 43
1.0
 76
     1
 77
     6
 78
     2
 67
     7
 79
     5
170
     0
171
     0
290
     0
174
     0
 93
        1
 44
0.0
173
     0
291
     1
 45
0.0
1001
ACAD
1000
AcDbSavedByObjectVersion
1070
     0
  0
VISUALSTYLE
  5
3AE0
102
{ACAD_XDICTIONARY
360
5A0F
102
}
102
{ACAD_REACTORS
330
3AD4
102
}
330
3AD4
100
AcDbVisualStyle
  2
Brighten
 70
    12
 71
     2
 72
     2
 73
     0
 90
        0
 40
-0.6
 41
-30.0
 62
     5
 63
     7
421
 16777215
 74
     1
 91
        4
 64
     7
 65
   257
 75
     1
175
     1
 42
1.0
 92
        8
 66
     7
 43
1.0
 76
     1
 77
     6
 78
     2
 67
     7
 79
     5
170
     0
171
     0
290
     0
174
     0
 93
        1
 44
50.0
173
     0
291
     1
 45
0.0
1001
ACAD
1000
AcDbSavedByObjectVersion
1070
     0
  0
VISUALSTYLE
  5
3AE4
102
{ACAD_XDICTIONARY
360
5A17
102
}
102
{ACAD_REACTORS
330
3AD4
102
}
330
3AD4
100
AcDbVisualStyle
  2
ColorChange
 70
    16
 71
     2
 72
     2
 73
     3
 90
        0
 40
-0.6
 41
-30.0
 62
     5
 63
     8
421
  8421504
 74
     1
 91
        4
 64
     7
 65
   257
 75
     1
175
     1
 42
1.0
 92
        8
 66
     8
424
  8421504
 43
1.0
 76
     1
 77
     6
 78
     2
 67
     7
 79
     5
170
     0
171
     0
290
     0
174
     0
 93
        1
 44
0.0
173
     0
291
     1
 45
0.0
1001
ACAD
1000
AcDbSavedByObjectVersion
1070
     0
  0
VISUALSTYLE
  5
3ADD
102
{ACAD_XDICTIONARY
360
5A09
102
}
102
{ACAD_REACTORS
330
3AD4
102
}
330
3AD4
100
AcDbVisualStyle
  2
Conceptual
 70
     9
 71
     3
 72
     2
 73
     0
 90
        0
 40
-0.6
 41
-30.0
 62
     5
 63
     7
421
 16777215
 74
     2
 91
        2
 64
     7
 65
   257
 75
     1
175
     1
 42
40.0
 92
        8
 66
     7
 43
1.0
 76
     1
 77
     6
 78
     2
 67
     7
 79
     3
170
     0
171
     0
290
     0
174
     0
 93
        1
 44
0.0
173
     0
291
     0
 45
0.0
1001
ACAD
1000
AcDbSavedByObjectVersion
1070
     0
  0
VISUALSTYLE
  5
3ADF
102
{ACAD_XDICTIONARY
360
5A0D
102
}
102
{ACAD_REACTORS
330
3AD4
102
}
330
3AD4
100
AcDbVisualStyle
  2
Dim
 70
    11
 71
     2
 72
     2
 73
     0
 90
        0
 40
-0.6
 41
-30.0
 62
     5
 63
     7
421
 16777215
 74
     1
 91
        4
 64
     7
 65
   257
 75
     1
175
     1
 42
1.0
 92
        8
 66
     7
 43
1.0
 76
     1
 77
     6
 78
     2
 67
     7
 79
     5
170
     0
171
     0
290
     0
174
     0
 93
        1
 44
-50.0
173
     0
291
     1
 45
0.0
1001
ACAD
1000
AcDbSavedByObjectVersion
1070
     0
  0
VISUALSTYLE
  5
4516
102
{ACAD_XDICTIONARY
360
5A2C
102
}
102
{ACAD_REACTORS
330
3AD4
102
}
330
3AD4
100
AcDbVisualStyle
  2
EdgeColorOff
 70
    22
 71
     2
 72
     2
 73
     0
 90
        0
 40
-0.6
 41
-30.0
 62
     5
 63
     7
421
 16777215
 74
     1
 91
        4
 64
     7
 65
   257
 75
     1
175
     1
 42
1.0
 92
        8
 66
     7
 43
1.0
 76
     1
 77
     6
 78
     2
 67
     7
 79
     5
170
     0
171
     0
290
     0
174
     0
 93
        1
 44
0.0
173
     0
291
     1
 45
0.0
1001
ACAD
1000
AcDbSavedByObjectVersion
1070
     0
  0
VISUALSTYLE
  5
3AE3
102
{ACAD_XDICTIONARY
360
5A15
102
}
102
{ACAD_REACTORS
330
3AD4
102
}
330
3AD4
100
AcDbVisualStyle
  2
Facepattern
 70
    15
 71
     2
 72
     2
 73
     0
 90
        0
 40
-0.6
 41
-30.0
 62
     5
 63
     7
421
 16777215
 74
     1
 91
        4
 64
     7
 65
   257
 75
     1
175
     1
 42
1.0
 92
        8
 66
     7
 43
1.0
 76
     1
 77
     6
 78
     2
 67
     7
 79
     5
170
     0
171
     0
290
     0
174
     0
 93
        1
 44
0.0
173
     0
291
     1
 45
0.0
1001
ACAD
1000
AcDbSavedByObjectVersion
1070
     0
  0
VISUALSTYLE
  5
3AD5
102
{ACAD_XDICTIONARY
360
59F9
102
}
102
{ACAD_REACTORS
330
3AD4
102
}
330
3AD4
100
AcDbVisualStyle
  2
Flat
 70
     0
 71
     2
 72
     1
 73
     1
 90
        2
 40
-0.6
 41
30.0
 62
     5
 63
     7
421
 16777215
 74
     0
 91
        4
 64
     7
 65
   257
 75
     1
175
     1
 42
1.0
 92
        8
 66
     7
 43
1.0
 76
     1
 77
     6
 78
     2
 67
     7
 79
     5
170
     0
171
     0
290
     0
174
     0
 93
       13
 44
0.0
173
     0
291
     1
 45
0.0
1001
ACAD
1000
AcDbSavedByObjectVersion
1070
     0
  0
VISUALSTYLE
  5
3AD6
102
{ACAD_XDICTIONARY
360
59FB
102
}
102
{ACAD_REACTORS
330
3AD4
102
}
330
3AD4
100
AcDbVisualStyle
  2
FlatWithEdges
 70
     1
 71
     2
 72
     1
 73
     1
 90
        2
 40
-0.6
 41
30.0
 62
     5
 63
     7
421
 16777215
 74
     1
 91
        4
 64
     7
 65
   257
 75
     1
175
     1
 42
1.0
 92
        0
 66
   257
 43
1.0
 76
     1
 77
     6
 78
     2
 67
     7
 79
     5
170
     0
171
     0
290
     0
174
     0
 93
       13
 44
0.0
173
     0
291
     1
 45
0.0
1001
ACAD
1000
AcDbSavedByObjectVersion
1070
     0
  0
VISUALSTYLE
  5
3AD7
102
{ACAD_XDICTIONARY
360
59FD
102
}
102
{ACAD_REACTORS
330
3AD4
102
}
330
3AD4
100
AcDbVisualStyle
  2
Gouraud
 70
     2
 71
     2
 72
     2
 73
     1
 90
        2
 40
-0.6
 41
30.0
 62
     5
 63
     7
421
 16777215
 74
     0
 91
        4
 64
     7
 65
   257
 75
     1
175
     1
 42
1.0
 92
        0
 66
     7
 43
1.0
 76
     1
 77
     6
 78
     2
 67
     7
 79
     5
170
     0
171
     0
290
     0
174
     0
 93
       13
 44
0.0
173
     0
291
     1
 45
0.0
1001
ACAD
1000
AcDbSavedByObjectVersion
1070
     0
  0
VISUALSTYLE
  5
3AD8
102
{ACAD_XDICTIONARY
360
59FF
102
}
102
{ACAD_REACTORS
330
3AD4
102
}
330
3AD4
100
AcDbVisualStyle
  2
GouraudWithEdges
 70
     3
 71
     2
 72
     2
 73
     1
 90
        2
 40
-0.6
 41
30.0
 62
     5
 63
     7
421
 16777215
 74
     1
 91
        4
 64
     7
 65
   257
 75
     1
175
     1
 42
1.0
 92
        0
 66
   257
 43
1.0
 76
     1
 77
     6
 78
     2
 67
     7
 79
     5
170
     0
171
     0
290
     0
174
     0
 93
       13
 44
0.0
173
     0
291
     1
 45
0.0
1001
ACAD
1000
AcDbSavedByObjectVersion
1070
     0
  0
VISUALSTYLE
  5
450E
102
{ACAD_XDICTIONARY
360
5A1C
102
}
102
{ACAD_REACTORS
330
3AD4
102
}
330
3AD4
100
AcDbVisualStyle
  2
Hidden
 70
     6
 71
     1
 72
     2
 73
     2
 90
        0
 40
-0.6
 41
-30.0
 62
     5
 63
     7
421
 16777215
 74
     2
 91
        2
 64
     7
 65
   257
 75
     2
175
     1
 42
40.0
 92
        0
 66
   257
 43
1.0
 76
     1
 77
     6
 78
     2
 67
     7
 79
     3
170
     0
171
     0
290
     0
174
     0
 93
        1
 44
0.0
173
     0
291
     0
 45
0.0
1001
ACAD
1000
AcDbSavedByObjectVersion
1070
     0
  0
VISUALSTYLE
  5
4514
102
{ACAD_XDICTIONARY
360
5A28
102
}
102
{ACAD_REACTORS
330
3AD4
102
}
330
3AD4
100
AcDbVisualStyle
  2
JitterOff
 70
    20
 71
     2
 72
     2
 73
     0
 90
        0
 40
-0.6
 41
-30.0
 62
     5
 63
     7
421
 16777215
 74
     1
 91
        4
 64
     7
 65
   257
 75
     1
175
     1
 42
1.0
 92
       10
 66
     7
 43
1.0
 76
     1
 77
     6
 78
     2
 67
     7
 79
     5
170
     0
171
     0
290
     0
174
     0
 93
        1
 44
0.0
173
     0
291
     1
 45
0.0
1001
ACAD
1000
AcDbSavedByObjectVersion
1070
     0
  0
VISUALSTYLE
  5
3AE2
102
{ACAD_XDICTIONARY
360
5A13
102
}
102
{ACAD_REACTORS
330
3AD4
102
}
330
3AD4
100
AcDbVisualStyle
  2
Linepattern
 70
    14
 71
     2
 72
     2
 73
     0
 90
        0
 40
-0.6
 41
-30.0
 62
     5
 63
     7
421
 16777215
 74
     1
 91
        4
 64
     7
 65
   257
 75
     7
175
     7
 42
1.0
 92
        8
 66
     7
 43
1.0
 76
     1
 77
     6
 78
     2
 67
     7
 79
     5
170
     0
171
     0
290
     0
174
     0
 93
        1
 44
0.0
173
     0
291
     1
 45
0.0
1001
ACAD
1000
AcDbSavedByObjectVersion
1070
     0
  0
VISUALSTYLE
  5
4515
102
{ACAD_XDICTIONARY
360
5A2A
102
}
102
{ACAD_REACTORS
330
3AD4
102
}
330
3AD4
100
AcDbVisualStyle
  2
OverhangOff
 70
    21
 71
     2
 72
     2
 73
     0
 90
        0
 40
-0.6
 41
-30.0
 62
     5
 63
     7
421
 16777215
 74
     1
 91
        4
 64
     7
 65
   257
 75
     1
175
     1
 42
1.0
 92
        9
 66
     7
 43
1.0
 76
     1
 77
     6
 78
     2
 67
     7
 79
     5
170
     0
171
     0
290
     0
174
     0
 93
        1
 44
0.0
173
     0
291
     1
 45
0.0
1001
ACAD
1000
AcDbSavedByObjectVersion
1070
     0
  0
VISUALSTYLE
  5
3ADE
102
{ACAD_XDICTIONARY
360
5A0B
102
}
102
{ACAD_REACTORS
330
3AD4
102
}
330
3AD4
100
AcDbVisualStyle
  2
Realistic
 70
     8
 71
     2
 72
     2
 73
     0
 90
        0
 40
-0.6
 41
-30.0
 62
     5
 63
     7
421
 16777215
 74
     1
 91
        0
 64
     7
 65
   257
 75
     1
175
     1
 42
1.0
 92
        8
 66
     8
424
  7895160
 43
1.0
 76
     1
 77
     6
 78
     2
 67
     7
 79
     5
170
     0
171
     0
290
     0
174
     0
 93
       13
 44
0.0
173
     0
291
     0
 45
0.0
1001
ACAD
1000
AcDbSavedByObjectVersion
1070
     0
  0
VISUALSTYLE
  5
4513
102
{ACAD_XDICTIONARY
360
5A26
102
}
102
{ACAD_REACTORS
330
3AD4
102
}
330
3AD4
100
AcDbVisualStyle
  2
Shaded
 70
    27
 71
     2
 72
     2
 73
     1
 90
        2
 40
-0.6
 41
30.0
 62
     5
 63
     7
421
 16777215
 74
     0
 91
        4
 64
     7
 65
   257
 75
     1
175
     1
 42
1.0
 92
        8
 66
   257
 43
1.0
 76
     1
 77
     6
 78
     2
 67
     8
425
  7895160
 79
     3
170
     0
171
     0
290
     0
174
     0
 93
        5
 44
0.0
173
     0
291
     0
 45
0.0
1001
ACAD
1000
AcDbSavedByObjectVersion
1070
     0
  0
VISUALSTYLE
  5
4512
102
{ACAD_XDICTIONARY
360
5A24
102
}
102
{ACAD_REACTORS
330
3AD4
102
}
330
3AD4
100
AcDbVisualStyle
  2
Shaded with edges
 70
    26
 71
     2
 72
     2
 73
     1
 90
        2
 40
-0.6
 41
30.0
 62
     5
 63
     7
421
 16777215
 74
     1
 91
       10
 64
     7
 65
   257
 75
     2
175
     1
 42
1.0
 92
        8
 66
   257
 43
1.0
 76
     1
 77
     6
 78
     2
 67
     7
 79
     3
170
     0
171
     0
290
     0
174
     0
 93
        5
 44
0.0
173
     0
291
     0
 45
0.0
1001
ACAD
1000
AcDbSavedByObjectVersion
1070
     0
  0
VISUALSTYLE
  5
450F
102
{ACAD_XDICTIONARY
360
5A1E
102
}
102
{ACAD_REACTORS
330
3AD4
102
}
330
3AD4
100
AcDbVisualStyle
  2
Shades of Gray
 70
    23
 71
     2
 72
     2
 73
     3
 90
        0
 40
-0.6
 41
-30.0
 62
     5
 63
     7
421
 16777215
 74
     2
 91
        2
 64
     7
 65
     7
 75
     1
175
     1
 42
40.0
 92
        8
 66
     7
 43
1.0
 76
     1
 77
     6
 78
     2
 67
     7
 79
     3
170
     0
171
     0
290
     0
174
     0
 93
        1
 44
0.0
173
     0
291
     0
 45
0.0
1001
ACAD
1000
AcDbSavedByObjectVersion
1070
     0
  0
VISUALSTYLE
  5
4510
102
{ACAD_XDICTIONARY
360
5A20
102
}
102
{ACAD_REACTORS
330
3AD4
102
}
330
3AD4
100
AcDbVisualStyle
  2
Sketchy
 70
    24
 71
     1
 72
     2
 73
     2
 90
        0
 40
-0.6
 41
-30.0
 62
     5
 63
     7
421
 16777215
 74
     2
 91
        2
 64
     7
 65
     7
 75
     1
175
     1
 42
40.0
 92
       11
 66
     7
 43
1.0
 76
     1
 77
     6
 78
     2
 67
     7
 79
     6
170
     0
171
     0
290
     0
174
     0
 93
        1
 44
0.0
173
     0
291
     0
 45
0.0
1001
ACAD
1000
AcDbSavedByObjectVersion
1070
     0
  0
VISUALSTYLE
  5
3AE1
102
{ACAD_XDICTIONARY
360
5A11
102
}
102
{ACAD_REACTORS
330
3AD4
102
}
330
3AD4
100
AcDbVisualStyle
  2
Thicken
 70
    13
 71
     2
 72
     2
 73
     0
 90
        0
 40
-0.6
 41
-30.0
 62
     5
 63
     7
421
 16777215
 74
     1
 91
        4
 64
     7
 65
   257
 75
     1
175
     1
 42
1.0
 92
       12
 66
     7
 43
1.0
 76
     1
 77
     6
 78
     2
 67
     7
 79
     5
170
     0
171
     0
290
     0
174
     0
 93
        1
 44
0.0
173
     0
291
     1
 45
0.0
1001
ACAD
1000
AcDbSavedByObjectVersion
1070
     0
  0
VISUALSTYLE
  5
450D
102
{ACAD_XDICTIONARY
360
5A1A
102
}
102
{ACAD_REACTORS
330
3AD4
102
}
330
3AD4
100
AcDbVisualStyle
  2
Wireframe
 70
     5
 71
     0
 72
     2
 73
     0
 90
        0
 40
-0.6
 41
-30.0
 62
     5
 63
     7
421
 16777215
 74
     1
 91
        4
 64
     7
 65
   257
 75
     1
175
     1
 42
1.0
 92
        0
 66
   257
 43
1.0
 76
     1
 77
     6
 78
     2
 67
     7
 79
     3
170
     0
171
     0
290
     0
174
     0
 93
        1
 44
0.0
173
     0
291
     0
 45
0.0
1001
ACAD
1000
AcDbSavedByObjectVersion
1070
     0
  0
VISUALSTYLE
  5
4511
102
{ACAD_XDICTIONARY
360
5A22
102
}
102
{ACAD_REACTORS
330
3AD4
102
}
330
3AD4
100
AcDbVisualStyle
  2
X-Ray
 70
    25
 71
     2
 72
     2
 73
     1
 90
        1
 40
0.5
 41
-30.0
 62
     5
 63
     7
421
 16777215
 74
     1
 91
        0
 64
     7
 65
   257
 75
     1
175
     1
 42
1.0
 92
        8
 66
     7
 43
1.0
 76
     1
 77
     6
 78
     2
 67
     7
 79
     3
170
     0
171
     0
290
     0
174
     0
 93
       13
 44
0.0
173
     0
291
     0
 45
0.0
1001
ACAD
1000
AcDbSavedByObjectVersion
1070
     0
  0
DICTIONARYVAR
  5
3C64
102
{ACAD_REACTORS
330
86
102
}
330
86
100
DictionaryVariables
280
     0
  1
1:1
  0
DICTIONARYVAR
  5
3C63
102
{ACAD_REACTORS
330
86
102
}
330
86
100
DictionaryVariables
280
     0
  1
STANDARD
  0
DICTIONARYVAR
  5
3C62
102
{ACAD_REACTORS
330
86
102
}
330
86
100
DictionaryVariables
280
     0
  1
STANDARD
  0
DICTIONARYVAR
  5
89
102
{ACAD_REACTORS
330
86
102
}
330
86
100
DictionaryVariables
280
     0
  1
2
  0
DICTIONARYVAR
  5
88
102
{ACAD_REACTORS
330
86
102
}
330
86
100
DictionaryVariables
280
     0
  1
1
  0
DICTIONARYVAR
  5
87
102
{ACAD_REACTORS
330
86
102
}
330
86
100
DictionaryVariables
280
     0
  1
1
  0
DICTIONARYVAR
  5
3E31
102
{ACAD_REACTORS
330
86
102
}
330
86
100
DictionaryVariables
280
     0
  1
1
  0
DICTIONARYVAR
  5
3E32
102
{ACAD_REACTORS
330
86
102
}
330
86
100
DictionaryVariables
280
     0
  1
15
  0
DICTIONARYVAR
  5
3E30
102
{ACAD_REACTORS
330
86
102
}
330
86
100
DictionaryVariables
280
     0
  1
0
  0
DICTIONARYVAR
  5
3E2F
102
{ACAD_REACTORS
330
86
102
}
330
86
100
DictionaryVariables
280
     0
  1
0
  0
DICTIONARY
  5
4A
102
{ACAD_REACTORS
330
45
102
}
330
45
100
AcDbDictionary
281
     1
  0
XRECORD
  5
3B53
102
{ACAD_REACTORS
330
45
102
}
330
45
100
AcDbXrecord
280
     1
 90
-1023410169
  0
XRECORD
  5
4E38
102
{ACAD_REACTORS
330
4E37
102
}
330
4E37
100
AcDbXrecord
280
     1
330
0
  0
DICTIONARY
  5
4592
330
22
100
AcDbDictionary
280
     1
281
     1
  3
ADSK_XREC_LAYOUTTHUMBNAIL
360
4593
  0
DICTIONARY
  5
3AC5
330
3AC4
100
AcDbDictionary
280
     1
281
     1
  3
ACAD_XREC_ROUNDTRIP
360
59F7
  3
BUMPTILE
360
3AC7
  3
DIFFUSETILE
360
3AC6
  3
OPACITYTILE
360
3ACA
  3
REFLECTIONTILE
360
3AC9
  3
REFRACTIONTILE
360
3ACB
  3
SPECULARTILE
360
3AC8
  0
DICTIONARY
  5
3ABD
330
3ABC
100
AcDbDictionary
280
     1
281
     1
  3
ACAD_XREC_ROUNDTRIP
360
59F6
  3
BUMPTILE
360
3ABF
  3
DIFFUSETILE
360
3ABE
  3
OPACITYTILE
360
3AC2
  3
REFLECTIONTILE
360
3AC1
  3
REFRACTIONTILE
360
3AC3
  3
SPECULARTILE
360
3AC0
  0
DICTIONARY
  5
3ACD
330
3ACC
100
AcDbDictionary
280
     1
281
     1
  3
ACAD_XREC_ROUNDTRIP
360
59F8
  3
BUMPTILE
360
3ACF
  3
DIFFUSETILE
360
3ACE
  3
OPACITYTILE
360
3AD2
  3
REFLECTIONTILE
360
3AD1
  3
REFRACTIONTILE
360
3AD3
  3
SPECULARTILE
360
3AD0
  0
DICTIONARY
  5
3C59
330
3AE7
100
AcDbDictionary
280
     1
281
     1
  3
ACAD_ROUNDTRIP_2008_TABLESTYLE_CELLSTYLEMAP
360
59EF
  3
ACAD_XREC_ROUNDTRIP
360
5A19
  0
DICTIONARY
  5
5A03
330
3ADA
100
AcDbDictionary
280
     1
281
     1
  3
ACAD_XREC_ROUNDTRIP
360
5A04
  0
DICTIONARY
  5
5A07
330
3ADC
100
AcDbDictionary
280
     1
281
     1
  3
ACAD_XREC_ROUNDTRIP
360
5A08
  0
DICTIONARY
  5
5A05
330
3ADB
100
AcDbDictionary
280
     1
281
     1
  3
ACAD_XREC_ROUNDTRIP
360
5A06
  0
DICTIONARY
  5
5A01
330
3AD9
100
AcDbDictionary
280
     1
281
     1
  3
ACAD_XREC_ROUNDTRIP
360
5A02
  0
DICTIONARY
  5
5A0F
330
3AE0
100
AcDbDictionary
280
     1
281
     1
  3
ACAD_XREC_ROUNDTRIP
360
5A10
  0
DICTIONARY
  5
5A17
330
3AE4
100
AcDbDictionary
280
     1
281
     1
  3
ACAD_XREC_ROUNDTRIP
360
5A18
  0
DICTIONARY
  5
5A09
330
3ADD
100
AcDbDictionary
280
     1
281
     1
  3
ACAD_XREC_ROUNDTRIP
360
5A0A
  0
DICTIONARY
  5
5A0D
330
3ADF
100
AcDbDictionary
280
     1
281
     1
  3
ACAD_XREC_ROUNDTRIP
360
5A0E
  0
DICTIONARY
  5
5A2C
330
4516
100
AcDbDictionary
280
     1
281
     1
  3
ACAD_XREC_ROUNDTRIP
360
5A2D
  0
DICTIONARY
  5
5A15
330
3AE3
100
AcDbDictionary
280
     1
281
     1
  3
ACAD_XREC_ROUNDTRIP
360
5A16
  0
DICTIONARY
  5
59F9
330
3AD5
100
AcDbDictionary
280
     1
281
     1
  3
ACAD_XREC_ROUNDTRIP
360
59FA
  0
DICTIONARY
  5
59FB
330
3AD6
100
AcDbDictionary
280
     1
281
     1
  3
ACAD_XREC_ROUNDTRIP
360
59FC
  0
DICTIONARY
  5
59FD
330
3AD7
100
AcDbDictionary
280
     1
281
     1
  3
ACAD_XREC_ROUNDTRIP
360
59FE
  0
DICTIONARY
  5
59FF
330
3AD8
100
AcDbDictionary
280
     1
281
     1
  3
ACAD_XREC_ROUNDTRIP
360
5A00
  0
DICTIONARY
  5
5A1C
330
450E
100
AcDbDictionary
280
     1
281
     1
  3
ACAD_XREC_ROUNDTRIP
360
5A1D
  0
DICTIONARY
  5
5A28
330
4514
100
AcDbDictionary
280
     1
281
     1
  3
ACAD_XREC_ROUNDTRIP
360
5A29
  0
DICTIONARY
  5
5A13
330
3AE2
100
AcDbDictionary
280
     1
281
     1
  3
ACAD_XREC_ROUNDTRIP
360
5A14
  0
DICTIONARY
  5
5A2A
330
4515
100
AcDbDictionary
280
     1
281
     1
  3
ACAD_XREC_ROUNDTRIP
360
5A2B
  0
DICTIONARY
  5
5A0B
330
3ADE
100
AcDbDictionary
280
     1
281
     1
  3
ACAD_XREC_ROUNDTRIP
360
5A0C
  0
DICTIONARY
  5
5A26
330
4513
100
AcDbDictionary
280
     1
281
     1
  3
ACAD_XREC_ROUNDTRIP
360
5A27
  0
DICTIONARY
  5
5A24
330
4512
100
AcDbDictionary
280
     1
281
     1
  3
ACAD_XREC_ROUNDTRIP
360
5A25
  0
DICTIONARY
  5
5A1E
330
450F
100
AcDbDictionary
280
     1
281
     1
  3
ACAD_XREC_ROUNDTRIP
360
5A1F
  0
DICTIONARY
  5
5A20
330
4510
100
AcDbDictionary
280
     1
281
     1
  3
ACAD_XREC_ROUNDTRIP
360
5A21
  0
DICTIONARY
  5
5A11
330
3AE1
100
AcDbDictionary
280
     1
281
     1
  3
ACAD_XREC_ROUNDTRIP
360
5A12
  0
DICTIONARY
  5
5A1A
330
450D
100
AcDbDictionary
280
     1
281
     1
  3
ACAD_XREC_ROUNDTRIP
360
5A1B
  0
DICTIONARY
  5
5A22
330
4511
100
AcDbDictionary
280
     1
281
     1
  3
ACAD_XREC_ROUNDTRIP
360
5A23
  0
XRECORD
  5
4593
102
{ACAD_REACTORS
330
4592
102
}
330
4592
100
AcDbXrecord
280
     1
310
28000000000100007100000001000800000000000071000000000000000000000001000000000000FFFFFF0000000000FFFFFF000000000000000000000000000000000000000000000000000000000000000000330000006600000099000000CC000000FF00000000330000333300006633000099330000CC330000FF3300
310
0000660000336600006666000099660000CC660000FF66000000990000339900006699000099990000CC990000FF99000000CC000033CC000066CC000099CC0000CCCC0000FFCC000000FF000033FF000066FF000099FF0000CCFF0000FFFF000000003300330033006600330099003300CC003300FF003300003333003333
310
33006633330099333300CC333300FF33330000663300336633006666330099663300CC663300FF66330000993300339933006699330099993300CC993300FF99330000CC330033CC330066CC330099CC3300CCCC3300FFCC330000FF330033FF330066FF330099FF3300CCFF3300FFFF330000006600330066006600660099
310
006600CC006600FF00660000336600333366006633660099336600CC336600FF33660000666600336666006666660099666600CC666600FF66660000996600339966006699660099996600CC996600FF99660000CC660033CC660066CC660099CC6600CCCC6600FFCC660000FF660033FF660066FF660099FF6600CCFF6600
310
FFFF660000009900330099006600990099009900CC009900FF00990000339900333399006633990099339900CC339900FF33990000669900336699006666990099669900CC669900FF66990000999900339999006699990099999900CC999900FF99990000CC990033CC990066CC990099CC9900CCCC9900FFCC990000FF99
310
0033FF990066FF990099FF9900CCFF9900FFFF99000000CC003300CC006600CC009900CC00CC00CC00FF00CC000033CC003333CC006633CC009933CC00CC33CC00FF33CC000066CC003366CC006666CC009966CC00CC66CC00FF66CC000099CC003399CC006699CC009999CC00CC99CC00FF99CC0000CCCC0033CCCC0066CC
310
CC0099CCCC00CCCCCC00FFCCCC0000FFCC0033FFCC0066FFCC0099FFCC00CCFFCC00FFFFCC000000FF003300FF006600FF009900FF00CC00FF00FF00FF000033FF003333FF006633FF009933FF00CC33FF00FF33FF000066FF003366FF006666FF009966FF00CC66FF00FF66FF000099FF003399FF006699FF009999FF00CC
310
99FF00FF99FF0000CCFF0033CCFF0066CCFF0099CCFF00CCCCFF00FFCCFF0000FFFF0033FFFF0066FFFF0099FFFF00CCFFFF00FFFFFF00000000000D0D0D001A1A1A00282828003535350043434300505050005D5D5D006B6B6B00787878008686860093939300A1A1A100AEAEAE00BBBBBB00C9C9C900D6D6D600E4E4E400
310
F1F1F100FFFFFF000000000000000000000000000000000000000000000000000000000000000000000000000000000000000000000000000000000000000000000000000000000000000000000000000000000000000000000000000000000000000000000000000000000000000000000000000000000000000000000000
310
00000000000000000000000000000000000000000000000000000000000000000000000000000000000000000000000000000000000000000000000000000000000000000000000000000000000000000000000000000000000000000000000000000000000000000000000000000000000000000000000000000000000000
310
00000000000000000000000000000000000000000000000000000000000000000000000000000000000000000000000000000000000000000000000000000000000000000000000000000000000000000000000000000000000000000000000000000000000000000000000000000000000000000000000000000000000000
310
00000000000000000000000000000000000000000000000000000000000000000000000000000000000000000000000000000000000000000000000000000000000000000000000000000000000000000000000000000000000000000000000000000000000000000000000000000000000000000000000000000000000000
310
00000000000000000000000000000000000000000000000000000000000000000000000000000000000000000000000000000000000000000000000000000000000000000000000000000000000000000000000000000000000000000000000000000000000000000000000000000000000000000000000000000000000000
310
00000000000000000000000000000000000000000000000000000000000000000000000000000000000000000000000000000000000000000000000000000000000000000000000000000000000000000000000000000000000000000000000000000000000000000000000000000000000000000000000000000000000000
310
00000000000000000000000000000000000000000000000000000000000000000000000000000000000000000000000000000000000000000000000000000000000000000000000000000000000000000000000000000000000000000000000000000000000000000000000000000000000000000000000000000000000000
310
00000000000000000000000000000000000000000000000000000000000000000000000000000000000000000000000000000000000000000000000000000000000000000000000000000000000000000000000000000000000000000000000000000000000000000000000000000000000000000000000000000000000000
310
00000000000000000000000000000000000000000000000000000000000000000000000000000000000000000000000000000000000000000000000000000000000000000000000000000000000000000000000000000000000000000000000000000000000000000000000000000000000000000000000000000000000000
310
00000000000000000000000000000000000000000000000000000000000000000000000000000000000000000000000000000000000000000000000000000000000000000000000000000000000000000000000000000000000000000000000000000000000000000000000000000000000000000000000000000000000000
310
00000000000000000000000000000000000000000000000000000000000000000000000000000000000000000000000000000000000000000000000000000000000000000000000000000000000000000000000000000000000000000000000000000000000000000000000000000000000000000000000000000000000000
310
00000000000000000000000000000000000000000000000000000000000000000000000000000000000000000000000000000000000000000000000000000000000000000000000000000000000000000000000000000000000000000000000000000000000000000000000000000000000000000000000000000000000000
310
00000000000000000000000000000000000000000000000000000000000000000000000000000000000000000000000000000000000000000000000000000000000000000000000000000000000000000000000000000000000000000000000000000000000000000000000000000000000000000000000000000000000000
310
00000000000000000000000000000000000000000000000000000000000000000000000000000000000000000000000000000000000000000000000000000000000000000000000000000000000000000000000000000000000000000000000000000000000000000000000000000000000000000000000000000000000000
310
00000000000000000000000000000000000000000000000000000000000000000000000000000000000000000000000000000000000000000000000000000000000000000000000000000000000000000000000000000000000000000000000000000000000000000000000000000000000000000000000000000000000000
310
00000000000000000000000000000000000000000000000000000000000000000000000000000000000000000000000000000000000000000000000000000000000000000000000000000000000000000000000000000000000000000000000000000000000000000000000000000000000000000000000000000000000000
310
00000000000000000000000000000000000000000000000000000000000000000000000000000000000000000000000000000000000000000000000000000000000000000000000000000000000000000000000000000000000000000000000000000000000000000000000000000000000000000000000000000000000000
310
00000000000000000000000000000000000000000000000000000000000000000000000000000000000000000000000000000000000000000000000000000000000000000000000000000000000000000000000000000000000000000000000000000000000000000000000000000000000000000000000000000000000000
310
00000000000000000000000000000000000000000000000000000000000000000000000000000000000000000000000000000000000000000000000000000000000000000000000000000000000000000000000000000000000000000000000000000000000000000000000000000000000000000000000000000000000000
310
00000000000000000000000000000000000000000000000000000000000000000000000000000000000000000000000000000000000000000000000000000000000000000000000000000000000000000000000000000000000000000000000000000000000000000000000000000000000000000000000000000000000000
310
00000000000000000000000000000000000000000000000000000000000000000000000000000000000000000000000000000000000000000000000000000000000000000000000000000000000000000000000000000000000000000000000000000000000000000000000000000000000000000000000000000000000000
310
00000000000000000000000000000000000000000000000000000000000000000000000000000000000000000000000000000000000000000000000000000000000000000000000000000000000000000000000000000000000000000000000000000000000000000000000000000000000000000000000000000000000000
310
00000000000000000000000000000000000000000000000000000000000000000000000000000000000000000000000000000000000000000000000000000000000000000000000000000000000000000000000000000000000000000000000000000000000000000000000000000000000000000000000000000000000000
310
00000000000000000000000000000000000000000000000000000000000000000000000000000000000000000000000000000000000000000000000000000000000000000000000000000000000000000000000000000000000000000000000000000000000000000000000000000000000000000000000000000000000000
310
00000000000000000000000000000000000000000000000000000000000000000000000000000000000000000000000000000000000000000000000000000000000000000000000000000000000000000000000000000000000000000000000000000000000000000000000000000000000000000000000000000000000000
310
00000000000000000000000000000000000000000000000000000000000000000000000000000000000000000000000000000000000000000000000000000000000000000000000000000000000000000000000000000000000000000000000000000000000000000000000000000000000000000000000000000000000000
310
00000000000000000000000000000000000000000000000000000000000000000000000000000000000000000000000000000000000000000000000000000000000000000000000000000000000000000000000000000000000000000000000000000000000000000000000000000000000000000000000000000000000000
310
00000000000000000000000000000000000000000000000000000000000000000000000000000000000000000000000000000000000000000000000000000000000000000000000000000000000000000000000000000000000000000000000000000000000000000000000000000000000000000000000000000000000000
310
00000000000000000000000000000000000000000000000000000000000000000000000000000000000000000000000000000000000000000000000000000000000000000000000000000000000000000000000000000000000000000000000000000000000000000000000000000000000000000000000000000000000000
310
00000000000000000000000000000000000000000000000000000000000000000000000000000000000000000000000000000000000000000000000000000000000000000000000000000000000000000000000000000000000000000000000000000000000000000000000000000000000000000000000000000000000000
310
00000000000000000000000000000000000000000000000000000000000000000000000000000000000000000000000000000000000000000000000000000000000000000000000000000000000000000000000000000000000000000000000000000000000000000000000000000000000000000000000000000000000000
310
00000000000000000000000000000000000000000000000000000000000000000000000000000000000000000000000000000000000000000000000000000000000000000000000000000000000000000000000000000000000000000000000000000000000000000000000000000000000000000000000000000000000000
310
00000000000000000000000000000000000000000000000000000000000000000000000000000000000000000000000000000000000000000000000000000000000000000000000000000000000000000000000000000000000000000000000000000000000000000000000000000000000000000000000000000000000000
310
00000000000000000000000000000000000000000000000000000000000000000000000000000000000000000000000000000000000000000000000000000000000000000000000000000000000000000000000000000000000000000000000000000000000000000000000000000000000000000000000000000000000000
310
00000000000000000000000000000000000000000000000000000000000000000000000000000000000000000000000000000000000000000000000000000000000000000000000000000000000000000000000000000000000000000000000000000000000000000000000000000000000000000000000000000000000000
310
00000000000000000000000000000000000000000000000000000000000000000000000000000000000000000000000000000000000000000000000000000000000000000000000000000000000000000000000000000000000000000000000000000000000000000000000000000000000000000000000000000000000000
310
00000000000000000000000000000000000000000000000000000000000000000000000000000000000000000000000000000000000000000000000000000000000000000000000000000000000000000000000000000000000000000000000000000000000000000000000000000000000000000000000000000000000000
310
00000000000000000000000000000000000000000000000000000000000000000000000000000000000000000000E2E2E2E2E2E2E2E2E2E2E2E2E2E2E2E2E2E2E2E2E2E2E2E2E2E2E2E2E2E2E2E2E2E2E2E2E2E2E2E2E2E2E2E2E2E2E2E2E2E2E2E2E2E2E2E2E2E2E2E2E2E2E2E2E2E2E2E2E2E2E200000000000000000000
310
00000000000000000000000000000000000000000000000000000000000000000000000000000000000000000000000000000000000000000000000000000000000000000000000000000000000000000000000000000000000000000000000000000000000000000000000000000000000000000000000000000000000000
310
00000000000000000000000000000000000000000000000000000000E2E2E2E2E2E2E2E2E2E2E2E2E2E2E2E2E2E2E2E20000000000000000000000000000000000000000000000000000000000000000000000000000000000000000000000000000000000000000000000000000000000000000000000E2E2E2E2E2E2E2E2
310
E2E2E2E2E2E2E2E2E2E2E2E200000000000000000000000000000000000000000000000000000000000000000000000000000000000000000000000000000000000000000000000000000000000000000000000000000000000000000000000000000000000000000000000000000000000000000000000000000000000000
310
0000000000000000000000000000000000000000000000000000000000E2E2000000000000000000000000000000000000000000000000000000000000000000000000000000000000000000000000000000000000000000000000000000000000000000000000000000000000000000000000000000000000000000000000
310
0000000000000000000000000000E200000000000000000000000000000000000000000000000000000000000000000000000000000000000000000000000000000000000000000000000000000000000000000000000000000000000000000000000000000000000000000000000000000000000000000000000000000000
310
00000000000000000000000000000000000000000000000000000000000000E20000000000000000000000000000000000000000000000000000000000000000000000000000000000000000000000000000000000000000000000000000000000000000000000000000000000000000000000000000000000000000000000
310
00000000000000000000000000000000E20000000000000000000000000000000000000000000000000000000000000000000000000000000000000000000000000000000000000000000000000000000000000000000000000000000000000000000000000000000000000000000000000000000000000000000000000000
310
000000000000000000000000000000000000000000000000000000000000000000E2000000000000000000000000000000000000000000000000000000000000000000000000000000000000000000000000000000000000000000000000000000000000000000000000000000000000000000000000000000000000000000
310
000000000000000000000000000000000000E2000000000000000000000000000000000000000000000000000000000000000000000000000000000000000000000000000000000000000000000000000000000000000000000000000000000000000000000000000000000000000000000000000000000000000000000000
310
0000000000000000000000000000000000000000000000000000000000000000000000E200000000000000000000000000000000000000000000000000000000000000000000000000000000000000000000000000000000000000000000000000000000000000000000000000000000000000000000000000000000000000
310
0000000000000000000000000000000000000000E200000000000000000000000000000000000000000000000000000000000000000000000000000000000000000000000000000000000000000000000000000000000000000000000000000000000000000000000000000000000000000000000000000000000000000000
310
00000000000000000000000000000000000000000000000000000000000000000000000000E20000000000000000000000000000000000000000000000000000000000000000000000000000000000000000000000000000000000000000000000000000000000000000000000000000000000000000000000000000000000
310
00000000000000000000000000000000000000000000E20000000000000000000000000000000000000000000000000000000000000000000000000000000000000000000000000000000000000000000000000000000000000000000000000000000000000000000000000000000000000000000000000000000000000000
310
000000000000000000000000000000000000000000000000000000000000000000000000000000E2000000000000000000000000000000000000000000000000000000000000000000000000000000000000000000000000000000000000000000000000000000000000000000000000000000000000000000000000000000
310
000000000000000000000000000000000000000000000000E2000000000000000000000000000000000000000000000000000000000000000000000000000000000000000000000000000000000000000000000000000000000000000000000000000000000000000000000000000000000000000000000000000000000000
310
0000000000000000000000000000000000000000000000000000000000000000000000000000000000E200000000000000000000000000000000000000000000000000000000000000000000000000000000000000000000000000000000000000000000000000000000000000000000000000000000000000000000000000
310
0000000000000000000000000000000000000000000000000000E200000000000000000000000000000000000000000000000000000000000000000000000000000000000000000000000000000000000000000000000000000000000000000000000000000000000000000000000000000000000000000000000000000000
310
00000000000000000000000000000000000000000000000000000000000000000000000000000000000000E20000000000000000000000000000000000000000000000000000000000000000000000000000000000000000000000000000000000000000000000000000000000000000000000000000000000000000000000
310
00000000000000000000000000000000000000000000000000000000E20000000000000000000000000000000000000000000000000000000000000000000000000000000000000000000000000000000000000000000000000000000000000000000000000000000000000000000000000000000000000000000000000000
310
000000000000000000000000000000000000000000000000000000000000000000000000000000000000000000E2000000000000000000000000000000000000000000000000000000000000000000000000000000000000000000000000000000000000000000000000000000000000000000000000000000000000000000
310
000000000000000000000000000000000000000000000000000000000000E2000000000000000000000000000000000000000000000000000000000000000000000000000000000000000000000000000000000000000000000000000000000000000000000000000000000000000000000000000000000000000000000000
310
0000000000000000000000000000000000000000000000000000000000000000000000000000000000000000000000E200000000000000000000000000000000000000000000000000000000000000000000000000000000000000000000000000000000000000000000000000000000000000000000000000000000000000
310
0000000000000000000000000000000000000000000000000000000000000000E200000000000000000000000000000000000000000000000000000000000000000000000000000000000000000000000000000000000000000000000000000000000000000000000000000000000000000000000000000000000000000000
310
00000000000000000000000000000000000000000000000000000000000000000000000000000000000000000000000000E2000000000000000000000000000000000000E2E2E2E2E2E2E2E2E2E2E2E2E2E2E2E2E2E2E2E2E2E2E2E2E2E2E2E2E2E2E2E2E2E2E2E2E2E2E2E2E2E2E2E2E2E2E2E2E2E2E2E2E2E2E2E2E2E2E2
310
E2E2E2E2E2E2E2E2E2E2E2E2E2E2E2E2000000000000000000000000000000000000E20000000000000000000000000000000000000000000000000000000000000000000000000000000000000000000000000000000000000000000000000000000000000000000000000000000000000000000000000000000000000000
310
000000000000000000000000000000000000000000000000000000000000000000000000000000000000000000000000000000E20000000000000000000000000000000000E2000000000000000000000000000000000000000000000000000000000000000000000000000000000000000000000000000000000000000000
310
000000000000000000000000000000000000E2E200000000000000000000000000000000E2000000000000000000000000000000000000000000000000000000000000000000000000000000000000000000000000000000000000000000000000000000000000000000000000000000000000000000000000000000000000
310
0000000000000000000000000000000000000000000000000000000000000000000000000000000000000000000000000000000000E2000000000000000000000000000000E2E20000000000000000000000000000000000000000000000000000000000000000000000000000000000000000000000000000000000000000
310
00000000000000000000000000000000000000000000E2000000000000000000000000000000E200000000000000000000000000000000000000000000000000000000000000000000000000000000000000000000000000000000000000000000000000000000000000000000000000000000000000000000000000000000
310
00000000000000000000000000000000000000000000000000000000000000000000000000000000000000000000000000000000000000E20000000000000000000000000000E20000000000000000000000000000000000000000000000000000000000000000000000000000000000000000000000000000000000000000
310
00000000000000000000000000000000000000000000000000E20000000000000000000000000000E20000000000000000000000000000000000000000000000000000000000000000000000000000000000000000000000000000000000000000000000000000000000000000000000000000000000000000000000000000
310
000000000000000000000000000000000000000000000000000000000000000000000000000000000000000000000000000000000000000000E200000000000000000000000000E200000000000000000000000000000000000000000000000000000000000000000000000000000000000000000000000000000000000000
310
00000000000000000000000000000000000000000000000000000000E200000000000000000000000000E2000000000000000000000000000000000000000000000000000000000000000000000000000000000000000000000000000000000000000000000000000000000000000000000000000000000000000000000000
310
0000000000000000000000000000000000000000000000000000000000000000000000000000000000000000000000000000000000000000000000E200000000000000000000000000E20000000000000000000000000000000000000000000000000000000000000000000000000000000000000000000000000000000000
310
000000000000000000000000000000000000000000000000000000000000E200000000000000000000000000E200000000000000000000000000000000000000000000000000000000000000000000000000000000000000000000000000000000000000000000000000000000000000000000000000000000000000000000
310
00000000000000000000000000000000000000000000000000000000000000000000000000000000000000000000000000000000000000000000000000E200000000000000000000000000E2000000000000000000000000000000000000000000000000000000000000000000000000000000000000000000000000000000
310
000000000000000000000000000000000000000000000000000000000000000000E2000000000000000000000000E20000000000000000000000000000000000000000000000000000000000000000000000000000000000000000000000000000000000000000000000000000000000000000000000000000000000000000
310
000000000000000000000000000000000000000000000000000000000000000000000000000000000000000000000000000000000000000000000000000000E200000000000000000000000000E200000000000000000000000000000000000000000000000000000000000000000000000000000000000000000000000000
310
0000000000000000000000000000000000000000000000000000000000000000000000E2000000000000000000000000E2000000000000000000000000000000000000000000000000000000000000000000000000000000000000000000000000000000000000000000000000000000000000000000000000000000000000
310
0000000000000000000000000000000000000000000000000000000000000000000000000000000000000000000000000000000000000000000000000000000000E200000000000000000000000000E20000000000000000000000000000000000000000000000000000000000000000000000000000000000000000000000
310
00000000000000000000000000000000000000000000000000000000000000000000000000E2000000000000000000000000E200000000000000000000000000000000000000000000000000000000000000000000000000000000000000000000000000000000000000000000000000000000000000000000000000000000
310
00000000000000000000000000000000000000000000000000000000000000000000000000000000000000000000000000000000000000000000000000000000000000E200000000000000000000000000E2000000000000000000000000000000000000000000000000000000000000000000000000000000000000000000
310
000000000000000000000000000000000000000000000000000000000000000000000000000000E2000000000000000000000000E20000000000000000000000000000000000000000000000000000000000000000000000000000000000000000000000000000000000000000000000000000000000000000000000000000
310
000000000000000000000000000000000000000000000000000000000000000000000000000000000000000000000000000000000000000000000000000000000000000000E200000000000000000000000000E200000000000000000000000000000000000000000000000000000000000000000000000000000000000000
310
0000000000000000000000000000000000000000000000000000000000000000000000000000000000E2000000000000000000000000E2000000000000000000000000000000000000000000000000000000000000000000000000000000000000000000000000000000000000000000000000000000000000000000000000
310
0000000000000000000000000000000000000000000000000000000000000000000000000000000000000000000000000000000000000000000000000000000000000000000000E200000000000000000000000000E20000000000000000000000000000000000000000000000000000000000000000000000000000000000
310
00000000000000000000000000000000000000000000000000000000000000000000000000000000000000E2000000000000000000000000E200000000000000000000000000000000000000000000000000000000000000000000000000000000000000000000000000000000000000000000000000000000000000000000
310
00000000000000000000000000000000000000000000000000000000000000000000000000000000000000000000000000000000000000000000000000000000000000000000000000E200000000000000000000000000E2000000000000000000000000000000000000000000000000000000000000000000000000000000
310
000000000000000000000000000000000000000000000000000000000000000000000000000000000000000000E2000000000000000000000000E20000000000000000000000000000000000000000000000000000000000000000000000000000000000000000000000000000000000000000000000000000000000000000
310
000000000000000000000000000000000000000000000000000000000000000000000000000000000000000000000000000000000000000000000000000000000000000000000000000000E200000000000000000000000000E200000000000000000000000000000000000000000000000000000000000000000000000000
310
0000000000000000000000000000000000000000000000000000000000000000000000000000000000000000000000E2000000000000000000000000E2000000000000000000000000000000000000000000000000000000000000000000000000000000000000000000000000000000000000000000000000000000000000
310
0000000000000000000000000000000000000000000000000000000000000000000000000000000000000000000000000000000000000000000000000000000000000000000000000000000000E200000000000000000000000000E20000000000000000000000000000000000000000000000000000000000000000000000
310
00000000000000000000000000000000000000000000000000000000000000000000000000000000000000000000000000E2000000000000000000000000E200000000000000000000000000000000000000000000000000000000000000000000000000000000000000000000000000000000000000000000000000000000
310
00000000000000000000000000000000000000000000000000000000000000000000000000000000000000000000000000000000000000000000000000000000000000000000000000000000000000E200000000000000000000000000E2000000000000000000000000000000000000000000000000000000000000000000
310
000000000000000000000000000000000000000000000000000000000000000000000000000000000000000000000000000000E2000000000000000000000000E20000000000000000000000000000000000000000000000000000000000000000000000000000000000000000000000000000000000000000000000000000
310
000000000000000000000000000000000000000000000000000000000000000000000000000000000000000000000000000000000000000000000000000000000000000000000000000000000000000000E200000000000000000000000000E200000000000000000000000000000000000000000000000000000000000000
310
0000000000000000000000000000000000000000000000000000000000000000000000000000000000000000000000000000000000E2000000000000000000000000E2000000000000000000000000000000000000000000000000000000000000000000000000000000000000000000000000000000000000000000000000
310
0000000000000000000000000000000000000000000000000000000000000000000000000000000000000000000000000000000000000000000000000000000000000000000000000000000000000000000000E200000000000000000000000000E20000000000000000000000000000000000000000000000000000000000
310
00000000000000000000000000000000000000000000000000000000000000000000000000000000000000000000000000000000000000E2000000000000000000000000E200000000000000000000000000000000000000000000000000000000000000000000000000000000000000000000000000000000000000000000
310
00000000000000000000000000000000000000000000000000000000000000000000000000000000000000000000000000000000000000000000000000000000000000000000000000000000000000000000000000E200000000000000000000000000E2000000000000000000000000000000000000000000000000000000
310
000000000000000000000000000000000000000000000000000000000000000000000000000000000000000000000000000000000000000000E2000000000000000000000000E20000000000000000000000000000000000000000000000000000000000000000000000000000000000000000000000000000000000000000
310
000000000000000000000000000000000000000000000000000000000000000000000000000000000000000000000000000000000000000000000000000000000000000000000000000000000000000000000000000000E200000000000000000000000000E200000000000000000000000000000000000000000000000000
310
0000000000000000000000000000000000000000000000000000000000000000000000000000000000000000000000000000000000000000000000E2000000000000000000000000E2000000000000000000000000000000000000000000000000000000000000000000000000000000000000000000000000000000000000
310
0000000000000000000000000000000000000000000000000000000000000000000000000000000000000000000000000000000000000000000000000000000000000000000000000000000000000000000000000000000000E200000000000000000000000000E20000000000000000000000000000000000000000000000
310
00000000000000000000000000000000000000000000000000000000000000000000000000000000000000000000000000000000000000000000000000E2000000000000000000000000E200000000000000000000000000000000000000000000000000000000000000000000000000000000000000000000000000000000
310
00000000000000000000000000000000000000000000000000000000000000000000000000000000000000000000000000000000000000000000000000000000000000000000000000000000000000000000000000000000000000E200000000000000000000000000E2000000000000000000000000000000000000000000
310
000000000000000000000000000000000000000000000000000000000000000000000000000000000000000000000000000000000000000000000000000000E2000000000000000000000000E20000000000000000000000000000000000000000000000000000000000000000000000000000000000000000000000000000
310
000000000000000000000000000000000000000000000000000000000000000000000000000000000000000000000000000000000000000000000000000000000000000000000000000000000000000000000000000000000000000000E200000000000000000000000000E200000000000000000000000000000000000000
310
0000000000000000000000000000000000000000000000000000000000000000000000000000000000000000000000000000000000000000000000000000000000E2000000000000000000000000E2000000000000000000000000000000000000000000000000000000000000000000000000000000000000000000000000
310
0000000000000000000000000000000000000000000000000000000000000000000000000000000000000000000000000000000000000000000000000000000000000000000000000000000000000000000000000000000000000000000000E200000000000000000000000000E20000000000000000000000000000000000
310
00000000000000000000000000000000000000000000000000000000000000000000000000000000000000000000000000000000000000000000000000000000000000E2000000000000000000000000E200000000000000000000000000000000000000000000000000000000000000000000000000000000000000000000
310
00000000000000000000000000000000000000000000000000000000000000000000000000000000000000000000000000000000000000000000000000000000000000000000000000000000000000000000000000000000000000000000000000E200000000000000000000000000E2000000000000000000000000000000
310
000000000000000000000000000000000000000000000000000000000000000000000000000000000000000000000000000000000000000000000000000000000000000000E2000000000000000000000000E20000000000000000000000000000000000000000000000000000000000000000000000000000000000000000
310
000000000000000000000000000000000000000000000000000000000000000000000000000000000000000000000000000000000000000000000000000000000000000000000000000000000000000000000000000000000000000000000000000000E200000000000000000000000000E200000000000000000000000000
310
0000000000000000000000000000000000000000000000000000000000000000000000000000000000000000000000000000000000000000000000000000000000000000000000E2000000000000000000000000E2000000000000000000000000000000000000000000000000000000000000000000000000000000000000
310
0000000000000000000000000000000000000000000000000000000000000000000000000000000000000000000000000000000000000000000000000000000000000000000000000000000000000000000000000000000000000000000000000000000000E200000000000000000000000000E20000000000000000000000
310
00000000000000000000000000000000000000000000000000000000000000000000000000000000000000000000000000000000000000000000000000000000000000000000000000E2000000000000000000000000E200000000000000000000000000000000000000000000000000000000000000000000000000000000
310
00000000000000000000000000000000000000000000000000000000000000000000000000000000000000000000000000000000000000000000000000000000000000000000000000000000000000000000000000000000000000000000000000000000000000E200000000000000000000000000E2000000000000000000
310
000000000000000000000000000000000000000000000000000000000000000000000000000000000000000000000000000000000000000000000000000000000000000000000000000000E2000000000000000000000000E20000000000000000000000000000000000000000000000000000000000000000000000000000
310
000000000000000000000000000000000000000000000000000000000000000000000000000000000000000000000000000000000000000000000000000000000000000000000000000000000000000000000000000000000000000000000000000000000000000000E200000000000000000000000000E200000000000000
310
0000000000000000000000000000000000000000000000000000000000000000000000000000000000000000000000000000000000000000000000000000000000000000000000000000000000E2000000000000000000000000E2000000000000000000000000000000000000000000000000000000000000000000000000
310
0000000000000000000000000000000000000000000000000000000000000000000000000000000000000000000000000000000000000000000000000000000000000000000000000000000000000000000000000000000000000000000000000000000000000000000000E200000000000000000000000000E20000000000
310
0000000000000000000000000000000000000000000000000000000000000000000000002D000000000000000000000000000000000000000000000000000000000000000000000000000000000000E2000000000000000000000000E200000000000000000000000000000000000000000000000000000000000000000000
310
00000000000000000000000000000000000000000000000000000000000000000000000000000000000000000000000000000000000000000000000000000000000000000000000000000000000000000000000000000000000000000000000000000000000000000000000000E200000000000000000000000000E2000000
310
00000000000000000000000000000000000000000000000000000000000000000000000000E2E2E2E200000000000000000000000000000000000000000000000000000000000000000000000000000000E2000000000000000000000000E20000000000000000000000000000000000000000000000000000000000000000
310
000000000000000000000000000000000000000000000000000000000000000000000000000000000000000000000000000000000000000000000000000000000000000000000000000000000000000000000000000000000000000000000000000000000000000000000000000000E200000000000000000000000000E200
310
000000000000000000000000000000000000000000000000000000000000000000000000E2E2E2002D0000E2E20000000000000000000000000000000000000000000000000000000000000000000000000000E2000000000000000000000000E2000000000000000000000000000000000000000000000000000000000000
310
0000000000000000000000000000000000000000000000000000000000000000000000000000000000000000000000000000000000000000000000000000000000000000000000000000000000000000000000000000000000000000000000000000000000000000000000000000000000E200000000000000000000000000
310
E2000000000000000000000000000000000000000000000000000000000000000000000000E2000000E2E2E2000000E200000000000000000000000000000000000000000000000000000000000000000000000000E2000000000000000000000000E200000000000000000000000000000000000000000000000000000000
310
00000000000000000000000000000000000000000000000000000000000000000000000000000000000000000000000000000000000000000000000000000000000000000000000000000000000000000000000000000000000000000000000000000000000000000000000000000000000000E20000000000000000000000
310
0000E2000000000000000000000000000000000000000000000000000000000000000000000000E200E2E2002D00E2E20000E2000000000000000000000000000000000000000000000000000000000000000000000000E2000000000000000000000000E20000000000000000000000000000000000000000000000000000
310
000000000000000000000000000000000000000000000000000000000000000000000000000000000000000000000000000000000000000000000000000000000000000000000000000000000000000000000000000000000000000000000000000000000000000000000000000000000000000000E2000000000000000000
310
00000000E20000000000000000000000000000000000000000000000000000000000000000000000E200E20000002D000000E200E2000000000000000000000000000000000000000000000000000000000000000000000000E2000000000000000000000000E2000000000000000000000000000000000000000000000000
310
0000000000000000000000000000000000000000000000000000000000000000000000000000000000000000000000000000000000000000000000000000000000000000000000000000000000000000000000000000000000000000000000000000000000000000000000000000000000000000000000E200000000000000
310
000000000000E20000000000000000000000000000000000000000000000000000000000000000000000E200E20000002D000000E20000E20000000000000000000000000000000000000000000000000000000000000000000000E2000000000000000000000000E200000000000000000000000000000000000000000000
310
00000000000000000000000000000000000000000000000000000000000000000000000000000000000000000000000000000000000000000000000000000000000000000000000000000000000000000000000000000000000000000000000000000000000000000000000000000000000000000000000000E20000000000
310
0000000000000000E20000000000000000000000000000000000000000000000000000000000000000000000E200E20000002D00000000E200E20000000000000000000000000000000000000000000000000000000000000000000000E2000000000000000000000000E20000000000000000000000000000000000000000
310
000000000000000000000000000000000000000000000000000000000000000000000000000000000000000000000000000000000000000000000000000000000000000000000000000000000000000000000000000000000000000000000000000000000000000000000000000000000000000000000000000000E2000000
310
00000000000000000000E20000000000000000000000000000000000000000000000000000000000000000002DE22DE22D2D2D2D2D2D2D2D2DE22DE22D00000000000000000000000000000000000000000000000000000000000000000000E2000000000000000000000000E2000000000000000000000000000000000000
310
0000000000000000000000000000000000000000000000000000000000000000000000000000000000000000000000000000000000000000000000000000000000000000000000000000000000000000000000000000000000000000000000000000000000000000000000000000000000000000000000000000000000E200
310
000000000000000000000000E20000000000000000000000000000000000000000000000000000000000000000000000E200E20000002D000000E20000E20000000000000000000000000000000000000000000000000000000000000000000000E2000000000000000000000000E200000000000000000000000000000000
310
00000000000000000000000000000000000000000000000000000000000000000000000000000000000000000000000000000000000000000000000000000000000000000000000000000000000000000000000000000000000000000000000000000000000000000000000000000000000000000000000000000000000000
310
E200000000000000000000000000E20000000000000000000000000000000000000000000000000000000000000000000000E200E20000002D000000E200E2000000000000000000000000000000000000000000000000000000000000000000000000E2000000000000000000000000E20000000000000000000000000000
310
00000000000000000000000000000000000000000000000000000000000000000000000000000000000000000000000000000000000000000000000000000000000000000000000000000000000000000000000000000000000000000000000000000000000000000000000000000000000000000000000000000000000000
310
0000E200000000000000000000000000E2000000000000000000000000000000000000000000000000000000000000000000000000E200E200002D0000E20000E2000000000000000000000000000000000000000000000000000000000000000000000000E2000000000000000000000000E2000000000000000000000000
310
00000000000000000000000000000000000000000000000000000000000000000000000000000000000000000000000000000000000000000000000000000000000000000000000000000000000000000000000000000000000000000000000000000000000000000000000000000000000000000000000000000000000000
310
00000000E200000000000000000000000000E2000000000000000000000000000000000000000000000000000000000000000000000000E20000E2E2E2E2E20000E200000000000000000000000000000000000000000000000000000000000000000000000000E2000000000000000000000000E200000000000000000000
310
00000000000000000000000000000000000000000000000000000000000000000000000000000000000000000000000000000000000000000000000000000000000000000000000000000000000000000000000000000000000000000000000000000000000000000000000000000000000000000000000000000000000000
310
000000000000E200000000000000000000000000E200000000000000000000000000000000000000000000000000000000000000000000000000E2E200002D0000E2E20000000000000000000000000000000000000000000000000000000000000000000000000000E2000000000000000000000000E20000000000000000
310
00000000000000000000000000000000000000000000000000000000000000000000000000000000000000000000000000000000000000000000000000000000000000000000000000000000000000000000000000000000000000000000000000000000000000000000000000000000000000000000000000000000000000
310
0000000000000000E200000000000000000000000000E2000000000000000000000000000000000000000000000000000000000000000000000000000000E2E2E2E2E200000000000000000000000000000000000000000000000000000000000000000000000000000000E2000000000000000000000000E2000000000000
310
00000000000000000000000000000000000000000000000000000000000000000000000000000000000000000000000000000000000000000000000000000000000000000000000000000000000000000000000000000000000000000000000000000000000000000000000000000000000000000000000000000000000000
310
00000000000000000000E200000000000000000000000000E200000000000000000000000000000000000000000000000000000000000000000000000000000000002D000000000000000000000000000000000000000000000000000000000000000000000000000000000000E2000000000000000000000000E200000000
310
00000000000000000000000000000000000000000000000000000000000000000000000000000000000000000000000000000000000000000000000000000000000000000000000000000000000000000000000000000000000000000000000000000000000000000000000000000000000000000000000000000000000000
310
000000000000000000000000E200000000000000000000000000E20000000000000000000000000000000000000000000000000000000000000000000000000000000000000000000000000000000000000000000000000000000000000000000000000000000000000000000000E200000000000000000000000000E20000
310
00000000000000000000000000000000000000000000000000000000000000000000000000000000000000000000000000000000000000000000000000000000000000000000000000000000000000000000000000000000000000000000000000000000000000000000000000000000000000000000000000000000000000
310
0000000000000000000000000000E200000000000000000000000000E20000000000000000000000000000000000000000000000000000000000000000000000000000000000000000000000000000000000000000000000000000000000000000000000000000000000000000000000E200000000000000000000000000E2
310
00000000000000000000000000000000000000000000000000000000000000000000000000000000000000000000000000000000000000000000000000000000000000000000000000000000000000000000000000000000000000000000000000000000000000000000000000000000000000000000000000000000000000
310
00000000000000000000000000000000E200000000000000000000000000E20000000000000000000000000000000000000000000000000000000000000000000000000000000000000000000000000000000000000000000000000000000000000000000000000000000000000000000000E2000000000000000000000000
310
00E20000000000000000000000000000000000000000000000000000000000000000000000000000000000000000000000000000000000000000000000000000000000000000000000000000000000000000000000000000000000000000000000000000000000000000000000000000000000000000000000000000000000
310
000000000000000000000000000000000000E20000000000000000000000000000E2000000000000000000000000000000000000000000000000000000000000000000000000000000000000000000000000000000000000000000000000000000000000000000000000000000000000000000E20000000000000000000000
310
000000E2000000000000000000000000000000000000000000000000000000000000000000000000000000000000000000000000000000000000000000000000000000000000000000000000000000000000000000000000000000000000000000000000000000000000000000000000000000000000000000000000000000
310
0000000000000000000000000000000000000000E2000000000000000000000000000000E200000000000000000000000000000000000000000000000000000000000000000000000000E2E2E2E2E200000000000000000000000000000000000000000000000000000000000000000000000000E200000000000000000000
310
0000000000E200000000000000000000000000000000000000000000000000000000000000000000000000000000000000000000000000000000000000000000000000000000000000000000000000000000000000000000000000000000000000000000000000000000000000000000000000000000000000000000000000
310
00000000000000000000000000000000000000000000E200000000000000000000000000000000E2E2E200000000000000000000000000000000000000E2E2E2E2E2E2E2E2E2E2E2E2E2E2E2E2E2E2E2E2E2E2E2E2E2E2E2E2E2E2E2E2E2E2E200000000000000000000000000000000000000E2E2E2000000000000000000
310
00000000000000E20000000000000000000000000000000000000000000000000000000000000000000000000000000000000000000000000000000000000000000000000000000000000000000000000000000000000000000000000000000000000000000000000000000000000000000000000000000000000000000000
310
000000000000000000000000000000000000000000000000E200000000000000000000000000000000000000E2E2E2E2E2E2E2E2E2E2E2E2E2E2E2E2E2E2E20000000000000000000000000000000000000000000000000000000000000000000000E2E2E2E2E2E2E2E2E2E2E2E2E2E2E2E2E2E2E200000000000000000000
310
000000000000000000E2000000000000000000000000000000000000000000000000000000000000000000000000000000000000000000000000000000000000000000000000000000000000000000000000000000000000000000000000000000000000000000000000000000000000000000000000000000000000000000
310
0000000000000000000000000000000000000000000000000000E200000000000000000000000000000000000000000000000000000000000000000000000000000000000000000000000000000000000000000000000000000000000000000000000000000000000000000000000000000000000000000000000000000000
310
0000000000000000000000E200000000000000000000000000000000000000000000000000000000000000000000000000000000000000000000000000000000000000000000000000000000000000000000000000000000000000000000000000000000000000000000000000000000000000000000000000000000000000
310
00000000000000000000000000000000000000000000000000000000E20000000000000000000000000000000000000000000000000000000000000000000000000000000000000000000000000000000000000000000000000000000000000000000000000000000000000000000000000000000000000000000000000000
310
00000000000000000000000000E20000000000000000000000000000000000000000000000000000000000000000000000000000000000000000000000000000000000000000000000000000000000000000000000000000000000000000000000000000000000000000000000000000000000000000000000000000000000
310
000000000000000000000000000000000000000000000000000000000000E2000000000000000000000000000000000000000000000000000000000000000000000000000000000000000000000000000000000000000000000000000000000000000000000000000000000000000000000000000000000000000000000000
310
000000000000000000000000000000E2000000000000000000000000000000000000000000000000000000000000000000000000000000000000000000000000000000000000000000000000000000000000000000000000000000000000000000000000000000000000000000000000000000000000000000000000000000
310
0000000000000000000000000000000000000000000000000000000000000000E200000000000000000000000000000000000000000000000000000000000000000000000000000000000000000000000000000000000000000000000000000000000000000000000000000000000000000000000000000000000000000000
310
0000000000000000000000000000000000E200000000000000000000000000000000000000000000000000000000000000000000000000000000000000000000000000000000000000000000000000000000000000000000000000000000000000000000000000000000000000000000000000000000000000000000000000
310
00000000000000000000000000000000000000000000000000000000000000000000E20000000000000000000000000000000000000000000000000000000000000000000000000000000000000000000000000000000000000000000000000000000000000000000000000000000000000000000000000000000000000000
310
00000000000000000000000000000000000000E20000000000000000000000000000000000000000000000000000000000000000000000000000000000000000000000000000000000000000000000000000000000000000000000000000000000000000000000000000000000000000000000000000000000000000000000
310
000000000000000000000000000000000000000000000000000000000000000000000000E2000000000000000000000000000000000000000000000000000000000000000000000000000000000000000000000000000000000000000000000000000000000000000000000000000000000000000000000000000000000000
310
000000000000000000000000000000000000000000E2000000000000000000000000000000000000000000000000000000000000000000000000000000000000000000000000000000000000000000000000000000000000000000000000000000000000000000000000000000000000000000000000000000000000000000
310
0000000000000000000000000000000000000000000000000000000000000000000000000000E2000000000000000000000000000000000000000000000000000000000000000000000000002D00000000000000000000000000000000002D00000000000000000000000000000000002D0000000000000000000000000000
310
0000000000000000000000000000000000000000000000E200000000000000000000000000000000000000000000000000000000000000000000000000000000000000000000000000000000000000000000000000000000000000000000000000000000000000000000000000000000000000000000000000000000000000
310
00000000000000000000000000000000000000000000000000000000000000000000000000000000E2000000000000000000000000000000000000000000000000000000000000000000000000002D00000000000000000000000000000000E22DE2000000000000000000000000000000002D000000000000000000000000
310
00000000000000000000000000000000000000000000000000E20000000000000000000000000000000000000000000000000000000000000000000000000000000000000000000000000000000000000000000000000000000000000000000000000000000000000000000000000000000000000000000000000000000000
310
000000000000000000000000000000000000000000000000000000000000000000000000000000000000E2000000000000000000000000000000000000000000000000000000000000000000000000002D000000000000000000000000000000E2002D00E20000000000000000000000000000002D00000000000000000000
310
000000000000000000000000000000000000000000000000000000E2000000000000000000000000000000000000000000000000000000000000000000000000000000000000000000000000000000000000000000000000000000000000000000000000000000000000000000000000000000000000000000000000000000
310
0000000000000000000000000000000000000000000000000000000000000000000000000000000000000000E2000000000000000000000000000000000000000000000000000000000000000000000000002D0000000000000000000000000000E2E2002D0000E200000000000000000000000000002D0000000000000000
310
0000000000000000000000000000000000000000000000000000000000E200000000000000000000000000000000000000000000000000000000000000000000000000000000000000000000000000000000000000000000000000000000000000000000000000000000000000000000000000000000000000000000000000
310
00000000000000000000000000000000000000000000000000000000000000000000000000000000000000000000E20000000000000000000000000000000000000000000000000000000000000000002D2D2D2D2D2D2D2D2D2D000000000000002D2D2D2D2D2D2D2D2D2D2D000000000000002D2D2D2D2D2D2D2D2D2D0000
310
00000000000000000000000000000000000000000000000000000000000000E20000000000000000000000000000000000000000000000000000000000000000000000000000000000000000000000000000000000000000000000000000000000000000000000000000000000000000000000000000000000000000000000
310
000000000000000000000000000000000000000000000000000000000000000000000000000000000000000000000000E2000000000000000000000000000000000000000000000000000000000000000000000000002D0000000000000000000000000000E200002D0000E200000000000000000000000000002D00000000
310
000000000000000000000000000000000000000000000000000000000000000000E2000000000000000000000000000000000000000000000000000000000000000000000000000000000000000000000000000000000000000000000000000000000000000000000000000000000000000000000000000000000000000000
310
0000000000000000000000000000000000000000000000000000000000000000000000000000000000000000000000000000E2000000000000000000000000000000000000000000000000000000000000000000000000002D000000000000000000000000000000E2002D0000E200000000000000000000000000002D0000
310
0000000000000000000000000000000000000000000000000000000000000000000000E200000000000000000000000000000000000000000000000000000000000000000000000000000000000000000000000000000000000000000000000000000000000000000000000000000000000000000000000000000000000000
310
00000000000000000000000000000000000000000000000000000000000000000000000000000000000000000000000000000000E2000000000000000000000000000000000000000000000000000000000000000000000000002D000000000000000000000000000000E2E22DE2E20000000000000000000000000000002D
310
00000000000000000000000000000000000000000000000000000000000000000000000000E20000000000000000000000000000000000000000000000000000000000000000000000000000000000000000000000000000000000000000000000000000000000000000000000000000000000000000000000000000000000
310
000000000000000000000000000000000000000000000000000000000000000000000000000000000000000000000000000000000000E2000000000000000000000000000000000000000000000000000000000000000000000000002D00000000000000000000000000000000002D00000000000000000000000000000000
310
002D00000000000000000000000000000000000000000000000000000000000000000000000000E2000000000000000000000000000000000000000000000000000000000000000000000000000000000000000000000000000000000000000000000000000000000000000000000000000000000000000000000000000000
310
0000000000000000000000000000000000000000000000000000000000000000000000000000000000000000000000000000000000000000E2000000000000000000000000000000000000000000000000000000000000000000000000002D00000000000000000000000000000000002D0000000000000000000000000000
310
0000002D00000000000000000000000000000000000000000000000000000000000000000000000000E200000000000000000000000000000000000000000000000000000000000000000000000000000000000000000000000000000000000000000000000000000000000000000000000000000000000000000000000000
310
00000000000000000000000000000000000000000000000000000000000000000000000000000000000000000000000000000000000000000000E20000000000000000000000000000000000000000000000000000000000000000000000000000000000000000000000000000000000000000000000000000000000000000
310
00000000000000000000000000000000000000000000000000000000000000000000000000000000000000E20000000000000000000000000000000000000000000000000000000000000000000000000000000000000000000000000000000000000000000000000000000000000000000000000000000000000000000000
310
000000000000000000000000000000000000000000000000000000000000000000000000000000000000000000000000000000000000000000000000E2000000000000000000000000000000000000000000000000000000000000000000000000000000000000000000000000000000000000000000000000000000000000
310
000000000000000000000000000000000000000000000000000000000000000000000000000000000000000000E2000000000000000000000000000000000000000000000000000000000000000000000000000000000000000000000000000000000000000000000000000000000000000000000000000000000000000000
310
0000000000000000000000000000000000000000000000000000000000000000000000000000000000000000000000000000000000000000000000000000E200000000000000000000000000000000000000000000000000000000000000000000000000000000000000000000000000000000000000000000000000000000
310
0000000000000000000000000000000000000000000000000000000000000000000000000000000000000000000000E200000000000000000000000000000000000000000000000000000000000000000000000000000000000000000000000000000000000000000000000000000000000000000000000000000000000000
310
00000000000000000000000000000000000000000000000000000000000000000000000000000000000000000000000000000000000000000000000000000000E20000000000000000000000000000000000000000000000000000000000000000000000000000000000000000000000000000000000000000000000000000
310
00000000000000000000000000000000000000000000000000000000000000000000000000000000000000000000000000E20000000000000000000000000000000000000000000000000000000000000000000000000000000000000000000000000000000000000000000000000000000000000000000000000000000000
310
000000000000000000000000000000000000000000000000000000000000000000000000000000000000000000000000000000000000000000000000000000000000E2000000000000000000000000000000000000000000000000000000000000000000000000000000000000000000000000000000000000002D00000000
310
000000000000000000000000000000000000000000000000000000000000000000000000000000000000000000000000000000E2000000000000000000000000000000000000000000000000000000000000000000000000000000000000000000000000000000000000000000000000000000000000000000000000000000
310
0000000000000000000000000000000000000000000000000000000000000000000000000000000000000000000000000000000000000000000000000000000000000000E2000000000000000000000000000000000000000000000000000000000000000000000000000000000000000000000000000000000000002D0000
310
0000000000000000000000000000000000000000000000000000000000000000000000000000000000000000000000000000000000E200000000000000000000000000000000000000000000000000000000000000000000000000000000000000000000000000000000000000000000000000000000000000000000000000
310
00000000000000000000000000000000000000000000000000000000000000000000000000000000000000000000000000000000000000000000000000000000000000000000E2E2E2E2E2E2E2E2E2E2E2E2E2E2E2E2E2E2E2E2E2E2E2E2E2E2E2E2E2E2E2E2E2E2E2E2E2E2E2E2E2E2E2E2E2E2E2E2E2E2E2E2E2E2E2E2E2
310
E2E2E2E2E2E2E2E2E2E2E2E2E2E2E2E2E2E2E2E2E2E2E2E2E2E2E2E2E2E2E2E2E2E2E2E2E2E2E2E2E2E2E2E2E2E2E2E2E2E2E2E2E2E2E2E20000000000000000000000000000000000000000000000000000000000000000000000000000000000000000000000000000000000000000000000000000000000000000000000
310
00000000000000000000000000000000000000000000000000000000000000000000000000000000000000000000000000000000000000000000000000000000000000000000000000000000000000000000000000000000000000000000000000000000000000000000000000000000000000000000000000000000000000
310
002D0000000000000000000000000000000000000000000000000000000000000000000000000000000000000000000000000000000000000000000000000000000000000000000000000000000000000000000000000000000000000000000000000000000000000000000000000000000000000000000000000000000000
310
00000000000000000000000000000000000000000000000000000000000000000000000000000000000000000000000000000000000000000000000000000000000000000000000000000000000000000000000000000000000000000000000000000000000000000000000000000000000000000000000000000000000000
310
0000002D000000000000000000000000000000000000000000000000000000000000000000000000000000000000000000000000000000000000000000000000000000000000000000000000000000000000000000000000000000000000000000000000000000000000000000000000000000000000000000000000000000
310
00000000000000000000000000000000000000000000000000000000000000000000000000000000000000000000000000000000000000000000000000000000000000000000000000000000000000000000000000000000000000000000000000000000000000000000000000000000000000000000000000000000000000
310
00000000000000000000000000000000000000000000000000000000000000000000000000000000000000000000000000000000000000000000000000000000000000000000000000000000000000000000000000000000000000000000000000000000000000000000000000000000000000000000000000000000000000
310
00000000000000000000000000000000000000000000000000000000000000000000000000000000000000000000000000000000000000000000000000000000000000000000000000000000000000000000000000000000000000000000000000000000000000000000000000000000000000000000000000000000000000
310
00000000000000000000000000000000000000000000000000000000000000000000000000000000000000000000000000000000000000000000000000000000000000000000000000000000000000000000000000000000000000000000000000000000000000000000000000000000000000000000000000000000000000
310
00000000000000000000000000000000000000000000000000000000000000000000000000000000000000000000000000000000000000000000000000000000000000000000000000000000000000000000000000000000000000000000000000000000000000000000000000000000000000000000000000000000000000
310
00000000000000000000000000000000000000000000000000000000000000000000000000000000000000000000000000000000000000000000000000000000000000000000000000000000000000000000000000000000000000000000000000000000000000000000000000000000000000000000000000000000000000
310
00000000000000000000000000000000000000000000000000000000000000000000000000000000000000000000000000000000000000000000000000000000000000000000000000000000000000000000000000000000000000000000000000000000000000000000000000000000000000000000000000000000000000
310
00000000000000000000000000000000000000000000000000000000000000000000000000000000000000000000000000000000000000000000000000000000000000000000000000000000000000000000000000000000000000000000000000000000000000000000000000000000000000000000000000000000000000
310
00000000000000000000000000000000000000000000000000000000000000000000000000000000000000000000000000000000000000000000000000000000000000000000000000000000000000000000000000000000000000000000000000000000000000000000000000000000000000000000000000000000000000
310
00000000000000000000000000000000000000000000000000000000000000000000000000000000000000000000000000000000000000000000000000000000000000000000000000000000000000000000000000000000000000000000000000000000000000000000000000000000000000000000000000000000000000
310
00000000000000000000000000000000000000000000000000000000000000000000000000000000000000000000000000000000000000000000000000000000000000000000000000000000000000000000000000000000000000000000000000000000000000000000000000000000000000000000000000000000000000
310
00000000000000000000000000000000000000000000000000000000000000000000000000000000000000000000000000000000000000000000000000000000000000000000000000000000000000000000000000000000000000000000000000000000000000000000000000000000000000000000000000000000000000
310
0000000000000000000000000000000000000000
  0
XRECORD
  5
59F7
102
{ACAD_REACTORS
330
3AC5
102
}
330
3AC5
100
AcDbXrecord
280
     1
102
MATERIAL
148
0.0
149
0.0
149
0.0
 93
        0
 94
      127
282
     0
 72
     0
 77
     0
171
     0
175
     0
179
     0
273
     0
  0
XRECORD
  5
3AC7
102
{ACAD_REACTORS
330
3AC5
102
}
330
3AC5
100
AcDbXrecord
280
     1
270
     1
271
     1
  0
XRECORD
  5
3AC6
102
{ACAD_REACTORS
330
3AC5
102
}
330
3AC5
100
AcDbXrecord
280
     1
270
     1
271
     1
  0
XRECORD
  5
3ACA
102
{ACAD_REACTORS
330
3AC5
102
}
330
3AC5
100
AcDbXrecord
280
     1
270
     1
271
     1
  0
XRECORD
  5
3AC9
102
{ACAD_REACTORS
330
3AC5
102
}
330
3AC5
100
AcDbXrecord
280
     1
270
     1
271
     1
  0
XRECORD
  5
3ACB
102
{ACAD_REACTORS
330
3AC5
102
}
330
3AC5
100
AcDbXrecord
280
     1
270
     1
271
     1
  0
XRECORD
  5
3AC8
102
{ACAD_REACTORS
330
3AC5
102
}
330
3AC5
100
AcDbXrecord
280
     1
270
     1
271
     1
  0
XRECORD
  5
59F6
102
{ACAD_REACTORS
330
3ABD
102
}
330
3ABD
100
AcDbXrecord
280
     1
102
MATERIAL
148
0.0
149
0.0
149
0.0
 93
        0
 94
      127
282
     0
 72
     0
 77
     0
171
     0
175
     0
179
     0
273
     0
  0
XRECORD
  5
3ABF
102
{ACAD_REACTORS
330
3ABD
102
}
330
3ABD
100
AcDbXrecord
280
     1
270
     1
271
     1
  0
XRECORD
  5
3ABE
102
{ACAD_REACTORS
330
3ABD
102
}
330
3ABD
100
AcDbXrecord
280
     1
270
     1
271
     1
  0
XRECORD
  5
3AC2
102
{ACAD_REACTORS
330
3ABD
102
}
330
3ABD
100
AcDbXrecord
280
     1
270
     1
271
     1
  0
XRECORD
  5
3AC1
102
{ACAD_REACTORS
330
3ABD
102
}
330
3ABD
100
AcDbXrecord
280
     1
270
     1
271
     1
  0
XRECORD
  5
3AC3
102
{ACAD_REACTORS
330
3ABD
102
}
330
3ABD
100
AcDbXrecord
280
     1
270
     1
271
     1
  0
XRECORD
  5
3AC0
102
{ACAD_REACTORS
330
3ABD
102
}
330
3ABD
100
AcDbXrecord
280
     1
270
     1
271
     1
  0
XRECORD
  5
59F8
102
{ACAD_REACTORS
330
3ACD
102
}
330
3ACD
100
AcDbXrecord
280
     1
102
MATERIAL
148
0.0
149
0.0
149
0.0
 93
        0
 94
      127
282
     0
 72
     0
 77
     0
171
     0
175
     0
179
     0
273
     0
  0
XRECORD
  5
3ACF
102
{ACAD_REACTORS
330
3ACD
102
}
330
3ACD
100
AcDbXrecord
280
     1
270
     1
271
     1
  0
XRECORD
  5
3ACE
102
{ACAD_REACTORS
330
3ACD
102
}
330
3ACD
100
AcDbXrecord
280
     1
270
     1
271
     1
  0
XRECORD
  5
3AD2
102
{ACAD_REACTORS
330
3ACD
102
}
330
3ACD
100
AcDbXrecord
280
     1
270
     1
271
     1
  0
XRECORD
  5
3AD1
102
{ACAD_REACTORS
330
3ACD
102
}
330
3ACD
100
AcDbXrecord
280
     1
270
     1
271
     1
  0
XRECORD
  5
3AD3
102
{ACAD_REACTORS
330
3ACD
102
}
330
3ACD
100
AcDbXrecord
280
     1
270
     1
271
     1
  0
XRECORD
  5
3AD0
102
{ACAD_REACTORS
330
3ACD
102
}
330
3ACD
100
AcDbXrecord
280
     1
270
     1
271
     1
  0
CELLSTYLEMAP
  5
59EF
102
{ACAD_REACTORS
330
3C59
102
}
330
3C59
100
AcDbCellStyleMap
 90
        3
300
CELLSTYLE
  1
TABLEFORMAT_BEGIN
 90
        5
170
     1
 91
        0
 92
    32768
 62
   257
 93
        1
300
CONTENTFORMAT
  1
CONTENTFORMAT_BEGIN
 90
        0
 91
        0
 92
      512
 93
        0
300

 40
0.0
140
1.0
 94
        5
 62
     0
340
11
144
6.0
309
CONTENTFORMAT_END
171
     1
301
MARGIN
  1
CELLMARGIN_BEGIN
 40
1.5
 40
1.5
 40
1.5
 40
1.5
 40
4.5
 40
4.5
309
CELLMARGIN_END
 94
        6
 95
        1
302
GRIDFORMAT
  1
GRIDFORMAT_BEGIN
 90
        0
 91
        1
 62
     0
 92
       -2
340
0
 93
        0
 40
1.125
309
GRIDFORMAT_END
 95
        2
302
GRIDFORMAT
  1
GRIDFORMAT_BEGIN
 90
        0
 91
        1
 62
     0
 92
       -2
340
0
 93
        0
 40
1.125
309
GRIDFORMAT_END
 95
        4
302
GRIDFORMAT
  1
GRIDFORMAT_BEGIN
 90
        0
 91
        1
 62
     0
 92
       -2
340
0
 93
        0
 40
1.125
309
GRIDFORMAT_END
 95
        8
302
GRIDFORMAT
  1
GRIDFORMAT_BEGIN
 90
        0
 91
        1
 62
     0
 92
       -2
340
0
 93
        0
 40
1.125
309
GRIDFORMAT_END
 95
       16
302
GRIDFORMAT
  1
GRIDFORMAT_BEGIN
 90
        0
 91
        1
 62
     0
 92
       -2
340
0
 93
        0
 40
1.125
309
GRIDFORMAT_END
 95
       32
302
GRIDFORMAT
  1
GRIDFORMAT_BEGIN
 90
        0
 91
        1
 62
     0
 92
       -2
340
0
 93
        0
 40
1.125
309
GRIDFORMAT_END
309
TABLEFORMAT_END
  1
CELLSTYLE_BEGIN
 90
        1
 91
        1
300
_TITLE
309
CELLSTYLE_END
300
CELLSTYLE
  1
TABLEFORMAT_BEGIN
 90
        5
170
     1
 91
        0
 92
        0
 62
   257
 93
        1
300
CONTENTFORMAT
  1
CONTENTFORMAT_BEGIN
 90
        0
 91
        0
 92
      512
 93
        0
300

 40
0.0
140
1.0
 94
        5
 62
     0
340
11
144
4.5
309
CONTENTFORMAT_END
171
     1
301
MARGIN
  1
CELLMARGIN_BEGIN
 40
1.5
 40
1.5
 40
1.5
 40
1.5
 40
4.5
 40
4.5
309
CELLMARGIN_END
 94
        6
 95
        1
302
GRIDFORMAT
  1
GRIDFORMAT_BEGIN
 90
        0
 91
        1
 62
     0
 92
       -2
340
0
 93
        0
 40
1.125
309
GRIDFORMAT_END
 95
        2
302
GRIDFORMAT
  1
GRIDFORMAT_BEGIN
 90
        0
 91
        1
 62
     0
 92
       -2
340
0
 93
        0
 40
1.125
309
GRIDFORMAT_END
 95
        4
302
GRIDFORMAT
  1
GRIDFORMAT_BEGIN
 90
        0
 91
        1
 62
     0
 92
       -2
340
0
 93
        0
 40
1.125
309
GRIDFORMAT_END
 95
        8
302
GRIDFORMAT
  1
GRIDFORMAT_BEGIN
 90
        0
 91
        1
 62
     0
 92
       -2
340
0
 93
        0
 40
1.125
309
GRIDFORMAT_END
 95
       16
302
GRIDFORMAT
  1
GRIDFORMAT_BEGIN
 90
        0
 91
        1
 62
     0
 92
       -2
340
0
 93
        0
 40
1.125
309
GRIDFORMAT_END
 95
       32
302
GRIDFORMAT
  1
GRIDFORMAT_BEGIN
 90
        0
 91
        1
 62
     0
 92
       -2
340
0
 93
        0
 40
1.125
309
GRIDFORMAT_END
309
TABLEFORMAT_END
  1
CELLSTYLE_BEGIN
 90
        2
 91
        1
300
_HEADER
309
CELLSTYLE_END
300
CELLSTYLE
  1
TABLEFORMAT_BEGIN
 90
        5
170
     1
 91
        0
 92
        0
 62
   257
 93
        1
300
CONTENTFORMAT
  1
CONTENTFORMAT_BEGIN
 90
        0
 91
        0
 92
      512
 93
        0
300

 40
0.0
140
1.0
 94
        2
 62
     0
340
11
144
4.5
309
CONTENTFORMAT_END
171
     1
301
MARGIN
  1
CELLMARGIN_BEGIN
 40
1.5
 40
1.5
 40
1.5
 40
1.5
 40
4.5
 40
4.5
309
CELLMARGIN_END
 94
        6
 95
        1
302
GRIDFORMAT
  1
GRIDFORMAT_BEGIN
 90
        0
 91
        1
 62
     0
 92
       -2
340
0
 93
        0
 40
1.125
309
GRIDFORMAT_END
 95
        2
302
GRIDFORMAT
  1
GRIDFORMAT_BEGIN
 90
        0
 91
        1
 62
     0
 92
       -2
340
0
 93
        0
 40
1.125
309
GRIDFORMAT_END
 95
        4
302
GRIDFORMAT
  1
GRIDFORMAT_BEGIN
 90
        0
 91
        1
 62
     0
 92
       -2
340
0
 93
        0
 40
1.125
309
GRIDFORMAT_END
 95
        8
302
GRIDFORMAT
  1
GRIDFORMAT_BEGIN
 90
        0
 91
        1
 62
     0
 92
       -2
340
0
 93
        0
 40
1.125
309
GRIDFORMAT_END
 95
       16
302
GRIDFORMAT
  1
GRIDFORMAT_BEGIN
 90
        0
 91
        1
 62
     0
 92
       -2
340
0
 93
        0
 40
1.125
309
GRIDFORMAT_END
 95
       32
302
GRIDFORMAT
  1
GRIDFORMAT_BEGIN
 90
        0
 91
        1
 62
     0
 92
       -2
340
0
 93
        0
 40
1.125
309
GRIDFORMAT_END
309
TABLEFORMAT_END
  1
CELLSTYLE_BEGIN
 90
        3
 91
        2
300
_DATA
309
CELLSTYLE_END
  0
XRECORD
  5
5A19
102
{ACAD_REACTORS
330
3C59
102
}
330
3C59
100
AcDbXrecord
280
     1
102
ACAD_ROUNDTRIP_PRE2007_TABLESTYLE
 90
      512
 91
        0
  1

 92
      512
 93
        0
  2

 94
      512
 95
        0
  3

  0
XRECORD
  5
5A04
102
{ACAD_REACTORS
330
5A03
102
}
330
5A03
100
AcDbXrecord
280
     1
102
RTVSPropertyOp0
 70
     1
102
RTVSPropertyOp1
 70
     1
102
RTVSPropertyOp2
 70
     1
102
RTVSPropertyOp3
 70
     1
102
RTVSPropertyOp4
 70
     1
102
RTVSPropertyOp5
 70
     1
102
RTVSPropertyOp6
 70
     1
102
RTVSPropertyOp7
 70
     1
102
RTVSPropertyOp8
 70
     1
102
RTVSPropertyOp9
 70
     1
102
RTVSPropertyOp10
 70
     1
102
RTVSPropertyOp11
 70
     1
102
RTVSPropertyOp12
 70
     1
102
RTVSPropertyOp13
 70
     1
102
RTVSPropertyOp14
 70
     1
102
RTVSPropertyOp15
 70
     1
102
RTVSPropertyOp16
 70
     1
102
RTVSPropertyOp17
 70
     1
102
RTVSPropertyOp18
 70
     1
102
RTVSPropertyOp19
 70
     1
102
RTVSPropertyOp20
 70
     1
102
RTVSPropertyOp21
 70
     1
102
RTVSPropertyOp22
 70
     1
102
RTVSPropertyOp23
 70
     1
102
RTVSPropertyOp24
 70
     1
102
RTVSPropertyOp25
 70
     1
102
RTVSPropertyOp26
 70
     1
102
RTVSPropertyOp27
 70
     1
102
RTVSPropertyOp28
 70
     1
102
RTVSPropertyOp29
 70
     1
102
RTVSPropertyOp30
 70
     1
102
RTVSPropertyOp31
 70
     1
102
RTVSPropertyOp32
 70
     1
  0
XRECORD
  5
5A08
102
{ACAD_REACTORS
330
5A07
102
}
330
5A07
100
AcDbXrecord
280
     1
102
RTVSPropertyOp0
 70
     1
102
RTVSPropertyOp1
 70
     1
102
RTVSPropertyOp2
 70
     1
102
RTVSPropertyOp3
 70
     1
102
RTVSPropertyOp4
 70
     1
102
RTVSPropertyOp5
 70
     1
102
RTVSPropertyOp6
 70
     1
102
RTVSPropertyOp7
 70
     1
102
RTVSPropertyOp8
 70
     1
102
RTVSPropertyOp9
 70
     1
102
RTVSPropertyOp10
 70
     1
102
RTVSPropertyOp11
 70
     1
102
RTVSPropertyOp12
 70
     1
102
RTVSPropertyOp13
 70
     1
102
RTVSPropertyOp14
 70
     1
102
RTVSPropertyOp15
 70
     1
102
RTVSPropertyOp16
 70
     1
102
RTVSPropertyOp17
 70
     1
102
RTVSPropertyOp18
 70
     1
102
RTVSPropertyOp19
 70
     1
102
RTVSPropertyOp20
 70
     1
102
RTVSPropertyOp21
 70
     1
102
RTVSPropertyOp22
 70
     1
102
RTVSPropertyOp23
 70
     1
102
RTVSPropertyOp24
 70
     1
102
RTVSPropertyOp25
 70
     1
102
RTVSPropertyOp26
 70
     1
102
RTVSPropertyOp27
 70
     1
102
RTVSPropertyOp28
 70
     1
102
RTVSPropertyOp29
 70
     1
102
RTVSPropertyOp30
 70
     1
102
RTVSPropertyOp31
 70
     1
102
RTVSPropertyOp32
 70
     1
  0
XRECORD
  5
5A06
102
{ACAD_REACTORS
330
5A05
102
}
330
5A05
100
AcDbXrecord
280
     1
102
RTVSPropertyOp0
 70
     1
102
RTVSPropertyOp1
 70
     1
102
RTVSPropertyOp2
 70
     1
102
RTVSPropertyOp3
 70
     1
102
RTVSPropertyOp4
 70
     1
102
RTVSPropertyOp5
 70
     1
102
RTVSPropertyOp6
 70
     1
102
RTVSPropertyOp7
 70
     1
102
RTVSPropertyOp8
 70
     1
102
RTVSPropertyOp9
 70
     1
102
RTVSPropertyOp10
 70
     1
102
RTVSPropertyOp11
 70
     1
102
RTVSPropertyOp12
 70
     1
102
RTVSPropertyOp13
 70
     1
102
RTVSPropertyOp14
 70
     1
102
RTVSPropertyOp15
 70
     1
102
RTVSPropertyOp16
 70
     1
102
RTVSPropertyOp17
 70
     1
102
RTVSPropertyOp18
 70
     1
102
RTVSPropertyOp19
 70
     1
102
RTVSPropertyOp20
 70
     1
102
RTVSPropertyOp21
 70
     1
102
RTVSPropertyOp22
 70
     1
102
RTVSPropertyOp23
 70
     1
102
RTVSPropertyOp24
 70
     1
102
RTVSPropertyOp25
 70
     1
102
RTVSPropertyOp26
 70
     1
102
RTVSPropertyOp27
 70
     1
102
RTVSPropertyOp28
 70
     1
102
RTVSPropertyOp29
 70
     1
102
RTVSPropertyOp30
 70
     1
102
RTVSPropertyOp31
 70
     1
102
RTVSPropertyOp32
 70
     1
  0
XRECORD
  5
5A02
102
{ACAD_REACTORS
330
5A01
102
}
330
5A01
100
AcDbXrecord
280
     1
102
RTVSPropertyOp0
 70
     1
102
RTVSPropertyOp1
 70
     1
102
RTVSPropertyOp2
 70
     1
102
RTVSPropertyOp3
 70
     1
102
RTVSPropertyOp4
 70
     1
102
RTVSPropertyOp5
 70
     1
102
RTVSPropertyOp6
 70
     1
102
RTVSPropertyOp7
 70
     1
102
RTVSPropertyOp8
 70
     1
102
RTVSPropertyOp9
 70
     1
102
RTVSPropertyOp10
 70
     1
102
RTVSPropertyOp11
 70
     1
102
RTVSPropertyOp12
 70
     1
102
RTVSPropertyOp13
 70
     1
102
RTVSPropertyOp14
 70
     1
102
RTVSPropertyOp15
 70
     1
102
RTVSPropertyOp16
 70
     1
102
RTVSPropertyOp17
 70
     1
102
RTVSPropertyOp18
 70
     1
102
RTVSPropertyOp19
 70
     1
102
RTVSPropertyOp20
 70
     1
102
RTVSPropertyOp21
 70
     1
102
RTVSPropertyOp22
 70
     1
102
RTVSPropertyOp23
 70
     1
102
RTVSPropertyOp24
 70
     1
102
RTVSPropertyOp25
 70
     1
102
RTVSPropertyOp26
 70
     1
102
RTVSPropertyOp27
 70
     1
102
RTVSPropertyOp28
 70
     1
102
RTVSPropertyOp29
 70
     1
102
RTVSPropertyOp30
 70
     1
102
RTVSPropertyOp31
 70
     1
102
RTVSPropertyOp32
 70
     1
  0
XRECORD
  5
5A10
102
{ACAD_REACTORS
330
5A0F
102
}
330
5A0F
100
AcDbXrecord
280
     1
102
RTVSPropertyOp0
 70
     1
102
RTVSPropertyOp1
 70
     1
102
RTVSPropertyOp2
 70
     1
102
RTVSPropertyOp3
 70
     1
102
RTVSPropertyOp4
 70
     1
102
RTVSPropertyOp5
 70
     1
102
RTVSPropertyOp6
 70
     1
102
RTVSPropertyOp7
 70
     1
102
RTVSPropertyOp8
 70
     1
102
RTVSPropertyOp9
 70
     1
102
RTVSPropertyOp10
 70
     1
102
RTVSPropertyOp11
 70
     1
102
RTVSPropertyOp12
 70
     1
102
RTVSPropertyOp13
 70
     1
102
RTVSPropertyOp14
 70
     1
102
RTVSPropertyOp15
 70
     1
102
RTVSPropertyOp16
 70
     1
102
RTVSPropertyOp17
 70
     1
102
RTVSPropertyOp18
 70
     1
102
RTVSPropertyOp19
 70
     1
102
RTVSPropertyOp20
 70
     1
102
RTVSPropertyOp21
 70
     1
102
RTVSPropertyOp22
 70
     1
102
RTVSPropertyOp23
 70
     1
102
RTVSPropertyOp24
 70
     1
102
RTVSPropertyOp25
 70
     1
102
RTVSPropertyOp26
 70
     1
102
RTVSPropertyOp27
 70
     1
102
RTVSPropertyOp28
 70
     1
102
RTVSPropertyOp29
 70
     1
102
RTVSPropertyOp30
 70
     1
102
RTVSPropertyOp31
 70
     1
102
RTVSPropertyOp32
 70
     1
  0
XRECORD
  5
5A18
102
{ACAD_REACTORS
330
5A17
102
}
330
5A17
100
AcDbXrecord
280
     1
102
RTVSPropertyOp0
 70
     1
102
RTVSPropertyOp1
 70
     1
102
RTVSPropertyOp2
 70
     1
102
RTVSPropertyOp3
 70
     1
102
RTVSPropertyOp4
 70
     1
102
RTVSPropertyOp5
 70
     1
102
RTVSPropertyOp6
 70
     1
102
RTVSPropertyOp7
 70
     1
102
RTVSPropertyOp8
 70
     1
102
RTVSPropertyOp9
 70
     1
102
RTVSPropertyOp10
 70
     1
102
RTVSPropertyOp11
 70
     1
102
RTVSPropertyOp12
 70
     1
102
RTVSPropertyOp13
 70
     1
102
RTVSPropertyOp14
 70
     1
102
RTVSPropertyOp15
 70
     1
102
RTVSPropertyOp16
 70
     1
102
RTVSPropertyOp17
 70
     1
102
RTVSPropertyOp18
 70
     1
102
RTVSPropertyOp19
 70
     1
102
RTVSPropertyOp20
 70
     1
102
RTVSPropertyOp21
 70
     1
102
RTVSPropertyOp22
 70
     1
102
RTVSPropertyOp23
 70
     1
102
RTVSPropertyOp24
 70
     1
102
RTVSPropertyOp25
 70
     1
102
RTVSPropertyOp26
 70
     1
102
RTVSPropertyOp27
 70
     1
102
RTVSPropertyOp28
 70
     1
102
RTVSPropertyOp29
 70
     1
102
RTVSPropertyOp30
 70
     1
102
RTVSPropertyOp31
 70
     1
102
RTVSPropertyOp32
 70
     1
  0
XRECORD
  5
5A0A
102
{ACAD_REACTORS
330
5A09
102
}
330
5A09
100
AcDbXrecord
280
     1
102
RTVSPropertyOp0
 70
     1
102
RTVSPropertyOp1
 70
     1
102
RTVSPropertyOp2
 70
     1
102
RTVSPropertyOp3
 70
     1
102
RTVSPropertyOp4
 70
     1
102
RTVSPropertyOp5
 70
     1
102
RTVSPropertyOp6
 70
     1
102
RTVSPropertyOp7
 70
     1
102
RTVSPropertyOp8
 70
     1
102
RTVSPropertyOp9
 70
     1
102
RTVSPropertyOp10
 70
     1
102
RTVSPropertyOp11
 70
     1
102
RTVSPropertyOp12
 70
     1
102
RTVSPropertyOp13
 70
     1
102
RTVSPropertyOp14
 70
     1
102
RTVSPropertyOp15
 70
     1
102
RTVSPropertyOp16
 70
     1
102
RTVSPropertyOp17
 70
     1
102
RTVSPropertyOp18
 70
     1
102
RTVSPropertyOp19
 70
     1
102
RTVSPropertyOp20
 70
     1
102
RTVSPropertyOp21
 70
     1
102
RTVSPropertyOp22
 70
     1
102
RTVSPropertyOp23
 70
     1
102
RTVSPropertyOp24
 70
     1
102
RTVSPropertyOp25
 70
     1
102
RTVSPropertyOp26
 70
     1
102
RTVSPropertyOp27
 70
     1
102
RTVSPropertyOp28
 70
     1
102
RTVSPropertyOp29
 70
     1
102
RTVSPropertyOp30
 70
     1
102
RTVSPropertyOp31
 70
     1
102
RTVSPropertyOp32
 70
     1
  0
XRECORD
  5
5A0E
102
{ACAD_REACTORS
330
5A0D
102
}
330
5A0D
100
AcDbXrecord
280
     1
102
RTVSPropertyOp0
 70
     1
102
RTVSPropertyOp1
 70
     1
102
RTVSPropertyOp2
 70
     1
102
RTVSPropertyOp3
 70
     1
102
RTVSPropertyOp4
 70
     1
102
RTVSPropertyOp5
 70
     1
102
RTVSPropertyOp6
 70
     1
102
RTVSPropertyOp7
 70
     1
102
RTVSPropertyOp8
 70
     1
102
RTVSPropertyOp9
 70
     1
102
RTVSPropertyOp10
 70
     1
102
RTVSPropertyOp11
 70
     1
102
RTVSPropertyOp12
 70
     1
102
RTVSPropertyOp13
 70
     1
102
RTVSPropertyOp14
 70
     1
102
RTVSPropertyOp15
 70
     1
102
RTVSPropertyOp16
 70
     1
102
RTVSPropertyOp17
 70
     1
102
RTVSPropertyOp18
 70
     1
102
RTVSPropertyOp19
 70
     1
102
RTVSPropertyOp20
 70
     1
102
RTVSPropertyOp21
 70
     1
102
RTVSPropertyOp22
 70
     1
102
RTVSPropertyOp23
 70
     1
102
RTVSPropertyOp24
 70
     1
102
RTVSPropertyOp25
 70
     1
102
RTVSPropertyOp26
 70
     1
102
RTVSPropertyOp27
 70
     1
102
RTVSPropertyOp28
 70
     1
102
RTVSPropertyOp29
 70
     1
102
RTVSPropertyOp30
 70
     1
102
RTVSPropertyOp31
 70
     1
102
RTVSPropertyOp32
 70
     1
  0
XRECORD
  5
5A2D
102
{ACAD_REACTORS
330
5A2C
102
}
330
5A2C
100
AcDbXrecord
280
     1
102
RTVSPropertyOp0
 70
     0
102
RTVSPropertyOp1
 70
     0
102
RTVSPropertyOp2
 70
     0
102
RTVSPropertyOp3
 70
     0
102
RTVSPropertyOp4
 70
     0
102
RTVSPropertyOp5
 70
     0
102
RTVSPropertyOp6
 70
     0
102
RTVSPropertyOp7
 70
     0
102
RTVSPropertyOp8
 70
     0
102
RTVSPropertyOp9
 70
     0
102
RTVSPropertyOp10
 70
     0
102
RTVSPropertyOp11
 70
     0
102
RTVSPropertyOp12
 70
     0
102
RTVSPropertyOp13
 70
     0
102
RTVSPropertyOp14
 70
     2
102
RTVSPropertyOp15
 70
     0
102
RTVSPropertyOp16
 70
     0
102
RTVSPropertyOp17
 70
     0
102
RTVSPropertyOp18
 70
     0
102
RTVSPropertyOp19
 70
     0
102
RTVSPropertyOp20
 70
     0
102
RTVSPropertyOp21
 70
     0
102
RTVSPropertyOp22
 70
     0
102
RTVSPropertyOp23
 70
     0
102
RTVSPropertyOp24
 70
     0
102
RTVSPropertyOp25
 70
     0
102
RTVSPropertyOp26
 70
     0
102
RTVSPropertyOp27
 70
     0
102
RTVSPropertyOp28
 70
     1
102
RTVSPropertyOp29
 70
     1
102
RTVSPropertyOp30
 70
     1
102
RTVSPropertyOp31
 70
     1
102
RTVSPropertyOp32
 70
     1
  0
XRECORD
  5
5A16
102
{ACAD_REACTORS
330
5A15
102
}
330
5A15
100
AcDbXrecord
280
     1
102
RTVSPropertyOp0
 70
     1
102
RTVSPropertyOp1
 70
     1
102
RTVSPropertyOp2
 70
     1
102
RTVSPropertyOp3
 70
     1
102
RTVSPropertyOp4
 70
     1
102
RTVSPropertyOp5
 70
     1
102
RTVSPropertyOp6
 70
     1
102
RTVSPropertyOp7
 70
     1
102
RTVSPropertyOp8
 70
     1
102
RTVSPropertyOp9
 70
     1
102
RTVSPropertyOp10
 70
     1
102
RTVSPropertyOp11
 70
     1
102
RTVSPropertyOp12
 70
     1
102
RTVSPropertyOp13
 70
     1
102
RTVSPropertyOp14
 70
     1
102
RTVSPropertyOp15
 70
     1
102
RTVSPropertyOp16
 70
     1
102
RTVSPropertyOp17
 70
     1
102
RTVSPropertyOp18
 70
     1
102
RTVSPropertyOp19
 70
     1
102
RTVSPropertyOp20
 70
     1
102
RTVSPropertyOp21
 70
     1
102
RTVSPropertyOp22
 70
     1
102
RTVSPropertyOp23
 70
     1
102
RTVSPropertyOp24
 70
     1
102
RTVSPropertyOp25
 70
     1
102
RTVSPropertyOp26
 70
     1
102
RTVSPropertyOp27
 70
     1
102
RTVSPropertyOp28
 70
     1
102
RTVSPropertyOp29
 70
     1
102
RTVSPropertyOp30
 70
     1
102
RTVSPropertyOp31
 70
     1
102
RTVSPropertyOp32
 70
     1
  0
XRECORD
  5
59FA
102
{ACAD_REACTORS
330
59F9
102
}
330
59F9
100
AcDbXrecord
280
     1
102
RTVSPropertyOp0
 70
     1
102
RTVSPropertyOp1
 70
     1
102
RTVSPropertyOp2
 70
     1
102
RTVSPropertyOp3
 70
     1
102
RTVSPropertyOp4
 70
     1
102
RTVSPropertyOp5
 70
     1
102
RTVSPropertyOp6
 70
     1
102
RTVSPropertyOp7
 70
     1
102
RTVSPropertyOp8
 70
     1
102
RTVSPropertyOp9
 70
     1
102
RTVSPropertyOp10
 70
     1
102
RTVSPropertyOp11
 70
     1
102
RTVSPropertyOp12
 70
     1
102
RTVSPropertyOp13
 70
     1
102
RTVSPropertyOp14
 70
     1
102
RTVSPropertyOp15
 70
     1
102
RTVSPropertyOp16
 70
     1
102
RTVSPropertyOp17
 70
     1
102
RTVSPropertyOp18
 70
     1
102
RTVSPropertyOp19
 70
     1
102
RTVSPropertyOp20
 70
     1
102
RTVSPropertyOp21
 70
     1
102
RTVSPropertyOp22
 70
     1
102
RTVSPropertyOp23
 70
     1
102
RTVSPropertyOp24
 70
     1
102
RTVSPropertyOp25
 70
     1
102
RTVSPropertyOp26
 70
     1
102
RTVSPropertyOp27
 70
     1
102
RTVSPropertyOp28
 70
     1
102
RTVSPropertyOp29
 70
     1
102
RTVSPropertyOp30
 70
     1
102
RTVSPropertyOp31
 70
     1
102
RTVSPropertyOp32
 70
     1
  0
XRECORD
  5
59FC
102
{ACAD_REACTORS
330
59FB
102
}
330
59FB
100
AcDbXrecord
280
     1
102
RTVSPropertyOp0
 70
     1
102
RTVSPropertyOp1
 70
     1
102
RTVSPropertyOp2
 70
     1
102
RTVSPropertyOp3
 70
     1
102
RTVSPropertyOp4
 70
     1
102
RTVSPropertyOp5
 70
     1
102
RTVSPropertyOp6
 70
     1
102
RTVSPropertyOp7
 70
     1
102
RTVSPropertyOp8
 70
     1
102
RTVSPropertyOp9
 70
     1
102
RTVSPropertyOp10
 70
     1
102
RTVSPropertyOp11
 70
     1
102
RTVSPropertyOp12
 70
     1
102
RTVSPropertyOp13
 70
     1
102
RTVSPropertyOp14
 70
     1
102
RTVSPropertyOp15
 70
     1
102
RTVSPropertyOp16
 70
     1
102
RTVSPropertyOp17
 70
     1
102
RTVSPropertyOp18
 70
     1
102
RTVSPropertyOp19
 70
     1
102
RTVSPropertyOp20
 70
     1
102
RTVSPropertyOp21
 70
     1
102
RTVSPropertyOp22
 70
     1
102
RTVSPropertyOp23
 70
     1
102
RTVSPropertyOp24
 70
     1
102
RTVSPropertyOp25
 70
     1
102
RTVSPropertyOp26
 70
     1
102
RTVSPropertyOp27
 70
     1
102
RTVSPropertyOp28
 70
     1
102
RTVSPropertyOp29
 70
     1
102
RTVSPropertyOp30
 70
     1
102
RTVSPropertyOp31
 70
     1
102
RTVSPropertyOp32
 70
     1
  0
XRECORD
  5
59FE
102
{ACAD_REACTORS
330
59FD
102
}
330
59FD
100
AcDbXrecord
280
     1
102
RTVSPropertyOp0
 70
     1
102
RTVSPropertyOp1
 70
     1
102
RTVSPropertyOp2
 70
     1
102
RTVSPropertyOp3
 70
     1
102
RTVSPropertyOp4
 70
     1
102
RTVSPropertyOp5
 70
     1
102
RTVSPropertyOp6
 70
     1
102
RTVSPropertyOp7
 70
     1
102
RTVSPropertyOp8
 70
     1
102
RTVSPropertyOp9
 70
     1
102
RTVSPropertyOp10
 70
     1
102
RTVSPropertyOp11
 70
     1
102
RTVSPropertyOp12
 70
     1
102
RTVSPropertyOp13
 70
     1
102
RTVSPropertyOp14
 70
     1
102
RTVSPropertyOp15
 70
     1
102
RTVSPropertyOp16
 70
     1
102
RTVSPropertyOp17
 70
     1
102
RTVSPropertyOp18
 70
     1
102
RTVSPropertyOp19
 70
     1
102
RTVSPropertyOp20
 70
     1
102
RTVSPropertyOp21
 70
     1
102
RTVSPropertyOp22
 70
     1
102
RTVSPropertyOp23
 70
     1
102
RTVSPropertyOp24
 70
     1
102
RTVSPropertyOp25
 70
     1
102
RTVSPropertyOp26
 70
     1
102
RTVSPropertyOp27
 70
     1
102
RTVSPropertyOp28
 70
     1
102
RTVSPropertyOp29
 70
     1
102
RTVSPropertyOp30
 70
     1
102
RTVSPropertyOp31
 70
     1
102
RTVSPropertyOp32
 70
     1
  0
XRECORD
  5
5A00
102
{ACAD_REACTORS
330
59FF
102
}
330
59FF
100
AcDbXrecord
280
     1
102
RTVSPropertyOp0
 70
     1
102
RTVSPropertyOp1
 70
     1
102
RTVSPropertyOp2
 70
     1
102
RTVSPropertyOp3
 70
     1
102
RTVSPropertyOp4
 70
     1
102
RTVSPropertyOp5
 70
     1
102
RTVSPropertyOp6
 70
     1
102
RTVSPropertyOp7
 70
     1
102
RTVSPropertyOp8
 70
     1
102
RTVSPropertyOp9
 70
     1
102
RTVSPropertyOp10
 70
     1
102
RTVSPropertyOp11
 70
     1
102
RTVSPropertyOp12
 70
     1
102
RTVSPropertyOp13
 70
     1
102
RTVSPropertyOp14
 70
     1
102
RTVSPropertyOp15
 70
     1
102
RTVSPropertyOp16
 70
     1
102
RTVSPropertyOp17
 70
     1
102
RTVSPropertyOp18
 70
     1
102
RTVSPropertyOp19
 70
     1
102
RTVSPropertyOp20
 70
     1
102
RTVSPropertyOp21
 70
     1
102
RTVSPropertyOp22
 70
     1
102
RTVSPropertyOp23
 70
     1
102
RTVSPropertyOp24
 70
     1
102
RTVSPropertyOp25
 70
     1
102
RTVSPropertyOp26
 70
     1
102
RTVSPropertyOp27
 70
     1
102
RTVSPropertyOp28
 70
     1
102
RTVSPropertyOp29
 70
     1
102
RTVSPropertyOp30
 70
     1
102
RTVSPropertyOp31
 70
     1
102
RTVSPropertyOp32
 70
     1
  0
XRECORD
  5
5A1D
102
{ACAD_REACTORS
330
5A1C
102
}
330
5A1C
100
AcDbXrecord
280
     1
102
RTVSPropertyOp0
 70
     1
102
RTVSPropertyOp1
 70
     1
102
RTVSPropertyOp2
 70
     1
102
RTVSPropertyOp3
 70
     1
102
RTVSPropertyOp4
 70
     1
102
RTVSPropertyOp5
 70
     1
102
RTVSPropertyOp6
 70
     1
102
RTVSPropertyOp7
 70
     1
102
RTVSPropertyOp8
 70
     1
102
RTVSPropertyOp9
 70
     1
102
RTVSPropertyOp10
 70
     1
102
RTVSPropertyOp11
 70
     1
102
RTVSPropertyOp12
 70
     1
102
RTVSPropertyOp13
 70
     1
102
RTVSPropertyOp14
 70
     1
102
RTVSPropertyOp15
 70
     1
102
RTVSPropertyOp16
 70
     1
102
RTVSPropertyOp17
 70
     1
102
RTVSPropertyOp18
 70
     1
102
RTVSPropertyOp19
 70
     1
102
RTVSPropertyOp20
 70
     1
102
RTVSPropertyOp21
 70
     1
102
RTVSPropertyOp22
 70
     1
102
RTVSPropertyOp23
 70
     1
102
RTVSPropertyOp24
 70
     1
102
RTVSPropertyOp25
 70
     1
102
RTVSPropertyOp26
 70
     1
102
RTVSPropertyOp27
 70
     1
102
RTVSPropertyOp28
 70
     1
102
RTVSPropertyOp29
 70
     1
102
RTVSPropertyOp30
 70
     1
102
RTVSPropertyOp31
 70
     1
102
RTVSPropertyOp32
 70
     1
  0
XRECORD
  5
5A29
102
{ACAD_REACTORS
330
5A28
102
}
330
5A28
100
AcDbXrecord
280
     1
102
RTVSPropertyOp0
 70
     0
102
RTVSPropertyOp1
 70
     0
102
RTVSPropertyOp2
 70
     0
102
RTVSPropertyOp3
 70
     0
102
RTVSPropertyOp4
 70
     0
102
RTVSPropertyOp5
 70
     0
102
RTVSPropertyOp6
 70
     0
102
RTVSPropertyOp7
 70
     0
102
RTVSPropertyOp8
 70
     0
102
RTVSPropertyOp9
 70
     0
102
RTVSPropertyOp10
 70
     0
102
RTVSPropertyOp11
 70
     0
102
RTVSPropertyOp12
 70
     0
102
RTVSPropertyOp13
 70
     0
102
RTVSPropertyOp14
 70
     2
102
RTVSPropertyOp15
 70
     0
102
RTVSPropertyOp16
 70
     0
102
RTVSPropertyOp17
 70
     0
102
RTVSPropertyOp18
 70
     0
102
RTVSPropertyOp19
 70
     0
102
RTVSPropertyOp20
 70
     0
102
RTVSPropertyOp21
 70
     0
102
RTVSPropertyOp22
 70
     0
102
RTVSPropertyOp23
 70
     0
102
RTVSPropertyOp24
 70
     0
102
RTVSPropertyOp25
 70
     0
102
RTVSPropertyOp26
 70
     0
102
RTVSPropertyOp27
 70
     0
102
RTVSPropertyOp28
 70
     1
102
RTVSPropertyOp29
 70
     1
102
RTVSPropertyOp30
 70
     1
102
RTVSPropertyOp31
 70
     1
102
RTVSPropertyOp32
 70
     1
  0
XRECORD
  5
5A14
102
{ACAD_REACTORS
330
5A13
102
}
330
5A13
100
AcDbXrecord
280
     1
102
RTVSPropertyOp0
 70
     1
102
RTVSPropertyOp1
 70
     1
102
RTVSPropertyOp2
 70
     1
102
RTVSPropertyOp3
 70
     1
102
RTVSPropertyOp4
 70
     1
102
RTVSPropertyOp5
 70
     1
102
RTVSPropertyOp6
 70
     1
102
RTVSPropertyOp7
 70
     1
102
RTVSPropertyOp8
 70
     1
102
RTVSPropertyOp9
 70
     1
102
RTVSPropertyOp10
 70
     1
102
RTVSPropertyOp11
 70
     1
102
RTVSPropertyOp12
 70
     1
102
RTVSPropertyOp13
 70
     1
102
RTVSPropertyOp14
 70
     1
102
RTVSPropertyOp15
 70
     1
102
RTVSPropertyOp16
 70
     1
102
RTVSPropertyOp17
 70
     1
102
RTVSPropertyOp18
 70
     1
102
RTVSPropertyOp19
 70
     1
102
RTVSPropertyOp20
 70
     1
102
RTVSPropertyOp21
 70
     1
102
RTVSPropertyOp22
 70
     1
102
RTVSPropertyOp23
 70
     1
102
RTVSPropertyOp24
 70
     1
102
RTVSPropertyOp25
 70
     1
102
RTVSPropertyOp26
 70
     1
102
RTVSPropertyOp27
 70
     1
102
RTVSPropertyOp28
 70
     1
102
RTVSPropertyOp29
 70
     1
102
RTVSPropertyOp30
 70
     1
102
RTVSPropertyOp31
 70
     1
102
RTVSPropertyOp32
 70
     1
  0
XRECORD
  5
5A2B
102
{ACAD_REACTORS
330
5A2A
102
}
330
5A2A
100
AcDbXrecord
280
     1
102
RTVSPropertyOp0
 70
     0
102
RTVSPropertyOp1
 70
     0
102
RTVSPropertyOp2
 70
     0
102
RTVSPropertyOp3
 70
     0
102
RTVSPropertyOp4
 70
     0
102
RTVSPropertyOp5
 70
     0
102
RTVSPropertyOp6
 70
     0
102
RTVSPropertyOp7
 70
     0
102
RTVSPropertyOp8
 70
     0
102
RTVSPropertyOp9
 70
     0
102
RTVSPropertyOp10
 70
     0
102
RTVSPropertyOp11
 70
     0
102
RTVSPropertyOp12
 70
     0
102
RTVSPropertyOp13
 70
     0
102
RTVSPropertyOp14
 70
     2
102
RTVSPropertyOp15
 70
     0
102
RTVSPropertyOp16
 70
     0
102
RTVSPropertyOp17
 70
     0
102
RTVSPropertyOp18
 70
     0
102
RTVSPropertyOp19
 70
     0
102
RTVSPropertyOp20
 70
     0
102
RTVSPropertyOp21
 70
     0
102
RTVSPropertyOp22
 70
     0
102
RTVSPropertyOp23
 70
     0
102
RTVSPropertyOp24
 70
     0
102
RTVSPropertyOp25
 70
     0
102
RTVSPropertyOp26
 70
     0
102
RTVSPropertyOp27
 70
     0
102
RTVSPropertyOp28
 70
     1
102
RTVSPropertyOp29
 70
     1
102
RTVSPropertyOp30
 70
     1
102
RTVSPropertyOp31
 70
     1
102
RTVSPropertyOp32
 70
     1
  0
XRECORD
  5
5A0C
102
{ACAD_REACTORS
330
5A0B
102
}
330
5A0B
100
AcDbXrecord
280
     1
102
RTVSPropertyOp0
 70
     1
102
RTVSPropertyOp1
 70
     1
102
RTVSPropertyOp2
 70
     1
102
RTVSPropertyOp3
 70
     1
102
RTVSPropertyOp4
 70
     1
102
RTVSPropertyOp5
 70
     1
102
RTVSPropertyOp6
 70
     1
102
RTVSPropertyOp7
 70
     1
102
RTVSPropertyOp8
 70
     1
102
RTVSPropertyOp9
 70
     1
102
RTVSPropertyOp10
 70
     1
102
RTVSPropertyOp11
 70
     1
102
RTVSPropertyOp12
 70
     1
102
RTVSPropertyOp13
 70
     1
102
RTVSPropertyOp14
 70
     1
102
RTVSPropertyOp15
 70
     1
102
RTVSPropertyOp16
 70
     1
102
RTVSPropertyOp17
 70
     1
102
RTVSPropertyOp18
 70
     1
102
RTVSPropertyOp19
 70
     1
102
RTVSPropertyOp20
 70
     1
102
RTVSPropertyOp21
 70
     1
102
RTVSPropertyOp22
 70
     1
102
RTVSPropertyOp23
 70
     1
102
RTVSPropertyOp24
 70
     1
102
RTVSPropertyOp25
 70
     1
102
RTVSPropertyOp26
 70
     1
102
RTVSPropertyOp27
 70
     1
102
RTVSPropertyOp28
 70
     1
102
RTVSPropertyOp29
 70
     1
102
RTVSPropertyOp30
 70
     1
102
RTVSPropertyOp31
 70
     1
102
RTVSPropertyOp32
 70
     1
  0
XRECORD
  5
5A27
102
{ACAD_REACTORS
330
5A26
102
}
330
5A26
100
AcDbXrecord
280
     1
102
RTVSPropertyOp0
 70
     1
102
RTVSPropertyOp1
 70
     1
102
RTVSPropertyOp2
 70
     1
102
RTVSPropertyOp3
 70
     1
102
RTVSPropertyOp4
 70
     1
102
RTVSPropertyOp5
 70
     1
102
RTVSPropertyOp6
 70
     1
102
RTVSPropertyOp7
 70
     1
102
RTVSPropertyOp8
 70
     1
102
RTVSPropertyOp9
 70
     1
102
RTVSPropertyOp10
 70
     1
102
RTVSPropertyOp11
 70
     1
102
RTVSPropertyOp12
 70
     1
102
RTVSPropertyOp13
 70
     1
102
RTVSPropertyOp14
 70
     1
102
RTVSPropertyOp15
 70
     1
102
RTVSPropertyOp16
 70
     1
102
RTVSPropertyOp17
 70
     1
102
RTVSPropertyOp18
 70
     1
102
RTVSPropertyOp19
 70
     1
102
RTVSPropertyOp20
 70
     1
102
RTVSPropertyOp21
 70
     1
102
RTVSPropertyOp22
 70
     1
102
RTVSPropertyOp23
 70
     1
102
RTVSPropertyOp24
 70
     1
102
RTVSPropertyOp25
 70
     1
102
RTVSPropertyOp26
 70
     1
102
RTVSPropertyOp27
 70
     1
102
RTVSPropertyOp28
 70
     1
102
RTVSPropertyOp29
 70
     1
102
RTVSPropertyOp30
 70
     1
102
RTVSPropertyOp31
 70
     1
102
RTVSPropertyOp32
 70
     1
  0
XRECORD
  5
5A25
102
{ACAD_REACTORS
330
5A24
102
}
330
5A24
100
AcDbXrecord
280
     1
102
RTVSPropertyOp0
 70
     1
102
RTVSPropertyOp1
 70
     1
102
RTVSPropertyOp2
 70
     1
102
RTVSPropertyOp3
 70
     1
102
RTVSPropertyOp4
 70
     1
102
RTVSPropertyOp5
 70
     1
102
RTVSPropertyOp6
 70
     1
102
RTVSPropertyOp7
 70
     1
102
RTVSPropertyOp8
 70
     1
102
RTVSPropertyOp9
 70
     1
102
RTVSPropertyOp10
 70
     1
102
RTVSPropertyOp11
 70
     1
102
RTVSPropertyOp12
 70
     1
102
RTVSPropertyOp13
 70
     1
102
RTVSPropertyOp14
 70
     1
102
RTVSPropertyOp15
 70
     1
102
RTVSPropertyOp16
 70
     1
102
RTVSPropertyOp17
 70
     1
102
RTVSPropertyOp18
 70
     1
102
RTVSPropertyOp19
 70
     1
102
RTVSPropertyOp20
 70
     1
102
RTVSPropertyOp21
 70
     1
102
RTVSPropertyOp22
 70
     1
102
RTVSPropertyOp23
 70
     1
102
RTVSPropertyOp24
 70
     1
102
RTVSPropertyOp25
 70
     1
102
RTVSPropertyOp26
 70
     1
102
RTVSPropertyOp27
 70
     1
102
RTVSPropertyOp28
 70
     1
102
RTVSPropertyOp29
 70
     1
102
RTVSPropertyOp30
 70
     1
102
RTVSPropertyOp31
 70
     1
102
RTVSPropertyOp32
 70
     1
  0
XRECORD
  5
5A1F
102
{ACAD_REACTORS
330
5A1E
102
}
330
5A1E
100
AcDbXrecord
280
     1
102
RTVSPropertyOp0
 70
     1
102
RTVSPropertyOp1
 70
     1
102
RTVSPropertyOp2
 70
     1
102
RTVSPropertyOp3
 70
     1
102
RTVSPropertyOp4
 70
     1
102
RTVSPropertyOp5
 70
     1
102
RTVSPropertyOp6
 70
     1
102
RTVSPropertyOp7
 70
     1
102
RTVSPropertyOp8
 70
     1
102
RTVSPropertyOp9
 70
     1
102
RTVSPropertyOp10
 70
     1
102
RTVSPropertyOp11
 70
     1
102
RTVSPropertyOp12
 70
     1
102
RTVSPropertyOp13
 70
     1
102
RTVSPropertyOp14
 70
     1
102
RTVSPropertyOp15
 70
     1
102
RTVSPropertyOp16
 70
     1
102
RTVSPropertyOp17
 70
     1
102
RTVSPropertyOp18
 70
     1
102
RTVSPropertyOp19
 70
     1
102
RTVSPropertyOp20
 70
     1
102
RTVSPropertyOp21
 70
     1
102
RTVSPropertyOp22
 70
     1
102
RTVSPropertyOp23
 70
     1
102
RTVSPropertyOp24
 70
     1
102
RTVSPropertyOp25
 70
     1
102
RTVSPropertyOp26
 70
     1
102
RTVSPropertyOp27
 70
     1
102
RTVSPropertyOp28
 70
     1
102
RTVSPropertyOp29
 70
     1
102
RTVSPropertyOp30
 70
     1
102
RTVSPropertyOp31
 70
     1
102
RTVSPropertyOp32
 70
     1
  0
XRECORD
  5
5A21
102
{ACAD_REACTORS
330
5A20
102
}
330
5A20
100
AcDbXrecord
280
     1
102
RTVSPropertyOp0
 70
     1
102
RTVSPropertyOp1
 70
     1
102
RTVSPropertyOp2
 70
     1
102
RTVSPropertyOp3
 70
     1
102
RTVSPropertyOp4
 70
     1
102
RTVSPropertyOp5
 70
     1
102
RTVSPropertyOp6
 70
     1
102
RTVSPropertyOp7
 70
     1
102
RTVSPropertyOp8
 70
     1
102
RTVSPropertyOp9
 70
     1
102
RTVSPropertyOp10
 70
     1
102
RTVSPropertyOp11
 70
     1
102
RTVSPropertyOp12
 70
     1
102
RTVSPropertyOp13
 70
     1
102
RTVSPropertyOp14
 70
     1
102
RTVSPropertyOp15
 70
     1
102
RTVSPropertyOp16
 70
     1
102
RTVSPropertyOp17
 70
     1
102
RTVSPropertyOp18
 70
     1
102
RTVSPropertyOp19
 70
     1
102
RTVSPropertyOp20
 70
     1
102
RTVSPropertyOp21
 70
     1
102
RTVSPropertyOp22
 70
     1
102
RTVSPropertyOp23
 70
     1
102
RTVSPropertyOp24
 70
     1
102
RTVSPropertyOp25
 70
     1
102
RTVSPropertyOp26
 70
     1
102
RTVSPropertyOp27
 70
     1
102
RTVSPropertyOp28
 70
     1
102
RTVSPropertyOp29
 70
     1
102
RTVSPropertyOp30
 70
     1
102
RTVSPropertyOp31
 70
     1
102
RTVSPropertyOp32
 70
     1
  0
XRECORD
  5
5A12
102
{ACAD_REACTORS
330
5A11
102
}
330
5A11
100
AcDbXrecord
280
     1
102
RTVSPropertyOp0
 70
     1
102
RTVSPropertyOp1
 70
     1
102
RTVSPropertyOp2
 70
     1
102
RTVSPropertyOp3
 70
     1
102
RTVSPropertyOp4
 70
     1
102
RTVSPropertyOp5
 70
     1
102
RTVSPropertyOp6
 70
     1
102
RTVSPropertyOp7
 70
     1
102
RTVSPropertyOp8
 70
     1
102
RTVSPropertyOp9
 70
     1
102
RTVSPropertyOp10
 70
     1
102
RTVSPropertyOp11
 70
     1
102
RTVSPropertyOp12
 70
     1
102
RTVSPropertyOp13
 70
     1
102
RTVSPropertyOp14
 70
     1
102
RTVSPropertyOp15
 70
     1
102
RTVSPropertyOp16
 70
     1
102
RTVSPropertyOp17
 70
     1
102
RTVSPropertyOp18
 70
     1
102
RTVSPropertyOp19
 70
     1
102
RTVSPropertyOp20
 70
     1
102
RTVSPropertyOp21
 70
     1
102
RTVSPropertyOp22
 70
     1
102
RTVSPropertyOp23
 70
     1
102
RTVSPropertyOp24
 70
     1
102
RTVSPropertyOp25
 70
     1
102
RTVSPropertyOp26
 70
     1
102
RTVSPropertyOp27
 70
     1
102
RTVSPropertyOp28
 70
     1
102
RTVSPropertyOp29
 70
     1
102
RTVSPropertyOp30
 70
     1
102
RTVSPropertyOp31
 70
     1
102
RTVSPropertyOp32
 70
     1
  0
XRECORD
  5
5A1B
102
{ACAD_REACTORS
330
5A1A
102
}
330
5A1A
100
AcDbXrecord
280
     1
102
RTVSPropertyOp0
 70
     1
102
RTVSPropertyOp1
 70
     1
102
RTVSPropertyOp2
 70
     1
102
RTVSPropertyOp3
 70
     1
102
RTVSPropertyOp4
 70
     1
102
RTVSPropertyOp5
 70
     1
102
RTVSPropertyOp6
 70
     1
102
RTVSPropertyOp7
 70
     1
102
RTVSPropertyOp8
 70
     1
102
RTVSPropertyOp9
 70
     1
102
RTVSPropertyOp10
 70
     1
102
RTVSPropertyOp11
 70
     1
102
RTVSPropertyOp12
 70
     1
102
RTVSPropertyOp13
 70
     1
102
RTVSPropertyOp14
 70
     1
102
RTVSPropertyOp15
 70
     1
102
RTVSPropertyOp16
 70
     1
102
RTVSPropertyOp17
 70
     1
102
RTVSPropertyOp18
 70
     1
102
RTVSPropertyOp19
 70
     1
102
RTVSPropertyOp20
 70
     1
102
RTVSPropertyOp21
 70
     1
102
RTVSPropertyOp22
 70
     1
102
RTVSPropertyOp23
 70
     1
102
RTVSPropertyOp24
 70
     1
102
RTVSPropertyOp25
 70
     1
102
RTVSPropertyOp26
 70
     1
102
RTVSPropertyOp27
 70
     1
102
RTVSPropertyOp28
 70
     1
102
RTVSPropertyOp29
 70
     1
102
RTVSPropertyOp30
 70
     1
102
RTVSPropertyOp31
 70
     1
102
RTVSPropertyOp32
 70
     1
  0
XRECORD
  5
5A23
102
{ACAD_REACTORS
330
5A22
102
}
330
5A22
100
AcDbXrecord
280
     1
102
RTVSPropertyOp0
 70
     1
102
RTVSPropertyOp1
 70
     1
102
RTVSPropertyOp2
 70
     1
102
RTVSPropertyOp3
 70
     1
102
RTVSPropertyOp4
 70
     1
102
RTVSPropertyOp5
 70
     1
102
RTVSPropertyOp6
 70
     1
102
RTVSPropertyOp7
 70
     1
102
RTVSPropertyOp8
 70
     1
102
RTVSPropertyOp9
 70
     1
102
RTVSPropertyOp10
 70
     1
102
RTVSPropertyOp11
 70
     1
102
RTVSPropertyOp12
 70
     1
102
RTVSPropertyOp13
 70
     1
102
RTVSPropertyOp14
 70
     1
102
RTVSPropertyOp15
 70
     1
102
RTVSPropertyOp16
 70
     1
102
RTVSPropertyOp17
 70
     1
102
RTVSPropertyOp18
 70
     1
102
RTVSPropertyOp19
 70
     1
102
RTVSPropertyOp20
 70
     1
102
RTVSPropertyOp21
 70
     1
102
RTVSPropertyOp22
 70
     1
102
RTVSPropertyOp23
 70
     1
102
RTVSPropertyOp24
 70
     1
102
RTVSPropertyOp25
 70
     1
102
RTVSPropertyOp26
 70
     1
102
RTVSPropertyOp27
 70
     1
102
RTVSPropertyOp28
 70
     1
102
RTVSPropertyOp29
 70
     1
102
RTVSPropertyOp30
 70
     1
102
RTVSPropertyOp31
 70
     1
102
RTVSPropertyOp32
 70
     1
  0
ENDSEC
  0
EOF
