ISO-10303-21;
HEADER;
/* Generated by software containing ST-Developer
 * from STEP Tools, Inc. (www.steptools.com) 
 */
/* OPTION: using custom renumber hook */

FILE_DESCRIPTION(
/* description */ ('STEP AP242',
'CAx-IF Rec.Pracs.---Representation and Presentation of Product Manufa
cturing Information (PMI)---4.0---2014-10-13',
'CAx-IF Rec.Pracs.---3D Tessellated Geometry---0.4---2014-09-14','2;1'),

/* implementation_level */ '2;1');

FILE_NAME(
/* name */ 'eaton-zv_ss_80a-drawing',
/* time_stamp */ '2025-05-13T14:39:19+02:00',
/* author */ ('License CC BY-ND 4.0'),
/* organization */ ('CADENAS'),
/* preprocessor_version */ 'ST-DEVELOPER v19.3',
/* originating_system */ 'PARTsolutions',
/* authorisation */ '  ');

FILE_SCHEMA (('AP242_MANAGED_MODEL_BASED_3D_ENGINEERING_MIM_LF { 1 0 10303 442 1 1 4 }'));
ENDSEC;

DATA;
#10=SHAPE_REPRESENTATION_RELATIONSHIP('','',#157,#11);
#11=ADVANCED_BREP_SHAPE_REPRESENTATION('',(#155),#243);
#12=ORIENTED_EDGE('',*,*,#48,.T.);
#13=ORIENTED_EDGE('',*,*,#49,.F.);
#14=ORIENTED_EDGE('',*,*,#50,.F.);
#15=ORIENTED_EDGE('',*,*,#51,.T.);
#16=ORIENTED_EDGE('',*,*,#52,.T.);
#17=ORIENTED_EDGE('',*,*,#53,.F.);
#18=ORIENTED_EDGE('',*,*,#54,.F.);
#19=ORIENTED_EDGE('',*,*,#49,.T.);
#20=ORIENTED_EDGE('',*,*,#55,.T.);
#21=ORIENTED_EDGE('',*,*,#56,.F.);
#22=ORIENTED_EDGE('',*,*,#57,.F.);
#23=ORIENTED_EDGE('',*,*,#53,.T.);
#24=ORIENTED_EDGE('',*,*,#58,.T.);
#25=ORIENTED_EDGE('',*,*,#59,.F.);
#26=ORIENTED_EDGE('',*,*,#60,.F.);
#27=ORIENTED_EDGE('',*,*,#56,.T.);
#28=ORIENTED_EDGE('',*,*,#61,.T.);
#29=ORIENTED_EDGE('',*,*,#62,.F.);
#30=ORIENTED_EDGE('',*,*,#63,.F.);
#31=ORIENTED_EDGE('',*,*,#59,.T.);
#32=ORIENTED_EDGE('',*,*,#64,.T.);
#33=ORIENTED_EDGE('',*,*,#51,.F.);
#34=ORIENTED_EDGE('',*,*,#65,.F.);
#35=ORIENTED_EDGE('',*,*,#62,.T.);
#36=ORIENTED_EDGE('',*,*,#50,.T.);
#37=ORIENTED_EDGE('',*,*,#54,.T.);
#38=ORIENTED_EDGE('',*,*,#57,.T.);
#39=ORIENTED_EDGE('',*,*,#60,.T.);
#40=ORIENTED_EDGE('',*,*,#63,.T.);
#41=ORIENTED_EDGE('',*,*,#65,.T.);
#42=ORIENTED_EDGE('',*,*,#48,.F.);
#43=ORIENTED_EDGE('',*,*,#64,.F.);
#44=ORIENTED_EDGE('',*,*,#61,.F.);
#45=ORIENTED_EDGE('',*,*,#58,.F.);
#46=ORIENTED_EDGE('',*,*,#55,.F.);
#47=ORIENTED_EDGE('',*,*,#52,.F.);
#48=EDGE_CURVE('',#66,#67,#78,.T.);
#49=EDGE_CURVE('',#68,#67,#79,.T.);
#50=EDGE_CURVE('',#69,#68,#80,.T.);
#51=EDGE_CURVE('',#69,#66,#81,.T.);
#52=EDGE_CURVE('',#67,#70,#82,.T.);
#53=EDGE_CURVE('',#71,#70,#83,.T.);
#54=EDGE_CURVE('',#68,#71,#84,.T.);
#55=EDGE_CURVE('',#70,#72,#85,.T.);
#56=EDGE_CURVE('',#73,#72,#86,.T.);
#57=EDGE_CURVE('',#71,#73,#87,.T.);
#58=EDGE_CURVE('',#72,#74,#88,.T.);
#59=EDGE_CURVE('',#75,#74,#89,.T.);
#60=EDGE_CURVE('',#73,#75,#90,.T.);
#61=EDGE_CURVE('',#74,#76,#91,.T.);
#62=EDGE_CURVE('',#77,#76,#92,.T.);
#63=EDGE_CURVE('',#75,#77,#93,.T.);
#64=EDGE_CURVE('',#76,#66,#94,.T.);
#65=EDGE_CURVE('',#77,#69,#95,.T.);
#66=VERTEX_POINT('',#206);
#67=VERTEX_POINT('',#207);
#68=VERTEX_POINT('',#209);
#69=VERTEX_POINT('',#211);
#70=VERTEX_POINT('',#215);
#71=VERTEX_POINT('',#217);
#72=VERTEX_POINT('',#221);
#73=VERTEX_POINT('',#223);
#74=VERTEX_POINT('',#227);
#75=VERTEX_POINT('',#229);
#76=VERTEX_POINT('',#233);
#77=VERTEX_POINT('',#235);
#78=LINE('',#205,#96);
#79=LINE('',#208,#97);
#80=LINE('',#210,#98);
#81=LINE('',#212,#99);
#82=LINE('',#214,#100);
#83=LINE('',#216,#101);
#84=LINE('',#218,#102);
#85=LINE('',#220,#103);
#86=LINE('',#222,#104);
#87=LINE('',#224,#105);
#88=LINE('',#226,#106);
#89=LINE('',#228,#107);
#90=LINE('',#230,#108);
#91=LINE('',#232,#109);
#92=LINE('',#234,#110);
#93=LINE('',#236,#111);
#94=LINE('',#238,#112);
#95=LINE('',#239,#113);
#96=VECTOR('',#171,1000.);
#97=VECTOR('',#172,1000.);
#98=VECTOR('',#173,1000.);
#99=VECTOR('',#174,1000.);
#100=VECTOR('',#177,1000.);
#101=VECTOR('',#178,1000.);
#102=VECTOR('',#179,1000.);
#103=VECTOR('',#182,1000.);
#104=VECTOR('',#183,1000.);
#105=VECTOR('',#184,1000.);
#106=VECTOR('',#187,1000.);
#107=VECTOR('',#188,1000.);
#108=VECTOR('',#189,1000.);
#109=VECTOR('',#192,1000.);
#110=VECTOR('',#193,1000.);
#111=VECTOR('',#194,1000.);
#112=VECTOR('',#197,1000.);
#113=VECTOR('',#198,1000.);
#114=EDGE_LOOP('',(#12,#13,#14,#15));
#115=EDGE_LOOP('',(#16,#17,#18,#19));
#116=EDGE_LOOP('',(#20,#21,#22,#23));
#117=EDGE_LOOP('',(#24,#25,#26,#27));
#118=EDGE_LOOP('',(#28,#29,#30,#31));
#119=EDGE_LOOP('',(#32,#33,#34,#35));
#120=EDGE_LOOP('',(#36,#37,#38,#39,#40,#41));
#121=EDGE_LOOP('',(#42,#43,#44,#45,#46,#47));
#122=FACE_BOUND('',#114,.T.);
#123=FACE_BOUND('',#115,.T.);
#124=FACE_BOUND('',#116,.T.);
#125=FACE_BOUND('',#117,.T.);
#126=FACE_BOUND('',#118,.T.);
#127=FACE_BOUND('',#119,.T.);
#128=FACE_BOUND('',#120,.T.);
#129=FACE_BOUND('',#121,.T.);
#130=PLANE('',#159);
#131=PLANE('',#160);
#132=PLANE('',#161);
#133=PLANE('',#162);
#134=PLANE('',#163);
#135=PLANE('',#164);
#136=PLANE('',#165);
#137=PLANE('',#166);
#138=ADVANCED_FACE('',(#122),#130,.F.);
#139=ADVANCED_FACE('',(#123),#131,.F.);
#140=ADVANCED_FACE('',(#124),#132,.F.);
#141=ADVANCED_FACE('',(#125),#133,.F.);
#142=ADVANCED_FACE('',(#126),#134,.F.);
#143=ADVANCED_FACE('',(#127),#135,.F.);
#144=ADVANCED_FACE('',(#128),#136,.T.);
#145=ADVANCED_FACE('',(#129),#137,.F.);
#146=CLOSED_SHELL('',(#138,#139,#140,#141,#142,#143,#144,#145));
#147=STYLED_ITEM('',(#148),#155);
#148=PRESENTATION_STYLE_ASSIGNMENT((#149));
#149=SURFACE_STYLE_USAGE(.BOTH.,#150);
#150=SURFACE_SIDE_STYLE('',(#151));
#151=SURFACE_STYLE_FILL_AREA(#152);
#152=FILL_AREA_STYLE('',(#153));
#153=FILL_AREA_STYLE_COLOUR('',#154);
#154=COLOUR_RGB('',0.69803923368454,0.69803923368454,0.69803923368454);
#155=MANIFOLD_SOLID_BREP('263957',#146);
#156=SHAPE_DEFINITION_REPRESENTATION(#248,#157);
#157=SHAPE_REPRESENTATION('263957',(#158),#243);
#158=AXIS2_PLACEMENT_3D('',#203,#167,#168);
#159=AXIS2_PLACEMENT_3D('',#204,#169,#170);
#160=AXIS2_PLACEMENT_3D('',#213,#175,#176);
#161=AXIS2_PLACEMENT_3D('',#219,#180,#181);
#162=AXIS2_PLACEMENT_3D('',#225,#185,#186);
#163=AXIS2_PLACEMENT_3D('',#231,#190,#191);
#164=AXIS2_PLACEMENT_3D('',#237,#195,#196);
#165=AXIS2_PLACEMENT_3D('',#240,#199,#200);
#166=AXIS2_PLACEMENT_3D('',#241,#201,#202);
#167=DIRECTION('',(0.,0.,1.));
#168=DIRECTION('',(1.,0.,0.));
#169=DIRECTION('',(0.,-1.,0.));
#170=DIRECTION('',(0.,0.,-1.));
#171=DIRECTION('',(0.,0.,1.));
#172=DIRECTION('',(-1.,0.,0.));
#173=DIRECTION('',(0.,0.,1.));
#174=DIRECTION('',(-1.,0.,0.));
#175=DIRECTION('',(0.,0.,-1.));
#176=DIRECTION('',(-1.,0.,0.));
#177=DIRECTION('',(0.,-1.,0.));
#178=DIRECTION('',(-1.,0.,0.));
#179=DIRECTION('',(0.,-1.,0.));
#180=DIRECTION('',(0.,1.,0.));
#181=DIRECTION('',(0.,0.,1.));
#182=DIRECTION('',(0.,0.,-1.));
#183=DIRECTION('',(-1.,0.,0.));
#184=DIRECTION('',(0.,0.,-1.));
#185=DIRECTION('',(0.,0.,1.));
#186=DIRECTION('',(1.,0.,0.));
#187=DIRECTION('',(0.,1.,0.));
#188=DIRECTION('',(-1.,0.,0.));
#189=DIRECTION('',(0.,1.,0.));
#190=DIRECTION('',(0.,-1.,0.));
#191=DIRECTION('',(0.,0.,-1.));
#192=DIRECTION('',(0.,0.,1.));
#193=DIRECTION('',(-1.,0.,0.));
#194=DIRECTION('',(0.,0.,1.));
#195=DIRECTION('',(0.,0.,-1.));
#196=DIRECTION('',(-1.,0.,0.));
#197=DIRECTION('',(0.,-1.,0.));
#198=DIRECTION('',(0.,-1.,0.));
#199=DIRECTION('',(1.,0.,0.));
#200=DIRECTION('',(0.,0.,-1.));
#201=DIRECTION('',(1.,0.,0.));
#202=DIRECTION('',(0.,0.,-1.));
#203=CARTESIAN_POINT('',(0.,0.,0.));
#204=CARTESIAN_POINT('',(1000.,3.,2.));
#205=CARTESIAN_POINT('',(0.,3.,2.));
#206=CARTESIAN_POINT('',(0.,3.,2.));
#207=CARTESIAN_POINT('',(0.,3.,3.));
#208=CARTESIAN_POINT('',(1000.,3.,3.));
#209=CARTESIAN_POINT('',(1000.,3.,3.));
#210=CARTESIAN_POINT('',(1000.,3.,2.));
#211=CARTESIAN_POINT('',(1000.,3.,2.));
#212=CARTESIAN_POINT('',(1000.,3.,2.));
#213=CARTESIAN_POINT('',(1000.,3.,3.));
#214=CARTESIAN_POINT('',(0.,3.,3.));
#215=CARTESIAN_POINT('',(0.,0.,3.));
#216=CARTESIAN_POINT('',(1000.,0.,3.));
#217=CARTESIAN_POINT('',(1000.,0.,3.));
#218=CARTESIAN_POINT('',(1000.,3.,3.));
#219=CARTESIAN_POINT('',(1000.,0.,3.));
#220=CARTESIAN_POINT('',(0.,0.,3.));
#221=CARTESIAN_POINT('',(0.,0.,0.));
#222=CARTESIAN_POINT('',(1000.,0.,0.));
#223=CARTESIAN_POINT('',(1000.,0.,0.));
#224=CARTESIAN_POINT('',(1000.,0.,3.));
#225=CARTESIAN_POINT('',(1000.,0.,0.));
#226=CARTESIAN_POINT('',(0.,0.,0.));
#227=CARTESIAN_POINT('',(0.,11.5,0.));
#228=CARTESIAN_POINT('',(1000.,11.5,0.));
#229=CARTESIAN_POINT('',(1000.,11.5,0.));
#230=CARTESIAN_POINT('',(1000.,0.,0.));
#231=CARTESIAN_POINT('',(1000.,11.5,0.));
#232=CARTESIAN_POINT('',(0.,11.5,0.));
#233=CARTESIAN_POINT('',(0.,11.5,2.));
#234=CARTESIAN_POINT('',(1000.,11.5,2.));
#235=CARTESIAN_POINT('',(1000.,11.5,2.));
#236=CARTESIAN_POINT('',(1000.,11.5,0.));
#237=CARTESIAN_POINT('',(1000.,11.5,2.));
#238=CARTESIAN_POINT('',(0.,11.5,2.));
#239=CARTESIAN_POINT('',(1000.,11.5,2.));
#240=CARTESIAN_POINT('',(1000.,0.,0.));
#241=CARTESIAN_POINT('',(0.,0.,0.));
#242=MECHANICAL_DESIGN_GEOMETRIC_PRESENTATION_REPRESENTATION('',(#147),
#243);
#243=(
GEOMETRIC_REPRESENTATION_CONTEXT(3)
GLOBAL_UNCERTAINTY_ASSIGNED_CONTEXT((#244))
GLOBAL_UNIT_ASSIGNED_CONTEXT((#247,#246,#245))
REPRESENTATION_CONTEXT('263957','TOP_LEVEL_ASSEMBLY_PART')
);
#244=UNCERTAINTY_MEASURE_WITH_UNIT(LENGTH_MEASURE(0.005),#247,
'DISTANCE_ACCURACY_VALUE','Maximum Tolerance applied to model');
#245=(
NAMED_UNIT(*)
SI_UNIT($,.STERADIAN.)
SOLID_ANGLE_UNIT()
);
#246=(
NAMED_UNIT(*)
PLANE_ANGLE_UNIT()
SI_UNIT($,.RADIAN.)
);
#247=(
LENGTH_UNIT()
NAMED_UNIT(*)
SI_UNIT(.MILLI.,.METRE.)
);
#248=PRODUCT_DEFINITION_SHAPE('','',#249);
#249=PRODUCT_DEFINITION('','',#251,#250);
#250=PRODUCT_DEFINITION_CONTEXT('',#257,'design');
#251=PRODUCT_DEFINITION_FORMATION_WITH_SPECIFIED_SOURCE('','',#253,
 .NOT_KNOWN.);
#252=PRODUCT_RELATED_PRODUCT_CATEGORY('','',(#253));
#253=PRODUCT('263957','263957','263957',(#255));
#254=PRODUCT_CATEGORY('','');
#255=PRODUCT_CONTEXT('',#257,'mechanical');
#256=APPLICATION_PROTOCOL_DEFINITION('international standard',
'ap242_managed_model_based_3d_engineering',2011,#257);
#257=APPLICATION_CONTEXT('managed model based 3d engineering');
ENDSEC;
END-ISO-10303-21;
