ISO-10303-21;
HEADER;
FILE_DESCRIPTION (( 'STEP AP214' ),
    '1' );
FILE_NAME ('13805811.STEP',
    '2020-06-29T07:28:34',
    ( '' ),
    ( '' ),
    'SwSTEP 2.0',
    'SolidWorks 2017',
    '' );
FILE_SCHEMA (( 'AUTOMOTIVE_DESIGN' ));
ENDSEC;

DATA;
#1 =( NAMED_UNIT ( * ) PLANE_ANGLE_UNIT ( ) SI_UNIT ( $, .RADIAN. ) );
#2 = PLANE ( 'NONE',  #324 ) ;
#3 = EDGE_LOOP ( 'NONE', ( #144, #87, #166, #287 ) ) ;
#4 = DIRECTION ( 'NONE',  ( 0.0000000000000000000, -1.000000000000000000, 0.0000000000000000000 ) ) ;
#5 = ORIENTED_EDGE ( 'NONE', *, *, #113, .T. ) ;
#6 = DIRECTION ( 'NONE',  ( 0.0000000000000000000, 0.0000000000000000000, 1.000000000000000000 ) ) ;
#7 = FACE_OUTER_BOUND ( 'NONE', #218, .T. ) ;
#8 = CARTESIAN_POINT ( 'NONE',  ( -24.00000000000000000, -40.00000000000000700, 0.0000000000000000000 ) ) ;
#9 = CYLINDRICAL_SURFACE ( 'NONE', #133, 102.7280970492110700 ) ;
#10 = LINE ( 'NONE', #8, #22 ) ;
#11 = DIRECTION ( 'NONE',  ( -1.000000000000000000, -0.0000000000000000000, -0.0000000000000000000 ) ) ;
#12 = AXIS2_PLACEMENT_3D ( 'NONE', #56, #160, #267 ) ;
#13 = VERTEX_POINT ( 'NONE', #35 ) ;
#14 = DIRECTION ( 'NONE',  ( 0.0000000000000000000, 0.7604059656000429200, -0.6494480483301696700 ) ) ;
#15 = DIRECTION ( 'NONE',  ( 1.000000000000000000, 0.0000000000000000000, 0.0000000000000000000 ) ) ;
#16 = APPLICATION_PROTOCOL_DEFINITION ( 'draft international standard', 'automotive_design', 1998, #332 ) ;
#17 = ORIENTED_EDGE ( 'NONE', *, *, #64, .T. ) ;
#18 = APPLICATION_CONTEXT ( 'automotive_design' ) ;
#19 = AXIS2_PLACEMENT_3D ( 'NONE', #305, #15, #165 ) ;
#20 = EDGE_CURVE ( 'NONE', #291, #121, #10, .T. ) ;
#21 = CLOSED_SHELL ( 'NONE', ( #201, #199, #230, #170, #44, #40, #331, #172, #276 ) ) ;
#22 = VECTOR ( 'NONE', #245, 1000.000000000000000 ) ;
#23 = SURFACE_STYLE_FILL_AREA ( #259 ) ;
#24 = CARTESIAN_POINT ( 'NONE',  ( 24.00000000000000000, -40.00000000000000700, 0.0000000000000000000 ) ) ;
#25 = ORIENTED_EDGE ( 'NONE', *, *, #64, .F. ) ;
#26 = SHAPE_REPRESENTATION ( '13805811', ( #149, #216 ), #111 ) ;
#27 = DIRECTION ( 'NONE',  ( 0.0000000000000000000, -0.7604059656000429200, 0.6494480483301695600 ) ) ;
#28 = CARTESIAN_POINT ( 'NONE',  ( 24.00000000000000000, 40.00000000000000700, 1.387778780781445700E-014 ) ) ;
#29 =( LENGTH_UNIT ( ) NAMED_UNIT ( * ) SI_UNIT ( .MILLI., .METRE. ) );
#30 = PLANE ( 'NONE',  #98 ) ;
#31 = ORIENTED_EDGE ( 'NONE', *, *, #105, .F. ) ;
#32 = DIRECTION ( 'NONE',  ( 0.0000000000000000000, -1.734723475976806800E-016, 1.000000000000000000 ) ) ;
#33 =( GEOMETRIC_REPRESENTATION_CONTEXT ( 3 ) GLOBAL_UNCERTAINTY_ASSIGNED_CONTEXT ( ( #212 ) ) GLOBAL_UNIT_ASSIGNED_CONTEXT ( ( #314, #1, #237 ) ) REPRESENTATION_CONTEXT ( 'NONE', 'WORKASPACE' ) );
#34 = PRESENTATION_STYLE_ASSIGNMENT (( #257 ) ) ;
#35 = CARTESIAN_POINT ( 'NONE',  ( 24.00000000000000000, -2.594670308517801800, 196.1851523739949200 ) ) ;
#36 = CARTESIAN_POINT ( 'NONE',  ( 24.00000000000000000, -40.00000000000000700, 0.0000000000000000000 ) ) ;
#37 = VERTEX_POINT ( 'NONE', #247 ) ;
#38 = CARTESIAN_POINT ( 'NONE',  ( 24.00000000000000000, 40.00000000000000700, 1.387778780781445700E-014 ) ) ;
#39 = CARTESIAN_POINT ( 'NONE',  ( -24.00000000000000000, 40.00000000000000700, 1.387778780781445700E-014 ) ) ;
#40 = ADVANCED_FACE ( 'NONE', ( #219 ), #129, .F. ) ;
#41 = APPLICATION_PROTOCOL_DEFINITION ( 'draft international standard', 'automotive_design', 1998, #18 ) ;
#42 = LINE ( 'NONE', #28, #225 ) ;
#43 = VECTOR ( 'NONE', #191, 1000.000000000000000 ) ;
#44 = ADVANCED_FACE ( 'NONE', ( #280 ), #131, .T. ) ;
#45 = EDGE_LOOP ( 'NONE', ( #78, #175, #143, #214 ) ) ;
#46 = PRODUCT_DEFINITION_FORMATION_WITH_SPECIFIED_SOURCE ( 'ANY', '', #184, .NOT_KNOWN. ) ;
#47 = DIRECTION ( 'NONE',  ( 0.0000000000000000000, 0.0000000000000000000, 1.000000000000000000 ) ) ;
#48 = DIRECTION ( 'NONE',  ( 0.0000000000000000000, 0.0000000000000000000, 1.000000000000000000 ) ) ;
#49 = AXIS2_PLACEMENT_3D ( 'NONE', #301, #167, #168 ) ;
#50 = CARTESIAN_POINT ( 'NONE',  ( 24.00000000000000000, 40.00000000000000700, 105.5492156765163500 ) ) ;
#51 = CARTESIAN_POINT ( 'NONE',  ( 0.0000000000000000000, 0.0000000000000000000, 0.0000000000000000000 ) ) ;
#52 = CARTESIAN_POINT ( 'NONE',  ( -24.00000000000000000, -2.594670308517788000, 196.1851523739949000 ) ) ;
#53 = EDGE_LOOP ( 'NONE', ( #236, #25, #304, #316 ) ) ;
#54 = DIRECTION ( 'NONE',  ( 0.0000000000000000000, -0.6494480483301784400, -0.7604059656000353700 ) ) ;
#55 = FILL_AREA_STYLE_COLOUR ( '', #69 ) ;
#56 = CARTESIAN_POINT ( 'NONE',  ( 24.00000000000000000, -2.594670308517788000, 196.1851523739949000 ) ) ;
#57 = SURFACE_STYLE_FILL_AREA ( #152 ) ;
#58 = FACE_OUTER_BOUND ( 'NONE', #260, .T. ) ;
#59 = PLANE ( 'NONE',  #145 ) ;
#60 = APPLICATION_PROTOCOL_DEFINITION ( 'draft international standard', 'automotive_design', 1998, #194 ) ;
#61 = VECTOR ( 'NONE', #221, 1000.000000000000000 ) ;
#62 = VECTOR ( 'NONE', #97, 1000.000000000000000 ) ;
#63 = AXIS2_PLACEMENT_3D ( 'NONE', #282, #339, #48 ) ;
#64 = EDGE_CURVE ( 'NONE', #13, #310, #187, .T. ) ;
#65 =( LENGTH_UNIT ( ) NAMED_UNIT ( * ) SI_UNIT ( .MILLI., .METRE. ) );
#66 = LINE ( 'NONE', #85, #138 ) ;
#67 = VECTOR ( 'NONE', #179, 1000.000000000000000 ) ;
#68 = LINE ( 'NONE', #193, #43 ) ;
#69 = COLOUR_RGB ( '',0.7529411764705882200, 0.7529411764705882200, 0.7529411764705882200 ) ;
#70 =( NAMED_UNIT ( * ) SI_UNIT ( $, .STERADIAN. ) SOLID_ANGLE_UNIT ( ) );
#71 = PRESENTATION_LAYER_ASSIGNMENT (  '', '', ( #333 ) ) ;
#72 = DIRECTION ( 'NONE',  ( 0.0000000000000000000, 1.000000000000000000, 1.734723475976806800E-016 ) ) ;
#73 = SURFACE_SIDE_STYLE ('',( #57 ) ) ;
#74 = FACE_OUTER_BOUND ( 'NONE', #277, .T. ) ;
#75 = VERTEX_POINT ( 'NONE', #303 ) ;
#76 = CARTESIAN_POINT ( 'NONE',  ( 24.00000000000000000, -12.32812178967994400, 184.7887449304985800 ) ) ;
#77 = SURFACE_STYLE_USAGE ( .BOTH. , #103 ) ;
#78 = ORIENTED_EDGE ( 'NONE', *, *, #20, .T. ) ;
#79 = EDGE_CURVE ( 'NONE', #227, #13, #294, .T. ) ;
#80 = ORIENTED_EDGE ( 'NONE', *, *, #180, .T. ) ;
#81 = LINE ( 'NONE', #117, #67 ) ;
#82 = DIRECTION ( 'NONE',  ( -1.000000000000000000, -0.0000000000000000000, -0.0000000000000000000 ) ) ;
#83 = CIRCLE ( 'NONE', #19, 117.7280970492110900 ) ;
#84 = FACE_OUTER_BOUND ( 'NONE', #3, .T. ) ;
#85 = CARTESIAN_POINT ( 'NONE',  ( -24.00000000000000000, -12.32812178967994400, 184.7887449304985800 ) ) ;
#86 = CARTESIAN_POINT ( 'NONE',  ( 0.0000000000000000000, 0.0000000000000000000, 0.0000000000000000000 ) ) ;
#87 = ORIENTED_EDGE ( 'NONE', *, *, #132, .F. ) ;
#88 = EDGE_CURVE ( 'NONE', #75, #310, #83, .T. ) ;
#89 =( REPRESENTATION_RELATIONSHIP ('NONE','NONE', #26, #130 ) REPRESENTATION_RELATIONSHIP_WITH_TRANSFORMATION ( #106 )SHAPE_REPRESENTATION_RELATIONSHIP( ) );
#90 = MECHANICAL_DESIGN_GEOMETRIC_PRESENTATION_REPRESENTATION (  '', ( #333 ), #104 ) ;
#91 = ORIENTED_EDGE ( 'NONE', *, *, #139, .F. ) ;
#92 = VERTEX_POINT ( 'NONE', #134 ) ;
#93 = VERTEX_POINT ( 'NONE', #327 ) ;
#94 = VECTOR ( 'NONE', #101, 1000.000000000000000 ) ;
#95 = ORIENTED_EDGE ( 'NONE', *, *, #285, .F. ) ;
#96 = CARTESIAN_POINT ( 'NONE',  ( 24.00000000000000000, -77.72809704921107300, 105.5492156765163400 ) ) ;
#97 = DIRECTION ( 'NONE',  ( 0.0000000000000000000, 0.0000000000000000000, -1.000000000000000000 ) ) ;
#98 = AXIS2_PLACEMENT_3D ( 'NONE', #293, #124, #6 ) ;
#99 = DIRECTION ( 'NONE',  ( -0.0000000000000000000, 1.000000000000000000, 0.0000000000000000000 ) ) ;
#100 = ORIENTED_EDGE ( 'NONE', *, *, #178, .T. ) ;
#101 = DIRECTION ( 'NONE',  ( 0.0000000000000000000, 0.0000000000000000000, -1.000000000000000000 ) ) ;
#102 = VERTEX_POINT ( 'NONE', #136 ) ;
#103 = SURFACE_SIDE_STYLE ('',( #23 ) ) ;
#104 =( GEOMETRIC_REPRESENTATION_CONTEXT ( 3 ) GLOBAL_UNCERTAINTY_ASSIGNED_CONTEXT ( ( #107 ) ) GLOBAL_UNIT_ASSIGNED_CONTEXT ( ( #29, #208, #321 ) ) REPRESENTATION_CONTEXT ( 'NONE', 'WORKASPACE' ) );
#105 = EDGE_CURVE ( 'NONE', #93, #270, #68, .T. ) ;
#106 = ITEM_DEFINED_TRANSFORMATION ( 'NONE', 'NONE', #216,  #233 ) ;
#107 = UNCERTAINTY_MEASURE_WITH_UNIT (LENGTH_MEASURE( 1.000000000000000100E-005 ), #29, 'distance_accuracy_value', 'NONE');
#108 = VERTEX_POINT ( 'NONE', #271 ) ;
#109 = AXIS2_PLACEMENT_3D ( 'NONE', #269, #11, #268 ) ;
#110 = DIRECTION ( 'NONE',  ( -1.000000000000000000, -0.0000000000000000000, -0.0000000000000000000 ) ) ;
#111 =( GEOMETRIC_REPRESENTATION_CONTEXT ( 3 ) GLOBAL_UNCERTAINTY_ASSIGNED_CONTEXT ( ( #279 ) ) GLOBAL_UNIT_ASSIGNED_CONTEXT ( ( #65, #226, #174 ) ) REPRESENTATION_CONTEXT ( 'NONE', 'WORKASPACE' ) );
#112 = COLOUR_RGB ( '',0.7529411764705882200, 0.7529411764705882200, 0.7529411764705882200 ) ;
#113 = EDGE_CURVE ( 'NONE', #121, #75, #210, .T. ) ;
#114 = EDGE_LOOP ( 'NONE', ( #5, #278, #162, #272 ) ) ;
#115 = PLANE ( 'NONE',  #135 ) ;
#116 = ORIENTED_EDGE ( 'NONE', *, *, #255, .F. ) ;
#117 = CARTESIAN_POINT ( 'NONE',  ( 24.00000000000000000, 40.00000000000000700, 1.387778780781445700E-014 ) ) ;
#118 = EDGE_CURVE ( 'NONE', #37, #270, #66, .T. ) ;
#119 = PLANE ( 'NONE',  #322 ) ;
#120 = CARTESIAN_POINT ( 'NONE',  ( 24.00000000000000000, -40.00000000000000700, 9.999999999999994700 ) ) ;
#121 = VERTEX_POINT ( 'NONE', #189 ) ;
#122 = CIRCLE ( 'NONE', #63, 102.7280970492110700 ) ;
#123 = DIRECTION ( 'NONE',  ( -1.000000000000000000, -0.0000000000000000000, -0.0000000000000000000 ) ) ;
#124 = DIRECTION ( 'NONE',  ( -1.000000000000000000, -0.0000000000000000000, 0.0000000000000000000 ) ) ;
#125 = CARTESIAN_POINT ( 'NONE',  ( 24.00000000000000000, -12.32812178967994400, 184.7887449304985800 ) ) ;
#126 = LINE ( 'NONE', #320, #94 ) ;
#127 = LINE ( 'NONE', #288, #62 ) ;
#128 = STYLED_ITEM ( 'NONE', ( #34 ), #151 ) ;
#129 = PLANE ( 'NONE',  #12 ) ;
#130 = SHAPE_REPRESENTATION ( 'Planungsmodell_Auslauf-+-09.11.81.100.90-1', ( #233 ), #33 ) ;
#131 = CYLINDRICAL_SURFACE ( 'NONE', #109, 117.7280970492111000 ) ;
#132 = EDGE_CURVE ( 'NONE', #102, #92, #335, .T. ) ;
#133 = AXIS2_PLACEMENT_3D ( 'NONE', #96, #185, #258 ) ;
#134 = CARTESIAN_POINT ( 'NONE',  ( -24.00000000000000000, -40.00000000000000700, 9.999999999999994700 ) ) ;
#135 = AXIS2_PLACEMENT_3D ( 'NONE', #120, #99, #261 ) ;
#136 = CARTESIAN_POINT ( 'NONE',  ( 24.00000000000000000, -40.00000000000000700, 9.999999999999994700 ) ) ;
#137 = PRODUCT_CONTEXT ( 'NONE', #18, 'mechanical' ) ;
#138 = VECTOR ( 'NONE', #14, 1000.000000000000000 ) ;
#139 = EDGE_CURVE ( 'NONE', #220, #291, #204, .T. ) ;
#140 = ORIENTED_EDGE ( 'NONE', *, *, #341, .T. ) ;
#141 = DIRECTION ( 'NONE',  ( 1.000000000000000000, 0.0000000000000000000, 0.0000000000000000000 ) ) ;
#142 = DIRECTION ( 'NONE',  ( 0.0000000000000000000, 0.0000000000000000000, 1.000000000000000000 ) ) ;
#143 = ORIENTED_EDGE ( 'NONE', *, *, #341, .F. ) ;
#144 = ORIENTED_EDGE ( 'NONE', *, *, #176, .T. ) ;
#145 = AXIS2_PLACEMENT_3D ( 'NONE', #38, #4, #244 ) ;
#146 = CIRCLE ( 'NONE', #323, 102.7280970492110700 ) ;
#147 = VECTOR ( 'NONE', #54, 1000.000000000000200 ) ;
#148 = ORIENTED_EDGE ( 'NONE', *, *, #88, .F. ) ;
#149 = AXIS2_PLACEMENT_3D ( 'NONE', #154, #275, #328 ) ;
#150 = DIRECTION ( 'NONE',  ( 1.000000000000000000, 0.0000000000000000000, 0.0000000000000000000 ) ) ;
#151 = ADVANCED_BREP_SHAPE_REPRESENTATION ( '', ( #222, #233 ), #33 ) ;
#152 = FILL_AREA_STYLE ('',( #283 ) ) ;
#153 = EDGE_LOOP ( 'NONE', ( #202, #313, #116, #17 ) ) ;
#154 = CARTESIAN_POINT ( 'NONE',  ( 0.0000000000000000000, 0.0000000000000000000, 0.0000000000000000000 ) ) ;
#155 = ORIENTED_EDGE ( 'NONE', *, *, #20, .F. ) ;
#156 = PRODUCT ( '13805811', '13805811', '', ( #137 ) ) ;
#157 = PRODUCT_DEFINITION ( 'UNKNOWN', '', #249, #309 ) ;
#158 = CARTESIAN_POINT ( 'NONE',  ( 24.00000000000000000, -40.00000000000000700, 0.0000000000000000000 ) ) ;
#159 = ORIENTED_EDGE ( 'NONE', *, *, #132, .T. ) ;
#160 = DIRECTION ( 'NONE',  ( 0.0000000000000000000, 0.7604059656000353700, -0.6494480483301784400 ) ) ;
#161 = EDGE_CURVE ( 'NONE', #227, #75, #265, .T. ) ;
#162 = ORIENTED_EDGE ( 'NONE', *, *, #302, .F. ) ;
#163 = LINE ( 'NONE', #318, #231 ) ;
#164 = ORIENTED_EDGE ( 'NONE', *, *, #176, .F. ) ;
#165 = DIRECTION ( 'NONE',  ( 0.0000000000000000000, 0.0000000000000000000, -1.000000000000000000 ) ) ;
#166 = ORIENTED_EDGE ( 'NONE', *, *, #329, .F. ) ;
#167 = DIRECTION ( 'NONE',  ( 1.000000000000000000, 0.0000000000000000000, 0.0000000000000000000 ) ) ;
#168 = DIRECTION ( 'NONE',  ( 0.0000000000000000000, 0.0000000000000000000, -1.000000000000000000 ) ) ;
#169 = APPLICATION_PROTOCOL_DEFINITION ( 'draft international standard', 'automotive_design', 1998, #200 ) ;
#170 = ADVANCED_FACE ( 'NONE', ( #337 ), #59, .F. ) ;
#171 = PRESENTATION_LAYER_ASSIGNMENT (  '', '', ( #128 ) ) ;
#172 = ADVANCED_FACE ( 'NONE', ( #7 ), #30, .F. ) ;
#173 = ORIENTED_EDGE ( 'NONE', *, *, #302, .T. ) ;
#174 =( NAMED_UNIT ( * ) SI_UNIT ( $, .STERADIAN. ) SOLID_ANGLE_UNIT ( ) );
#175 = ORIENTED_EDGE ( 'NONE', *, *, #198, .F. ) ;
#176 = EDGE_CURVE ( 'NONE', #270, #92, #146, .T. ) ;
#177 = ORIENTED_EDGE ( 'NONE', *, *, #118, .T. ) ;
#178 = EDGE_CURVE ( 'NONE', #102, #220, #126, .T. ) ;
#179 = DIRECTION ( 'NONE',  ( 0.0000000000000000000, 0.0000000000000000000, 1.000000000000000000 ) ) ;
#180 = EDGE_CURVE ( 'NONE', #254, #37, #252, .T. ) ;
#181 = CARTESIAN_POINT ( 'NONE',  ( 0.0000000000000000000, 0.0000000000000000000, 0.0000000000000000000 ) ) ;
#182 = PRODUCT_DEFINITION_CONTEXT ( 'detailed design', #194, 'design' ) ;
#183 = ORIENTED_EDGE ( 'NONE', *, *, #340, .T. ) ;
#184 = PRODUCT ( 'Planungsmodell_Auslauf-+-09.11.81.100.90-1', 'Planungsmodell_Auslauf-+-09.11.81.100.90-1', '', ( #229 ) ) ;
#185 = DIRECTION ( 'NONE',  ( -1.000000000000000000, -0.0000000000000000000, -0.0000000000000000000 ) ) ;
#186 = AXIS2_PLACEMENT_3D ( 'NONE', #235, #311, #27 ) ;
#187 = LINE ( 'NONE', #248, #325 ) ;
#188 = SHAPE_DEFINITION_REPRESENTATION ( #330, #26 ) ;
#189 = CARTESIAN_POINT ( 'NONE',  ( -24.00000000000000000, 40.00000000000000700, 1.387778780781445700E-014 ) ) ;
#190 = ORIENTED_EDGE ( 'NONE', *, *, #296, .F. ) ;
#191 = DIRECTION ( 'NONE',  ( -1.000000000000000000, -0.0000000000000000000, -0.0000000000000000000 ) ) ;
#192 = MECHANICAL_DESIGN_GEOMETRIC_PRESENTATION_REPRESENTATION (  '', ( #128 ), #264 ) ;
#193 = CARTESIAN_POINT ( 'NONE',  ( 24.00000000000000000, -11.01153491192776600, 183.6642735074758300 ) ) ;
#194 = APPLICATION_CONTEXT ( 'automotive_design' ) ;
#195 = VECTOR ( 'NONE', #110, 1000.000000000000000 ) ;
#196 = VECTOR ( 'NONE', #72, 1000.000000000000000 ) ;
#197 = PRODUCT_DEFINITION_SHAPE ( 'NONE', 'NONE',  #297 ) ;
#198 = EDGE_CURVE ( 'NONE', #108, #121, #42, .T. ) ;
#199 = ADVANCED_FACE ( 'NONE', ( #205 ), #115, .F. ) ;
#200 = APPLICATION_CONTEXT ( 'automotive_design' ) ;
#201 = ADVANCED_FACE ( 'NONE', ( #84 ), #9, .F. ) ;
#202 = ORIENTED_EDGE ( 'NONE', *, *, #285, .T. ) ;
#203 = ORIENTED_EDGE ( 'NONE', *, *, #296, .T. ) ;
#204 = LINE ( 'NONE', #36, #61 ) ;
#205 = FACE_OUTER_BOUND ( 'NONE', #253, .T. ) ;
#206 = DIRECTION ( 'NONE',  ( 0.0000000000000000000, 0.7604059656000429200, -0.6494480483301696700 ) ) ;
#207 = PLANE ( 'NONE',  #186 ) ;
#208 =( NAMED_UNIT ( * ) PLANE_ANGLE_UNIT ( ) SI_UNIT ( $, .RADIAN. ) );
#209 = LINE ( 'NONE', #284, #217 ) ;
#210 = LINE ( 'NONE', #39, #308 ) ;
#211 =( LENGTH_UNIT ( ) NAMED_UNIT ( * ) SI_UNIT ( .MILLI., .METRE. ) );
#212 = UNCERTAINTY_MEASURE_WITH_UNIT (LENGTH_MEASURE( 1.000000000000000100E-005 ), #314, 'distance_accuracy_value', 'NONE');
#213 = DIRECTION ( 'NONE',  ( -1.000000000000000000, -0.0000000000000000000, 0.0000000000000000000 ) ) ;
#214 = ORIENTED_EDGE ( 'NONE', *, *, #139, .T. ) ;
#215 = DIRECTION ( 'NONE',  ( -1.000000000000000000, -0.0000000000000000000, -0.0000000000000000000 ) ) ;
#216 = AXIS2_PLACEMENT_3D ( 'NONE', #86, #224, #334 ) ;
#217 = VECTOR ( 'NONE', #292, 1000.000000000000200 ) ;
#218 = EDGE_LOOP ( 'NONE', ( #242, #100, #140, #173, #336, #262, #203 ) ) ;
#219 = FACE_OUTER_BOUND ( 'NONE', #153, .T. ) ;
#220 = VERTEX_POINT ( 'NONE', #240 ) ;
#221 = DIRECTION ( 'NONE',  ( -1.000000000000000000, -0.0000000000000000000, -0.0000000000000000000 ) ) ;
#222 = MANIFOLD_SOLID_BREP ( 'Aufsatz-Linear austragen1', #21 ) ;
#223 = DIRECTION ( 'NONE',  ( -1.000000000000000000, -0.0000000000000000000, -0.0000000000000000000 ) ) ;
#224 = DIRECTION ( 'NONE',  ( 0.0000000000000000000, 0.0000000000000000000, 1.000000000000000000 ) ) ;
#225 = VECTOR ( 'NONE', #215, 1000.000000000000000 ) ;
#226 =( NAMED_UNIT ( * ) PLANE_ANGLE_UNIT ( ) SI_UNIT ( $, .RADIAN. ) );
#227 = VERTEX_POINT ( 'NONE', #50 ) ;
#228 = PRODUCT_RELATED_PRODUCT_CATEGORY ( 'part', '', ( #156 ) ) ;
#229 = PRODUCT_CONTEXT ( 'NONE', #200, 'mechanical' ) ;
#230 = ADVANCED_FACE ( 'NONE', ( #298 ), #2, .F. ) ;
#231 = VECTOR ( 'NONE', #206, 1000.000000000000000 ) ;
#232 = ORIENTED_EDGE ( 'NONE', *, *, #178, .F. ) ;
#233 = AXIS2_PLACEMENT_3D ( 'NONE', #181, #47, #150 ) ;
#234 =( NAMED_UNIT ( * ) PLANE_ANGLE_UNIT ( ) SI_UNIT ( $, .RADIAN. ) );
#235 = CARTESIAN_POINT ( 'NONE',  ( 24.00000000000000000, -12.32812178967994400, 184.7887449304985800 ) ) ;
#236 = ORIENTED_EDGE ( 'NONE', *, *, #88, .T. ) ;
#237 =( NAMED_UNIT ( * ) SI_UNIT ( $, .STERADIAN. ) SOLID_ANGLE_UNIT ( ) );
#238 = DIRECTION ( 'NONE',  ( 0.0000000000000000000, -1.000000000000000000, -1.734723475976806800E-016 ) ) ;
#239 = ORIENTED_EDGE ( 'NONE', *, *, #113, .F. ) ;
#240 = CARTESIAN_POINT ( 'NONE',  ( 24.00000000000000000, -40.00000000000000700, 0.0000000000000000000 ) ) ;
#241 = CARTESIAN_POINT ( 'NONE',  ( -24.00000000000000000, -40.00000000000000700, 0.0000000000000000000 ) ) ;
#242 = ORIENTED_EDGE ( 'NONE', *, *, #329, .T. ) ;
#243 = DIRECTION ( 'NONE',  ( 0.0000000000000000000, 0.0000000000000000000, 1.000000000000000000 ) ) ;
#244 = DIRECTION ( 'NONE',  ( 0.0000000000000000000, -0.0000000000000000000, -1.000000000000000000 ) ) ;
#245 = DIRECTION ( 'NONE',  ( 0.0000000000000000000, 1.000000000000000000, 1.734723475976806800E-016 ) ) ;
#246 = AXIS2_PLACEMENT_3D ( 'NONE', #51, #142, #141 ) ;
#247 = CARTESIAN_POINT ( 'NONE',  ( -24.00000000000000000, -12.32812178967994400, 184.7887449304985800 ) ) ;
#248 = CARTESIAN_POINT ( 'NONE',  ( 24.00000000000000000, -2.594670308517801800, 196.1851523739949200 ) ) ;
#249 = PRODUCT_DEFINITION_FORMATION_WITH_SPECIFIED_SOURCE ( 'ANY', '', #156, .NOT_KNOWN. ) ;
#250 = DIRECTION ( 'NONE',  ( 0.0000000000000000000, 0.0000000000000000000, 1.000000000000000000 ) ) ;
#251 = SHAPE_REPRESENTATION_RELATIONSHIP ( 'NONE' , 'NONE' ,  #130, #151 ) ;
#252 = LINE ( 'NONE', #76, #307 ) ;
#253 = EDGE_LOOP ( 'NONE', ( #183, #91, #232, #159 ) ) ;
#254 = VERTEX_POINT ( 'NONE', #125 ) ;
#255 = EDGE_CURVE ( 'NONE', #13, #254, #209, .T. ) ;
#256 = CARTESIAN_POINT ( 'NONE',  ( -24.00000000000000000, -2.594670308517801800, 196.1851523739949200 ) ) ;
#257 = SURFACE_STYLE_USAGE ( .BOTH. , #73 ) ;
#258 = DIRECTION ( 'NONE',  ( 0.0000000000000000000, 0.0000000000000000000, 1.000000000000000000 ) ) ;
#259 = FILL_AREA_STYLE ('',( #55 ) ) ;
#260 = EDGE_LOOP ( 'NONE', ( #177, #31, #190, #80 ) ) ;
#261 = DIRECTION ( 'NONE',  ( 0.0000000000000000000, -0.0000000000000000000, 1.000000000000000000 ) ) ;
#262 = ORIENTED_EDGE ( 'NONE', *, *, #255, .T. ) ;
#263 = DIRECTION ( 'NONE',  ( -1.000000000000000000, -0.0000000000000000000, 0.0000000000000000000 ) ) ;
#264 =( GEOMETRIC_REPRESENTATION_CONTEXT ( 3 ) GLOBAL_UNCERTAINTY_ASSIGNED_CONTEXT ( ( #295 ) ) GLOBAL_UNIT_ASSIGNED_CONTEXT ( ( #211, #234, #70 ) ) REPRESENTATION_CONTEXT ( 'NONE', 'WORKASPACE' ) );
#265 = LINE ( 'NONE', #274, #195 ) ;
#266 = LINE ( 'NONE', #24, #196 ) ;
#267 = DIRECTION ( 'NONE',  ( 0.0000000000000000000, 0.6494480483301784400, 0.7604059656000353700 ) ) ;
#268 = DIRECTION ( 'NONE',  ( 0.0000000000000000000, 0.0000000000000000000, 1.000000000000000000 ) ) ;
#269 = CARTESIAN_POINT ( 'NONE',  ( 24.00000000000000000, -77.72809704921105800, 105.5492156765163300 ) ) ;
#270 = VERTEX_POINT ( 'NONE', #290 ) ;
#271 = CARTESIAN_POINT ( 'NONE',  ( 24.00000000000000000, 40.00000000000000700, 1.387778780781445700E-014 ) ) ;
#272 = ORIENTED_EDGE ( 'NONE', *, *, #198, .T. ) ;
#273 = VECTOR ( 'NONE', #223, 1000.000000000000000 ) ;
#274 = CARTESIAN_POINT ( 'NONE',  ( 24.00000000000000000, 40.00000000000000700, 105.5492156765163500 ) ) ;
#275 = DIRECTION ( 'NONE',  ( 0.0000000000000000000, 0.0000000000000000000, 1.000000000000000000 ) ) ;
#276 = ADVANCED_FACE ( 'NONE', ( #74 ), #119, .T. ) ;
#277 = EDGE_LOOP ( 'NONE', ( #164, #299, #95, #148, #239, #155, #281 ) ) ;
#278 = ORIENTED_EDGE ( 'NONE', *, *, #161, .F. ) ;
#279 = UNCERTAINTY_MEASURE_WITH_UNIT (LENGTH_MEASURE( 1.000000000000000100E-005 ), #65, 'distance_accuracy_value', 'NONE');
#280 = FACE_OUTER_BOUND ( 'NONE', #53, .T. ) ;
#281 = ORIENTED_EDGE ( 'NONE', *, *, #340, .F. ) ;
#282 = CARTESIAN_POINT ( 'NONE',  ( 24.00000000000000000, -77.72809704921107300, 105.5492156765163400 ) ) ;
#283 = FILL_AREA_STYLE_COLOUR ( '', #112 ) ;
#284 = CARTESIAN_POINT ( 'NONE',  ( 24.00000000000000000, -2.594670308517788000, 196.1851523739949000 ) ) ;
#285 = EDGE_CURVE ( 'NONE', #310, #37, #286, .T. ) ;
#286 = LINE ( 'NONE', #52, #147 ) ;
#287 = ORIENTED_EDGE ( 'NONE', *, *, #105, .T. ) ;
#288 = CARTESIAN_POINT ( 'NONE',  ( -24.00000000000000000, -40.00000000000000700, 9.999999999999994700 ) ) ;
#289 = CARTESIAN_POINT ( 'NONE',  ( -24.00000000000000000, -77.72809704921107300, 105.5492156765163400 ) ) ;
#290 = CARTESIAN_POINT ( 'NONE',  ( -24.00000000000000000, -11.01153491192776600, 183.6642735074758300 ) ) ;
#291 = VERTEX_POINT ( 'NONE', #241 ) ;
#292 = DIRECTION ( 'NONE',  ( 0.0000000000000000000, -0.6494480483301784400, -0.7604059656000353700 ) ) ;
#293 = CARTESIAN_POINT ( 'NONE',  ( 24.00000000000000000, -77.72809704921107300, 105.5492156765163400 ) ) ;
#294 = CIRCLE ( 'NONE', #49, 117.7280970492110900 ) ;
#295 = UNCERTAINTY_MEASURE_WITH_UNIT (LENGTH_MEASURE( 1.000000000000000100E-005 ), #211, 'distance_accuracy_value', 'NONE');
#296 = EDGE_CURVE ( 'NONE', #254, #93, #163, .T. ) ;
#297 = PRODUCT_DEFINITION ( 'UNKNOWN', '', #46, #182 ) ;
#298 = FACE_OUTER_BOUND ( 'NONE', #45, .T. ) ;
#299 = ORIENTED_EDGE ( 'NONE', *, *, #118, .F. ) ;
#300 = PRODUCT_DEFINITION_SHAPE ( 'NONE', 'NONE',  #342 ) ;
#301 = CARTESIAN_POINT ( 'NONE',  ( 24.00000000000000000, -77.72809704921105800, 105.5492156765163300 ) ) ;
#302 = EDGE_CURVE ( 'NONE', #108, #227, #81, .T. ) ;
#303 = CARTESIAN_POINT ( 'NONE',  ( -24.00000000000000000, 40.00000000000000700, 105.5492156765163500 ) ) ;
#304 = ORIENTED_EDGE ( 'NONE', *, *, #79, .F. ) ;
#305 = CARTESIAN_POINT ( 'NONE',  ( -24.00000000000000000, -77.72809704921105800, 105.5492156765163300 ) ) ;
#306 = PRODUCT_RELATED_PRODUCT_CATEGORY ( 'part', '', ( #184 ) ) ;
#307 = VECTOR ( 'NONE', #123, 1000.000000000000000 ) ;
#308 = VECTOR ( 'NONE', #250, 1000.000000000000000 ) ;
#309 = PRODUCT_DEFINITION_CONTEXT ( 'detailed design', #332, 'design' ) ;
#310 = VERTEX_POINT ( 'NONE', #256 ) ;
#311 = DIRECTION ( 'NONE',  ( -0.0000000000000000000, 0.6494480483301695600, 0.7604059656000429200 ) ) ;
#312 = PRESENTATION_STYLE_ASSIGNMENT (( #77 ) ) ;
#313 = ORIENTED_EDGE ( 'NONE', *, *, #180, .F. ) ;
#314 =( LENGTH_UNIT ( ) NAMED_UNIT ( * ) SI_UNIT ( .MILLI., .METRE. ) );
#315 = DIRECTION ( 'NONE',  ( 0.0000000000000000000, 0.0000000000000000000, 1.000000000000000000 ) ) ;
#316 = ORIENTED_EDGE ( 'NONE', *, *, #161, .T. ) ;
#317 = CARTESIAN_POINT ( 'NONE',  ( -24.00000000000000000, -77.72809704921107300, 105.5492156765163400 ) ) ;
#318 = CARTESIAN_POINT ( 'NONE',  ( 24.00000000000000000, -12.32812178967994400, 184.7887449304985800 ) ) ;
#319 = CONTEXT_DEPENDENT_SHAPE_REPRESENTATION ( #89, #300 ) ;
#320 = CARTESIAN_POINT ( 'NONE',  ( 24.00000000000000000, -40.00000000000000700, 9.999999999999994700 ) ) ;
#321 =( NAMED_UNIT ( * ) SI_UNIT ( $, .STERADIAN. ) SOLID_ANGLE_UNIT ( ) );
#322 = AXIS2_PLACEMENT_3D ( 'NONE', #289, #213, #315 ) ;
#323 = AXIS2_PLACEMENT_3D ( 'NONE', #317, #263, #243 ) ;
#324 = AXIS2_PLACEMENT_3D ( 'NONE', #158, #32, #238 ) ;
#325 = VECTOR ( 'NONE', #82, 1000.000000000000000 ) ;
#326 = CARTESIAN_POINT ( 'NONE',  ( 24.00000000000000000, -40.00000000000000700, 9.999999999999994700 ) ) ;
#327 = CARTESIAN_POINT ( 'NONE',  ( 24.00000000000000000, -11.01153491192776600, 183.6642735074758300 ) ) ;
#328 = DIRECTION ( 'NONE',  ( 1.000000000000000000, 0.0000000000000000000, 0.0000000000000000000 ) ) ;
#329 = EDGE_CURVE ( 'NONE', #93, #102, #122, .T. ) ;
#330 = PRODUCT_DEFINITION_SHAPE ( 'NONE', 'NONE',  #157 ) ;
#331 = ADVANCED_FACE ( 'NONE', ( #58 ), #207, .F. ) ;
#332 = APPLICATION_CONTEXT ( 'automotive_design' ) ;
#333 = STYLED_ITEM ( 'NONE', ( #312 ), #222 ) ;
#334 = DIRECTION ( 'NONE',  ( 1.000000000000000000, 0.0000000000000000000, 0.0000000000000000000 ) ) ;
#335 = LINE ( 'NONE', #326, #273 ) ;
#336 = ORIENTED_EDGE ( 'NONE', *, *, #79, .T. ) ;
#337 = FACE_OUTER_BOUND ( 'NONE', #114, .T. ) ;
#338 = SHAPE_DEFINITION_REPRESENTATION ( #197, #130 ) ;
#339 = DIRECTION ( 'NONE',  ( -1.000000000000000000, -0.0000000000000000000, 0.0000000000000000000 ) ) ;
#340 = EDGE_CURVE ( 'NONE', #92, #291, #127, .T. ) ;
#341 = EDGE_CURVE ( 'NONE', #220, #108, #266, .T. ) ;
#342 = NEXT_ASSEMBLY_USAGE_OCCURRENCE ( 'NAUO1', ' ', ' ', #157, #297, $ ) ;
ENDSEC;
END-ISO-10303-21;
