  0
SECTION
  2
HEADER
  9
$ACADVER
  1
AC1021
  9
$ACADMAINTVER
 70
    25
  9
$DWGCODEPAGE
  3
UNDEFINED
  9
$INSBASE
 10
0.0
 20
0.0
 30
0.0
  9
$EXTMIN
 10
1.000000000000000E+20
 20
1.000000000000000E+20
 30
1.000000000000000E+20
  9
$EXTMAX
 10
-1.000000000000000E+20
 20
-1.000000000000000E+20
 30
-1.000000000000000E+20
  9
$LIMMIN
 10
0.0
 20
0.0
  9
$LIMMAX
 10
12.0
 20
9.0
  9
$ORTHOMODE
 70
     0
  9
$REGENMODE
 70
     1
  9
$FILLMODE
 70
     1
  9
$QTEXTMODE
 70
     0
  9
$MIRRTEXT
 70
     1
  9
$LTSCALE
 40
1.0
  9
$ATTMODE
 70
     1
  9
$TEXTSIZE
 40
0.2
  9
$TRACEWID
 40
0.05
  9
$TEXTSTYLE
  7
Standard
  9
$CLAYER
  8
0
  9
$CELTYPE
  6
ByLayer
  9
$CECOLOR
 62
   256
  9
$CELTSCALE
 40
1.0
  9
$DISPSILH
 70
     0
  9
$DIMSCALE
 40
1.0
  9
$DIMASZ
 40
0.18
  9
$DIMEXO
 40
0.0625
  9
$DIMDLI
 40
0.38
  9
$DIMRND
 40
0.0
  9
$DIMDLE
 40
0.0
  9
$DIMEXE
 40
0.18
  9
$DIMTP
 40
0.0
  9
$DIMTM
 40
0.0
  9
$DIMTXT
 40
0.18
  9
$DIMCEN
 40
0.09
  9
$DIMTSZ
 40
0.0
  9
$DIMTOL
 70
     0
  9
$DIMLIM
 70
     0
  9
$DIMTIH
 70
     1
  9
$DIMTOH
 70
     1
  9
$DIMSE1
 70
     0
  9
$DIMSE2
 70
     0
  9
$DIMTAD
 70
     0
  9
$DIMZIN
 70
     0
  9
$DIMBLK
  1

  9
$DIMASO
 70
     1
  9
$DIMSHO
 70
     1
  9
$DIMPOST
  1

  9
$DIMAPOST
  1

  9
$DIMALT
 70
     0
  9
$DIMALTD
 70
     2
  9
$DIMALTF
 40
25.4
  9
$DIMLFAC
 40
1.0
  9
$DIMTOFL
 70
     0
  9
$DIMTVP
 40
0.0
  9
$DIMTIX
 70
     0
  9
$DIMSOXD
 70
     0
  9
$DIMSAH
 70
     0
  9
$DIMBLK1
  1

  9
$DIMBLK2
  1

  9
$DIMSTYLE
  2
Standard
  9
$DIMCLRD
 70
     0
  9
$DIMCLRE
 70
     0
  9
$DIMCLRT
 70
     0
  9
$DIMTFAC
 40
1.0
  9
$DIMGAP
 40
0.09
  9
$DIMJUST
 70
     0
  9
$DIMSD1
 70
     0
  9
$DIMSD2
 70
     0
  9
$DIMTOLJ
 70
     1
  9
$DIMTZIN
 70
     0
  9
$DIMALTZ
 70
     0
  9
$DIMALTTZ
 70
     0
  9
$DIMUPT
 70
     0
  9
$DIMDEC
 70
     4
  9
$DIMTDEC
 70
     4
  9
$DIMALTU
 70
     2
  9
$DIMALTTD
 70
     2
  9
$DIMTXSTY
  7
Standard
  9
$DIMAUNIT
 70
     0
  9
$DIMADEC
 70
     0
  9
$DIMALTRND
 40
0.0
  9
$DIMAZIN
 70
     0
  9
$DIMDSEP
 70
    46
  9
$DIMATFIT
 70
     3
  9
$DIMFRAC
 70
     0
  9
$DIMLDRBLK
  1

  9
$DIMLUNIT
 70
     2
  9
$DIMLWD
 70
    -2
  9
$DIMLWE
 70
    -2
  9
$DIMTMOVE
 70
     0
  9
$DIMFXL
 40
1.0
  9
$DIMFXLON
 70
     0
  9
$DIMJOGANG
 40
0.7853981633974483
  9
$DIMTFILL
 70
     0
  9
$DIMTFILLCLR
 70
     0
  9
$DIMARCSYM
 70
     0
  9
$DIMLTYPE
  6

  9
$DIMLTEX1
  6

  9
$DIMLTEX2
  6

  9
$LUNITS
 70
     2
  9
$LUPREC
 70
     4
  9
$SKETCHINC
 40
0.1
  9
$FILLETRAD
 40
0.5
  9
$AUNITS
 70
     0
  9
$AUPREC
 70
     0
  9
$MENU
  1
.
  9
$ELEVATION
 40
0.0
  9
$PELEVATION
 40
0.0
  9
$THICKNESS
 40
0.0
  9
$LIMCHECK
 70
     0
  9
$CHAMFERA
 40
0.5
  9
$CHAMFERB
 40
0.5
  9
$CHAMFERC
 40
1.0
  9
$CHAMFERD
 40
0.0
  9
$SKPOLY
 70
     0
  9
$TDCREATE
 40
2459968.614178241
  9
$TDUCREATE
 40
2459968.572511574
  9
$TDUPDATE
 40
2459968.614178241
  9
$TDUUPDATE
 40
2459968.572511574
  9
$TDINDWG
 40
0.0000000116
  9
$TDUSRTIMER
 40
0.0000000116
  9
$USRTIMER
 70
     1
  9
$ANGBASE
 50
0.0
  9
$ANGDIR
 70
     0
  9
$PDMODE
 70
     0
  9
$PDSIZE
 40
0.0
  9
$PLINEWID
 40
0.0
  9
$SPLFRAME
 70
     0
  9
$SPLINETYPE
 70
     6
  9
$SPLINESEGS
 70
     8
  9
$HANDSEED
  5
150
  9
$SURFTAB1
 70
     6
  9
$SURFTAB2
 70
     6
  9
$SURFTYPE
 70
     6
  9
$SURFU
 70
     6
  9
$SURFV
 70
     6
  9
$UCSBASE
  2

  9
$UCSNAME
  2

  9
$UCSORG
 10
0.0
 20
0.0
 30
0.0
  9
$UCSXDIR
 10
1.0
 20
0.0
 30
0.0
  9
$UCSYDIR
 10
0.0
 20
1.0
 30
0.0
  9
$UCSORTHOREF
  2

  9
$UCSORTHOVIEW
 70
     0
  9
$UCSORGTOP
 10
0.0
 20
0.0
 30
0.0
  9
$UCSORGBOTTOM
 10
0.0
 20
0.0
 30
0.0
  9
$UCSORGLEFT
 10
0.0
 20
0.0
 30
0.0
  9
$UCSORGRIGHT
 10
0.0
 20
0.0
 30
0.0
  9
$UCSORGFRONT
 10
0.0
 20
0.0
 30
0.0
  9
$UCSORGBACK
 10
0.0
 20
0.0
 30
0.0
  9
$PUCSBASE
  2

  9
$PUCSNAME
  2

  9
$PUCSORG
 10
0.0
 20
0.0
 30
0.0
  9
$PUCSXDIR
 10
1.0
 20
0.0
 30
0.0
  9
$PUCSYDIR
 10
0.0
 20
1.0
 30
0.0
  9
$PUCSORTHOREF
  2

  9
$PUCSORTHOVIEW
 70
     0
  9
$PUCSORGTOP
 10
0.0
 20
0.0
 30
0.0
  9
$PUCSORGBOTTOM
 10
0.0
 20
0.0
 30
0.0
  9
$PUCSORGLEFT
 10
0.0
 20
0.0
 30
0.0
  9
$PUCSORGRIGHT
 10
0.0
 20
0.0
 30
0.0
  9
$PUCSORGFRONT
 10
0.0
 20
0.0
 30
0.0
  9
$PUCSORGBACK
 10
0.0
 20
0.0
 30
0.0
  9
$USERI1
 70
     0
  9
$USERI2
 70
     0
  9
$USERI3
 70
     0
  9
$USERI4
 70
     0
  9
$USERI5
 70
     0
  9
$USERR1
 40
0.0
  9
$USERR2
 40
0.0
  9
$USERR3
 40
0.0
  9
$USERR4
 40
0.0
  9
$USERR5
 40
0.0
  9
$WORLDVIEW
 70
     1
  9
$SHADEDGE
 70
     3
  9
$SHADEDIF
 70
    70
  9
$TILEMODE
 70
     1
  9
$MAXACTVP
 70
    64
  9
$PINSBASE
 10
0.0
 20
0.0
 30
0.0
  9
$PLIMCHECK
 70
     0
  9
$PEXTMIN
 10
1.000000000000000E+20
 20
1.000000000000000E+20
 30
1.000000000000000E+20
  9
$PEXTMAX
 10
-1.000000000000000E+20
 20
-1.000000000000000E+20
 30
-1.000000000000000E+20
  9
$PLIMMIN
 10
0.0
 20
0.0
  9
$PLIMMAX
 10
12.0
 20
9.0
  9
$UNITMODE
 70
     0
  9
$VISRETAIN
 70
     1
  9
$PLINEGEN
 70
     0
  9
$PSLTSCALE
 70
     1
  9
$TREEDEPTH
 70
  3020
  9
$CMLSTYLE
  2
Standard
  9
$CMLJUST
 70
     0
  9
$CMLSCALE
 40
1.0
  9
$PROXYGRAPHICS
 70
     1
  9
$MEASUREMENT
 70
     0
  9
$CELWEIGHT
370
    -1
  9
$ENDCAPS
280
     0
  9
$JOINSTYLE
280
     0
  9
$LWDISPLAY
290
     1
  9
$INSUNITS
 70
     1
  9
$HYPERLINKBASE
  1

  9
$STYLESHEET
  1

  9
$XEDIT
290
     1
  9
$CEPSNTYPE
380
     0
  9
$PSTYLEMODE
290
     1
  9
$FINGERPRINTGUID
  2
{8CC0E04E-E54E-5F59-9FC4-12519A8E3460}
  9
$VERSIONGUID
  2
{FAEB1C32-E019-11D5-929B-00C0DF256EC4}
  9
$EXTNAMES
290
     1
  9
$PSVPSCALE
 40
0.0
  9
$OLESTARTUP
290
     0
  9
$SORTENTS
280
   127
  9
$INDEXCTL
280
     0
  9
$HIDETEXT
280
     1
  9
$XCLIPFRAME
290
     0
  9
$HALOGAP
280
     0
  9
$OBSCOLOR
 70
   257
  9
$OBSLTYPE
280
     0
  9
$INTERSECTIONDISPLAY
280
     0
  9
$INTERSECTIONCOLOR
 70
   257
  9
$DIMASSOC
280
     2
  9
$PROJECTNAME
  1

  9
$CAMERADISPLAY
290
     0
  9
$LENSLENGTH
 40
50.0
  9
$CAMERAHEIGHT
 40
0.0
  9
$STEPSPERSEC
 40
2.0
  9
$STEPSIZE
 40
6.0
  9
$3DDWFPREC
 40
2.0
  9
$PSOLWIDTH
 40
0.25
  9
$PSOLHEIGHT
 40
4.0
  9
$LOFTANG1
 40
1.570796326794897
  9
$LOFTANG2
 40
1.570796326794897
  9
$LOFTMAG1
 40
0.0
  9
$LOFTMAG2
 40
0.0
  9
$LOFTPARAM
 70
     7
  9
$LOFTNORMALS
280
     1
  9
$LATITUDE
 40
37.795
  9
$LONGITUDE
 40
-122.394
  9
$NORTHDIRECTION
 40
0.0
  9
$TIMEZONE
 70
 -8000
  9
$LIGHTGLYPHDISPLAY
280
     1
  9
$TILEMODELIGHTSYNCH
280
     1
  9
$CMATERIAL
347
3C
  9
$SOLIDHIST
280
     1
  9
$SHOWHIST
280
     1
  9
$DWFFRAME
280
     2
  9
$DGNFRAME
280
     2
  9
$REALWORLDSCALE
290
     1
  9
$INTERFERECOLOR
 62
   256
  9
$CSHADOW
280
     0
  9
$SHADOWPLANELOCATION
 40
0.0
  0
ENDSEC
  0
SECTION
  2
CLASSES
  0
CLASS
  1
ACDBDICTIONARYWDFLT
  2
AcDbDictionaryWithDefault
  3
ObjectDBX Classes
 90
        0
 91
        4
280
     0
281
     0
  0
CLASS
  1
VISUALSTYLE
  2
AcDbVisualStyle
  3
ObjectDBX Classes
 90
     4095
 91
        4
280
     0
281
     0
  0
CLASS
  1
MATERIAL
  2
AcDbMaterial
  3
ObjectDBX Classes
 90
     1153
 91
        4
280
     0
281
     0
  0
CLASS
  1
SUN
  2
AcDbSun
  3
SCENEOE
 90
     1024
 91
        4
280
     0
281
     0
  0
ENDSEC
  0
SECTION
  2
TABLES
  0
TABLE
  2
VPORT
  5
8
330
0
100
AcDbSymbolTable
 70
     1
  0
VPORT
  5
29
330
8
100
AcDbSymbolTableRecord
100
AcDbViewportTableRecord
  2
*Active
 70
     0
 10
0.0
 20
0.0
 11
1.0
 21
1.0
 12
0.0
 22
0.0
 13
0.0
 23
0.0
 14
0.5
 24
0.5
 15
0.5
 25
0.5
 16
0.0
 26
0.0
 36
1.0
 17
105.0007777515277
 27
-148.5000416295416
 37
0.0
 40
297.0000832590831
 41
0.7070757462376333
 42
50.0
 43
0.0
 44
0.0
 50
0.0
 51
0.0
 71
     0
 72
   100
 73
     1
 74
     3
 75
     0
 76
     0
 77
     0
 78
     0
281
     0
 65
     1
110
0.0
120
0.0
130
0.0
111
1.0
121
0.0
131
0.0
112
0.0
122
1.0
132
0.0
 79
     0
146
0.0
 60
     3
 61
     5
292
     1
282
     1
141
0.0
142
0.0
 63
   250
361
3F
  0
ENDTAB
  0
TABLE
  2
LTYPE
  5
5
330
0
100
AcDbSymbolTable
 70
     3
  0
LTYPE
  5
14
330
5
100
AcDbSymbolTableRecord
100
AcDbLinetypeTableRecord
  2
ByBlock
 70
     0
  3

 72
    65
 73
     0
 40
0.0
  0
LTYPE
  5
15
330
5
100
AcDbSymbolTableRecord
100
AcDbLinetypeTableRecord
  2
ByLayer
 70
     0
  3

 72
    65
 73
     0
 40
0.0
  0
LTYPE
  5
16
330
5
100
AcDbSymbolTableRecord
100
AcDbLinetypeTableRecord
  2
Continuous
 70
     0
  3
Solid line
 72
    65
 73
     0
 40
0.0
  0
LTYPE
  5
121
330
5
100
AcDbSymbolTableRecord
100
AcDbLinetypeTableRecord
  2
AI-Linetype-1
 70
     0
  3
Adobe Illustrator Linetype No. 1
 72
    65
 73
     2
 40
8.455406854423014
 49
4.227703427211507
 74
     0
 49
-4.227703427211507
 74
     0
  0
LTYPE
  5
126
330
5
100
AcDbSymbolTableRecord
100
AcDbLinetypeTableRecord
  2
AI-Linetype-2
 70
     0
  3
Adobe Illustrator Linetype No. 2
 72
    65
 73
     4
 40
38.04952059430334
 49
25.36641031266882
 74
     0
 49
-4.227703427211507
 74
     0
 49
4.227703427211507
 74
     0
 49
-4.227703427211507
 74
     0
  0
ENDTAB
  0
TABLE
  2
LAYER
  5
2
330
0
100
AcDbSymbolTable
 70
     1
  0
LAYER
  5
10
330
2
100
AcDbSymbolTableRecord
100
AcDbLayerTableRecord
  2
0
 70
     0
 62
     7
  6
Continuous
370
    -3
390
F
347
3E
  0
ENDTAB
  0
TABLE
  2
STYLE
  5
3
330
0
100
AcDbSymbolTable
 70
     1
  0
STYLE
  5
11
330
3
100
AcDbSymbolTableRecord
100
AcDbTextStyleTableRecord
  2
Standard
 70
     0
 40
0.0
 41
1.0
 50
0.0
 71
     0
 42
0.2
  3
txt
  4

  0
ENDTAB
  0
TABLE
  2
VIEW
  5
6
330
0
100
AcDbSymbolTable
 70
     0
  0
ENDTAB
  0
TABLE
  2
UCS
  5
7
330
0
100
AcDbSymbolTable
 70
     0
  0
ENDTAB
  0
TABLE
  2
APPID
  5
9
330
0
100
AcDbSymbolTable
 70
     1
  0
APPID
  5
12
330
9
100
AcDbSymbolTableRecord
100
AcDbRegAppTableRecord
  2
ACAD
 70
     0
  0
ENDTAB
  0
TABLE
  2
DIMSTYLE
  5
A
330
0
100
AcDbSymbolTable
 70
     1
100
AcDbDimStyleTable
  0
DIMSTYLE
105
27
330
A
100
AcDbSymbolTableRecord
100
AcDbDimStyleTableRecord
  2
Standard
 70
     0
178
     0
340
11
  0
ENDTAB
  0
TABLE
  2
BLOCK_RECORD
  5
1
330
0
100
AcDbSymbolTable
 70
     4
  0
BLOCK_RECORD
  5
1F
330
1
100
AcDbSymbolTableRecord
100
AcDbBlockTableRecord
  2
*Model_Space
340
22
 70
     0
280
     1
281
     0
  0
BLOCK_RECORD
  5
1B
330
1
100
AcDbSymbolTableRecord
100
AcDbBlockTableRecord
  2
*Paper_Space
340
1E
 70
     0
280
     1
281
     0
  0
BLOCK_RECORD
  5
23
330
1
100
AcDbSymbolTableRecord
100
AcDbBlockTableRecord
  2
*Paper_Space0
340
26
 70
     0
280
     1
281
     0
  0
BLOCK_RECORD
  5
10E
330
1
100
AcDbSymbolTableRecord
100
AcDbBlockTableRecord
  2
block 2
340
0
102
{BLKREFS
331
10F
102
}
 70
     0
280
     1
281
     0
  0
BLOCK_RECORD
  5
112
330
1
100
AcDbSymbolTableRecord
100
AcDbBlockTableRecord
  2
block 3
340
0
102
{BLKREFS
331
113
102
}
 70
     0
280
     1
281
     0
  0
BLOCK_RECORD
  5
116
330
1
100
AcDbSymbolTableRecord
100
AcDbBlockTableRecord
  2
block 4
340
0
102
{BLKREFS
331
117
102
}
 70
     0
280
     1
281
     0
  0
ENDTAB
  0
ENDSEC
  0
SECTION
  2
BLOCKS
  0
BLOCK
  5
20
330
1F
100
AcDbEntity
  8
0
100
AcDbBlockBegin
  2
*Model_Space
 70
     0
 10
0.0
 20
0.0
 30
0.0
  3
*Model_Space
  1

  0
ENDBLK
  5
21
330
1F
100
AcDbEntity
  8
0
100
AcDbBlockEnd
  0
BLOCK
  5
1C
330
1B
100
AcDbEntity
 67
     1
  8
0
100
AcDbBlockBegin
  2
*Paper_Space
 70
     0
 10
0.0
 20
0.0
 30
0.0
  3
*Paper_Space
  1

  0
ENDBLK
  5
1D
330
1B
100
AcDbEntity
 67
     1
  8
0
100
AcDbBlockEnd
  0
BLOCK
  5
24
330
23
100
AcDbEntity
  8
0
100
AcDbBlockBegin
  2
*Paper_Space0
 70
     0
 10
0.0
 20
0.0
 30
0.0
  3
*Paper_Space0
  1

  0
ENDBLK
  5
25
330
23
100
AcDbEntity
  8
0
100
AcDbBlockEnd
  0
BLOCK
  5
110
330
10E
100
AcDbEntity
  8
0
100
AcDbBlockBegin
  2
block 2
 70
     0
 10
0.0
 20
0.0
 30
0.0
  3
block 2
  1

  0
INSERT
  5
113
330
10E
100
AcDbEntity
  8
0
100
AcDbBlockReference
  2
block 3
 10
0.0
 20
0.0
 30
0.0
  0
ENDBLK
  5
111
330
10E
100
AcDbEntity
  8
0
100
AcDbBlockEnd
  0
BLOCK
  5
114
330
112
100
AcDbEntity
  8
0
100
AcDbBlockBegin
  2
block 3
 70
     0
 10
0.0
 20
0.0
 30
0.0
  3
block 3
  1

  0
INSERT
  5
117
330
112
100
AcDbEntity
  8
0
100
AcDbBlockReference
  2
block 4
 10
0.0
 20
0.0
 30
0.0
  0
ENDBLK
  5
115
330
112
100
AcDbEntity
  8
0
100
AcDbBlockEnd
  0
BLOCK
  5
118
330
116
100
AcDbEntity
  8
0
100
AcDbBlockBegin
  2
block 4
 70
     0
 10
0.0
 20
0.0
 30
0.0
  3
block 4
  1

  0
POLYLINE
  5
11A
330
116
100
AcDbEntity
  8
0
 62
     4
370
    25
100
AcDb2dPolyline
 66
     1
 10
0.0
 20
0.0
 30
0.0
  0
VERTEX
  5
11B
330
11A
100
AcDbEntity
  8
0
 62
     4
370
    25
100
AcDbVertex
100
AcDb2dVertex
 10
105.1972179573704
 20
-215.969892320682
 30
0.0
  0
VERTEX
  5
11C
330
11A
100
AcDbEntity
  8
0
 62
     4
370
    25
100
AcDbVertex
100
AcDb2dVertex
 10
105.1972179573704
 20
-204.7198253543648
 30
0.0
  0
SEQEND
  5
11D
330
11A
100
AcDbEntity
  8
0
 62
     4
370
    25
  0
POLYLINE
  5
11E
330
116
100
AcDbEntity
  8
0
  6
AI-Linetype-1
 62
     4
370
    25
100
AcDb2dPolyline
 66
     1
 10
0.0
 20
0.0
 30
0.0
  0
VERTEX
  5
11F
330
11E
100
AcDbEntity
  8
0
  6
AI-Linetype-1
 62
     4
370
    25
100
AcDbVertex
100
AcDb2dVertex
 10
105.1972179573704
 20
-200.4921118341001
 30
0.0
  0
VERTEX
  5
120
330
11E
100
AcDbEntity
  8
0
  6
AI-Linetype-1
 62
     4
370
    25
100
AcDbVertex
100
AcDb2dVertex
 10
105.1972179573704
 20
-194.1505523196264
 30
0.0
  0
SEQEND
  5
122
330
11E
100
AcDbEntity
  8
0
  6
AI-Linetype-1
 62
     4
370
    25
  0
POLYLINE
  5
123
330
116
100
AcDbEntity
  8
0
  6
AI-Linetype-2
 62
     4
370
    25
100
AcDb2dPolyline
 66
     1
 10
0.0
 20
0.0
 30
0.0
  0
VERTEX
  5
124
330
123
100
AcDbEntity
  8
0
  6
AI-Linetype-2
 62
     4
370
    25
100
AcDbVertex
100
AcDb2dVertex
 10
105.1972179573704
 20
-192.0367063254175
 30
0.0
  0
VERTEX
  5
125
330
123
100
AcDbEntity
  8
0
  6
AI-Linetype-2
 62
     4
370
    25
100
AcDbVertex
100
AcDb2dVertex
 10
105.1972179573704
 20
-80.00199659254834
 30
0.0
  0
SEQEND
  5
127
330
123
100
AcDbEntity
  8
0
  6
AI-Linetype-2
 62
     4
370
    25
  0
POLYLINE
  5
128
330
116
100
AcDbEntity
  8
0
 62
     4
370
    25
100
AcDb2dPolyline
 66
     1
 10
0.0
 20
0.0
 30
0.0
  0
VERTEX
  5
129
330
128
100
AcDbEntity
  8
0
 62
     4
370
    25
100
AcDbVertex
100
AcDb2dVertex
 10
105.1972179573704
 20
-77.88814521537769
 30
0.0
  0
VERTEX
  5
12A
330
128
100
AcDbEntity
  8
0
 62
     4
370
    25
100
AcDbVertex
100
AcDb2dVertex
 10
105.1972179573704
 20
-66.63806210017535
 30
0.0
  0
SEQEND
  5
12B
330
128
100
AcDbEntity
  8
0
 62
     4
370
    25
  0
ENDBLK
  5
119
330
116
100
AcDbEntity
  8
0
100
AcDbBlockEnd
  0
ENDSEC
  0
SECTION
  2
ENTITIES
  0
POLYLINE
  5
40
330
1F
100
AcDbEntity
  8
0
 62
   250
370
    25
100
AcDb2dPolyline
 66
     1
 10
0.0
 20
0.0
 30
0.0
  0
VERTEX
  5
41
330
40
100
AcDbEntity
  8
0
 62
   250
370
    25
100
AcDbVertex
100
AcDb2dVertex
 10
121.675377620961
 20
-79.80471859115995
 30
0.0
  0
VERTEX
  5
42
330
40
100
AcDbEntity
  8
0
 62
   250
370
    25
100
AcDbVertex
100
AcDb2dVertex
 10
121.7027884535951
 20
-82.94641636815233
 30
0.0
  0
SEQEND
  5
43
330
40
100
AcDbEntity
  8
0
 62
   250
370
    25
  0
SPLINE
  5
44
330
1F
100
AcDbEntity
  8
0
 62
   250
370
    25
100
AcDbSpline
210
0.0
220
0.0
230
1.0
 70
     8
 71
     3
 72
     8
 73
     4
 74
     0
 42
0.0000000001
 43
0.0000000001
 12
1.0
 22
0.0
 32
0.0
 13
1.0
 23
0.0
 33
0.0
 40
0.0
 40
0.0
 40
0.0
 40
0.0
 40
1.0
 40
1.0
 40
1.0
 40
1.0
 10
121.708009564573
 20
-83.54246970133654
 30
0.0
 10
121.7293173418071
 20
-85.98460914517041
 30
0.0
 10
121.7506251190413
 20
-88.42671331122675
 30
0.0
 10
121.7719328962755
 20
-90.86881747728278
 30
0.0
  0
POLYLINE
  5
45
330
1F
100
AcDbEntity
  8
0
 62
   250
370
    25
100
AcDb2dPolyline
 66
     1
 10
0.0
 20
0.0
 30
0.0
  0
VERTEX
  5
46
330
45
100
AcDbEntity
  8
0
 62
   250
370
    25
100
AcDbVertex
100
AcDb2dVertex
 10
121.7719328962755
 20
-90.86881747728278
 30
0.0
  0
VERTEX
  5
47
330
45
100
AcDbEntity
  8
0
 62
   250
370
    25
100
AcDbVertex
100
AcDb2dVertex
 10
121.9268376145458
 20
-108.6187255284008
 30
0.0
  0
SEQEND
  5
48
330
45
100
AcDbEntity
  8
0
 62
   250
370
    25
  0
SPLINE
  5
49
330
1F
100
AcDbEntity
  8
0
 62
   250
370
    25
100
AcDbSpline
210
0.0
220
0.0
230
1.0
 70
     8
 71
     3
 72
     8
 73
     4
 74
     0
 42
0.0000000001
 43
0.0000000001
 12
1.0
 22
0.0
 32
0.0
 13
1.0
 23
0.0
 33
0.0
 40
0.0
 40
0.0
 40
0.0
 40
0.0
 40
1.0
 40
1.0
 40
1.0
 40
1.0
 10
121.9268376145458
 20
-108.6187255284008
 30
0.0
 10
121.9292717811503
 20
-108.8965733061093
 30
0.0
 10
121.7047287313233
 20
-109.1230919171638
 30
0.0
 10
121.4268809606341
 20
-109.1230919171638
 30
0.0
  0
POLYLINE
  5
4A
330
1F
100
AcDbEntity
  8
0
 62
   250
370
    25
100
AcDb2dPolyline
 66
     1
 10
0.0
 20
0.0
 30
0.0
  0
VERTEX
  5
4B
330
4A
100
AcDbEntity
  8
0
 62
   250
370
    25
100
AcDbVertex
100
AcDb2dVertex
 10
88.93562512288838
 20
-109.1230919171638
 30
0.0
  0
VERTEX
  5
4C
330
4A
100
AcDbEntity
  8
0
 62
   250
370
    25
100
AcDbVertex
100
AcDb2dVertex
 10
89.13565011778532
 20
-109.1230919171638
 30
0.0
  0
SEQEND
  5
4D
330
4A
100
AcDbEntity
  8
0
 62
   250
370
    25
  0
POLYLINE
  5
4E
330
1F
100
AcDbEntity
  8
0
 62
   250
370
    25
100
AcDb2dPolyline
 66
     1
 10
0.0
 20
0.0
 30
0.0
  0
VERTEX
  5
4F
330
4E
100
AcDbEntity
  8
0
 62
   250
370
    25
100
AcDbVertex
100
AcDb2dVertex
 10
89.13565011778532
 20
-109.1230919171638
 30
0.0
  0
VERTEX
  5
50
330
4E
100
AcDbEntity
  8
0
 62
   250
370
    25
100
AcDbVertex
100
AcDb2dVertex
 10
121.2268559657371
 20
-109.1230919171638
 30
0.0
  0
SEQEND
  5
51
330
4E
100
AcDbEntity
  8
0
 62
   250
370
    25
  0
SPLINE
  5
52
330
1F
100
AcDbEntity
  8
0
 62
   250
370
    25
100
AcDbSpline
210
0.0
220
0.0
230
1.0
 70
     8
 71
     3
 72
     8
 73
     4
 74
     0
 42
0.0000000001
 43
0.0000000001
 12
1.0
 22
0.0
 32
0.0
 13
1.0
 23
0.0
 33
0.0
 40
0.0
 40
0.0
 40
0.0
 40
0.0
 40
1.0
 40
1.0
 40
1.0
 40
1.0
 10
120.9876726385059
 20
-79.11091053577786
 30
0.0
 10
121.3670498510494
 20
-79.11754275799836
 30
0.0
 10
121.6720615099345
 20
-79.425270813477
 30
0.0
 10
121.675377620961
 20
-79.80468331338211
 30
0.0
  0
SPLINE
  5
53
330
1F
100
AcDbEntity
  8
0
 62
   250
370
    25
100
AcDbSpline
210
0.0
220
0.0
230
1.0
 70
     8
 71
     3
 72
     8
 73
     4
 74
     0
 42
0.0000000001
 43
0.0000000001
 12
1.0
 22
0.0
 32
0.0
 13
1.0
 23
0.0
 33
0.0
 40
0.0
 40
0.0
 40
0.0
 40
0.0
 40
1.0
 40
1.0
 40
1.0
 40
1.0
 10
120.987637360729
 20
-79.1109458135557
 30
0.0
 10
119.8842543333231
 20
-79.1099580357781
 30
0.0
 10
118.7807301948096
 20
-79.11278025799956
 30
0.0
 10
117.6773118896269
 20
-79.11126331355531
 30
0.0
  0
POLYLINE
  5
54
330
1F
100
AcDbEntity
  8
0
 62
   250
370
    25
100
AcDb2dPolyline
 66
     1
 10
0.0
 20
0.0
 30
0.0
  0
VERTEX
  5
55
330
54
100
AcDbEntity
  8
0
 62
   250
370
    25
100
AcDbVertex
100
AcDb2dVertex
 10
121.7049051202077
 20
-83.18845720142511
 30
0.0
  0
VERTEX
  5
56
330
54
100
AcDbEntity
  8
0
 62
   250
370
    25
100
AcDbVertex
100
AcDb2dVertex
 10
121.7070570645973
 20
-83.4319797013643
 30
0.0
  0
SEQEND
  5
57
330
54
100
AcDbEntity
  8
0
 62
   250
370
    25
  0
POLYLINE
  5
58
330
1F
100
AcDbEntity
  8
0
 62
   250
370
    25
100
AcDb2dPolyline
 66
     1
 10
0.0
 20
0.0
 30
0.0
  0
VERTEX
  5
59
330
58
100
AcDbEntity
  8
0
 62
   250
370
    25
100
AcDbVertex
100
AcDb2dVertex
 10
121.2268559657371
 20
-109.1230919171638
 30
0.0
  0
VERTEX
  5
5A
330
58
100
AcDbEntity
  8
0
 62
   250
370
    25
100
AcDbVertex
100
AcDb2dVertex
 10
121.4268809606341
 20
-109.1230919171638
 30
0.0
  0
SEQEND
  5
5B
330
58
100
AcDbEntity
  8
0
 62
   250
370
    25
  0
SPLINE
  5
5C
330
1F
100
AcDbEntity
  8
0
 62
   250
370
    25
100
AcDbSpline
210
0.0
220
0.0
230
1.0
 70
     8
 71
     3
 72
     8
 73
     4
 74
     0
 42
0.0000000001
 43
0.0000000001
 12
1.0
 22
0.0
 32
0.0
 13
1.0
 23
0.0
 33
0.0
 40
0.0
 40
0.0
 40
0.0
 40
0.0
 40
1.0
 40
1.0
 40
1.0
 40
1.0
 10
88.43566846897667
 20
-108.6187255284008
 30
0.0
 10
88.4332343023721
 20
-108.8965733061093
 30
0.0
 10
88.65777735219909
 20
-109.1230919171638
 30
0.0
 10
88.93562512288838
 20
-109.1230919171638
 30
0.0
  0
POLYLINE
  5
5D
330
1F
100
AcDbEntity
  8
0
 62
   250
370
    25
100
AcDb2dPolyline
 66
     1
 10
0.0
 20
0.0
 30
0.0
  0
VERTEX
  5
5E
330
5D
100
AcDbEntity
  8
0
 62
   250
370
    25
100
AcDbVertex
100
AcDb2dVertex
 10
88.43566846897667
 20
-108.6187255284008
 30
0.0
  0
VERTEX
  5
5F
330
5D
100
AcDbEntity
  8
0
 62
   250
370
    25
100
AcDbVertex
100
AcDb2dVertex
 10
88.59053790947007
 20
-90.86881747728278
 30
0.0
  0
SEQEND
  5
60
330
5D
100
AcDbEntity
  8
0
 62
   250
370
    25
  0
POLYLINE
  5
61
330
1F
100
AcDbEntity
  8
0
 62
   250
370
    25
100
AcDb2dPolyline
 66
     1
 10
0.0
 20
0.0
 30
0.0
  0
VERTEX
  5
62
330
61
100
AcDbEntity
  8
0
 62
   250
370
    25
100
AcDbVertex
100
AcDb2dVertex
 10
88.59053790947007
 20
-90.86881747728278
 30
0.0
  0
VERTEX
  5
63
330
61
100
AcDbEntity
  8
0
 62
   250
370
    25
100
AcDbVertex
100
AcDb2dVertex
 10
88.65446124117258
 20
-83.5438102568919
 30
0.0
  0
SEQEND
  5
64
330
61
100
AcDbEntity
  8
0
 62
   250
370
    25
  0
POLYLINE
  5
65
330
1F
100
AcDbEntity
  8
0
 62
   250
370
    25
100
AcDb2dPolyline
 66
     1
 10
0.0
 20
0.0
 30
0.0
  0
VERTEX
  5
66
330
65
100
AcDbEntity
  8
0
 62
   250
370
    25
100
AcDbVertex
100
AcDb2dVertex
 10
88.65968235215048
 20
-82.94641636815233
 30
0.0
  0
VERTEX
  5
67
330
65
100
AcDbEntity
  8
0
 62
   250
370
    25
100
AcDbVertex
100
AcDb2dVertex
 10
88.68712846256139
 20
-79.80468331338211
 30
0.0
  0
SEQEND
  5
68
330
65
100
AcDbEntity
  8
0
 62
   250
370
    25
  0
SPLINE
  5
69
330
1F
100
AcDbEntity
  8
0
 62
   250
370
    25
100
AcDbSpline
210
0.0
220
0.0
230
1.0
 70
     8
 71
     3
 72
     8
 73
     4
 74
     0
 42
0.0000000001
 43
0.0000000001
 12
1.0
 22
0.0
 32
0.0
 13
1.0
 23
0.0
 33
0.0
 40
0.0
 40
0.0
 40
0.0
 40
0.0
 40
1.0
 40
1.0
 40
1.0
 40
1.0
 10
89.37483344501658
 20
-79.11091053577786
 30
0.0
 10
89.36788372297165
 20
-79.10406664689064
 30
0.0
 10
89.36093400092673
 20
-79.09722275800343
 30
0.0
 10
89.3540195566587
 20
-79.0903788691162
 30
0.0
  0
SPLINE
  5
6A
330
1F
100
AcDbEntity
  8
0
 62
   250
370
    25
100
AcDbSpline
210
0.0
220
0.0
230
1.0
 70
     8
 71
     3
 72
    17
 73
    13
 74
     0
 42
0.0000000001
 43
0.0000000001
 12
1.0
 22
0.0
 32
0.0
 13
1.0
 23
0.0
 33
0.0
 40
0.0
 40
0.0
 40
0.0
 40
0.0
 40
1.0
 40
1.0
 40
1.0
 40
2.0
 40
2.0
 40
2.0
 40
3.0
 40
3.0
 40
3.0
 40
4.0
 40
4.0
 40
4.0
 40
4.0
 10
121.0084865268637
 20
-79.0903788691162
 30
0.0
 10
121.0099329157157
 20
-79.08896775800547
 30
0.0
 10
121.0113793045677
 20
-79.0875213691169
 30
0.0
 10
121.0128256934197
 20
-79.08611025800617
 30
0.0
 10
121.0131079156347
 20
-79.08579275800626
 30
0.0
 10
121.0143073600486
 20
-79.08466386911762
 30
0.0
 10
121.0137076378416
 20
-79.0852283135621
 30
0.0
 10
121.0108148601377
 20
-79.08808581356139
 30
0.0
 10
121.0079220824337
 20
-79.09094331356067
 30
0.0
 10
121.0050293047297
 20
-79.09380081355997
 30
0.0
 10
120.9992437493218
 20
-79.09948053578071
 30
0.0
 10
120.9934581939138
 20
-79.10519553577929
 30
0.0
 10
120.9876726385059
 20
-79.11091053577786
 30
0.0
  0
POLYLINE
  5
6B
330
1F
100
AcDbEntity
  8
0
 62
   250
370
    25
100
AcDb2dPolyline
 66
     1
 10
0.0
 20
0.0
 30
0.0
  0
VERTEX
  5
6C
330
6B
100
AcDbEntity
  8
0
 62
   250
370
    25
100
AcDbVertex
100
AcDb2dVertex
 10
88.65544901892515
 20
-83.4319797013643
 30
0.0
  0
VERTEX
  5
6D
330
6B
100
AcDbEntity
  8
0
 62
   250
370
    25
100
AcDbVertex
100
AcDb2dVertex
 10
88.65756568553782
 20
-83.18852775698079
 30
0.0
  0
SEQEND
  5
6E
330
6B
100
AcDbEntity
  8
0
 62
   250
370
    25
  0
SPLINE
  5
6F
330
1F
100
AcDbEntity
  8
0
 62
   250
370
    25
100
AcDbSpline
210
0.0
220
0.0
230
1.0
 70
     8
 71
     3
 72
     8
 73
     4
 74
     0
 42
0.0000000001
 43
0.0000000001
 12
1.0
 22
0.0
 32
0.0
 13
1.0
 23
0.0
 33
0.0
 40
0.0
 40
0.0
 40
0.0
 40
0.0
 40
1.0
 40
1.0
 40
1.0
 40
1.0
 10
92.68540586055684
 20
-79.11126331355531
 30
0.0
 10
91.5819169998203
 20
-79.11278025799956
 30
0.0
 10
90.47828702797624
 20
-79.10999331355562
 30
0.0
 10
89.37483344501658
 20
-79.11091053577786
 30
0.0
  0
SPLINE
  5
70
330
1F
100
AcDbEntity
  8
0
 62
   250
370
    25
100
AcDbSpline
210
0.0
220
0.0
230
1.0
 70
     8
 71
     3
 72
     8
 73
     4
 74
     0
 42
0.0000000001
 43
0.0000000001
 12
1.0
 22
0.0
 32
0.0
 13
1.0
 23
0.0
 33
0.0
 40
0.0
 40
0.0
 40
0.0
 40
0.0
 40
1.0
 40
1.0
 40
1.0
 40
1.0
 10
88.68712846256139
 20
-79.80468331338211
 30
0.0
 10
88.69040929581102
 20
-79.425270813477
 30
0.0
 10
88.99545623247307
 20
-79.11754275799836
 30
0.0
 10
89.37483344501658
 20
-79.11091053577786
 30
0.0
  0
SPLINE
  5
71
330
1F
100
AcDbEntity
  8
0
 62
   250
370
    25
100
AcDbSpline
210
0.0
220
0.0
230
1.0
 70
     8
 71
     3
 72
    17
 73
    13
 74
     0
 42
0.0000000001
 43
0.0000000001
 12
1.0
 22
0.0
 32
0.0
 13
1.0
 23
0.0
 33
0.0
 40
0.0
 40
0.0
 40
0.0
 40
0.0
 40
1.0
 40
1.0
 40
1.0
 40
2.0
 40
2.0
 40
2.0
 40
3.0
 40
3.0
 40
3.0
 40
4.0
 40
4.0
 40
4.0
 40
4.0
 10
105.1812530417612
 20
-125.3530216353284
 30
0.0
 10
106.7011960585398
 20
-125.3530216353284
 30
0.0
 10
108.1988082425547
 20
-125.4473896908604
 30
0.0
 10
109.7008301486794
 20
-125.7019541352411
 30
0.0
 10
110.4501301295632
 20
-125.8289541352096
 30
0.0
 10
111.1827084442069
 20
-125.9885508018361
 30
0.0
 10
111.9006464814463
 20
-126.2494299684377
 30
0.0
 10
112.2590334167476
 20
-126.3796049684051
 30
0.0
 10
112.6003811858168
 20
-126.52516107948
 30
0.0
 10
112.9168933999641
 20
-126.7461410794245
 30
0.0
 10
113.1991508927632
 20
-126.9432380238198
 30
0.0
 10
113.5426153284451
 20
-127.272273857071
 30
0.0
 10
113.3978706099156
 20
-127.6801555236355
 30
0.0
  0
SPLINE
  5
72
330
1F
100
AcDbEntity
  8
0
 62
   250
370
    25
100
AcDbSpline
210
0.0
220
0.0
230
1.0
 70
     8
 71
     3
 72
     8
 73
     4
 74
     0
 42
0.0000000001
 43
0.0000000001
 12
1.0
 22
0.0
 32
0.0
 13
1.0
 23
0.0
 33
0.0
 40
0.0
 40
0.0
 40
0.0
 40
0.0
 40
1.0
 40
1.0
 40
1.0
 40
1.0
 10
97.04154102720035
 20
-127.8362596902632
 30
0.0
 10
97.02940547195439
 20
-127.8172802458233
 30
0.0
 10
97.01808130557663
 20
-127.7979127458284
 30
0.0
 10
97.00756852806705
 20
-127.7780513569444
 30
0.0
  0
SPLINE
  5
73
330
1F
100
AcDbEntity
  8
0
 62
   250
370
    25
100
AcDbSpline
210
0.0
220
0.0
230
1.0
 70
     8
 71
     3
 72
    17
 73
    13
 74
     0
 42
0.0000000001
 43
0.0000000001
 12
1.0
 22
0.0
 32
0.0
 13
1.0
 23
0.0
 33
0.0
 40
0.0
 40
0.0
 40
0.0
 40
0.0
 40
1.0
 40
1.0
 40
1.0
 40
2.0
 40
2.0
 40
2.0
 40
3.0
 40
3.0
 40
3.0
 40
4.0
 40
4.0
 40
4.0
 40
4.0
 10
96.96463547360682
 20
-127.6801555236355
 30
0.0
 10
96.81985547730046
 20
-127.2721327459596
 30
0.0
 10
97.16356685742055
 20
-126.9429910793752
 30
0.0
 10
97.44593018355019
 20
-126.7458941349802
 30
0.0
 10
97.76240711992064
 20
-126.5250199683686
 30
0.0
 10
98.1037548889899
 20
-126.3794991350719
 30
0.0
 10
98.4620359909605
 20
-126.2493241351048
 30
0.0
 10
99.17993875042305
 20
-125.9885155240582
 30
0.0
 10
99.912446509513
 20
-125.8289188574317
 30
0.0
 10
100.661675934843
 20
-125.7019541352411
 30
0.0
 10
102.1636978409677
 20
-125.4473896908604
 30
0.0
 10
103.6612747472058
 20
-125.3530216353284
 30
0.0
 10
105.1812530417612
 20
-125.3530216353284
 30
0.0
  0
SPLINE
  5
74
330
1F
100
AcDbEntity
  8
0
 62
   250
370
    25
100
AcDbSpline
210
0.0
220
0.0
230
1.0
 70
     8
 71
     3
 72
    23
 73
    19
 74
     0
 42
0.0000000001
 43
0.0000000001
 12
1.0
 22
0.0
 32
0.0
 13
1.0
 23
0.0
 33
0.0
 40
0.0
 40
0.0
 40
0.0
 40
0.0
 40
1.0
 40
1.0
 40
1.0
 40
2.0
 40
2.0
 40
2.0
 40
3.0
 40
3.0
 40
3.0
 40
4.0
 40
4.0
 40
4.0
 40
5.0
 40
5.0
 40
5.0
 40
6.0
 40
6.0
 40
6.0
 40
6.0
 10
105.1812530417612
 20
-131.7795391337219
 30
0.0
 10
103.8741761306631
 20
-131.7795391337219
 30
0.0
 10
102.5853731079876
 20
-131.6993880226308
 30
0.0
 10
101.2929717520706
 20
-131.4868394115728
 30
0.0
 10
100.6486584351751
 20
-131.3809002449327
 30
0.0
 10
100.0174331735012
 20
-131.2468799671881
 30
0.0
 10
99.39721457821322
 20
-131.0344724672412
 30
0.0
 10
98.96957736690094
 20
-130.8879991339446
 30
0.0
 10
97.93124656005762
 20
-130.5695113562466
 30
0.0
 10
97.93124656005762
 20
-129.9031141341909
 30
0.0
 10
97.93124656005762
 20
-129.2363288565799
 30
0.0
 10
98.97052986687694
 20
-128.9178058011037
 30
0.0
 10
99.3983434670733
 20
-128.771367745585
 30
0.0
 10
100.0184209512538
 20
-128.5591013567491
 30
0.0
 10
100.6495051018205
 20
-128.4251516345606
 30
0.0
 10
101.2936067520544
 20
-128.3192477456979
 30
0.0
 10
102.585831719087
 20
-128.1067696901956
 30
0.0
 10
103.8743877973243
 20
-128.0266538568823
 30
0.0
 10
105.1812530417612
 20
-128.0266538568823
 30
0.0
  0
SPLINE
  5
75
330
1F
100
AcDbEntity
  8
0
 62
   250
370
    25
100
AcDbSpline
210
0.0
220
0.0
230
1.0
 70
     8
 71
     3
 72
    23
 73
    19
 74
     0
 42
0.0000000001
 43
0.0000000001
 12
1.0
 22
0.0
 32
0.0
 13
1.0
 23
0.0
 33
0.0
 40
0.0
 40
0.0
 40
0.0
 40
0.0
 40
1.0
 40
1.0
 40
1.0
 40
2.0
 40
2.0
 40
2.0
 40
3.0
 40
3.0
 40
3.0
 40
4.0
 40
4.0
 40
4.0
 40
5.0
 40
5.0
 40
5.0
 40
6.0
 40
6.0
 40
6.0
 40
6.0
 10
105.1812530417612
 20
-128.0266538568823
 30
0.0
 10
106.4883299528593
 20
-128.0266538568823
 30
0.0
 10
107.7771329755348
 20
-128.1068049679732
 30
0.0
 10
109.0695343314518
 20
-128.3193535790318
 30
0.0
 10
109.7138476483473
 20
-128.4253280234491
 30
0.0
 10
110.3450729100212
 20
-128.559348301194
 30
0.0
 10
110.9652915053092
 20
-128.7717558011403
 30
0.0
 10
111.3929287166215
 20
-128.9181938566593
 30
0.0
 10
112.4312595234648
 20
-129.2366816343574
 30
0.0
 10
112.4312595234648
 20
-129.9031141341909
 30
0.0
 10
112.4312595234648
 20
-130.5698641340243
 30
0.0
 10
111.3919762166458
 20
-130.8884224672778
 30
0.0
 10
110.9641626164491
 20
-131.0348605227968
 30
0.0
 10
110.3440498544917
 20
-131.2470916338548
 30
0.0
 10
109.7130009817023
 20
-131.3810413560437
 30
0.0
 10
109.0688640536911
 20
-131.486945244906
 30
0.0
 10
107.7766743644354
 20
-131.6994233004086
 30
0.0
 10
106.4881182861981
 20
-131.7795391337219
 30
0.0
 10
105.1812530417612
 20
-131.7795391337219
 30
0.0
  0
SPLINE
  5
76
330
1F
100
AcDbEntity
  8
0
 62
   250
370
    25
100
AcDbSpline
210
0.0
220
0.0
230
1.0
 70
     8
 71
     3
 72
     8
 73
     4
 74
     0
 42
0.0000000001
 43
0.0000000001
 12
1.0
 22
0.0
 32
0.0
 13
1.0
 23
0.0
 33
0.0
 40
0.0
 40
0.0
 40
0.0
 40
0.0
 40
1.0
 40
1.0
 40
1.0
 40
1.0
 10
88.58034263195239
 20
-110.2695491390993
 30
0.0
 10
88.68289512933606
 20
-110.1668908057916
 30
0.0
 10
88.78615318225728
 20
-110.1238166391358
 30
0.0
 10
88.93125067855554
 20
-110.1231110835803
 30
0.0
  0
SPLINE
  5
77
330
1F
100
AcDbEntity
  8
0
 62
   250
370
    25
100
AcDbSpline
210
0.0
220
0.0
230
1.0
 70
     8
 71
     3
 72
     8
 73
     4
 74
     0
 42
0.0000000001
 43
0.0000000001
 12
1.0
 22
0.0
 32
0.0
 13
1.0
 23
0.0
 33
0.0
 40
0.0
 40
0.0
 40
0.0
 40
0.0
 40
1.0
 40
1.0
 40
1.0
 40
1.0
 10
88.43397513568685
 20
-110.6231030278998
 30
0.0
 10
88.43397513568685
 20
-110.4777233057137
 30
0.0
 10
88.47662596793175
 20
-110.3740771946287
 30
0.0
 10
88.57903735420791
 20
-110.2708544168768
 30
0.0
  0
POLYLINE
  5
78
330
1F
100
AcDbEntity
  8
0
 62
   250
370
    25
100
AcDb2dPolyline
 66
     1
 10
0.0
 20
0.0
 30
0.0
  0
VERTEX
  5
79
330
78
100
AcDbEntity
  8
0
 62
   250
370
    25
100
AcDbVertex
100
AcDb2dVertex
 10
118.6812468640143
 20
-110.1231110835803
 30
0.0
  0
VERTEX
  5
7A
330
78
100
AcDbEntity
  8
0
 62
   250
370
    25
100
AcDbVertex
100
AcDb2dVertex
 10
118.6812468640143
 20
-109.1230919171638
 30
0.0
  0
SEQEND
  5
7B
330
78
100
AcDbEntity
  8
0
 62
   250
370
    25
  0
POLYLINE
  5
7C
330
1F
100
AcDbEntity
  8
0
 62
   250
370
    25
100
AcDb2dPolyline
 66
     1
 10
0.0
 20
0.0
 30
0.0
  0
VERTEX
  5
7D
330
7C
100
AcDbEntity
  8
0
 62
   250
370
    25
100
AcDbVertex
100
AcDb2dVertex
 10
91.68125921950808
 20
-110.1231110835803
 30
0.0
  0
VERTEX
  5
7E
330
7C
100
AcDbEntity
  8
0
 62
   250
370
    25
100
AcDbVertex
100
AcDb2dVertex
 10
91.68125921950808
 20
-109.1230919171638
 30
0.0
  0
SEQEND
  5
7F
330
7C
100
AcDbEntity
  8
0
 62
   250
370
    25
  0
SPLINE
  5
80
330
1F
100
AcDbEntity
  8
0
 62
   250
370
    25
100
AcDbSpline
210
0.0
220
0.0
230
1.0
 70
     8
 71
     3
 72
    11
 73
     7
 74
     0
 42
0.0000000001
 43
0.0000000001
 12
1.0
 22
0.0
 32
0.0
 13
1.0
 23
0.0
 33
0.0
 40
0.0
 40
0.0
 40
0.0
 40
0.0
 40
1.0
 40
1.0
 40
1.0
 40
2.0
 40
2.0
 40
2.0
 40
2.0
 10
82.76099111374975
 20
-201.5244113385077
 30
0.0
 10
82.81006250138672
 20
-201.2806066163464
 30
0.0
 10
83.00246749647806
 20
-201.123091338608
 30
0.0
 10
83.25114054568944
 20
-201.123091338608
 30
0.0
 10
83.25114054568944
 20
-201.123091338608
 30
0.0
 10
83.25114054568944
 20
-201.123091338608
 30
0.0
 10
83.25114054568944
 20
-201.123091338608
 30
0.0
  0
SPLINE
  5
81
330
1F
100
AcDbEntity
  8
0
 62
   250
370
    25
100
AcDbSpline
210
0.0
220
0.0
230
1.0
 70
     8
 71
     3
 72
    11
 73
     7
 74
     0
 42
0.0000000001
 43
0.0000000001
 12
1.0
 22
0.0
 32
0.0
 13
1.0
 23
0.0
 33
0.0
 40
0.0
 40
0.0
 40
0.0
 40
0.0
 40
1.0
 40
1.0
 40
1.0
 40
2.0
 40
2.0
 40
2.0
 40
2.0
 10
127.6015149697547
 20
-201.5244113385186
 30
0.0
 10
127.5524435821286
 20
-201.2806066163554
 30
0.0
 10
127.3600385870444
 20
-201.123091338608
 30
0.0
 10
127.111365537833
 20
-201.1230913385971
 30
0.0
 10
127.111365537833
 20
-201.1230913385971
 30
0.0
 10
127.111365537833
 20
-201.1230913385971
 30
0.0
 10
127.111365537833
 20
-201.1230913385971
 30
0.0
  0
SPLINE
  5
82
330
1F
100
AcDbEntity
  8
0
 62
   250
370
    25
100
AcDbSpline
210
0.0
220
0.0
230
1.0
 70
     8
 71
     3
 72
     8
 73
     4
 74
     0
 42
0.0000000001
 43
0.0000000001
 12
1.0
 22
0.0
 32
0.0
 13
1.0
 23
0.0
 33
0.0
 40
0.0
 40
0.0
 40
0.0
 40
0.0
 40
1.0
 40
1.0
 40
1.0
 40
1.0
 10
114.3530544418979
 20
-127.2793649143336
 30
0.0
 10
114.3095111583176
 20
-127.5035120827377
 30
0.0
 10
114.3305022850962
 20
-127.7936362109987
 30
0.0
 10
113.9460942244827
 20
-128.0266538568823
 30
0.0
  0
SPLINE
  5
83
330
1F
100
AcDbEntity
  8
0
 62
   250
370
    25
100
AcDbSpline
210
0.0
220
0.0
230
1.0
 70
     8
 71
     3
 72
     8
 73
     4
 74
     0
 42
0.0000000001
 43
0.0000000001
 12
1.0
 22
0.0
 32
0.0
 13
1.0
 23
0.0
 33
0.0
 40
0.0
 40
0.0
 40
0.0
 40
0.0
 40
1.0
 40
1.0
 40
1.0
 40
1.0
 10
114.5509953027192
 20
-124.696996079937
 30
0.0
 10
114.4980433596256
 20
-125.5402760797259
 30
0.0
 10
114.4337319723775
 20
-126.3824271906265
 30
0.0
 10
114.3580611409747
 20
-127.2239785793051
 30
0.0
  0
SPLINE
  5
84
330
1F
100
AcDbEntity
  8
0
 62
   250
370
    25
100
AcDbSpline
210
0.0
220
0.0
230
1.0
 70
     8
 71
     3
 72
     8
 73
     4
 74
     0
 42
0.0000000001
 43
0.0000000001
 12
1.0
 22
0.0
 32
0.0
 13
1.0
 23
0.0
 33
0.0
 40
0.0
 40
0.0
 40
0.0
 40
0.0
 40
1.0
 40
1.0
 40
1.0
 40
1.0
 10
96.00444494254776
 20
-127.2239785793051
 30
0.0
 10
95.92877411114495
 20
-126.38253302396
 30
0.0
 10
95.86449800167367
 20
-125.5404877463926
 30
0.0
 10
95.81154605858013
 20
-124.6973135799369
 30
0.0
  0
SPLINE
  5
85
330
1F
100
AcDbEntity
  8
0
 62
   250
370
    25
100
AcDbSpline
210
0.0
220
0.0
230
1.0
 70
     8
 71
     3
 72
     8
 73
     4
 74
     0
 42
0.0000000001
 43
0.0000000001
 12
1.0
 22
0.0
 32
0.0
 13
1.0
 23
0.0
 33
0.0
 40
0.0
 40
0.0
 40
0.0
 40
0.0
 40
1.0
 40
1.0
 40
1.0
 40
1.0
 10
96.23029327011922
 20
-127.8219016347114
 30
0.0
 10
96.099906606779
 20
-127.6568369125302
 30
0.0
 10
96.03139716408238
 20
-127.4885971903502
 30
0.0
 10
96.0094543868644
 20
-127.2793646904024
 30
0.0
  0
SPLINE
  5
86
330
1F
100
AcDbEntity
  8
0
 62
   250
370
    25
100
AcDbSpline
210
0.0
220
0.0
230
1.0
 70
     8
 71
     3
 72
     8
 73
     4
 74
     0
 42
0.0000000001
 43
0.0000000001
 12
1.0
 22
0.0
 32
0.0
 13
1.0
 23
0.0
 33
0.0
 40
0.0
 40
0.0
 40
0.0
 40
0.0
 40
1.0
 40
1.0
 40
1.0
 40
1.0
 10
113.3979058876925
 20
-127.6801555236355
 30
0.0
 10
113.1220689502852
 20
-128.4991644123197
 30
0.0
 10
112.7944795141983
 20
-129.2904449676772
 30
0.0
 10
112.4107631350988
 20
-130.0647921897061
 30
0.0
  0
SPLINE
  5
87
330
1F
100
AcDbEntity
  8
0
 62
   250
370
    25
100
AcDbSpline
210
0.0
220
0.0
230
1.0
 70
     8
 71
     3
 72
     8
 73
     4
 74
     0
 42
0.0000000001
 43
0.0000000001
 12
1.0
 22
0.0
 32
0.0
 13
1.0
 23
0.0
 33
0.0
 40
0.0
 40
0.0
 40
0.0
 40
0.0
 40
1.0
 40
1.0
 40
1.0
 40
1.0
 10
97.9517429484236
 20
-130.0647921897061
 30
0.0
 10
97.56799129154726
 20
-129.2904449676772
 30
0.0
 10
97.2404371332372
 20
-128.4991644123197
 30
0.0
 10
96.96460019582993
 20
-127.6801555236355
 30
0.0
  0
SPLINE
  5
88
330
1F
100
AcDbEntity
  8
0
 62
   250
370
    25
100
AcDbSpline
210
0.0
220
0.0
230
1.0
 70
     8
 71
     3
 72
     8
 73
     4
 74
     0
 42
0.0000000001
 43
0.0000000001
 12
1.0
 22
0.0
 32
0.0
 13
1.0
 23
0.0
 33
0.0
 40
0.0
 40
0.0
 40
0.0
 40
0.0
 40
1.0
 40
1.0
 40
1.0
 40
1.0
 10
88.72900318371529
 20
-79.54831970233504
 30
0.0
 10
88.84344429190678
 20
-79.2318780357475
 30
0.0
 10
89.01408289866453
 20
-79.10523081355713
 30
0.0
 10
89.35010372342526
 20
-79.08738025800587
 30
0.0
  0
SPLINE
  5
89
330
1F
100
AcDbEntity
  8
0
 62
   250
370
    25
100
AcDbSpline
210
0.0
220
0.0
230
1.0
 70
     8
 71
     3
 72
     8
 73
     4
 74
     0
 42
0.0000000001
 43
0.0000000001
 12
1.0
 22
0.0
 32
0.0
 13
1.0
 23
0.0
 33
0.0
 40
0.0
 40
0.0
 40
0.0
 40
0.0
 40
1.0
 40
1.0
 40
1.0
 40
1.0
 10
89.35366677888992
 20
-79.08431109133953
 30
0.0
 10
99.92271234258476
 20
-78.47629859149184
 30
0.0
 10
110.4406404075831
 20
-78.49259692482133
 30
0.0
 10
121.0088040268556
 20
-79.08494609133938
 30
0.0
  0
SPLINE
  5
8A
330
1F
100
AcDbEntity
  8
0
 62
   250
370
    25
100
AcDbSpline
210
0.0
220
0.0
230
1.0
 70
     8
 71
     3
 72
     8
 73
     4
 74
     0
 42
0.0000000001
 43
0.0000000001
 12
1.0
 22
0.0
 32
0.0
 13
1.0
 23
0.0
 33
0.0
 40
0.0
 40
0.0
 40
0.0
 40
0.0
 40
1.0
 40
1.0
 40
1.0
 40
1.0
 10
121.0123670823203
 20
-79.08738025800587
 30
0.0
 10
121.348387907081
 20
-79.10526609133464
 30
0.0
 10
121.5190265138388
 20
-79.2318780357475
 30
0.0
 10
121.6334676220303
 20
-79.54828442455751
 30
0.0
  0
POLYLINE
  5
8B
330
1F
100
AcDbEntity
  8
0
 62
   250
370
    25
100
AcDb2dPolyline
 66
     1
 10
0.0
 20
0.0
 30
0.0
  0
VERTEX
  5
8C
330
8B
100
AcDbEntity
  8
0
 62
   250
370
    25
100
AcDbVertex
100
AcDb2dVertex
 10
108.5924729547338
 20
-131.3805474671549
 30
0.0
  0
VERTEX
  5
12C
330
8B
100
AcDbEntity
  8
0
100
AcDbVertex
100
AcDb2dVertex
 10
108.5924729547338
 20
-131.3805474671549
 30
0.0
  0
SEQEND
  5
8D
330
8B
100
AcDbEntity
  8
0
 62
   250
370
    25
  0
POLYLINE
  5
8E
330
1F
100
AcDbEntity
  8
0
 62
   250
370
    25
100
AcDb2dPolyline
 66
     1
 10
0.0
 20
0.0
 30
0.0
  0
VERTEX
  5
8F
330
8E
100
AcDbEntity
  8
0
 62
   250
370
    25
100
AcDbVertex
100
AcDb2dVertex
 10
109.8122726458363
 20
-131.1382949672154
 30
0.0
  0
VERTEX
  5
12D
330
8E
100
AcDbEntity
  8
0
100
AcDbVertex
100
AcDb2dVertex
 10
109.8122726458363
 20
-131.1382949672154
 30
0.0
  0
SEQEND
  5
90
330
8E
100
AcDbEntity
  8
0
 62
   250
370
    25
  0
SPLINE
  5
91
330
1F
100
AcDbEntity
  8
0
 62
   250
370
    25
100
AcDbSpline
210
0.0
220
0.0
230
1.0
 70
     8
 71
     3
 72
    41
 73
    37
 74
     0
 42
0.0000000001
 43
0.0000000001
 12
1.0
 22
0.0
 32
0.0
 13
1.0
 23
0.0
 33
0.0
 40
0.0
 40
0.0
 40
0.0
 40
0.0
 40
1.0
 40
1.0
 40
1.0
 40
2.0
 40
2.0
 40
2.0
 40
3.0
 40
3.0
 40
3.0
 40
4.0
 40
4.0
 40
4.0
 40
5.0
 40
5.0
 40
5.0
 40
6.0
 40
6.0
 40
6.0
 40
7.0
 40
7.0
 40
7.0
 40
8.0
 40
8.0
 40
8.0
 40
9.0
 40
9.0
 40
9.0
 40
10.0
 40
10.0
 40
10.0
 40
11.0
 40
11.0
 40
11.0
 40
12.0
 40
12.0
 40
12.0
 40
12.0
 10
95.98416022084305
 20
-126.9951669126961
 30
0.0
 10
95.28657746086209
 20
-126.7398969127595
 30
0.0
 10
94.5982374784231
 20
-126.4535471906088
 30
0.0
 10
93.9484913838884
 20
-126.091773579588
 30
0.0
 10
93.70345194569543
 20
-125.9553544129557
 30
0.0
 10
93.46388056291852
 20
-125.8081755241037
 30
0.0
 10
93.246992790674
 20
-125.6303402463703
 30
0.0
 10
93.171956959255
 20
-125.5688158019413
 30
0.0
 10
93.09967279443245
 20
-125.5036224686242
 30
0.0
 10
93.03888918487206
 20
-125.4277399686431
 30
0.0
 10
93.0023414080267
 20
-125.3820905242101
 30
0.0
 10
92.96999168662978
 20
-125.3325958020003
 30
0.0
 10
92.95549252033302
 20
-125.2755516353477
 30
0.0
 10
92.94646140945231
 20
-125.2399916353568
 30
0.0
 10
92.94434474283965
 20
-125.2015035798107
 30
0.0
 10
92.95584529810179
 20
-125.1679544131526
 30
0.0
 10
92.96776918668648
 20
-125.1331705242723
 30
0.0
 10
92.99426279712168
 20
-125.1037135798353
 30
0.0
 10
93.02400196302965
 20
-125.0797952465077
 30
0.0
 10
93.06443029533156
 20
-125.0473044131825
 30
0.0
 10
93.11082057192583
 20
-125.0251499687437
 30
0.0
 10
93.15848084848768
 20
-125.0066644131926
 30
0.0
 10
93.23880834643836
 20
-124.9755494132004
 30
0.0
 10
93.32273417763089
 20
-124.9549471909836
 30
0.0
 10
93.40718917547595
 20
-124.9371319132102
 30
0.0
 10
93.63434278079188
 20
-124.8891541354443
 30
0.0
 10
93.86488305268809
 20
-124.8612494132291
 30
0.0
 10
94.09577610235307
 20
-124.8374016354575
 30
0.0
 10
94.52782303577509
 20
-124.7927752465796
 30
0.0
 10
94.96092830250342
 20
-124.7622952465872
 30
0.0
 10
95.39392773590113
 20
-124.7300160799288
 30
0.0
 10
97.42522212852293
 20
-124.578498024411
 30
0.0
 10
99.45380013232516
 20
-124.386728024459
 30
0.0
 10
101.4873170248903
 20
-124.2677008022664
 30
0.0
 10
102.7172767157336
 20
-124.19569885784
 30
0.0
 10
103.9490355731977
 20
-124.1502963578512
 30
0.0
 10
105.1812530417612
 20
-124.1533655245173
 30
0.0
  0
SPLINE
  5
92
330
1F
100
AcDbEntity
  8
0
 62
   250
370
    25
100
AcDbSpline
210
0.0
220
0.0
230
1.0
 70
     8
 71
     3
 72
    11
 73
     7
 74
     0
 42
0.0000000001
 43
0.0000000001
 12
1.0
 22
0.0
 32
0.0
 13
1.0
 23
0.0
 33
0.0
 40
0.0
 40
0.0
 40
0.0
 40
0.0
 40
1.0
 40
1.0
 40
1.0
 40
2.0
 40
2.0
 40
2.0
 40
2.0
 10
114.3783811404563
 20
-126.9949552460291
 30
0.0
 10
114.9432489038231
 20
-126.7894621905248
 30
0.0
 10
115.4951697230757
 20
-126.5610033016932
 30
0.0
 10
116.0328030426929
 20
-126.2905638573161
 30
0.0
 10
116.2750202587356
 20
-126.1686791351245
 30
0.0
 10
117.4408096734383
 20
-125.6530238574757
 30
0.0
 10
117.414633562995
 20
-125.2149091353627
 30
0.0
  0
SPLINE
  5
93
330
1F
100
AcDbEntity
  8
0
 62
   250
370
    25
100
AcDbSpline
210
0.0
220
0.0
230
1.0
 70
     8
 71
     3
 72
     8
 73
     4
 74
     0
 42
0.0000000001
 43
0.0000000001
 12
1.0
 22
0.0
 32
0.0
 13
1.0
 23
0.0
 33
0.0
 40
0.0
 40
0.0
 40
0.0
 40
0.0
 40
1.0
 40
1.0
 40
1.0
 40
1.0
 10
116.9129482980163
 20
-124.9419649687644
 30
0.0
 10
116.2018541494911
 20
-125.6707685796935
 30
0.0
 10
115.3512011156376
 20
-125.9106927463
 30
0.0
 10
114.4453030831934
 20
-126.1897399684525
 30
0.0
  0
SPLINE
  5
94
330
1F
100
AcDbEntity
  8
0
 62
   250
370
    25
100
AcDbSpline
210
0.0
220
0.0
230
1.0
 70
     8
 71
     3
 72
     8
 73
     4
 74
     0
 42
0.0000000001
 43
0.0000000001
 12
1.0
 22
0.0
 32
0.0
 13
1.0
 23
0.0
 33
0.0
 40
0.0
 40
0.0
 40
0.0
 40
0.0
 40
1.0
 40
1.0
 40
1.0
 40
1.0
 10
95.91720300032904
 20
-126.1897399684525
 30
0.0
 10
95.01130496788487
 20
-125.9106927463
 30
0.0
 10
94.16065193403128
 20
-125.6707685796935
 30
0.0
 10
93.44955778550614
 20
-124.9419649687644
 30
0.0
  0
POLYLINE
  5
95
330
1F
100
AcDbEntity
  8
0
 62
   250
370
    25
100
AcDb2dPolyline
 66
     1
 10
0.0
 20
0.0
 30
0.0
  0
VERTEX
  5
96
330
95
100
AcDbEntity
  8
0
 62
   250
370
    25
100
AcDbVertex
100
AcDb2dVertex
 10
88.93125067855554
 20
-110.1231110835803
 30
0.0
  0
VERTEX
  5
97
330
95
100
AcDbEntity
  8
0
 62
   250
370
    25
100
AcDbVertex
100
AcDb2dVertex
 10
121.4268809606341
 20
-110.1231110835803
 30
0.0
  0
SEQEND
  5
98
330
95
100
AcDbEntity
  8
0
 62
   250
370
    25
  0
POLYLINE
  5
99
330
1F
100
AcDbEntity
  8
0
 62
   250
370
    25
100
AcDb2dPolyline
 66
     1
 10
0.0
 20
0.0
 30
0.0
  0
VERTEX
  5
9A
330
99
100
AcDbEntity
  8
0
 62
   250
370
    25
100
AcDbVertex
100
AcDb2dVertex
 10
88.43125874686694
 20
-121.9860046917256
 30
0.0
  0
VERTEX
  5
9B
330
99
100
AcDbEntity
  8
0
 62
   250
370
    25
100
AcDbVertex
100
AcDb2dVertex
 10
88.43125874686694
 20
-110.6231030278998
 30
0.0
  0
SEQEND
  5
9C
330
99
100
AcDbEntity
  8
0
 62
   250
370
    25
  0
POLYLINE
  5
9D
330
1F
100
AcDbEntity
  8
0
 62
   250
370
    25
100
AcDb2dPolyline
 66
     1
 10
0.0
 20
0.0
 30
0.0
  0
VERTEX
  5
9E
330
9D
100
AcDbEntity
  8
0
 62
   250
370
    25
100
AcDbVertex
100
AcDb2dVertex
 10
88.43125874686694
 20
-122.4833155249346
 30
0.0
  0
VERTEX
  5
9F
330
9D
100
AcDbEntity
  8
0
 62
   250
370
    25
100
AcDbVertex
100
AcDb2dVertex
 10
88.43125874686694
 20
-122.0956480250316
 30
0.0
  0
SEQEND
  5
A0
330
9D
100
AcDbEntity
  8
0
 62
   250
370
    25
  0
POLYLINE
  5
A1
330
1F
100
AcDbEntity
  8
0
 62
   250
370
    25
100
AcDb2dPolyline
 66
     1
 10
0.0
 20
0.0
 30
0.0
  0
VERTEX
  5
A2
330
A1
100
AcDbEntity
  8
0
 62
   250
370
    25
100
AcDbVertex
100
AcDb2dVertex
 10
88.43125874686694
 20
-123.5345933024497
 30
0.0
  0
VERTEX
  5
A3
330
A1
100
AcDbEntity
  8
0
 62
   250
370
    25
100
AcDbVertex
100
AcDb2dVertex
 10
88.43125874686694
 20
-122.5554585804721
 30
0.0
  0
SEQEND
  5
A4
330
A1
100
AcDbEntity
  8
0
 62
   250
370
    25
  0
POLYLINE
  5
A5
330
1F
100
AcDbEntity
  8
0
 62
   250
370
    25
100
AcDb2dPolyline
 66
     1
 10
0.0
 20
0.0
 30
0.0
  0
VERTEX
  5
A6
330
A5
100
AcDbEntity
  8
0
 62
   250
370
    25
100
AcDbVertex
100
AcDb2dVertex
 10
88.43125874686694
 20
-127.2063044126428
 30
0.0
  0
VERTEX
  5
A7
330
A5
100
AcDbEntity
  8
0
 62
   250
370
    25
100
AcDbVertex
100
AcDb2dVertex
 10
88.43125874686694
 20
-123.5345933024497
 30
0.0
  0
SEQEND
  5
A8
330
A5
100
AcDbEntity
  8
0
 62
   250
370
    25
  0
POLYLINE
  5
A9
330
1F
100
AcDbEntity
  8
0
 62
   250
370
    25
100
AcDb2dPolyline
 66
     1
 10
0.0
 20
0.0
 30
0.0
  0
VERTEX
  5
AA
330
A9
100
AcDbEntity
  8
0
 62
   250
370
    25
100
AcDbVertex
100
AcDb2dVertex
 10
88.43125874686694
 20
-137.4734077434094
 30
0.0
  0
VERTEX
  5
AB
330
A9
100
AcDbEntity
  8
0
 62
   250
370
    25
100
AcDbVertex
100
AcDb2dVertex
 10
88.43125874686694
 20
-127.2550935792974
 30
0.0
  0
SEQEND
  5
AC
330
A9
100
AcDbEntity
  8
0
 62
   250
370
    25
  0
POLYLINE
  5
AD
330
1F
100
AcDbEntity
  8
0
 62
   250
370
    25
100
AcDb2dPolyline
 66
     1
 10
0.0
 20
0.0
 30
0.0
  0
VERTEX
  5
AE
330
AD
100
AcDbEntity
  8
0
 62
   250
370
    25
100
AcDbVertex
100
AcDb2dVertex
 10
88.43125874686694
 20
-137.4734077434094
 30
0.0
  0
VERTEX
  5
AF
330
AD
100
AcDbEntity
  8
0
 62
   250
370
    25
100
AcDbVertex
100
AcDb2dVertex
 10
88.43125874686694
 20
-201.123091338608
 30
0.0
  0
SEQEND
  5
B0
330
AD
100
AcDbEntity
  8
0
 62
   250
370
    25
  0
POLYLINE
  5
B1
330
1F
100
AcDbEntity
  8
0
 62
   250
370
    25
100
AcDb2dPolyline
 66
     1
 10
0.0
 20
0.0
 30
0.0
  0
VERTEX
  5
B2
330
B1
100
AcDbEntity
  8
0
 62
   250
370
    25
100
AcDbVertex
100
AcDb2dVertex
 10
121.9312473366555
 20
-137.4734077434094
 30
0.0
  0
VERTEX
  5
B3
330
B1
100
AcDbEntity
  8
0
 62
   250
370
    25
100
AcDbVertex
100
AcDb2dVertex
 10
121.9312473366555
 20
-201.123091338608
 30
0.0
  0
SEQEND
  5
B4
330
B1
100
AcDbEntity
  8
0
 62
   250
370
    25
  0
POLYLINE
  5
B5
330
1F
100
AcDbEntity
  8
0
 62
   250
370
    25
100
AcDb2dPolyline
 66
     1
 10
0.0
 20
0.0
 30
0.0
  0
VERTEX
  5
B6
330
B5
100
AcDbEntity
  8
0
 62
   250
370
    25
100
AcDbVertex
100
AcDb2dVertex
 10
121.9312473366555
 20
-127.2535060792978
 30
0.0
  0
VERTEX
  5
B7
330
B5
100
AcDbEntity
  8
0
 62
   250
370
    25
100
AcDbVertex
100
AcDb2dVertex
 10
121.9312473366555
 20
-137.4734077434094
 30
0.0
  0
SEQEND
  5
B8
330
B5
100
AcDbEntity
  8
0
 62
   250
370
    25
  0
POLYLINE
  5
B9
330
1F
100
AcDbEntity
  8
0
 62
   250
370
    25
100
AcDb2dPolyline
 66
     1
 10
0.0
 20
0.0
 30
0.0
  0
VERTEX
  5
BA
330
B9
100
AcDbEntity
  8
0
 62
   250
370
    25
100
AcDbVertex
100
AcDb2dVertex
 10
121.9312473366555
 20
-123.5345933024497
 30
0.0
  0
VERTEX
  5
BB
330
B9
100
AcDbEntity
  8
0
 62
   250
370
    25
100
AcDbVertex
100
AcDb2dVertex
 10
121.9312473366555
 20
-127.2063044126428
 30
0.0
  0
SEQEND
  5
BC
330
B9
100
AcDbEntity
  8
0
 62
   250
370
    25
  0
POLYLINE
  5
BD
330
1F
100
AcDbEntity
  8
0
 62
   250
370
    25
100
AcDb2dPolyline
 66
     1
 10
0.0
 20
0.0
 30
0.0
  0
VERTEX
  5
BE
330
BD
100
AcDbEntity
  8
0
 62
   250
370
    25
100
AcDbVertex
100
AcDb2dVertex
 10
121.9312473366555
 20
-122.5549999693611
 30
0.0
  0
VERTEX
  5
BF
330
BD
100
AcDbEntity
  8
0
 62
   250
370
    25
100
AcDbVertex
100
AcDb2dVertex
 10
121.9312473366555
 20
-123.5345933024497
 30
0.0
  0
SEQEND
  5
C0
330
BD
100
AcDbEntity
  8
0
 62
   250
370
    25
  0
POLYLINE
  5
C1
330
1F
100
AcDbEntity
  8
0
 62
   250
370
    25
100
AcDb2dPolyline
 66
     1
 10
0.0
 20
0.0
 30
0.0
  0
VERTEX
  5
C2
330
C1
100
AcDbEntity
  8
0
 62
   250
370
    25
100
AcDbVertex
100
AcDb2dVertex
 10
121.9312473366555
 20
-122.0955421916984
 30
0.0
  0
VERTEX
  5
C3
330
C1
100
AcDbEntity
  8
0
 62
   250
370
    25
100
AcDbVertex
100
AcDb2dVertex
 10
121.9312473366555
 20
-122.4833155249346
 30
0.0
  0
SEQEND
  5
C4
330
C1
100
AcDbEntity
  8
0
 62
   250
370
    25
  0
POLYLINE
  5
C5
330
1F
100
AcDbEntity
  8
0
 62
   250
370
    25
100
AcDb2dPolyline
 66
     1
 10
0.0
 20
0.0
 30
0.0
  0
VERTEX
  5
C6
330
C5
100
AcDbEntity
  8
0
 62
   250
370
    25
100
AcDbVertex
100
AcDb2dVertex
 10
121.9312473366555
 20
-110.6231030278998
 30
0.0
  0
VERTEX
  5
C7
330
C5
100
AcDbEntity
  8
0
 62
   250
370
    25
100
AcDbVertex
100
AcDb2dVertex
 10
121.9312473366555
 20
-121.9860046917256
 30
0.0
  0
SEQEND
  5
C8
330
C5
100
AcDbEntity
  8
0
 62
   250
370
    25
  0
SPLINE
  5
C9
330
1F
100
AcDbEntity
  8
0
 62
   250
370
    25
100
AcDbSpline
210
0.0
220
0.0
230
1.0
 70
     8
 71
     3
 72
     8
 73
     4
 74
     0
 42
0.0000000001
 43
0.0000000001
 12
1.0
 22
0.0
 32
0.0
 13
1.0
 23
0.0
 33
0.0
 40
0.0
 40
0.0
 40
0.0
 40
0.0
 40
1.0
 40
1.0
 40
1.0
 40
1.0
 10
121.4312554049669
 20
-110.1231110835803
 30
0.0
 10
121.707409842366
 20
-110.1231110835803
 30
0.0
 10
121.9312473366555
 20
-110.3469485835244
 30
0.0
 10
121.9312473366555
 20
-110.6231030278998
 30
0.0
  0
POLYLINE
  5
CA
330
1F
100
AcDbEntity
  8
0
 62
   250
370
    25
100
AcDb2dPolyline
 66
     1
 10
0.0
 20
0.0
 30
0.0
  0
VERTEX
  5
CB
330
CA
100
AcDbEntity
  8
0
 62
   250
370
    25
100
AcDbVertex
100
AcDb2dVertex
 10
127.6112516361909
 20
-201.6143696718189
 30
0.0
  0
VERTEX
  5
CC
330
CA
100
AcDbEntity
  8
0
 62
   250
370
    25
100
AcDbVertex
100
AcDb2dVertex
 10
127.6812427455164
 20
-205.6230982704783
 30
0.0
  0
SEQEND
  5
CD
330
CA
100
AcDbEntity
  8
0
 62
   250
370
    25
  0
POLYLINE
  5
CE
330
1F
100
AcDbEntity
  8
0
 62
   250
370
    25
100
AcDb2dPolyline
 66
     1
 10
0.0
 20
0.0
 30
0.0
  0
VERTEX
  5
CF
330
CE
100
AcDbEntity
  8
0
 62
   250
370
    25
100
AcDbVertex
100
AcDb2dVertex
 10
82.68126333800599
 20
-205.6230982704783
 30
0.0
  0
VERTEX
  5
D0
330
CE
100
AcDbEntity
  8
0
 62
   250
370
    25
100
AcDbVertex
100
AcDb2dVertex
 10
82.75125444733149
 20
-201.6143696718189
 30
0.0
  0
SEQEND
  5
D1
330
CE
100
AcDbEntity
  8
0
 62
   250
370
    25
  0
SPLINE
  5
D2
330
1F
100
AcDbEntity
  8
0
 62
   250
370
    25
100
AcDbSpline
210
0.0
220
0.0
230
1.0
 70
     8
 71
     3
 72
     8
 73
     4
 74
     0
 42
0.0000000001
 43
0.0000000001
 12
1.0
 22
0.0
 32
0.0
 13
1.0
 23
0.0
 33
0.0
 40
0.0
 40
0.0
 40
0.0
 40
0.0
 40
1.0
 40
1.0
 40
1.0
 40
1.0
 10
82.75125444733149
 20
-201.6133818940413
 30
0.0
 10
82.75185416953809
 20
-201.5833252273823
 30
0.0
 10
82.75506444723429
 20
-201.5539035607225
 30
0.0
 10
82.76099111374975
 20
-201.5244113385077
 30
0.0
  0
POLYLINE
  5
D3
330
1F
100
AcDbEntity
  8
0
 62
   250
370
    25
100
AcDb2dPolyline
 66
     1
 10
0.0
 20
0.0
 30
0.0
  0
VERTEX
  5
D4
330
D3
100
AcDbEntity
  8
0
 62
   250
370
    25
100
AcDbVertex
100
AcDb2dVertex
 10
84.75090467409393
 20
-201.123091338608
 30
0.0
  0
VERTEX
  5
D5
330
D3
100
AcDbEntity
  8
0
 62
   250
370
    25
100
AcDbVertex
100
AcDb2dVertex
 10
127.111365537833
 20
-201.123091338608
 30
0.0
  0
SEQEND
  5
D6
330
D3
100
AcDbEntity
  8
0
 62
   250
370
    25
  0
POLYLINE
  5
D7
330
1F
100
AcDbEntity
  8
0
 62
   250
370
    25
100
AcDb2dPolyline
 66
     1
 10
0.0
 20
0.0
 30
0.0
  0
VERTEX
  5
D8
330
D7
100
AcDbEntity
  8
0
 62
   250
370
    25
100
AcDbVertex
100
AcDb2dVertex
 10
83.25114054568944
 20
-201.123091338608
 30
0.0
  0
VERTEX
  5
D9
330
D7
100
AcDbEntity
  8
0
 62
   250
370
    25
100
AcDbVertex
100
AcDb2dVertex
 10
84.75090467409393
 20
-201.123091338608
 30
0.0
  0
SEQEND
  5
DA
330
D7
100
AcDbEntity
  8
0
 62
   250
370
    25
  0
POLYLINE
  5
DB
330
1F
100
AcDbEntity
  8
0
 62
   250
370
    25
100
AcDb2dPolyline
 66
     1
 10
0.0
 20
0.0
 30
0.0
  0
VERTEX
  5
DC
330
DB
100
AcDbEntity
  8
0
 62
   250
370
    25
100
AcDbVertex
100
AcDb2dVertex
 10
82.68126333800599
 20
-205.6230982704783
 30
0.0
  0
VERTEX
  5
DD
330
DB
100
AcDbEntity
  8
0
 62
   250
370
    25
100
AcDbVertex
100
AcDb2dVertex
 10
127.6812427455164
 20
-205.6230982704783
 30
0.0
  0
SEQEND
  5
DE
330
DB
100
AcDbEntity
  8
0
 62
   250
370
    25
  0
SPLINE
  5
DF
330
1F
100
AcDbEntity
  8
0
 62
   250
370
    25
100
AcDbSpline
210
0.0
220
0.0
230
1.0
 70
     8
 71
     3
 72
    14
 73
    10
 74
     0
 42
0.0000000001
 43
0.0000000001
 12
1.0
 22
0.0
 32
0.0
 13
1.0
 23
0.0
 33
0.0
 40
0.0
 40
0.0
 40
0.0
 40
0.0
 40
1.0
 40
1.0
 40
1.0
 40
2.0
 40
2.0
 40
2.0
 40
3.0
 40
3.0
 40
3.0
 40
3.0
 10
105.1812530417612
 20
-125.1911671909243
 30
0.0
 10
103.3285347556947
 20
-125.1911671909243
 30
0.0
 10
101.5125406353579
 20
-125.3120288575608
 30
0.0
 10
99.68917345965362
 20
-125.6837508019124
 30
0.0
 10
98.77766626068588
 20
-125.8695941351992
 30
0.0
 10
97.90418850519238
 20
-126.0725471907041
 30
0.0
 10
97.07787713738445
 20
-126.5511960794732
 30
0.0
 10
95.9077485561258
 20
-127.229023301526
 30
0.0
 10
96.14664966114204
 20
-127.9592733013434
 30
0.0
 10
97.27405685460171
 20
-128.531619967867
 30
0.0
  0
SPLINE
  5
E0
330
1F
100
AcDbEntity
  8
0
 62
   250
370
    25
100
AcDbSpline
210
0.0
220
0.0
230
1.0
 70
     8
 71
     3
 72
    14
 73
    10
 74
     0
 42
0.0000000001
 43
0.0000000001
 12
1.0
 22
0.0
 32
0.0
 13
1.0
 23
0.0
 33
0.0
 40
0.0
 40
0.0
 40
0.0
 40
0.0
 40
1.0
 40
1.0
 40
1.0
 40
2.0
 40
2.0
 40
2.0
 40
3.0
 40
3.0
 40
3.0
 40
3.0
 10
114.353051696658
 20
-127.2793646904024
 30
0.0
 10
114.4284050280689
 20
-126.4473735794993
 30
0.0
 10
113.0602975629723
 20
-125.9865046907255
 30
0.0
 10
112.5386450762807
 20
-125.8052827463265
 30
0.0
 10
111.7502220408395
 20
-125.5313155241727
 30
0.0
 10
110.9472998391015
 20
-125.3597244131046
 30
0.0
 10
110.1273384711316
 20
-125.223904968694
 30
0.0
 10
108.4833940686277
 20
-124.9515252465399
 30
0.0
 10
106.8441063326716
 20
-124.8492549687877
 30
0.0
 10
105.1812530417612
 20
-124.8492549687877
 30
0.0
  0
SPLINE
  5
E1
330
1F
100
AcDbEntity
  8
0
 62
   250
370
    25
100
AcDbSpline
210
0.0
220
0.0
230
1.0
 70
     8
 71
     3
 72
    14
 73
    10
 74
     0
 42
0.0000000001
 43
0.0000000001
 12
1.0
 22
0.0
 32
0.0
 13
1.0
 23
0.0
 33
0.0
 40
0.0
 40
0.0
 40
0.0
 40
0.0
 40
1.0
 40
1.0
 40
1.0
 40
2.0
 40
2.0
 40
2.0
 40
3.0
 40
3.0
 40
3.0
 40
3.0
 10
113.0884492289207
 20
-128.531619967867
 30
0.0
 10
114.2162092001492
 20
-127.9590969124545
 30
0.0
 10
114.4546164162891
 20
-127.2287410793039
 30
0.0
 10
113.2842408905923
 20
-126.550949135029
 30
0.0
 10
112.4579295227844
 20
-126.0724413573709
 30
0.0
 10
111.5845223228446
 20
-125.8695235796438
 30
0.0
 10
110.6730856794307
 20
-125.6837155241346
 30
0.0
 10
108.8497890592802
 20
-125.3120288575608
 30
0.0
 10
107.0338654944971
 20
-125.1911671909243
 30
0.0
 10
105.1812530417612
 20
-125.1911671909243
 30
0.0
  0
SPLINE
  5
E2
330
1F
100
AcDbEntity
  8
0
 62
   250
370
    25
100
AcDbSpline
210
0.0
220
0.0
230
1.0
 70
     8
 71
     3
 72
    29
 73
    25
 74
     0
 42
0.0000000001
 43
0.0000000001
 12
1.0
 22
0.0
 32
0.0
 13
1.0
 23
0.0
 33
0.0
 40
0.0
 40
0.0
 40
0.0
 40
0.0
 40
1.0
 40
1.0
 40
1.0
 40
2.0
 40
2.0
 40
2.0
 40
3.0
 40
3.0
 40
3.0
 40
4.0
 40
4.0
 40
4.0
 40
5.0
 40
5.0
 40
5.0
 40
6.0
 40
6.0
 40
6.0
 40
7.0
 40
7.0
 40
7.0
 40
8.0
 40
8.0
 40
8.0
 40
8.0
 10
117.414633562995
 20
-125.2149091353627
 30
0.0
 10
117.4127991185974
 20
-125.1509858020457
 30
0.0
 10
117.369336897484
 20
-125.1059360798344
 30
0.0
 10
117.3206182876158
 20
-125.0712227465101
 30
0.0
 10
117.2448416228823
 20
-125.0172477465236
 30
0.0
 10
117.1564002362498
 20
-124.9882141354197
 30
0.0
 10
117.0669710718646
 20
-124.9644369132034
 30
0.0
 10
116.933233019721
 20
-124.9289474687676
 30
0.0
 10
116.7972724676341
 20
-124.9052760798849
 30
0.0
 10
116.660782748894
 20
-124.8855205243341
 30
0.0
 10
116.4051952554146
 20
-124.8485141354544
 30
0.0
 10
116.1478085953144
 20
-124.8251602465716
 30
0.0
 10
115.8903866574373
 20
-124.8030763576881
 30
0.0
 10
115.1748827868025
 20
-124.7417635799258
 30
0.0
 10
114.4588144717376
 20
-124.6902580243829
 30
0.0
 10
113.7430283788877
 20
-124.6342721910636
 30
0.0
 10
112.8360720131372
 20
-124.563363857748
 30
0.0
 10
111.9295742584861
 20
-124.4852235799899
 30
0.0
 10
111.0225120594049
 20
-124.4150208022295
 30
0.0
 10
110.353504298695
 20
-124.3632330244648
 30
0.0
 10
109.68421431577
 20
-124.3157491355877
 30
0.0
 10
109.0143951661918
 20
-124.2760616355975
 30
0.0
 10
107.7380804765311
 20
-124.2004613578388
 30
0.0
 10
106.4598960646959
 20
-124.1531891356284
 30
0.0
 10
105.1812530417612
 20
-124.1533655245173
 30
0.0
  0
POLYLINE
  5
E3
330
1F
100
AcDbEntity
  8
0
 62
   250
370
    25
100
AcDb2dPolyline
 66
     1
 10
0.0
 20
0.0
 30
0.0
  0
VERTEX
  5
E4
330
E3
100
AcDbEntity
  8
0
 62
   250
370
    25
100
AcDbVertex
100
AcDb2dVertex
 10
105.1812530417612
 20
-131.7795391337219
 30
0.0
  0
VERTEX
  5
E5
330
E3
100
AcDbEntity
  8
0
 62
   250
370
    25
100
AcDbVertex
100
AcDb2dVertex
 10
105.1812530417612
 20
-131.985773022559
 30
0.0
  0
SEQEND
  5
E6
330
E3
100
AcDbEntity
  8
0
 62
   250
370
    25
  0
SPLINE
  5
E7
330
1F
100
AcDbEntity
  8
0
 62
   250
370
    25
100
AcDbSpline
210
0.0
220
0.0
230
1.0
 70
     8
 71
     3
 72
     8
 73
     4
 74
     0
 42
0.0000000001
 43
0.0000000001
 12
1.0
 22
0.0
 32
0.0
 13
1.0
 23
0.0
 33
0.0
 40
0.0
 40
0.0
 40
0.0
 40
0.0
 40
1.0
 40
1.0
 40
1.0
 40
1.0
 10
105.1812530417612
 20
-131.985773022559
 30
0.0
 10
110.8573767858401
 20
-131.985773022559
 30
0.0
 10
116.7364535802968
 20
-130.4242727451719
 30
0.0
 10
121.6771062320281
 20
-127.6407149680899
 30
0.0
  0
SPLINE
  5
E8
330
1F
100
AcDbEntity
  8
0
 62
   250
370
    25
100
AcDbSpline
210
0.0
220
0.0
230
1.0
 70
     8
 71
     3
 72
     8
 73
     4
 74
     0
 42
0.0000000001
 43
0.0000000001
 12
1.0
 22
0.0
 32
0.0
 13
1.0
 23
0.0
 33
0.0
 40
0.0
 40
0.0
 40
0.0
 40
0.0
 40
1.0
 40
1.0
 40
1.0
 40
1.0
 10
121.6774590097968
 20
-123.9687921912302
 30
0.0
 10
119.3481732358885
 20
-125.2838066353456
 30
0.0
 10
116.9471324638108
 20
-126.2889763573171
 30
0.0
 10
114.3757000294136
 20
-127.0255763571326
 30
0.0
  0
SPLINE
  5
E9
330
1F
100
AcDbEntity
  8
0
 62
   250
370
    25
100
AcDbSpline
210
0.0
220
0.0
230
1.0
 70
     8
 71
     3
 72
     8
 73
     4
 74
     0
 42
0.0000000001
 43
0.0000000001
 12
1.0
 22
0.0
 32
0.0
 13
1.0
 23
0.0
 33
0.0
 40
0.0
 40
0.0
 40
0.0
 40
0.0
 40
1.0
 40
1.0
 40
1.0
 40
1.0
 10
88.68501179594872
 20
-123.9687921912302
 30
0.0
 10
91.01429756985702
 20
-125.2838066353456
 30
0.0
 10
93.41537361971159
 20
-126.2889763573171
 30
0.0
 10
95.9868060541092
 20
-127.0255763571326
 30
0.0
  0
SPLINE
  5
EA
330
1F
100
AcDbEntity
  8
0
 62
   250
370
    25
100
AcDbSpline
210
0.0
220
0.0
230
1.0
 70
     8
 71
     3
 72
     8
 73
     4
 74
     0
 42
0.0000000001
 43
0.0000000001
 12
1.0
 22
0.0
 32
0.0
 13
1.0
 23
0.0
 33
0.0
 40
0.0
 40
0.0
 40
0.0
 40
0.0
 40
1.0
 40
1.0
 40
1.0
 40
1.0
 10
88.68539985149438
 20
-127.6407149680899
 30
0.0
 10
93.62601722544873
 20
-130.4242727451719
 30
0.0
 10
99.5051292976823
 20
-131.985773022559
 30
0.0
 10
105.1812530417612
 20
-131.985773022559
 30
0.0
  0
SPLINE
  5
EB
330
1F
100
AcDbEntity
  8
0
 62
   250
370
    25
100
AcDbSpline
210
0.0
220
0.0
230
1.0
 70
     8
 71
     3
 72
     8
 73
     4
 74
     0
 42
0.0000000001
 43
0.0000000001
 12
1.0
 22
0.0
 32
0.0
 13
1.0
 23
0.0
 33
0.0
 40
0.0
 40
0.0
 40
0.0
 40
0.0
 40
1.0
 40
1.0
 40
1.0
 40
1.0
 10
88.43125874686694
 20
-127.2063044126428
 30
0.0
 10
88.4313293024207
 20
-127.4167716348126
 30
0.0
 10
88.50195541172967
 20
-127.537492190338
 30
0.0
 10
88.68539985149438
 20
-127.6407149680899
 30
0.0
  0
SPLINE
  5
EC
330
1F
100
AcDbEntity
  8
0
 62
   250
370
    25
100
AcDbSpline
210
0.0
220
0.0
230
1.0
 70
     8
 71
     3
 72
     8
 73
     4
 74
     0
 42
0.0000000001
 43
0.0000000001
 12
1.0
 22
0.0
 32
0.0
 13
1.0
 23
0.0
 33
0.0
 40
0.0
 40
0.0
 40
0.0
 40
0.0
 40
1.0
 40
1.0
 40
1.0
 40
1.0
 10
88.43125874686694
 20
-123.5345933024497
 30
0.0
 10
88.4313293024207
 20
-123.7448488579526
 30
0.0
 10
88.50184957839936
 20
-123.8655341357008
 30
0.0
 10
88.68501179594872
 20
-123.9687921912302
 30
0.0
  0
SPLINE
  5
ED
330
1F
100
AcDbEntity
  8
0
 62
   250
370
    25
100
AcDbSpline
210
0.0
220
0.0
230
1.0
 70
     8
 71
     3
 72
    26
 73
    22
 74
     0
 42
0.0000000001
 43
0.0000000001
 12
1.0
 22
0.0
 32
0.0
 13
1.0
 23
0.0
 33
0.0
 40
0.0
 40
0.0
 40
0.0
 40
0.0
 40
1.0
 40
1.0
 40
1.0
 40
2.0
 40
2.0
 40
2.0
 40
3.0
 40
3.0
 40
3.0
 40
4.0
 40
4.0
 40
4.0
 40
5.0
 40
5.0
 40
5.0
 40
6.0
 40
6.0
 40
6.0
 40
7.0
 40
7.0
 40
7.0
 40
7.0
 10
92.4312647559294
 20
-121.7448105251193
 30
0.0
 10
92.17218476253909
 20
-121.7404008028983
 30
0.0
 10
91.91317532470252
 20
-121.7384605251209
 30
0.0
 10
91.6540953313122
 20
-121.7384605251209
 30
0.0
 10
91.40411700435635
 20
-121.7384958028988
 30
0.0
 10
91.15406812184673
 20
-121.7403302473426
 30
0.0
 10
90.904054517114
 20
-121.7444224695641
 30
0.0
 10
90.4520403619795
 20
-121.7517602473398
 30
0.0
 10
90.00020259572875
 20
-121.7663299695583
 30
0.0
 10
89.54882344057772
 20
-121.7932821917738
 30
0.0
 10
89.2667423366631
 20
-121.8101096917696
 30
0.0
 10
88.98487289940974
 20
-121.8318055250977
 30
0.0
 10
88.70593151763724
 20
-121.8780194139749
 30
0.0
 10
88.63371790836845
 20
-121.8899785806387
 30
0.0
 10
88.56168068798405
 20
-121.9035605250796
 30
0.0
 10
88.49359457860996
 20
-121.9315005250727
 30
0.0
 10
88.47546180129478
 20
-121.938908858404
 30
0.0
 10
88.45764652397152
 20
-121.9473402472909
 30
0.0
 10
88.44374707988167
 20
-121.9610633028432
 30
0.0
 10
88.43690319116739
 20
-121.9678013583969
 30
0.0
 10
88.4310118024288
 20
-121.9758094139506
 30
0.0
 10
88.43125874686694
 20
-121.9860046917256
 30
0.0
  0
SPLINE
  5
EE
330
1F
100
AcDbEntity
  8
0
 62
   250
370
    25
100
AcDbSpline
210
0.0
220
0.0
230
1.0
 70
     8
 71
     3
 72
     8
 73
     4
 74
     0
 42
0.0000000001
 43
0.0000000001
 12
1.0
 22
0.0
 32
0.0
 13
1.0
 23
0.0
 33
0.0
 40
0.0
 40
0.0
 40
0.0
 40
0.0
 40
1.0
 40
1.0
 40
1.0
 40
1.0
 10
92.43175864480601
 20
-121.7448105251193
 30
0.0
 10
92.48058308800452
 20
-121.7457277473413
 30
0.0
 10
92.52940753120335
 20
-121.7464685806743
 30
0.0
 10
92.57826725217906
 20
-121.746997747341
 30
0.0
  0
SPLINE
  5
EF
330
1F
100
AcDbEntity
  8
0
 62
   250
370
    25
100
AcDbSpline
210
0.0
220
0.0
230
1.0
 70
     8
 71
     3
 72
     8
 73
     4
 74
     0
 42
0.0000000001
 43
0.0000000001
 12
1.0
 22
0.0
 32
0.0
 13
1.0
 23
0.0
 33
0.0
 40
0.0
 40
0.0
 40
0.0
 40
0.0
 40
1.0
 40
1.0
 40
1.0
 40
1.0
 10
92.57826725217906
 20
-121.746997747341
 30
0.0
 10
95.09657135459844
 20
-121.7755727473339
 30
0.0
 10
97.61494601257156
 20
-121.7972333028842
 30
0.0
 10
100.1334265038753
 20
-121.8120499695469
 30
0.0
  0
SPLINE
  5
F0
330
1F
100
AcDbEntity
  8
0
 62
   250
370
    25
100
AcDbSpline
210
0.0
220
0.0
230
1.0
 70
     8
 71
     3
 72
     8
 73
     4
 74
     0
 42
0.0000000001
 43
0.0000000001
 12
1.0
 22
0.0
 32
0.0
 13
1.0
 23
0.0
 33
0.0
 40
0.0
 40
0.0
 40
0.0
 40
0.0
 40
1.0
 40
1.0
 40
1.0
 40
1.0
 10
100.1334265038753
 20
-121.8120499695469
 30
0.0
 10
101.8160353498373
 20
-121.8214691362114
 30
0.0
 10
103.4986089180227
 20
-121.8259494139881
 30
0.0
 10
105.1812530417612
 20
-121.8259494139881
 30
0.0
  0
SPLINE
  5
F1
330
1F
100
AcDbEntity
  8
0
 62
   250
370
    25
100
AcDbSpline
210
0.0
220
0.0
230
1.0
 70
     8
 71
     3
 72
     8
 73
     4
 74
     0
 42
0.0000000001
 43
0.0000000001
 12
1.0
 22
0.0
 32
0.0
 13
1.0
 23
0.0
 33
0.0
 40
0.0
 40
0.0
 40
0.0
 40
0.0
 40
1.0
 40
1.0
 40
1.0
 40
1.0
 10
105.1812530417612
 20
-121.8259494139881
 30
0.0
 10
106.8638971655
 20
-121.8259494139881
 30
0.0
 10
108.5464707336851
 20
-121.8214691362114
 30
0.0
 10
110.2290795796471
 20
-121.8120499695469
 30
0.0
  0
SPLINE
  5
F2
330
1F
100
AcDbEntity
  8
0
 62
   250
370
    25
100
AcDbSpline
210
0.0
220
0.0
230
1.0
 70
     8
 71
     3
 72
     8
 73
     4
 74
     0
 42
0.0000000001
 43
0.0000000001
 12
1.0
 22
0.0
 32
0.0
 13
1.0
 23
0.0
 33
0.0
 40
0.0
 40
0.0
 40
0.0
 40
0.0
 40
1.0
 40
1.0
 40
1.0
 40
1.0
 10
110.2290795796471
 20
-121.8120499695469
 30
0.0
 10
112.7475600709509
 20
-121.7972333028842
 30
0.0
 10
115.2658994511471
 20
-121.7755727473339
 30
0.0
 10
117.7842388313434
 20
-121.746997747341
 30
0.0
  0
SPLINE
  5
F3
330
1F
100
AcDbEntity
  8
0
 62
   250
370
    25
100
AcDbSpline
210
0.0
220
0.0
230
1.0
 70
     8
 71
     3
 72
     8
 73
     4
 74
     0
 42
0.0000000001
 43
0.0000000001
 12
1.0
 22
0.0
 32
0.0
 13
1.0
 23
0.0
 33
0.0
 40
0.0
 40
0.0
 40
0.0
 40
0.0
 40
1.0
 40
1.0
 40
1.0
 40
1.0
 10
117.7842388313434
 20
-121.746997747341
 30
0.0
 10
117.8330985523191
 20
-121.7464685806743
 30
0.0
 10
117.8819229955179
 20
-121.7457277473413
 30
0.0
 10
117.9307474387167
 20
-121.7448105251193
 30
0.0
  0
SPLINE
  5
F4
330
1F
100
AcDbEntity
  8
0
 62
   250
370
    25
100
AcDbSpline
210
0.0
220
0.0
230
1.0
 70
     8
 71
     3
 72
    26
 73
    22
 74
     0
 42
0.0000000001
 43
0.0000000001
 12
1.0
 22
0.0
 32
0.0
 13
1.0
 23
0.0
 33
0.0
 40
0.0
 40
0.0
 40
0.0
 40
0.0
 40
1.0
 40
1.0
 40
1.0
 40
2.0
 40
2.0
 40
2.0
 40
3.0
 40
3.0
 40
3.0
 40
4.0
 40
4.0
 40
4.0
 40
5.0
 40
5.0
 40
5.0
 40
6.0
 40
6.0
 40
6.0
 40
7.0
 40
7.0
 40
7.0
 40
7.0
 10
117.931241327593
 20
-121.7448105251193
 30
0.0
 10
118.1903213209833
 20
-121.7404008028983
 30
0.0
 10
118.4493307588199
 20
-121.7384605251209
 30
0.0
 10
118.7084107522102
 20
-121.7384605251209
 30
0.0
 10
118.958424356943
 20
-121.7384958028988
 30
0.0
 10
119.2084732394526
 20
-121.7403302473426
 30
0.0
 10
119.4584515664084
 20
-121.7444224695641
 30
0.0
 10
119.9104657215432
 20
-121.7517602473398
 30
0.0
 10
120.3623034877937
 20
-121.7663299695583
 30
0.0
 10
120.8136826429447
 20
-121.7932821917738
 30
0.0
 10
121.0957637468593
 20
-121.8101096917696
 30
0.0
 10
121.3776331841127
 20
-121.8318055250977
 30
0.0
 10
121.6565745658852
 20
-121.8780194139749
 30
0.0
 10
121.728788175154
 20
-121.8899785806387
 30
0.0
 10
121.8008253955384
 20
-121.9035605250796
 30
0.0
 10
121.8689115049125
 20
-121.9315005250727
 30
0.0
 10
121.8870442822276
 20
-121.938908858404
 30
0.0
 10
121.9048595595509
 20
-121.9473402472909
 30
0.0
 10
121.9187590036408
 20
-121.9610633028432
 30
0.0
 10
121.925602892355
 20
-121.9678013583969
 30
0.0
 10
121.9314942810936
 20
-121.9758094139506
 30
0.0
 10
121.9312473366555
 20
-121.9860046917256
 30
0.0
  0
SPLINE
  5
F5
330
1F
100
AcDbEntity
  8
0
 62
   250
370
    25
100
AcDbSpline
210
0.0
220
0.0
230
1.0
 70
     8
 71
     3
 72
     8
 73
     4
 74
     0
 42
0.0000000001
 43
0.0000000001
 12
1.0
 22
0.0
 32
0.0
 13
1.0
 23
0.0
 33
0.0
 40
0.0
 40
0.0
 40
0.0
 40
0.0
 40
1.0
 40
1.0
 40
1.0
 40
1.0
 10
121.9312473366555
 20
-123.5345933024497
 30
0.0
 10
121.9311767811017
 20
-123.7448488579526
 30
0.0
 10
121.8606212273462
 20
-123.8655341357008
 30
0.0
 10
121.6774590097968
 20
-123.9687921912302
 30
0.0
  0
SPLINE
  5
F6
330
1F
100
AcDbEntity
  8
0
 62
   250
370
    25
100
AcDbSpline
210
0.0
220
0.0
230
1.0
 70
     8
 71
     3
 72
     8
 73
     4
 74
     0
 42
0.0000000001
 43
0.0000000001
 12
1.0
 22
0.0
 32
0.0
 13
1.0
 23
0.0
 33
0.0
 40
0.0
 40
0.0
 40
0.0
 40
0.0
 40
1.0
 40
1.0
 40
1.0
 40
1.0
 10
121.6771062320281
 20
-127.6407149680899
 30
0.0
 10
121.8605506717924
 20
-127.537492190338
 30
0.0
 10
121.9311767811017
 20
-127.4167716348126
 30
0.0
 10
121.9312473366555
 20
-127.2063044126428
 30
0.0
  0
SPLINE
  5
F7
330
1F
100
AcDbEntity
  8
0
 62
   250
370
    25
100
AcDbSpline
210
0.0
220
0.0
230
1.0
 70
     8
 71
     3
 72
    23
 73
    19
 74
     0
 42
0.0000000001
 43
0.0000000001
 12
1.0
 22
0.0
 32
0.0
 13
1.0
 23
0.0
 33
0.0
 40
0.0
 40
0.0
 40
0.0
 40
0.0
 40
1.0
 40
1.0
 40
1.0
 40
2.0
 40
2.0
 40
2.0
 40
3.0
 40
3.0
 40
3.0
 40
4.0
 40
4.0
 40
4.0
 40
5.0
 40
5.0
 40
5.0
 40
6.0
 40
6.0
 40
6.0
 40
6.0
 10
89.20338344939063
 20
-83.64830303464348
 30
0.0
 10
89.20479456046574
 20
-83.63810775686817
 30
0.0
 10
89.21125039363437
 20
-83.62893553464829
 30
0.0
 10
89.21887039343997
 20
-83.62156247909473
 30
0.0
 10
89.23287567086044
 20
-83.60801581243133
 30
0.0
 10
89.25072622596059
 20
-83.60057220132211
 30
0.0
 10
89.26885900327576
 20
-83.5940458124348
 30
0.0
 10
89.33271177942451
 20
-83.5710094235516
 30
0.0
 10
89.39952788883102
 20
-83.55905025688811
 30
0.0
 10
89.46659094267565
 20
-83.54913720133489
 30
0.0
 10
89.56057094027801
 20
-83.53516720133835
 30
0.0
 10
89.65500954897979
 20
-83.52518359022976
 30
0.0
 10
89.7494128799047
 20
-83.515235256899
 30
0.0
 10
90.07382731607264
 20
-83.48098053468536
 30
0.0
 10
90.3980653633562
 20
-83.447113868027
 30
0.0
 10
90.72258563285477
 20
-83.41427025692408
 30
0.0
 10
91.36305367207063
 20
-83.34939442360697
 30
0.0
 10
92.00468587792345
 20
-83.28850497917779
 30
0.0
 10
92.64903447259586
 20
-83.29598386806485
 30
0.0
  0
SPLINE
  5
F8
330
1F
100
AcDbEntity
  8
0
 62
   250
370
    25
100
AcDbSpline
210
0.0
220
0.0
230
1.0
 70
     8
 71
     3
 72
     8
 73
     4
 74
     0
 42
0.0000000001
 43
0.0000000001
 12
1.0
 22
0.0
 32
0.0
 13
1.0
 23
0.0
 33
0.0
 40
0.0
 40
0.0
 40
0.0
 40
0.0
 40
1.0
 40
1.0
 40
1.0
 40
1.0
 10
89.20338344939063
 20
-83.64830303464348
 30
0.0
 10
88.88380206865494
 20
-83.57647747910595
 30
0.0
 10
88.65742457443031
 20
-83.29171525695484
 30
0.0
 10
88.65954124104297
 20
-82.96416109037007
 30
0.0
  0
SPLINE
  5
F9
330
1F
100
AcDbEntity
  8
0
 62
   250
370
    25
100
AcDbSpline
210
0.0
220
0.0
230
1.0
 70
     8
 71
     3
 72
     8
 73
     4
 74
     0
 42
0.0000000001
 43
0.0000000001
 12
1.0
 22
0.0
 32
0.0
 13
1.0
 23
0.0
 33
0.0
 40
0.0
 40
0.0
 40
0.0
 40
0.0
 40
1.0
 40
1.0
 40
1.0
 40
1.0
 10
89.19396428296426
 20
-83.761050812393
 30
0.0
 10
88.87826345768514
 20
-83.68573275685632
 30
0.0
 10
88.65626040779334
 20
-83.40252275692731
 30
0.0
 10
88.6585534632904
 20
-83.07793192367504
 30
0.0
  0
POLYLINE
  5
FA
330
1F
100
AcDbEntity
  8
0
 62
   250
370
    25
100
AcDb2dPolyline
 66
     1
 10
0.0
 20
0.0
 30
0.0
  0
VERTEX
  5
FB
330
FA
100
AcDbEntity
  8
0
 62
   250
370
    25
100
AcDbVertex
100
AcDb2dVertex
 10
89.19396428296426
 20
-83.761050812393
 30
0.0
  0
VERTEX
  5
FC
330
FA
100
AcDbEntity
  8
0
 62
   250
370
    25
100
AcDbVertex
100
AcDb2dVertex
 10
89.1902601163921
 20
-84.1149222011934
 30
0.0
  0
SEQEND
  5
FD
330
FA
100
AcDbEntity
  8
0
 62
   250
370
    25
  0
SPLINE
  5
FE
330
1F
100
AcDbEntity
  8
0
 62
   250
370
    25
100
AcDbSpline
210
0.0
220
0.0
230
1.0
 70
     8
 71
     3
 72
     8
 73
     4
 74
     0
 42
0.0000000001
 43
0.0000000001
 12
1.0
 22
0.0
 32
0.0
 13
1.0
 23
0.0
 33
0.0
 40
0.0
 40
0.0
 40
0.0
 40
0.0
 40
1.0
 40
1.0
 40
1.0
 40
1.0
 10
88.65544901892515
 20
-83.4319797013643
 30
0.0
 10
88.65319124120498
 20
-83.75628831239419
 30
0.0
 10
88.874841513328
 20
-84.03935720121248
 30
0.0
 10
89.1902601163921
 20
-84.1149222011934
 30
0.0
  0
POLYLINE
  5
FF
330
1F
100
AcDbEntity
  8
0
 62
   250
370
    25
100
AcDb2dPolyline
 66
     1
 10
0.0
 20
0.0
 30
0.0
  0
VERTEX
  5
100
330
FF
100
AcDbEntity
  8
0
 62
   250
370
    25
100
AcDbVertex
100
AcDb2dVertex
 10
121.7719328962755
 20
-90.88102358839082
 30
0.0
  0
VERTEX
  5
101
330
FF
100
AcDbEntity
  8
0
 62
   250
370
    25
100
AcDbVertex
100
AcDb2dVertex
 10
88.62249957532133
 20
-90.88102358839082
 30
0.0
  0
SEQEND
  5
102
330
FF
100
AcDbEntity
  8
0
 62
   250
370
    25
  0
SPLINE
  5
103
330
1F
100
AcDbEntity
  8
0
 62
   250
370
    25
100
AcDbSpline
210
0.0
220
0.0
230
1.0
 70
     8
 71
     3
 72
     8
 73
     4
 74
     0
 42
0.0000000001
 43
0.0000000001
 12
1.0
 22
0.0
 32
0.0
 13
1.0
 23
0.0
 33
0.0
 40
0.0
 40
0.0
 40
0.0
 40
0.0
 40
1.0
 40
1.0
 40
1.0
 40
1.0
 10
89.1902601163921
 20
-84.1149222011934
 30
0.0
 10
94.5520588684901
 20
-85.42323386753296
 30
0.0
 10
99.82746234501447
 20
-84.98183831208786
 30
0.0
 10
105.1812530417612
 20
-84.98183831208786
 30
0.0
  0
SPLINE
  5
104
330
1F
100
AcDbEntity
  8
0
 62
   250
370
    25
100
AcDbSpline
210
0.0
220
0.0
230
1.0
 70
     8
 71
     3
 72
     8
 73
     4
 74
     0
 42
0.0000000001
 43
0.0000000001
 12
1.0
 22
0.0
 32
0.0
 13
1.0
 23
0.0
 33
0.0
 40
0.0
 40
0.0
 40
0.0
 40
0.0
 40
1.0
 40
1.0
 40
1.0
 40
1.0
 10
92.64970475035653
 20
-83.29598386806485
 30
0.0
 10
96.82701686600664
 20
-83.3432913680531
 30
0.0
 10
101.0040467594417
 20
-83.315210256949
 30
0.0
 10
105.1812530417612
 20
-83.31517497917116
 30
0.0
  0
SPLINE
  5
105
330
1F
100
AcDbEntity
  8
0
 62
   250
370
    25
100
AcDbSpline
210
0.0
220
0.0
230
1.0
 70
     8
 71
     3
 72
     8
 73
     4
 74
     0
 42
0.0000000001
 43
0.0000000001
 12
1.0
 22
0.0
 32
0.0
 13
1.0
 23
0.0
 33
0.0
 40
0.0
 40
0.0
 40
0.0
 40
0.0
 40
1.0
 40
1.0
 40
1.0
 40
1.0
 10
117.6771002229656
 20
-79.11126331355531
 30
0.0
 10
109.3465001577191
 20
-79.09030831356084
 30
0.0
 10
101.0160059258033
 20
-79.09030831356084
 30
0.0
 10
92.68540586055684
 20
-79.11126331355531
 30
0.0
  0
SPLINE
  5
106
330
1F
100
AcDbEntity
  8
0
 62
   250
370
    25
100
AcDbSpline
210
0.0
220
0.0
230
1.0
 70
     8
 71
     3
 72
     8
 73
     4
 74
     0
 42
0.0000000001
 43
0.0000000001
 12
1.0
 22
0.0
 32
0.0
 13
1.0
 23
0.0
 33
0.0
 40
0.0
 40
0.0
 40
0.0
 40
0.0
 40
1.0
 40
1.0
 40
1.0
 40
1.0
 10
105.1812530417612
 20
-84.98183831208786
 30
0.0
 10
110.535043738508
 20
-84.98183831208786
 30
0.0
 10
115.8104472150323
 20
-85.42323386753296
 30
0.0
 10
121.1722106893534
 20
-84.1149222011934
 30
0.0
  0
SPLINE
  5
107
330
1F
100
AcDbEntity
  8
0
 62
   250
370
    25
100
AcDbSpline
210
0.0
220
0.0
230
1.0
 70
     8
 71
     3
 72
     8
 73
     4
 74
     0
 42
0.0000000001
 43
0.0000000001
 12
1.0
 22
0.0
 32
0.0
 13
1.0
 23
0.0
 33
0.0
 40
0.0
 40
0.0
 40
0.0
 40
0.0
 40
1.0
 40
1.0
 40
1.0
 40
1.0
 10
121.1722106893534
 20
-84.1149222011934
 30
0.0
 10
121.4876292924176
 20
-84.03935720121248
 30
0.0
 10
121.7093148423175
 20
-83.75628831239419
 30
0.0
 10
121.7070570645973
 20
-83.4319797013643
 30
0.0
  0
SPLINE
  5
108
330
1F
100
AcDbEntity
  8
0
 62
   250
370
    25
100
AcDbSpline
210
0.0
220
0.0
230
1.0
 70
     8
 71
     3
 72
     8
 73
     4
 74
     0
 42
0.0000000001
 43
0.0000000001
 12
1.0
 22
0.0
 32
0.0
 13
1.0
 23
0.0
 33
0.0
 40
0.0
 40
0.0
 40
0.0
 40
0.0
 40
1.0
 40
1.0
 40
1.0
 40
1.0
 10
121.1685418005582
 20
-83.761050812393
 30
0.0
 10
121.1697765227489
 20
-83.87898442347479
 30
0.0
 10
121.1710112449396
 20
-83.99695331233409
 30
0.0
 10
121.1722106893534
 20
-84.1149222011934
 30
0.0
  0
SPLINE
  5
109
330
1F
100
AcDbEntity
  8
0
 62
   250
370
    25
100
AcDbSpline
210
0.0
220
0.0
230
1.0
 70
     8
 71
     3
 72
     8
 73
     4
 74
     0
 42
0.0000000001
 43
0.0000000001
 12
1.0
 22
0.0
 32
0.0
 13
1.0
 23
0.0
 33
0.0
 40
0.0
 40
0.0
 40
0.0
 40
0.0
 40
1.0
 40
1.0
 40
1.0
 40
1.0
 10
121.1591226341318
 20
-83.64830303464348
 30
0.0
 10
121.4787040148675
 20
-83.57647747910595
 30
0.0
 10
121.7050815090921
 20
-83.29171525695484
 30
0.0
 10
121.7029648424795
 20
-82.96416109037007
 30
0.0
  0
SPLINE
  5
10A
330
1F
100
AcDbEntity
  8
0
 62
   250
370
    25
100
AcDbSpline
210
0.0
220
0.0
230
1.0
 70
     8
 71
     3
 72
     8
 73
     4
 74
     0
 42
0.0000000001
 43
0.0000000001
 12
1.0
 22
0.0
 32
0.0
 13
1.0
 23
0.0
 33
0.0
 40
0.0
 40
0.0
 40
0.0
 40
0.0
 40
1.0
 40
1.0
 40
1.0
 40
1.0
 10
121.703952620232
 20
-83.07793192367504
 30
0.0
 10
121.7062456757291
 20
-83.40252275692731
 30
0.0
 10
121.4842426258373
 20
-83.68573275685632
 30
0.0
 10
121.1685418005582
 20
-83.761050812393
 30
0.0
  0
SPLINE
  5
10B
330
1F
100
AcDbEntity
  8
0
 62
   250
370
    25
100
AcDbSpline
210
0.0
220
0.0
230
1.0
 70
     8
 71
     3
 72
     8
 73
     4
 74
     0
 42
0.0000000001
 43
0.0000000001
 12
1.0
 22
0.0
 32
0.0
 13
1.0
 23
0.0
 33
0.0
 40
0.0
 40
0.0
 40
0.0
 40
0.0
 40
1.0
 40
1.0
 40
1.0
 40
1.0
 10
105.1812530417612
 20
-83.31517497917116
 30
0.0
 10
109.358670990742
 20
-83.315210256949
 30
0.0
 10
113.5359125508383
 20
-83.3432913680531
 30
0.0
 10
117.7134716109266
 20
-83.29598386806485
 30
0.0
  0
SPLINE
  5
10C
330
1F
100
AcDbEntity
  8
0
 62
   250
370
    25
100
AcDbSpline
210
0.0
220
0.0
230
1.0
 70
     8
 71
     3
 72
    29
 73
    25
 74
     0
 42
0.0000000001
 43
0.0000000001
 12
1.0
 22
0.0
 32
0.0
 13
1.0
 23
0.0
 33
0.0
 40
0.0
 40
0.0
 40
0.0
 40
0.0
 40
1.0
 40
1.0
 40
1.0
 40
2.0
 40
2.0
 40
2.0
 40
3.0
 40
3.0
 40
3.0
 40
4.0
 40
4.0
 40
4.0
 40
5.0
 40
5.0
 40
5.0
 40
6.0
 40
6.0
 40
6.0
 40
7.0
 40
7.0
 40
7.0
 40
8.0
 40
8.0
 40
8.0
 40
8.0
 10
117.7134716109266
 20
-83.29598386806485
 30
0.0
 10
117.8448460520194
 20
-83.29432581250924
 30
0.0
 10
117.9761499375584
 20
-83.29594859028701
 30
0.0
 10
118.1074538230975
 20
-83.29961747917503
 30
0.0
 10
118.2587249303493
 20
-83.30385081250752
 30
0.0
 10
118.4099607598243
 20
-83.31083581250547
 30
0.0
 10
118.560984922638
 20
-83.32014914583671
 30
0.0
 10
118.9213474134444
 20
-83.34237414583119
 30
0.0
 10
119.2806515709445
 20
-83.37796942359986
 30
0.0
 10
119.6398498951139
 20
-83.4143760902576
 30
0.0
 10
119.9643701646125
 20
-83.44729025691588
 30
0.0
 10
120.2888198785573
 20
-83.48080414579648
 30
0.0
 10
120.6130932036177
 20
-83.51519997912116
 30
0.0
 10
120.7074965345426
 20
-83.52518359022976
 30
0.0
 10
120.8018998654675
 20
-83.53527303467187
 30
0.0
 10
120.8958798630699
 20
-83.54917247911273
 30
0.0
 10
120.9629429169145
 20
-83.55908553466564
 30
0.0
 10
121.0297943040979
 20
-83.57093886799623
 30
0.0
 10
121.0936470802467
 20
-83.5940458124348
 30
0.0
 10
121.1117798575618
 20
-83.60060747909995
 30
0.0
 10
121.129630412662
 20
-83.60805109020917
 30
0.0
 10
121.1436356900825
 20
-83.62159775687226
 30
0.0
 10
121.1512556898881
 20
-83.62893553464829
 30
0.0
 10
121.1577468008336
 20
-83.63810775686817
 30
0.0
 10
121.1591226341318
 20
-83.64830303464348
 30
0.0
  0
SPLINE
  5
10D
330
1F
100
AcDbEntity
  8
0
 62
   250
370
    25
100
AcDbSpline
210
0.0
220
0.0
230
1.0
 70
     8
 71
     3
 72
    14
 73
    10
 74
     0
 42
0.0000000001
 43
0.0000000001
 12
1.0
 22
0.0
 32
0.0
 13
1.0
 23
0.0
 33
0.0
 40
0.0
 40
0.0
 40
0.0
 40
0.0
 40
1.0
 40
1.0
 40
1.0
 40
2.0
 40
2.0
 40
2.0
 40
3.0
 40
3.0
 40
3.0
 40
3.0
 10
105.1812530417612
 20
-124.8492549687877
 30
0.0
 10
103.5183997508508
 20
-124.8492549687877
 30
0.0
 10
101.8791120148947
 20
-124.9515252465399
 30
0.0
 10
100.2351676123908
 20
-125.223904968694
 30
0.0
 10
99.41506513331336
 20
-125.3597596908825
 30
0.0
 10
98.61207237602164
 20
-125.5313508019506
 30
0.0
 10
97.82350822947292
 20
-125.8053885796597
 30
0.0
 10
97.30227907610391
 20
-125.9865046907255
 30
0.0
 10
95.93417161100724
 20
-126.448043857277
 30
0.0
 10
96.0094543868644
 20
-127.2793646904024
 30
0.0
  0
INSERT
  5
10F
330
1F
100
AcDbEntity
  8
0
100
AcDbBlockReference
  2
block 2
 10
0.0
 20
0.0
 30
0.0
  0
ENDSEC
  0
SECTION
  2
OBJECTS
  0
DICTIONARY
  5
C
330
0
100
AcDbDictionary
281
     1
  3
ACAD_GROUP
350
D
  3
ACAD_LAYOUT
350
1A
  3
ACAD_MATERIAL
350
3B
  3
ACAD_MLEADERSTYLE
350
14F
  3
ACAD_MLINESTYLE
350
17
  3
ACAD_PLOTSETTINGS
350
19
  3
ACAD_PLOTSTYLENAME
350
E
  3
ACAD_TABLESTYLE
350
14E
  3
ACAD_VISUALSTYLE
350
2A
  0
SUN
  5
3F
330
29
100
AcDbSun
 90
        1
290
     0
 63
     7
421
 16777215
 40
1.0
291
     1
 91
  2455826
 92
 54000000
292
     0
 70
     2
 71
   256
280
     1
  0
DICTIONARY
  5
D
102
{ACAD_REACTORS
330
C
102
}
330
C
100
AcDbDictionary
281
     1
  0
DICTIONARY
  5
1A
102
{ACAD_REACTORS
330
C
102
}
330
C
100
AcDbDictionary
281
     1
  3
Layout1
350
1E
  3
Layout2
350
26
  3
Model
350
22
  0
DICTIONARY
  5
3B
102
{ACAD_REACTORS
330
C
102
}
330
C
100
AcDbDictionary
281
     1
  3
ByBlock
350
3D
  3
ByLayer
350
3C
  3
Global
350
3E
  0
DICTIONARY
  5
14F
102
{ACAD_REACTORS
330
C
102
}
330
C
100
AcDbDictionary
281
     1
  0
DICTIONARY
  5
17
102
{ACAD_REACTORS
330
C
102
}
330
C
100
AcDbDictionary
281
     1
  3
Standard
350
18
  0
DICTIONARY
  5
19
102
{ACAD_REACTORS
330
C
102
}
330
C
100
AcDbDictionary
281
     1
  0
ACDBDICTIONARYWDFLT
  5
E
102
{ACAD_REACTORS
330
C
102
}
330
C
100
AcDbDictionary
281
     1
  3
Normal
350
F
100
AcDbDictionaryWithDefault
340
F
  0
DICTIONARY
  5
14E
102
{ACAD_REACTORS
330
C
102
}
330
C
100
AcDbDictionary
281
     1
  0
DICTIONARY
  5
2A
102
{ACAD_REACTORS
330
C
102
}
330
C
100
AcDbDictionary
281
     1
  3
2dWireframe
350
2F
  3
3D Hidden
350
31
  3
3dWireframe
350
30
  3
Basic
350
32
  3
Brighten
350
36
  3
ColorChange
350
3A
  3
Conceptual
350
34
  3
Dim
350
35
  3
Facepattern
350
39
  3
Flat
350
2B
  3
FlatWithEdges
350
2C
  3
Gouraud
350
2D
  3
GouraudWithEdges
350
2E
  3
Linepattern
350
38
  3
Realistic
350
33
  3
Thicken
350
37
  0
LAYOUT
  5
1E
102
{ACAD_REACTORS
330
1A
102
}
330
1A
100
AcDbPlotSettings
  1

  2
none_device
  4

  6

 40
0.0
 41
0.0
 42
0.0
 43
0.0
 44
0.0
 45
0.0
 46
0.0
 47
0.0
 48
0.0
 49
0.0
140
0.0
141
0.0
142
1.0
143
1.0
 70
   688
 72
     0
 73
     0
 74
     5
  7

 75
    16
 76
     0
 77
     2
 78
   300
147
1.0
148
0.0
149
0.0
100
AcDbLayout
  1
Layout1
 70
     1
 71
     1
 10
0.0
 20
0.0
 11
12.0
 21
9.0
 12
0.0
 22
0.0
 32
0.0
 14
1.000000000000000E+20
 24
1.000000000000000E+20
 34
1.000000000000000E+20
 15
-1.000000000000000E+20
 25
-1.000000000000000E+20
 35
-1.000000000000000E+20
146
0.0
 13
0.0
 23
0.0
 33
0.0
 16
1.0
 26
0.0
 36
0.0
 17
0.0
 27
1.0
 37
0.0
 76
     0
330
1B
  0
LAYOUT
  5
26
102
{ACAD_REACTORS
330
1A
102
}
330
1A
100
AcDbPlotSettings
  1

  2
none_device
  4

  6

 40
0.0
 41
0.0
 42
0.0
 43
0.0
 44
0.0
 45
0.0
 46
0.0
 47
0.0
 48
0.0
 49
0.0
140
0.0
141
0.0
142
1.0
143
1.0
 70
   688
 72
     0
 73
     0
 74
     5
  7

 75
    16
 76
     0
 77
     2
 78
   300
147
1.0
148
0.0
149
0.0
100
AcDbLayout
  1
Layout2
 70
     1
 71
     2
 10
0.0
 20
0.0
 11
0.0
 21
0.0
 12
0.0
 22
0.0
 32
0.0
 14
0.0
 24
0.0
 34
0.0
 15
0.0
 25
0.0
 35
0.0
146
0.0
 13
0.0
 23
0.0
 33
0.0
 16
1.0
 26
0.0
 36
0.0
 17
0.0
 27
1.0
 37
0.0
 76
     0
330
23
  0
LAYOUT
  5
22
102
{ACAD_REACTORS
330
1A
102
}
330
1A
100
AcDbPlotSettings
  1

  2
none_device
  4

  6

 40
0.0
 41
0.0
 42
0.0
 43
0.0
 44
0.0
 45
0.0
 46
0.0
 47
0.0
 48
0.0
 49
0.0
140
0.0
141
0.0
142
1.0
143
1.0
 70
  1712
 72
     0
 73
     0
 74
     0
  7

 75
     0
 76
     0
 77
     2
 78
   300
147
1.0
148
0.0
149
0.0
100
AcDbLayout
  1
Model
 70
     1
 71
     0
 10
0.0
 20
0.0
 11
12.0
 21
9.0
 12
0.0
 22
0.0
 32
0.0
 14
1.000000000000000E+20
 24
1.000000000000000E+20
 34
1.000000000000000E+20
 15
-1.000000000000000E+20
 25
-1.000000000000000E+20
 35
-1.000000000000000E+20
146
0.0
 13
0.0
 23
0.0
 33
0.0
 16
1.0
 26
0.0
 36
0.0
 17
0.0
 27
1.0
 37
0.0
 76
     0
330
1F
331
29
  0
MATERIAL
  5
3D
102
{ACAD_REACTORS
330
3B
102
}
330
3B
100
AcDbMaterial
  1
ByBlock
 72
     1
 94
      127
  0
MATERIAL
  5
3C
102
{ACAD_REACTORS
330
3B
102
}
330
3B
100
AcDbMaterial
  1
ByLayer
 72
     1
 94
      127
  0
MATERIAL
  5
3E
102
{ACAD_REACTORS
330
3B
102
}
330
3B
100
AcDbMaterial
  1
Global
 72
     1
 94
      127
  0
MLINESTYLE
  5
18
102
{ACAD_REACTORS
330
17
102
}
330
17
100
AcDbMlineStyle
  2
Standard
 70
     0
  3

 62
   256
 51
90.0
 52
90.0
 71
     2
 49
0.5
 62
   256
  6
BYLAYER
 49
-0.5
 62
   256
  6
BYLAYER
  0
ACDBPLACEHOLDER
  5
F
102
{ACAD_REACTORS
330
E
102
}
330
E
  0
VISUALSTYLE
  5
2F
102
{ACAD_REACTORS
330
2A
102
}
102
{ACAD_XDICTIONARY
360
136
102
}
330
2A
100
AcDbVisualStyle
  2
2dWireframe
 70
     4
 71
     0
 72
     2
 73
     0
 90
        0
 40
-0.6
 41
-30.0
 62
     5
 63
     7
421
 16777215
 74
     1
 91
        4
 64
     7
 65
   257
 75
     1
175
     1
 42
1.0
 92
        0
 66
   257
 43
1.0
 76
     1
 77
     6
 78
     2
 67
     7
 79
     5
170
     0
171
     0
290
     0
174
     0
 93
        1
 44
0.0
173
     0
291
     0
 45
0.0
  0
VISUALSTYLE
  5
31
102
{ACAD_REACTORS
330
2A
102
}
102
{ACAD_XDICTIONARY
360
13A
102
}
330
2A
100
AcDbVisualStyle
  2
3D Hidden
 70
     6
 71
     1
 72
     2
 73
     2
 90
        0
 40
-0.6
 41
-30.0
 62
     5
 63
     7
421
 16777215
 74
     2
 91
        2
 64
     7
 65
   257
 75
     2
175
     1
 42
40.0
 92
        0
 66
   257
 43
1.0
 76
     1
 77
     6
 78
     2
 67
     7
 79
     3
170
     0
171
     0
290
     0
174
     0
 93
        1
 44
0.0
173
     0
291
     0
 45
0.0
  0
VISUALSTYLE
  5
30
102
{ACAD_REACTORS
330
2A
102
}
102
{ACAD_XDICTIONARY
360
138
102
}
330
2A
100
AcDbVisualStyle
  2
3dWireframe
 70
     5
 71
     0
 72
     2
 73
     0
 90
        0
 40
-0.6
 41
-30.0
 62
     5
 63
     7
421
 16777215
 74
     1
 91
        4
 64
     7
 65
   257
 75
     1
175
     1
 42
1.0
 92
        0
 66
   257
 43
1.0
 76
     1
 77
     6
 78
     2
 67
     7
 79
     5
170
     0
171
     0
290
     0
174
     0
 93
        1
 44
0.0
173
     0
291
     0
 45
0.0
  0
VISUALSTYLE
  5
32
102
{ACAD_REACTORS
330
2A
102
}
102
{ACAD_XDICTIONARY
360
13C
102
}
330
2A
100
AcDbVisualStyle
  2
Basic
 70
     7
 71
     1
 72
     0
 73
     1
 90
        0
 40
-0.6
 41
-30.0
 62
     5
 63
     7
421
 16777215
 74
     0
 91
        4
 64
     7
 65
   257
 75
     1
175
     1
 42
1.0
 92
        8
 66
     7
 43
1.0
 76
     1
 77
     6
 78
     2
 67
     7
 79
     5
170
     0
171
     0
290
     0
174
     0
 93
        1
 44
0.0
173
     0
291
     1
 45
0.0
  0
VISUALSTYLE
  5
36
102
{ACAD_REACTORS
330
2A
102
}
102
{ACAD_XDICTIONARY
360
144
102
}
330
2A
100
AcDbVisualStyle
  2
Brighten
 70
    12
 71
     2
 72
     2
 73
     0
 90
        0
 40
-0.6
 41
-30.0
 62
     5
 63
     7
421
 16777215
 74
     1
 91
        4
 64
     7
 65
   257
 75
     1
175
     1
 42
1.0
 92
        8
 66
     7
 43
1.0
 76
     1
 77
     6
 78
     2
 67
     7
 79
     5
170
     0
171
     0
290
     0
174
     0
 93
        1
 44
50.0
173
     0
291
     1
 45
0.0
  0
VISUALSTYLE
  5
3A
102
{ACAD_REACTORS
330
2A
102
}
102
{ACAD_XDICTIONARY
360
14C
102
}
330
2A
100
AcDbVisualStyle
  2
ColorChange
 70
    16
 71
     2
 72
     2
 73
     3
 90
        0
 40
-0.6
 41
-30.0
 62
     5
 63
     8
421
  8421504
 74
     1
 91
        4
 64
     7
 65
   257
 75
     1
175
     1
 42
1.0
 92
        8
 66
     8
424
  8421504
 43
1.0
 76
     1
 77
     6
 78
     2
 67
     7
 79
     5
170
     0
171
     0
290
     0
174
     0
 93
        1
 44
0.0
173
     0
291
     1
 45
0.0
  0
VISUALSTYLE
  5
34
102
{ACAD_REACTORS
330
2A
102
}
102
{ACAD_XDICTIONARY
360
140
102
}
330
2A
100
AcDbVisualStyle
  2
Conceptual
 70
     9
 71
     3
 72
     2
 73
     0
 90
        0
 40
-0.6
 41
-30.0
 62
     5
 63
     7
421
 16777215
 74
     2
 91
        2
 64
     7
 65
   257
 75
     1
175
     1
 42
40.0
 92
        8
 66
     7
 43
1.0
 76
     1
 77
     6
 78
     2
 67
     7
 79
     3
170
     0
171
     0
290
     0
174
     0
 93
        1
 44
0.0
173
     0
291
     0
 45
0.0
  0
VISUALSTYLE
  5
35
102
{ACAD_REACTORS
330
2A
102
}
102
{ACAD_XDICTIONARY
360
142
102
}
330
2A
100
AcDbVisualStyle
  2
Dim
 70
    11
 71
     2
 72
     2
 73
     0
 90
        0
 40
-0.6
 41
-30.0
 62
     5
 63
     7
421
 16777215
 74
     1
 91
        4
 64
     7
 65
   257
 75
     1
175
     1
 42
1.0
 92
        8
 66
     7
 43
1.0
 76
     1
 77
     6
 78
     2
 67
     7
 79
     5
170
     0
171
     0
290
     0
174
     0
 93
        1
 44
-50.0
173
     0
291
     1
 45
0.0
  0
VISUALSTYLE
  5
39
102
{ACAD_REACTORS
330
2A
102
}
102
{ACAD_XDICTIONARY
360
14A
102
}
330
2A
100
AcDbVisualStyle
  2
Facepattern
 70
    15
 71
     2
 72
     2
 73
     0
 90
        0
 40
-0.6
 41
-30.0
 62
     5
 63
     7
421
 16777215
 74
     1
 91
        4
 64
     7
 65
   257
 75
     1
175
     1
 42
1.0
 92
        8
 66
     7
 43
1.0
 76
     1
 77
     6
 78
     2
 67
     7
 79
     5
170
     0
171
     0
290
     0
174
     0
 93
        1
 44
0.0
173
     0
291
     1
 45
0.0
  0
VISUALSTYLE
  5
2B
102
{ACAD_REACTORS
330
2A
102
}
102
{ACAD_XDICTIONARY
360
12E
102
}
330
2A
100
AcDbVisualStyle
  2
Flat
 70
     0
 71
     2
 72
     1
 73
     1
 90
        2
 40
-0.6
 41
30.0
 62
     5
 63
     7
421
 16777215
 74
     0
 91
        4
 64
     7
 65
   257
 75
     1
175
     1
 42
1.0
 92
        8
 66
     7
 43
1.0
 76
     1
 77
     6
 78
     2
 67
     7
 79
     5
170
     0
171
     0
290
     0
174
     0
 93
       13
 44
0.0
173
     0
291
     1
 45
0.0
  0
VISUALSTYLE
  5
2C
102
{ACAD_REACTORS
330
2A
102
}
102
{ACAD_XDICTIONARY
360
130
102
}
330
2A
100
AcDbVisualStyle
  2
FlatWithEdges
 70
     1
 71
     2
 72
     1
 73
     1
 90
        2
 40
-0.6
 41
30.0
 62
     5
 63
     7
421
 16777215
 74
     1
 91
        4
 64
     7
 65
   257
 75
     1
175
     1
 42
1.0
 92
        0
 66
   257
 43
1.0
 76
     1
 77
     6
 78
     2
 67
     7
 79
     5
170
     0
171
     0
290
     0
174
     0
 93
       13
 44
0.0
173
     0
291
     1
 45
0.0
  0
VISUALSTYLE
  5
2D
102
{ACAD_REACTORS
330
2A
102
}
102
{ACAD_XDICTIONARY
360
132
102
}
330
2A
100
AcDbVisualStyle
  2
Gouraud
 70
     2
 71
     2
 72
     2
 73
     1
 90
        2
 40
-0.6
 41
30.0
 62
     5
 63
     7
421
 16777215
 74
     0
 91
        4
 64
     7
 65
   257
 75
     1
175
     1
 42
1.0
 92
        0
 66
     7
 43
1.0
 76
     1
 77
     6
 78
     2
 67
     7
 79
     5
170
     0
171
     0
290
     0
174
     0
 93
       13
 44
0.0
173
     0
291
     1
 45
0.0
  0
VISUALSTYLE
  5
2E
102
{ACAD_REACTORS
330
2A
102
}
102
{ACAD_XDICTIONARY
360
134
102
}
330
2A
100
AcDbVisualStyle
  2
GouraudWithEdges
 70
     3
 71
     2
 72
     2
 73
     1
 90
        2
 40
-0.6
 41
30.0
 62
     5
 63
     7
421
 16777215
 74
     1
 91
        4
 64
     7
 65
   257
 75
     1
175
     1
 42
1.0
 92
        0
 66
   257
 43
1.0
 76
     1
 77
     6
 78
     2
 67
     7
 79
     5
170
     0
171
     0
290
     0
174
     0
 93
       13
 44
0.0
173
     0
291
     1
 45
0.0
  0
VISUALSTYLE
  5
38
102
{ACAD_REACTORS
330
2A
102
}
102
{ACAD_XDICTIONARY
360
148
102
}
330
2A
100
AcDbVisualStyle
  2
Linepattern
 70
    14
 71
     2
 72
     2
 73
     0
 90
        0
 40
-0.6
 41
-30.0
 62
     5
 63
     7
421
 16777215
 74
     1
 91
        4
 64
     7
 65
   257
 75
     7
175
     7
 42
1.0
 92
        8
 66
     7
 43
1.0
 76
     1
 77
     6
 78
     2
 67
     7
 79
     5
170
     0
171
     0
290
     0
174
     0
 93
        1
 44
0.0
173
     0
291
     1
 45
0.0
  0
VISUALSTYLE
  5
33
102
{ACAD_REACTORS
330
2A
102
}
102
{ACAD_XDICTIONARY
360
13E
102
}
330
2A
100
AcDbVisualStyle
  2
Realistic
 70
     8
 71
     2
 72
     2
 73
     0
 90
        0
 40
-0.6
 41
-30.0
 62
     5
 63
     7
421
 16777215
 74
     1
 91
        0
 64
     7
 65
   257
 75
     1
175
     1
 42
1.0
 92
        8
 66
     8
424
  7895160
 43
1.0
 76
     1
 77
     6
 78
     2
 67
     7
 79
     5
170
     0
171
     0
290
     0
174
     0
 93
       13
 44
0.0
173
     0
291
     0
 45
0.0
  0
VISUALSTYLE
  5
37
102
{ACAD_REACTORS
330
2A
102
}
102
{ACAD_XDICTIONARY
360
146
102
}
330
2A
100
AcDbVisualStyle
  2
Thicken
 70
    13
 71
     2
 72
     2
 73
     0
 90
        0
 40
-0.6
 41
-30.0
 62
     5
 63
     7
421
 16777215
 74
     1
 91
        4
 64
     7
 65
   257
 75
     1
175
     1
 42
1.0
 92
       12
 66
     7
 43
1.0
 76
     1
 77
     6
 78
     2
 67
     7
 79
     5
170
     0
171
     0
290
     0
174
     0
 93
        1
 44
0.0
173
     0
291
     1
 45
0.0
  0
DICTIONARY
  5
136
330
2F
100
AcDbDictionary
280
     1
281
     1
  3
ACAD_XREC_ROUNDTRIP
360
137
  0
DICTIONARY
  5
13A
330
31
100
AcDbDictionary
280
     1
281
     1
  3
ACAD_XREC_ROUNDTRIP
360
13B
  0
DICTIONARY
  5
138
330
30
100
AcDbDictionary
280
     1
281
     1
  3
ACAD_XREC_ROUNDTRIP
360
139
  0
DICTIONARY
  5
13C
330
32
100
AcDbDictionary
280
     1
281
     1
  3
ACAD_XREC_ROUNDTRIP
360
13D
  0
DICTIONARY
  5
144
330
36
100
AcDbDictionary
280
     1
281
     1
  3
ACAD_XREC_ROUNDTRIP
360
145
  0
DICTIONARY
  5
14C
330
3A
100
AcDbDictionary
280
     1
281
     1
  3
ACAD_XREC_ROUNDTRIP
360
14D
  0
DICTIONARY
  5
140
330
34
100
AcDbDictionary
280
     1
281
     1
  3
ACAD_XREC_ROUNDTRIP
360
141
  0
DICTIONARY
  5
142
330
35
100
AcDbDictionary
280
     1
281
     1
  3
ACAD_XREC_ROUNDTRIP
360
143
  0
DICTIONARY
  5
14A
330
39
100
AcDbDictionary
280
     1
281
     1
  3
ACAD_XREC_ROUNDTRIP
360
14B
  0
DICTIONARY
  5
12E
330
2B
100
AcDbDictionary
280
     1
281
     1
  3
ACAD_XREC_ROUNDTRIP
360
12F
  0
DICTIONARY
  5
130
330
2C
100
AcDbDictionary
280
     1
281
     1
  3
ACAD_XREC_ROUNDTRIP
360
131
  0
DICTIONARY
  5
132
330
2D
100
AcDbDictionary
280
     1
281
     1
  3
ACAD_XREC_ROUNDTRIP
360
133
  0
DICTIONARY
  5
134
330
2E
100
AcDbDictionary
280
     1
281
     1
  3
ACAD_XREC_ROUNDTRIP
360
135
  0
DICTIONARY
  5
148
330
38
100
AcDbDictionary
280
     1
281
     1
  3
ACAD_XREC_ROUNDTRIP
360
149
  0
DICTIONARY
  5
13E
330
33
100
AcDbDictionary
280
     1
281
     1
  3
ACAD_XREC_ROUNDTRIP
360
13F
  0
DICTIONARY
  5
146
330
37
100
AcDbDictionary
280
     1
281
     1
  3
ACAD_XREC_ROUNDTRIP
360
147
  0
XRECORD
  5
137
102
{ACAD_REACTORS
330
136
102
}
330
136
100
AcDbXrecord
280
     1
102
RTVSPropertyOp0
 70
     1
102
RTVSPropertyOp1
 70
     1
102
RTVSPropertyOp2
 70
     1
102
RTVSPropertyOp3
 70
     1
102
RTVSPropertyOp4
 70
     1
102
RTVSPropertyOp5
 70
     1
102
RTVSPropertyOp6
 70
     1
102
RTVSPropertyOp7
 70
     1
102
RTVSPropertyOp8
 70
     1
102
RTVSPropertyOp9
 70
     1
102
RTVSPropertyOp10
 70
     1
102
RTVSPropertyOp11
 70
     1
102
RTVSPropertyOp12
 70
     1
102
RTVSPropertyOp13
 70
     1
102
RTVSPropertyOp14
 70
     1
102
RTVSPropertyOp15
 70
     1
102
RTVSPropertyOp16
 70
     1
102
RTVSPropertyOp17
 70
     1
102
RTVSPropertyOp18
 70
     1
102
RTVSPropertyOp19
 70
     1
102
RTVSPropertyOp20
 70
     1
102
RTVSPropertyOp21
 70
     1
102
RTVSPropertyOp22
 70
     1
102
RTVSPropertyOp23
 70
     1
102
RTVSPropertyOp24
 70
     1
102
RTVSPropertyOp25
 70
     1
102
RTVSPropertyOp26
 70
     1
102
RTVSPropertyOp27
 70
     1
102
RTVSPropertyOp28
 70
     1
102
RTVSPropertyOp29
 70
     1
102
RTVSPropertyOp30
 70
     1
102
RTVSPropertyOp31
 70
     1
102
RTVSPropertyOp32
 70
     1
  0
XRECORD
  5
13B
102
{ACAD_REACTORS
330
13A
102
}
330
13A
100
AcDbXrecord
280
     1
102
RTVSPropertyOp0
 70
     1
102
RTVSPropertyOp1
 70
     1
102
RTVSPropertyOp2
 70
     1
102
RTVSPropertyOp3
 70
     1
102
RTVSPropertyOp4
 70
     1
102
RTVSPropertyOp5
 70
     1
102
RTVSPropertyOp6
 70
     1
102
RTVSPropertyOp7
 70
     1
102
RTVSPropertyOp8
 70
     1
102
RTVSPropertyOp9
 70
     1
102
RTVSPropertyOp10
 70
     1
102
RTVSPropertyOp11
 70
     1
102
RTVSPropertyOp12
 70
     1
102
RTVSPropertyOp13
 70
     1
102
RTVSPropertyOp14
 70
     1
102
RTVSPropertyOp15
 70
     1
102
RTVSPropertyOp16
 70
     1
102
RTVSPropertyOp17
 70
     1
102
RTVSPropertyOp18
 70
     1
102
RTVSPropertyOp19
 70
     1
102
RTVSPropertyOp20
 70
     1
102
RTVSPropertyOp21
 70
     1
102
RTVSPropertyOp22
 70
     1
102
RTVSPropertyOp23
 70
     1
102
RTVSPropertyOp24
 70
     1
102
RTVSPropertyOp25
 70
     1
102
RTVSPropertyOp26
 70
     1
102
RTVSPropertyOp27
 70
     1
102
RTVSPropertyOp28
 70
     1
102
RTVSPropertyOp29
 70
     1
102
RTVSPropertyOp30
 70
     1
102
RTVSPropertyOp31
 70
     1
102
RTVSPropertyOp32
 70
     1
  0
XRECORD
  5
139
102
{ACAD_REACTORS
330
138
102
}
330
138
100
AcDbXrecord
280
     1
102
RTVSPropertyOp0
 70
     1
102
RTVSPropertyOp1
 70
     1
102
RTVSPropertyOp2
 70
     1
102
RTVSPropertyOp3
 70
     1
102
RTVSPropertyOp4
 70
     1
102
RTVSPropertyOp5
 70
     1
102
RTVSPropertyOp6
 70
     1
102
RTVSPropertyOp7
 70
     1
102
RTVSPropertyOp8
 70
     1
102
RTVSPropertyOp9
 70
     1
102
RTVSPropertyOp10
 70
     1
102
RTVSPropertyOp11
 70
     1
102
RTVSPropertyOp12
 70
     1
102
RTVSPropertyOp13
 70
     1
102
RTVSPropertyOp14
 70
     1
102
RTVSPropertyOp15
 70
     1
102
RTVSPropertyOp16
 70
     1
102
RTVSPropertyOp17
 70
     1
102
RTVSPropertyOp18
 70
     1
102
RTVSPropertyOp19
 70
     1
102
RTVSPropertyOp20
 70
     1
102
RTVSPropertyOp21
 70
     1
102
RTVSPropertyOp22
 70
     1
102
RTVSPropertyOp23
 70
     1
102
RTVSPropertyOp24
 70
     1
102
RTVSPropertyOp25
 70
     1
102
RTVSPropertyOp26
 70
     1
102
RTVSPropertyOp27
 70
     1
102
RTVSPropertyOp28
 70
     1
102
RTVSPropertyOp29
 70
     1
102
RTVSPropertyOp30
 70
     1
102
RTVSPropertyOp31
 70
     1
102
RTVSPropertyOp32
 70
     1
  0
XRECORD
  5
13D
102
{ACAD_REACTORS
330
13C
102
}
330
13C
100
AcDbXrecord
280
     1
102
RTVSPropertyOp0
 70
     1
102
RTVSPropertyOp1
 70
     1
102
RTVSPropertyOp2
 70
     1
102
RTVSPropertyOp3
 70
     1
102
RTVSPropertyOp4
 70
     1
102
RTVSPropertyOp5
 70
     1
102
RTVSPropertyOp6
 70
     1
102
RTVSPropertyOp7
 70
     1
102
RTVSPropertyOp8
 70
     1
102
RTVSPropertyOp9
 70
     1
102
RTVSPropertyOp10
 70
     1
102
RTVSPropertyOp11
 70
     1
102
RTVSPropertyOp12
 70
     1
102
RTVSPropertyOp13
 70
     1
102
RTVSPropertyOp14
 70
     1
102
RTVSPropertyOp15
 70
     1
102
RTVSPropertyOp16
 70
     1
102
RTVSPropertyOp17
 70
     1
102
RTVSPropertyOp18
 70
     1
102
RTVSPropertyOp19
 70
     1
102
RTVSPropertyOp20
 70
     1
102
RTVSPropertyOp21
 70
     1
102
RTVSPropertyOp22
 70
     1
102
RTVSPropertyOp23
 70
     1
102
RTVSPropertyOp24
 70
     1
102
RTVSPropertyOp25
 70
     1
102
RTVSPropertyOp26
 70
     1
102
RTVSPropertyOp27
 70
     1
102
RTVSPropertyOp28
 70
     1
102
RTVSPropertyOp29
 70
     1
102
RTVSPropertyOp30
 70
     1
102
RTVSPropertyOp31
 70
     1
102
RTVSPropertyOp32
 70
     1
  0
XRECORD
  5
145
102
{ACAD_REACTORS
330
144
102
}
330
144
100
AcDbXrecord
280
     1
102
RTVSPropertyOp0
 70
     1
102
RTVSPropertyOp1
 70
     1
102
RTVSPropertyOp2
 70
     1
102
RTVSPropertyOp3
 70
     1
102
RTVSPropertyOp4
 70
     1
102
RTVSPropertyOp5
 70
     1
102
RTVSPropertyOp6
 70
     1
102
RTVSPropertyOp7
 70
     1
102
RTVSPropertyOp8
 70
     1
102
RTVSPropertyOp9
 70
     1
102
RTVSPropertyOp10
 70
     1
102
RTVSPropertyOp11
 70
     1
102
RTVSPropertyOp12
 70
     1
102
RTVSPropertyOp13
 70
     1
102
RTVSPropertyOp14
 70
     1
102
RTVSPropertyOp15
 70
     1
102
RTVSPropertyOp16
 70
     1
102
RTVSPropertyOp17
 70
     1
102
RTVSPropertyOp18
 70
     1
102
RTVSPropertyOp19
 70
     1
102
RTVSPropertyOp20
 70
     1
102
RTVSPropertyOp21
 70
     1
102
RTVSPropertyOp22
 70
     1
102
RTVSPropertyOp23
 70
     1
102
RTVSPropertyOp24
 70
     1
102
RTVSPropertyOp25
 70
     1
102
RTVSPropertyOp26
 70
     1
102
RTVSPropertyOp27
 70
     1
102
RTVSPropertyOp28
 70
     1
102
RTVSPropertyOp29
 70
     1
102
RTVSPropertyOp30
 70
     1
102
RTVSPropertyOp31
 70
     1
102
RTVSPropertyOp32
 70
     1
  0
XRECORD
  5
14D
102
{ACAD_REACTORS
330
14C
102
}
330
14C
100
AcDbXrecord
280
     1
102
RTVSPropertyOp0
 70
     1
102
RTVSPropertyOp1
 70
     1
102
RTVSPropertyOp2
 70
     1
102
RTVSPropertyOp3
 70
     1
102
RTVSPropertyOp4
 70
     1
102
RTVSPropertyOp5
 70
     1
102
RTVSPropertyOp6
 70
     1
102
RTVSPropertyOp7
 70
     1
102
RTVSPropertyOp8
 70
     1
102
RTVSPropertyOp9
 70
     1
102
RTVSPropertyOp10
 70
     1
102
RTVSPropertyOp11
 70
     1
102
RTVSPropertyOp12
 70
     1
102
RTVSPropertyOp13
 70
     1
102
RTVSPropertyOp14
 70
     1
102
RTVSPropertyOp15
 70
     1
102
RTVSPropertyOp16
 70
     1
102
RTVSPropertyOp17
 70
     1
102
RTVSPropertyOp18
 70
     1
102
RTVSPropertyOp19
 70
     1
102
RTVSPropertyOp20
 70
     1
102
RTVSPropertyOp21
 70
     1
102
RTVSPropertyOp22
 70
     1
102
RTVSPropertyOp23
 70
     1
102
RTVSPropertyOp24
 70
     1
102
RTVSPropertyOp25
 70
     1
102
RTVSPropertyOp26
 70
     1
102
RTVSPropertyOp27
 70
     1
102
RTVSPropertyOp28
 70
     1
102
RTVSPropertyOp29
 70
     1
102
RTVSPropertyOp30
 70
     1
102
RTVSPropertyOp31
 70
     1
102
RTVSPropertyOp32
 70
     1
  0
XRECORD
  5
141
102
{ACAD_REACTORS
330
140
102
}
330
140
100
AcDbXrecord
280
     1
102
RTVSPropertyOp0
 70
     1
102
RTVSPropertyOp1
 70
     1
102
RTVSPropertyOp2
 70
     1
102
RTVSPropertyOp3
 70
     1
102
RTVSPropertyOp4
 70
     1
102
RTVSPropertyOp5
 70
     1
102
RTVSPropertyOp6
 70
     1
102
RTVSPropertyOp7
 70
     1
102
RTVSPropertyOp8
 70
     1
102
RTVSPropertyOp9
 70
     1
102
RTVSPropertyOp10
 70
     1
102
RTVSPropertyOp11
 70
     1
102
RTVSPropertyOp12
 70
     1
102
RTVSPropertyOp13
 70
     1
102
RTVSPropertyOp14
 70
     1
102
RTVSPropertyOp15
 70
     1
102
RTVSPropertyOp16
 70
     1
102
RTVSPropertyOp17
 70
     1
102
RTVSPropertyOp18
 70
     1
102
RTVSPropertyOp19
 70
     1
102
RTVSPropertyOp20
 70
     1
102
RTVSPropertyOp21
 70
     1
102
RTVSPropertyOp22
 70
     1
102
RTVSPropertyOp23
 70
     1
102
RTVSPropertyOp24
 70
     1
102
RTVSPropertyOp25
 70
     1
102
RTVSPropertyOp26
 70
     1
102
RTVSPropertyOp27
 70
     1
102
RTVSPropertyOp28
 70
     1
102
RTVSPropertyOp29
 70
     1
102
RTVSPropertyOp30
 70
     1
102
RTVSPropertyOp31
 70
     1
102
RTVSPropertyOp32
 70
     1
  0
XRECORD
  5
143
102
{ACAD_REACTORS
330
142
102
}
330
142
100
AcDbXrecord
280
     1
102
RTVSPropertyOp0
 70
     1
102
RTVSPropertyOp1
 70
     1
102
RTVSPropertyOp2
 70
     1
102
RTVSPropertyOp3
 70
     1
102
RTVSPropertyOp4
 70
     1
102
RTVSPropertyOp5
 70
     1
102
RTVSPropertyOp6
 70
     1
102
RTVSPropertyOp7
 70
     1
102
RTVSPropertyOp8
 70
     1
102
RTVSPropertyOp9
 70
     1
102
RTVSPropertyOp10
 70
     1
102
RTVSPropertyOp11
 70
     1
102
RTVSPropertyOp12
 70
     1
102
RTVSPropertyOp13
 70
     1
102
RTVSPropertyOp14
 70
     1
102
RTVSPropertyOp15
 70
     1
102
RTVSPropertyOp16
 70
     1
102
RTVSPropertyOp17
 70
     1
102
RTVSPropertyOp18
 70
     1
102
RTVSPropertyOp19
 70
     1
102
RTVSPropertyOp20
 70
     1
102
RTVSPropertyOp21
 70
     1
102
RTVSPropertyOp22
 70
     1
102
RTVSPropertyOp23
 70
     1
102
RTVSPropertyOp24
 70
     1
102
RTVSPropertyOp25
 70
     1
102
RTVSPropertyOp26
 70
     1
102
RTVSPropertyOp27
 70
     1
102
RTVSPropertyOp28
 70
     1
102
RTVSPropertyOp29
 70
     1
102
RTVSPropertyOp30
 70
     1
102
RTVSPropertyOp31
 70
     1
102
RTVSPropertyOp32
 70
     1
  0
XRECORD
  5
14B
102
{ACAD_REACTORS
330
14A
102
}
330
14A
100
AcDbXrecord
280
     1
102
RTVSPropertyOp0
 70
     1
102
RTVSPropertyOp1
 70
     1
102
RTVSPropertyOp2
 70
     1
102
RTVSPropertyOp3
 70
     1
102
RTVSPropertyOp4
 70
     1
102
RTVSPropertyOp5
 70
     1
102
RTVSPropertyOp6
 70
     1
102
RTVSPropertyOp7
 70
     1
102
RTVSPropertyOp8
 70
     1
102
RTVSPropertyOp9
 70
     1
102
RTVSPropertyOp10
 70
     1
102
RTVSPropertyOp11
 70
     1
102
RTVSPropertyOp12
 70
     1
102
RTVSPropertyOp13
 70
     1
102
RTVSPropertyOp14
 70
     1
102
RTVSPropertyOp15
 70
     1
102
RTVSPropertyOp16
 70
     1
102
RTVSPropertyOp17
 70
     1
102
RTVSPropertyOp18
 70
     1
102
RTVSPropertyOp19
 70
     1
102
RTVSPropertyOp20
 70
     1
102
RTVSPropertyOp21
 70
     1
102
RTVSPropertyOp22
 70
     1
102
RTVSPropertyOp23
 70
     1
102
RTVSPropertyOp24
 70
     1
102
RTVSPropertyOp25
 70
     1
102
RTVSPropertyOp26
 70
     1
102
RTVSPropertyOp27
 70
     1
102
RTVSPropertyOp28
 70
     1
102
RTVSPropertyOp29
 70
     1
102
RTVSPropertyOp30
 70
     1
102
RTVSPropertyOp31
 70
     1
102
RTVSPropertyOp32
 70
     1
  0
XRECORD
  5
12F
102
{ACAD_REACTORS
330
12E
102
}
330
12E
100
AcDbXrecord
280
     1
102
RTVSPropertyOp0
 70
     1
102
RTVSPropertyOp1
 70
     1
102
RTVSPropertyOp2
 70
     1
102
RTVSPropertyOp3
 70
     1
102
RTVSPropertyOp4
 70
     1
102
RTVSPropertyOp5
 70
     1
102
RTVSPropertyOp6
 70
     1
102
RTVSPropertyOp7
 70
     1
102
RTVSPropertyOp8
 70
     1
102
RTVSPropertyOp9
 70
     1
102
RTVSPropertyOp10
 70
     1
102
RTVSPropertyOp11
 70
     1
102
RTVSPropertyOp12
 70
     1
102
RTVSPropertyOp13
 70
     1
102
RTVSPropertyOp14
 70
     1
102
RTVSPropertyOp15
 70
     1
102
RTVSPropertyOp16
 70
     1
102
RTVSPropertyOp17
 70
     1
102
RTVSPropertyOp18
 70
     1
102
RTVSPropertyOp19
 70
     1
102
RTVSPropertyOp20
 70
     1
102
RTVSPropertyOp21
 70
     1
102
RTVSPropertyOp22
 70
     1
102
RTVSPropertyOp23
 70
     1
102
RTVSPropertyOp24
 70
     1
102
RTVSPropertyOp25
 70
     1
102
RTVSPropertyOp26
 70
     1
102
RTVSPropertyOp27
 70
     1
102
RTVSPropertyOp28
 70
     1
102
RTVSPropertyOp29
 70
     1
102
RTVSPropertyOp30
 70
     1
102
RTVSPropertyOp31
 70
     1
102
RTVSPropertyOp32
 70
     1
  0
XRECORD
  5
131
102
{ACAD_REACTORS
330
130
102
}
330
130
100
AcDbXrecord
280
     1
102
RTVSPropertyOp0
 70
     1
102
RTVSPropertyOp1
 70
     1
102
RTVSPropertyOp2
 70
     1
102
RTVSPropertyOp3
 70
     1
102
RTVSPropertyOp4
 70
     1
102
RTVSPropertyOp5
 70
     1
102
RTVSPropertyOp6
 70
     1
102
RTVSPropertyOp7
 70
     1
102
RTVSPropertyOp8
 70
     1
102
RTVSPropertyOp9
 70
     1
102
RTVSPropertyOp10
 70
     1
102
RTVSPropertyOp11
 70
     1
102
RTVSPropertyOp12
 70
     1
102
RTVSPropertyOp13
 70
     1
102
RTVSPropertyOp14
 70
     1
102
RTVSPropertyOp15
 70
     1
102
RTVSPropertyOp16
 70
     1
102
RTVSPropertyOp17
 70
     1
102
RTVSPropertyOp18
 70
     1
102
RTVSPropertyOp19
 70
     1
102
RTVSPropertyOp20
 70
     1
102
RTVSPropertyOp21
 70
     1
102
RTVSPropertyOp22
 70
     1
102
RTVSPropertyOp23
 70
     1
102
RTVSPropertyOp24
 70
     1
102
RTVSPropertyOp25
 70
     1
102
RTVSPropertyOp26
 70
     1
102
RTVSPropertyOp27
 70
     1
102
RTVSPropertyOp28
 70
     1
102
RTVSPropertyOp29
 70
     1
102
RTVSPropertyOp30
 70
     1
102
RTVSPropertyOp31
 70
     1
102
RTVSPropertyOp32
 70
     1
  0
XRECORD
  5
133
102
{ACAD_REACTORS
330
132
102
}
330
132
100
AcDbXrecord
280
     1
102
RTVSPropertyOp0
 70
     1
102
RTVSPropertyOp1
 70
     1
102
RTVSPropertyOp2
 70
     1
102
RTVSPropertyOp3
 70
     1
102
RTVSPropertyOp4
 70
     1
102
RTVSPropertyOp5
 70
     1
102
RTVSPropertyOp6
 70
     1
102
RTVSPropertyOp7
 70
     1
102
RTVSPropertyOp8
 70
     1
102
RTVSPropertyOp9
 70
     1
102
RTVSPropertyOp10
 70
     1
102
RTVSPropertyOp11
 70
     1
102
RTVSPropertyOp12
 70
     1
102
RTVSPropertyOp13
 70
     1
102
RTVSPropertyOp14
 70
     1
102
RTVSPropertyOp15
 70
     1
102
RTVSPropertyOp16
 70
     1
102
RTVSPropertyOp17
 70
     1
102
RTVSPropertyOp18
 70
     1
102
RTVSPropertyOp19
 70
     1
102
RTVSPropertyOp20
 70
     1
102
RTVSPropertyOp21
 70
     1
102
RTVSPropertyOp22
 70
     1
102
RTVSPropertyOp23
 70
     1
102
RTVSPropertyOp24
 70
     1
102
RTVSPropertyOp25
 70
     1
102
RTVSPropertyOp26
 70
     1
102
RTVSPropertyOp27
 70
     1
102
RTVSPropertyOp28
 70
     1
102
RTVSPropertyOp29
 70
     1
102
RTVSPropertyOp30
 70
     1
102
RTVSPropertyOp31
 70
     1
102
RTVSPropertyOp32
 70
     1
  0
XRECORD
  5
135
102
{ACAD_REACTORS
330
134
102
}
330
134
100
AcDbXrecord
280
     1
102
RTVSPropertyOp0
 70
     1
102
RTVSPropertyOp1
 70
     1
102
RTVSPropertyOp2
 70
     1
102
RTVSPropertyOp3
 70
     1
102
RTVSPropertyOp4
 70
     1
102
RTVSPropertyOp5
 70
     1
102
RTVSPropertyOp6
 70
     1
102
RTVSPropertyOp7
 70
     1
102
RTVSPropertyOp8
 70
     1
102
RTVSPropertyOp9
 70
     1
102
RTVSPropertyOp10
 70
     1
102
RTVSPropertyOp11
 70
     1
102
RTVSPropertyOp12
 70
     1
102
RTVSPropertyOp13
 70
     1
102
RTVSPropertyOp14
 70
     1
102
RTVSPropertyOp15
 70
     1
102
RTVSPropertyOp16
 70
     1
102
RTVSPropertyOp17
 70
     1
102
RTVSPropertyOp18
 70
     1
102
RTVSPropertyOp19
 70
     1
102
RTVSPropertyOp20
 70
     1
102
RTVSPropertyOp21
 70
     1
102
RTVSPropertyOp22
 70
     1
102
RTVSPropertyOp23
 70
     1
102
RTVSPropertyOp24
 70
     1
102
RTVSPropertyOp25
 70
     1
102
RTVSPropertyOp26
 70
     1
102
RTVSPropertyOp27
 70
     1
102
RTVSPropertyOp28
 70
     1
102
RTVSPropertyOp29
 70
     1
102
RTVSPropertyOp30
 70
     1
102
RTVSPropertyOp31
 70
     1
102
RTVSPropertyOp32
 70
     1
  0
XRECORD
  5
149
102
{ACAD_REACTORS
330
148
102
}
330
148
100
AcDbXrecord
280
     1
102
RTVSPropertyOp0
 70
     1
102
RTVSPropertyOp1
 70
     1
102
RTVSPropertyOp2
 70
     1
102
RTVSPropertyOp3
 70
     1
102
RTVSPropertyOp4
 70
     1
102
RTVSPropertyOp5
 70
     1
102
RTVSPropertyOp6
 70
     1
102
RTVSPropertyOp7
 70
     1
102
RTVSPropertyOp8
 70
     1
102
RTVSPropertyOp9
 70
     1
102
RTVSPropertyOp10
 70
     1
102
RTVSPropertyOp11
 70
     1
102
RTVSPropertyOp12
 70
     1
102
RTVSPropertyOp13
 70
     1
102
RTVSPropertyOp14
 70
     1
102
RTVSPropertyOp15
 70
     1
102
RTVSPropertyOp16
 70
     1
102
RTVSPropertyOp17
 70
     1
102
RTVSPropertyOp18
 70
     1
102
RTVSPropertyOp19
 70
     1
102
RTVSPropertyOp20
 70
     1
102
RTVSPropertyOp21
 70
     1
102
RTVSPropertyOp22
 70
     1
102
RTVSPropertyOp23
 70
     1
102
RTVSPropertyOp24
 70
     1
102
RTVSPropertyOp25
 70
     1
102
RTVSPropertyOp26
 70
     1
102
RTVSPropertyOp27
 70
     1
102
RTVSPropertyOp28
 70
     1
102
RTVSPropertyOp29
 70
     1
102
RTVSPropertyOp30
 70
     1
102
RTVSPropertyOp31
 70
     1
102
RTVSPropertyOp32
 70
     1
  0
XRECORD
  5
13F
102
{ACAD_REACTORS
330
13E
102
}
330
13E
100
AcDbXrecord
280
     1
102
RTVSPropertyOp0
 70
     1
102
RTVSPropertyOp1
 70
     1
102
RTVSPropertyOp2
 70
     1
102
RTVSPropertyOp3
 70
     1
102
RTVSPropertyOp4
 70
     1
102
RTVSPropertyOp5
 70
     1
102
RTVSPropertyOp6
 70
     1
102
RTVSPropertyOp7
 70
     1
102
RTVSPropertyOp8
 70
     1
102
RTVSPropertyOp9
 70
     1
102
RTVSPropertyOp10
 70
     1
102
RTVSPropertyOp11
 70
     1
102
RTVSPropertyOp12
 70
     1
102
RTVSPropertyOp13
 70
     1
102
RTVSPropertyOp14
 70
     1
102
RTVSPropertyOp15
 70
     1
102
RTVSPropertyOp16
 70
     1
102
RTVSPropertyOp17
 70
     1
102
RTVSPropertyOp18
 70
     1
102
RTVSPropertyOp19
 70
     1
102
RTVSPropertyOp20
 70
     1
102
RTVSPropertyOp21
 70
     1
102
RTVSPropertyOp22
 70
     1
102
RTVSPropertyOp23
 70
     1
102
RTVSPropertyOp24
 70
     1
102
RTVSPropertyOp25
 70
     1
102
RTVSPropertyOp26
 70
     1
102
RTVSPropertyOp27
 70
     1
102
RTVSPropertyOp28
 70
     1
102
RTVSPropertyOp29
 70
     1
102
RTVSPropertyOp30
 70
     1
102
RTVSPropertyOp31
 70
     1
102
RTVSPropertyOp32
 70
     1
  0
XRECORD
  5
147
102
{ACAD_REACTORS
330
146
102
}
330
146
100
AcDbXrecord
280
     1
102
RTVSPropertyOp0
 70
     1
102
RTVSPropertyOp1
 70
     1
102
RTVSPropertyOp2
 70
     1
102
RTVSPropertyOp3
 70
     1
102
RTVSPropertyOp4
 70
     1
102
RTVSPropertyOp5
 70
     1
102
RTVSPropertyOp6
 70
     1
102
RTVSPropertyOp7
 70
     1
102
RTVSPropertyOp8
 70
     1
102
RTVSPropertyOp9
 70
     1
102
RTVSPropertyOp10
 70
     1
102
RTVSPropertyOp11
 70
     1
102
RTVSPropertyOp12
 70
     1
102
RTVSPropertyOp13
 70
     1
102
RTVSPropertyOp14
 70
     1
102
RTVSPropertyOp15
 70
     1
102
RTVSPropertyOp16
 70
     1
102
RTVSPropertyOp17
 70
     1
102
RTVSPropertyOp18
 70
     1
102
RTVSPropertyOp19
 70
     1
102
RTVSPropertyOp20
 70
     1
102
RTVSPropertyOp21
 70
     1
102
RTVSPropertyOp22
 70
     1
102
RTVSPropertyOp23
 70
     1
102
RTVSPropertyOp24
 70
     1
102
RTVSPropertyOp25
 70
     1
102
RTVSPropertyOp26
 70
     1
102
RTVSPropertyOp27
 70
     1
102
RTVSPropertyOp28
 70
     1
102
RTVSPropertyOp29
 70
     1
102
RTVSPropertyOp30
 70
     1
102
RTVSPropertyOp31
 70
     1
102
RTVSPropertyOp32
 70
     1
  0
ENDSEC
  0
EOF
