  0
SECTION
  2
HEADER
  9
$ACADVER
  1
AC1018
  9
$ACADMAINTVER
 70
     2
  9
$DWGCODEPAGE
  3
ANSI_1252
  9
$TITLE
  1

  9
$SUBJECT
  1

  9
$AUTHOR
  1

  9
$KEYWORDS
  1

  9
$COMMENTS
  1

  9
$LASTSAVEDBY
  1

  9
$REVISIONNUMBER
  1

  9
$CUSTOMPROPERTYTAG
  1
AmdtFileType
  9
$CUSTOMPROPERTY
  1
84
  9
$INSBASE
 10
0.0
 20
0.0
 30
0.0
  9
$EXTMIN
 10
-302.0876042701988
 20
-685.0
 30
0.0
  9
$EXTMAX
 10
302.0545313535321
 20
167.0710678118655
 30
0.0
  9
$LIMMIN
 10
0.0
 20
0.0
  9
$LIMMAX
 10
420.0
 20
297.0
  9
$ORTHOMODE
 70
     1
  9
$REGENMODE
 70
     1
  9
$FILLMODE
 70
     1
  9
$QTEXTMODE
 70
     0
  9
$MIRRTEXT
 70
     1
  9
$LTSCALE
 40
1.0
  9
$ATTMODE
 70
     1
  9
$TEXTSIZE
 40
2.5
  9
$TRACEWID
 40
1.0
  9
$TEXTSTYLE
  7
STANDARD
  9
$CLAYER
  8
0
  9
$CELTYPE
  6
ByLayer
  9
$CECOLOR
 62
   256
  9
$CELTSCALE
 40
1.0
  9
$DISPSILH
 70
     0
  9
$DIMSCALE
 40
1.0
  9
$DIMASZ
 40
2.5
  9
$DIMEXO
 40
1.0
  9
$DIMDLI
 40
10.0
  9
$DIMRND
 40
0.0
  9
$DIMDLE
 40
0.0
  9
$DIMEXE
 40
1.0
  9
$DIMTP
 40
0.1
  9
$DIMTM
 40
0.1
  9
$DIMTXT
 40
3.5
  9
$DIMCEN
 40
0.0
  9
$DIMTSZ
 40
0.0
  9
$DIMTOL
 70
     0
  9
$DIMLIM
 70
     0
  9
$DIMTIH
 70
     0
  9
$DIMTOH
 70
     0
  9
$DIMSE1
 70
     0
  9
$DIMSE2
 70
     0
  9
$DIMTAD
 70
     1
  9
$DIMZIN
 70
     8
  9
$DIMBLK
  1

  9
$DIMASO
 70
     1
  9
$DIMSHO
 70
     1
  9
$DIMPOST
  1

  9
$DIMAPOST
  1
"
  9
$DIMALT
 70
     0
  9
$DIMALTD
 70
     2
  9
$DIMALTF
 40
0.0393701
  9
$DIMLFAC
 40
1.0
  9
$DIMTOFL
 70
     1
  9
$DIMTVP
 40
0.0
  9
$DIMTIX
 70
     0
  9
$DIMSOXD
 70
     0
  9
$DIMSAH
 70
     0
  9
$DIMBLK1
  1

  9
$DIMBLK2
  1

  9
$DIMSTYLE
  2
AM_DIN
  9
$DIMCLRD
 70
   256
  9
$DIMCLRE
 70
   256
  9
$DIMCLRT
 70
     2
  9
$DIMTFAC
 40
0.71
  9
$DIMGAP
 40
1.5
  9
$DIMJUST
 70
     0
  9
$DIMSD1
 70
     0
  9
$DIMSD2
 70
     0
  9
$DIMTOLJ
 70
     0
  9
$DIMTZIN
 70
     8
  9
$DIMALTZ
 70
     0
  9
$DIMALTTZ
 70
     0
  9
$DIMUPT
 70
     0
  9
$DIMDEC
 70
     2
  9
$DIMTDEC
 70
     3
  9
$DIMALTU
 70
     2
  9
$DIMALTTD
 70
     4
  9
$DIMTXSTY
  7
STANDARD
  9
$DIMAUNIT
 70
     0
  9
$DIMADEC
 70
     0
  9
$DIMALTRND
 40
0.0
  9
$DIMAZIN
 70
     2
  9
$DIMDSEP
 70
    46
  9
$DIMATFIT
 70
     3
  9
$DIMFRAC
 70
     0
  9
$DIMLDRBLK
  1

  9
$DIMLUNIT
 70
     2
  9
$DIMLWD
 70
    -1
  9
$DIMLWE
 70
    -1
  9
$DIMTMOVE
 70
     0
  9
$LUNITS
 70
     2
  9
$LUPREC
 70
     2
  9
$SKETCHINC
 40
1.0
  9
$FILLETRAD
 40
2.5
  9
$AUNITS
 70
     0
  9
$AUPREC
 70
     0
  9
$MENU
  1
.
  9
$ELEVATION
 40
0.0
  9
$PELEVATION
 40
0.0
  9
$THICKNESS
 40
0.0
  9
$LIMCHECK
 70
     0
  9
$CHAMFERA
 40
2.5
  9
$CHAMFERB
 40
2.5
  9
$CHAMFERC
 40
20.0
  9
$CHAMFERD
 40
0.0
  9
$SKPOLY
 70
     0
  9
$TDCREATE
 40
2453918.221006574
  9
$TDUCREATE
 40
2453918.179339908
  9
$TDUPDATE
 40
2454064.729466493
  9
$TDUUPDATE
 40
2454064.687799827
  9
$TDINDWG
 40
0.0320411690
  9
$TDUSRTIMER
 40
0.0320370139
  9
$USRTIMER
 70
     1
  9
$ANGBASE
 50
0.0
  9
$ANGDIR
 70
     0
  9
$PDMODE
 70
     0
  9
$PDSIZE
 40
0.0
  9
$PLINEWID
 40
0.0
  9
$SPLFRAME
 70
     0
  9
$SPLINETYPE
 70
     6
  9
$SPLINESEGS
 70
     8
  9
$HANDSEED
  5
662
  9
$SURFTAB1
 70
     6
  9
$SURFTAB2
 70
     6
  9
$SURFTYPE
 70
     6
  9
$SURFU
 70
     6
  9
$SURFV
 70
     6
  9
$UCSBASE
  2

  9
$UCSNAME
  2

  9
$UCSORG
 10
0.0
 20
0.0
 30
0.0
  9
$UCSXDIR
 10
1.0
 20
0.0
 30
0.0
  9
$UCSYDIR
 10
0.0
 20
1.0
 30
0.0
  9
$UCSORTHOREF
  2

  9
$UCSORTHOVIEW
 70
     0
  9
$UCSORGTOP
 10
0.0
 20
0.0
 30
0.0
  9
$UCSORGBOTTOM
 10
0.0
 20
0.0
 30
0.0
  9
$UCSORGLEFT
 10
0.0
 20
0.0
 30
0.0
  9
$UCSORGRIGHT
 10
0.0
 20
0.0
 30
0.0
  9
$UCSORGFRONT
 10
0.0
 20
0.0
 30
0.0
  9
$UCSORGBACK
 10
0.0
 20
0.0
 30
0.0
  9
$PUCSBASE
  2

  9
$PUCSNAME
  2

  9
$PUCSORG
 10
0.0
 20
0.0
 30
0.0
  9
$PUCSXDIR
 10
1.0
 20
0.0
 30
0.0
  9
$PUCSYDIR
 10
0.0
 20
1.0
 30
0.0
  9
$PUCSORTHOREF
  2

  9
$PUCSORTHOVIEW
 70
     0
  9
$PUCSORGTOP
 10
0.0
 20
0.0
 30
0.0
  9
$PUCSORGBOTTOM
 10
0.0
 20
0.0
 30
0.0
  9
$PUCSORGLEFT
 10
0.0
 20
0.0
 30
0.0
  9
$PUCSORGRIGHT
 10
0.0
 20
0.0
 30
0.0
  9
$PUCSORGFRONT
 10
0.0
 20
0.0
 30
0.0
  9
$PUCSORGBACK
 10
0.0
 20
0.0
 30
0.0
  9
$USERI1
 70
     0
  9
$USERI2
 70
     0
  9
$USERI3
 70
     0
  9
$USERI4
 70
     0
  9
$USERI5
 70
     0
  9
$USERR1
 40
0.0
  9
$USERR2
 40
0.0
  9
$USERR3
 40
0.0
  9
$USERR4
 40
0.0
  9
$USERR5
 40
0.0
  9
$WORLDVIEW
 70
     1
  9
$SHADEDGE
 70
     3
  9
$SHADEDIF
 70
    70
  9
$TILEMODE
 70
     1
  9
$MAXACTVP
 70
    64
  9
$PINSBASE
 10
0.0
 20
0.0
 30
0.0
  9
$PLIMCHECK
 70
     0
  9
$PEXTMIN
 10
1.000000000000000E+20
 20
1.000000000000000E+20
 30
1.000000000000000E+20
  9
$PEXTMAX
 10
-1.000000000000000E+20
 20
-1.000000000000000E+20
 30
-1.000000000000000E+20
  9
$PLIMMIN
 10
0.0
 20
0.0
  9
$PLIMMAX
 10
420.0
 20
297.0
  9
$UNITMODE
 70
     0
  9
$VISRETAIN
 70
     1
  9
$PLINEGEN
 70
     0
  9
$PSLTSCALE
 70
     1
  9
$TREEDEPTH
 70
  3020
  9
$CMLSTYLE
  2
Standard
  9
$CMLJUST
 70
     0
  9
$CMLSCALE
 40
20.0
  9
$PROXYGRAPHICS
 70
     1
  9
$MEASUREMENT
 70
     1
  9
$CELWEIGHT
370
    -1
  9
$ENDCAPS
280
     0
  9
$JOINSTYLE
280
     0
  9
$LWDISPLAY
290
     0
  9
$INSUNITS
 70
     4
  9
$HYPERLINKBASE
  1

  9
$STYLESHEET
  1

  9
$XEDIT
290
     1
  9
$CEPSNTYPE
380
     0
  9
$PSTYLEMODE
290
     1
  9
$FINGERPRINTGUID
  2
{E66C8CC1-E66B-408F-9010-06FD783B68A0}
  9
$VERSIONGUID
  2
{6344003B-CAFA-42DB-A5E4-14B80F7C8B60}
  9
$EXTNAMES
290
     1
  9
$PSVPSCALE
 40
0.0
  9
$OLESTARTUP
290
     0
  9
$SORTENTS
280
   127
  9
$INDEXCTL
280
     1
  9
$HIDETEXT
280
     1
  9
$XCLIPFRAME
290
     0
  9
$HALOGAP
280
     0
  9
$OBSCOLOR
 70
   257
  9
$OBSLTYPE
280
     0
  9
$INTERSECTIONDISPLAY
280
     0
  9
$INTERSECTIONCOLOR
 70
   257
  9
$DIMASSOC
280
     2
  9
$PROJECTNAME
  1

  0
ENDSEC
  0
SECTION
  2
CLASSES
  0
CLASS
  1
ACDBDICTIONARYWDFLT
  2
AcDbDictionaryWithDefault
  3
ObjectDBX Classes
 90
        0
 91
        1
280
     0
281
     0
  0
CLASS
  1
ACME_DOCUMENT
  2
AcMeDbDoc
  3
AcMeServices
 90
        0
 91
        2
280
     0
281
     0
  0
CLASS
  1
ACMESCOPE
  2
AcMeScope
  3
AcMeServices
 90
        0
 91
        1
280
     0
281
     0
  0
CLASS
  1
ACMECOMMANDHISTORY
  2
AcMeCommandHistory
  3
AcMeServices
 90
        0
 91
        1
280
     0
281
     0
  0
CLASS
  1
ACIMSYSVARMAN
  2
AcImSysVarManager
  3
AcMeServices
 90
        0
 91
        6
280
     0
281
     0
  0
CLASS
  1
ACIMREALSYSVAR
  2
AcImRealSysVar
  3
AcMeServices
 90
        0
 91
       16
280
     0
281
     0
  0
CLASS
  1
ACIMINTSYSVAR
  2
AcImIntSysVar
  3
AcMeServices
 90
        0
 91
       45
280
     0
281
     0
  0
CLASS
  1
ACMEDRAWINGMAN
  2
AcMeDrawingMan
  3
AcMeServices
 90
        0
 91
        1
280
     0
281
     0
  0
CLASS
  1
ACMEVIEW
  2
AcMeView
  3
AcMeServices
 90
        0
 91
        1
280
     0
281
     0
  0
CLASS
  1
ACDBENTITYCACHE
  2
AcMeEntityCache
  3
AcMeServices
 90
        0
 91
        1
280
     0
281
     0
  0
CLASS
  1
GSMANAGER
  2
AcMeGSManager
  3
AcMeServices
 90
        0
 91
        1
280
     0
281
     0
  0
CLASS
  1
AMDTINTERNALREACTOR
  2
AmdtInternalReactor
  3
AcMeServices
 90
        0
 91
        2
280
     0
281
     0
  0
CLASS
  1
ACMESTATEMGR
  2
AcMeStateMgr
  3
AcMeServices
 90
        0
 91
        1
280
     0
281
     0
  0
CLASS
  1
ACGREFMASTER
  2
AcGrefMaster
  3
AcAttribServices
 90
        0
 91
        1
280
     0
281
     0
  0
CLASS
  1
ACME_DATABASE
  2
AcMeDbDatabase
  3
AcMeServices
 90
        0
 91
        1
280
     0
281
     0
  0
CLASS
  1
ACRFINSADJUSTERMGR
  2
AcRfInsAdjusterMgr
  3
AcMeServices
 90
        0
 91
        1
280
     0
281
     0
  0
CLASS
  1
ACGREFACADMASTER
  2
AcGrefacadMaster
  3
AcGrefServices
 90
        0
 91
        1
280
     0
281
     0
  0
CLASS
  1
AMIMASTER
  2
AmiMaster
  3
AmiServices
 90
        0
 91
        1
280
     0
281
     0
  0
CLASS
  1
AMGSETTINGSOBJ
  2
AmgSettingsObj
  3
"AcadM|Product Description: AutoCAD Mechanical 2000|Company: Autodesk"
 90
        0
 91
        2
280
     0
281
     0
  0
CLASS
  1
ACMDATADICTIONARY
  2
AcmDataDictionary
  3
"AcmSymBB|Product Description: AutoCAD Mechanical 2004 DX|Company: Autodesk"
 90
        0
 91
        1
280
     0
281
     0
  0
CLASS
  1
ACMDATAENTRYBLOCK
  2
AcmDataEntryBlock
  3
"AcmSymBB|Product Description: AutoCAD Mechanical 2004 DX|Company: Autodesk"
 90
        0
 91
        3
280
     0
281
     0
  0
CLASS
  1
ACIMSTRSYSVAR
  2
AcImStrSysVar
  3
AcMeServices
 90
        0
 91
       11
280
     0
281
     0
  0
CLASS
  1
ACMSTANDARDDIN
  2
AcmStandardDIN
  3
"Amdt_StdImp|Product Description: AutoCAD Mechanical 2004 DX|Company: Autodesk"
 90
        0
 91
        1
280
     0
281
     0
  0
CLASS
  1
AMGOBJPROPCFG
  2
AmgObjPropCfg
  3
"AmgLay|Product Description: AutoCAD Mechanical 2000|Company: Autodesk"
 90
        1
 91
        1
280
     0
281
     0
  0
CLASS
  1
AMDTEDGESTANDARDDIN
  2
AmdtEdgeStdDIN
  3
"Amdt_StdImp|Product Description: AutoCAD Mechanical 2004 DX|Company: Autodesk"
 90
        0
 91
        1
280
     0
281
     0
  0
CLASS
  1
ACMSURFSTANDARDDIN
  2
AcmSurfTextStdDIN
  3
"Amdt_StdImp|Product Description: AutoCAD Mechanical 2004 DX|Company: Autodesk"
 90
        0
 91
        1
280
     0
281
     0
  0
CLASS
  1
ACMFCFSTANDARDDIN
  2
AcmFCFStdDIN
  3
"Amdt_StdImp|Product Description: AutoCAD Mechanical 2004 DX|Company: Autodesk"
 90
        0
 91
        1
280
     0
281
     0
  0
CLASS
  1
ACMWELDSTANDARDDIN
  2
AcmWeldingStdDIN
  3
"Amdt_StdImp|Product Description: AutoCAD Mechanical 2004 DX|Company: Autodesk"
 90
        0
 91
        1
280
     0
281
     0
  0
CLASS
  1
ACMIDSTANDARDDIN
  2
AcmIdStdDIN
  3
"Amdt_StdImp|Product Description: AutoCAD Mechanical 2004 DX|Company: Autodesk"
 90
        0
 91
        1
280
     0
281
     0
  0
CLASS
  1
ACMDATUMSTANDARDDIN
  2
AcmDatumStdDIN
  3
"Amdt_StdImp|Product Description: AutoCAD Mechanical 2004 DX|Company: Autodesk"
 90
        0
 91
        1
280
     0
281
     0
  0
CLASS
  1
ACMBOMSTANDARDDIN
  2
AcmBOMStdDIN
  3
"Amdt_StdImp|Product Description: AutoCAD Mechanical 2004 DX|Company: Autodesk"
 90
        0
 91
        1
280
     0
281
     0
  0
CLASS
  1
ACMDETAILSTANDARDDIN
  2
AmdtDetailSymStdDIN
  3
"Amdt_StdImp|Product Description: AutoCAD Mechanical 2004 DX|Company: Autodesk"
 90
        0
 91
        1
280
     0
281
     0
  0
CLASS
  1
ACMSECTIONSTANDARDDIN
  2
AmdtSectionSymStdDIN
  3
"Amdt_StdImp|Product Description: AutoCAD Mechanical 2004 DX|Company: Autodesk"
 90
        0
 91
        1
280
     0
281
     0
  0
CLASS
  1
ACMCENTERLINESTANDARDDIN
  2
AmdtCenterLineStdDIN
  3
"Amdt_StdImp|Product Description: AutoCAD Mechanical 2004 DX|Company: Autodesk"
 90
        0
 91
        1
280
     0
281
     0
  0
CLASS
  1
ACMNOTESTANDARDDIN
  2
AmdtNoteStdDIN
  3
"Amdt_StdImp|Product Description: AutoCAD Mechanical 2004 DX|Company: Autodesk"
 90
        0
 91
        1
280
     0
281
     0
  0
CLASS
  1
ACAMGLAYSTD
  2
AcAmgLayStd
  3
"AcAmgLayStd|Product Description: AutoCAD Mechanical 2000|Company: Autodesk"
 90
        0
 91
        2
280
     0
281
     0
  0
CLASS
  1
ACAMGDIMSTD
  2
AcAmgDimStd
  3
"AcAmgDimStd|Product Description: AutoCAD Mechanical 2000|Company: Autodesk"
 90
        0
 91
        2
280
     0
281
     0
  0
CLASS
  1
ACAMGHOLECHARTSTDDIN
  2
AcAmgHoleChartStdDIN
  3
ACMSYMBB_MODULE_NAME
 90
        0
 91
        1
280
     0
281
     0
  0
CLASS
  1
ACAMGTITLESTD
  2
AcAmgTitleStd
  3
"TITLEAPP"
 90
        0
 91
        2
280
     0
281
     0
  0
CLASS
  1
LAYER_INDEX
  2
AcDbLayerIndex
  3
ObjectDBX Classes
 90
        0
 91
        1
280
     0
281
     0
  0
CLASS
  1
IDBUFFER
  2
AcDbIdBuffer
  3
ObjectDBX Classes
 90
        0
 91
        1
280
     0
281
     0
  0
CLASS
  1
DICTIONARYVAR
  2
AcDbDictionaryVar
  3
ObjectDBX Classes
 90
        0
 91
        3
280
     0
281
     0
  0
CLASS
  1
ACAMGFILTERDAT
  2
AcAmgFilterDat
  3
"AcadM|Product Description: AutoCAD Mechanical 2000|Company: Autodesk"
 90
        0
 91
        6
280
     0
281
     0
  0
CLASS
  1
ACMSTANDARDANSI
  2
AcmStandardANSI
  3
"Amdt_StdImp|Product Description: AutoCAD Mechanical 2004 DX|Company: Autodesk"
 90
        0
 91
        1
280
     0
281
     0
  0
CLASS
  1
ACMSURFSTANDARDANSI
  2
AcmSurfTextStdANSI
  3
"Amdt_StdImp|Product Description: AutoCAD Mechanical 2004 DX|Company: Autodesk"
 90
        0
 91
        1
280
     0
281
     0
  0
CLASS
  1
ACMFCFSTANDARDANSI
  2
AcmFCFStdANSI
  3
"Amdt_StdImp|Product Description: AutoCAD Mechanical 2004 DX|Company: Autodesk"
 90
        0
 91
        1
280
     0
281
     0
  0
CLASS
  1
ACMWELDSTANDARDANSI
  2
AcmWeldingStdANSI
  3
"Amdt_StdImp|Product Description: AutoCAD Mechanical 2004 DX|Company: Autodesk"
 90
        0
 91
        1
280
     0
281
     0
  0
CLASS
  1
ACMIDSTANDARDANSI
  2
AcmIdStdANSI
  3
"Amdt_StdImp|Product Description: AutoCAD Mechanical 2004 DX|Company: Autodesk"
 90
        0
 91
        1
280
     0
281
     0
  0
CLASS
  1
ACMDATUMSTANDARDANSI
  2
AcmDatumStdANSI
  3
"Amdt_StdImp|Product Description: AutoCAD Mechanical 2004 DX|Company: Autodesk"
 90
        0
 91
        1
280
     0
281
     0
  0
CLASS
  1
ACMBOMSTANDARDANSI
  2
AcmBOMStdANSI
  3
"Amdt_StdImp|Product Description: AutoCAD Mechanical 2004 DX|Company: Autodesk"
 90
        0
 91
        1
280
     0
281
     0
  0
CLASS
  1
ACMDETAILSTANDARDANSI
  2
AmdtDetailSymStdANSI
  3
"Amdt_StdImp|Product Description: AutoCAD Mechanical 2004 DX|Company: Autodesk"
 90
        0
 91
        1
280
     0
281
     0
  0
CLASS
  1
ACMSECTIONSTANDARDANSI
  2
AmdtSectionSymStdANSI
  3
"Amdt_StdImp|Product Description: AutoCAD Mechanical 2004 DX|Company: Autodesk"
 90
        0
 91
        1
280
     0
281
     0
  0
CLASS
  1
ACMCENTERLINESTANDARDANSI
  2
AmdtCenterLineStdANSI
  3
"Amdt_StdImp|Product Description: AutoCAD Mechanical 2004 DX|Company: Autodesk"
 90
        0
 91
        1
280
     0
281
     0
  0
CLASS
  1
ACMNOTESTANDARDANSI
  2
AmdtNoteStdANSI
  3
"Amdt_StdImp|Product Description: AutoCAD Mechanical 2004 DX|Company: Autodesk"
 90
        0
 91
        1
280
     0
281
     0
  0
CLASS
  1
ACAMGHOLECHARTSTDANSI
  2
AcAmgHoleChartStdANSI
  3
ACMSYMBB_MODULE_NAME
 90
        0
 91
        1
280
     0
281
     0
  0
CLASS
  1
AMDTFORMULAUPDATEDISPATCHER
  2
AmdtFormulaUpdateDispatcher
  3
AcMeServices
 90
        0
 91
        1
280
     0
281
     0
  0
CLASS
  1
DIMASSOC
  2
AcDbDimAssoc
  3
"AcDbDimAssoc|Product Desc:     AcDim ARX App For Dimension|Company:          Autodesk, Inc.|WEB Address:      www.autodesk.com"
 90
        0
 91
        0
280
     0
281
     0
  0
CLASS
  1
AM_DRAWING_MGR
  2
AcDmDwgMgr
  3
AcMechDwgViewMgmt
 90
        0
 91
        1
280
     0
281
     0
  0
CLASS
  1
AM_DWG_DOCUMENT
  2
AcDmDwgDocument
  3
AcMechDwgViewMgmt
 90
        0
 91
        1
280
     0
281
     0
  0
CLASS
  1
AM_DWG_SHEET
  2
AcDmSheet
  3
AcMechDwgViewMgmt
 90
        0
 91
        2
280
     0
281
     0
  0
CLASS
  1
AM_VIEWDIMPARMAP
  2
AcDmViewDimParMap
  3
AcMechDwgViewMgmt
 90
        0
 91
        2
280
     0
281
     0
  0
CLASS
  1
AM_DWGMGR_NAME
  2
AcDmDwgMgrName
  3
AcMechDwgViewMgmt
 90
        0
 91
        1
280
     0
281
     0
  0
CLASS
  1
AMDTMENUSTATEMGR
  2
AmdtMenuStateMgr
  3
McadcomServices
 90
        0
 91
        1
280
     0
281
     0
  0
CLASS
  1
AMDTMCOMMENUSTATE
  2
AmdtMcomMenuState
  3
McadcomServices
 90
        0
 91
        1
280
     0
281
     0
  0
CLASS
  1
ASAPP
  2
AcAsAppObject
  3
AutoSurfServices
 90
        0
 91
        1
280
     0
281
     0
  0
CLASS
  1
IM_STATIC_MAN
  2
AcImStaticVarManager
  3
AcMeServices
 90
        0
 91
        1
280
     0
281
     0
  0
CLASS
  1
ACIMDBLSTATICVAR
  2
AcImDblStaticVar
  3
AcMeServices
 90
        0
 91
       20
280
     0
281
     0
  0
CLASS
  1
ACIMSTRSTATICVAR
  2
AcImStrStaticVar
  3
AcMeServices
 90
        0
 91
       12
280
     0
281
     0
  0
CLASS
  1
ACIMINTSTATICVAR
  2
AcImIntStaticVar
  3
AcMeServices
 90
        0
 91
       17
280
     0
281
     0
  0
CLASS
  1
ACASGREFMASTER
  2
AcAsGrefMaster
  3
AutoSurfResolverServices
 90
        0
 91
        1
280
     0
281
     0
  0
CLASS
  1
ACADGREFMODULE
  2
AcAdGrefModule
  3
AdGrefServices
 90
        0
 91
        1
280
     0
281
     0
  0
CLASS
  1
AMDTMAPISURFMOUDULE
  2
AmdtMApiSurfModule
  3
MApiSurfServices
 90
        0
 91
        1
280
     0
281
     0
  0
CLASS
  1
MAPIAMMOUDLE
  2
MApiAmModule
  3
MApiAmServices
 90
        0
 91
        1
280
     0
281
     0
  0
CLASS
  1
AMDTADMENUSTATE
  2
AmdtAdMenuState
  3
DesignerServices
 90
        0
 91
        1
280
     0
281
     0
  0
CLASS
  1
ADAPPL
  2
AcAdAppl
  3
DesignerServices
 90
        0
 91
        1
280
     0
281
     0
  0
CLASS
  1
DEPMGR
  2
AcAdDepMgr
  3
DesignerServices
 90
        0
 91
        1
280
     0
281
     0
  0
CLASS
  1
PARAMMGR
  2
AcAdParamMgr
  3
DesignerServices
 90
        0
 91
        1
280
     0
281
     0
  0
CLASS
  1
PARAMSCOPE
  2
AcAdParamScope
  3
DesignerServices
 90
        0
 91
        1
280
     0
281
     0
  0
CLASS
  1
NAMEDAPPL
  2
AcAdNamedAppl
  3
DesignerServices
 90
        0
 91
        1
280
     0
281
     0
  0
CLASS
  1
AMDTDMMENUSTATE
  2
AmdtDmMenuState
  3
AcMechDwgViewMgmt
 90
        0
 91
        1
280
     0
281
     0
  0
CLASS
  1
MAPIADMODULE
  2
MApiAdModule
  3
MApiAdServices
 90
        0
 91
        1
280
     0
281
     0
  0
CLASS
  1
AMDTAMMENUSTATE
  2
AmdtAmMenuState
  3
DesignerAssemblies
 90
        0
 91
        1
280
     0
281
     0
  0
CLASS
  1
ACAMPROJECT
  2
AcAmProject
  3
DesignerAssemblies
 90
        0
 91
        1
280
     0
281
     0
  0
CLASS
  1
ACAMGRCOMPDEF
  2
AcAmGrCompDef
  3
DesignerAssemblies
 90
        0
 91
        1
280
     0
281
     0
  0
CLASS
  1
ACCMCONTEXT
  2
AcCmContext
  3
DesignerAssemblies
 90
        0
 91
        1
280
     0
281
     0
  0
CLASS
  1
ACAMCOMPDEF
  2
AcAmCompDef
  3
DesignerAssemblies
 90
        0
 91
        1
280
     0
281
     0
  0
CLASS
  1
ACAMCOMPDEFMGR
  2
AcAmCompDefMgr
  3
DesignerAssemblies
 90
        0
 91
        1
280
     0
281
     0
  0
CLASS
  1
AMCONTEXTMGR
  2
AcAmContextMgr
  3
DesignerAssemblies
 90
        0
 91
        1
280
     0
281
     0
  0
CLASS
  1
ACAMCONTEXTMODELER
  2
AcAmContextModeler
  3
DesignerAssemblies
 90
        0
 91
        1
280
     0
281
     0
  0
CLASS
  1
ACMTHREADLINESTANDARDDIN
  2
AmdtThreadLineStdDIN
  3
"Amdt_StdImp|Product Description: AutoCAD Mechanical 2004 DX|Company: Autodesk"
 90
        0
 91
        1
280
     0
281
     0
  0
CLASS
  1
ACMTHREADLINESTANDARDANSI
  2
AmdtThreadLineStdANSI
  3
"Amdt_StdImp|Product Description: AutoCAD Mechanical 2004 DX|Company: Autodesk"
 90
        0
 91
        1
280
     0
281
     0
  0
CLASS
  1
CATALOGSTATE
  2
AcAmCatalogState
  3
DesignerAssemblies
 90
        0
 91
        1
280
     0
281
     0
  0
CLASS
  1
ACAMGRCOMPDEFSET
  2
AcAmGrCompDefSet
  3
DesignerAssemblies
 90
        0
 91
        1
280
     0
281
     0
  0
CLASS
  1
AMDTBROWSERDBTAB
  2
AmdtBrowserDbTab
  3
McadcomServices
 90
        0
 91
        1
280
     0
281
     0
  0
CLASS
  1
CBROWSERAPPOBJECT
  2
CBrowserAppObject
  3
McadcomServices
 90
        0
 91
        3
280
     0
281
     0
  0
CLASS
  1
DM_PLACEHOLDER
  2
AcDmSelsetPlaceholder
  3
AcMechDwgViewMgmt
 90
        0
 91
        1
280
     0
281
     0
  0
ENDSEC
  0
SECTION
  2
TABLES
  0
TABLE
  2
VPORT
  5
8
330
0
100
AcDbSymbolTable
 70
     4
  0
VPORT
  5
661
330
8
100
AcDbSymbolTableRecord
100
AcDbViewportTableRecord
  2
*Active
 70
     0
 10
0.0
 20
0.0
 11
1.0
 21
1.0
 12
0.0
 22
0.0
 13
0.0
 23
0.0
 14
2.5
 24
2.5
 15
10.0
 25
10.0
 16
0.0
 26
0.0
 36
1.0
 17
45.51703335549245
 27
-258.9596683902444
 37
0.0
 40
861.6740909424343
 41
1.853846153846154
 42
50.0
 43
0.0
 44
0.0
 50
0.0
 51
0.0
 71
     0
 72
   100
 73
     1
 74
     3
 75
     0
 76
     0
 77
     0
 78
     0
281
     0
 65
     0
110
0.0
120
0.0
130
0.0
111
1.0
121
0.0
131
0.0
112
0.0
122
1.0
132
0.0
 79
     0
146
0.0
  0
ENDTAB
  0
TABLE
  2
LTYPE
  5
5
330
0
100
AcDbSymbolTable
 70
    21
  0
LTYPE
  5
14
330
5
100
AcDbSymbolTableRecord
100
AcDbLinetypeTableRecord
  2
ByBlock
 70
     0
  3

 72
    65
 73
     0
 40
0.0
  0
LTYPE
  5
15
330
5
100
AcDbSymbolTableRecord
100
AcDbLinetypeTableRecord
  2
ByLayer
 70
     0
  3

 72
    65
 73
     0
 40
0.0
  0
LTYPE
  5
16
330
5
100
AcDbSymbolTableRecord
100
AcDbLinetypeTableRecord
  2
Continuous
 70
     0
  3
Solid line
 72
    65
 73
     0
 40
0.0
  0
LTYPE
  5
50
330
5
100
AcDbSymbolTableRecord
100
AcDbLinetypeTableRecord
  2
Amconstr
 70
     0
  3
_______________________
 72
    65
 73
     2
 40
9999.0
 49
9999.0
 74
     0
 49
0.0
 74
     0
  0
LTYPE
  5
55
330
5
100
AcDbSymbolTableRecord
100
AcDbLinetypeTableRecord
  2
Amzigzag
 70
     0
  3
/\/-/\/-/\/-/\/-/\/-/\/
 72
    65
 73
     2
 40
11.0001
 49
0.0001
 74
     4
 75
   135
340
54
 46
0.04
 50
0.0
 44
0.0
 45
0.0
 49
-11.0
 74
     0
  0
LTYPE
  5
56
330
5
100
AcDbSymbolTableRecord
100
AcDbLinetypeTableRecord
  2
AM_DIN_F_W050
 70
     0
  3
__ __ __ __ __ __ __ __ __ __ __ __ __ __ __
 72
    65
 73
     2
 40
6.25
 49
4.75
 74
     0
 49
-1.5
 74
     0
  0
LTYPE
  5
57
330
5
100
AcDbSymbolTableRecord
100
AcDbLinetypeTableRecord
  2
AM_DIN_G_W050
 70
     0
  3
____ . ____ . ____ . ____ . ____ . ____ . ____
 72
    65
 73
     4
 40
13.75
 49
9.75
 74
     0
 49
-1.5
 74
     0
 49
1.0
 74
     0
 49
-1.5
 74
     0
  0
LTYPE
  5
58
330
5
100
AcDbSymbolTableRecord
100
AcDbLinetypeTableRecord
  2
AM_DIN_K_W050
 70
     0
  3
_____ . . _____ . . _____ . . ____ .. ____
 72
    65
 73
     6
 40
16.25
 49
9.75
 74
     0
 49
-1.5
 74
     0
 49
1.0
 74
     0
 49
-1.5
 74
     0
 49
1.0
 74
     0
 49
-1.5
 74
     0
  0
LTYPE
  5
59
330
5
100
AcDbSymbolTableRecord
100
AcDbLinetypeTableRecord
  2
AM_DIN_G_W050x2
 70
     0
  3
__ . __ . __ . __ . __ . __
 72
    65
 73
     4
 40
6.875
 49
4.75
 74
     0
 49
-0.875
 74
     0
 49
0.375
 74
     0
 49
-0.875
 74
     0
  0
LTYPE
  5
5A
330
5
100
AcDbSymbolTableRecord
100
AcDbLinetypeTableRecord
  2
AM_DIN_F_W050x2
 70
     0
  3
 _ _ _ _ _ _ _ _ _ _ _ _
 72
    65
 73
     2
 40
3.125
 49
2.25
 74
     0
 49
-0.875
 74
     0
  0
LTYPE
  5
68
330
5
100
AcDbSymbolTableRecord
100
AcDbLinetypeTableRecord
  2
ACDINWELD
 70
     0
  3
_ _ _ _ _
 72
    65
 73
     2
 40
2.0
 49
2.0
 74
     0
 49
-1.0
 74
     0
  0
LTYPE
  5
69
330
5
100
AcDbSymbolTableRecord
100
AcDbLinetypeTableRecord
  2
ACDINTGB
 70
     0
  3
__ . . __ . .
 72
    65
 73
     6
 40
9.0
 49
4.0
 74
     0
 49
-1.0
 74
     0
 49
1.0
 74
     0
 49
-1.0
 74
     0
 49
1.0
 74
     0
 49
-1.0
 74
     0
  0
LTYPE
  5
6A
330
5
100
AcDbSymbolTableRecord
100
AcDbLinetypeTableRecord
  2
ACDINTGL
 70
     0
  3
_ _ _ _ _
 72
    65
 73
     2
 40
3.0
 49
2.0
 74
     0
 49
-1.0
 74
     0
  0
LTYPE
  5
6C
330
5
100
AcDbSymbolTableRecord
100
AcDbLinetypeTableRecord
  2
CENTER
 70
     0
  3
__ . __
 72
    65
 73
     4
 40
7.0
 49
4.0
 74
     0
 49
-1.0
 74
     0
 49
1.0
 74
     0
 49
-1.0
 74
     0
  0
LTYPE
  5
33D
330
5
100
AcDbSymbolTableRecord
100
AcDbLinetypeTableRecord
  2
PHANTOM2
 70
     0
  3
Phantom (.5x) ___ _ _ ___ _ _ ___ _ _ ___ _ _
 72
    65
 73
     6
 40
1.25
 49
0.625
 74
     0
 49
-0.125
 74
     0
 49
0.125
 74
     0
 49
-0.125
 74
     0
 49
0.125
 74
     0
 49
-0.125
 74
     0
  0
LTYPE
  5
341
330
5
100
AcDbSymbolTableRecord
100
AcDbLinetypeTableRecord
  2
ACANSTGB
 70
     0
  3
__ . . __ . .
 72
    65
 73
     6
 40
0.35433070866
 49
0.15748031496
 74
     0
 49
-0.03937007874
 74
     0
 49
0.03937007874
 74
     0
 49
-0.03937007874
 74
     0
 49
0.03937007874
 74
     0
 49
-0.03937007874
 74
     0
  0
LTYPE
  5
342
330
5
100
AcDbSymbolTableRecord
100
AcDbLinetypeTableRecord
  2
ACANSTGL
 70
     0
  3
_ _ _ _ _
 72
    65
 73
     2
 40
0.11811023622
 49
0.07874015748
 74
     0
 49
-0.03937007874
 74
     0
  0
LTYPE
  5
418
330
5
100
AcDbSymbolTableRecord
100
AcDbLinetypeTableRecord
  2
HIDDEN
 70
     0
  3
Hidden __ __ __ __ __ __ __ __ __ __ __ __ __ _
 72
    65
 73
     2
 40
0.375
 49
0.25
 74
     0
 49
-0.125
 74
     0
  0
LTYPE
  5
419
330
5
100
AcDbSymbolTableRecord
100
AcDbLinetypeTableRecord
  2
CENTER2
 70
     0
  3
Center (.5x) ___ _ ___ _ ___ _ ___ _ ___ _ ___
 72
    65
 73
     4
 40
1.125
 49
0.75
 74
     0
 49
-0.125
 74
     0
 49
0.125
 74
     0
 49
-0.125
 74
     0
  0
LTYPE
  5
41A
330
5
100
AcDbSymbolTableRecord
100
AcDbLinetypeTableRecord
  2
HIDDEN2
 70
     0
  3
Hidden (.5x) _ _ _ _ _ _ _ _ _ _ _ _ _ _ _ _ _
 72
    65
 73
     2
 40
0.1875
 49
0.125
 74
     0
 49
-0.0625
 74
     0
  0
LTYPE
  5
41B
330
5
100
AcDbSymbolTableRecord
100
AcDbLinetypeTableRecord
  2
Amzigzag2
 70
     0
  3
/\/-/\/-/\/-/\/-/\/-/\/
 72
    65
 73
     2
 40
0.4401
 49
0.0001
 74
     4
 75
   135
340
54
 46
0.0016
 50
0.0
 44
0.0
 45
0.0
 49
-0.4400000000000002
 74
     0
  0
LTYPE
  5
61D
330
5
100
AcDbSymbolTableRecord
100
AcDbLinetypeTableRecord
  2
ASULTYPE
 70
     0
  3
Ausgezogene Linie
 72
    65
 73
     2
 40
3.0
 49
2.5
 74
     0
 49
0.5
 74
     0
  0
LTYPE
  5
61E
330
5
100
AcDbSymbolTableRecord
100
AcDbLinetypeTableRecord
  2
ASVLTYPE
 70
     0
  3
__ __ __ __ __ __ __ __ __ __ __ __ __ __ __ __ __ __ __ __ __
 72
    65
 73
     2
 40
0.75
 49
0.5
 74
     0
 49
-0.25
 74
     0
  0
ENDTAB
  0
TABLE
  2
LAYER
  5
2
330
0
100
AcDbSymbolTable
 70
     1
  0
LAYER
  5
10
330
2
100
AcDbSymbolTableRecord
100
AcDbLayerTableRecord
  2
0
 70
     0
 62
     7
  6
Continuous
370
    -3
390
F
  0
ENDTAB
  0
TABLE
  2
STYLE
  5
3
330
0
100
AcDbSymbolTable
 70
     6
  0
STYLE
  5
11
330
3
100
AcDbSymbolTableRecord
100
AcDbTextStyleTableRecord
  2
STANDARD
 70
     0
 40
0.0
 41
1.0
 50
0.0
 71
     0
 42
2.5
  3
ISOCP.SHX
  4

  0
STYLE
  5
54
330
3
100
AcDbSymbolTableRecord
100
AcDbTextStyleTableRecord
  2

 70
     1
 40
0.0
 41
1.0
 50
0.0
 71
     0
 42
2.5
  3
ltypeshp.shx
  4

  0
STYLE
  5
5B
330
3
100
AcDbSymbolTableRecord
100
AcDbTextStyleTableRecord
  2
ACDINTS
 70
     0
 40
1.0
 41
1.0
 50
0.0
 71
     0
 42
2.5
  3
isocp.shx
  4

  0
STYLE
  5
67
330
3
100
AcDbSymbolTableRecord
100
AcDbTextStyleTableRecord
  2
ACDINGDT
 70
     0
 40
0.0
 41
1.0
 50
0.0
 71
     0
 42
2.5
  3
amgdt.shx
  4

  0
STYLE
  5
343
330
3
100
AcDbSymbolTableRecord
100
AcDbTextStyleTableRecord
  2
ACANSTS
 70
     0
 40
1.0
 41
1.0
 50
0.0
 71
     0
 42
0.2
  3
romans.shx
  4

  0
STYLE
  5
344
330
3
100
AcDbSymbolTableRecord
100
AcDbTextStyleTableRecord
  2
ACANSGDT
 70
     0
 40
0.0
 41
1.0
 50
0.0
 71
     0
 42
0.2
  3
amgdtans.shx
  4

  0
ENDTAB
  0
TABLE
  2
VIEW
  5
6
330
0
100
AcDbSymbolTable
 70
     0
  0
ENDTAB
  0
TABLE
  2
UCS
  5
7
330
0
100
AcDbSymbolTable
 70
     0
  0
ENDTAB
  0
TABLE
  2
APPID
  5
9
330
0
100
AcDbSymbolTable
 70
    13
  0
APPID
  5
12
330
9
100
AcDbSymbolTableRecord
100
AcDbRegAppTableRecord
  2
ACAD
 70
     0
  0
APPID
  5
2C
330
9
100
AcDbSymbolTableRecord
100
AcDbRegAppTableRecord
  2
MCAD_NO_VIS
 70
     0
  0
APPID
  5
2D
330
9
100
AcDbSymbolTableRecord
100
AcDbRegAppTableRecord
  2
ACAD_TEMP_GRAPHIC
 70
     0
  0
APPID
  5
3E
330
9
100
AcDbSymbolTableRecord
100
AcDbRegAppTableRecord
  2
ACATTRIBSERVICES
 70
     0
  0
APPID
  5
5A9
330
9
100
AcDbSymbolTableRecord
100
AcDbRegAppTableRecord
  2
GENIUS_GENDIM_13
 70
     0
  0
APPID
  5
5AA
330
9
100
AcDbSymbolTableRecord
100
AcDbRegAppTableRecord
  2
GENIUS_GENDTOL_13
 70
     0
  0
APPID
  5
5AB
330
9
100
AcDbSymbolTableRecord
100
AcDbRegAppTableRecord
  2
GENIUS_GE3DTOL_13
 70
     0
  0
APPID
  5
5D3
330
9
100
AcDbSymbolTableRecord
100
AcDbRegAppTableRecord
  2
AD_DRAW
 70
     0
  0
APPID
  5
61F
330
9
100
AcDbSymbolTableRecord
100
AcDbRegAppTableRecord
  2
ASURF_PCURVE_APPNAME
 70
     0
  0
APPID
  5
624
330
9
100
AcDbSymbolTableRecord
100
AcDbRegAppTableRecord
  2
AMG_3D2D_5.0
 70
     0
  0
APPID
  5
653
330
9
100
AcDbSymbolTableRecord
100
AcDbRegAppTableRecord
  2
DESIGNERASSEMBLIES
 70
     0
  0
APPID
  5
659
330
9
100
AcDbSymbolTableRecord
100
AcDbRegAppTableRecord
  2
ACADM_DIM_EDIT
 70
     0
  0
APPID
  5
65A
330
9
100
AcDbSymbolTableRecord
100
AcDbRegAppTableRecord
  2
AMDT_DM_ADJ
 70
     0
  0
ENDTAB
  0
TABLE
  2
DIMSTYLE
  5
A
330
0
100
AcDbSymbolTable
 70
    14
100
AcDbDimStyleTable
 71
     1
340
6F
  0
DIMSTYLE
105
6F
330
A
100
AcDbSymbolTableRecord
100
AcDbDimStyleTableRecord
  2
AM_DIN
 70
     0
  4
"
 41
2.5
 42
1.0
 43
10.0
 44
1.0
 47
0.1
 48
0.1
 73
     0
 74
     0
 77
     1
 78
     8
 79
     2
140
3.5
141
0.0
143
0.0393701
146
0.71
147
1.5
172
     1
176
   256
177
   256
178
     2
271
     2
272
     3
274
     4
283
     0
284
     8
340
11
371
    -1
372
    -1
  0
DIMSTYLE
105
70
330
A
100
AcDbSymbolTableRecord
100
AcDbDimStyleTableRecord
  2
AM_DIN$3
 70
     0
  4
"
 41
2.5
 42
1.0
 43
10.0
 44
1.0
 47
0.1
 48
0.1
 73
     0
 77
     1
 78
     8
 79
     2
140
3.5
141
0.0
143
0.0393701
146
0.71
147
1.5
176
   256
177
   256
178
     2
271
     2
272
     3
274
     4
283
     0
284
     8
288
     1
289
     0
340
11
371
    -1
372
    -1
  0
DIMSTYLE
105
71
330
A
100
AcDbSymbolTableRecord
100
AcDbDimStyleTableRecord
  2
AM_DIN$4
 70
     0
  4
"
 41
2.5
 42
1.0
 43
10.0
 44
1.0
 47
0.1
 48
0.1
 73
     0
 77
     1
 78
     8
 79
     2
140
3.5
141
0.0
143
0.0393701
146
0.71
147
1.5
176
   256
177
   256
178
     2
271
     2
272
     3
274
     4
283
     0
284
     8
288
     1
289
     0
340
11
371
    -1
372
    -1
  0
DIMSTYLE
105
72
330
A
100
AcDbSymbolTableRecord
100
AcDbDimStyleTableRecord
  2
AM_DIN$6
 70
     0
  4
"
 41
2.5
 42
1.0
 43
10.0
 44
1.0
 47
0.1
 48
0.1
 73
     0
 74
     0
 78
     8
 79
     2
140
3.5
141
0.0
143
0.0393701
146
0.71
147
1.5
172
     1
176
   256
177
   256
178
     2
271
     2
272
     3
274
     4
283
     0
284
     8
340
11
371
    -1
372
    -1
  0
DIMSTYLE
105
73
330
A
100
AcDbSymbolTableRecord
100
AcDbDimStyleTableRecord
  2
AM_DIN$7
 70
     0
  4
"
 41
2.5
 42
1.0
 43
10.0
 44
1.0
 47
0.1
 48
0.1
 73
     0
 74
     0
 77
     1
 78
     8
 79
     2
140
5.0
141
0.0
143
0.0393701
146
0.71
147
1.5
172
     1
176
   256
177
   256
178
     2
271
     2
272
     3
274
     4
283
     0
284
     8
340
11
371
    -1
372
    -1
  0
DIMSTYLE
105
74
330
A
100
AcDbSymbolTableRecord
100
AcDbDimStyleTableRecord
  2
AM_DIN$SF
 70
     0
  4
"
 41
2.5
 42
1.0
 43
10.0
 44
1.0
 47
0.1
 48
0.1
 73
     0
 74
     0
 75
     1
 76
     1
 77
     1
 78
     8
 79
     2
140
3.5
141
0.0
143
0.0393701
146
0.71
147
1.5
172
     1
176
   256
177
   256
178
     2
271
     2
272
     3
274
     4
283
     0
284
     8
340
11
371
    -1
372
    -1
  0
DIMSTYLE
105
79
330
A
100
AcDbSymbolTableRecord
100
AcDbDimStyleTableRecord
  2
AM_DIN$SH
 70
     0
  4
"
 41
2.5
 42
1.0
 43
10.0
 44
1.0
 47
0.1
 48
0.1
 73
     0
 74
     0
 75
     1
 76
     1
 77
     1
 78
     8
 79
     2
140
3.5
141
0.0
143
0.0393701
144
2.0
146
0.71
147
1.5
172
     1
173
     1
176
   256
177
   256
178
     2
271
     2
272
     3
274
     4
283
     0
284
     8
340
11
343
75
371
    -1
372
    -1
  0
DIMSTYLE
105
92
330
A
100
AcDbSymbolTableRecord
100
AcDbDimStyleTableRecord
  2
STANDARD
 70
     0
279
     2
340
11
  0
DIMSTYLE
105
345
330
A
100
AcDbSymbolTableRecord
100
AcDbDimStyleTableRecord
  2
AM_ANSI
 70
     0
  4
mm
 41
0.1
 42
0.05
 43
0.5
 44
0.1
 47
0.1
 48
0.1
 78
     7
 79
     2
140
0.12
141
0.0
146
0.71
147
0.06
176
   256
177
   256
178
     2
274
     4
284
     7
340
11
371
    -1
372
    -1
  0
DIMSTYLE
105
346
330
A
100
AcDbSymbolTableRecord
100
AcDbDimStyleTableRecord
  2
AM_ANSI$3
 70
     0
  4
mm
 41
0.1
 42
0.05
 43
0.5
 44
0.1
 47
0.1
 48
0.1
 78
     7
 79
     2
140
0.12
141
0.0
146
0.71
147
0.06
176
   256
177
   256
178
     2
274
     4
284
     7
288
     1
289
     0
340
11
371
    -1
372
    -1
  0
DIMSTYLE
105
347
330
A
100
AcDbSymbolTableRecord
100
AcDbDimStyleTableRecord
  2
AM_ANSI$4
 70
     0
  4
mm
 41
0.1
 42
0.05
 43
0.5
 44
0.1
 47
0.1
 48
0.1
 78
     7
 79
     2
140
0.12
141
0.0
146
0.71
147
0.06
176
   256
177
   256
178
     2
274
     4
284
     7
288
     1
289
     0
340
11
371
    -1
372
    -1
  0
DIMSTYLE
105
348
330
A
100
AcDbSymbolTableRecord
100
AcDbDimStyleTableRecord
  2
AM_ANSI$7
 70
     0
  4
mm
 41
0.1
 42
0.05
 43
0.5
 44
0.1
 47
0.1
 48
0.1
 78
     7
 79
     2
140
0.24
141
0.0
146
0.71
147
0.06
176
   256
177
   256
178
     2
274
     4
284
     7
340
11
371
    -1
372
    -1
  0
DIMSTYLE
105
349
330
A
100
AcDbSymbolTableRecord
100
AcDbDimStyleTableRecord
  2
AM_ANSI$SF
 70
     0
  4
mm
 41
0.1
 42
0.05
 43
0.5
 44
0.1
 47
0.1
 48
0.1
 75
     1
 76
     1
 78
     7
 79
     2
140
0.12
141
0.0
146
0.71
147
0.06
176
   256
177
   256
178
     2
274
     4
284
     7
340
11
371
    -1
372
    -1
  0
DIMSTYLE
105
34A
330
A
100
AcDbSymbolTableRecord
100
AcDbDimStyleTableRecord
  2
AM_ANSI$SH
 70
     0
  4
mm
 41
0.1
 42
0.05
 43
0.5
 44
0.1
 47
0.1
 48
0.1
 75
     1
 76
     1
 78
     7
 79
     2
140
0.12
141
0.0
146
0.71
147
0.06
173
     1
176
   256
177
   256
178
     2
274
     4
284
     7
340
11
343
75
371
    -1
372
    -1
  0
ENDTAB
  0
TABLE
  2
BLOCK_RECORD
  5
1
330
0
100
AcDbSymbolTable
 70
     5
  0
BLOCK_RECORD
  5
1F
102
{ACAD_XDICTIONARY
360
81
102
}
330
1
100
AcDbSymbolTableRecord
100
AcDbBlockTableRecord
  2
*Model_Space
340
22
  0
BLOCK_RECORD
  5
1B
330
1
100
AcDbSymbolTableRecord
100
AcDbBlockTableRecord
  2
*Paper_Space
340
1E
  0
BLOCK_RECORD
  5
23
330
1
100
AcDbSymbolTableRecord
100
AcDbBlockTableRecord
  2
*Paper_Space0
340
26
  0
BLOCK_RECORD
  5
75
330
1
100
AcDbSymbolTableRecord
100
AcDbBlockTableRecord
  2
GENAXEH
340
0
  0
BLOCK_RECORD
  5
41C
330
1
100
AcDbSymbolTableRecord
100
AcDbBlockTableRecord
  2
045480d
340
0
  0
BLOCK_RECORD
  5
436
330
1
100
AcDbSymbolTableRecord
100
AcDbBlockTableRecord
  2
045460sv
340
0
  0
BLOCK_RECORD
  5
64A
330
1
100
AcDbSymbolTableRecord
100
AcDbBlockTableRecord
  2
*U4
340
0
  0
ENDTAB
  0
ENDSEC
  0
SECTION
  2
BLOCKS
  0
BLOCK
  5
20
330
1F
100
AcDbEntity
  8
0
100
AcDbBlockBegin
  2
*Model_Space
 70
     0
 10
0.0
 20
0.0
 30
0.0
  3
*Model_Space
  1

  0
ENDBLK
  5
21
330
1F
100
AcDbEntity
  8
0
100
AcDbBlockEnd
  0
BLOCK
  5
1C
330
1B
100
AcDbEntity
 67
     1
  8
0
100
AcDbBlockBegin
  2
*Paper_Space
 70
     0
 10
0.0
 20
0.0
 30
0.0
  3
*Paper_Space
  1

  0
ENDBLK
  5
1D
330
1B
100
AcDbEntity
 67
     1
  8
0
100
AcDbBlockEnd
  0
BLOCK
  5
24
330
23
100
AcDbEntity
  8
0
100
AcDbBlockBegin
  2
*Paper_Space0
 70
     0
 10
0.0
 20
0.0
 30
0.0
  3
*Paper_Space0
  1

  0
ENDBLK
  5
25
330
23
100
AcDbEntity
  8
0
100
AcDbBlockEnd
  0
BLOCK
  5
77
330
75
100
AcDbEntity
  8
0
100
AcDbBlockBegin
  2
GENAXEH
 70
     0
 10
0.0
 20
0.0
 30
0.0
  3
GENAXEH
  1

  0
LINE
  5
76
330
75
100
AcDbEntity
  8
0
100
AcDbLine
 10
-1.0
 20
0.0
 30
0.0
 11
1.0
 21
0.0
 31
0.0
  0
ENDBLK
  5
78
330
75
100
AcDbEntity
  8
0
100
AcDbBlockEnd
  0
BLOCK
  5
431
330
41C
100
AcDbEntity
  8
0
100
AcDbBlockBegin
  2
045480d
 70
     0
 10
0.0
 20
0.0
 30
0.0
  3
045480d
  1

  0
LINE
  5
41D
330
41C
100
AcDbEntity
  8
0
  6
CENTER2
 62
     4
 48
30.0
100
AcDbLine
 10
-30.45582053930099
 20
136.4370963626438
 30
0.0
 11
30.45582053930075
 21
136.4370963626438
 31
0.0
  0
LINE
  5
41E
330
41C
100
AcDbEntity
  8
0
  6
CENTER2
 62
     4
 48
30.0
100
AcDbLine
 10
-64.47565104166668
 20
0.0
 30
0.0
 11
64.47013888888886
 21
0.0
 31
0.0
  0
LINE
  5
41F
330
41C
100
AcDbEntity
  8
0
  6
CENTER2
 62
     4
 48
30.0
100
AcDbLine
 10
99.99999999999989
 20
166.8956731030381
 30
0.0
 11
99.99999999999989
 21
105.9840317750273
 31
0.0
  0
LINE
  5
420
330
41C
100
AcDbEntity
  8
0
  6
CENTER2
 62
     4
 48
30.0
100
AcDbLine
 10
-0.0000000000001279
 20
166.8956731030381
 30
0.0
 11
-0.0000000000001279
 21
105.9840317750273
 31
0.0
  0
LINE
  5
421
330
41C
100
AcDbEntity
  8
0
  6
CENTER2
 62
     4
 48
30.0
100
AcDbLine
 10
0.0
 20
64.47013888888893
 30
0.0
 11
0.0
 21
-64.47013888888881
 31
0.0
  0
LINE
  5
422
330
41C
100
AcDbEntity
  8
0
  6
CENTER2
 62
     4
 48
30.0
100
AcDbLine
 10
130.4558205393006
 20
136.4370963626438
 30
0.0
 11
69.544179460699
 21
136.4370963626438
 31
0.0
  0
CIRCLE
  5
423
330
41C
100
AcDbEntity
  8
0
  6
Continuous
100
AcDbCircle
 10
0.0
 20
0.0
 30
0.0
 40
26.0
  0
CIRCLE
  5
424
330
41C
100
AcDbEntity
  8
0
  6
Continuous
100
AcDbCircle
 10
0.0
 20
0.0
 30
0.0
 40
37.5
  0
CIRCLE
  5
425
330
41C
100
AcDbEntity
  8
0
  6
Continuous
100
AcDbCircle
 10
-0.0000000000001279
 20
136.4370963626438
 30
0.0
 40
17.5
  0
LINE
  5
426
330
41C
100
AcDbEntity
  8
0
  6
Continuous
100
AcDbLine
 10
-360.0
 20
37.89942275153283
 30
0.0
 11
-360.0
 21
-197.9717578040228
 31
0.0
  0
LINE
  5
427
330
41C
100
AcDbEntity
  8
0
  6
Continuous
100
AcDbLine
 10
-323.0
 20
74.89942275153279
 30
0.0
 11
322.9999999999999
 21
74.89942275153279
 31
0.0
  0
LINE
  5
428
330
41C
100
AcDbEntity
  8
0
  6
Continuous
100
AcDbLine
 10
-323.0
 20
-234.9717578040229
 30
0.0
 11
322.9999999999999
 21
-234.9717578040229
 31
0.0
  0
LINE
  5
429
330
41C
100
AcDbEntity
  8
0
  6
Continuous
100
AcDbLine
 10
360.0
 20
37.89942275153283
 30
0.0
 11
360.0
 21
-197.9717578040228
 31
0.0
  0
ARC
  5
42A
330
41C
100
AcDbEntity
  8
0
  6
Continuous
100
AcDbCircle
 10
-323.0
 20
-197.9717578040228
 30
0.0
 40
37.0
100
AcDbArc
 50
180.0
 51
270.0
  0
ARC
  5
42B
330
41C
100
AcDbEntity
  8
0
  6
Continuous
100
AcDbCircle
 10
322.9999999999999
 20
-197.9717578040228
 30
0.0
 40
37.0
100
AcDbArc
 50
270.0
 51
0.0
  0
ARC
  5
42C
330
41C
100
AcDbEntity
  8
0
  6
Continuous
100
AcDbCircle
 10
322.9999999999999
 20
37.89942275153283
 30
0.0
 40
37.0
100
AcDbArc
 50
0.0
 51
90.0
  0
ARC
  5
42D
330
41C
100
AcDbEntity
  8
0
  6
Continuous
100
AcDbCircle
 10
-323.0
 20
37.89942275153283
 30
0.0
 40
37.0
100
AcDbArc
 50
90.0
 51
180.0
  0
LINE
  5
42E
330
41C
100
AcDbEntity
  8
0
  6
CENTER2
 62
     4
 48
30.0
100
AcDbLine
 10
-130.4558205393009
 20
136.4370963626438
 30
0.0
 11
-69.54417946069925
 21
136.4370963626438
 31
0.0
  0
LINE
  5
42F
330
41C
100
AcDbEntity
  8
0
  6
CENTER2
 62
     4
 48
30.0
100
AcDbLine
 10
-100.0
 20
166.8956731030381
 30
0.0
 11
-100.0
 21
105.9840317750273
 31
0.0
  0
LWPOLYLINE
  5
430
330
41C
100
AcDbEntity
  8
0
  6
Continuous
100
AcDbPolyline
 90
       10
 70
   128
 43
0.0
 10
-380.0000000000002
 20
-274.9999999999998
 10
379.9999999999999
 20
-275.0
 42
0.4142135623730951
 10
400.0
 20
-255.0
 10
400.0
 20
190.0
 42
0.4142135623730951
 10
395.0
 20
195.0
 10
-395.0000000000001
 20
195.0
 42
0.4142135623730951
 10
-400.0
 20
190.0
 10
-400.0000000000002
 20
-254.9999999999998
 42
0.4142135623730949
 10
-380.0000000000002
 20
-274.9999999999998
 10
379.9999999999999
 20
-275.0
  0
ENDBLK
  5
432
330
41C
100
AcDbEntity
  8
0
100
AcDbBlockEnd
  0
BLOCK
  5
47C
330
436
100
AcDbEntity
  8
0
100
AcDbBlockBegin
  2
045460sv
 70
     0
 10
0.0
 20
0.0
 30
0.0
  3
045460sv
  1

  0
POLYLINE
  5
437
330
436
100
AcDbEntity
  8
0
  6
CENTER2
 62
     4
 48
30.0
100
AcDb2dPolyline
 66
     1
 10
0.0
 20
0.0
 30
0.0
  0
VERTEX
  5
438
330
437
100
AcDbEntity
  8
0
  6
CENTER2
 62
     4
 48
30.0
100
AcDbVertex
100
AcDb2dVertex
 10
-139.9834635416666
 20
148.9546874999999
 30
0.0
  0
VERTEX
  5
439
330
437
100
AcDbEntity
  8
0
  6
CENTER2
 62
     4
 48
30.0
100
AcDbVertex
100
AcDb2dVertex
 10
-139.9834635416666
 20
81.92690972222216
 30
0.0
  0
SEQEND
  5
43A
330
437
100
AcDbEntity
  8
0
  6
CENTER2
 62
     4
 48
30.0
  0
POLYLINE
  5
43B
330
436
100
AcDbEntity
  8
0
  6
CENTER2
 62
     4
 48
30.0
100
AcDb2dPolyline
 66
     1
 10
0.0
 20
0.0
 30
0.0
  0
VERTEX
  5
43C
330
43B
100
AcDbEntity
  8
0
  6
CENTER2
 62
     4
 48
30.0
100
AcDbVertex
100
AcDb2dVertex
 10
-88.9464409722222
 20
114.6525607638888
 30
0.0
  0
VERTEX
  5
43D
330
43B
100
AcDbEntity
  8
0
  6
CENTER2
 62
     4
 48
30.0
100
AcDbVertex
100
AcDb2dVertex
 10
-191.020486111111
 20
114.6525607638888
 30
0.0
  0
SEQEND
  5
43E
330
43B
100
AcDbEntity
  8
0
  6
CENTER2
 62
     4
 48
30.0
  0
POLYLINE
  5
43F
330
436
100
AcDbEntity
  8
0
  6
CENTER2
 62
     4
 48
30.0
100
AcDb2dPolyline
 66
     1
 10
0.0
 20
0.0
 30
0.0
  0
VERTEX
  5
440
330
43F
100
AcDbEntity
  8
0
  6
CENTER2
 62
     4
 48
30.0
100
AcDbVertex
100
AcDb2dVertex
 10
0.0165364583333378
 20
70.31618923611104
 30
0.0
  0
VERTEX
  5
441
330
43F
100
AcDbEntity
  8
0
  6
CENTER2
 62
     4
 48
30.0
100
AcDbVertex
100
AcDb2dVertex
 10
0.0165364583333378
 20
-21.57044270833338
 30
0.0
  0
SEQEND
  5
442
330
43F
100
AcDbEntity
  8
0
  6
CENTER2
 62
     4
 48
30.0
  0
LWPOLYLINE
  5
443
330
436
100
AcDbEntity
  8
0
  6
Continuous
100
AcDbPolyline
 90
       17
 70
   128
 43
0.0
 10
-289.9834635416667
 20
39.65256076388883
 10
-49.95540152266464
 20
39.65256076388883
 42
-0.3729018752331718
 10
-45.00649150765807
 20
35.36550512593109
 10
-40.47925013126102
 20
8.939616401846571
 42
0.3729018752331715
 10
-35.53034011625446
 20
4.652560763888828
 10
35.53034011625446
 20
4.652560763888828
 42
0.3729018752331715
 10
40.47925013126102
 20
8.939616401846567
 10
45.00649150765807
 20
35.36550512593109
 42
-0.3729018752331714
 10
49.95540152266464
 20
39.65256076388884
 10
289.3164087236997
 20
39.65256076388883
 42
0.3945442706201904
 10
300.0165364583334
 20
49.65256076388882
 10
300.0165364583334
 20
159.6525607638888
 42
0.4142135623730954
 10
290.0165364583334
 20
169.6525607638888
 10
-289.9834635416666
 20
169.6525607638888
 42
0.4142135623730935
 10
-299.9834635416667
 20
159.6525607638888
 10
-299.9834635416667
 20
49.65256076388882
 42
0.4142135623730949
 10
-289.9834635416667
 20
39.65256076388883
 42
-0.5051746798011405
  0
LINE
  5
444
330
436
100
AcDbEntity
  8
0
  6
Continuous
100
AcDbLine
 10
-49.95540152266464
 20
39.65256076388883
 30
0.0
 11
49.95540152266464
 21
39.65256076388885
 31
0.0
  0
POLYLINE
  5
445
330
436
100
AcDbEntity
  8
0
  6
CENTER2
 62
     4
 48
30.0
100
AcDb2dPolyline
 66
     1
 10
0.0
 20
0.0
 30
0.0
  0
VERTEX
  5
446
330
445
100
AcDbEntity
  8
0
  6
CENTER2
 62
     4
 48
30.0
100
AcDbVertex
100
AcDb2dVertex
 10
88.97951388888888
 20
114.6525607638888
 30
0.0
  0
VERTEX
  5
447
330
445
100
AcDbEntity
  8
0
  6
CENTER2
 62
     4
 48
30.0
100
AcDbVertex
100
AcDb2dVertex
 10
191.0535590277778
 20
114.6525607638888
 30
0.0
  0
SEQEND
  5
448
330
445
100
AcDbEntity
  8
0
  6
CENTER2
 62
     4
 48
30.0
  0
POLYLINE
  5
449
330
436
100
AcDbEntity
  8
0
  6
CENTER2
 62
     4
 48
30.0
100
AcDb2dPolyline
 66
     1
 10
0.0
 20
0.0
 30
0.0
  0
VERTEX
  5
44A
330
449
100
AcDbEntity
  8
0
  6
CENTER2
 62
     4
 48
30.0
100
AcDbVertex
100
AcDb2dVertex
 10
140.0165364583333
 20
148.9546874999999
 30
0.0
  0
VERTEX
  5
44B
330
449
100
AcDbEntity
  8
0
  6
CENTER2
 62
     4
 48
30.0
100
AcDbVertex
100
AcDb2dVertex
 10
140.0165364583333
 20
81.92690972222216
 30
0.0
  0
SEQEND
  5
44C
330
449
100
AcDbEntity
  8
0
  6
CENTER2
 62
     4
 48
30.0
  0
LWPOLYLINE
  5
44D
330
436
100
AcDbEntity
  8
0
  6
Continuous
100
AcDbPolyline
 90
       37
 70
   128
 43
0.0
 10
-275.0
 20
39.65256076388886
 10
-275.0
 20
-29.55115916825122
 42
0.6163381482938424
 10
-275.0
 20
-71.14371930397107
 10
-275.0
 20
-585.7258246527778
 10
-276.7253038194444
 20
-588.4267795138889
 10
-276.7253038194444
 20
-668.2868489583333
 10
-286.4266927083333
 20
-668.2868489583333
 10
-286.4266927083333
 20
-680.3474392361111
 10
-243.7405815972222
 20
-680.3474392361111
 10
-243.7405815972222
 20
-668.2868489583333
 10
-252.2623697916667
 20
-668.2868489583333
 10
-252.2623697916667
 20
-588.6527777777778
 10
-253.9876736111112
 20
-585.7258246527778
 10
-253.9876736111112
 20
-71.0991161372321
 42
0.2099087249006792
 10
-242.1193771027311
 20
-56.62026909722221
 10
242.1193771027311
 20
-56.62026909722221
 42
0.2099087249006798
 10
253.9876736111112
 20
-71.0991161372321
 10
253.9876736111112
 20
-585.7258246527776
 10
252.2623697916667
 20
-588.6527777777776
 10
252.2623697916667
 20
-668.2868489583332
 10
243.7405815972222
 20
-668.2868489583332
 10
243.7405815972222
 20
-680.3474392361111
 10
286.4266927083333
 20
-680.3474392361111
 10
286.4266927083333
 20
-668.2868489583332
 10
276.7253038194444
 20
-668.2868489583333
 10
276.7253038194444
 20
-588.4267795138887
 10
275.0
 20
-585.7258246527776
 10
275.0
 20
-71.14371930397107
 42
0.6163381482938394
 10
275.0
 20
-29.55115916825111
 10
275.0
 20
39.65256076388886
 10
253.9876736111112
 20
39.65256076388886
 10
253.9876736111112
 20
-29.59576233499007
 42
0.1889409956718537
 10
242.697687745112
 20
-42.28867187499992
 10
-242.697687745112
 20
-42.28867187500003
 42
0.1889409956718527
 10
-253.9876736111112
 20
-29.59576233499019
 10
-253.9876736111112
 20
39.65256076388886
 10
-275.0
 20
39.65256076388886
  0
LINE
  5
44E
330
436
100
AcDbEntity
  8
0
  6
Continuous
100
AcDbLine
 10
-242.1193771027311
 20
-56.62026909722221
 30
0.0
 11
-256.8198933348467
 21
-56.62026909722221
 31
0.0
  0
LINE
  5
44F
330
436
100
AcDbEntity
  8
0
  6
Continuous
100
AcDbLine
 10
-242.697687745112
 20
-42.28867187500003
 30
0.0
 11
-255.8743672980938
 21
-42.28867187500003
 31
0.0
  0
LINE
  5
450
330
436
100
AcDbEntity
  8
0
  6
Continuous
100
AcDbLine
 10
-265.2709960129525
 20
-48.84803527328705
 30
0.0
 11
-265.3851153055827
 21
-49.39134987725146
 31
0.0
  0
LINE
  5
451
330
436
100
AcDbEntity
  8
0
  6
Continuous
100
AcDbLine
 10
-265.3620075967576
 20
-50.51148903104996
 30
0.0
 11
-265.2078383962314
 21
-51.08515849245913
 31
0.0
  0
LINE
  5
452
330
436
100
AcDbEntity
  8
0
  6
Continuous
100
AcDbLine
 10
-275.0
 20
-77.06484375000008
 30
0.0
 11
-254.0758680555555
 21
-77.06484375000008
 31
0.0
  0
LINE
  5
453
330
436
100
AcDbEntity
  8
0
  6
Continuous
100
AcDbLine
 10
-265.4182762000296
 20
-49.94636031124326
 30
0.0
 11
-265.3620075967576
 21
-50.51148903104996
 31
0.0
  0
LINE
  5
454
330
436
100
AcDbEntity
  8
0
  6
Continuous
100
AcDbLine
 10
-265.3851153055827
 20
-49.39134987725146
 30
0.0
 11
-265.4182762000296
 21
-49.94636031124326
 31
0.0
  0
ARC
  5
455
330
436
100
AcDbEntity
  8
0
  6
Continuous
100
AcDbCircle
 10
-256.8198933348467
 20
-50.6202690972222
 30
0.0
 40
6.0
100
AcDbArc
 50
244.6972809114354
 51
270.0
  0
ARC
  5
456
330
436
100
AcDbEntity
  8
0
  6
Continuous
100
AcDbCircle
 10
-251.8021324884628
 20
-40.00641767660915
 30
0.0
 40
17.74017742159163
100
AcDbArc
 50
232.2131498386193
 51
244.6972809114354
  0
LINE
  5
457
330
436
100
AcDbEntity
  8
0
  6
Continuous
100
AcDbLine
 10
-263.442733630869
 20
-53.43369286987519
 30
0.0
 11
-262.6719949510361
 21
-54.02640287611228
 31
0.0
  0
LINE
  5
458
330
436
100
AcDbEntity
  8
0
  6
Continuous
100
AcDbLine
 10
-264.0732162157694
 20
-52.84163588417908
 30
0.0
 11
-263.442733630869
 21
-53.43369286987519
 31
0.0
  0
LINE
  5
459
330
436
100
AcDbEntity
  8
0
  6
Continuous
100
AcDbLine
 10
-264.5719138052728
 20
-52.25180946323615
 30
0.0
 11
-264.0732162157694
 21
-52.84163588417908
 31
0.0
  0
LINE
  5
45A
330
436
100
AcDbEntity
  8
0
  6
Continuous
100
AcDbLine
 10
-264.9472974989148
 20
-51.6657911512587
 30
0.0
 11
-264.5719138052728
 21
-52.25180946323615
 31
0.0
  0
LINE
  5
45B
330
436
100
AcDbEntity
  8
0
  6
Continuous
100
AcDbLine
 10
-265.2078383962314
 20
-51.08515849245913
 30
0.0
 11
-264.9472974989148
 21
-51.6657911512587
 31
0.0
  0
LINE
  5
45C
330
436
100
AcDbEntity
  8
0
  6
Continuous
100
AcDbLine
 10
-275.0
 20
-23.63003472222221
 30
0.0
 11
-253.9876736111112
 21
-23.63003472222221
 31
0.0
  0
ARC
  5
45D
330
436
100
AcDbEntity
  8
0
  6
Continuous
100
AcDbCircle
 10
-254.1136580357036
 20
-55.04169684879428
 30
0.0
 40
12.97878523837651
100
AcDbArc
 50
100.702270097476
 51
132.7093200014532
  0
LINE
  5
45E
330
436
100
AcDbEntity
  8
0
  6
Continuous
100
AcDbLine
 10
-265.084389421675
 20
-48.31799404356224
 30
0.0
 11
-265.2709960129525
 21
-48.84803527328705
 31
0.0
  0
LINE
  5
45F
330
436
100
AcDbEntity
  8
0
  6
Continuous
100
AcDbLine
 10
-264.8337666312853
 20
-47.80280373228919
 30
0.0
 11
-265.084389421675
 21
-48.31799404356224
 31
0.0
  0
LINE
  5
460
330
436
100
AcDbEntity
  8
0
  6
Continuous
100
AcDbLine
 10
-264.5275987413195
 20
-47.30404188368055
 30
0.0
 11
-264.8337666312853
 21
-47.80280373228919
 31
0.0
  0
LINE
  5
461
330
436
100
AcDbEntity
  8
0
  6
Continuous
100
AcDbLine
 10
-263.7825120608011
 20
-46.36211375130545
 30
0.0
 11
-264.5275987413195
 21
-47.30404188368055
 31
0.0
  0
LINE
  5
462
330
436
100
AcDbEntity
  8
0
  6
Continuous
100
AcDbLine
 10
-262.9168981764051
 20
-45.50483000013565
 30
0.0
 11
-263.7825120608011
 21
-46.36211375130545
 31
0.0
  0
LINE
  5
463
330
436
100
AcDbEntity
  8
0
  6
Continuous
100
AcDbLine
 10
-255.8743672980938
 20
-42.28867187500003
 30
0.0
 11
-256.5238904480823
 21
-42.28867187500003
 31
0.0
  0
LINE
  5
464
330
436
100
AcDbEntity
  8
0
  6
Continuous
100
AcDbLine
 10
242.697687745112
 20
-42.28867187499992
 30
0.0
 11
254.9743489583334
 21
-42.28867187499992
 31
0.0
  0
LINE
  5
465
330
436
100
AcDbEntity
  8
0
  6
Continuous
100
AcDbLine
 10
242.1193771027311
 20
-56.62026909722209
 30
0.0
 11
256.2972656249999
 21
-56.62026909722209
 31
0.0
  0
LINE
  5
466
330
436
100
AcDbEntity
  8
0
  6
Continuous
100
AcDbLine
 10
275.0
 20
-23.63003472222209
 30
0.0
 11
253.9876736111112
 21
-23.63003472222209
 31
0.0
  0
LINE
  5
467
330
436
100
AcDbEntity
  8
0
  6
Continuous
100
AcDbLine
 10
275.0
 20
-77.06484374999996
 30
0.0
 11
254.0758680555555
 21
-77.06484374999996
 31
0.0
  0
LINE
  5
468
330
436
100
AcDbEntity
  8
0
  6
Continuous
100
AcDbLine
 10
265.2709960129525
 20
-48.84803527328705
 30
0.0
 11
265.3851153055827
 21
-49.39134987725134
 31
0.0
  0
ARC
  5
469
330
436
100
AcDbEntity
  8
0
  6
Continuous
100
AcDbCircle
 10
251.8021324884628
 20
-40.00641767660915
 30
0.0
 40
17.74017742159163
100
AcDbArc
 50
295.3027190885645
 51
307.7868501613807
  0
LINE
  5
46A
330
436
100
AcDbEntity
  8
0
  6
Continuous
100
AcDbLine
 10
256.2972656249999
 20
-56.62026909722209
 30
0.0
 11
256.8198933348467
 21
-56.62026909722209
 31
0.0
  0
ARC
  5
46B
330
436
100
AcDbEntity
  8
0
  6
Continuous
100
AcDbCircle
 10
256.8198933348467
 20
-50.62026909722209
 30
0.0
 40
6.0
100
AcDbArc
 50
270.0
 51
295.3027190885645
  0
LINE
  5
46C
330
436
100
AcDbEntity
  8
0
  6
Continuous
100
AcDbLine
 10
264.9472974989148
 20
-51.6657911512587
 30
0.0
 11
264.5719138052728
 21
-52.25180946323604
 31
0.0
  0
LINE
  5
46D
330
436
100
AcDbEntity
  8
0
  6
Continuous
100
AcDbLine
 10
265.2078383962314
 20
-51.08515849245901
 30
0.0
 11
264.9472974989148
 21
-51.6657911512587
 31
0.0
  0
LINE
  5
46E
330
436
100
AcDbEntity
  8
0
  6
Continuous
100
AcDbLine
 10
264.5719138052728
 20
-52.25180946323604
 30
0.0
 11
264.0732162157694
 21
-52.84163588417897
 31
0.0
  0
LINE
  5
46F
330
436
100
AcDbEntity
  8
0
  6
Continuous
100
AcDbLine
 10
264.0732162157694
 20
-52.84163588417897
 30
0.0
 11
263.442733630869
 21
-53.43369286987519
 31
0.0
  0
LINE
  5
470
330
436
100
AcDbEntity
  8
0
  6
Continuous
100
AcDbLine
 10
263.442733630869
 20
-53.43369286987519
 30
0.0
 11
262.6719949510361
 21
-54.02640287611217
 31
0.0
  0
LINE
  5
471
330
436
100
AcDbEntity
  8
0
  6
Continuous
100
AcDbLine
 10
265.4182762000296
 20
-49.94636031124315
 30
0.0
 11
265.3620075967576
 21
-50.51148903104996
 31
0.0
  0
LINE
  5
472
330
436
100
AcDbEntity
  8
0
  6
Continuous
100
AcDbLine
 10
265.3620075967576
 20
-50.51148903104996
 30
0.0
 11
265.2078383962314
 21
-51.08515849245901
 31
0.0
  0
LINE
  5
473
330
436
100
AcDbEntity
  8
0
  6
Continuous
100
AcDbLine
 10
265.3851153055827
 20
-49.39134987725134
 30
0.0
 11
265.4182762000296
 21
-49.94636031124315
 31
0.0
  0
ARC
  5
474
330
436
100
AcDbEntity
  8
0
  6
Continuous
100
AcDbCircle
 10
254.1136580357036
 20
-55.04169684879418
 30
0.0
 40
12.97878523837651
100
AcDbArc
 50
47.29067999854681
 51
75.38666837952759
  0
LINE
  5
475
330
436
100
AcDbEntity
  8
0
  6
Continuous
100
AcDbLine
 10
254.9743489583334
 20
-42.28867187499992
 30
0.0
 11
255.8743672980938
 21
-42.28867187499992
 31
0.0
  0
ARC
  5
476
330
436
100
AcDbEntity
  8
0
  6
Continuous
100
AcDbCircle
 10
255.8743672980938
 20
-48.28867187499992
 30
0.0
 40
6.0
100
AcDbArc
 50
75.38666837952759
 51
90.0
  0
LINE
  5
477
330
436
100
AcDbEntity
  8
0
  6
Continuous
100
AcDbLine
 10
264.5275987413195
 20
-47.30404188368043
 30
0.0
 11
264.8337666312853
 21
-47.80280373228907
 31
0.0
  0
LINE
  5
478
330
436
100
AcDbEntity
  8
0
  6
Continuous
100
AcDbLine
 10
264.8337666312853
 20
-47.80280373228907
 30
0.0
 11
265.084389421675
 21
-48.31799404356212
 31
0.0
  0
LINE
  5
479
330
436
100
AcDbEntity
  8
0
  6
Continuous
100
AcDbLine
 10
265.084389421675
 20
-48.31799404356212
 30
0.0
 11
265.2709960129525
 21
-48.84803527328705
 31
0.0
  0
LINE
  5
47A
330
436
100
AcDbEntity
  8
0
  6
Continuous
100
AcDbLine
 10
263.7825120608011
 20
-46.36211375130534
 30
0.0
 11
264.5275987413195
 21
-47.30404188368043
 31
0.0
  0
LINE
  5
47B
330
436
100
AcDbEntity
  8
0
  6
Continuous
100
AcDbLine
 10
262.9168981764051
 20
-45.50483000013565
 30
0.0
 11
263.7825120608011
 21
-46.36211375130534
 31
0.0
  0
ENDBLK
  5
47D
330
436
100
AcDbEntity
  8
0
100
AcDbBlockEnd
  0
BLOCK
  5
64B
330
64A
100
AcDbEntity
  8
0
100
AcDbBlockBegin
  2
*U4
 70
     1
 10
0.0
 20
0.0
 30
0.0
  3
*U4
  1

  0
ENDBLK
  5
64C
330
64A
100
AcDbEntity
  8
0
100
AcDbBlockEnd
  0
ENDSEC
  0
SECTION
  2
ENTITIES
  0
POLYLINE
  5
4A3
330
1F
100
AcDbEntity
  8
0
  6
CENTER2
 62
     4
 48
30.0
100
AcDb2dPolyline
 66
     1
 10
0.0
 20
0.0
 30
0.0
  0
VERTEX
  5
4A4
330
4A3
100
AcDbEntity
  8
0
  6
CENTER2
 62
     4
 48
30.0
100
AcDbVertex
100
AcDb2dVertex
 10
-140.0
 20
144.3021267361111
 30
0.0
  0
VERTEX
  5
4A5
330
4A3
100
AcDbEntity
  8
0
  6
CENTER2
 62
     4
 48
30.0
100
AcDbVertex
100
AcDb2dVertex
 10
-140.0
 20
77.27434895833336
 30
0.0
  0
SEQEND
  5
4A6
330
4A3
100
AcDbEntity
  8
0
  6
CENTER2
 62
     4
 48
30.0
  0
POLYLINE
  5
4A7
330
1F
100
AcDbEntity
  8
0
  6
CENTER2
 62
     4
 48
30.0
100
AcDb2dPolyline
 66
     1
 10
0.0
 20
0.0
 30
0.0
  0
VERTEX
  5
4A8
330
4A7
100
AcDbEntity
  8
0
  6
CENTER2
 62
     4
 48
30.0
100
AcDbVertex
100
AcDb2dVertex
 10
-88.96297743055555
 20
110.0
 30
0.0
  0
VERTEX
  5
4A9
330
4A7
100
AcDbEntity
  8
0
  6
CENTER2
 62
     4
 48
30.0
100
AcDbVertex
100
AcDb2dVertex
 10
-191.0370225694444
 20
110.0
 30
0.0
  0
SEQEND
  5
4AA
330
4A7
100
AcDbEntity
  8
0
  6
CENTER2
 62
     4
 48
30.0
  0
POLYLINE
  5
4AB
330
1F
100
AcDbEntity
  8
0
  6
CENTER2
 62
     4
 48
30.0
100
AcDb2dPolyline
 66
     1
 10
0.0
 20
0.0
 30
0.0
  0
VERTEX
  5
4AC
330
4AB
100
AcDbEntity
  8
0
  6
CENTER2
 62
     4
 48
30.0
100
AcDbVertex
100
AcDb2dVertex
 10
-0.0000000000000107
 20
65.66362847222224
 30
0.0
  0
VERTEX
  5
4AD
330
4AB
100
AcDbEntity
  8
0
  6
CENTER2
 62
     4
 48
30.0
100
AcDbVertex
100
AcDb2dVertex
 10
-0.0000000000000107
 20
-26.22300347222218
 30
0.0
  0
SEQEND
  5
4AE
330
4AB
100
AcDbEntity
  8
0
  6
CENTER2
 62
     4
 48
30.0
  0
LINE
  5
4B0
330
1F
100
AcDbEntity
  8
0
  6
Continuous
100
AcDbLine
 10
-49.97193798099798
 20
35.00000000000003
 30
0.0
 11
49.93886506433129
 21
35.00000000000004
 31
0.0
  0
POLYLINE
  5
4B1
330
1F
100
AcDbEntity
  8
0
  6
CENTER2
 62
     4
 48
30.0
100
AcDb2dPolyline
 66
     1
 10
0.0
 20
0.0
 30
0.0
  0
VERTEX
  5
4B2
330
4B1
100
AcDbEntity
  8
0
  6
CENTER2
 62
     4
 48
30.0
100
AcDbVertex
100
AcDb2dVertex
 10
88.96297743055553
 20
110.0
 30
0.0
  0
VERTEX
  5
4B3
330
4B1
100
AcDbEntity
  8
0
  6
CENTER2
 62
     4
 48
30.0
100
AcDbVertex
100
AcDb2dVertex
 10
191.0370225694444
 20
110.0
 30
0.0
  0
SEQEND
  5
4B4
330
4B1
100
AcDbEntity
  8
0
  6
CENTER2
 62
     4
 48
30.0
  0
POLYLINE
  5
4B5
330
1F
100
AcDbEntity
  8
0
  6
CENTER2
 62
     4
 48
30.0
100
AcDb2dPolyline
 66
     1
 10
0.0
 20
0.0
 30
0.0
  0
VERTEX
  5
4B6
330
4B5
100
AcDbEntity
  8
0
  6
CENTER2
 62
     4
 48
30.0
100
AcDbVertex
100
AcDb2dVertex
 10
140.0
 20
144.3021267361111
 30
0.0
  0
VERTEX
  5
4B7
330
4B5
100
AcDbEntity
  8
0
  6
CENTER2
 62
     4
 48
30.0
100
AcDbVertex
100
AcDb2dVertex
 10
140.0
 20
77.27434895833336
 30
0.0
  0
SEQEND
  5
4B8
330
4B5
100
AcDbEntity
  8
0
  6
CENTER2
 62
     4
 48
30.0
  0
LINE
  5
4BA
330
1F
100
AcDbEntity
  8
0
  6
Continuous
100
AcDbLine
 10
-242.1359135610645
 20
-61.27282986111101
 30
0.0
 11
-256.83642979318
 21
-61.27282986111101
 31
0.0
  0
LINE
  5
4BB
330
1F
100
AcDbEntity
  8
0
  6
Continuous
100
AcDbLine
 10
-242.7142242034454
 20
-46.94123263888883
 30
0.0
 11
-255.8909037564272
 21
-46.94123263888883
 31
0.0
  0
LINE
  5
4BC
330
1F
100
AcDbEntity
  8
0
  6
Continuous
100
AcDbLine
 10
-265.2875324712859
 20
-53.50059603717586
 30
0.0
 11
-265.4016517639161
 21
-54.04391064114026
 31
0.0
  0
LINE
  5
4BD
330
1F
100
AcDbEntity
  8
0
  6
Continuous
100
AcDbLine
 10
-265.378544055091
 20
-55.16404979493876
 30
0.0
 11
-265.2243748545648
 21
-55.73771925634793
 31
0.0
  0
LINE
  5
4BF
330
1F
100
AcDbEntity
  8
0
  6
Continuous
100
AcDbLine
 10
-265.4348126583629
 20
-54.59892107513207
 30
0.0
 11
-265.378544055091
 21
-55.16404979493876
 31
0.0
  0
LINE
  5
4C0
330
1F
100
AcDbEntity
  8
0
  6
Continuous
100
AcDbLine
 10
-265.4016517639161
 20
-54.04391064114026
 30
0.0
 11
-265.4348126583629
 21
-54.59892107513207
 31
0.0
  0
ARC
  5
4C1
330
1F
100
AcDbEntity
  8
0
  6
Continuous
100
AcDbCircle
 10
-256.83642979318
 20
-55.272829861111
 30
0.0
 40
6.0
100
AcDbArc
 50
244.6972809114354
 51
270.0
  0
ARC
  5
4C2
330
1F
100
AcDbEntity
  8
0
  6
Continuous
100
AcDbCircle
 10
-251.8186689467961
 20
-44.65897844049794
 30
0.0
 40
17.74017742159163
100
AcDbArc
 50
232.2131498386193
 51
244.6972809114354
  0
LINE
  5
4C3
330
1F
100
AcDbEntity
  8
0
  6
Continuous
100
AcDbLine
 10
-263.4592700892024
 20
-58.08625363376399
 30
0.0
 11
-262.6885314093695
 21
-58.67896364000109
 31
0.0
  0
LINE
  5
4C4
330
1F
100
AcDbEntity
  8
0
  6
Continuous
100
AcDbLine
 10
-264.0897526741028
 20
-57.49419664806788
 30
0.0
 11
-263.4592700892024
 21
-58.08625363376399
 31
0.0
  0
LINE
  5
4C5
330
1F
100
AcDbEntity
  8
0
  6
Continuous
100
AcDbLine
 10
-264.5884502636061
 20
-56.90437022712496
 30
0.0
 11
-264.0897526741028
 21
-57.49419664806788
 31
0.0
  0
LINE
  5
4C6
330
1F
100
AcDbEntity
  8
0
  6
Continuous
100
AcDbLine
 10
-264.9638339572482
 20
-56.3183519151475
 30
0.0
 11
-264.5884502636061
 21
-56.90437022712496
 31
0.0
  0
LINE
  5
4C7
330
1F
100
AcDbEntity
  8
0
  6
Continuous
100
AcDbLine
 10
-265.2243748545648
 20
-55.73771925634793
 30
0.0
 11
-264.9638339572482
 21
-56.3183519151475
 31
0.0
  0
ARC
  5
4C9
330
1F
100
AcDbEntity
  8
0
  6
Continuous
100
AcDbCircle
 10
-254.1301944940369
 20
-59.69425761268309
 30
0.0
 40
12.97878523837651
100
AcDbArc
 50
100.702270097476
 51
132.7093200014532
  0
LINE
  5
4CA
330
1F
100
AcDbEntity
  8
0
  6
Continuous
100
AcDbLine
 10
-265.1009258800084
 20
-52.97055480745104
 30
0.0
 11
-265.2875324712859
 21
-53.50059603717586
 31
0.0
  0
LINE
  5
4CB
330
1F
100
AcDbEntity
  8
0
  6
Continuous
100
AcDbLine
 10
-264.8503030896186
 20
-52.45536449617799
 30
0.0
 11
-265.1009258800084
 21
-52.97055480745104
 31
0.0
  0
LINE
  5
4CC
330
1F
100
AcDbEntity
  8
0
  6
Continuous
100
AcDbLine
 10
-264.5441351996528
 20
-51.95660264756935
 30
0.0
 11
-264.8503030896186
 21
-52.45536449617799
 31
0.0
  0
LINE
  5
4CD
330
1F
100
AcDbEntity
  8
0
  6
Continuous
100
AcDbLine
 10
-263.7990485191344
 20
-51.01467451519425
 30
0.0
 11
-264.5441351996528
 21
-51.95660264756935
 31
0.0
  0
LINE
  5
4CE
330
1F
100
AcDbEntity
  8
0
  6
Continuous
100
AcDbLine
 10
-262.9334346347384
 20
-50.15739076402446
 30
0.0
 11
-263.7990485191344
 21
-51.01467451519425
 31
0.0
  0
LINE
  5
4CF
330
1F
100
AcDbEntity
  8
0
  6
Continuous
100
AcDbLine
 10
-255.8909037564272
 20
-46.94123263888883
 30
0.0
 11
-256.5404269064156
 21
-46.94123263888883
 31
0.0
  0
LINE
  5
4D0
330
1F
100
AcDbEntity
  8
0
  6
Continuous
100
AcDbLine
 10
242.6811512867787
 20
-46.94123263888871
 30
0.0
 11
254.9578125
 21
-46.94123263888871
 31
0.0
  0
LINE
  5
4D1
330
1F
100
AcDbEntity
  8
0
  6
Continuous
100
AcDbLine
 10
242.1028406443977
 20
-61.27282986111089
 30
0.0
 11
256.2807291666666
 21
-61.27282986111089
 31
0.0
  0
LINE
  5
4D4
330
1F
100
AcDbEntity
  8
0
  6
Continuous
100
AcDbLine
 10
265.2544595546192
 20
-53.50059603717586
 30
0.0
 11
265.3685788472494
 21
-54.04391064114014
 31
0.0
  0
ARC
  5
4D5
330
1F
100
AcDbEntity
  8
0
  6
Continuous
100
AcDbCircle
 10
251.7855960301294
 20
-44.65897844049794
 30
0.0
 40
17.74017742159163
100
AcDbArc
 50
295.3027190885645
 51
307.7868501613807
  0
LINE
  5
4D6
330
1F
100
AcDbEntity
  8
0
  6
Continuous
100
AcDbLine
 10
256.2807291666666
 20
-61.27282986111089
 30
0.0
 11
256.8033568765134
 21
-61.27282986111089
 31
0.0
  0
ARC
  5
4D7
330
1F
100
AcDbEntity
  8
0
  6
Continuous
100
AcDbCircle
 10
256.8033568765134
 20
-55.27282986111089
 30
0.0
 40
6.0
100
AcDbArc
 50
270.0
 51
295.3027190885645
  0
LINE
  5
4D8
330
1F
100
AcDbEntity
  8
0
  6
Continuous
100
AcDbLine
 10
264.9307610405815
 20
-56.3183519151475
 30
0.0
 11
264.5553773469394
 21
-56.90437022712484
 31
0.0
  0
LINE
  5
4D9
330
1F
100
AcDbEntity
  8
0
  6
Continuous
100
AcDbLine
 10
265.1913019378981
 20
-55.73771925634781
 30
0.0
 11
264.9307610405815
 21
-56.3183519151475
 31
0.0
  0
LINE
  5
4DA
330
1F
100
AcDbEntity
  8
0
  6
Continuous
100
AcDbLine
 10
264.5553773469394
 20
-56.90437022712484
 30
0.0
 11
264.0566797574361
 21
-57.49419664806777
 31
0.0
  0
LINE
  5
4DB
330
1F
100
AcDbEntity
  8
0
  6
Continuous
100
AcDbLine
 10
264.0566797574361
 20
-57.49419664806777
 30
0.0
 11
263.4261971725357
 21
-58.08625363376399
 31
0.0
  0
LINE
  5
4DC
330
1F
100
AcDbEntity
  8
0
  6
Continuous
100
AcDbLine
 10
263.4261971725357
 20
-58.08625363376399
 30
0.0
 11
262.6554584927028
 21
-58.67896364000097
 31
0.0
  0
LINE
  5
4DD
330
1F
100
AcDbEntity
  8
0
  6
Continuous
100
AcDbLine
 10
265.4017397416962
 20
-54.59892107513195
 30
0.0
 11
265.3454711384243
 21
-55.16404979493876
 31
0.0
  0
LINE
  5
4DE
330
1F
100
AcDbEntity
  8
0
  6
Continuous
100
AcDbLine
 10
265.3454711384243
 20
-55.16404979493876
 30
0.0
 11
265.1913019378981
 21
-55.73771925634781
 31
0.0
  0
LINE
  5
4DF
330
1F
100
AcDbEntity
  8
0
  6
Continuous
100
AcDbLine
 10
265.3685788472494
 20
-54.04391064114014
 30
0.0
 11
265.4017397416962
 21
-54.59892107513195
 31
0.0
  0
ARC
  5
4E0
330
1F
100
AcDbEntity
  8
0
  6
Continuous
100
AcDbCircle
 10
254.0971215773702
 20
-59.69425761268297
 30
0.0
 40
12.97878523837651
100
AcDbArc
 50
47.29067999854681
 51
75.38666837952759
  0
LINE
  5
4E1
330
1F
100
AcDbEntity
  8
0
  6
Continuous
100
AcDbLine
 10
254.9578125
 20
-46.94123263888871
 30
0.0
 11
255.8578308397605
 21
-46.94123263888871
 31
0.0
  0
ARC
  5
4E2
330
1F
100
AcDbEntity
  8
0
  6
Continuous
100
AcDbCircle
 10
255.8578308397605
 20
-52.94123263888872
 30
0.0
 40
6.0
100
AcDbArc
 50
75.38666837952759
 51
90.0
  0
LINE
  5
4E3
330
1F
100
AcDbEntity
  8
0
  6
Continuous
100
AcDbLine
 10
264.5110622829861
 20
-51.95660264756924
 30
0.0
 11
264.8172301729519
 21
-52.45536449617787
 31
0.0
  0
LINE
  5
4E4
330
1F
100
AcDbEntity
  8
0
  6
Continuous
100
AcDbLine
 10
264.8172301729519
 20
-52.45536449617787
 30
0.0
 11
265.0678529633417
 21
-52.97055480745092
 31
0.0
  0
LINE
  5
4E5
330
1F
100
AcDbEntity
  8
0
  6
Continuous
100
AcDbLine
 10
265.0678529633417
 20
-52.97055480745092
 30
0.0
 11
265.2544595546192
 21
-53.50059603717586
 31
0.0
  0
LINE
  5
4E6
330
1F
100
AcDbEntity
  8
0
  6
Continuous
100
AcDbLine
 10
263.7659756024677
 20
-51.01467451519415
 30
0.0
 11
264.5110622829861
 21
-51.95660264756924
 31
0.0
  0
LINE
  5
4E7
330
1F
100
AcDbEntity
  8
0
  6
Continuous
100
AcDbLine
 10
262.9003617180718
 20
-50.15739076402446
 30
0.0
 11
263.7659756024677
 21
-51.01467451519415
 31
0.0
  0
LWPOLYLINE
  5
508
330
1F
100
AcDbEntity
  8
0
100
AcDbPolyline
 90
       14
 70
     1
 43
0.0
 10
299.9834635416667
 20
155.0
 42
0.4142135623730951
 10
289.9834635416667
 20
165.0
 10
-290.0165364583333
 20
165.0
 42
0.4142135623730935
 10
-300.0165364583334
 20
155.0
 10
-300.0165364583334
 20
45.00000000000002
 42
0.4142135623730951
 10
-290.0165364583333
 20
35.00000000000003
 10
-49.98847443933129
 20
35.00000000000003
 42
-0.3729018752332026
 10
-45.03956442432468
 20
30.71294436204182
 10
-39.77787147016897
 20
0.0000000000000284
 10
39.71172563683558
 20
0.0000000000000284
 10
44.97341859099139
 20
30.71294436204228
 42
-0.3729018752331749
 10
49.9223286059979
 20
35.00000000000003
 10
289.2833358070332
 20
35.00000000000003
 42
0.3945442706201076
 10
299.9834635416667
 20
44.999999999997
  0
LWPOLYLINE
  5
556
330
1F
100
AcDbEntity
  8
0
100
AcDbPolyline
 90
       36
 70
     1
 43
0.0
 10
274.9834635416667
 20
-34.20371993213992
 10
274.9834635416667
 20
35.00000000000006
 10
253.9711371527778
 20
35.00000000000006
 10
253.9711371527778
 20
-34.24832309887886
 42
0.188940995671855
 10
242.6811512867787
 20
-46.94123263888871
 10
-242.7142242034454
 20
-46.94123263888883
 42
0.1889409956718528
 10
-254.0042100694445
 20
-34.248323098879
 10
-254.0042100694445
 20
35.00000000000006
 10
-275.0165364583334
 20
35.00000000000007
 10
-275.0165364583334
 20
-34.20371993214003
 42
0.6163381482938427
 10
-275.0165364583334
 20
-75.79628006785987
 10
-275.0165364583334
 20
-590.3783854166666
 10
-276.7418402777777
 20
-593.0793402777776
 10
-276.7418402777778
 20
-672.9394097222222
 10
-286.4432291666667
 20
-672.9394097222223
 10
-286.4432291666666
 20
-685.0
 10
-243.7571180555555
 20
-684.9999999999998
 10
-243.7571180555555
 20
-672.939409722222
 10
-252.2789062500001
 20
-672.9394097222222
 10
-252.2789062500001
 20
-593.0793402777779
 10
-254.0042100694445
 20
-590.3783854166666
 10
-254.0042100694445
 20
-75.75167690112088
 42
0.2099087249006789
 10
-242.1359135610645
 20
-61.27282986111101
 10
242.1028406443979
 20
-61.27282986111101
 42
0.2099087249006772
 10
253.9711371527778
 20
-75.75167690112099
 10
253.9711371527778
 20
-590.3783854166668
 10
252.2458333333334
 20
-593.0793402777777
 10
252.2458333333334
 20
-672.9394097222219
 10
243.7240451388889
 20
-672.9394097222219
 10
243.7240451388886
 20
-684.9999999999997
 10
286.41015625
 20
-684.9999999999998
 10
286.41015625
 20
-672.9394097222219
 10
276.7087673611111
 20
-672.939409722222
 10
276.7087673611111
 20
-593.0793402777773
 10
274.9834635416669
 20
-590.3783854166668
 10
274.9834635416667
 20
-75.79628006785987
 42
0.6163381482938397
  0
LINE
  5
557
330
1F
100
AcDbEntity
  8
0
100
AcDbLine
 10
-275.0165364583334
 20
-590.3783854166666
 30
0.0
 11
-254.0042100694445
 21
-590.3783854166666
 31
0.0
  0
LINE
  5
558
330
1F
100
AcDbEntity
  8
0
100
AcDbLine
 10
-276.7418402777777
 20
-593.0793402777776
 30
0.0
 11
-252.2789062500001
 21
-593.0793402777779
 31
0.0
  0
LINE
  5
559
330
1F
100
AcDbEntity
  8
0
100
AcDbLine
 10
-276.7418402777778
 20
-672.9394097222222
 30
0.0
 11
-252.2789062500001
 21
-672.9394097222222
 31
0.0
  0
LINE
  5
55A
330
1F
100
AcDbEntity
  8
0
100
AcDbLine
 10
253.9711371527778
 20
-590.3783854166668
 30
0.0
 11
274.9834635416669
 21
-590.3783854166668
 31
0.0
  0
LINE
  5
55B
330
1F
100
AcDbEntity
  8
0
100
AcDbLine
 10
276.7087673611111
 20
-593.0793402777773
 30
0.0
 11
252.2458333333334
 21
-593.0793402777777
 31
0.0
  0
LINE
  5
55C
330
1F
100
AcDbEntity
  8
0
100
AcDbLine
 10
252.2458333333334
 20
-672.9394097222219
 30
0.0
 11
276.7087673611111
 21
-672.939409722222
 31
0.0
  0
LINE
  5
597
330
1F
100
AcDbEntity
  8
0
100
AcDbLine
 10
-275.0165364583334
 20
-34.20371993214003
 30
0.0
 11
-275.0165364583334
 21
-75.79628006785985
 31
0.0
  0
LINE
  5
598
330
1F
100
AcDbEntity
  8
0
100
AcDbLine
 10
-254.0042100694445
 20
-34.24832309887903
 30
0.0
 11
-254.0042100694445
 21
-46.94123263888883
 31
0.0
  0
LINE
  5
599
330
1F
100
AcDbEntity
  8
0
100
AcDbLine
 10
-254.0042100694445
 20
-75.75167690112087
 30
0.0
 11
-254.0042100694445
 21
-61.27282986111101
 31
0.0
  0
LINE
  5
59A
330
1F
100
AcDbEntity
  8
0
100
AcDbLine
 10
274.9834635416667
 20
-34.20371993213992
 30
0.0
 11
274.9834635416666
 21
-75.79628006785988
 31
0.0
  0
LINE
  5
59B
330
1F
100
AcDbEntity
  8
0
100
AcDbLine
 10
253.9711371527778
 20
-75.75167690112099
 30
0.0
 11
253.9711371527778
 21
-61.27282986111089
 31
0.0
  0
LINE
  5
59C
330
1F
100
AcDbEntity
  8
0
100
AcDbLine
 10
253.9711371527778
 20
-34.24832309887886
 30
0.0
 11
253.9711371527779
 21
-46.94123263888871
 31
0.0
  0
ENDSEC
  0
SECTION
  2
OBJECTS
  0
DICTIONARY
  5
C
330
0
100
AcDbDictionary
281
     1
  3
ACAD_COLOR
350
5A1
  3
ACAD_GROUP
350
D
  3
ACAD_LAYOUT
350
1A
  3
ACAD_MATERIAL
350
5A0
  3
ACAD_MLINESTYLE
350
17
  3
ACAD_PLOTSETTINGS
350
19
  3
ACAD_PLOTSTYLENAME
350
E
  3
AcDbVariableDictionary
350
86
  3
AcmDictionary
350
45
  3
AMG
350
41
  3
AMGSNAPSETTINGS
350
332
  3
MAPISURF_MODULE
350
622
  0
DICTIONARY
  5
81
330
1F
100
AcDbDictionary
280
     1
281
     1
  3
ACAD_INDEX
360
82
  0
DICTIONARY
  5
5A1
102
{ACAD_REACTORS
330
C
102
}
330
C
100
AcDbDictionary
281
     1
  0
DICTIONARY
  5
D
102
{ACAD_REACTORS
330
C
102
}
330
C
100
AcDbDictionary
281
     1
  0
DICTIONARY
  5
1A
102
{ACAD_REACTORS
330
C
102
}
330
C
100
AcDbDictionary
281
     1
  3
Layout1
350
1E
  3
Layout2
350
26
  3
Model
350
22
  0
DICTIONARY
  5
5A0
102
{ACAD_REACTORS
330
C
102
}
330
C
100
AcDbDictionary
281
     1
  0
DICTIONARY
  5
17
102
{ACAD_REACTORS
330
C
102
}
330
C
100
AcDbDictionary
281
     1
  3
Standard
350
18
  0
DICTIONARY
  5
19
102
{ACAD_REACTORS
330
C
102
}
330
C
100
AcDbDictionary
281
     1
  0
ACDBDICTIONARYWDFLT
  5
E
102
{ACAD_REACTORS
330
C
102
}
330
C
100
AcDbDictionary
281
     1
  3
Normal
350
F
100
AcDbDictionaryWithDefault
340
F
  0
DICTIONARY
  5
86
102
{ACAD_REACTORS
330
C
102
}
330
C
100
AcDbDictionary
281
     1
  3
DIMASSOC
350
89
  3
HIDETEXT
350
88
  3
INDEXCTL
350
87
  0
DICTIONARY
  5
45
102
{ACAD_REACTORS
330
C
102
}
330
C
100
AcDbDictionary
281
     1
  3
AcmBOMDATA
350
46
  3
AcmStdDictionary
350
4A
  0
DICTIONARY
  5
41
102
{ACAD_REACTORS
330
C
102
}
330
C
100
AcDbDictionary
281
     1
  3
AcMgSettings
350
42
  3
AMGLAYCFG
350
4C
  0
DICTIONARY
  5
332
102
{ACAD_REACTORS
330
C
102
}
330
C
100
AcDbDictionary
281
     1
  3
DIMENSION
350
337
  3
FEA
350
336
  3
HATCH (1)
350
333
  3
HATCH (2)
350
334
  3
SIMPLE WELD
350
338
  3
SYMBOLS
350
335
  0
DICTIONARY
  5
82
102
{ACAD_REACTORS
330
81
102
}
330
81
100
AcDbDictionary
281
     1
  3
*A1
350
83
  0
LAYOUT
  5
1E
102
{ACAD_REACTORS
330
1A
102
}
330
1A
100
AcDbPlotSettings
  1

  2
Epson Stylus COLOR 440 ESC/P 2
  4

  6

 40
0.0
 41
0.0
 42
0.0
 43
0.0
 44
0.0
 45
0.0
 46
0.0
 47
0.0
 48
0.0
 49
0.0
140
0.0
141
0.0
142
1.0
143
1.0
 70
   688
 72
     0
 73
     0
 74
     5
  7

 75
    16
147
1.0
 76
     0
 77
     2
 78
   300
148
0.0
149
0.0
100
AcDbLayout
  1
Layout1
 70
     1
 71
     1
 10
0.0
 20
0.0
 11
420.0
 21
297.0
 12
0.0
 22
0.0
 32
0.0
 14
1.000000000000000E+20
 24
1.000000000000000E+20
 34
1.000000000000000E+20
 15
-1.000000000000000E+20
 25
-1.000000000000000E+20
 35
-1.000000000000000E+20
146
0.0
 13
0.0
 23
0.0
 33
0.0
 16
1.0
 26
0.0
 36
0.0
 17
0.0
 27
1.0
 37
0.0
 76
     0
330
1B
  0
LAYOUT
  5
26
102
{ACAD_REACTORS
330
1A
102
}
330
1A
100
AcDbPlotSettings
  1

  2
Epson Stylus COLOR 440 ESC/P 2
  4

  6

 40
0.0
 41
0.0
 42
0.0
 43
0.0
 44
0.0
 45
0.0
 46
0.0
 47
0.0
 48
0.0
 49
0.0
140
0.0
141
0.0
142
1.0
143
1.0
 70
   688
 72
     0
 73
     0
 74
     5
  7

 75
    16
147
1.0
 76
     0
 77
     2
 78
   300
148
0.0
149
0.0
100
AcDbLayout
  1
Layout2
 70
     1
 71
     2
 10
0.0
 20
0.0
 11
12.0
 21
9.0
 12
0.0
 22
0.0
 32
0.0
 14
0.0
 24
0.0
 34
0.0
 15
0.0
 25
0.0
 35
0.0
146
0.0
 13
0.0
 23
0.0
 33
0.0
 16
1.0
 26
0.0
 36
0.0
 17
0.0
 27
1.0
 37
0.0
 76
     0
330
23
  0
LAYOUT
  5
22
102
{ACAD_REACTORS
330
1A
102
}
330
1A
100
AcDbPlotSettings
  1

  2
Epson Stylus COLOR 440 ESC/P 2
  4

  6

 40
0.0
 41
0.0
 42
0.0
 43
0.0
 44
0.0
 45
0.0
 46
0.0
 47
0.0
 48
0.0
 49
0.0
140
0.0
141
0.0
142
1.0
143
1.0
 70
  1712
 72
     0
 73
     0
 74
     0
  7

 75
     0
147
1.0
 76
     0
 77
     2
 78
   300
148
0.0
149
0.0
100
AcDbLayout
  1
Model
 70
     1
 71
     0
 10
0.0
 20
0.0
 11
12.0
 21
9.0
 12
0.0
 22
0.0
 32
0.0
 14
0.0
 24
0.0
 34
0.0
 15
0.0
 25
0.0
 35
0.0
146
0.0
 13
0.0
 23
0.0
 33
0.0
 16
1.0
 26
0.0
 36
0.0
 17
0.0
 27
1.0
 37
0.0
 76
     0
330
1F
  0
MLINESTYLE
  5
18
102
{ACAD_REACTORS
330
17
102
}
330
17
100
AcDbMlineStyle
  2
STANDARD
 70
     0
  3

 62
   256
 51
90.0
 52
90.0
 71
     2
 49
0.5
 62
   256
  6
BYLAYER
 49
-0.5
 62
   256
  6
BYLAYER
  0
ACDBPLACEHOLDER
  5
F
102
{ACAD_REACTORS
330
E
102
}
330
E
  0
DICTIONARYVAR
  5
89
102
{ACAD_REACTORS
330
86
102
}
330
86
100
DictionaryVariables
280
     0
  1
2
  0
DICTIONARYVAR
  5
88
102
{ACAD_REACTORS
330
86
102
}
330
86
100
DictionaryVariables
280
     0
  1
1
  0
DICTIONARYVAR
  5
87
102
{ACAD_REACTORS
330
86
102
}
330
86
100
DictionaryVariables
280
     0
  1
1
  0
ACMDATADICTIONARY
  5
46
102
{ACAD_REACTORS
330
45
102
}
330
45
100
AcDbDictionary
281
     1
  3
*A1
350
47
  3
*A2
350
433
  3
*A3
350
47E
100
AcmDataDictionary
  0
DICTIONARY
  5
4A
102
{ACAD_REACTORS
330
45
102
}
330
45
100
AcDbDictionary
281
     1
  3
ANSI
350
360
  3
DIN
350
4B
  0
DICTIONARY
  5
42
102
{ACAD_REACTORS
330
41
102
}
330
41
100
AcDbDictionary
281
     1
  3
DWGSETTINGS
350
43
  3
TRANSSETTINGS
350
44
  0
ACAMGFILTERDAT
  5
337
102
{ACAD_REACTORS
330
332
102
}
330
332
100
AcAmgFilterDat
 70
    15
  1
DIMENSION,AMDT_*_DIM
  2
*
  3
*
  4
*
  5
*
290
     1
  0
ACAMGFILTERDAT
  5
336
102
{ACAD_REACTORS
330
332
102
}
330
332
100
AcAmgFilterDat
 70
    15
  1
*
  2
AM_FEA-AM_*
  3
*
  4
*
  5
*
290
     1
  0
ACAMGFILTERDAT
  5
333
102
{ACAD_REACTORS
330
332
102
}
330
332
100
AcAmgFilterDat
 70
    15
  1
HATCH
  2
*
  3
*
  4
*
  5
*
290
     1
  0
ACAMGFILTERDAT
  5
334
102
{ACAD_REACTORS
330
332
102
}
330
332
100
AcAmgFilterDat
 70
    15
  1
LINE
  2
8,8N,*-8,*-8N,AM_8,AM_8N,*-AM_8,*-AM_8N
  3
*
  4
*
  5
INSERT,STDPART2D
290
     1
  0
ACAMGFILTERDAT
  5
338
102
{ACAD_REACTORS
330
332
102
}
330
332
100
AcAmgFilterDat
 70
    15
  1
ARC
  2
AM_5
  3
*
  4
2
  5
INSERT
290
     0
  0
ACAMGFILTERDAT
  5
335
102
{ACAD_REACTORS
330
332
102
}
330
332
100
AcAmgFilterDat
 70
    15
  1
ACMFCFRAME,ACMDATUMTARGET,ACMDATUMID,ACMWELDSYM,ACMSURFSYM,ACMFEATID,ACMPARTREF,ACMBALLOON,AMDTEDGESYM,AMGSCREWCALCTABLE
  2
*
  3
*
  4
*
  5
*
290
     1
  0
LAYER_INDEX
  5
83
102
{ACAD_REACTORS
330
82
102
}
330
82
100
AcDbIndex
 40
2454064.729466493
100
AcDbLayerIndex
  8
0
360
84
 90
       62
  0
ACMDATAENTRYBLOCK
  5
47
102
{ACAD_REACTORS
330
46
102
}
330
46
100
AcmDataEntry
100
AcmDataEntryBlock
  0
ACMDATAENTRYBLOCK
  5
433
102
{ACAD_REACTORS
330
46
102
}
330
46
100
AcmDataEntry
100
AcmDataEntryBlock
  0
ACMDATAENTRYBLOCK
  5
47E
102
{ACAD_REACTORS
330
46
102
}
330
46
100
AcmDataEntry
100
AcmDataEntryBlock
  0
IDBUFFER
  5
84
330
0
100
AcDbIdBuffer
330
4A3
330
4A7
330
4AB
330
4B0
330
4B1
330
4B5
330
4BA
330
4BB
330
4BC
330
4BD
330
4BF
330
4C0
330
4C1
330
4C2
330
4C3
330
4C4
330
4C5
330
4C6
330
4C7
330
4C9
330
4CA
330
4CB
330
4CC
330
4CD
330
4CE
330
4CF
330
4D0
330
4D1
330
4D4
330
4D5
330
4D6
330
4D7
330
4D8
330
4D9
330
4DA
330
4DB
330
4DC
330
4DD
330
4DE
330
4DF
330
4E0
330
4E1
330
4E2
330
4E3
330
4E4
330
4E5
330
4E6
330
4E7
330
508
330
556
330
557
330
558
330
559
330
55A
330
55B
330
55C
330
597
330
598
330
599
330
59A
330
59B
330
59C
  0
ENDSEC
  0
EOF
