  0
SECTION
  2
HEADER
  9
$ACADVER
  1
AC1021
  9
$ACADMAINTVER
 70
    25
  9
$DWGCODEPAGE
  3
UNDEFINED
  9
$INSBASE
 10
0.0
 20
0.0
 30
0.0
  9
$EXTMIN
 10
1.000000000000000E+20
 20
1.000000000000000E+20
 30
1.000000000000000E+20
  9
$EXTMAX
 10
-1.000000000000000E+20
 20
-1.000000000000000E+20
 30
-1.000000000000000E+20
  9
$LIMMIN
 10
0.0
 20
0.0
  9
$LIMMAX
 10
12.0
 20
9.0
  9
$ORTHOMODE
 70
     0
  9
$REGENMODE
 70
     1
  9
$FILLMODE
 70
     1
  9
$QTEXTMODE
 70
     0
  9
$MIRRTEXT
 70
     1
  9
$LTSCALE
 40
1.0
  9
$ATTMODE
 70
     1
  9
$TEXTSIZE
 40
0.2
  9
$TRACEWID
 40
0.05
  9
$TEXTSTYLE
  7
Standard
  9
$CLAYER
  8
0
  9
$CELTYPE
  6
ByLayer
  9
$CECOLOR
 62
   256
  9
$CELTSCALE
 40
1.0
  9
$DISPSILH
 70
     0
  9
$DIMSCALE
 40
1.0
  9
$DIMASZ
 40
0.18
  9
$DIMEXO
 40
0.0625
  9
$DIMDLI
 40
0.38
  9
$DIMRND
 40
0.0
  9
$DIMDLE
 40
0.0
  9
$DIMEXE
 40
0.18
  9
$DIMTP
 40
0.0
  9
$DIMTM
 40
0.0
  9
$DIMTXT
 40
0.18
  9
$DIMCEN
 40
0.09
  9
$DIMTSZ
 40
0.0
  9
$DIMTOL
 70
     0
  9
$DIMLIM
 70
     0
  9
$DIMTIH
 70
     1
  9
$DIMTOH
 70
     1
  9
$DIMSE1
 70
     0
  9
$DIMSE2
 70
     0
  9
$DIMTAD
 70
     0
  9
$DIMZIN
 70
     0
  9
$DIMBLK
  1

  9
$DIMASO
 70
     1
  9
$DIMSHO
 70
     1
  9
$DIMPOST
  1

  9
$DIMAPOST
  1

  9
$DIMALT
 70
     0
  9
$DIMALTD
 70
     2
  9
$DIMALTF
 40
25.4
  9
$DIMLFAC
 40
1.0
  9
$DIMTOFL
 70
     0
  9
$DIMTVP
 40
0.0
  9
$DIMTIX
 70
     0
  9
$DIMSOXD
 70
     0
  9
$DIMSAH
 70
     0
  9
$DIMBLK1
  1

  9
$DIMBLK2
  1

  9
$DIMSTYLE
  2
Standard
  9
$DIMCLRD
 70
     0
  9
$DIMCLRE
 70
     0
  9
$DIMCLRT
 70
     0
  9
$DIMTFAC
 40
1.0
  9
$DIMGAP
 40
0.09
  9
$DIMJUST
 70
     0
  9
$DIMSD1
 70
     0
  9
$DIMSD2
 70
     0
  9
$DIMTOLJ
 70
     1
  9
$DIMTZIN
 70
     0
  9
$DIMALTZ
 70
     0
  9
$DIMALTTZ
 70
     0
  9
$DIMUPT
 70
     0
  9
$DIMDEC
 70
     4
  9
$DIMTDEC
 70
     4
  9
$DIMALTU
 70
     2
  9
$DIMALTTD
 70
     2
  9
$DIMTXSTY
  7
Standard
  9
$DIMAUNIT
 70
     0
  9
$DIMADEC
 70
     0
  9
$DIMALTRND
 40
0.0
  9
$DIMAZIN
 70
     0
  9
$DIMDSEP
 70
    46
  9
$DIMATFIT
 70
     3
  9
$DIMFRAC
 70
     0
  9
$DIMLDRBLK
  1

  9
$DIMLUNIT
 70
     2
  9
$DIMLWD
 70
    -2
  9
$DIMLWE
 70
    -2
  9
$DIMTMOVE
 70
     0
  9
$DIMFXL
 40
1.0
  9
$DIMFXLON
 70
     0
  9
$DIMJOGANG
 40
0.7853981633974483
  9
$DIMTFILL
 70
     0
  9
$DIMTFILLCLR
 70
     0
  9
$DIMARCSYM
 70
     0
  9
$DIMLTYPE
  6

  9
$DIMLTEX1
  6

  9
$DIMLTEX2
  6

  9
$LUNITS
 70
     2
  9
$LUPREC
 70
     4
  9
$SKETCHINC
 40
0.1
  9
$FILLETRAD
 40
0.5
  9
$AUNITS
 70
     0
  9
$AUPREC
 70
     0
  9
$MENU
  1
.
  9
$ELEVATION
 40
0.0
  9
$PELEVATION
 40
0.0
  9
$THICKNESS
 40
0.0
  9
$LIMCHECK
 70
     0
  9
$CHAMFERA
 40
0.5
  9
$CHAMFERB
 40
0.5
  9
$CHAMFERC
 40
1.0
  9
$CHAMFERD
 40
0.0
  9
$SKPOLY
 70
     0
  9
$TDCREATE
 40
2459380.336574063
  9
$TDUCREATE
 40
2459380.294907407
  9
$TDUPDATE
 40
2459380.336574063
  9
$TDUUPDATE
 40
2459380.294907407
  9
$TDINDWG
 40
0.0000000116
  9
$TDUSRTIMER
 40
0.0000000116
  9
$USRTIMER
 70
     1
  9
$ANGBASE
 50
0.0
  9
$ANGDIR
 70
     0
  9
$PDMODE
 70
     0
  9
$PDSIZE
 40
0.0
  9
$PLINEWID
 40
0.0
  9
$SPLFRAME
 70
     0
  9
$SPLINETYPE
 70
     6
  9
$SPLINESEGS
 70
     8
  9
$HANDSEED
  5
11C
  9
$SURFTAB1
 70
     6
  9
$SURFTAB2
 70
     6
  9
$SURFTYPE
 70
     6
  9
$SURFU
 70
     6
  9
$SURFV
 70
     6
  9
$UCSBASE
  2

  9
$UCSNAME
  2

  9
$UCSORG
 10
0.0
 20
0.0
 30
0.0
  9
$UCSXDIR
 10
1.0
 20
0.0
 30
0.0
  9
$UCSYDIR
 10
0.0
 20
1.0
 30
0.0
  9
$UCSORTHOREF
  2

  9
$UCSORTHOVIEW
 70
     0
  9
$UCSORGTOP
 10
0.0
 20
0.0
 30
0.0
  9
$UCSORGBOTTOM
 10
0.0
 20
0.0
 30
0.0
  9
$UCSORGLEFT
 10
0.0
 20
0.0
 30
0.0
  9
$UCSORGRIGHT
 10
0.0
 20
0.0
 30
0.0
  9
$UCSORGFRONT
 10
0.0
 20
0.0
 30
0.0
  9
$UCSORGBACK
 10
0.0
 20
0.0
 30
0.0
  9
$PUCSBASE
  2

  9
$PUCSNAME
  2

  9
$PUCSORG
 10
0.0
 20
0.0
 30
0.0
  9
$PUCSXDIR
 10
1.0
 20
0.0
 30
0.0
  9
$PUCSYDIR
 10
0.0
 20
1.0
 30
0.0
  9
$PUCSORTHOREF
  2

  9
$PUCSORTHOVIEW
 70
     0
  9
$PUCSORGTOP
 10
0.0
 20
0.0
 30
0.0
  9
$PUCSORGBOTTOM
 10
0.0
 20
0.0
 30
0.0
  9
$PUCSORGLEFT
 10
0.0
 20
0.0
 30
0.0
  9
$PUCSORGRIGHT
 10
0.0
 20
0.0
 30
0.0
  9
$PUCSORGFRONT
 10
0.0
 20
0.0
 30
0.0
  9
$PUCSORGBACK
 10
0.0
 20
0.0
 30
0.0
  9
$USERI1
 70
     0
  9
$USERI2
 70
     0
  9
$USERI3
 70
     0
  9
$USERI4
 70
     0
  9
$USERI5
 70
     0
  9
$USERR1
 40
0.0
  9
$USERR2
 40
0.0
  9
$USERR3
 40
0.0
  9
$USERR4
 40
0.0
  9
$USERR5
 40
0.0
  9
$WORLDVIEW
 70
     1
  9
$SHADEDGE
 70
     3
  9
$SHADEDIF
 70
    70
  9
$TILEMODE
 70
     1
  9
$MAXACTVP
 70
    64
  9
$PINSBASE
 10
0.0
 20
0.0
 30
0.0
  9
$PLIMCHECK
 70
     0
  9
$PEXTMIN
 10
1.000000000000000E+20
 20
1.000000000000000E+20
 30
1.000000000000000E+20
  9
$PEXTMAX
 10
-1.000000000000000E+20
 20
-1.000000000000000E+20
 30
-1.000000000000000E+20
  9
$PLIMMIN
 10
0.0
 20
0.0
  9
$PLIMMAX
 10
12.0
 20
9.0
  9
$UNITMODE
 70
     0
  9
$VISRETAIN
 70
     1
  9
$PLINEGEN
 70
     0
  9
$PSLTSCALE
 70
     1
  9
$TREEDEPTH
 70
  3020
  9
$CMLSTYLE
  2
Standard
  9
$CMLJUST
 70
     0
  9
$CMLSCALE
 40
1.0
  9
$PROXYGRAPHICS
 70
     1
  9
$MEASUREMENT
 70
     0
  9
$CELWEIGHT
370
    -1
  9
$ENDCAPS
280
     0
  9
$JOINSTYLE
280
     0
  9
$LWDISPLAY
290
     1
  9
$INSUNITS
 70
     1
  9
$HYPERLINKBASE
  1

  9
$STYLESHEET
  1

  9
$XEDIT
290
     1
  9
$CEPSNTYPE
380
     0
  9
$PSTYLEMODE
290
     1
  9
$FINGERPRINTGUID
  2
{BB985615-922E-FCF9-834B-27DE1FED7263}
  9
$VERSIONGUID
  2
{FAEB1C32-E019-11D5-929B-00C0DF256EC4}
  9
$EXTNAMES
290
     1
  9
$PSVPSCALE
 40
0.0
  9
$OLESTARTUP
290
     0
  9
$SORTENTS
280
   127
  9
$INDEXCTL
280
     0
  9
$HIDETEXT
280
     1
  9
$XCLIPFRAME
290
     0
  9
$HALOGAP
280
     0
  9
$OBSCOLOR
 70
   257
  9
$OBSLTYPE
280
     0
  9
$INTERSECTIONDISPLAY
280
     0
  9
$INTERSECTIONCOLOR
 70
   257
  9
$DIMASSOC
280
     2
  9
$PROJECTNAME
  1

  9
$CAMERADISPLAY
290
     0
  9
$LENSLENGTH
 40
50.0
  9
$CAMERAHEIGHT
 40
0.0
  9
$STEPSPERSEC
 40
2.0
  9
$STEPSIZE
 40
6.0
  9
$3DDWFPREC
 40
2.0
  9
$PSOLWIDTH
 40
0.25
  9
$PSOLHEIGHT
 40
4.0
  9
$LOFTANG1
 40
1.570796326794897
  9
$LOFTANG2
 40
1.570796326794897
  9
$LOFTMAG1
 40
0.0
  9
$LOFTMAG2
 40
0.0
  9
$LOFTPARAM
 70
     7
  9
$LOFTNORMALS
280
     1
  9
$LATITUDE
 40
37.795
  9
$LONGITUDE
 40
-122.394
  9
$NORTHDIRECTION
 40
0.0
  9
$TIMEZONE
 70
 -8000
  9
$LIGHTGLYPHDISPLAY
280
     1
  9
$TILEMODELIGHTSYNCH
280
     1
  9
$CMATERIAL
347
3C
  9
$SOLIDHIST
280
     1
  9
$SHOWHIST
280
     1
  9
$DWFFRAME
280
     2
  9
$DGNFRAME
280
     2
  9
$REALWORLDSCALE
290
     1
  9
$INTERFERECOLOR
 62
   256
  9
$CSHADOW
280
     0
  9
$SHADOWPLANELOCATION
 40
0.0
  0
ENDSEC
  0
SECTION
  2
CLASSES
  0
CLASS
  1
ACDBDICTIONARYWDFLT
  2
AcDbDictionaryWithDefault
  3
ObjectDBX Classes
 90
        0
 91
        4
280
     0
281
     0
  0
CLASS
  1
VISUALSTYLE
  2
AcDbVisualStyle
  3
ObjectDBX Classes
 90
     4095
 91
        4
280
     0
281
     0
  0
CLASS
  1
MATERIAL
  2
AcDbMaterial
  3
ObjectDBX Classes
 90
     1153
 91
        4
280
     0
281
     0
  0
CLASS
  1
SUN
  2
AcDbSun
  3
SCENEOE
 90
     1024
 91
        4
280
     0
281
     0
  0
ENDSEC
  0
SECTION
  2
TABLES
  0
TABLE
  2
VPORT
  5
8
330
0
100
AcDbSymbolTable
 70
     1
  0
VPORT
  5
29
330
8
100
AcDbSymbolTableRecord
100
AcDbViewportTableRecord
  2
*Active
 70
     0
 10
0.0
 20
0.0
 11
1.0
 21
1.0
 12
0.0
 22
0.0
 13
0.0
 23
0.0
 14
0.5
 24
0.5
 15
0.5
 25
0.5
 16
0.0
 26
0.0
 36
1.0
 17
105.0007777515277
 27
-148.5000416295416
 37
0.0
 40
297.0000832590831
 41
0.7070757462376333
 42
50.0
 43
0.0
 44
0.0
 50
0.0
 51
0.0
 71
     0
 72
   100
 73
     1
 74
     3
 75
     0
 76
     0
 77
     0
 78
     0
281
     0
 65
     1
110
0.0
120
0.0
130
0.0
111
1.0
121
0.0
131
0.0
112
0.0
122
1.0
132
0.0
 79
     0
146
0.0
 60
     3
 61
     5
292
     1
282
     1
141
0.0
142
0.0
 63
   250
361
3F
  0
ENDTAB
  0
TABLE
  2
LTYPE
  5
5
330
0
100
AcDbSymbolTable
 70
    11
  0
LTYPE
  5
14
330
5
100
AcDbSymbolTableRecord
100
AcDbLinetypeTableRecord
  2
ByBlock
 70
     0
  3

 72
    65
 73
     0
 40
0.0
  0
LTYPE
  5
15
330
5
100
AcDbSymbolTableRecord
100
AcDbLinetypeTableRecord
  2
ByLayer
 70
     0
  3

 72
    65
 73
     0
 40
0.0
  0
LTYPE
  5
16
330
5
100
AcDbSymbolTableRecord
100
AcDbLinetypeTableRecord
  2
Continuous
 70
     0
  3
Solid line
 72
    65
 73
     0
 40
0.0
  0
LTYPE
  5
9B
330
5
100
AcDbSymbolTableRecord
100
AcDbLinetypeTableRecord
  2
AI-Linetype-1
 70
     0
  3
Adobe Illustrator Linetype No. 1
 72
    65
 73
     2
 40
8.79458659799904
 49
4.39729329899952
 74
     0
 49
-4.39729329899952
 74
     0
  0
LTYPE
  5
A0
330
5
100
AcDbSymbolTableRecord
100
AcDbLinetypeTableRecord
  2
AI-Linetype-2
 70
     0
  3
Adobe Illustrator Linetype No. 2
 72
    65
 73
     4
 40
39.57583684196779
 49
26.38395694496922
 74
     0
 49
-4.39729329899952
 74
     0
 49
4.39729329899952
 74
     0
 49
-4.39729329899952
 74
     0
  0
LTYPE
  5
B5
330
5
100
AcDbSymbolTableRecord
100
AcDbLinetypeTableRecord
  2
AI-Linetype-3
 70
     0
  3
Adobe Illustrator Linetype No. 3
 72
    65
 73
     2
 40
8.776213203991182
 49
4.388106601995591
 74
     0
 49
-4.388106601995591
 74
     0
  0
LTYPE
  5
BA
330
5
100
AcDbSymbolTableRecord
100
AcDbLinetypeTableRecord
  2
AI-Linetype-4
 70
     0
  3
Adobe Illustrator Linetype No. 4
 72
    65
 73
     4
 40
39.493155223192
 49
26.32883541720523
 74
     0
 49
-4.388106601995591
 74
     0
 49
4.388106601995591
 74
     0
 49
-4.388106601995591
 74
     0
  0
LTYPE
  5
D1
330
5
100
AcDbSymbolTableRecord
100
AcDbLinetypeTableRecord
  2
AI-Linetype-5
 70
     0
  3
Adobe Illustrator Linetype No. 5
 72
    65
 73
     2
 40
9.583612376042412
 49
4.791806188021206
 74
     0
 49
-4.791806188021206
 74
     0
  0
LTYPE
  5
D6
330
5
100
AcDbSymbolTableRecord
100
AcDbLinetypeTableRecord
  2
AI-Linetype-6
 70
     0
  3
Adobe Illustrator Linetype No. 6
 72
    65
 73
     4
 40
43.12646831917783
 49
28.75104975511421
 74
     0
 49
-4.791806188021206
 74
     0
 49
4.791806188021206
 74
     0
 49
-4.791806188021206
 74
     0
  0
LTYPE
  5
EB
330
5
100
AcDbSymbolTableRecord
100
AcDbLinetypeTableRecord
  2
AI-Linetype-7
 70
     0
  3
Adobe Illustrator Linetype No. 7
 72
    65
 73
     2
 40
9.583602955859444
 49
4.791801477929722
 74
     0
 49
-4.791801477929722
 74
     0
  0
LTYPE
  5
F0
330
5
100
AcDbSymbolTableRecord
100
AcDbLinetypeTableRecord
  2
AI-Linetype-8
 70
     0
  3
Adobe Illustrator Linetype No. 8
 72
    65
 73
     4
 40
43.12642727409491
 49
28.75102284030574
 74
     0
 49
-4.791801477929722
 74
     0
 49
4.791801477929722
 74
     0
 49
-4.791801477929722
 74
     0
  0
LTYPE
  5
F7
330
5
100
AcDbSymbolTableRecord
100
AcDbLinetypeTableRecord
  2
AI-Linetype-9
 70
     0
  3
Adobe Illustrator Linetype No. 9
 72
    65
 73
     2
 40
7.270862246391072
 49
3.635375106750391
 74
     0
 49
-3.635487139640682
 74
     0
  0
LTYPE
  5
F9
330
5
100
AcDbSymbolTableRecord
100
AcDbLinetypeTableRecord
  2
AI-Linetype-10
 70
     0
  3
Adobe Illustrator Linetype No. 10
 72
    65
 73
     2
 40
7.270862246391072
 49
3.635375106750391
 74
     0
 49
-3.635487139640682
 74
     0
  0
ENDTAB
  0
TABLE
  2
LAYER
  5
2
330
0
100
AcDbSymbolTable
 70
     1
  0
LAYER
  5
10
330
2
100
AcDbSymbolTableRecord
100
AcDbLayerTableRecord
  2
0
 70
     0
 62
     7
  6
Continuous
370
    -3
390
F
347
3E
  0
ENDTAB
  0
TABLE
  2
STYLE
  5
3
330
0
100
AcDbSymbolTable
 70
     1
  0
STYLE
  5
11
330
3
100
AcDbSymbolTableRecord
100
AcDbTextStyleTableRecord
  2
Standard
 70
     0
 40
0.0
 41
1.0
 50
0.0
 71
     0
 42
0.2
  3
txt
  4

  0
ENDTAB
  0
TABLE
  2
VIEW
  5
6
330
0
100
AcDbSymbolTable
 70
     0
  0
ENDTAB
  0
TABLE
  2
UCS
  5
7
330
0
100
AcDbSymbolTable
 70
     0
  0
ENDTAB
  0
TABLE
  2
APPID
  5
9
330
0
100
AcDbSymbolTable
 70
     1
  0
APPID
  5
12
330
9
100
AcDbSymbolTableRecord
100
AcDbRegAppTableRecord
  2
ACAD
 70
     0
  0
ENDTAB
  0
TABLE
  2
DIMSTYLE
  5
A
330
0
100
AcDbSymbolTable
 70
     1
100
AcDbDimStyleTable
  0
DIMSTYLE
105
27
330
A
100
AcDbSymbolTableRecord
100
AcDbDimStyleTableRecord
  2
Standard
 70
     0
178
     0
340
11
  0
ENDTAB
  0
TABLE
  2
BLOCK_RECORD
  5
1
330
0
100
AcDbSymbolTable
 70
     9
  0
BLOCK_RECORD
  5
1F
330
1
100
AcDbSymbolTableRecord
100
AcDbBlockTableRecord
  2
*Model_Space
340
22
 70
     0
280
     1
281
     0
  0
BLOCK_RECORD
  5
1B
330
1
100
AcDbSymbolTableRecord
100
AcDbBlockTableRecord
  2
*Paper_Space
340
1E
 70
     0
280
     1
281
     0
  0
BLOCK_RECORD
  5
23
330
1
100
AcDbSymbolTableRecord
100
AcDbBlockTableRecord
  2
*Paper_Space0
340
26
 70
     0
280
     1
281
     0
  0
BLOCK_RECORD
  5
8C
330
1
100
AcDbSymbolTableRecord
100
AcDbBlockTableRecord
  2
block 2
340
0
102
{BLKREFS
331
8D
102
}
 70
     0
280
     1
281
     0
  0
BLOCK_RECORD
  5
90
330
1
100
AcDbSymbolTableRecord
100
AcDbBlockTableRecord
  2
block 3
340
0
102
{BLKREFS
331
91
102
}
 70
     0
280
     1
281
     0
  0
BLOCK_RECORD
  5
A6
330
1
100
AcDbSymbolTableRecord
100
AcDbBlockTableRecord
  2
block 4
340
0
102
{BLKREFS
331
A7
102
}
 70
     0
280
     1
281
     0
  0
BLOCK_RECORD
  5
AA
330
1
100
AcDbSymbolTableRecord
100
AcDbBlockTableRecord
  2
block 5
340
0
102
{BLKREFS
331
AB
102
}
 70
     0
280
     1
281
     0
  0
BLOCK_RECORD
  5
C2
330
1
100
AcDbSymbolTableRecord
100
AcDbBlockTableRecord
  2
block 6
340
0
102
{BLKREFS
331
C3
102
}
 70
     0
280
     1
281
     0
  0
BLOCK_RECORD
  5
C6
330
1
100
AcDbSymbolTableRecord
100
AcDbBlockTableRecord
  2
block 7
340
0
102
{BLKREFS
331
C7
102
}
 70
     0
280
     1
281
     0
  0
BLOCK_RECORD
  5
DC
330
1
100
AcDbSymbolTableRecord
100
AcDbBlockTableRecord
  2
block 8
340
0
102
{BLKREFS
331
DD
102
}
 70
     0
280
     1
281
     0
  0
BLOCK_RECORD
  5
E0
330
1
100
AcDbSymbolTableRecord
100
AcDbBlockTableRecord
  2
block 9
340
0
102
{BLKREFS
331
E1
102
}
 70
     0
280
     1
281
     0
  0
ENDTAB
  0
ENDSEC
  0
SECTION
  2
BLOCKS
  0
BLOCK
  5
20
330
1F
100
AcDbEntity
  8
0
100
AcDbBlockBegin
  2
*Model_Space
 70
     0
 10
0.0
 20
0.0
 30
0.0
  3
*Model_Space
  1

  0
ENDBLK
  5
21
330
1F
100
AcDbEntity
  8
0
100
AcDbBlockEnd
  0
BLOCK
  5
1C
330
1B
100
AcDbEntity
 67
     1
  8
0
100
AcDbBlockBegin
  2
*Paper_Space
 70
     0
 10
0.0
 20
0.0
 30
0.0
  3
*Paper_Space
  1

  0
ENDBLK
  5
1D
330
1B
100
AcDbEntity
 67
     1
  8
0
100
AcDbBlockEnd
  0
BLOCK
  5
24
330
23
100
AcDbEntity
  8
0
100
AcDbBlockBegin
  2
*Paper_Space0
 70
     0
 10
0.0
 20
0.0
 30
0.0
  3
*Paper_Space0
  1

  0
ENDBLK
  5
25
330
23
100
AcDbEntity
  8
0
100
AcDbBlockEnd
  0
BLOCK
  5
8E
330
8C
100
AcDbEntity
  8
0
100
AcDbBlockBegin
  2
block 2
 70
     0
 10
0.0
 20
0.0
 30
0.0
  3
block 2
  1

  0
INSERT
  5
91
330
8C
100
AcDbEntity
  8
0
100
AcDbBlockReference
  2
block 3
 10
0.0
 20
0.0
 30
0.0
  0
ENDBLK
  5
8F
330
8C
100
AcDbEntity
  8
0
100
AcDbBlockEnd
  0
BLOCK
  5
92
330
90
100
AcDbEntity
  8
0
100
AcDbBlockBegin
  2
block 3
 70
     0
 10
0.0
 20
0.0
 30
0.0
  3
block 3
  1

  0
POLYLINE
  5
94
330
90
100
AcDbEntity
  8
0
 62
     4
370
    25
100
AcDb2dPolyline
 66
     1
 10
0.0
 20
0.0
 30
0.0
  0
VERTEX
  5
95
330
94
100
AcDbEntity
  8
0
 62
     4
370
    25
100
AcDbVertex
100
AcDb2dVertex
 10
55.60708167487319
 20
-200.3253261489204
 30
0.0
  0
VERTEX
  5
96
330
94
100
AcDbEntity
  8
0
 62
     4
370
    25
100
AcDbVertex
100
AcDb2dVertex
 10
66.85716479007553
 20
-200.3253261489204
 30
0.0
  0
SEQEND
  5
97
330
94
100
AcDbEntity
  8
0
 62
     4
370
    25
  0
POLYLINE
  5
98
330
90
100
AcDbEntity
  8
0
  6
AI-Linetype-1
 62
     4
370
    25
100
AcDb2dPolyline
 66
     1
 10
0.0
 20
0.0
 30
0.0
  0
VERTEX
  5
99
330
98
100
AcDbEntity
  8
0
  6
AI-Linetype-1
 62
     4
370
    25
100
AcDbVertex
100
AcDb2dVertex
 10
71.25445775263995
 20
-200.3253261489204
 30
0.0
  0
VERTEX
  5
9A
330
98
100
AcDbEntity
  8
0
  6
AI-Linetype-1
 62
     4
370
    25
100
AcDbVertex
100
AcDb2dVertex
 10
77.85039988796741
 20
-200.3253261489204
 30
0.0
  0
SEQEND
  5
9C
330
98
100
AcDbEntity
  8
0
  6
AI-Linetype-1
 62
     4
370
    25
  0
POLYLINE
  5
9D
330
90
100
AcDbEntity
  8
0
  6
AI-Linetype-2
 62
     4
370
    25
100
AcDb2dPolyline
 66
     1
 10
0.0
 20
0.0
 30
0.0
  0
VERTEX
  5
9E
330
9D
100
AcDbEntity
  8
0
  6
AI-Linetype-2
 62
     4
370
    25
100
AcDbVertex
100
AcDb2dVertex
 10
80.04904367776878
 20
-200.3253261489204
 30
0.0
  0
VERTEX
  5
9F
330
9D
100
AcDbEntity
  8
0
  6
AI-Linetype-2
 62
     4
370
    25
100
AcDbVertex
100
AcDb2dVertex
 10
157.0020661703307
 20
-200.3253261489204
 30
0.0
  0
SEQEND
  5
A1
330
9D
100
AcDbEntity
  8
0
  6
AI-Linetype-2
 62
     4
370
    25
  0
POLYLINE
  5
A2
330
90
100
AcDbEntity
  8
0
 62
     4
370
    25
100
AcDb2dPolyline
 66
     1
 10
0.0
 20
0.0
 30
0.0
  0
VERTEX
  5
A3
330
A2
100
AcDbEntity
  8
0
 62
     4
370
    25
100
AcDbVertex
100
AcDb2dVertex
 10
159.2007153430937
 20
-200.3253261489204
 30
0.0
  0
VERTEX
  5
A4
330
A2
100
AcDbEntity
  8
0
 62
     4
370
    25
100
AcDbVertex
100
AcDb2dVertex
 10
170.4508038412577
 20
-200.3253261489204
 30
0.0
  0
SEQEND
  5
A5
330
A2
100
AcDbEntity
  8
0
 62
     4
370
    25
  0
ENDBLK
  5
93
330
90
100
AcDbEntity
  8
0
100
AcDbBlockEnd
  0
BLOCK
  5
A8
330
A6
100
AcDbEntity
  8
0
100
AcDbBlockBegin
  2
block 4
 70
     0
 10
0.0
 20
0.0
 30
0.0
  3
block 4
  1

  0
INSERT
  5
AB
330
A6
100
AcDbEntity
  8
0
100
AcDbBlockReference
  2
block 5
 10
0.0
 20
0.0
 30
0.0
  0
ENDBLK
  5
A9
330
A6
100
AcDbEntity
  8
0
100
AcDbBlockEnd
  0
BLOCK
  5
AC
330
AA
100
AcDbEntity
  8
0
100
AcDbBlockBegin
  2
block 5
 70
     0
 10
0.0
 20
0.0
 30
0.0
  3
block 5
  1

  0
POLYLINE
  5
AE
330
AA
100
AcDbEntity
  8
0
 62
     4
370
    25
100
AcDb2dPolyline
 66
     1
 10
0.0
 20
0.0
 30
0.0
  0
VERTEX
  5
AF
330
AE
100
AcDbEntity
  8
0
 62
     4
370
    25
100
AcDbVertex
100
AcDb2dVertex
 10
113.0289427580655
 20
-143.7199634616557
 30
0.0
  0
VERTEX
  5
B0
330
AE
100
AcDbEntity
  8
0
 62
     4
370
    25
100
AcDbVertex
100
AcDb2dVertex
 10
113.0289427580655
 20
-154.9700411938964
 30
0.0
  0
SEQEND
  5
B1
330
AE
100
AcDbEntity
  8
0
 62
     4
370
    25
  0
POLYLINE
  5
B2
330
AA
100
AcDbEntity
  8
0
  6
AI-Linetype-3
 62
     4
370
    25
100
AcDb2dPolyline
 66
     1
 10
0.0
 20
0.0
 30
0.0
  0
VERTEX
  5
B3
330
B2
100
AcDbEntity
  8
0
  6
AI-Linetype-3
 62
     4
370
    25
100
AcDbVertex
100
AcDb2dVertex
 10
113.0289427580655
 20
-159.3581562067696
 30
0.0
  0
VERTEX
  5
B4
330
B2
100
AcDbEntity
  8
0
  6
AI-Linetype-3
 62
     4
370
    25
100
AcDbVertex
100
AcDb2dVertex
 10
113.0289427580655
 20
-165.9403125771944
 30
0.0
  0
SEQEND
  5
B6
330
B2
100
AcDbEntity
  8
0
  6
AI-Linetype-3
 62
     4
370
    25
  0
POLYLINE
  5
B7
330
AA
100
AcDbEntity
  8
0
  6
AI-Linetype-4
 62
     4
370
    25
100
AcDb2dPolyline
 66
     1
 10
0.0
 20
0.0
 30
0.0
  0
VERTEX
  5
B8
330
B7
100
AcDbEntity
  8
0
  6
AI-Linetype-4
 62
     4
370
    25
100
AcDbVertex
100
AcDb2dVertex
 10
113.0289427580655
 20
-168.1343647006693
 30
0.0
  0
VERTEX
  5
B9
330
B7
100
AcDbEntity
  8
0
  6
AI-Linetype-4
 62
     4
370
    25
100
AcDbVertex
100
AcDb2dVertex
 10
113.0289427580655
 20
-244.9266304251507
 30
0.0
  0
SEQEND
  5
BB
330
B7
100
AcDbEntity
  8
0
  6
AI-Linetype-4
 62
     4
370
    25
  0
POLYLINE
  5
BC
330
AA
100
AcDbEntity
  8
0
 62
     4
370
    25
100
AcDb2dPolyline
 66
     1
 10
0.0
 20
0.0
 30
0.0
  0
VERTEX
  5
BD
330
BC
100
AcDbEntity
  8
0
 62
     4
370
    25
100
AcDbVertex
100
AcDb2dVertex
 10
113.0289427580655
 20
-247.1206825486257
 30
0.0
  0
VERTEX
  5
BE
330
BC
100
AcDbEntity
  8
0
 62
     4
370
    25
100
AcDbVertex
100
AcDb2dVertex
 10
113.0289427580655
 20
-258.3707495149429
 30
0.0
  0
SEQEND
  5
BF
330
BC
100
AcDbEntity
  8
0
 62
     4
370
    25
  0
ENDBLK
  5
AD
330
AA
100
AcDbEntity
  8
0
100
AcDbBlockEnd
  0
BLOCK
  5
C4
330
C2
100
AcDbEntity
  8
0
100
AcDbBlockBegin
  2
block 6
 70
     0
 10
0.0
 20
0.0
 30
0.0
  3
block 6
  1

  0
INSERT
  5
C7
330
C2
100
AcDbEntity
  8
0
100
AcDbBlockReference
  2
block 7
 10
0.0
 20
0.0
 30
0.0
  0
ENDBLK
  5
C5
330
C2
100
AcDbEntity
  8
0
100
AcDbBlockEnd
  0
BLOCK
  5
C8
330
C6
100
AcDbEntity
  8
0
100
AcDbBlockBegin
  2
block 7
 70
     0
 10
0.0
 20
0.0
 30
0.0
  3
block 7
  1

  0
POLYLINE
  5
CA
330
C6
100
AcDbEntity
  8
0
 62
     4
370
    25
100
AcDb2dPolyline
 66
     1
 10
0.0
 20
0.0
 30
0.0
  0
VERTEX
  5
CB
330
CA
100
AcDbEntity
  8
0
 62
     4
370
    25
100
AcDbVertex
100
AcDb2dVertex
 10
72.97209085123669
 20
-50.55782054061033
 30
0.0
  0
VERTEX
  5
CC
330
CA
100
AcDbEntity
  8
0
 62
     4
370
    25
100
AcDbVertex
100
AcDb2dVertex
 10
84.22217396643903
 20
-50.55782054061033
 30
0.0
  0
SEQEND
  5
CD
330
CA
100
AcDbEntity
  8
0
 62
     4
370
    25
  0
POLYLINE
  5
CE
330
C6
100
AcDbEntity
  8
0
  6
AI-Linetype-5
 62
     4
370
    25
100
AcDb2dPolyline
 66
     1
 10
0.0
 20
0.0
 30
0.0
  0
VERTEX
  5
CF
330
CE
100
AcDbEntity
  8
0
  6
AI-Linetype-5
 62
     4
370
    25
100
AcDbVertex
100
AcDb2dVertex
 10
89.01398419168152
 20
-50.55782054061033
 30
0.0
  0
VERTEX
  5
D0
330
CE
100
AcDbEntity
  8
0
  6
AI-Linetype-5
 62
     4
370
    25
100
AcDbVertex
100
AcDb2dVertex
 10
96.20168607214099
 20
-50.55782054061033
 30
0.0
  0
SEQEND
  5
D2
330
CE
100
AcDbEntity
  8
0
  6
AI-Linetype-5
 62
     4
370
    25
  0
POLYLINE
  5
D3
330
C6
100
AcDbEntity
  8
0
  6
AI-Linetype-6
 62
     4
370
    25
100
AcDb2dPolyline
 66
     1
 10
0.0
 20
0.0
 30
0.0
  0
VERTEX
  5
D4
330
D3
100
AcDbEntity
  8
0
  6
AI-Linetype-6
 62
     4
370
    25
100
AcDbVertex
100
AcDb2dVertex
 10
98.59759925920477
 20
-50.55782054061033
 30
0.0
  0
VERTEX
  5
D5
330
D3
100
AcDbEntity
  8
0
  6
AI-Linetype-6
 62
     4
370
    25
100
AcDbVertex
100
AcDb2dVertex
 10
139.3281557370592
 20
-50.55782054061033
 30
0.0
  0
SEQEND
  5
D7
330
D3
100
AcDbEntity
  8
0
  6
AI-Linetype-6
 62
     4
370
    25
  0
POLYLINE
  5
D8
330
C6
100
AcDbEntity
  8
0
 62
     4
370
    25
100
AcDb2dPolyline
 66
     1
 10
0.0
 20
0.0
 30
0.0
  0
VERTEX
  5
D9
330
D8
100
AcDbEntity
  8
0
 62
     4
370
    25
100
AcDbVertex
100
AcDb2dVertex
 10
141.724068924123
 20
-50.55782054061033
 30
0.0
  0
VERTEX
  5
DA
330
D8
100
AcDbEntity
  8
0
 62
     4
370
    25
100
AcDbVertex
100
AcDb2dVertex
 10
152.9741466563637
 20
-50.55782054061033
 30
0.0
  0
SEQEND
  5
DB
330
D8
100
AcDbEntity
  8
0
 62
     4
370
    25
  0
ENDBLK
  5
C9
330
C6
100
AcDbEntity
  8
0
100
AcDbBlockEnd
  0
BLOCK
  5
DE
330
DC
100
AcDbEntity
  8
0
100
AcDbBlockBegin
  2
block 8
 70
     0
 10
0.0
 20
0.0
 30
0.0
  3
block 8
  1

  0
INSERT
  5
E1
330
DC
100
AcDbEntity
  8
0
100
AcDbBlockReference
  2
block 9
 10
0.0
 20
0.0
 30
0.0
  0
ENDBLK
  5
DF
330
DC
100
AcDbEntity
  8
0
100
AcDbBlockEnd
  0
BLOCK
  5
E2
330
E0
100
AcDbEntity
  8
0
100
AcDbBlockBegin
  2
block 9
 70
     0
 10
0.0
 20
0.0
 30
0.0
  3
block 9
  1

  0
POLYLINE
  5
E4
330
E0
100
AcDbEntity
  8
0
 62
     4
370
    25
100
AcDb2dPolyline
 66
     1
 10
0.0
 20
0.0
 30
0.0
  0
VERTEX
  5
E5
330
E4
100
AcDbEntity
  8
0
 62
     4
370
    25
100
AcDbVertex
100
AcDb2dVertex
 10
112.973121445281
 20
-90.55879192207601
 30
0.0
  0
VERTEX
  5
E6
330
E4
100
AcDbEntity
  8
0
 62
     4
370
    25
100
AcDbVertex
100
AcDb2dVertex
 10
112.973121445281
 20
-79.30870880687367
 30
0.0
  0
SEQEND
  5
E7
330
E4
100
AcDbEntity
  8
0
 62
     4
370
    25
  0
POLYLINE
  5
E8
330
E0
100
AcDbEntity
  8
0
  6
AI-Linetype-7
 62
     4
370
    25
100
AcDb2dPolyline
 66
     1
 10
0.0
 20
0.0
 30
0.0
  0
VERTEX
  5
E9
330
E8
100
AcDbEntity
  8
0
  6
AI-Linetype-7
 62
     4
370
    25
100
AcDbVertex
100
AcDb2dVertex
 10
112.973121445281
 20
-74.51690934755459
 30
0.0
  0
VERTEX
  5
EA
330
E8
100
AcDbEntity
  8
0
  6
AI-Linetype-7
 62
     4
370
    25
100
AcDbVertex
100
AcDb2dVertex
 10
112.973121445281
 20
-67.32920208413341
 30
0.0
  0
SEQEND
  5
EC
330
E8
100
AcDbEntity
  8
0
  6
AI-Linetype-7
 62
     4
370
    25
  0
POLYLINE
  5
ED
330
E0
100
AcDbEntity
  8
0
  6
AI-Linetype-8
 62
     4
370
    25
100
AcDb2dPolyline
 66
     1
 10
0.0
 20
0.0
 30
0.0
  0
VERTEX
  5
EE
330
ED
100
AcDbEntity
  8
0
  6
AI-Linetype-8
 62
     4
370
    25
100
AcDbVertex
100
AcDb2dVertex
 10
112.973121445281
 20
-64.93330504595473
 30
0.0
  0
VERTEX
  5
EF
330
ED
100
AcDbEntity
  8
0
  6
AI-Linetype-8
 62
     4
370
    25
100
AcDbVertex
100
AcDb2dVertex
 10
112.973121445281
 20
-24.20277817438958
 30
0.0
  0
SEQEND
  5
F1
330
ED
100
AcDbEntity
  8
0
  6
AI-Linetype-8
 62
     4
370
    25
  0
POLYLINE
  5
F2
330
E0
100
AcDbEntity
  8
0
 62
     4
370
    25
100
AcDb2dPolyline
 66
     1
 10
0.0
 20
0.0
 30
0.0
  0
VERTEX
  5
F3
330
F2
100
AcDbEntity
  8
0
 62
     4
370
    25
100
AcDbVertex
100
AcDb2dVertex
 10
112.973121445281
 20
-21.80687844473003
 30
0.0
  0
VERTEX
  5
F4
330
F2
100
AcDbEntity
  8
0
 62
     4
370
    25
100
AcDbVertex
100
AcDb2dVertex
 10
112.973121445281
 20
-10.55679465665747
 30
0.0
  0
SEQEND
  5
F5
330
F2
100
AcDbEntity
  8
0
 62
     4
370
    25
  0
ENDBLK
  5
E3
330
E0
100
AcDbEntity
  8
0
100
AcDbBlockEnd
  0
ENDSEC
  0
SECTION
  2
ENTITIES
  0
SPLINE
  5
40
330
1F
100
AcDbEntity
  8
0
 62
   250
370
    25
100
AcDbSpline
210
0.0
220
0.0
230
1.0
 70
     8
 71
     3
 72
     8
 73
     4
 74
     0
 42
0.0000000001
 43
0.0000000001
 12
1.0
 22
0.0
 32
0.0
 13
1.0
 23
0.0
 33
0.0
 40
0.0
 40
0.0
 40
0.0
 40
0.0
 40
1.0
 40
1.0
 40
1.0
 40
1.0
 10
120.5539356428007
 20
-118.4083570651736
 30
0.0
 10
118.1677890588733
 20
-118.2564514052616
 30
0.0
 10
115.7826302498121
 20
-118.1784524702714
 30
0.0
 10
113.3916859022325
 20
-118.1741485941671
 30
0.0
  0
POLYLINE
  5
41
330
1F
100
AcDbEntity
  8
0
 62
   250
370
    25
100
AcDb2dPolyline
 66
     1
 10
0.0
 20
0.0
 30
0.0
  0
VERTEX
  5
42
330
41
100
AcDbEntity
  8
0
 62
   250
370
    25
100
AcDbVertex
100
AcDb2dVertex
 10
413.4437539182206
 20
16.60950384754059
 30
0.0
  0
VERTEX
  5
43
330
41
100
AcDbEntity
  8
0
 62
   250
370
    25
100
AcDbVertex
100
AcDb2dVertex
 10
-186.6603821137604
 20
16.60950384754059
 30
0.0
  0
SEQEND
  5
44
330
41
100
AcDbEntity
  8
0
 62
   250
370
    25
  0
SPLINE
  5
45
330
1F
100
AcDbEntity
  8
0
 62
   250
370
    25
100
AcDbSpline
210
0.0
220
0.0
230
1.0
 70
     8
 71
     3
 72
     8
 73
     4
 74
     0
 42
0.0000000001
 43
0.0000000001
 12
1.0
 22
0.0
 32
0.0
 13
1.0
 23
0.0
 33
0.0
 40
0.0
 40
0.0
 40
0.0
 40
0.0
 40
1.0
 40
1.0
 40
1.0
 40
1.0
 10
113.2481410471913
 20
-118.1745013708964
 30
0.0
 10
113.2959775729807
 20
-118.1743955378769
 30
0.0
 10
113.3438493764418
 20
-118.1742544271865
 30
0.0
 10
113.3916859022325
 20
-118.1741485941671
 30
0.0
  0
SPLINE
  5
46
330
1F
100
AcDbEntity
  8
0
 62
   250
370
    25
100
AcDbSpline
210
0.0
220
0.0
230
1.0
 70
     8
 71
     3
 72
     8
 73
     4
 74
     0
 42
0.0000000001
 43
0.0000000001
 12
1.0
 22
0.0
 32
0.0
 13
1.0
 23
0.0
 33
0.0
 40
0.0
 40
0.0
 40
0.0
 40
0.0
 40
1.0
 40
1.0
 40
1.0
 40
1.0
 10
113.5345604814657
 20
-120.9074626977536
 30
0.0
 10
113.4869356217209
 20
-120.9074979754252
 30
0.0
 10
113.4393107619767
 20
-120.9074626977536
 30
0.0
 10
113.3916859022325
 20
-120.9073921424084
 30
0.0
  0
SPLINE
  5
47
330
1F
100
AcDbEntity
  8
0
 62
   250
370
    25
100
AcDbSpline
210
0.0
220
0.0
230
1.0
 70
     8
 71
     3
 72
    53
 73
    49
 74
     0
 42
0.0000000001
 43
0.0000000001
 12
1.0
 22
0.0
 32
0.0
 13
1.0
 23
0.0
 33
0.0
 40
0.0
 40
0.0
 40
0.0
 40
0.0
 40
1.0
 40
1.0
 40
1.0
 40
2.0
 40
2.0
 40
2.0
 40
3.0
 40
3.0
 40
3.0
 40
4.0
 40
4.0
 40
4.0
 40
5.0
 40
5.0
 40
5.0
 40
6.0
 40
6.0
 40
6.0
 40
7.0
 40
7.0
 40
7.0
 40
8.0
 40
8.0
 40
8.0
 40
9.0
 40
9.0
 40
9.0
 40
10.0
 40
10.0
 40
10.0
 40
11.0
 40
11.0
 40
11.0
 40
12.0
 40
12.0
 40
12.0
 40
13.0
 40
13.0
 40
13.0
 40
14.0
 40
14.0
 40
14.0
 40
15.0
 40
15.0
 40
15.0
 40
16.0
 40
16.0
 40
16.0
 40
16.0
 10
120.5539356428007
 20
-118.4083570651736
 30
0.0
 10
121.3305736333904
 20
-118.4582749724607
 30
0.0
 10
122.1064355151528
 20
-118.5197992341595
 30
0.0
 10
122.8801454588015
 20
-118.6043598163262
 30
0.0
 10
123.4295246742217
 20
-118.6643671380931
 30
0.0
 10
123.9778102817441
 20
-118.7360160919399
 30
0.0
 10
124.5207689605141
 20
-118.8389563417396
 30
0.0
 10
124.7318000056952
 20
-118.8789965005901
 30
0.0
 10
124.9420549420489
 20
-118.9237285899457
 30
0.0
 10
125.1492054431059
 20
-118.9806314764814
 30
0.0
 10
125.2995588892047
 20
-119.021906353888
 30
0.0
 10
125.4482895623055
 20
-119.0696017677784
 30
0.0
 10
125.5903527550416
 20
-119.1338424102983
 30
0.0
 10
125.6414701045014
 20
-119.1569140084372
 30
0.0
 10
125.691705512115
 20
-119.1821728223023
 30
0.0
 10
125.7387306514067
 20
-119.2127938424584
 30
0.0
 10
125.774572768074
 20
-119.2361476619809
 30
0.0
 10
125.8085451680211
 20
-119.2626059167286
 30
0.0
 10
125.8372259168887
 20
-119.2945322107871
 30
0.0
 10
125.8588864086548
 20
-119.3186621391148
 30
0.0
 10
125.8775130204661
 20
-119.3459317803385
 30
0.0
 10
125.885909106854
 20
-119.3771172432662
 30
0.0
 10
125.89141242398
 20
-119.3975782935997
 30
0.0
 10
125.8925413095431
 20
-119.4196973945696
 30
0.0
 10
125.8892252082024
 20
-119.4405112216363
 30
0.0
 10
125.881323009247
 20
-119.4902527405584
 30
0.0
 10
125.8481619957976
 20
-119.532197893748
 30
0.0
 10
125.8109440498447
 20
-119.5677930658
 30
0.0
 10
125.7546408823311
 20
-119.6216620724618
 30
0.0
 10
125.6891655195947
 20
-119.6609261225041
 30
0.0
 10
125.6212207196933
 20
-119.696097962481
 30
0.0
 10
125.5249126699832
 20
-119.7459453144206
 30
0.0
 10
125.423771578955
 20
-119.7875729685539
 30
0.0
 10
125.321325213996
 20
-119.8247203582151
 30
0.0
 10
125.1621523494189
 20
-119.8824699089067
 30
0.0
 10
124.9998397718746
 20
-119.9295303246829
 30
0.0
 10
124.8364688641093
 20
-119.9724985303898
 30
0.0
 10
124.4228734154795
 20
-120.0812595962294
 30
0.0
 10
124.0025752088108
 20
-120.1638093510375
 30
0.0
 10
123.5806542291466
 20
-120.2353524718681
 30
0.0
 10
123.0263008617121
 20
-120.3294027480708
 30
0.0
 10
122.4690900026914
 20
-120.4045089138756
 30
0.0
 10
121.9107855357792
 20
-120.4699489972778
 30
0.0
 10
120.6009255044156
 20
-120.6235479854956
 30
0.0
 10
119.2851741015135
 20
-120.7239835205075
 30
0.0
 10
117.9679763139831
 20
-120.792704427503
 30
0.0
 10
116.4914645511916
 20
-120.8697508653211
 30
0.0
 10
115.0131183493516
 20
-120.9069335326591
 30
0.0
 10
113.5345604814657
 20
-120.9074626977536
 30
0.0
  0
SPLINE
  5
48
330
1F
100
AcDbEntity
  8
0
 62
   250
370
    25
100
AcDbSpline
210
0.0
220
0.0
230
1.0
 70
     8
 71
     3
 72
     8
 73
     4
 74
     0
 42
0.0000000001
 43
0.0000000001
 12
1.0
 22
0.0
 32
0.0
 13
1.0
 23
0.0
 33
0.0
 40
0.0
 40
0.0
 40
0.0
 40
0.0
 40
1.0
 40
1.0
 40
1.0
 40
1.0
 10
106.2289775518977
 20
-118.4083570651736
 30
0.0
 10
108.5673934430576
 20
-118.2604730599818
 30
0.0
 10
110.9050685030714
 20
-118.1826152356852
 30
0.0
 10
113.2481410471913
 20
-118.1745013708964
 30
0.0
  0
SPLINE
  5
49
330
1F
100
AcDbEntity
  8
0
 62
   250
370
    25
100
AcDbSpline
210
0.0
220
0.0
230
1.0
 70
     8
 71
     3
 72
    53
 73
    49
 74
     0
 42
0.0000000001
 43
0.0000000001
 12
1.0
 22
0.0
 32
0.0
 13
1.0
 23
0.0
 33
0.0
 40
0.0
 40
0.0
 40
0.0
 40
0.0
 40
1.0
 40
1.0
 40
1.0
 40
2.0
 40
2.0
 40
2.0
 40
3.0
 40
3.0
 40
3.0
 40
4.0
 40
4.0
 40
4.0
 40
5.0
 40
5.0
 40
5.0
 40
6.0
 40
6.0
 40
6.0
 40
7.0
 40
7.0
 40
7.0
 40
8.0
 40
8.0
 40
8.0
 40
9.0
 40
9.0
 40
9.0
 40
10.0
 40
10.0
 40
10.0
 40
11.0
 40
11.0
 40
11.0
 40
12.0
 40
12.0
 40
12.0
 40
13.0
 40
13.0
 40
13.0
 40
14.0
 40
14.0
 40
14.0
 40
15.0
 40
15.0
 40
15.0
 40
16.0
 40
16.0
 40
16.0
 40
16.0
 10
106.2289775518977
 20
-118.4083570651736
 30
0.0
 10
105.4485648502087
 20
-118.4585219161705
 30
0.0
 10
104.6689988126883
 20
-118.5203989546063
 30
0.0
 10
103.8916199909524
 20
-118.6055945348836
 30
0.0
 10
103.3413235560147
 20
-118.6658840780314
 30
0.0
 10
102.7921207289655
 20
-118.7378858086138
 30
0.0
 10
102.2483506636997
 20
-118.8416374448894
 30
0.0
 10
102.0378487836233
 20
-118.8818187144303
 30
0.0
 10
101.8281582900514
 20
-118.9267624698222
 30
0.0
 10
101.6215722317782
 20
-118.9840181330935
 30
0.0
 10
101.4723476712437
 20
-119.0253988435138
 30
0.0
 10
101.3247458837054
 20
-119.0732353680942
 30
0.0
 10
101.183987964904
 20
-119.1378640650218
 30
0.0
 10
101.1335761689225
 20
-119.1610414961768
 30
0.0
 10
101.0840463147879
 20
-119.1863355877129
 30
0.0
 10
101.0378678396713
 20
-119.2171329962398
 30
0.0
 10
101.0027312764799
 20
-119.2405220934342
 30
0.0
 10
100.9695349853531
 20
-119.2670861811988
 30
0.0
 10
100.9419125667036
 20
-119.2991535859502
 30
0.0
 10
100.9209929060879
 20
-119.3234246249684
 30
0.0
 10
100.9032482361262
 20
-119.3508706545605
 30
0.0
 10
100.8959810353037
 20
-119.3819150067939
 30
0.0
 10
100.8911479939798
 20
-119.4025524454959
 30
0.0
 10
100.8909363279372
 20
-119.4248126571562
 30
0.0
 10
100.89495798276
 20
-119.4455206512038
 30
0.0
 10
100.9046946207539
 20
-119.4958971682369
 30
0.0
 10
100.9394078518575
 20
-119.5374189893508
 30
0.0
 10
100.977825238719
 20
-119.5729436060576
 30
0.0
 10
101.0480630874238
 20
-119.6378898020401
 30
0.0
 10
101.1308245103601
 20
-119.682939390454
 30
0.0
 10
101.2160553704648
 20
-119.723085382321
 30
0.0
 10
101.3210064502729
 20
-119.7725094021846
 30
0.0
 10
101.4296616858396
 20
-119.8144898330477
 30
0.0
 10
101.5396574730149
 20
-119.852025277113
 30
0.0
 10
101.7080730881435
 20
-119.9094926064206
 30
0.0
 10
101.8795931385733
 20
-119.956623577542
 30
0.0
 10
102.0521009638729
 20
-119.9996976162683
 30
0.0
 10
102.4834763601434
 20
-120.1075061849354
 30
0.0
 10
102.9208136833011
 20
-120.1901617727633
 30
0.0
 10
103.3598090571295
 20
-120.2617048935965
 30
0.0
 10
103.8833650152611
 20
-120.3470063068967
 30
0.0
 10
104.4092845775455
 20
-120.4164327673452
 30
0.0
 10
104.9361213593471
 20
-120.477427863956
 30
0.0
 10
106.2627735634809
 20
-120.6309915744963
 30
0.0
 10
107.5952113061271
 20
-120.7309684997622
 30
0.0
 10
108.929095433408
 20
-120.7986310765656
 30
0.0
 10
110.4153791118673
 20
-120.8740194637544
 30
0.0
 10
111.9034619517047
 20
-120.9092618590765
 30
0.0
 10
113.3916859022325
 20
-120.9073921424084
 30
0.0
  0
SPLINE
  5
4A
330
1F
100
AcDbEntity
  8
0
 62
   250
370
    25
100
AcDbSpline
210
0.0
220
0.0
230
1.0
 70
     8
 71
     3
 72
    26
 73
    22
 74
     0
 42
0.0000000001
 43
0.0000000001
 12
1.0
 22
0.0
 32
0.0
 13
1.0
 23
0.0
 33
0.0
 40
0.0
 40
0.0
 40
0.0
 40
0.0
 40
1.0
 40
1.0
 40
1.0
 40
2.0
 40
2.0
 40
2.0
 40
3.0
 40
3.0
 40
3.0
 40
4.0
 40
4.0
 40
4.0
 40
5.0
 40
5.0
 40
5.0
 40
6.0
 40
6.0
 40
6.0
 40
7.0
 40
7.0
 40
7.0
 40
7.0
 10
-136.051807266673
 20
-422.0605392730758
 30
0.0
 10
-138.2169745013869
 20
-422.0365857325056
 30
0.0
 10
-156.5588954845875
 20
-421.8573751491733
 30
0.0
 10
-158.7249446611517
 20
-421.7157000108515
 30
0.0
 10
-166.6506032646041
 20
-421.1972593154294
 30
0.0
 10
-173.2871098312601
 20
-418.1557241060536
 30
0.0
 10
-178.6797608943964
 20
-412.2571559217313
 30
0.0
 10
-184.1141101680639
 20
-406.3129737050733
 30
0.0
 10
-186.5082295062886
 20
-399.4785241102426
 30
0.0
 10
-186.6411910591669
 20
-391.5371669419127
 30
0.0
 10
-186.7046203168123
 20
-387.7495803868424
 30
0.0
 10
-186.6586182300639
 20
-383.9626985792867
 30
0.0
 10
-186.6587240630836
 20
-380.1754287173288
 30
0.0
 10
-186.6587946184353
 20
-376.3881588553606
 30
0.0
 10
-186.6587240630836
 20
-372.6008889934066
 30
0.0
 10
-186.6587240630836
 20
-368.8136191314449
 30
0.0
 10
-186.6587240630836
 20
-361.2868453767593
 30
0.0
 10
-186.6587240630836
 20
-353.7600363443976
 30
0.0
 10
-186.6587240630836
 20
-346.2332625897127
 30
0.0
 10
-186.6587946184353
 20
-225.2857010012781
 30
0.0
 10
-186.669519031295
 20
-104.3381041351667
 30
0.0
 10
-186.6603821137604
 20
16.60950384754059
 30
0.0
  0
SPLINE
  5
4B
330
1F
100
AcDbEntity
  8
0
 62
   250
370
    25
100
AcDbSpline
210
0.0
220
0.0
230
1.0
 70
     8
 71
     3
 72
    11
 73
     7
 74
     0
 42
0.0000000001
 43
0.0000000001
 12
1.0
 22
0.0
 32
0.0
 13
1.0
 23
0.0
 33
0.0
 40
0.0
 40
0.0
 40
0.0
 40
0.0
 40
1.0
 40
1.0
 40
1.0
 40
2.0
 40
2.0
 40
2.0
 40
2.0
 10
113.3916859022325
 20
-423.4404960424455
 30
0.0
 10
52.91848566193641
 20
-423.4404960424455
 30
0.0
 10
-7.552209863513196
 20
-423.1972212033328
 30
0.0
 10
-68.02343455407365
 20
-422.7106009697608
 30
0.0
 10
-83.14108197718022
 20
-422.5889635502025
 30
0.0
 10
-120.9344420649572
 20
-422.2126213251973
 30
0.0
 10
-136.051807266673
 20
-422.0605392730758
 30
0.0
  0
SPLINE
  5
4C
330
1F
100
AcDbEntity
  8
0
 62
   250
370
    25
100
AcDbSpline
210
0.0
220
0.0
230
1.0
 70
     8
 71
     3
 72
    35
 73
    31
 74
     0
 42
0.0000000001
 43
0.0000000001
 12
1.0
 22
0.0
 32
0.0
 13
1.0
 23
0.0
 33
0.0
 40
0.0
 40
0.0
 40
0.0
 40
0.0
 40
1.0
 40
1.0
 40
1.0
 40
2.0
 40
2.0
 40
2.0
 40
3.0
 40
3.0
 40
3.0
 40
4.0
 40
4.0
 40
4.0
 40
5.0
 40
5.0
 40
5.0
 40
6.0
 40
6.0
 40
6.0
 40
7.0
 40
7.0
 40
7.0
 40
8.0
 40
8.0
 40
8.0
 40
9.0
 40
9.0
 40
9.0
 40
10.0
 40
10.0
 40
10.0
 40
10.0
 10
413.4437539182206
 20
16.60950384754059
 30
0.0
 10
413.452855558081
 20
-104.3353524766742
 30
0.0
 10
413.4421311452238
 20
-225.2801976842874
 30
0.0
 10
413.4420958675483
 20
-346.2250076142328
 30
0.0
 10
413.4420958675483
 20
-353.752486922371
 30
0.0
 10
413.4420958675483
 20
-361.2799662305234
 30
0.0
 10
413.4420958675483
 20
-368.8074102609978
 30
0.0
 10
413.4420958675483
 20
-372.5950328996855
 30
0.0
 10
413.4421664228954
 20
-376.3826555383764
 30
0.0
 10
413.442060589876
 20
-380.1703134547428
 30
0.0
 10
413.4419900345289
 20
-383.9579008157551
 30
0.0
 10
413.4879215659292
 20
-387.7451354000445
 30
0.0
 10
413.4245981412981
 20
-391.5330747317458
 30
0.0
 10
413.2918482544702
 20
-399.4758077293557
 30
0.0
 10
410.8996691883049
 20
-406.3098339920946
 30
0.0
 10
405.464437972789
 20
-412.2557095371042
 30
0.0
 10
400.0716457989618
 20
-418.1551596632709
 30
0.0
 10
393.4345395118428
 20
-421.1972593154294
 30
0.0
 10
385.5081400772428
 20
-421.7157000108515
 30
0.0
 10
383.3421261783627
 20
-421.8573751491733
 30
0.0
 10
365.0001699174767
 20
-422.0365857325056
 30
0.0
 10
362.8350379604377
 20
-422.0605392730758
 30
0.0
 10
355.2764435537684
 20
-422.1441826378602
 30
0.0
 10
347.7178491470954
 20
-422.2240160138605
 30
0.0
 10
340.1591841850727
 20
-422.3000394010832
 30
0.0
 10
325.0418542610285
 20
-422.4521214532046
 30
0.0
 10
309.9243832262926
 20
-422.5889635502025
 30
0.0
 10
294.806806358538
 20
-422.7106009697608
 30
0.0
 10
234.3355816679747
 20
-423.1972212033328
 30
0.0
 10
173.8648508648502
 20
-423.4404960424455
 30
0.0
 10
113.3916859022325
 20
-423.4404960424455
 30
0.0
  0
SPLINE
  5
4D
330
1F
100
AcDbEntity
  8
0
 62
   250
370
    25
100
AcDbSpline
210
0.0
220
0.0
230
1.0
 70
     8
 71
     3
 72
    20
 73
    16
 74
     0
 42
0.0000000001
 43
0.0000000001
 12
1.0
 22
0.0
 32
0.0
 13
1.0
 23
0.0
 33
0.0
 40
0.0
 40
0.0
 40
0.0
 40
0.0
 40
1.0
 40
1.0
 40
1.0
 40
2.0
 40
2.0
 40
2.0
 40
3.0
 40
3.0
 40
3.0
 40
4.0
 40
4.0
 40
4.0
 40
5.0
 40
5.0
 40
5.0
 40
5.0
 10
26.4317964427791
 20
-118.5916598540516
 30
0.0
 10
29.29969494128744
 20
-118.5802651656758
 30
0.0
 10
32.16762871746645
 20
-118.5759965672425
 30
0.0
 10
35.03552721597767
 20
-118.5744443496237
 30
0.0
 10
40.77150060136537
 20
-118.5713399144078
 30
0.0
 10
46.50747398675274
 20
-118.578995169448
 30
0.0
 10
52.24344737214012
 20
-118.5769490644121
 30
0.0
 10
55.11148698134207
 20
-118.5759612895687
 30
0.0
 10
57.97949131287302
 20
-118.5725040776136
 30
0.0
 10
60.84753092207818
 20
-118.565871875092
 30
0.0
 10
71.23881670872353
 20
-118.5418477797836
 30
0.0
 10
81.62996138467207
 20
-118.4757374205863
 30
0.0
 10
92.02124717131743
 20
-118.4400716931955
 30
0.0
 10
96.75713377972698
 20
-118.4238439636178
 30
0.0
 10
101.4930556658172
 20
-118.413930937506
 30
0.0
 10
106.2289775518977
 20
-118.4083570651736
 30
0.0
  0
POLYLINE
  5
4E
330
1F
100
AcDbEntity
  8
0
 62
   250
370
    25
100
AcDb2dPolyline
 66
     1
 10
0.0
 20
0.0
 30
0.0
  0
VERTEX
  5
4F
330
4E
100
AcDbEntity
  8
0
 62
   250
370
    25
100
AcDbVertex
100
AcDb2dVertex
 10
200.3642400466093
 20
-118.5916598540516
 30
0.0
  0
VERTEX
  5
50
330
4E
100
AcDbEntity
  8
0
 62
   250
370
    25
100
AcDbVertex
100
AcDb2dVertex
 10
200.3515400840139
 20
-118.5916598540516
 30
0.0
  0
SEQEND
  5
51
330
4E
100
AcDbEntity
  8
0
 62
   250
370
    25
  0
SPLINE
  5
52
330
1F
100
AcDbEntity
  8
0
 62
   250
370
    25
100
AcDbSpline
210
0.0
220
0.0
230
1.0
 70
     8
 71
     3
 72
     8
 73
     4
 74
     0
 42
0.0000000001
 43
0.0000000001
 12
1.0
 22
0.0
 32
0.0
 13
1.0
 23
0.0
 33
0.0
 40
0.0
 40
0.0
 40
0.0
 40
0.0
 40
1.0
 40
1.0
 40
1.0
 40
1.0
 10
338.2462875963158
 20
-122.4011546499975
 30
0.0
 10
338.2002855095671
 20
-122.3969918845868
 30
0.0
 10
338.154248145148
 20
-122.3928291191724
 30
0.0
 10
338.1082460583993
 20
-122.3886663537585
 30
0.0
  0
POLYLINE
  5
53
330
1F
100
AcDbEntity
  8
0
 62
   250
370
    25
100
AcDb2dPolyline
 66
     1
 10
0.0
 20
0.0
 30
0.0
  0
VERTEX
  5
54
330
53
100
AcDbEntity
  8
0
 62
   250
370
    25
100
AcDbVertex
100
AcDb2dVertex
 10
26.41909648018048
 20
-118.5916598540516
 30
0.0
  0
VERTEX
  5
55
330
53
100
AcDbEntity
  8
0
 62
   250
370
    25
100
AcDbVertex
100
AcDb2dVertex
 10
26.4317964427791
 20
-118.5916598540516
 30
0.0
  0
SEQEND
  5
56
330
53
100
AcDbEntity
  8
0
 62
   250
370
    25
  0
SPLINE
  5
57
330
1F
100
AcDbEntity
  8
0
 62
   250
370
    25
100
AcDbSpline
210
0.0
220
0.0
230
1.0
 70
     8
 71
     3
 72
    29
 73
    25
 74
     0
 42
0.0000000001
 43
0.0000000001
 12
1.0
 22
0.0
 32
0.0
 13
1.0
 23
0.0
 33
0.0
 40
0.0
 40
0.0
 40
0.0
 40
0.0
 40
1.0
 40
1.0
 40
1.0
 40
2.0
 40
2.0
 40
2.0
 40
3.0
 40
3.0
 40
3.0
 40
4.0
 40
4.0
 40
4.0
 40
5.0
 40
5.0
 40
5.0
 40
6.0
 40
6.0
 40
6.0
 40
7.0
 40
7.0
 40
7.0
 40
8.0
 40
8.0
 40
8.0
 40
8.0
 10
-165.6031032939269
 20
2.217271232537212
 30
0.0
 10
-166.2423347447277
 20
2.328607571321063
 30
0.0
 10
-166.8891861730888
 20
2.408934834756085
 30
0.0
 10
-167.5384364832741
 20
2.424457011262629
 30
0.0
 10
-168.0974112259879
 20
2.437791971995036
 30
0.0
 10
-168.658149852395
 20
2.403078740891485
 30
0.0
 10
-169.2085873980298
 20
2.305112640510397
 30
0.0
 10
-169.7411391630024
 20
2.210321530780249
 30
0.0
 10
-170.2640601230043
 20
2.056299206598671
 30
0.0
 10
-170.7569245048552
 20
1.833097363926865
 30
0.0
 10
-171.2164867625599
 20
1.624959088002701
 30
0.0
 10
-171.649978819266
 20
1.356742933458357
 30
0.0
 10
-172.0304132544414
 20
1.025979463105516
 30
0.0
 10
-172.3945494042888
 20
0.7093623399828335
 30
0.0
 10
-172.710108197194
 20
0.3354895521446812
 30
0.0
 10
-172.9601563496911
 20
-0.0773297876619476
 30
0.0
 10
-173.2128856054063
 20
-0.4945588367022851
 30
0.0
 10
-173.3986931137605
 20
-0.951581101886587
 30
0.0
 10
-173.5209302537726
 20
-1.423878599864408
 30
0.0
 10
-173.6525865327133
 20
-1.93237099124799
 30
0.0
 10
-173.7105477509075
 20
-2.458572774919954
 30
0.0
 10
-173.7131935764444
 20
-2.983963172093523
 30
0.0
 10
-173.7161569010561
 20
-3.579273918906982
 30
0.0
 10
-173.6480357127831
 20
-4.173561613183228
 30
0.0
 10
-173.5383927023477
 20
-4.75832433550858
 30
0.0
  0
SPLINE
  5
58
330
1F
100
AcDbEntity
  8
0
 62
   250
370
    25
100
AcDbSpline
210
0.0
220
0.0
230
1.0
 70
     8
 71
     3
 72
     8
 73
     4
 74
     0
 42
0.0000000001
 43
0.0000000001
 12
1.0
 22
0.0
 32
0.0
 13
1.0
 23
0.0
 33
0.0
 40
0.0
 40
0.0
 40
0.0
 40
0.0
 40
1.0
 40
1.0
 40
1.0
 40
1.0
 10
-178.8398509784878
 20
-4.741426329715384
 30
0.0
 10
-177.0726864605498
 20
-4.745377429186663
 30
0.0
 10
-175.3055572202854
 20
-4.750316303533781
 30
0.0
 10
-173.5383927023477
 20
-4.75832433550858
 30
0.0
  0
SPLINE
  5
59
330
1F
100
AcDbEntity
  8
0
 62
   250
370
    25
100
AcDbSpline
210
0.0
220
0.0
230
1.0
 70
     8
 71
     3
 72
    32
 73
    28
 74
     0
 42
0.0000000001
 43
0.0000000001
 12
1.0
 22
0.0
 32
0.0
 13
1.0
 23
0.0
 33
0.0
 40
0.0
 40
0.0
 40
0.0
 40
0.0
 40
1.0
 40
1.0
 40
1.0
 40
2.0
 40
2.0
 40
2.0
 40
3.0
 40
3.0
 40
3.0
 40
4.0
 40
4.0
 40
4.0
 40
5.0
 40
5.0
 40
5.0
 40
6.0
 40
6.0
 40
6.0
 40
7.0
 40
7.0
 40
7.0
 40
8.0
 40
8.0
 40
8.0
 40
9.0
 40
9.0
 40
9.0
 40
9.0
 10
-178.8398509784878
 20
-4.741426329715384
 30
0.0
 10
-178.8359704343592
 20
-3.848019238568585
 30
0.0
 10
-178.7724353436941
 20
-2.950414104227216
 30
0.0
 10
-178.6125922033189
 20
-2.070271418466978
 30
0.0
 10
-178.4666837441283
 20
-1.266963506423292
 30
0.0
 10
-178.2405185768479
 20
-0.4781899960196123
 30
0.0
 10
-177.9378361349137
 20
0.2802799925164704
 30
0.0
 10
-177.6265459405486
 20
1.060234084446957
 30
0.0
 10
-177.2342934846183
 20
1.808191326162401
 30
0.0
 10
-176.764712367529
 20
2.504290387268074
 30
0.0
 10
-176.3140753613195
 20
3.172343697636399
 30
0.0
 10
-175.7922127315328
 20
3.792666315233731
 30
0.0
 10
-175.2105544445129
 20
4.350229950993693
 30
0.0
 10
-174.6169723037188
 20
4.919258830763096
 30
0.0
 10
-173.9611250685125
 20
5.422918180825707
 30
0.0
 10
-173.2630504576715
 20
5.857609678440438
 30
0.0
 10
-172.4981952101632
 20
6.333858275892745
 30
0.0
 10
-171.6826459452826
 20
6.72727489506066
 30
0.0
 10
-170.8375339896845
 20
7.040681749858196
 30
0.0
 10
-170.0995956073502
 20
7.314365943860501
 30
0.0
 10
-169.3391500690784
 20
7.527055039714556
 30
0.0
 10
-168.5633940203419
 20
7.657159101004302
 30
0.0
 10
-168.0986812222478
 20
7.735087482615782
 30
0.0
 10
-167.6285003847059
 20
7.783382618167973
 30
0.0
 10
-167.1585312132032
 20
7.81897779111833
 30
0.0
 10
-166.6547660301209
 20
7.857112956585525
 30
0.0
 10
-166.1512125130809
 20
7.880607887392662
 30
0.0
 10
-165.6450131705005
 20
7.879232058116277
 30
0.0
  0
SPLINE
  5
5A
330
1F
100
AcDbEntity
  8
0
 62
   250
370
    25
100
AcDbSpline
210
0.0
220
0.0
230
1.0
 70
     8
 71
     3
 72
    20
 73
    16
 74
     0
 42
0.0000000001
 43
0.0000000001
 12
1.0
 22
0.0
 32
0.0
 13
1.0
 23
0.0
 33
0.0
 40
0.0
 40
0.0
 40
0.0
 40
0.0
 40
1.0
 40
1.0
 40
1.0
 40
2.0
 40
2.0
 40
2.0
 40
3.0
 40
3.0
 40
3.0
 40
4.0
 40
4.0
 40
4.0
 40
5.0
 40
5.0
 40
5.0
 40
5.0
 10
-165.6031032939269
 20
2.217271232537212
 30
0.0
 10
-164.9538882614133
 20
2.221716219448014
 30
0.0
 10
-164.3046732289025
 20
2.223409547792573
 30
0.0
 10
-163.6554934740626
 20
2.225173431489072
 30
0.0
 10
-158.3814459505325
 20
2.239460889409959
 30
0.0
 10
-153.1074337046733
 20
2.258722499355058
 30
0.0
 10
-147.8334214588138
 20
2.278372163707438
 30
0.0
 10
-123.9954505503156
 20
2.36709551352775
 30
0.0
 10
-100.1575149194919
 20
2.463368285560429
 30
0.0
 10
-76.31950873331954
 20
2.543624993650249
 30
0.0
 10
-56.89911398176045
 20
2.609029801034453
 30
0.0
 10
-37.47868395253678
 20
2.663780750903763
 30
0.0
 10
-18.05825392330669
 20
2.708900895802127
 30
0.0
 10
25.75831037063087
 20
2.810747540305759
 30
0.0
 10
348.569734416076
 20
2.219317337621263
 30
0.0
 10
392.3864398207129
 20
2.217271232537212
 30
0.0
  0
SPLINE
  5
5B
330
1F
100
AcDbEntity
  8
0
 62
   250
370
    25
100
AcDbSpline
210
0.0
220
0.0
230
1.0
 70
     8
 71
     3
 72
     8
 73
     4
 74
     0
 42
0.0000000001
 43
0.0000000001
 12
1.0
 22
0.0
 32
0.0
 13
1.0
 23
0.0
 33
0.0
 40
0.0
 40
0.0
 40
0.0
 40
0.0
 40
1.0
 40
1.0
 40
1.0
 40
1.0
 10
-165.6450131705005
 20
7.879232058116277
 30
0.0
 10
-165.6367934724869
 20
5.991876505246696
 30
0.0
 10
-165.6228235136277
 20
4.104556230054851
 30
0.0
 10
-165.6031032939269
 20
2.217271232537212
 30
0.0
  0
SPLINE
  5
5C
330
1F
100
AcDbEntity
  8
0
 62
   250
370
    25
100
AcDbSpline
210
0.0
220
0.0
230
1.0
 70
     8
 71
     3
 72
    20
 73
    16
 74
     0
 42
0.0000000001
 43
0.0000000001
 12
1.0
 22
0.0
 32
0.0
 13
1.0
 23
0.0
 33
0.0
 40
0.0
 40
0.0
 40
0.0
 40
0.0
 40
1.0
 40
1.0
 40
1.0
 40
2.0
 40
2.0
 40
2.0
 40
3.0
 40
3.0
 40
3.0
 40
4.0
 40
4.0
 40
4.0
 40
5.0
 40
5.0
 40
5.0
 40
5.0
 10
-165.6450131705005
 20
7.879232058116277
 30
0.0
 10
-164.5770168712955
 20
7.880113999959554
 30
0.0
 10
-163.5090558497647
 20
7.886463981257584
 30
0.0
 10
-162.441094828234
 20
7.892778684884294
 30
0.0
 10
-153.1686757465375
 20
7.947423801734194
 30
0.0
 10
-143.8962213871661
 20
7.998011986083782
 30
0.0
 10
-134.6237670277951
 20
8.043590740744255
 30
0.0
 10
-124.5269792627452
 20
8.093191150227629
 30
0.0
 10
-114.4301209423488
 20
8.136794355149254
 30
0.0
 10
-104.3332978996244
 20
8.177328402443202
 30
0.0
 10
-79.88671656125805
 20
8.275400335843377
 30
0.0
 10
-55.44009994521431
 20
8.355268989523028
 30
0.0
 10
-30.99341277382536
 20
8.418839357862002
 30
0.0
 10
17.13482410005698
 20
8.544004544808157
 30
0.0
 10
344.2999364350337
 20
7.878491226966616
 30
0.0
 10
392.4283496972871
 20
7.879232058116277
 30
0.0
  0
SPLINE
  5
5D
330
1F
100
AcDbEntity
  8
0
 62
   250
370
    25
100
AcDbSpline
210
0.0
220
0.0
230
1.0
 70
     8
 71
     3
 72
     8
 73
     4
 74
     0
 42
0.0000000001
 43
0.0000000001
 12
1.0
 22
0.0
 32
0.0
 13
1.0
 23
0.0
 33
0.0
 40
0.0
 40
0.0
 40
0.0
 40
0.0
 40
1.0
 40
1.0
 40
1.0
 40
1.0
 10
-170.2652242862415
 20
-7.524940632291271
 30
0.0
 10
-168.9489084405579
 20
-4.387379594600963
 30
0.0
 10
-166.2479438948757
 20
-1.370679867646042
 30
0.0
 10
-163.1555030020866
 20
0.1354651412147251
 30
0.0
  0
SPLINE
  5
5E
330
1F
100
AcDbEntity
  8
0
 62
   250
370
    25
100
AcDbSpline
210
0.0
220
0.0
230
1.0
 70
     8
 71
     3
 72
     8
 73
     4
 74
     0
 42
0.0000000001
 43
0.0000000001
 12
1.0
 22
0.0
 32
0.0
 13
1.0
 23
0.0
 33
0.0
 40
0.0
 40
0.0
 40
0.0
 40
0.0
 40
1.0
 40
1.0
 40
1.0
 40
1.0
 10
-173.5383927023477
 20
-4.75832433550858
 30
0.0
 10
-172.4491592434613
 20
-5.682705224317167
 30
0.0
 10
-171.358126623211
 20
-6.604898897360922
 30
0.0
 10
-170.2652242862415
 20
-7.524940632291271
 30
0.0
  0
POLYLINE
  5
5F
330
1F
100
AcDbEntity
  8
0
 62
   250
370
    25
100
AcDb2dPolyline
 66
     1
 10
0.0
 20
0.0
 30
0.0
  0
VERTEX
  5
60
330
5F
100
AcDbEntity
  8
0
 62
   250
370
    25
100
AcDbVertex
100
AcDb2dVertex
 10
-170.2651890085673
 20
-98.64488743435233
 30
0.0
  0
VERTEX
  5
61
330
5F
100
AcDbEntity
  8
0
 62
   250
370
    25
100
AcDbVertex
100
AcDb2dVertex
 10
-170.2652242862415
 20
-7.524940632291271
 30
0.0
  0
SEQEND
  5
62
330
5F
100
AcDbEntity
  8
0
 62
   250
370
    25
  0
SPLINE
  5
63
330
1F
100
AcDbEntity
  8
0
 62
   250
370
    25
100
AcDbSpline
210
0.0
220
0.0
230
1.0
 70
     8
 71
     3
 72
    20
 73
    16
 74
     0
 42
0.0000000001
 43
0.0000000001
 12
1.0
 22
0.0
 32
0.0
 13
1.0
 23
0.0
 33
0.0
 40
0.0
 40
0.0
 40
0.0
 40
0.0
 40
1.0
 40
1.0
 40
1.0
 40
2.0
 40
2.0
 40
2.0
 40
3.0
 40
3.0
 40
3.0
 40
4.0
 40
4.0
 40
4.0
 40
5.0
 40
5.0
 40
5.0
 40
5.0
 10
-173.5138394413221
 20
-98.55803380343933
 30
0.0
 10
-173.5168733212755
 20
-82.1430856155526
 30
0.0
 10
-173.5140863850383
 20
-65.72812839108738
 30
0.0
 10
-173.5195544244927
 20
-49.31314451084511
 30
0.0
 10
-173.5217416402707
 20
-42.6690179666273
 30
0.0
 10
-173.525304685335
 20
-36.02485614473592
 30
0.0
 10
-173.5261160718328
 20
-29.38072960051874
 30
0.0
 10
-173.5265394039175
 20
-25.86322801508623
 30
0.0
 10
-173.5262219048557
 20
-22.3457264296537
 30
0.0
 10
-173.5289382857442
 20
-18.82826012189282
 30
0.0
 10
-173.5316193889617
 20
-15.3107938141345
 30
0.0
 10
-173.5373696498066
 20
-11.79329222869236
 30
0.0
 10
-173.5407915841674
 20
-8.2758259209411
 30
0.0
 10
-173.5419204697339
 20
-7.103337151685976
 30
0.0
 10
-173.5428024115804
 20
-5.930813104759854
 30
0.0
 10
-173.5383927023477
 20
-4.75832433550858
 30
0.0
  0
SPLINE
  5
64
330
1F
100
AcDbEntity
  8
0
 62
   250
370
    25
100
AcDbSpline
210
0.0
220
0.0
230
1.0
 70
     8
 71
     3
 72
     8
 73
     4
 74
     0
 42
0.0000000001
 43
0.0000000001
 12
1.0
 22
0.0
 32
0.0
 13
1.0
 23
0.0
 33
0.0
 40
0.0
 40
0.0
 40
0.0
 40
0.0
 40
1.0
 40
1.0
 40
1.0
 40
1.0
 10
-117.607651584549
 20
-123.0641632362509
 30
0.0
 10
-115.5633103828928
 20
-122.8031790114413
 30
0.0
 10
-113.515864745935
 20
-122.5822702231494
 30
0.0
 10
-111.4629157918514
 20
-122.4011546499975
 30
0.0
  0
SPLINE
  5
65
330
1F
100
AcDbEntity
  8
0
 62
   250
370
    25
100
AcDbSpline
210
0.0
220
0.0
230
1.0
 70
    24
 71
     3
 72
     8
 73
     4
 74
     0
 42
0.0000000001
 43
0.0000000001
 12
1.0
 22
0.0
 32
0.0
 13
1.0
 23
0.0
 33
0.0
 40
0.0
 40
0.0
 40
0.0
 40
0.0
 40
1.0
 40
1.0
 40
1.0
 40
1.0
 10
-111.4629157918514
 20
-122.4011546499975
 30
0.0
 10
-111.4169137051063
 20
-122.3969918845868
 30
0.0
 10
-111.3709116183582
 20
-122.3928291191724
 30
0.0
 10
-111.324909531613
 20
-122.3886663537585
 30
0.0
  0
SPLINE
  5
66
330
1F
100
AcDbEntity
  8
0
 62
   250
370
    25
100
AcDbSpline
210
0.0
220
0.0
230
1.0
 70
     8
 71
     3
 72
     8
 73
     4
 74
     0
 42
0.0000000001
 43
0.0000000001
 12
1.0
 22
0.0
 32
0.0
 13
1.0
 23
0.0
 33
0.0
 40
0.0
 40
0.0
 40
0.0
 40
0.0
 40
1.0
 40
1.0
 40
1.0
 40
1.0
 10
-173.5138394413221
 20
-98.92989575447349
 30
0.0
 10
-173.5598768057379
 20
-98.93024853120271
 30
0.0
 10
400.5426074704674
 20
-98.64453465762247
 30
0.0
 10
400.49660538372
 20
-98.64488743435233
 30
0.0
  0
SPLINE
  5
67
330
1F
100
AcDbEntity
  8
0
 62
   250
370
    25
100
AcDbSpline
210
0.0
220
0.0
230
1.0
 70
     8
 71
     3
 72
    29
 73
    25
 74
     0
 42
0.0000000001
 43
0.0000000001
 12
1.0
 22
0.0
 32
0.0
 13
1.0
 23
0.0
 33
0.0
 40
0.0
 40
0.0
 40
0.0
 40
0.0
 40
1.0
 40
1.0
 40
1.0
 40
2.0
 40
2.0
 40
2.0
 40
3.0
 40
3.0
 40
3.0
 40
4.0
 40
4.0
 40
4.0
 40
5.0
 40
5.0
 40
5.0
 40
6.0
 40
6.0
 40
6.0
 40
7.0
 40
7.0
 40
7.0
 40
8.0
 40
8.0
 40
8.0
 40
8.0
 10
-111.324909531613
 20
-122.3886663537585
 30
0.0
 10
-107.7880405032157
 20
-122.0704970210257
 30
0.0
 10
-104.24655009954
 20
-121.8063730833167
 30
0.0
 10
-100.7029430354313
 20
-121.5760451563397
 30
0.0
 10
-96.58191100516846
 20
-121.3082170629658
 30
0.0
 10
-92.45802148332001
 20
-121.0861088337881
 30
0.0
 10
-88.33289724288525
 20
-120.890988024459
 30
0.0
 10
-83.45953353934172
 20
-120.6604837091212
 30
0.0
 10
-78.58447650745299
 20
-120.467620670861
 30
0.0
 10
-73.70874919975981
 20
-120.2943367411101
 30
0.0
 10
-66.94319690202862
 20
-120.0538841219831
 30
0.0
 10
-60.17637460803724
 20
-119.8511433352886
 30
0.0
 10
-53.40902314893855
 20
-119.6670644376061
 30
0.0
 10
-47.38331422793181
 20
-119.5031643688757
 30
0.0
 10
-41.35721725251136
 20
-119.3540456451274
 30
0.0
 10
-35.33062638965813
 20
-119.227575187446
 30
0.0
 10
-29.0962500276199
 20
-119.0967655759823
 30
0.0
 10
-22.86137977814536
 20
-118.9902270035407
 30
0.0
 10
-16.62619202960553
 20
-118.9069011399277
 30
0.0
 10
-9.906959317688006
 20
-118.8171194621582
 30
0.0
 10
-3.187444384376189
 20
-118.7542546488826
 30
0.0
 10
3.532211659629243
 20
-118.7061711805917
 30
0.0
 10
11.16107919268263
 20
-118.6515260651221
 30
0.0
 10
18.79005255875574
 20
-118.6158956153988
 30
0.0
 10
26.41909648018048
 20
-118.5916598540516
 30
0.0
  0
SPLINE
  5
68
330
1F
100
AcDbEntity
  8
0
 62
   250
370
    25
100
AcDbSpline
210
0.0
220
0.0
230
1.0
 70
     8
 71
     3
 72
     8
 73
     4
 74
     0
 42
0.0000000001
 43
0.0000000001
 12
1.0
 22
0.0
 32
0.0
 13
1.0
 23
0.0
 33
0.0
 40
0.0
 40
0.0
 40
0.0
 40
0.0
 40
1.0
 40
1.0
 40
1.0
 40
1.0
 10
-173.5138394413221
 20
-98.55803380343933
 30
0.0
 10
-173.5190252593822
 20
-112.5020279418034
 30
0.0
 10
-173.5704953855786
 20
-355.1780576880706
 30
0.0
 10
-173.5523979388772
 20
-369.1220871041039
 30
0.0
  0
SPLINE
  5
69
330
1F
100
AcDbEntity
  8
0
 62
   250
370
    25
100
AcDbSpline
210
0.0
220
0.0
230
1.0
 70
     8
 71
     3
 72
     8
 73
     4
 74
     0
 42
0.0000000001
 43
0.0000000001
 12
1.0
 22
0.0
 32
0.0
 13
1.0
 23
0.0
 33
0.0
 40
0.0
 40
0.0
 40
0.0
 40
0.0
 40
1.0
 40
1.0
 40
1.0
 40
1.0
 10
-163.1555030020866
 20
0.1354651412147251
 30
0.0
 10
-163.9722517078789
 20
0.8283539339958942
 30
0.0
 10
-164.7880831941505
 20
1.522336334669105
 30
0.0
 10
-165.6031032939269
 20
2.217271232537212
 30
0.0
  0
POLYLINE
  5
6A
330
1F
100
AcDbEntity
  8
0
 62
   250
370
    25
100
AcDb2dPolyline
 66
     1
 10
0.0
 20
0.0
 30
0.0
  0
VERTEX
  5
6B
330
6A
100
AcDbEntity
  8
0
 62
   250
370
    25
100
AcDbVertex
100
AcDb2dVertex
 10
389.9388748065468
 20
0.1354651412147251
 30
0.0
  0
VERTEX
  5
6C
330
6A
100
AcDbEntity
  8
0
 62
   250
370
    25
100
AcDbVertex
100
AcDb2dVertex
 10
-163.1555030020866
 20
0.1354651412147251
 30
0.0
  0
SEQEND
  5
6D
330
6A
100
AcDbEntity
  8
0
 62
   250
370
    25
  0
SPLINE
  5
6E
330
1F
100
AcDbEntity
  8
0
 62
   250
370
    25
100
AcDbSpline
210
0.0
220
0.0
230
1.0
 70
     8
 71
     3
 72
     8
 73
     4
 74
     0
 42
0.0000000001
 43
0.0000000001
 12
1.0
 22
0.0
 32
0.0
 13
1.0
 23
0.0
 33
0.0
 40
0.0
 40
0.0
 40
0.0
 40
0.0
 40
1.0
 40
1.0
 40
1.0
 40
1.0
 10
389.9388748065468
 20
0.1354651412147251
 30
0.0
 10
390.7556235123417
 20
0.8283539339958942
 30
0.0
 10
391.5714197209381
 20
1.522336334669105
 30
0.0
 10
392.3864398207129
 20
2.217271232537212
 30
0.0
  0
SPLINE
  5
6F
330
1F
100
AcDbEntity
  8
0
 62
   250
370
    25
100
AcDbSpline
210
0.0
220
0.0
230
1.0
 70
     8
 71
     3
 72
     8
 73
     4
 74
     0
 42
0.0000000001
 43
0.0000000001
 12
1.0
 22
0.0
 32
0.0
 13
1.0
 23
0.0
 33
0.0
 40
0.0
 40
0.0
 40
0.0
 40
0.0
 40
1.0
 40
1.0
 40
1.0
 40
1.0
 10
397.0485608130275
 20
-7.524940632291271
 30
0.0
 10
395.7322802450226
 20
-4.387379594600963
 30
0.0
 10
393.031315699334
 20
-1.370679867646042
 30
0.0
 10
389.9388748065468
 20
0.1354651412147251
 30
0.0
  0
SPLINE
  5
70
330
1F
100
AcDbEntity
  8
0
 62
   250
370
    25
100
AcDbSpline
210
0.0
220
0.0
230
1.0
 70
     8
 71
     3
 72
     8
 73
     4
 74
     0
 42
0.0000000001
 43
0.0000000001
 12
1.0
 22
0.0
 32
0.0
 13
1.0
 23
0.0
 33
0.0
 40
0.0
 40
0.0
 40
0.0
 40
0.0
 40
1.0
 40
1.0
 40
1.0
 40
1.0
 10
400.3217292291314
 20
-4.75832433550858
 30
0.0
 10
399.2325310479244
 20
-5.682705224317167
 30
0.0
 10
398.1414631499992
 20
-6.604898897360922
 30
0.0
 10
397.0485608130275
 20
-7.524940632291271
 30
0.0
  0
POLYLINE
  5
71
330
1F
100
AcDbEntity
  8
0
 62
   250
370
    25
100
AcDb2dPolyline
 66
     1
 10
0.0
 20
0.0
 30
0.0
  0
VERTEX
  5
72
330
71
100
AcDbEntity
  8
0
 62
   250
370
    25
100
AcDbVertex
100
AcDb2dVertex
 10
397.0485608130275
 20
-7.524940632291271
 30
0.0
  0
VERTEX
  5
73
330
71
100
AcDbEntity
  8
0
 62
   250
370
    25
100
AcDbVertex
100
AcDb2dVertex
 10
397.0485255353591
 20
-98.64488743435233
 30
0.0
  0
SEQEND
  5
74
330
71
100
AcDbEntity
  8
0
 62
   250
370
    25
  0
POLYLINE
  5
75
330
1F
100
AcDbEntity
  8
0
 62
   250
370
    25
100
AcDb2dPolyline
 66
     1
 10
0.0
 20
0.0
 30
0.0
  0
VERTEX
  5
76
330
75
100
AcDbEntity
  8
0
 62
   250
370
    25
100
AcDbVertex
100
AcDb2dVertex
 10
400.3217292291314
 20
-4.75832433550858
 30
0.0
  0
VERTEX
  5
77
330
75
100
AcDbEntity
  8
0
 62
   250
370
    25
100
AcDbVertex
100
AcDb2dVertex
 10
400.49660538372
 20
-98.64488743435233
 30
0.0
  0
SEQEND
  5
78
330
75
100
AcDbEntity
  8
0
 62
   250
370
    25
  0
SPLINE
  5
79
330
1F
100
AcDbEntity
  8
0
 62
   250
370
    25
100
AcDbSpline
210
0.0
220
0.0
230
1.0
 70
     8
 71
     3
 72
     8
 73
     4
 74
     0
 42
0.0000000001
 43
0.0000000001
 12
1.0
 22
0.0
 32
0.0
 13
1.0
 23
0.0
 33
0.0
 40
0.0
 40
0.0
 40
0.0
 40
0.0
 40
1.0
 40
1.0
 40
1.0
 40
1.0
 10
392.3864398207129
 20
2.217271232537212
 30
0.0
 10
392.4061600404118
 20
4.104556230054851
 30
0.0
 10
392.4201299992741
 20
5.991876505246696
 30
0.0
 10
392.4283496972871
 20
7.879232058116277
 30
0.0
  0
SPLINE
  5
7A
330
1F
100
AcDbEntity
  8
0
 62
   250
370
    25
100
AcDbSpline
210
0.0
220
0.0
230
1.0
 70
     8
 71
     3
 72
    29
 73
    25
 74
     0
 42
0.0000000001
 43
0.0000000001
 12
1.0
 22
0.0
 32
0.0
 13
1.0
 23
0.0
 33
0.0
 40
0.0
 40
0.0
 40
0.0
 40
0.0
 40
1.0
 40
1.0
 40
1.0
 40
2.0
 40
2.0
 40
2.0
 40
3.0
 40
3.0
 40
3.0
 40
4.0
 40
4.0
 40
4.0
 40
5.0
 40
5.0
 40
5.0
 40
6.0
 40
6.0
 40
6.0
 40
7.0
 40
7.0
 40
7.0
 40
8.0
 40
8.0
 40
8.0
 40
8.0
 10
400.3217292291314
 20
-4.75832433550858
 30
0.0
 10
400.4313722395681
 20
-4.173561613183228
 30
0.0
 10
400.4994934278437
 20
-3.579273918906982
 30
0.0
 10
400.4965301032386
 20
-2.983963172093523
 30
0.0
 10
400.4939195553673
 20
-2.458572774919954
 30
0.0
 10
400.4359230594984
 20
-1.93237099124799
 30
0.0
 10
400.304302058236
 20
-1.423878599864408
 30
0.0
 10
400.1820296405478
 20
-0.951581101886587
 30
0.0
 10
399.9962221321896
 20
-0.4945588367022851
 30
0.0
 10
399.7435281541519
 20
-0.0773297876619476
 30
0.0
 10
399.4934800016538
 20
0.3354895521446812
 30
0.0
 10
399.1778859310729
 20
0.7093623399828335
 30
0.0
 10
398.8137497812273
 20
1.025979463105516
 30
0.0
 10
398.433315346052
 20
1.356742933458357
 30
0.0
 10
397.9998585670213
 20
1.624959088002701
 30
0.0
 10
397.5402610316409
 20
1.833097363926865
 30
0.0
 10
397.0473966497935
 20
2.056299206598671
 30
0.0
 10
396.5244756897851
 20
2.210321530780249
 30
0.0
 10
395.9919239248129
 20
2.305112640510397
 30
0.0
 10
395.4414863791851
 20
2.403078740891485
 30
0.0
 10
394.8807477527764
 20
2.437791971995036
 30
0.0
 10
394.321773010064
 20
2.424457011262629
 30
0.0
 10
393.6725579775547
 20
2.408934834756085
 30
0.0
 10
393.0257065491891
 20
2.328607571321063
 30
0.0
 10
392.3864398207129
 20
2.217271232537212
 30
0.0
  0
SPLINE
  5
7B
330
1F
100
AcDbEntity
  8
0
 62
   250
370
    25
100
AcDbSpline
210
0.0
220
0.0
230
1.0
 70
     8
 71
     3
 72
     8
 73
     4
 74
     0
 42
0.0000000001
 43
0.0000000001
 12
1.0
 22
0.0
 32
0.0
 13
1.0
 23
0.0
 33
0.0
 40
0.0
 40
0.0
 40
0.0
 40
0.0
 40
1.0
 40
1.0
 40
1.0
 40
1.0
 10
405.6231875052732
 20
-4.741426329715384
 30
0.0
 10
403.8560582650068
 20
-4.745377429186663
 30
0.0
 10
402.0888937470694
 20
-4.750316303533781
 30
0.0
 10
400.3217292291314
 20
-4.75832433550858
 30
0.0
  0
SPLINE
  5
7C
330
1F
100
AcDbEntity
  8
0
 62
   250
370
    25
100
AcDbSpline
210
0.0
220
0.0
230
1.0
 70
     8
 71
     3
 72
    32
 73
    28
 74
     0
 42
0.0000000001
 43
0.0000000001
 12
1.0
 22
0.0
 32
0.0
 13
1.0
 23
0.0
 33
0.0
 40
0.0
 40
0.0
 40
0.0
 40
0.0
 40
1.0
 40
1.0
 40
1.0
 40
2.0
 40
2.0
 40
2.0
 40
3.0
 40
3.0
 40
3.0
 40
4.0
 40
4.0
 40
4.0
 40
5.0
 40
5.0
 40
5.0
 40
6.0
 40
6.0
 40
6.0
 40
7.0
 40
7.0
 40
7.0
 40
8.0
 40
8.0
 40
8.0
 40
9.0
 40
9.0
 40
9.0
 40
9.0
 10
405.6231875052732
 20
-4.741426329715384
 30
0.0
 10
405.6193069611451
 20
-3.848019238568585
 30
0.0
 10
405.5557718704785
 20
-2.950414104227216
 30
0.0
 10
405.3959287301049
 20
-2.070271418466978
 30
0.0
 10
405.2500202709181
 20
-1.266963506423292
 30
0.0
 10
405.0238903813116
 20
-0.4781899960196123
 30
0.0
 10
404.7211726616997
 20
0.2802799925164704
 30
0.0
 10
404.4098824673384
 20
1.060234084446957
 30
0.0
 10
404.0176652890797
 20
1.808191326162401
 30
0.0
 10
403.5480841719946
 20
2.504290387268074
 30
0.0
 10
403.0974118881073
 20
3.172343697636399
 30
0.0
 10
402.5755492583207
 20
3.792666315233731
 30
0.0
 10
401.9938909712972
 20
4.350229950993693
 30
0.0
 10
401.4003088305038
 20
4.919258830763096
 30
0.0
 10
400.7444615953004
 20
5.422918180825707
 30
0.0
 10
400.0463869844619
 20
5.857609678440438
 30
0.0
 10
399.2815317369491
 20
6.333858275892745
 30
0.0
 10
398.4659824720702
 20
6.72727489506066
 30
0.0
 10
397.620870516473
 20
7.040681749858196
 30
0.0
 10
396.8829674118142
 20
7.314365943860501
 30
0.0
 10
396.1225218735431
 20
7.527055039714556
 30
0.0
 10
395.3467305471304
 20
7.657159101004302
 30
0.0
 10
394.8820530267085
 20
7.735087482615782
 30
0.0
 10
394.4118369114929
 20
7.783382618167973
 30
0.0
 10
393.9419030176637
 20
7.81897779111833
 30
0.0
 10
393.4381025569062
 20
7.857112956585525
 30
0.0
 10
392.9345843175456
 20
7.880607887392662
 30
0.0
 10
392.4283496972871
 20
7.879232058116277
 30
0.0
  0
SPLINE
  5
7D
330
1F
100
AcDbEntity
  8
0
 62
   250
370
    25
100
AcDbSpline
210
0.0
220
0.0
230
1.0
 70
     8
 71
     3
 72
    17
 73
    13
 74
     0
 42
0.0000000001
 43
0.0000000001
 12
1.0
 22
0.0
 32
0.0
 13
1.0
 23
0.0
 33
0.0
 40
0.0
 40
0.0
 40
0.0
 40
0.0
 40
1.0
 40
1.0
 40
1.0
 40
2.0
 40
2.0
 40
2.0
 40
3.0
 40
3.0
 40
3.0
 40
4.0
 40
4.0
 40
4.0
 40
4.0
 10
400.3357697433415
 20
-369.1220871041039
 30
0.0
 10
400.327020880218
 20
-366.7342825298162
 30
0.0
 10
400.3237400565445
 20
-364.3464779555395
 30
0.0
 10
400.3192950696375
 20
-361.9586733812588
 30
0.0
 10
400.3140034185509
 20
-359.1177976527167
 30
0.0
 10
400.3070889944739
 20
-356.2769219241642
 30
0.0
 10
400.3022206754713
 20
-353.436046195622
 30
0.0
 10
400.2919548723775
 20
-347.4516123042425
 30
0.0
 10
400.2907907091364
 20
-341.4671431351863
 30
0.0
 10
400.2895912682237
 20
-335.4827092438003
 30
0.0
 10
400.2804190730162
 20
-290.4517474416132
 30
0.0
 10
400.3223995049298
 20
-143.6758492365357
 30
0.0
 10
400.3217292291314
 20
-98.64488743435233
 30
0.0
  0
SPLINE
  5
7E
330
1F
100
AcDbEntity
  8
0
 62
   250
370
    25
100
AcDbSpline
210
0.0
220
0.0
230
1.0
 70
     8
 71
     3
 72
    68
 73
    64
 74
     0
 42
0.0000000001
 43
0.0000000001
 12
1.0
 22
0.0
 32
0.0
 13
1.0
 23
0.0
 33
0.0
 40
0.0
 40
0.0
 40
0.0
 40
0.0
 40
1.0
 40
1.0
 40
1.0
 40
2.0
 40
2.0
 40
2.0
 40
3.0
 40
3.0
 40
3.0
 40
4.0
 40
4.0
 40
4.0
 40
5.0
 40
5.0
 40
5.0
 40
6.0
 40
6.0
 40
6.0
 40
7.0
 40
7.0
 40
7.0
 40
8.0
 40
8.0
 40
8.0
 40
9.0
 40
9.0
 40
9.0
 40
10.0
 40
10.0
 40
10.0
 40
11.0
 40
11.0
 40
11.0
 40
12.0
 40
12.0
 40
12.0
 40
13.0
 40
13.0
 40
13.0
 40
14.0
 40
14.0
 40
14.0
 40
15.0
 40
15.0
 40
15.0
 40
16.0
 40
16.0
 40
16.0
 40
17.0
 40
17.0
 40
17.0
 40
18.0
 40
18.0
 40
18.0
 40
19.0
 40
19.0
 40
19.0
 40
20.0
 40
20.0
 40
20.0
 40
21.0
 40
21.0
 40
21.0
 40
21.0
 10
357.8791245000018
 20
-408.9609159069008
 30
0.0
 10
361.7985093463407
 20
-408.925885176739
 30
0.0
 10
365.7178589149977
 20
-408.8907486135508
 30
0.0
 10
369.6372790390129
 20
-408.857446489402
 30
0.0
 10
371.7812091140441
 20
-408.8392079320056
 30
0.0
 10
373.9251391890791
 20
-408.8215338173889
 30
0.0
 10
376.0690692641103
 20
-408.8036480367263
 30
0.0
 10
376.4108040910385
 20
-408.8007905451406
 30
0.0
 10
376.7525036402977
 20
-408.7978977758833
 30
0.0
 10
377.0942384672188
 20
-408.7948286182518
 30
0.0
 10
377.4360791271703
 20
-408.7917594606209
 30
0.0
 10
377.7779197871173
 20
-408.7884786369506
 30
0.0
 10
378.1197957247442
 20
-408.7869264193047
 30
0.0
 10
379.0229041762033
 20
-408.782763653787
 30
0.0
 10
379.9259773499979
 20
-408.7905952973869
 30
0.0
 10
380.8290858014608
 20
-408.8010022111865
 30
0.0
 10
381.686968275005
 20
-408.810879959875
 30
0.0
 10
382.5448507485486
 20
-408.8231565903863
 30
0.0
 10
383.4026979444173
 20
-408.8115855133527
 30
0.0
 10
383.9299227806345
 20
-408.8044594232227
 30
0.0
 10
384.4571123391762
 20
-408.7883375262634
 30
0.0
 10
384.9837374549428
 20
-408.7616323271263
 30
0.0
 10
385.5717104455882
 20
-408.7318226926963
 30
0.0
 10
386.1589778827558
 20
-408.6888192082294
 30
0.0
 10
386.7443050478614
 20
-408.6257074496474
 30
0.0
 10
387.6712259292003
 20
-408.5257657995294
 30
0.0
 10
388.593313769216
 20
-408.3753065204124
 30
0.0
 10
389.4997383220248
 20
-408.1573963288189
 30
0.0
 10
390.3154992529489
 20
-407.9612877396915
 30
0.0
 10
391.1185602212713
 20
-407.7104987560435
 30
0.0
 10
391.894845435119
 20
-407.391729694809
 30
0.0
 10
393.3523425316932
 20
-406.7932086796762
 30
0.0
 10
394.7154365729529
 20
-405.9550111481553
 30
0.0
 10
395.8694045634142
 20
-404.8830284718055
 30
0.0
 10
396.469724739918
 20
-404.3253590030252
 30
0.0
 10
397.0134595275115
 20
-403.7044366649679
 30
0.0
 10
397.4928125602664
 20
-403.0393466792092
 30
0.0
 10
398.0182029574403
 20
-402.3103688260442
 30
0.0
 10
398.4662646934632
 20
-401.5282980736781
 30
0.0
 10
398.8374916557561
 20
-400.7107379813861
 30
0.0
 10
399.2165855393245
 20
-399.8758212735459
 30
0.0
 10
399.5155638255027
 20
-399.0038982857884
 30
0.0
 10
399.7469853661958
 20
-398.1159592340934
 30
0.0
 10
399.9847568881831
 20
-397.2035727544003
 30
0.0
 10
400.1511969535723
 20
-396.2743235465863
 30
0.0
 10
400.2640502323309
 20
-395.3387596351503
 30
0.0
 10
400.4270683633522
 20
-393.9869897272062
 30
0.0
 10
400.4782209904914
 20
-392.6220965245825
 30
0.0
 10
400.4806904276614
 20
-391.2607663670216
 30
0.0
 10
400.4812901481158
 20
-390.9457367392304
 30
0.0
 10
400.4792440430343
 20
-390.6308834998026
 30
0.0
 10
400.475680997971
 20
-390.3158891496799
 30
0.0
 10
400.4692957389981
 20
-389.7497177614898
 30
0.0
 10
400.4580068833542
 20
-389.183087763551
 30
0.0
 10
400.449857740689
 20
-388.616598876293
 30
0.0
 10
400.442661095212
 20
-388.115762632527
 30
0.0
 10
400.4378986092359
 20
-387.6150666197199
 30
0.0
 10
400.4335241776728
 20
-387.1143353292335
 30
0.0
 10
400.4222705997077
 20
-385.8314980284787
 30
0.0
 10
400.4134159035616
 20
-384.5485196170284
 30
0.0
 10
400.4051256502015
 20
-383.2655412055749
 30
0.0
 10
400.3746457399596
 20
-378.5511035419813
 30
0.0
 10
400.352068028679
 20
-373.8365953230445
 30
0.0
 10
400.3357697433415
 20
-369.1220871041039
 30
0.0
  0
SPLINE
  5
7F
330
1F
100
AcDbEntity
  8
0
 62
   250
370
    25
100
AcDbSpline
210
0.0
220
0.0
230
1.0
 70
     8
 71
     3
 72
    56
 73
    52
 74
     0
 42
0.0000000001
 43
0.0000000001
 12
1.0
 22
0.0
 32
0.0
 13
1.0
 23
0.0
 33
0.0
 40
0.0
 40
0.0
 40
0.0
 40
0.0
 40
1.0
 40
1.0
 40
1.0
 40
2.0
 40
2.0
 40
2.0
 40
3.0
 40
3.0
 40
3.0
 40
4.0
 40
4.0
 40
4.0
 40
5.0
 40
5.0
 40
5.0
 40
6.0
 40
6.0
 40
6.0
 40
7.0
 40
7.0
 40
7.0
 40
8.0
 40
8.0
 40
8.0
 40
9.0
 40
9.0
 40
9.0
 40
10.0
 40
10.0
 40
10.0
 40
11.0
 40
11.0
 40
11.0
 40
12.0
 40
12.0
 40
12.0
 40
13.0
 40
13.0
 40
13.0
 40
14.0
 40
14.0
 40
14.0
 40
15.0
 40
15.0
 40
15.0
 40
16.0
 40
16.0
 40
16.0
 40
17.0
 40
17.0
 40
17.0
 40
17.0
 10
357.9814297542698
 20
-414.5649860696383
 30
0.0
 10
361.7468275540975
 20
-414.4963004385799
 30
0.0
 10
365.51201368788
 20
-414.416572895599
 30
0.0
 10
369.276952877945
 20
-414.3258034406924
 30
0.0
 10
371.3303957194658
 20
-414.2763088642365
 30
0.0
 10
373.3837680056324
 20
-414.2234981864244
 30
0.0
 10
375.4370344587828
 20
-414.1678300170337
 30
0.0
 10
376.5536433926008
 20
-414.1375264951687
 30
0.0
 10
377.6702170487503
 20
-414.1064115868002
 30
0.0
 10
378.7867201495418
 20
-414.0731800180023
 30
0.0
 10
379.2994105841209
 20
-414.0579400628827
 30
0.0
 10
379.8120657410207
 20
-414.0422414980035
 30
0.0
 10
380.3246503425734
 20
-414.0225918336486
 30
0.0
 10
381.4313109723551
 20
-413.9801527919645
 30
0.0
 10
382.537477714705
 20
-413.9191929714937
 30
0.0
 10
383.6400814119916
 20
-413.8166760511799
 30
0.0
 10
384.578996702452
 20
-413.7293990859856
 30
0.0
 10
385.5153367227167
 20
-413.6119597096206
 30
0.0
 10
386.4453267616832
 20
-413.4553621152483
 30
0.0
 10
387.6294924409933
 20
-413.2559727024505
 30
0.0
 10
388.8033217618516
 20
-412.9930834766519
 30
0.0
 10
389.9539030956238
 20
-412.6500080981199
 30
0.0
 10
391.0241571659574
 20
-412.3309215378234
 30
0.0
 10
392.0742676845004
 20
-411.9424437930016
 30
0.0
 10
393.0887124747446
 20
-411.4746618372798
 30
0.0
 10
395.0444008819309
 20
-410.5728586597529
 30
0.0
 10
396.8674099576261
 20
-409.3762399615609
 30
0.0
 10
398.433385901403
 20
-407.898493480178
 30
0.0
 10
399.1858586853747
 20
-407.188424460211
 30
0.0
 10
399.8790296995499
 20
-406.4134445203024
 30
0.0
 10
400.5054200770532
 20
-405.5895697243809
 30
0.0
 10
401.1839155788876
 20
-404.6972209634474
 30
0.0
 10
401.7840946447037
 20
-403.7475107047826
 30
0.0
 10
402.30278228384
 20
-402.7545500179321
 30
0.0
 10
402.8609809177277
 20
-401.6859539982714
 30
0.0
 10
403.324776496295
 20
-400.5672636816932
 30
0.0
 10
403.7030237156978
 20
-399.4216212222638
 30
0.0
 10
404.0807417699862
 20
-398.2776015358386
 30
0.0
 10
404.373158408818
 20
-397.10670026191
 30
0.0
 10
404.5940319250166
 20
-395.9234165244473
 30
0.0
 10
404.9724202551104
 20
-393.8962908276467
 30
0.0
 10
405.1408711479165
 20
-391.8328996820935
 30
0.0
 10
405.2185878634843
 20
-389.7706726997839
 30
0.0
 10
405.2439525110067
 20
-389.0978216257698
 30
0.0
 10
405.2596510758891
 20
-388.4250763847713
 30
0.0
 10
405.2751732523908
 20
-387.7522614899941
 30
0.0
 10
405.3367327933302
 20
-385.0889382896239
 30
0.0
 10
405.3959640077765
 20
-382.4245920367428
 30
0.0
 10
405.449903571151
 20
-379.7602105061862
 30
0.0
 10
405.5211644724014
 20
-376.239498741368
 30
0.0
 10
405.5831826230894
 20
-372.7187516988782
 30
0.0
 10
405.633523863725
 20
-369.1978282680212
 30
0.0
  0
SPLINE
  5
80
330
1F
100
AcDbEntity
  8
0
 62
   250
370
    25
100
AcDbSpline
210
0.0
220
0.0
230
1.0
 70
     8
 71
     3
 72
     8
 73
     4
 74
     0
 42
0.0000000001
 43
0.0000000001
 12
1.0
 22
0.0
 32
0.0
 13
1.0
 23
0.0
 33
0.0
 40
0.0
 40
0.0
 40
0.0
 40
0.0
 40
1.0
 40
1.0
 40
1.0
 40
1.0
 10
405.633523863725
 20
-369.1978282680212
 30
0.0
 10
405.6336649744199
 20
-337.9249382703256
 30
0.0
 10
405.6322891451335
 20
-36.01434339791817
 30
0.0
 10
405.6231875052732
 20
-4.741426329715384
 30
0.0
  0
SPLINE
  5
81
330
1F
100
AcDbEntity
  8
0
 62
   250
370
    25
100
AcDbSpline
210
0.0
220
0.0
230
1.0
 70
     8
 71
     3
 72
    20
 73
    16
 74
     0
 42
0.0000000001
 43
0.0000000001
 12
1.0
 22
0.0
 32
0.0
 13
1.0
 23
0.0
 33
0.0
 40
0.0
 40
0.0
 40
0.0
 40
0.0
 40
1.0
 40
1.0
 40
1.0
 40
2.0
 40
2.0
 40
2.0
 40
3.0
 40
3.0
 40
3.0
 40
4.0
 40
4.0
 40
4.0
 40
5.0
 40
5.0
 40
5.0
 40
5.0
 10
357.9814297542698
 20
-414.5649860696383
 30
0.0
 10
341.0790495316256
 20
-414.5648096812679
 30
0.0
 10
79.58696073462798
 20
-415.9681908260973
 30
0.0
 10
62.6845805119822
 20
-415.9557025295407
 30
0.0
 10
50.2353010638903
 20
-415.9464597789854
 30
0.0
 10
37.78598633812388
 20
-415.9316431559536
 30
0.0
 10
25.33670689002847
 20
-415.9071251726039
 30
0.0
 10
5.929435433159111
 20
-415.8688488964408
 30
0.0
 10
-13.47776546836151
 20
-415.80697185644
 30
0.0
 10
-32.88471942616269
 20
-415.6952474632463
 30
0.0
 10
-50.1144411847874
 20
-415.5960466442846
 30
0.0
 10
-67.34395127736687
 20
-415.4575817742854
 30
0.0
 10
-84.57275581646769
 20
-415.2582276391567
 30
0.0
 10
-100.1152522661757
 20
-415.0784173353629
 30
0.0
 10
-115.6571842731019
 20
-414.8490771774377
 30
0.0
 10
-131.1980932274848
 20
-414.5649860696383
 30
0.0
  0
SPLINE
  5
82
330
1F
100
AcDbEntity
  8
0
 62
   250
370
    25
100
AcDbSpline
210
0.0
220
0.0
230
1.0
 70
     8
 71
     3
 72
    17
 73
    13
 74
     0
 42
0.0000000001
 43
0.0000000001
 12
1.0
 22
0.0
 32
0.0
 13
1.0
 23
0.0
 33
0.0
 40
0.0
 40
0.0
 40
0.0
 40
0.0
 40
1.0
 40
1.0
 40
1.0
 40
2.0
 40
2.0
 40
2.0
 40
3.0
 40
3.0
 40
3.0
 40
4.0
 40
4.0
 40
4.0
 40
4.0
 10
-131.0957879732193
 20
-408.9609159069008
 30
0.0
 10
-119.2496509155412
 20
-409.0791666697693
 30
0.0
 10
-107.403478580192
 20
-409.1950538284808
 30
0.0
 10
-95.55727096716856
 20
-409.3037796193978
 30
0.0
 10
-85.62801687539951
 20
-409.3949018510414
 30
0.0
 10
-75.69869222828558
 20
-409.4810499306706
 30
0.0
 10
-65.76933230349422
 20
-409.5602130308687
 30
0.0
 10
-46.62717256587374
 20
-409.7128595257691
 30
0.0
 10
-27.48483643988544
 20
-409.839647485712
 30
0.0
 10
-8.34232392552547
 20
-409.9412471865101
 30
0.0
 10
32.23529129598026
 20
-410.1565821079039
 30
0.0
 10
317.3009448357123
 20
-408.9607395185304
 30
0.0
 10
357.8791245000018
 20
-408.9609159069008
 30
0.0
  0
SPLINE
  5
83
330
1F
100
AcDbEntity
  8
0
 62
   250
370
    25
100
AcDbSpline
210
0.0
220
0.0
230
1.0
 70
     8
 71
     3
 72
     8
 73
     4
 74
     0
 42
0.0000000001
 43
0.0000000001
 12
1.0
 22
0.0
 32
0.0
 13
1.0
 23
0.0
 33
0.0
 40
0.0
 40
0.0
 40
0.0
 40
0.0
 40
1.0
 40
1.0
 40
1.0
 40
1.0
 10
-178.8532564945654
 20
-98.56015046382046
 30
0.0
 10
-178.853397605259
 20
-67.28726046612096
 30
0.0
 10
-178.8489173406772
 20
-36.01434339791817
 30
0.0
 10
-178.8398509784878
 20
-4.741426329715384
 30
0.0
  0
SPLINE
  5
84
330
1F
100
AcDbEntity
  8
0
 62
   250
370
    25
100
AcDbSpline
210
0.0
220
0.0
230
1.0
 70
     8
 71
     3
 72
     8
 73
     4
 74
     0
 42
0.0000000001
 43
0.0000000001
 12
1.0
 22
0.0
 32
0.0
 13
1.0
 23
0.0
 33
0.0
 40
0.0
 40
0.0
 40
0.0
 40
0.0
 40
1.0
 40
1.0
 40
1.0
 40
1.0
 10
-178.8501520592635
 20
-369.1978282680212
 30
0.0
 10
-178.8060902445792
 20
-355.2599724447604
 30
0.0
 10
-178.8489878960228
 20
-112.4979710094058
 30
0.0
 10
-178.8532564945654
 20
-98.56015046382046
 30
0.0
  0
SPLINE
  5
85
330
1F
100
AcDbEntity
  8
0
 62
   250
370
    25
100
AcDbSpline
210
0.0
220
0.0
230
1.0
 70
     8
 71
     3
 72
    68
 73
    64
 74
     0
 42
0.0000000001
 43
0.0000000001
 12
1.0
 22
0.0
 32
0.0
 13
1.0
 23
0.0
 33
0.0
 40
0.0
 40
0.0
 40
0.0
 40
0.0
 40
1.0
 40
1.0
 40
1.0
 40
2.0
 40
2.0
 40
2.0
 40
3.0
 40
3.0
 40
3.0
 40
4.0
 40
4.0
 40
4.0
 40
5.0
 40
5.0
 40
5.0
 40
6.0
 40
6.0
 40
6.0
 40
7.0
 40
7.0
 40
7.0
 40
8.0
 40
8.0
 40
8.0
 40
9.0
 40
9.0
 40
9.0
 40
10.0
 40
10.0
 40
10.0
 40
11.0
 40
11.0
 40
11.0
 40
12.0
 40
12.0
 40
12.0
 40
13.0
 40
13.0
 40
13.0
 40
14.0
 40
14.0
 40
14.0
 40
15.0
 40
15.0
 40
15.0
 40
16.0
 40
16.0
 40
16.0
 40
17.0
 40
17.0
 40
17.0
 40
18.0
 40
18.0
 40
18.0
 40
19.0
 40
19.0
 40
19.0
 40
20.0
 40
20.0
 40
20.0
 40
21.0
 40
21.0
 40
21.0
 40
21.0
 10
-173.5523979388772
 20
-369.1220871041039
 30
0.0
 10
-173.5687315018885
 20
-373.8365953230445
 30
0.0
 10
-173.5912386578262
 20
-378.5511035419813
 30
0.0
 10
-173.6217185680645
 20
-383.2655412055749
 30
0.0
 10
-173.6300440991014
 20
-384.5484843393529
 30
0.0
 10
-173.6389340729192
 20
-385.8314627508064
 30
0.0
 10
-173.6502229285646
 20
-387.1144058845845
 30
0.0
 10
-173.6546326377974
 20
-387.6151724527393
 30
0.0
 10
-173.6594304014473
 20
-388.1159037432149
 30
0.0
 10
-173.6666623245919
 20
-388.6166341539717
 30
0.0
 10
-173.6748114672603
 20
-389.1830172081968
 30
0.0
 10
-173.6861003229054
 20
-389.7494002624322
 30
0.0
 10
-173.6923797488544
 20
-390.3157127613134
 30
0.0
 10
-173.69587223857
 20
-390.6307776667762
 30
0.0
 10
-173.6978125106343
 20
-390.9458425722498
 30
0.0
 10
-173.6972127901786
 20
-391.2610133107397
 30
0.0
 10
-173.6945316869582
 20
-392.6228726334112
 30
0.0
 10
-173.6439082249373
 20
-393.986425284417
 30
0.0
 10
-173.480925371586
 20
-395.3384068584064
 30
0.0
 10
-173.3681073705028
 20
-396.2741471582198
 30
0.0
 10
-173.201490916742
 20
-397.2043488632283
 30
0.0
 10
-172.9635782840582
 20
-398.1164178438568
 30
0.0
 10
-172.732015632675
 20
-399.0040746741619
 30
0.0
 10
-172.4329315134758
 20
-399.8745865549538
 30
0.0
 10
-172.0539434629259
 20
-400.7098207618625
 30
0.0
 10
-171.6828576113247
 20
-401.527698353223
 30
0.0
 10
-171.2351839297174
 20
-402.3117799329996
 30
0.0
 10
-170.7097582548696
 20
-403.0406519531419
 30
0.0
 10
-170.2303699444444
 20
-403.7056361058769
 30
0.0
 10
-169.6862471024359
 20
-404.324688727223
 30
0.0
 10
-169.0858210929075
 20
-404.881829030896
 30
0.0
 10
-167.9316061587284
 20
-405.952823932379
 30
0.0
 10
-166.5692529486222
 20
-406.7950431187156
 30
0.0
 10
-165.1116852967041
 20
-407.3930702464198
 30
0.0
 10
-164.3354000828541
 20
-407.7115923639304
 30
0.0
 10
-163.5321274484875
 20
-407.9608291299281
 30
0.0
 10
-162.716295962213
 20
-408.1564791093024
 30
0.0
 10
-161.8098008540568
 20
-408.3738954134539
 30
0.0
 10
-160.8877835693876
 20
-408.5251660790782
 30
0.0
 10
-159.9610037987458
 20
-408.6260955040598
 30
0.0
 10
-158.8515562327259
 20
-408.7468862594423
 30
0.0
 10
-157.7352647979719
 20
-408.7955341717334
 30
0.0
 10
-156.6192908622829
 20
-408.8100685733746
 30
0.0
 10
-155.7613731110668
 20
-408.8212868736714
 30
0.0
 10
-154.9036670258926
 20
-408.812326344502
 30
0.0
 10
-154.0457845523471
 20
-408.8022369297677
 30
0.0
 10
-153.1427113785584
 20
-408.7916536276015
 30
0.0
 10
-152.2394970940722
 20
-408.7798003291749
 30
0.0
 10
-151.3363886426057
 20
-408.7856917007159
 30
0.0
 10
-150.9945479826568
 20
-408.7879494718471
 30
0.0
 10
-150.6527426003827
 20
-408.7927472354948
 30
0.0
 10
-150.3109019404335
 20
-408.796133892191
 30
0.0
 10
-149.9691671135072
 20
-408.7995558265556
 30
0.0
 10
-149.6274675642522
 20
-408.8015666539693
 30
0.0
 10
-149.2857327373263
 20
-408.8038597027722
 30
0.0
 10
-148.2581646523923
 20
-408.8107741268491
 30
0.0
 10
-147.2305965674616
 20
-408.8201579881019
 30
0.0
 10
-146.2030284825279
 20
-408.8291537949436
 30
0.0
 10
-145.0866664924255
 20
-408.838890432941
 30
0.0
 10
-143.9703045023261
 20
-408.848168461168
 30
0.0
 10
-142.8539072345495
 20
-408.8576228777724
 30
0.0
 10
-138.934522388216
 20
-408.8907486135508
 30
0.0
 10
-135.0151728195528
 20
-408.925885176739
 30
0.0
 10
-131.0957879732193
 20
-408.9609159069008
 30
0.0
  0
SPLINE
  5
86
330
1F
100
AcDbEntity
  8
0
 62
   250
370
    25
100
AcDbSpline
210
0.0
220
0.0
230
1.0
 70
     8
 71
     3
 72
    56
 73
    52
 74
     0
 42
0.0000000001
 43
0.0000000001
 12
1.0
 22
0.0
 32
0.0
 13
1.0
 23
0.0
 33
0.0
 40
0.0
 40
0.0
 40
0.0
 40
0.0
 40
1.0
 40
1.0
 40
1.0
 40
2.0
 40
2.0
 40
2.0
 40
3.0
 40
3.0
 40
3.0
 40
4.0
 40
4.0
 40
4.0
 40
5.0
 40
5.0
 40
5.0
 40
6.0
 40
6.0
 40
6.0
 40
7.0
 40
7.0
 40
7.0
 40
8.0
 40
8.0
 40
8.0
 40
9.0
 40
9.0
 40
9.0
 40
10.0
 40
10.0
 40
10.0
 40
11.0
 40
11.0
 40
11.0
 40
12.0
 40
12.0
 40
12.0
 40
13.0
 40
13.0
 40
13.0
 40
14.0
 40
14.0
 40
14.0
 40
15.0
 40
15.0
 40
15.0
 40
16.0
 40
16.0
 40
16.0
 40
17.0
 40
17.0
 40
17.0
 40
17.0
 10
-178.8501520592635
 20
-369.1978282680212
 30
0.0
 10
-178.7998108186273
 20
-372.7187516988782
 30
0.0
 10
-178.737792667936
 20
-376.239498741368
 30
0.0
 10
-178.6667081550615
 20
-379.7600693954952
 30
0.0
 10
-178.6128744247129
 20
-382.4243450930292
 30
0.0
 10
-178.5538548762974
 20
-385.0884796798746
 30
0.0
 10
-178.491766170258
 20
-387.7523320453348
 30
0.0
 10
-178.476067605383
 20
-388.4252880508165
 30
0.0
 10
-178.4601926521335
 20
-389.0982096801822
 30
0.0
 10
-178.4348280046104
 20
-389.7710960318686
 30
0.0
 10
-178.3570407336926
 20
-391.8332877365091
 30
0.0
 10
-178.1901420585378
 20
-393.8949149983674
 30
0.0
 10
-177.8113656740335
 20
-395.9228168039961
 30
0.0
 10
-177.5902804917941
 20
-397.1065238735396
 30
0.0
 10
-177.2969819111108
 20
-398.2787304214004
 30
0.0
 10
-176.9191227461271
 20
-399.4224678864396
 30
0.0
 10
-176.5407344160326
 20
-400.5677928468038
 30
0.0
 10
-176.0775032802443
 20
-401.6845781689922
 30
0.0
 10
-175.5195515900741
 20
-402.7534564100459
 30
0.0
 10
-175.0011108946543
 20
-403.7466993182823
 30
0.0
 10
-174.4008259958195
 20
-404.6985967927343
 30
0.0
 10
-173.7222246609628
 20
-405.5909102759885
 30
0.0
 10
-173.0956931727581
 20
-406.4147497942307
 30
0.0
 10
-172.4023457702181
 20
-407.187789462081
 30
0.0
 10
-171.6498377085692
 20
-407.8972940392621
 30
0.0
 10
-170.0837559317754
 20
-409.3737705243877
 30
0.0
 10
-168.2612407435115
 20
-410.5749400425098
 30
0.0
 10
-166.3055170586561
 20
-411.4759318335403
 30
0.0
 10
-165.2910369907345
 20
-411.9432551795019
 30
0.0
 10
-164.2407500838208
 20
-412.3298279299365
 30
0.0
 10
-163.1704607358155
 20
-412.6488439348788
 30
0.0
 10
-162.0198441243682
 20
-412.9918487580708
 30
0.0
 10
-160.8461559142051
 20
-413.2567840889477
 30
0.0
 10
-159.6620255125689
 20
-413.4562087794171
 30
0.0
 10
-158.7320707512765
 20
-413.6128769291474
 30
0.0
 10
-157.7956954533348
 20
-413.729116864599
 30
0.0
 10
-156.8567448852114
 20
-413.8161821637448
 30
0.0
 10
-155.7541059102416
 20
-413.9184168626657
 30
0.0
 10
-154.6479038902239
 20
-413.9804350133575
 30
0.0
 10
-153.5412785381151
 20
-414.0229093327139
 30
0.0
 10
-153.0287292142341
 20
-414.0425942747405
 30
0.0
 10
-152.5160740573337
 20
-414.0580811735776
 30
0.0
 10
-152.0033836227558
 20
-414.0731800180023
 30
0.0
 10
-150.8869157996341
 20
-414.1060940877349
 30
0.0
 10
-149.7703068658116
 20
-414.1373501068015
 30
0.0
 10
-148.6536979319959
 20
-414.1676889063421
 30
0.0
 10
-146.6003962011735
 20
-414.2234629087521
 30
0.0
 10
-144.5470239150024
 20
-414.2762735865571
 30
0.0
 10
-142.4935810734858
 20
-414.3258034406924
 30
0.0
 10
-138.7286771610927
 20
-414.416572895599
 30
0.0
 10
-134.9634910273112
 20
-414.4963004385799
 30
0.0
 10
-131.1980932274848
 20
-414.5649860696383
 30
0.0
  0
SPLINE
  5
87
330
1F
100
AcDbEntity
  8
0
 62
   250
370
    25
100
AcDbSpline
210
0.0
220
0.0
230
1.0
 70
     8
 71
     3
 72
     8
 73
     4
 74
     0
 42
0.0000000001
 43
0.0000000001
 12
1.0
 22
0.0
 32
0.0
 13
1.0
 23
0.0
 33
0.0
 40
0.0
 40
0.0
 40
0.0
 40
0.0
 40
1.0
 40
1.0
 40
1.0
 40
1.0
 10
344.3909881113353
 20
-123.0641632362509
 30
0.0
 10
342.3466821873561
 20
-122.8031790114413
 30
0.0
 10
340.2992012727216
 20
-122.5822702231494
 30
0.0
 10
338.2462875963158
 20
-122.4011546499975
 30
0.0
  0
SPLINE
  5
88
330
1F
100
AcDbEntity
  8
0
 62
   250
370
    25
100
AcDbSpline
210
0.0
220
0.0
230
1.0
 70
     8
 71
     3
 72
    29
 73
    25
 74
     0
 42
0.0000000001
 43
0.0000000001
 12
1.0
 22
0.0
 32
0.0
 13
1.0
 23
0.0
 33
0.0
 40
0.0
 40
0.0
 40
0.0
 40
0.0
 40
1.0
 40
1.0
 40
1.0
 40
2.0
 40
2.0
 40
2.0
 40
3.0
 40
3.0
 40
3.0
 40
4.0
 40
4.0
 40
4.0
 40
5.0
 40
5.0
 40
5.0
 40
6.0
 40
6.0
 40
6.0
 40
7.0
 40
7.0
 40
7.0
 40
8.0
 40
8.0
 40
8.0
 40
8.0
 10
338.1082460583993
 20
-122.3886663537585
 30
0.0
 10
334.5714123076804
 20
-122.0704970210257
 30
0.0
 10
331.0299219040034
 20
-121.8063730833167
 30
0.0
 10
327.4863148398921
 20
-121.5760451563397
 30
0.0
 10
323.3652828096286
 20
-121.3082170629658
 30
0.0
 10
319.2413580101098
 20
-121.0861088337881
 30
0.0
 10
315.1162337696719
 20
-120.890988024459
 30
0.0
 10
310.2429053438025
 20
-120.6604837091212
 30
0.0
 10
305.3678483119164
 20
-120.467620670861
 30
0.0
 10
300.4921210042177
 20
-120.2943367411101
 30
0.0
 10
293.726533428812
 20
-120.0538841219831
 30
0.0
 10
286.9597111348303
 20
-119.8511433352886
 30
0.0
 10
280.1923596757252
 20
-119.6670644376061
 30
0.0
 10
274.1666507547184
 20
-119.5031643688757
 30
0.0
 10
268.140553779298
 20
-119.3540456451274
 30
0.0
 10
262.1139629164444
 20
-119.227575187446
 30
0.0
 10
255.8795865544033
 20
-119.0967655759823
 30
0.0
 10
249.6447163049349
 20
-118.9902270035407
 30
0.0
 10
243.409528556396
 20
-118.9069011399277
 30
0.0
 10
236.690331122152
 20
-118.8171194621582
 30
0.0
 10
229.970780911166
 20
-118.7542546488826
 30
0.0
 10
223.2511601448309
 20
-118.7061711805917
 30
0.0
 10
215.6222573341034
 20
-118.6515260651221
 30
0.0
 10
207.9932839680273
 20
-118.6158956153988
 30
0.0
 10
200.3642400466093
 20
-118.5916598540516
 30
0.0
  0
SPLINE
  5
89
330
1F
100
AcDbEntity
  8
0
 62
   250
370
    25
100
AcDbSpline
210
0.0
220
0.0
230
1.0
 70
     8
 71
     3
 72
    20
 73
    16
 74
     0
 42
0.0000000001
 43
0.0000000001
 12
1.0
 22
0.0
 32
0.0
 13
1.0
 23
0.0
 33
0.0
 40
0.0
 40
0.0
 40
0.0
 40
0.0
 40
1.0
 40
1.0
 40
1.0
 40
2.0
 40
2.0
 40
2.0
 40
3.0
 40
3.0
 40
3.0
 40
4.0
 40
4.0
 40
4.0
 40
5.0
 40
5.0
 40
5.0
 40
5.0
 10
200.3515400840139
 20
-118.5916598540516
 30
0.0
 10
197.483641585496
 20
-118.5802651656758
 30
0.0
 10
194.6157430869915
 20
-118.5759965672425
 30
0.0
 10
191.7478093108089
 20
-118.5744443496237
 30
0.0
 10
186.0118359254251
 20
-118.5713399144078
 30
0.0
 10
180.2758625400335
 20
-118.578995169448
 30
0.0
 10
174.5398891546497
 20
-118.5769490644121
 30
0.0
 10
171.6718848231187
 20
-118.5759612895687
 30
0.0
 10
168.8038452139104
 20
-118.5725040776136
 30
0.0
 10
165.9358408823801
 20
-118.565871875092
 30
0.0
 10
155.5445198180663
 20
-118.5418477797836
 30
0.0
 10
145.1533398644371
 20
-118.4757374205863
 30
0.0
 10
134.7620540778014
 20
-118.4400716931955
 30
0.0
 10
130.0260263586915
 20
-118.4238439636178
 30
0.0
 10
125.2899633619106
 20
-118.413930937506
 30
0.0
 10
120.5539356428007
 20
-118.4083570651736
 30
0.0
  0
SPLINE
  5
8A
330
1F
100
AcDbEntity
  8
0
 62
   250
370
    25
100
AcDbSpline
210
0.0
220
0.0
230
1.0
 70
     8
 71
     3
 72
    11
 73
     7
 74
     0
 42
0.0000000001
 43
0.0000000001
 12
1.0
 22
0.0
 32
0.0
 13
1.0
 23
0.0
 33
0.0
 40
0.0
 40
0.0
 40
0.0
 40
0.0
 40
1.0
 40
1.0
 40
1.0
 40
2.0
 40
2.0
 40
2.0
 40
2.0
 10
95.89170862205032
 20
-50.39028402358148
 30
0.0
 10
95.89170862205032
 20
-40.72531425842152
 30
0.0
 10
103.7267163812316
 20
-32.89030630131133
 30
0.0
 10
113.3916859022325
 20
-32.89030630131133
 30
0.0
 10
123.0566554232324
 20
-32.89030630131133
 30
0.0
 10
130.8916631824137
 20
-40.72531425842152
 30
0.0
 10
130.8916631824137
 20
-50.39028402358148
 30
0.0
  0
SPLINE
  5
8B
330
1F
100
AcDbEntity
  8
0
 62
   250
370
    25
100
AcDbSpline
210
0.0
220
0.0
230
1.0
 70
     8
 71
     3
 72
    11
 73
     7
 74
     0
 42
0.0000000001
 43
0.0000000001
 12
1.0
 22
0.0
 32
0.0
 13
1.0
 23
0.0
 33
0.0
 40
0.0
 40
0.0
 40
0.0
 40
0.0
 40
1.0
 40
1.0
 40
1.0
 40
2.0
 40
2.0
 40
2.0
 40
2.0
 10
130.8916631824137
 20
-50.39028402358148
 30
0.0
 10
130.8916631824137
 20
-60.05525378873502
 30
0.0
 10
123.0566554232324
 20
-67.89026174584457
 30
0.0
 10
113.3916859022325
 20
-67.89026174584457
 30
0.0
 10
103.7267163812316
 20
-67.89026174584457
 30
0.0
 10
95.89170862205032
 20
-60.05525378873502
 30
0.0
 10
95.89170862205032
 20
-50.39028402358148
 30
0.0
  0
INSERT
  5
8D
330
1F
100
AcDbEntity
  8
0
100
AcDbBlockReference
  2
block 2
 10
0.0
 20
0.0
 30
0.0
  0
INSERT
  5
A7
330
1F
100
AcDbEntity
  8
0
100
AcDbBlockReference
  2
block 4
 10
0.0
 20
0.0
 30
0.0
  0
SPLINE
  5
C0
330
1F
100
AcDbEntity
  8
0
 62
   250
370
    25
100
AcDbSpline
210
0.0
220
0.0
230
1.0
 70
    11
 71
     3
 72
    17
 73
    13
 74
     0
 42
0.0000000001
 43
0.0000000001
 12
1.0
 22
0.0
 32
0.0
 13
1.0
 23
0.0
 33
0.0
 40
0.0
 40
0.0
 40
0.0
 40
0.0
 40
1.0
 40
1.0
 40
1.0
 40
2.0
 40
2.0
 40
2.0
 40
3.0
 40
3.0
 40
3.0
 40
4.0
 40
4.0
 40
4.0
 40
4.0
 10
138.7990574544664
 20
-200.325335517924
 30
0.0
 10
138.7990574544664
 20
-186.0842044183023
 30
0.0
 10
127.255860625758
 20
-174.5595249357471
 30
0.0
 10
113.03023242059
 20
-174.5595249357471
 30
0.0
 10
98.79599149628038
 20
-174.5595249357471
 30
0.0
 10
87.24547385630285
 20
-186.0842044183023
 30
0.0
 10
87.24547385630285
 20
-200.325335517924
 30
0.0
 10
87.24547385630285
 20
-214.5699117052029
 30
0.0
 10
98.79599149628038
 20
-226.1014813630705
 30
0.0
 10
113.03023242059
 20
-226.1014813630705
 30
0.0
 10
127.255860625758
 20
-226.1014813630705
 30
0.0
 10
138.7990574544664
 20
-214.5699117052029
 30
0.0
 10
138.7990574544664
 20
-200.325335517924
 30
0.0
  0
SPLINE
  5
C1
330
1F
100
AcDbEntity
  8
0
 62
   250
370
    25
100
AcDbSpline
210
0.0
220
0.0
230
1.0
 70
    11
 71
     3
 72
    17
 73
    13
 74
     0
 42
0.0000000001
 43
0.0000000001
 12
1.0
 22
0.0
 32
0.0
 13
1.0
 23
0.0
 33
0.0
 40
0.0
 40
0.0
 40
0.0
 40
0.0
 40
1.0
 40
1.0
 40
1.0
 40
2.0
 40
2.0
 40
2.0
 40
3.0
 40
3.0
 40
3.0
 40
4.0
 40
4.0
 40
4.0
 40
4.0
 10
149.9805200792528
 20
-200.325335517924
 30
0.0
 10
149.9805200792528
 20
-179.9071622503863
 30
0.0
 10
133.4380704251588
 20
-163.3810767626601
 30
0.0
 10
113.0362613239889
 20
-163.3810767626601
 30
0.0
 10
92.63445222281841
 20
-163.3810767626601
 30
0.0
 10
76.07822221809924
 20
-179.9071622503863
 30
0.0
 10
76.07822221809924
 20
-200.325335517924
 30
0.0
 10
76.07822221809924
 20
-220.7443700573765
 30
0.0
 10
92.63445222281841
 20
-237.2739006327586
 30
0.0
 10
113.0362613239889
 20
-237.2739006327586
 30
0.0
 10
133.4380704251588
 20
-237.2739006327586
 30
0.0
 10
149.9805200792528
 20
-220.7443700573765
 30
0.0
 10
149.9805200792528
 20
-200.325335517924
 30
0.0
  0
INSERT
  5
C3
330
1F
100
AcDbEntity
  8
0
100
AcDbBlockReference
  2
block 6
 10
0.0
 20
0.0
 30
0.0
  0
INSERT
  5
DD
330
1F
100
AcDbEntity
  8
0
100
AcDbBlockReference
  2
block 8
 10
0.0
 20
0.0
 30
0.0
  0
SPLINE
  5
F6
330
1F
100
AcDbEntity
  8
0
  6
AI-Linetype-9
 62
     6
370
    25
100
AcDbSpline
210
0.0
220
0.0
230
1.0
 70
    11
 71
     3
 72
    17
 73
    13
 74
     0
 42
0.0000000001
 43
0.0000000001
 12
1.0
 22
0.0
 32
0.0
 13
1.0
 23
0.0
 33
0.0
 40
0.0
 40
0.0
 40
0.0
 40
0.0
 40
1.0
 40
1.0
 40
1.0
 40
2.0
 40
2.0
 40
2.0
 40
3.0
 40
3.0
 40
3.0
 40
4.0
 40
4.0
 40
4.0
 40
4.0
 10
214.6410816036243
 20
-65.28756409208736
 30
0.0
 10
222.8677786354781
 20
-65.28756409208736
 30
0.0
 10
229.5397131172739
 20
-58.61833250057267
 30
0.0
 10
229.5397131172739
 20
-50.39163546871885
 30
0.0
 10
229.5397131172739
 20
-42.16223554658644
 30
0.0
 10
222.8677786354781
 20
-35.49300395507495
 30
0.0
 10
214.6410816036243
 20
-35.49300395507495
 30
0.0
 10
206.414384571782
 20
-35.49300395507495
 30
0.0
 10
199.7424500899861
 20
-42.16223554658644
 30
0.0
 10
199.7424500899861
 20
-50.39163546871885
 30
0.0
 10
199.7424500899861
 20
-58.61833250057267
 30
0.0
 10
206.414384571782
 20
-65.28756409208736
 30
0.0
 10
214.6410816036243
 20
-65.28756409208736
 30
0.0
  0
SPLINE
  5
F8
330
1F
100
AcDbEntity
  8
0
  6
AI-Linetype-10
 62
     6
370
    25
100
AcDbSpline
210
0.0
220
0.0
230
1.0
 70
    11
 71
     3
 72
    17
 73
    13
 74
     0
 42
0.0000000001
 43
0.0000000001
 12
1.0
 22
0.0
 32
0.0
 13
1.0
 23
0.0
 33
0.0
 40
0.0
 40
0.0
 40
0.0
 40
0.0
 40
1.0
 40
1.0
 40
1.0
 40
2.0
 40
2.0
 40
2.0
 40
3.0
 40
3.0
 40
3.0
 40
4.0
 40
4.0
 40
4.0
 40
4.0
 10
13.96458234491639
 20
-65.28756409208736
 30
0.0
 10
22.19127937676765
 20
-65.28756409208736
 30
0.0
 10
28.8632138585635
 20
-58.61833250057267
 30
0.0
 10
28.8632138585635
 20
-50.39163546871885
 30
0.0
 10
28.8632138585635
 20
-42.16223554658644
 30
0.0
 10
22.19127937676765
 20
-35.49300395507495
 30
0.0
 10
13.96458234491639
 20
-35.49300395507495
 30
0.0
 10
5.737885313072195
 20
-35.49300395507495
 30
0.0
 10
-0.9340491687239748
 20
-42.16223554658644
 30
0.0
 10
-0.9340491687239748
 20
-50.39163546871885
 30
0.0
 10
-0.9340491687239748
 20
-58.61833250057267
 30
0.0
 10
5.737885313072195
 20
-65.28756409208736
 30
0.0
 10
13.96458234491639
 20
-65.28756409208736
 30
0.0
  0
ENDSEC
  0
SECTION
  2
OBJECTS
  0
DICTIONARY
  5
C
330
0
100
AcDbDictionary
281
     1
  3
ACAD_GROUP
350
D
  3
ACAD_LAYOUT
350
1A
  3
ACAD_MATERIAL
350
3B
  3
ACAD_MLEADERSTYLE
350
11B
  3
ACAD_MLINESTYLE
350
17
  3
ACAD_PLOTSETTINGS
350
19
  3
ACAD_PLOTSTYLENAME
350
E
  3
ACAD_TABLESTYLE
350
11A
  3
ACAD_VISUALSTYLE
350
2A
  0
SUN
  5
3F
330
29
100
AcDbSun
 90
        1
290
     0
 63
     7
421
 16777215
 40
1.0
291
     1
 91
  2455826
 92
 54000000
292
     0
 70
     2
 71
   256
280
     1
  0
DICTIONARY
  5
D
102
{ACAD_REACTORS
330
C
102
}
330
C
100
AcDbDictionary
281
     1
  0
DICTIONARY
  5
1A
102
{ACAD_REACTORS
330
C
102
}
330
C
100
AcDbDictionary
281
     1
  3
Layout1
350
1E
  3
Layout2
350
26
  3
Model
350
22
  0
DICTIONARY
  5
3B
102
{ACAD_REACTORS
330
C
102
}
330
C
100
AcDbDictionary
281
     1
  3
ByBlock
350
3D
  3
ByLayer
350
3C
  3
Global
350
3E
  0
DICTIONARY
  5
11B
102
{ACAD_REACTORS
330
C
102
}
330
C
100
AcDbDictionary
281
     1
  0
DICTIONARY
  5
17
102
{ACAD_REACTORS
330
C
102
}
330
C
100
AcDbDictionary
281
     1
  3
Standard
350
18
  0
DICTIONARY
  5
19
102
{ACAD_REACTORS
330
C
102
}
330
C
100
AcDbDictionary
281
     1
  0
ACDBDICTIONARYWDFLT
  5
E
102
{ACAD_REACTORS
330
C
102
}
330
C
100
AcDbDictionary
281
     1
  3
Normal
350
F
100
AcDbDictionaryWithDefault
340
F
  0
DICTIONARY
  5
11A
102
{ACAD_REACTORS
330
C
102
}
330
C
100
AcDbDictionary
281
     1
  0
DICTIONARY
  5
2A
102
{ACAD_REACTORS
330
C
102
}
330
C
100
AcDbDictionary
281
     1
  3
2dWireframe
350
2F
  3
3D Hidden
350
31
  3
3dWireframe
350
30
  3
Basic
350
32
  3
Brighten
350
36
  3
ColorChange
350
3A
  3
Conceptual
350
34
  3
Dim
350
35
  3
Facepattern
350
39
  3
Flat
350
2B
  3
FlatWithEdges
350
2C
  3
Gouraud
350
2D
  3
GouraudWithEdges
350
2E
  3
Linepattern
350
38
  3
Realistic
350
33
  3
Thicken
350
37
  0
LAYOUT
  5
1E
102
{ACAD_REACTORS
330
1A
102
}
330
1A
100
AcDbPlotSettings
  1

  2
none_device
  4

  6

 40
0.0
 41
0.0
 42
0.0
 43
0.0
 44
0.0
 45
0.0
 46
0.0
 47
0.0
 48
0.0
 49
0.0
140
0.0
141
0.0
142
1.0
143
1.0
 70
   688
 72
     0
 73
     0
 74
     5
  7

 75
    16
 76
     0
 77
     2
 78
   300
147
1.0
148
0.0
149
0.0
100
AcDbLayout
  1
Layout1
 70
     1
 71
     1
 10
0.0
 20
0.0
 11
12.0
 21
9.0
 12
0.0
 22
0.0
 32
0.0
 14
1.000000000000000E+20
 24
1.000000000000000E+20
 34
1.000000000000000E+20
 15
-1.000000000000000E+20
 25
-1.000000000000000E+20
 35
-1.000000000000000E+20
146
0.0
 13
0.0
 23
0.0
 33
0.0
 16
1.0
 26
0.0
 36
0.0
 17
0.0
 27
1.0
 37
0.0
 76
     0
330
1B
  0
LAYOUT
  5
26
102
{ACAD_REACTORS
330
1A
102
}
330
1A
100
AcDbPlotSettings
  1

  2
none_device
  4

  6

 40
0.0
 41
0.0
 42
0.0
 43
0.0
 44
0.0
 45
0.0
 46
0.0
 47
0.0
 48
0.0
 49
0.0
140
0.0
141
0.0
142
1.0
143
1.0
 70
   688
 72
     0
 73
     0
 74
     5
  7

 75
    16
 76
     0
 77
     2
 78
   300
147
1.0
148
0.0
149
0.0
100
AcDbLayout
  1
Layout2
 70
     1
 71
     2
 10
0.0
 20
0.0
 11
0.0
 21
0.0
 12
0.0
 22
0.0
 32
0.0
 14
0.0
 24
0.0
 34
0.0
 15
0.0
 25
0.0
 35
0.0
146
0.0
 13
0.0
 23
0.0
 33
0.0
 16
1.0
 26
0.0
 36
0.0
 17
0.0
 27
1.0
 37
0.0
 76
     0
330
23
  0
LAYOUT
  5
22
102
{ACAD_REACTORS
330
1A
102
}
330
1A
100
AcDbPlotSettings
  1

  2
none_device
  4

  6

 40
0.0
 41
0.0
 42
0.0
 43
0.0
 44
0.0
 45
0.0
 46
0.0
 47
0.0
 48
0.0
 49
0.0
140
0.0
141
0.0
142
1.0
143
1.0
 70
  1712
 72
     0
 73
     0
 74
     0
  7

 75
     0
 76
     0
 77
     2
 78
   300
147
1.0
148
0.0
149
0.0
100
AcDbLayout
  1
Model
 70
     1
 71
     0
 10
0.0
 20
0.0
 11
12.0
 21
9.0
 12
0.0
 22
0.0
 32
0.0
 14
1.000000000000000E+20
 24
1.000000000000000E+20
 34
1.000000000000000E+20
 15
-1.000000000000000E+20
 25
-1.000000000000000E+20
 35
-1.000000000000000E+20
146
0.0
 13
0.0
 23
0.0
 33
0.0
 16
1.0
 26
0.0
 36
0.0
 17
0.0
 27
1.0
 37
0.0
 76
     0
330
1F
331
29
  0
MATERIAL
  5
3D
102
{ACAD_REACTORS
330
3B
102
}
330
3B
100
AcDbMaterial
  1
ByBlock
 72
     1
 94
      127
  0
MATERIAL
  5
3C
102
{ACAD_REACTORS
330
3B
102
}
330
3B
100
AcDbMaterial
  1
ByLayer
 72
     1
 94
      127
  0
MATERIAL
  5
3E
102
{ACAD_REACTORS
330
3B
102
}
330
3B
100
AcDbMaterial
  1
Global
 72
     1
 94
      127
  0
MLINESTYLE
  5
18
102
{ACAD_REACTORS
330
17
102
}
330
17
100
AcDbMlineStyle
  2
Standard
 70
     0
  3

 62
   256
 51
90.0
 52
90.0
 71
     2
 49
0.5
 62
   256
  6
BYLAYER
 49
-0.5
 62
   256
  6
BYLAYER
  0
ACDBPLACEHOLDER
  5
F
102
{ACAD_REACTORS
330
E
102
}
330
E
  0
VISUALSTYLE
  5
2F
102
{ACAD_REACTORS
330
2A
102
}
102
{ACAD_XDICTIONARY
360
102
102
}
330
2A
100
AcDbVisualStyle
  2
2dWireframe
 70
     4
 71
     0
 72
     2
 73
     0
 90
        0
 40
-0.6
 41
-30.0
 62
     5
 63
     7
421
 16777215
 74
     1
 91
        4
 64
     7
 65
   257
 75
     1
175
     1
 42
1.0
 92
        0
 66
   257
 43
1.0
 76
     1
 77
     6
 78
     2
 67
     7
 79
     5
170
     0
171
     0
290
     0
174
     0
 93
        1
 44
0.0
173
     0
291
     0
 45
0.0
  0
VISUALSTYLE
  5
31
102
{ACAD_REACTORS
330
2A
102
}
102
{ACAD_XDICTIONARY
360
106
102
}
330
2A
100
AcDbVisualStyle
  2
3D Hidden
 70
     6
 71
     1
 72
     2
 73
     2
 90
        0
 40
-0.6
 41
-30.0
 62
     5
 63
     7
421
 16777215
 74
     2
 91
        2
 64
     7
 65
   257
 75
     2
175
     1
 42
40.0
 92
        0
 66
   257
 43
1.0
 76
     1
 77
     6
 78
     2
 67
     7
 79
     3
170
     0
171
     0
290
     0
174
     0
 93
        1
 44
0.0
173
     0
291
     0
 45
0.0
  0
VISUALSTYLE
  5
30
102
{ACAD_REACTORS
330
2A
102
}
102
{ACAD_XDICTIONARY
360
104
102
}
330
2A
100
AcDbVisualStyle
  2
3dWireframe
 70
     5
 71
     0
 72
     2
 73
     0
 90
        0
 40
-0.6
 41
-30.0
 62
     5
 63
     7
421
 16777215
 74
     1
 91
        4
 64
     7
 65
   257
 75
     1
175
     1
 42
1.0
 92
        0
 66
   257
 43
1.0
 76
     1
 77
     6
 78
     2
 67
     7
 79
     5
170
     0
171
     0
290
     0
174
     0
 93
        1
 44
0.0
173
     0
291
     0
 45
0.0
  0
VISUALSTYLE
  5
32
102
{ACAD_REACTORS
330
2A
102
}
102
{ACAD_XDICTIONARY
360
108
102
}
330
2A
100
AcDbVisualStyle
  2
Basic
 70
     7
 71
     1
 72
     0
 73
     1
 90
        0
 40
-0.6
 41
-30.0
 62
     5
 63
     7
421
 16777215
 74
     0
 91
        4
 64
     7
 65
   257
 75
     1
175
     1
 42
1.0
 92
        8
 66
     7
 43
1.0
 76
     1
 77
     6
 78
     2
 67
     7
 79
     5
170
     0
171
     0
290
     0
174
     0
 93
        1
 44
0.0
173
     0
291
     1
 45
0.0
  0
VISUALSTYLE
  5
36
102
{ACAD_REACTORS
330
2A
102
}
102
{ACAD_XDICTIONARY
360
110
102
}
330
2A
100
AcDbVisualStyle
  2
Brighten
 70
    12
 71
     2
 72
     2
 73
     0
 90
        0
 40
-0.6
 41
-30.0
 62
     5
 63
     7
421
 16777215
 74
     1
 91
        4
 64
     7
 65
   257
 75
     1
175
     1
 42
1.0
 92
        8
 66
     7
 43
1.0
 76
     1
 77
     6
 78
     2
 67
     7
 79
     5
170
     0
171
     0
290
     0
174
     0
 93
        1
 44
50.0
173
     0
291
     1
 45
0.0
  0
VISUALSTYLE
  5
3A
102
{ACAD_REACTORS
330
2A
102
}
102
{ACAD_XDICTIONARY
360
118
102
}
330
2A
100
AcDbVisualStyle
  2
ColorChange
 70
    16
 71
     2
 72
     2
 73
     3
 90
        0
 40
-0.6
 41
-30.0
 62
     5
 63
     8
421
  8421504
 74
     1
 91
        4
 64
     7
 65
   257
 75
     1
175
     1
 42
1.0
 92
        8
 66
     8
424
  8421504
 43
1.0
 76
     1
 77
     6
 78
     2
 67
     7
 79
     5
170
     0
171
     0
290
     0
174
     0
 93
        1
 44
0.0
173
     0
291
     1
 45
0.0
  0
VISUALSTYLE
  5
34
102
{ACAD_REACTORS
330
2A
102
}
102
{ACAD_XDICTIONARY
360
10C
102
}
330
2A
100
AcDbVisualStyle
  2
Conceptual
 70
     9
 71
     3
 72
     2
 73
     0
 90
        0
 40
-0.6
 41
-30.0
 62
     5
 63
     7
421
 16777215
 74
     2
 91
        2
 64
     7
 65
   257
 75
     1
175
     1
 42
40.0
 92
        8
 66
     7
 43
1.0
 76
     1
 77
     6
 78
     2
 67
     7
 79
     3
170
     0
171
     0
290
     0
174
     0
 93
        1
 44
0.0
173
     0
291
     0
 45
0.0
  0
VISUALSTYLE
  5
35
102
{ACAD_REACTORS
330
2A
102
}
102
{ACAD_XDICTIONARY
360
10E
102
}
330
2A
100
AcDbVisualStyle
  2
Dim
 70
    11
 71
     2
 72
     2
 73
     0
 90
        0
 40
-0.6
 41
-30.0
 62
     5
 63
     7
421
 16777215
 74
     1
 91
        4
 64
     7
 65
   257
 75
     1
175
     1
 42
1.0
 92
        8
 66
     7
 43
1.0
 76
     1
 77
     6
 78
     2
 67
     7
 79
     5
170
     0
171
     0
290
     0
174
     0
 93
        1
 44
-50.0
173
     0
291
     1
 45
0.0
  0
VISUALSTYLE
  5
39
102
{ACAD_REACTORS
330
2A
102
}
102
{ACAD_XDICTIONARY
360
116
102
}
330
2A
100
AcDbVisualStyle
  2
Facepattern
 70
    15
 71
     2
 72
     2
 73
     0
 90
        0
 40
-0.6
 41
-30.0
 62
     5
 63
     7
421
 16777215
 74
     1
 91
        4
 64
     7
 65
   257
 75
     1
175
     1
 42
1.0
 92
        8
 66
     7
 43
1.0
 76
     1
 77
     6
 78
     2
 67
     7
 79
     5
170
     0
171
     0
290
     0
174
     0
 93
        1
 44
0.0
173
     0
291
     1
 45
0.0
  0
VISUALSTYLE
  5
2B
102
{ACAD_REACTORS
330
2A
102
}
102
{ACAD_XDICTIONARY
360
FA
102
}
330
2A
100
AcDbVisualStyle
  2
Flat
 70
     0
 71
     2
 72
     1
 73
     1
 90
        2
 40
-0.6
 41
30.0
 62
     5
 63
     7
421
 16777215
 74
     0
 91
        4
 64
     7
 65
   257
 75
     1
175
     1
 42
1.0
 92
        8
 66
     7
 43
1.0
 76
     1
 77
     6
 78
     2
 67
     7
 79
     5
170
     0
171
     0
290
     0
174
     0
 93
       13
 44
0.0
173
     0
291
     1
 45
0.0
  0
VISUALSTYLE
  5
2C
102
{ACAD_REACTORS
330
2A
102
}
102
{ACAD_XDICTIONARY
360
FC
102
}
330
2A
100
AcDbVisualStyle
  2
FlatWithEdges
 70
     1
 71
     2
 72
     1
 73
     1
 90
        2
 40
-0.6
 41
30.0
 62
     5
 63
     7
421
 16777215
 74
     1
 91
        4
 64
     7
 65
   257
 75
     1
175
     1
 42
1.0
 92
        0
 66
   257
 43
1.0
 76
     1
 77
     6
 78
     2
 67
     7
 79
     5
170
     0
171
     0
290
     0
174
     0
 93
       13
 44
0.0
173
     0
291
     1
 45
0.0
  0
VISUALSTYLE
  5
2D
102
{ACAD_REACTORS
330
2A
102
}
102
{ACAD_XDICTIONARY
360
FE
102
}
330
2A
100
AcDbVisualStyle
  2
Gouraud
 70
     2
 71
     2
 72
     2
 73
     1
 90
        2
 40
-0.6
 41
30.0
 62
     5
 63
     7
421
 16777215
 74
     0
 91
        4
 64
     7
 65
   257
 75
     1
175
     1
 42
1.0
 92
        0
 66
     7
 43
1.0
 76
     1
 77
     6
 78
     2
 67
     7
 79
     5
170
     0
171
     0
290
     0
174
     0
 93
       13
 44
0.0
173
     0
291
     1
 45
0.0
  0
VISUALSTYLE
  5
2E
102
{ACAD_REACTORS
330
2A
102
}
102
{ACAD_XDICTIONARY
360
100
102
}
330
2A
100
AcDbVisualStyle
  2
GouraudWithEdges
 70
     3
 71
     2
 72
     2
 73
     1
 90
        2
 40
-0.6
 41
30.0
 62
     5
 63
     7
421
 16777215
 74
     1
 91
        4
 64
     7
 65
   257
 75
     1
175
     1
 42
1.0
 92
        0
 66
   257
 43
1.0
 76
     1
 77
     6
 78
     2
 67
     7
 79
     5
170
     0
171
     0
290
     0
174
     0
 93
       13
 44
0.0
173
     0
291
     1
 45
0.0
  0
VISUALSTYLE
  5
38
102
{ACAD_REACTORS
330
2A
102
}
102
{ACAD_XDICTIONARY
360
114
102
}
330
2A
100
AcDbVisualStyle
  2
Linepattern
 70
    14
 71
     2
 72
     2
 73
     0
 90
        0
 40
-0.6
 41
-30.0
 62
     5
 63
     7
421
 16777215
 74
     1
 91
        4
 64
     7
 65
   257
 75
     7
175
     7
 42
1.0
 92
        8
 66
     7
 43
1.0
 76
     1
 77
     6
 78
     2
 67
     7
 79
     5
170
     0
171
     0
290
     0
174
     0
 93
        1
 44
0.0
173
     0
291
     1
 45
0.0
  0
VISUALSTYLE
  5
33
102
{ACAD_REACTORS
330
2A
102
}
102
{ACAD_XDICTIONARY
360
10A
102
}
330
2A
100
AcDbVisualStyle
  2
Realistic
 70
     8
 71
     2
 72
     2
 73
     0
 90
        0
 40
-0.6
 41
-30.0
 62
     5
 63
     7
421
 16777215
 74
     1
 91
        0
 64
     7
 65
   257
 75
     1
175
     1
 42
1.0
 92
        8
 66
     8
424
  7895160
 43
1.0
 76
     1
 77
     6
 78
     2
 67
     7
 79
     5
170
     0
171
     0
290
     0
174
     0
 93
       13
 44
0.0
173
     0
291
     0
 45
0.0
  0
VISUALSTYLE
  5
37
102
{ACAD_REACTORS
330
2A
102
}
102
{ACAD_XDICTIONARY
360
112
102
}
330
2A
100
AcDbVisualStyle
  2
Thicken
 70
    13
 71
     2
 72
     2
 73
     0
 90
        0
 40
-0.6
 41
-30.0
 62
     5
 63
     7
421
 16777215
 74
     1
 91
        4
 64
     7
 65
   257
 75
     1
175
     1
 42
1.0
 92
       12
 66
     7
 43
1.0
 76
     1
 77
     6
 78
     2
 67
     7
 79
     5
170
     0
171
     0
290
     0
174
     0
 93
        1
 44
0.0
173
     0
291
     1
 45
0.0
  0
DICTIONARY
  5
102
330
2F
100
AcDbDictionary
280
     1
281
     1
  3
ACAD_XREC_ROUNDTRIP
360
103
  0
DICTIONARY
  5
106
330
31
100
AcDbDictionary
280
     1
281
     1
  3
ACAD_XREC_ROUNDTRIP
360
107
  0
DICTIONARY
  5
104
330
30
100
AcDbDictionary
280
     1
281
     1
  3
ACAD_XREC_ROUNDTRIP
360
105
  0
DICTIONARY
  5
108
330
32
100
AcDbDictionary
280
     1
281
     1
  3
ACAD_XREC_ROUNDTRIP
360
109
  0
DICTIONARY
  5
110
330
36
100
AcDbDictionary
280
     1
281
     1
  3
ACAD_XREC_ROUNDTRIP
360
111
  0
DICTIONARY
  5
118
330
3A
100
AcDbDictionary
280
     1
281
     1
  3
ACAD_XREC_ROUNDTRIP
360
119
  0
DICTIONARY
  5
10C
330
34
100
AcDbDictionary
280
     1
281
     1
  3
ACAD_XREC_ROUNDTRIP
360
10D
  0
DICTIONARY
  5
10E
330
35
100
AcDbDictionary
280
     1
281
     1
  3
ACAD_XREC_ROUNDTRIP
360
10F
  0
DICTIONARY
  5
116
330
39
100
AcDbDictionary
280
     1
281
     1
  3
ACAD_XREC_ROUNDTRIP
360
117
  0
DICTIONARY
  5
FA
330
2B
100
AcDbDictionary
280
     1
281
     1
  3
ACAD_XREC_ROUNDTRIP
360
FB
  0
DICTIONARY
  5
FC
330
2C
100
AcDbDictionary
280
     1
281
     1
  3
ACAD_XREC_ROUNDTRIP
360
FD
  0
DICTIONARY
  5
FE
330
2D
100
AcDbDictionary
280
     1
281
     1
  3
ACAD_XREC_ROUNDTRIP
360
FF
  0
DICTIONARY
  5
100
330
2E
100
AcDbDictionary
280
     1
281
     1
  3
ACAD_XREC_ROUNDTRIP
360
101
  0
DICTIONARY
  5
114
330
38
100
AcDbDictionary
280
     1
281
     1
  3
ACAD_XREC_ROUNDTRIP
360
115
  0
DICTIONARY
  5
10A
330
33
100
AcDbDictionary
280
     1
281
     1
  3
ACAD_XREC_ROUNDTRIP
360
10B
  0
DICTIONARY
  5
112
330
37
100
AcDbDictionary
280
     1
281
     1
  3
ACAD_XREC_ROUNDTRIP
360
113
  0
XRECORD
  5
103
102
{ACAD_REACTORS
330
102
102
}
330
102
100
AcDbXrecord
280
     1
102
RTVSPropertyOp0
 70
     1
102
RTVSPropertyOp1
 70
     1
102
RTVSPropertyOp2
 70
     1
102
RTVSPropertyOp3
 70
     1
102
RTVSPropertyOp4
 70
     1
102
RTVSPropertyOp5
 70
     1
102
RTVSPropertyOp6
 70
     1
102
RTVSPropertyOp7
 70
     1
102
RTVSPropertyOp8
 70
     1
102
RTVSPropertyOp9
 70
     1
102
RTVSPropertyOp10
 70
     1
102
RTVSPropertyOp11
 70
     1
102
RTVSPropertyOp12
 70
     1
102
RTVSPropertyOp13
 70
     1
102
RTVSPropertyOp14
 70
     1
102
RTVSPropertyOp15
 70
     1
102
RTVSPropertyOp16
 70
     1
102
RTVSPropertyOp17
 70
     1
102
RTVSPropertyOp18
 70
     1
102
RTVSPropertyOp19
 70
     1
102
RTVSPropertyOp20
 70
     1
102
RTVSPropertyOp21
 70
     1
102
RTVSPropertyOp22
 70
     1
102
RTVSPropertyOp23
 70
     1
102
RTVSPropertyOp24
 70
     1
102
RTVSPropertyOp25
 70
     1
102
RTVSPropertyOp26
 70
     1
102
RTVSPropertyOp27
 70
     1
102
RTVSPropertyOp28
 70
     1
102
RTVSPropertyOp29
 70
     1
102
RTVSPropertyOp30
 70
     1
102
RTVSPropertyOp31
 70
     1
102
RTVSPropertyOp32
 70
     1
  0
XRECORD
  5
107
102
{ACAD_REACTORS
330
106
102
}
330
106
100
AcDbXrecord
280
     1
102
RTVSPropertyOp0
 70
     1
102
RTVSPropertyOp1
 70
     1
102
RTVSPropertyOp2
 70
     1
102
RTVSPropertyOp3
 70
     1
102
RTVSPropertyOp4
 70
     1
102
RTVSPropertyOp5
 70
     1
102
RTVSPropertyOp6
 70
     1
102
RTVSPropertyOp7
 70
     1
102
RTVSPropertyOp8
 70
     1
102
RTVSPropertyOp9
 70
     1
102
RTVSPropertyOp10
 70
     1
102
RTVSPropertyOp11
 70
     1
102
RTVSPropertyOp12
 70
     1
102
RTVSPropertyOp13
 70
     1
102
RTVSPropertyOp14
 70
     1
102
RTVSPropertyOp15
 70
     1
102
RTVSPropertyOp16
 70
     1
102
RTVSPropertyOp17
 70
     1
102
RTVSPropertyOp18
 70
     1
102
RTVSPropertyOp19
 70
     1
102
RTVSPropertyOp20
 70
     1
102
RTVSPropertyOp21
 70
     1
102
RTVSPropertyOp22
 70
     1
102
RTVSPropertyOp23
 70
     1
102
RTVSPropertyOp24
 70
     1
102
RTVSPropertyOp25
 70
     1
102
RTVSPropertyOp26
 70
     1
102
RTVSPropertyOp27
 70
     1
102
RTVSPropertyOp28
 70
     1
102
RTVSPropertyOp29
 70
     1
102
RTVSPropertyOp30
 70
     1
102
RTVSPropertyOp31
 70
     1
102
RTVSPropertyOp32
 70
     1
  0
XRECORD
  5
105
102
{ACAD_REACTORS
330
104
102
}
330
104
100
AcDbXrecord
280
     1
102
RTVSPropertyOp0
 70
     1
102
RTVSPropertyOp1
 70
     1
102
RTVSPropertyOp2
 70
     1
102
RTVSPropertyOp3
 70
     1
102
RTVSPropertyOp4
 70
     1
102
RTVSPropertyOp5
 70
     1
102
RTVSPropertyOp6
 70
     1
102
RTVSPropertyOp7
 70
     1
102
RTVSPropertyOp8
 70
     1
102
RTVSPropertyOp9
 70
     1
102
RTVSPropertyOp10
 70
     1
102
RTVSPropertyOp11
 70
     1
102
RTVSPropertyOp12
 70
     1
102
RTVSPropertyOp13
 70
     1
102
RTVSPropertyOp14
 70
     1
102
RTVSPropertyOp15
 70
     1
102
RTVSPropertyOp16
 70
     1
102
RTVSPropertyOp17
 70
     1
102
RTVSPropertyOp18
 70
     1
102
RTVSPropertyOp19
 70
     1
102
RTVSPropertyOp20
 70
     1
102
RTVSPropertyOp21
 70
     1
102
RTVSPropertyOp22
 70
     1
102
RTVSPropertyOp23
 70
     1
102
RTVSPropertyOp24
 70
     1
102
RTVSPropertyOp25
 70
     1
102
RTVSPropertyOp26
 70
     1
102
RTVSPropertyOp27
 70
     1
102
RTVSPropertyOp28
 70
     1
102
RTVSPropertyOp29
 70
     1
102
RTVSPropertyOp30
 70
     1
102
RTVSPropertyOp31
 70
     1
102
RTVSPropertyOp32
 70
     1
  0
XRECORD
  5
109
102
{ACAD_REACTORS
330
108
102
}
330
108
100
AcDbXrecord
280
     1
102
RTVSPropertyOp0
 70
     1
102
RTVSPropertyOp1
 70
     1
102
RTVSPropertyOp2
 70
     1
102
RTVSPropertyOp3
 70
     1
102
RTVSPropertyOp4
 70
     1
102
RTVSPropertyOp5
 70
     1
102
RTVSPropertyOp6
 70
     1
102
RTVSPropertyOp7
 70
     1
102
RTVSPropertyOp8
 70
     1
102
RTVSPropertyOp9
 70
     1
102
RTVSPropertyOp10
 70
     1
102
RTVSPropertyOp11
 70
     1
102
RTVSPropertyOp12
 70
     1
102
RTVSPropertyOp13
 70
     1
102
RTVSPropertyOp14
 70
     1
102
RTVSPropertyOp15
 70
     1
102
RTVSPropertyOp16
 70
     1
102
RTVSPropertyOp17
 70
     1
102
RTVSPropertyOp18
 70
     1
102
RTVSPropertyOp19
 70
     1
102
RTVSPropertyOp20
 70
     1
102
RTVSPropertyOp21
 70
     1
102
RTVSPropertyOp22
 70
     1
102
RTVSPropertyOp23
 70
     1
102
RTVSPropertyOp24
 70
     1
102
RTVSPropertyOp25
 70
     1
102
RTVSPropertyOp26
 70
     1
102
RTVSPropertyOp27
 70
     1
102
RTVSPropertyOp28
 70
     1
102
RTVSPropertyOp29
 70
     1
102
RTVSPropertyOp30
 70
     1
102
RTVSPropertyOp31
 70
     1
102
RTVSPropertyOp32
 70
     1
  0
XRECORD
  5
111
102
{ACAD_REACTORS
330
110
102
}
330
110
100
AcDbXrecord
280
     1
102
RTVSPropertyOp0
 70
     1
102
RTVSPropertyOp1
 70
     1
102
RTVSPropertyOp2
 70
     1
102
RTVSPropertyOp3
 70
     1
102
RTVSPropertyOp4
 70
     1
102
RTVSPropertyOp5
 70
     1
102
RTVSPropertyOp6
 70
     1
102
RTVSPropertyOp7
 70
     1
102
RTVSPropertyOp8
 70
     1
102
RTVSPropertyOp9
 70
     1
102
RTVSPropertyOp10
 70
     1
102
RTVSPropertyOp11
 70
     1
102
RTVSPropertyOp12
 70
     1
102
RTVSPropertyOp13
 70
     1
102
RTVSPropertyOp14
 70
     1
102
RTVSPropertyOp15
 70
     1
102
RTVSPropertyOp16
 70
     1
102
RTVSPropertyOp17
 70
     1
102
RTVSPropertyOp18
 70
     1
102
RTVSPropertyOp19
 70
     1
102
RTVSPropertyOp20
 70
     1
102
RTVSPropertyOp21
 70
     1
102
RTVSPropertyOp22
 70
     1
102
RTVSPropertyOp23
 70
     1
102
RTVSPropertyOp24
 70
     1
102
RTVSPropertyOp25
 70
     1
102
RTVSPropertyOp26
 70
     1
102
RTVSPropertyOp27
 70
     1
102
RTVSPropertyOp28
 70
     1
102
RTVSPropertyOp29
 70
     1
102
RTVSPropertyOp30
 70
     1
102
RTVSPropertyOp31
 70
     1
102
RTVSPropertyOp32
 70
     1
  0
XRECORD
  5
119
102
{ACAD_REACTORS
330
118
102
}
330
118
100
AcDbXrecord
280
     1
102
RTVSPropertyOp0
 70
     1
102
RTVSPropertyOp1
 70
     1
102
RTVSPropertyOp2
 70
     1
102
RTVSPropertyOp3
 70
     1
102
RTVSPropertyOp4
 70
     1
102
RTVSPropertyOp5
 70
     1
102
RTVSPropertyOp6
 70
     1
102
RTVSPropertyOp7
 70
     1
102
RTVSPropertyOp8
 70
     1
102
RTVSPropertyOp9
 70
     1
102
RTVSPropertyOp10
 70
     1
102
RTVSPropertyOp11
 70
     1
102
RTVSPropertyOp12
 70
     1
102
RTVSPropertyOp13
 70
     1
102
RTVSPropertyOp14
 70
     1
102
RTVSPropertyOp15
 70
     1
102
RTVSPropertyOp16
 70
     1
102
RTVSPropertyOp17
 70
     1
102
RTVSPropertyOp18
 70
     1
102
RTVSPropertyOp19
 70
     1
102
RTVSPropertyOp20
 70
     1
102
RTVSPropertyOp21
 70
     1
102
RTVSPropertyOp22
 70
     1
102
RTVSPropertyOp23
 70
     1
102
RTVSPropertyOp24
 70
     1
102
RTVSPropertyOp25
 70
     1
102
RTVSPropertyOp26
 70
     1
102
RTVSPropertyOp27
 70
     1
102
RTVSPropertyOp28
 70
     1
102
RTVSPropertyOp29
 70
     1
102
RTVSPropertyOp30
 70
     1
102
RTVSPropertyOp31
 70
     1
102
RTVSPropertyOp32
 70
     1
  0
XRECORD
  5
10D
102
{ACAD_REACTORS
330
10C
102
}
330
10C
100
AcDbXrecord
280
     1
102
RTVSPropertyOp0
 70
     1
102
RTVSPropertyOp1
 70
     1
102
RTVSPropertyOp2
 70
     1
102
RTVSPropertyOp3
 70
     1
102
RTVSPropertyOp4
 70
     1
102
RTVSPropertyOp5
 70
     1
102
RTVSPropertyOp6
 70
     1
102
RTVSPropertyOp7
 70
     1
102
RTVSPropertyOp8
 70
     1
102
RTVSPropertyOp9
 70
     1
102
RTVSPropertyOp10
 70
     1
102
RTVSPropertyOp11
 70
     1
102
RTVSPropertyOp12
 70
     1
102
RTVSPropertyOp13
 70
     1
102
RTVSPropertyOp14
 70
     1
102
RTVSPropertyOp15
 70
     1
102
RTVSPropertyOp16
 70
     1
102
RTVSPropertyOp17
 70
     1
102
RTVSPropertyOp18
 70
     1
102
RTVSPropertyOp19
 70
     1
102
RTVSPropertyOp20
 70
     1
102
RTVSPropertyOp21
 70
     1
102
RTVSPropertyOp22
 70
     1
102
RTVSPropertyOp23
 70
     1
102
RTVSPropertyOp24
 70
     1
102
RTVSPropertyOp25
 70
     1
102
RTVSPropertyOp26
 70
     1
102
RTVSPropertyOp27
 70
     1
102
RTVSPropertyOp28
 70
     1
102
RTVSPropertyOp29
 70
     1
102
RTVSPropertyOp30
 70
     1
102
RTVSPropertyOp31
 70
     1
102
RTVSPropertyOp32
 70
     1
  0
XRECORD
  5
10F
102
{ACAD_REACTORS
330
10E
102
}
330
10E
100
AcDbXrecord
280
     1
102
RTVSPropertyOp0
 70
     1
102
RTVSPropertyOp1
 70
     1
102
RTVSPropertyOp2
 70
     1
102
RTVSPropertyOp3
 70
     1
102
RTVSPropertyOp4
 70
     1
102
RTVSPropertyOp5
 70
     1
102
RTVSPropertyOp6
 70
     1
102
RTVSPropertyOp7
 70
     1
102
RTVSPropertyOp8
 70
     1
102
RTVSPropertyOp9
 70
     1
102
RTVSPropertyOp10
 70
     1
102
RTVSPropertyOp11
 70
     1
102
RTVSPropertyOp12
 70
     1
102
RTVSPropertyOp13
 70
     1
102
RTVSPropertyOp14
 70
     1
102
RTVSPropertyOp15
 70
     1
102
RTVSPropertyOp16
 70
     1
102
RTVSPropertyOp17
 70
     1
102
RTVSPropertyOp18
 70
     1
102
RTVSPropertyOp19
 70
     1
102
RTVSPropertyOp20
 70
     1
102
RTVSPropertyOp21
 70
     1
102
RTVSPropertyOp22
 70
     1
102
RTVSPropertyOp23
 70
     1
102
RTVSPropertyOp24
 70
     1
102
RTVSPropertyOp25
 70
     1
102
RTVSPropertyOp26
 70
     1
102
RTVSPropertyOp27
 70
     1
102
RTVSPropertyOp28
 70
     1
102
RTVSPropertyOp29
 70
     1
102
RTVSPropertyOp30
 70
     1
102
RTVSPropertyOp31
 70
     1
102
RTVSPropertyOp32
 70
     1
  0
XRECORD
  5
117
102
{ACAD_REACTORS
330
116
102
}
330
116
100
AcDbXrecord
280
     1
102
RTVSPropertyOp0
 70
     1
102
RTVSPropertyOp1
 70
     1
102
RTVSPropertyOp2
 70
     1
102
RTVSPropertyOp3
 70
     1
102
RTVSPropertyOp4
 70
     1
102
RTVSPropertyOp5
 70
     1
102
RTVSPropertyOp6
 70
     1
102
RTVSPropertyOp7
 70
     1
102
RTVSPropertyOp8
 70
     1
102
RTVSPropertyOp9
 70
     1
102
RTVSPropertyOp10
 70
     1
102
RTVSPropertyOp11
 70
     1
102
RTVSPropertyOp12
 70
     1
102
RTVSPropertyOp13
 70
     1
102
RTVSPropertyOp14
 70
     1
102
RTVSPropertyOp15
 70
     1
102
RTVSPropertyOp16
 70
     1
102
RTVSPropertyOp17
 70
     1
102
RTVSPropertyOp18
 70
     1
102
RTVSPropertyOp19
 70
     1
102
RTVSPropertyOp20
 70
     1
102
RTVSPropertyOp21
 70
     1
102
RTVSPropertyOp22
 70
     1
102
RTVSPropertyOp23
 70
     1
102
RTVSPropertyOp24
 70
     1
102
RTVSPropertyOp25
 70
     1
102
RTVSPropertyOp26
 70
     1
102
RTVSPropertyOp27
 70
     1
102
RTVSPropertyOp28
 70
     1
102
RTVSPropertyOp29
 70
     1
102
RTVSPropertyOp30
 70
     1
102
RTVSPropertyOp31
 70
     1
102
RTVSPropertyOp32
 70
     1
  0
XRECORD
  5
FB
102
{ACAD_REACTORS
330
FA
102
}
330
FA
100
AcDbXrecord
280
     1
102
RTVSPropertyOp0
 70
     1
102
RTVSPropertyOp1
 70
     1
102
RTVSPropertyOp2
 70
     1
102
RTVSPropertyOp3
 70
     1
102
RTVSPropertyOp4
 70
     1
102
RTVSPropertyOp5
 70
     1
102
RTVSPropertyOp6
 70
     1
102
RTVSPropertyOp7
 70
     1
102
RTVSPropertyOp8
 70
     1
102
RTVSPropertyOp9
 70
     1
102
RTVSPropertyOp10
 70
     1
102
RTVSPropertyOp11
 70
     1
102
RTVSPropertyOp12
 70
     1
102
RTVSPropertyOp13
 70
     1
102
RTVSPropertyOp14
 70
     1
102
RTVSPropertyOp15
 70
     1
102
RTVSPropertyOp16
 70
     1
102
RTVSPropertyOp17
 70
     1
102
RTVSPropertyOp18
 70
     1
102
RTVSPropertyOp19
 70
     1
102
RTVSPropertyOp20
 70
     1
102
RTVSPropertyOp21
 70
     1
102
RTVSPropertyOp22
 70
     1
102
RTVSPropertyOp23
 70
     1
102
RTVSPropertyOp24
 70
     1
102
RTVSPropertyOp25
 70
     1
102
RTVSPropertyOp26
 70
     1
102
RTVSPropertyOp27
 70
     1
102
RTVSPropertyOp28
 70
     1
102
RTVSPropertyOp29
 70
     1
102
RTVSPropertyOp30
 70
     1
102
RTVSPropertyOp31
 70
     1
102
RTVSPropertyOp32
 70
     1
  0
XRECORD
  5
FD
102
{ACAD_REACTORS
330
FC
102
}
330
FC
100
AcDbXrecord
280
     1
102
RTVSPropertyOp0
 70
     1
102
RTVSPropertyOp1
 70
     1
102
RTVSPropertyOp2
 70
     1
102
RTVSPropertyOp3
 70
     1
102
RTVSPropertyOp4
 70
     1
102
RTVSPropertyOp5
 70
     1
102
RTVSPropertyOp6
 70
     1
102
RTVSPropertyOp7
 70
     1
102
RTVSPropertyOp8
 70
     1
102
RTVSPropertyOp9
 70
     1
102
RTVSPropertyOp10
 70
     1
102
RTVSPropertyOp11
 70
     1
102
RTVSPropertyOp12
 70
     1
102
RTVSPropertyOp13
 70
     1
102
RTVSPropertyOp14
 70
     1
102
RTVSPropertyOp15
 70
     1
102
RTVSPropertyOp16
 70
     1
102
RTVSPropertyOp17
 70
     1
102
RTVSPropertyOp18
 70
     1
102
RTVSPropertyOp19
 70
     1
102
RTVSPropertyOp20
 70
     1
102
RTVSPropertyOp21
 70
     1
102
RTVSPropertyOp22
 70
     1
102
RTVSPropertyOp23
 70
     1
102
RTVSPropertyOp24
 70
     1
102
RTVSPropertyOp25
 70
     1
102
RTVSPropertyOp26
 70
     1
102
RTVSPropertyOp27
 70
     1
102
RTVSPropertyOp28
 70
     1
102
RTVSPropertyOp29
 70
     1
102
RTVSPropertyOp30
 70
     1
102
RTVSPropertyOp31
 70
     1
102
RTVSPropertyOp32
 70
     1
  0
XRECORD
  5
FF
102
{ACAD_REACTORS
330
FE
102
}
330
FE
100
AcDbXrecord
280
     1
102
RTVSPropertyOp0
 70
     1
102
RTVSPropertyOp1
 70
     1
102
RTVSPropertyOp2
 70
     1
102
RTVSPropertyOp3
 70
     1
102
RTVSPropertyOp4
 70
     1
102
RTVSPropertyOp5
 70
     1
102
RTVSPropertyOp6
 70
     1
102
RTVSPropertyOp7
 70
     1
102
RTVSPropertyOp8
 70
     1
102
RTVSPropertyOp9
 70
     1
102
RTVSPropertyOp10
 70
     1
102
RTVSPropertyOp11
 70
     1
102
RTVSPropertyOp12
 70
     1
102
RTVSPropertyOp13
 70
     1
102
RTVSPropertyOp14
 70
     1
102
RTVSPropertyOp15
 70
     1
102
RTVSPropertyOp16
 70
     1
102
RTVSPropertyOp17
 70
     1
102
RTVSPropertyOp18
 70
     1
102
RTVSPropertyOp19
 70
     1
102
RTVSPropertyOp20
 70
     1
102
RTVSPropertyOp21
 70
     1
102
RTVSPropertyOp22
 70
     1
102
RTVSPropertyOp23
 70
     1
102
RTVSPropertyOp24
 70
     1
102
RTVSPropertyOp25
 70
     1
102
RTVSPropertyOp26
 70
     1
102
RTVSPropertyOp27
 70
     1
102
RTVSPropertyOp28
 70
     1
102
RTVSPropertyOp29
 70
     1
102
RTVSPropertyOp30
 70
     1
102
RTVSPropertyOp31
 70
     1
102
RTVSPropertyOp32
 70
     1
  0
XRECORD
  5
101
102
{ACAD_REACTORS
330
100
102
}
330
100
100
AcDbXrecord
280
     1
102
RTVSPropertyOp0
 70
     1
102
RTVSPropertyOp1
 70
     1
102
RTVSPropertyOp2
 70
     1
102
RTVSPropertyOp3
 70
     1
102
RTVSPropertyOp4
 70
     1
102
RTVSPropertyOp5
 70
     1
102
RTVSPropertyOp6
 70
     1
102
RTVSPropertyOp7
 70
     1
102
RTVSPropertyOp8
 70
     1
102
RTVSPropertyOp9
 70
     1
102
RTVSPropertyOp10
 70
     1
102
RTVSPropertyOp11
 70
     1
102
RTVSPropertyOp12
 70
     1
102
RTVSPropertyOp13
 70
     1
102
RTVSPropertyOp14
 70
     1
102
RTVSPropertyOp15
 70
     1
102
RTVSPropertyOp16
 70
     1
102
RTVSPropertyOp17
 70
     1
102
RTVSPropertyOp18
 70
     1
102
RTVSPropertyOp19
 70
     1
102
RTVSPropertyOp20
 70
     1
102
RTVSPropertyOp21
 70
     1
102
RTVSPropertyOp22
 70
     1
102
RTVSPropertyOp23
 70
     1
102
RTVSPropertyOp24
 70
     1
102
RTVSPropertyOp25
 70
     1
102
RTVSPropertyOp26
 70
     1
102
RTVSPropertyOp27
 70
     1
102
RTVSPropertyOp28
 70
     1
102
RTVSPropertyOp29
 70
     1
102
RTVSPropertyOp30
 70
     1
102
RTVSPropertyOp31
 70
     1
102
RTVSPropertyOp32
 70
     1
  0
XRECORD
  5
115
102
{ACAD_REACTORS
330
114
102
}
330
114
100
AcDbXrecord
280
     1
102
RTVSPropertyOp0
 70
     1
102
RTVSPropertyOp1
 70
     1
102
RTVSPropertyOp2
 70
     1
102
RTVSPropertyOp3
 70
     1
102
RTVSPropertyOp4
 70
     1
102
RTVSPropertyOp5
 70
     1
102
RTVSPropertyOp6
 70
     1
102
RTVSPropertyOp7
 70
     1
102
RTVSPropertyOp8
 70
     1
102
RTVSPropertyOp9
 70
     1
102
RTVSPropertyOp10
 70
     1
102
RTVSPropertyOp11
 70
     1
102
RTVSPropertyOp12
 70
     1
102
RTVSPropertyOp13
 70
     1
102
RTVSPropertyOp14
 70
     1
102
RTVSPropertyOp15
 70
     1
102
RTVSPropertyOp16
 70
     1
102
RTVSPropertyOp17
 70
     1
102
RTVSPropertyOp18
 70
     1
102
RTVSPropertyOp19
 70
     1
102
RTVSPropertyOp20
 70
     1
102
RTVSPropertyOp21
 70
     1
102
RTVSPropertyOp22
 70
     1
102
RTVSPropertyOp23
 70
     1
102
RTVSPropertyOp24
 70
     1
102
RTVSPropertyOp25
 70
     1
102
RTVSPropertyOp26
 70
     1
102
RTVSPropertyOp27
 70
     1
102
RTVSPropertyOp28
 70
     1
102
RTVSPropertyOp29
 70
     1
102
RTVSPropertyOp30
 70
     1
102
RTVSPropertyOp31
 70
     1
102
RTVSPropertyOp32
 70
     1
  0
XRECORD
  5
10B
102
{ACAD_REACTORS
330
10A
102
}
330
10A
100
AcDbXrecord
280
     1
102
RTVSPropertyOp0
 70
     1
102
RTVSPropertyOp1
 70
     1
102
RTVSPropertyOp2
 70
     1
102
RTVSPropertyOp3
 70
     1
102
RTVSPropertyOp4
 70
     1
102
RTVSPropertyOp5
 70
     1
102
RTVSPropertyOp6
 70
     1
102
RTVSPropertyOp7
 70
     1
102
RTVSPropertyOp8
 70
     1
102
RTVSPropertyOp9
 70
     1
102
RTVSPropertyOp10
 70
     1
102
RTVSPropertyOp11
 70
     1
102
RTVSPropertyOp12
 70
     1
102
RTVSPropertyOp13
 70
     1
102
RTVSPropertyOp14
 70
     1
102
RTVSPropertyOp15
 70
     1
102
RTVSPropertyOp16
 70
     1
102
RTVSPropertyOp17
 70
     1
102
RTVSPropertyOp18
 70
     1
102
RTVSPropertyOp19
 70
     1
102
RTVSPropertyOp20
 70
     1
102
RTVSPropertyOp21
 70
     1
102
RTVSPropertyOp22
 70
     1
102
RTVSPropertyOp23
 70
     1
102
RTVSPropertyOp24
 70
     1
102
RTVSPropertyOp25
 70
     1
102
RTVSPropertyOp26
 70
     1
102
RTVSPropertyOp27
 70
     1
102
RTVSPropertyOp28
 70
     1
102
RTVSPropertyOp29
 70
     1
102
RTVSPropertyOp30
 70
     1
102
RTVSPropertyOp31
 70
     1
102
RTVSPropertyOp32
 70
     1
  0
XRECORD
  5
113
102
{ACAD_REACTORS
330
112
102
}
330
112
100
AcDbXrecord
280
     1
102
RTVSPropertyOp0
 70
     1
102
RTVSPropertyOp1
 70
     1
102
RTVSPropertyOp2
 70
     1
102
RTVSPropertyOp3
 70
     1
102
RTVSPropertyOp4
 70
     1
102
RTVSPropertyOp5
 70
     1
102
RTVSPropertyOp6
 70
     1
102
RTVSPropertyOp7
 70
     1
102
RTVSPropertyOp8
 70
     1
102
RTVSPropertyOp9
 70
     1
102
RTVSPropertyOp10
 70
     1
102
RTVSPropertyOp11
 70
     1
102
RTVSPropertyOp12
 70
     1
102
RTVSPropertyOp13
 70
     1
102
RTVSPropertyOp14
 70
     1
102
RTVSPropertyOp15
 70
     1
102
RTVSPropertyOp16
 70
     1
102
RTVSPropertyOp17
 70
     1
102
RTVSPropertyOp18
 70
     1
102
RTVSPropertyOp19
 70
     1
102
RTVSPropertyOp20
 70
     1
102
RTVSPropertyOp21
 70
     1
102
RTVSPropertyOp22
 70
     1
102
RTVSPropertyOp23
 70
     1
102
RTVSPropertyOp24
 70
     1
102
RTVSPropertyOp25
 70
     1
102
RTVSPropertyOp26
 70
     1
102
RTVSPropertyOp27
 70
     1
102
RTVSPropertyOp28
 70
     1
102
RTVSPropertyOp29
 70
     1
102
RTVSPropertyOp30
 70
     1
102
RTVSPropertyOp31
 70
     1
102
RTVSPropertyOp32
 70
     1
  0
ENDSEC
  0
EOF
