  0
SECTION
  2
HEADER
  9
$ACADVER
  1
AC1015
  9
$ACADMAINTVER
 70
    20
  9
$DWGCODEPAGE
  3
ANSI_1252
  9
$INSBASE
 10
0.0
 20
0.0
 30
0.0
  9
$EXTMIN
 10
49.83855790953922
 20
48.88742623632097
 30
-0.0000000000000336
  9
$EXTMAX
 10
1307.607168960248
 20
827.2109446686229
 30
0.000000000000016
  9
$LIMMIN
 10
0.0
 20
0.0
  9
$LIMMAX
 10
12.0
 20
9.0
  9
$ORTHOMODE
 70
     1
  9
$REGENMODE
 70
     1
  9
$FILLMODE
 70
     1
  9
$QTEXTMODE
 70
     0
  9
$MIRRTEXT
 70
     1
  9
$LTSCALE
 40
1.0
  9
$ATTMODE
 70
     1
  9
$TEXTSIZE
 40
0.2
  9
$TRACEWID
 40
0.05
  9
$TEXTSTYLE
  7
Standard
  9
$CLAYER
  8
0
  9
$CELTYPE
  6
ByLayer
  9
$CECOLOR
 62
   256
  9
$CELTSCALE
 40
1.0
  9
$DISPSILH
 70
     0
  9
$DIMSCALE
 40
1.0
  9
$DIMASZ
 40
0.18
  9
$DIMEXO
 40
0.0625
  9
$DIMDLI
 40
0.38
  9
$DIMRND
 40
0.0
  9
$DIMDLE
 40
0.0
  9
$DIMEXE
 40
0.18
  9
$DIMTP
 40
0.0
  9
$DIMTM
 40
0.0
  9
$DIMTXT
 40
0.18
  9
$DIMCEN
 40
0.09
  9
$DIMTSZ
 40
0.0
  9
$DIMTOL
 70
     0
  9
$DIMLIM
 70
     0
  9
$DIMTIH
 70
     1
  9
$DIMTOH
 70
     1
  9
$DIMSE1
 70
     0
  9
$DIMSE2
 70
     0
  9
$DIMTAD
 70
     0
  9
$DIMZIN
 70
     0
  9
$DIMBLK
  1

  9
$DIMASO
 70
     1
  9
$DIMSHO
 70
     1
  9
$DIMPOST
  1

  9
$DIMAPOST
  1

  9
$DIMALT
 70
     0
  9
$DIMALTD
 70
     2
  9
$DIMALTF
 40
25.4
  9
$DIMLFAC
 40
1.0
  9
$DIMTOFL
 70
     0
  9
$DIMTVP
 40
0.0
  9
$DIMTIX
 70
     0
  9
$DIMSOXD
 70
     0
  9
$DIMSAH
 70
     0
  9
$DIMBLK1
  1

  9
$DIMBLK2
  1

  9
$DIMSTYLE
  2
Standard
  9
$DIMCLRD
 70
     0
  9
$DIMCLRE
 70
     0
  9
$DIMCLRT
 70
     0
  9
$DIMTFAC
 40
1.0
  9
$DIMGAP
 40
0.09
  9
$DIMJUST
 70
     0
  9
$DIMSD1
 70
     0
  9
$DIMSD2
 70
     0
  9
$DIMTOLJ
 70
     1
  9
$DIMTZIN
 70
     0
  9
$DIMALTZ
 70
     0
  9
$DIMALTTZ
 70
     0
  9
$DIMUPT
 70
     0
  9
$DIMDEC
 70
     4
  9
$DIMTDEC
 70
     4
  9
$DIMALTU
 70
     2
  9
$DIMALTTD
 70
     2
  9
$DIMTXSTY
  7
Standard
  9
$DIMAUNIT
 70
     0
  9
$DIMADEC
 70
     0
  9
$DIMALTRND
 40
0.0
  9
$DIMAZIN
 70
     0
  9
$DIMDSEP
 70
    46
  9
$DIMATFIT
 70
     3
  9
$DIMFRAC
 70
     0
  9
$DIMLDRBLK
  1

  9
$DIMLUNIT
 70
     2
  9
$DIMLWD
 70
    -2
  9
$DIMLWE
 70
    -2
  9
$DIMTMOVE
 70
     2
  9
$LUNITS
 70
     2
  9
$LUPREC
 70
     4
  9
$SKETCHINC
 40
0.1
  9
$FILLETRAD
 40
0.5
  9
$AUNITS
 70
     0
  9
$AUPREC
 70
     0
  9
$MENU
  1
.
  9
$ELEVATION
 40
0.0
  9
$PELEVATION
 40
0.0
  9
$THICKNESS
 40
0.0
  9
$LIMCHECK
 70
     0
  9
$CHAMFERA
 40
0.5
  9
$CHAMFERB
 40
0.5
  9
$CHAMFERC
 40
1.0
  9
$CHAMFERD
 40
0.0
  9
$SKPOLY
 70
     0
  9
$TDCREATE
 40
2454858.730020579
  9
$TDUCREATE
 40
2454858.646687246
  9
$TDUPDATE
 40
2455701.726238750
  9
$TDUUPDATE
 40
2455701.642905417
  9
$TDINDWG
 40
0.0150245139
  9
$TDUSRTIMER
 40
0.0150211458
  9
$USRTIMER
 70
     1
  9
$ANGBASE
 50
0.0
  9
$ANGDIR
 70
     0
  9
$PDMODE
 70
     0
  9
$PDSIZE
 40
0.0
  9
$PLINEWID
 40
0.0
  9
$SPLFRAME
 70
     0
  9
$SPLINETYPE
 70
     6
  9
$SPLINESEGS
 70
     8
  9
$HANDSEED
  5
C3D
  9
$SURFTAB1
 70
     6
  9
$SURFTAB2
 70
     6
  9
$SURFTYPE
 70
     6
  9
$SURFU
 70
     6
  9
$SURFV
 70
     6
  9
$UCSBASE
  2

  9
$UCSNAME
  2

  9
$UCSORG
 10
0.0
 20
0.0
 30
0.0
  9
$UCSXDIR
 10
1.0
 20
0.0
 30
0.0
  9
$UCSYDIR
 10
0.0
 20
1.0
 30
0.0
  9
$UCSORTHOREF
  2

  9
$UCSORTHOVIEW
 70
     0
  9
$UCSORGTOP
 10
0.0
 20
0.0
 30
0.0
  9
$UCSORGBOTTOM
 10
0.0
 20
0.0
 30
0.0
  9
$UCSORGLEFT
 10
0.0
 20
0.0
 30
0.0
  9
$UCSORGRIGHT
 10
0.0
 20
0.0
 30
0.0
  9
$UCSORGFRONT
 10
0.0
 20
0.0
 30
0.0
  9
$UCSORGBACK
 10
0.0
 20
0.0
 30
0.0
  9
$PUCSBASE
  2

  9
$PUCSNAME
  2

  9
$PUCSORG
 10
0.0
 20
0.0
 30
0.0
  9
$PUCSXDIR
 10
1.0
 20
0.0
 30
0.0
  9
$PUCSYDIR
 10
0.0
 20
1.0
 30
0.0
  9
$PUCSORTHOREF
  2

  9
$PUCSORTHOVIEW
 70
     0
  9
$PUCSORGTOP
 10
0.0
 20
0.0
 30
0.0
  9
$PUCSORGBOTTOM
 10
0.0
 20
0.0
 30
0.0
  9
$PUCSORGLEFT
 10
0.0
 20
0.0
 30
0.0
  9
$PUCSORGRIGHT
 10
0.0
 20
0.0
 30
0.0
  9
$PUCSORGFRONT
 10
0.0
 20
0.0
 30
0.0
  9
$PUCSORGBACK
 10
0.0
 20
0.0
 30
0.0
  9
$USERI1
 70
     0
  9
$USERI2
 70
     0
  9
$USERI3
 70
     0
  9
$USERI4
 70
     0
  9
$USERI5
 70
     0
  9
$USERR1
 40
0.0
  9
$USERR2
 40
0.0
  9
$USERR3
 40
0.0
  9
$USERR4
 40
0.0
  9
$USERR5
 40
0.0
  9
$WORLDVIEW
 70
     1
  9
$SHADEDGE
 70
     3
  9
$SHADEDIF
 70
    70
  9
$TILEMODE
 70
     1
  9
$MAXACTVP
 70
    64
  9
$PINSBASE
 10
0.0
 20
0.0
 30
0.0
  9
$PLIMCHECK
 70
     0
  9
$PEXTMIN
 10
1.000000000000000E+20
 20
1.000000000000000E+20
 30
1.000000000000000E+20
  9
$PEXTMAX
 10
-1.000000000000000E+20
 20
-1.000000000000000E+20
 30
-1.000000000000000E+20
  9
$PLIMMIN
 10
0.0
 20
0.0
  9
$PLIMMAX
 10
12.0
 20
9.0
  9
$UNITMODE
 70
     0
  9
$VISRETAIN
 70
     1
  9
$PLINEGEN
 70
     0
  9
$PSLTSCALE
 70
     1
  9
$TREEDEPTH
 70
  3020
  9
$CMLSTYLE
  2
Standard
  9
$CMLJUST
 70
     0
  9
$CMLSCALE
 40
1.0
  9
$PROXYGRAPHICS
 70
     1
  9
$MEASUREMENT
 70
     0
  9
$CELWEIGHT
370
    -1
  9
$ENDCAPS
280
     0
  9
$JOINSTYLE
280
     0
  9
$LWDISPLAY
290
     0
  9
$INSUNITS
 70
     4
  9
$HYPERLINKBASE
  1

  9
$STYLESHEET
  1

  9
$XEDIT
290
     1
  9
$CEPSNTYPE
380
     0
  9
$PSTYLEMODE
290
     1
  9
$FINGERPRINTGUID
  2
{52D6BF53-3DBF-4435-AAB3-F5988E66D5D6}
  9
$VERSIONGUID
  2
{B6232940-53CF-455C-A8E4-D8612AD9D37E}
  9
$EXTNAMES
290
     1
  9
$PSVPSCALE
 40
0.0
  9
$OLESTARTUP
290
     0
  0
ENDSEC
  0
SECTION
  2
CLASSES
  0
CLASS
  1
ACDBDICTIONARYWDFLT
  2
AcDbDictionaryWithDefault
  3
ObjectDBX Classes
 90
        0
280
     0
281
     0
  0
CLASS
  1
VISUALSTYLE
  2
AcDbVisualStyle
  3
ObjectDBX Classes
 90
     4095
280
     0
281
     0
  0
CLASS
  1
SCALE
  2
AcDbScale
  3
ObjectDBX Classes
 90
     1153
280
     0
281
     0
  0
CLASS
  1
DICTIONARYVAR
  2
AcDbDictionaryVar
  3
ObjectDBX Classes
 90
        0
280
     0
281
     0
  0
CLASS
  1
MATERIAL
  2
AcDbMaterial
  3
ObjectDBX Classes
 90
     1024
280
     0
281
     0
  0
CLASS
  1
TABLESTYLE
  2
AcDbTableStyle
  3
ObjectDBX Classes
 90
     4095
280
     0
281
     0
  0
CLASS
  1
DIMASSOC
  2
AcDbDimAssoc
  3
"AcDbDimAssoc|Product Desc:     AcDim ARX App For Dimension|Company:          Autodesk, Inc.|WEB Address:      www.autodesk.com"
 90
    32768
280
     0
281
     0
  0
CLASS
  1
ACDBPLACEHOLDER
  2
AcDbPlaceHolder
  3
ObjectDBX Classes
 90
        0
280
     0
281
     0
  0
CLASS
  1
LAYOUT
  2
AcDbLayout
  3
ObjectDBX Classes
 90
        0
280
     0
281
     0
  0
CLASS
  1
SORTENTSTABLE
  2
AcDbSortentsTable
  3
ObjectDBX Classes
 90
        0
280
     0
281
     0
  0
ENDSEC
  0
SECTION
  2
TABLES
  0
TABLE
  2
VPORT
  5
8
330
0
100
AcDbSymbolTable
 70
     1
  0
VPORT
  5
29
330
8
100
AcDbSymbolTableRecord
100
AcDbViewportTableRecord
  2
*Active
 70
     0
 10
0.0
 20
0.0
 11
1.0
 21
1.0
 12
-91.03277587040428
 22
208.0831879501843
 13
0.0
 23
0.0
 14
0.5
 24
0.5
 15
0.5
 25
0.5
 16
0.0
 26
0.0
 36
1.0
 17
256.0007544814707
 27
198.7201198944184
 37
0.0
 40
2319.628445504462
 41
1.872894333843797
 42
50.0
 43
0.0
 44
0.0
 50
0.0
 51
0.0
 71
     0
 72
 10000
 73
     1
 74
     3
 75
     0
 76
     0
 77
     0
 78
     0
281
     0
 65
     1
110
0.0
120
0.0
130
0.0
111
1.0
121
0.0
131
0.0
112
0.0
122
1.0
132
0.0
 79
     0
146
0.0
  0
ENDTAB
  0
TABLE
  2
LTYPE
  5
5
330
0
100
AcDbSymbolTable
 70
     1
  0
LTYPE
  5
14
330
5
100
AcDbSymbolTableRecord
100
AcDbLinetypeTableRecord
  2
ByBlock
 70
     0
  3

 72
    65
 73
     0
 40
0.0
  0
LTYPE
  5
15
330
5
100
AcDbSymbolTableRecord
100
AcDbLinetypeTableRecord
  2
ByLayer
 70
     0
  3

 72
    65
 73
     0
 40
0.0
  0
LTYPE
  5
16
330
5
100
AcDbSymbolTableRecord
100
AcDbLinetypeTableRecord
  2
Continuous
 70
     0
  3
Solid line
 72
    65
 73
     0
 40
0.0
  0
ENDTAB
  0
TABLE
  2
LAYER
  5
2
102
{ACAD_XDICTIONARY
360
BA
102
}
330
0
100
AcDbSymbolTable
 70
     5
  0
LAYER
  5
10
330
2
100
AcDbSymbolTableRecord
100
AcDbLayerTableRecord
  2
0
 70
     0
 62
     7
  6
Continuous
370
    -3
390
F
  0
LAYER
  5
3C
330
2
100
AcDbSymbolTableRecord
100
AcDbLayerTableRecord
  2
EBENE_1
 70
     0
 62
     7
  6
Continuous
370
    -3
390
F
  0
LAYER
  5
C0
330
2
100
AcDbSymbolTableRecord
100
AcDbLayerTableRecord
  2
Hewi
 70
     0
 62
     7
  6
Continuous
370
    -3
390
F
1001
AcAecLayerStandard
1000

1000

  0
LAYER
  5
C5
330
2
100
AcDbSymbolTableRecord
100
AcDbLayerTableRecord
  2
Defpoints
 70
     0
 62
     7
  6
Continuous
290
     0
370
    -3
390
F
  0
LAYER
  5
338
330
2
100
AcDbSymbolTableRecord
100
AcDbLayerTableRecord
  2
1
 70
     0
 62
     7
  6
Continuous
370
    -3
390
F
  0
ENDTAB
  0
TABLE
  2
STYLE
  5
3
330
0
100
AcDbSymbolTable
 70
     2
  0
STYLE
  5
11
330
3
100
AcDbSymbolTableRecord
100
AcDbTextStyleTableRecord
  2
Standard
 70
     0
 40
0.0
 41
1.0
 50
0.0
 71
     0
 42
0.2
  3
txt
  4

  0
STYLE
  5
192
330
3
100
AcDbSymbolTableRecord
100
AcDbTextStyleTableRecord
  2
HEWI
 70
     0
 40
0.0
 41
1.0
 50
0.0
 71
     0
 42
90.0
  3
ARIAL.TTF
  4

1001
ACAD
1000
Arial
1071
       34
  0
ENDTAB
  0
TABLE
  2
VIEW
  5
6
330
0
100
AcDbSymbolTable
 70
     0
  0
ENDTAB
  0
TABLE
  2
UCS
  5
7
330
0
100
AcDbSymbolTable
 70
     0
  0
ENDTAB
  0
TABLE
  2
APPID
  5
9
330
0
100
AcDbSymbolTable
 70
     4
  0
APPID
  5
12
330
9
100
AcDbSymbolTableRecord
100
AcDbRegAppTableRecord
  2
ACAD
 70
     0
  0
APPID
  5
C1
330
9
100
AcDbSymbolTableRecord
100
AcDbRegAppTableRecord
  2
AcAecLayerStandard
 70
     0
  0
APPID
  5
193
330
9
100
AcDbSymbolTableRecord
100
AcDbRegAppTableRecord
  2
ACAD_PSEXT
 70
     0
  0
APPID
  5
30D
330
9
100
AcDbSymbolTableRecord
100
AcDbRegAppTableRecord
  2
ACAD_EXEMPT_FROM_CAD_STANDARDS
 70
     0
  0
ENDTAB
  0
TABLE
  2
DIMSTYLE
  5
A
330
0
100
AcDbSymbolTable
 70
     1
100
AcDbDimStyleTable
 71
     1
340
27
  0
DIMSTYLE
105
27
330
A
100
AcDbSymbolTableRecord
100
AcDbDimStyleTableRecord
  2
Standard
 70
     0
340
11
  0
ENDTAB
  0
TABLE
  2
BLOCK_RECORD
  5
1
330
0
100
AcDbSymbolTable
 70
    13
  0
BLOCK_RECORD
  5
1F
102
{ACAD_XDICTIONARY
360
13D
102
}
330
1
100
AcDbSymbolTableRecord
100
AcDbBlockTableRecord
  2
*Model_Space
340
22
  0
BLOCK_RECORD
  5
80
330
1
100
AcDbSymbolTableRecord
100
AcDbBlockTableRecord
  2
*Paper_Space
340
81
  0
BLOCK_RECORD
  5
23
330
1
100
AcDbSymbolTableRecord
100
AcDbBlockTableRecord
  2
*Paper_Space0
340
0
  0
BLOCK_RECORD
  5
3B
330
1
100
AcDbSymbolTableRecord
100
AcDbBlockTableRecord
  2
BLOCK_3
340
0
102
{BLKREFS
331
7A
102
}
  0
BLOCK_RECORD
  5
58
330
1
100
AcDbSymbolTableRecord
100
AcDbBlockTableRecord
  2
BLOCK_4
340
0
102
{BLKREFS
331
7B
102
}
  0
BLOCK_RECORD
  5
61
330
1
100
AcDbSymbolTableRecord
100
AcDbBlockTableRecord
  2
BLOCK_5
340
0
102
{BLKREFS
331
7C
102
}
  0
BLOCK_RECORD
  5
79
330
1
100
AcDbSymbolTableRecord
100
AcDbBlockTableRecord
  2
BLOCK_2
340
0
  0
BLOCK_RECORD
  5
1B
330
1
100
AcDbSymbolTableRecord
100
AcDbBlockTableRecord
  2
*Paper_Space5
340
0
  0
BLOCK_RECORD
  5
254
330
1
100
AcDbSymbolTableRecord
100
AcDbBlockTableRecord
  2
*D6
340
0
  0
BLOCK_RECORD
  5
26E
330
1
100
AcDbSymbolTableRecord
100
AcDbBlockTableRecord
  2
*D7
340
0
  0
BLOCK_RECORD
  5
288
330
1
100
AcDbSymbolTableRecord
100
AcDbBlockTableRecord
  2
*D8
340
0
  0
BLOCK_RECORD
  5
2A2
330
1
100
AcDbSymbolTableRecord
100
AcDbBlockTableRecord
  2
*D9
340
0
  0
BLOCK_RECORD
  5
2EB
330
1
100
AcDbSymbolTableRecord
100
AcDbBlockTableRecord
  2
*D10
340
0
  0
BLOCK_RECORD
  5
316
330
1
100
AcDbSymbolTableRecord
100
AcDbBlockTableRecord
  2
*D11
340
0
  0
ENDTAB
  0
ENDSEC
  0
SECTION
  2
BLOCKS
  0
BLOCK
  5
20
330
1F
100
AcDbEntity
  8
0
100
AcDbBlockBegin
  2
*Model_Space
 70
     0
 10
0.0
 20
0.0
 30
0.0
  3
*Model_Space
  1

  0
ENDBLK
  5
21
330
1F
100
AcDbEntity
  8
0
100
AcDbBlockEnd
  0
BLOCK
  5
82
330
80
100
AcDbEntity
 67
     1
  8
0
100
AcDbBlockBegin
  2
*Paper_Space
 70
     0
 10
0.0
 20
0.0
 30
0.0
  3
*Paper_Space
  1

  0
ENDBLK
  5
83
330
80
100
AcDbEntity
 67
     1
  8
0
100
AcDbBlockEnd
  0
BLOCK
  5
24
330
23
100
AcDbEntity
  8
0
100
AcDbBlockBegin
  2
*Paper_Space0
 70
     0
 10
0.0
 20
0.0
 30
0.0
  3
*Paper_Space0
  1

  0
ENDBLK
  5
25
330
23
100
AcDbEntity
  8
0
100
AcDbBlockEnd
  0
BLOCK
  5
56
330
3B
100
AcDbEntity
  8
0
100
AcDbBlockBegin
  2
BLOCK_3
 70
     0
 10
0.0
 20
0.0
 30
0.0
  3
BLOCK_3
  1

  0
SPLINE
  5
3D
330
3B
100
AcDbEntity
  8
EBENE_1
 62
   255
100
AcDbSpline
210
0.0
220
0.0
230
1.0
 70
    11
 71
     3
 72
    95
 73
    91
 74
     0
 42
0.0000000001
 43
0.0000000001
 40
0.0
 40
0.0
 40
0.0
 40
0.0
 40
1.0
 40
1.0
 40
1.0
 40
2.0
 40
2.0
 40
2.0
 40
3.0
 40
3.0
 40
3.0
 40
4.0
 40
4.0
 40
4.0
 40
5.0
 40
5.0
 40
5.0
 40
6.0
 40
6.0
 40
6.0
 40
7.0
 40
7.0
 40
7.0
 40
8.0
 40
8.0
 40
8.0
 40
9.0
 40
9.0
 40
9.0
 40
10.0
 40
10.0
 40
10.0
 40
11.0
 40
11.0
 40
11.0
 40
12.0
 40
12.0
 40
12.0
 40
13.0
 40
13.0
 40
13.0
 40
14.0
 40
14.0
 40
14.0
 40
15.0
 40
15.0
 40
15.0
 40
16.0
 40
16.0
 40
16.0
 40
17.0
 40
17.0
 40
17.0
 40
18.0
 40
18.0
 40
18.0
 40
19.0
 40
19.0
 40
19.0
 40
20.0
 40
20.0
 40
20.0
 40
21.0
 40
21.0
 40
21.0
 40
22.0
 40
22.0
 40
22.0
 40
23.0
 40
23.0
 40
23.0
 40
24.0
 40
24.0
 40
24.0
 40
25.0
 40
25.0
 40
25.0
 40
26.0
 40
26.0
 40
26.0
 40
27.0
 40
27.0
 40
27.0
 40
28.0
 40
28.0
 40
28.0
 40
29.0
 40
29.0
 40
29.0
 40
30.0
 40
30.0
 40
30.0
 40
30.0
 10
459.0561756604127
 20
322.1429953672664
 30
0.0
 10
457.1358781701248
 20
322.1429953672664
 30
0.0
 10
455.2121355820792
 20
322.1429953672664
 30
0.0
 10
453.2863259353787
 20
322.1429953672664
 30
0.0
 10
453.2863259353787
 20
271.847324179232
 30
0.0
 10
453.2863259353787
 20
221.5499304423187
 30
0.0
 10
453.2863259353787
 20
171.2537424896207
 30
0.0
 10
453.2863259353787
 20
146.1059068956036
 30
0.0
 10
453.2863259353787
 20
120.9573822820349
 30
0.0
 10
453.2863259353787
 20
95.80816864891456
 30
0.0
 10
453.2863259353787
 20
83.23976300831871
 30
0.0
 10
453.2863259353787
 20
70.6699793286197
 30
0.0
 10
453.2863259353787
 20
58.10226270757546
 30
0.0
 10
453.2863259353787
 20
51.27132287308903
 30
0.0
 10
453.2863259353787
 20
44.44382813636056
 30
0.0
 10
453.2863259353787
 20
37.61357732142573
 30
0.0
 10
453.2863259353787
 20
34.62254344796337
 30
0.0
 10
453.2863259353787
 20
31.63702173091378
 30
0.0
 10
453.2863259353787
 20
28.64529883789985
 30
0.0
 10
453.2863259353787
 20
25.39794969124516
 30
0.0
 10
453.0465471314244
 20
22.77416323878154
 30
0.0
 10
449.0412764780181
 20
22.77416323878154
 30
0.0
 10
411.7828887354383
 20
22.77416323878154
 30
0.0
 10
374.5248455026342
 20
22.77416323878154
 30
0.0
 10
337.2606010938659
 20
22.77416323878154
 30
0.0
 10
336.7114525112468
 20
22.77416323878154
 30
0.0
 10
336.1616149090761
 20
22.87958323017516
 30
0.0
 10
335.6500178920188
 20
23.0924902716172
 30
0.0
 10
335.1380763651857
 20
23.30677535216241
 30
0.0
 10
334.6685095407755
 20
23.61545611127578
 30
0.0
 10
334.2740458474889
 20
24.00613019702865
 30
0.0
 10
333.885094310615
 20
24.39473722412671
 30
0.0
 10
333.5702123755373
 20
24.85293522593562
 30
0.0
 10
333.3573053340953
 20
25.36005361590758
 30
0.0
 10
333.1437092731016
 20
25.86579396677636
 30
0.0
 10
333.0258869297793
 20
26.42183274491137
 30
0.0
 10
333.0162406560571
 20
26.97029230797888
 30
0.0
 10
333.0162406560571
 20
26.99096289452665
 30
0.0
 10
333.0162406560571
 20
27.01370053972919
 30
0.0
 10
333.0162406560571
 20
27.03437112627696
 30
0.0
 10
333.0162406560571
 20
27.03437112627696
 30
0.0
 10
333.0162406560571
 20
27.0398832826897
 30
0.0
 10
333.0162406560571
 20
27.0398832826897
 30
0.0
 10
333.0162406560571
 20
125.4084485853214
 30
0.0
 10
333.0162406560571
 20
223.7747745744104
 30
0.0
 10
333.0162406560571
 20
322.1429953672664
 30
0.0
 10
331.0477117971578
 20
322.1429953672664
 30
0.0
 10
329.0802164675858
 20
322.1429953672664
 30
0.0
 10
327.107553491377
 20
322.1429953672664
 30
0.0
 10
326.1046855340343
 20
322.1429953672664
 30
0.0
 10
325.6888622346484
 20
322.5605412155313
 30
0.0
 10
325.6888622346484
 20
323.5623756435465
 30
0.0
 10
325.6888622346484
 20
332.5478796158622
 30
0.0
 10
325.6888622346484
 20
341.5326945686263
 30
0.0
 10
325.6888622346484
 20
350.5181985409418
 30
0.0
 10
325.6888622346484
 20
351.5210664982846
 30
0.0
 10
326.1046855340343
 20
351.9368897976706
 30
0.0
 10
327.107553491377
 20
351.9368897976706
 30
0.0
 10
345.1050886887447
 20
351.9417129345317
 30
0.0
 10
363.0974562394753
 20
351.9417129345317
 30
0.0
 10
381.0946469270671
 20
351.9465360713929
 30
0.0
 10
381.0946469270671
 20
430.6106924924748
 30
0.0
 10
381.0946469270671
 20
509.2741598940051
 30
0.0
 10
381.0946469270671
 20
587.9374550406472
 30
0.0
 10
381.0946469270671
 20
588.9425623115327
 30
0.0
 10
381.5101257166774
 20
589.3583856109187
 30
0.0
 10
382.5126491642442
 20
589.3583856109187
 30
0.0
 10
389.5623527063613
 20
589.3583856109187
 30
0.0
 10
396.6120562484782
 20
589.3583856109187
 30
0.0
 10
403.6562476341825
 20
589.3583856109187
 30
0.0
 10
404.6584265719736
 20
589.3583856109187
 30
0.0
 10
405.0752834006869
 20
588.9425623115327
 30
0.0
 10
405.0752834006869
 20
587.9374550406472
 30
0.0
 10
405.0752834006869
 20
509.2741598940051
 30
0.0
 10
405.0752834006869
 20
430.6106924924748
 30
0.0
 10
405.0752834006869
 20
351.9465360713929
 30
0.0
 10
423.072129578503
 20
351.9417129345317
 30
0.0
 10
441.0638081096821
 20
351.9417129345317
 30
0.0
 10
459.0616878168256
 20
351.9368897976706
 30
0.0
 10
460.0642112643924
 20
351.9368897976706
 30
0.0
 10
460.4796900540025
 20
351.5265786546974
 30
0.0
 10
460.4796900540025
 20
350.5181985409418
 30
0.0
 10
460.4796900540025
 20
341.5326945686263
 30
0.0
 10
460.4796900540025
 20
332.5478796158622
 30
0.0
 10
460.4796900540025
 20
323.5623756435465
 30
0.0
 10
460.4796900540025
 20
322.5605412155313
 30
0.0
 10
460.0642112643924
 20
322.1429953672664
 30
0.0
 10
459.0616878168256
 20
322.1429953672664
 30
0.0
 10
459.0616878168256
 20
322.1429953672664
 30
0.0
 10
459.0561756604127
 20
322.1429953672664
 30
0.0
 10
459.0561756604127
 20
322.1429953672664
 30
0.0
  0
POLYLINE
  5
3E
330
3B
100
AcDbEntity
  8
EBENE_1
 62
   255
100
AcDb2dPolyline
 66
     1
 10
0.0
 20
0.0
 30
0.0
  0
VERTEX
  5
3F
330
3E
100
AcDbEntity
  8
EBENE_1
 62
   255
100
AcDbVertex
100
AcDb2dVertex
 10
459.0561756604127
 20
322.1429953672664
 30
0.0
  0
VERTEX
  5
40
330
3E
100
AcDbEntity
  8
EBENE_1
 62
   255
100
AcDbVertex
100
AcDb2dVertex
 10
459.0616878168256
 20
322.1429953672664
 30
0.0
  0
SEQEND
  5
41
330
3E
100
AcDbEntity
  8
EBENE_1
 62
   255
  0
POLYLINE
  5
42
330
3B
100
AcDbEntity
  8
EBENE_1
 62
   255
100
AcDb2dPolyline
 66
     1
 10
0.0
 20
0.0
 30
0.0
  0
VERTEX
  5
43
330
42
100
AcDbEntity
  8
EBENE_1
 62
   255
100
AcDbVertex
100
AcDb2dVertex
 10
460.4741778975898
 20
350.5181985409418
 30
0.0
  0
VERTEX
  5
44
330
42
100
AcDbEntity
  8
EBENE_1
 62
   255
100
AcDbVertex
100
AcDb2dVertex
 10
460.4796900540025
 20
350.5181985409418
 30
0.0
  0
SEQEND
  5
45
330
42
100
AcDbEntity
  8
EBENE_1
 62
   255
  0
POLYLINE
  5
46
330
3B
100
AcDbEntity
  8
EBENE_1
 62
   255
100
AcDb2dPolyline
 66
     1
 10
0.0
 20
0.0
 30
0.0
  0
VERTEX
  5
47
330
46
100
AcDbEntity
  8
EBENE_1
 62
   255
100
AcDbVertex
100
AcDb2dVertex
 10
327.1127211380139
 20
351.9368897976706
 30
0.0
  0
VERTEX
  5
48
330
46
100
AcDbEntity
  8
EBENE_1
 62
   255
100
AcDbVertex
100
AcDb2dVertex
 10
327.107553491377
 20
351.9368897976706
 30
0.0
  0
SEQEND
  5
49
330
46
100
AcDbEntity
  8
EBENE_1
 62
   255
  0
POLYLINE
  5
4A
330
3B
100
AcDbEntity
  8
EBENE_1
 62
   255
100
AcDb2dPolyline
 66
     1
 10
0.0
 20
0.0
 30
0.0
  0
VERTEX
  5
4B
330
4A
100
AcDbEntity
  8
EBENE_1
 62
   255
100
AcDbVertex
100
AcDb2dVertex
 10
453.2863259353787
 20
322.1429953672664
 30
0.0
  0
VERTEX
  5
4C
330
4A
100
AcDbEntity
  8
EBENE_1
 62
   255
100
AcDbVertex
100
AcDb2dVertex
 10
333.0162406560571
 20
322.1429953672664
 30
0.0
  0
SEQEND
  5
4D
330
4A
100
AcDbEntity
  8
EBENE_1
 62
   255
  0
POLYLINE
  5
4E
330
3B
100
AcDbEntity
  8
EBENE_1
 62
   255
100
AcDb2dPolyline
 66
     1
 10
0.0
 20
0.0
 30
0.0
  0
VERTEX
  5
4F
330
4E
100
AcDbEntity
  8
EBENE_1
 62
   255
100
AcDbVertex
100
AcDb2dVertex
 10
381.0946469270671
 20
351.9465360713929
 30
0.0
  0
VERTEX
  5
50
330
4E
100
AcDbEntity
  8
EBENE_1
 62
   255
100
AcDbVertex
100
AcDb2dVertex
 10
405.0752834006869
 20
351.9465360713929
 30
0.0
  0
SEQEND
  5
51
330
4E
100
AcDbEntity
  8
EBENE_1
 62
   255
  0
POLYLINE
  5
52
330
3B
100
AcDbEntity
  8
EBENE_1
 62
   255
100
AcDb2dPolyline
 66
     1
 10
0.0
 20
0.0
 30
0.0
  0
VERTEX
  5
53
330
52
100
AcDbEntity
  8
EBENE_1
 62
   255
100
AcDbVertex
100
AcDb2dVertex
 10
381.0946469270671
 20
587.9374550406472
 30
0.0
  0
VERTEX
  5
54
330
52
100
AcDbEntity
  8
EBENE_1
 62
   255
100
AcDbVertex
100
AcDb2dVertex
 10
405.0752834006869
 20
587.9374550406472
 30
0.0
  0
SEQEND
  5
55
330
52
100
AcDbEntity
  8
EBENE_1
 62
   255
  0
ENDBLK
  5
57
330
3B
100
AcDbEntity
  8
0
100
AcDbBlockEnd
  0
BLOCK
  5
5F
330
58
100
AcDbEntity
  8
0
100
AcDbBlockBegin
  2
BLOCK_4
 70
     0
 10
0.0
 20
0.0
 30
0.0
  3
BLOCK_4
  1

  0
SPLINE
  5
59
330
58
100
AcDbEntity
  8
EBENE_1
 62
   255
100
AcDbSpline
210
0.0
220
0.0
230
1.0
 70
    11
 71
     3
 72
    32
 73
    28
 74
     0
 42
0.0000000001
 43
0.0000000001
 40
0.0
 40
0.0
 40
0.0
 40
0.0
 40
1.0
 40
1.0
 40
1.0
 40
2.0
 40
2.0
 40
2.0
 40
3.0
 40
3.0
 40
3.0
 40
4.0
 40
4.0
 40
4.0
 40
5.0
 40
5.0
 40
5.0
 40
6.0
 40
6.0
 40
6.0
 40
7.0
 40
7.0
 40
7.0
 40
8.0
 40
8.0
 40
8.0
 40
9.0
 40
9.0
 40
9.0
 40
9.0
 10
325.6940298812853
 20
-252.7068778006605
 30
0.0
 10
325.6940298812853
 20
-252.7068778006605
 30
0.0
 10
325.6888622346484
 20
-252.7068778006605
 30
0.0
 10
325.6888622346484
 20
-252.7068778006605
 30
0.0
 10
325.6888622346484
 20
-225.0365416282638
 30
0.0
 10
325.6888622346484
 20
-197.3703395731767
 30
0.0
 10
325.6888622346484
 20
-169.7048265376411
 30
0.0
 10
325.6888622346484
 20
-169.7048265376411
 30
0.0
 10
325.6940298812853
 20
-169.7048265376411
 30
0.0
 10
325.6940298812853
 20
-169.7048265376411
 30
0.0
 10
370.6212052330879
 20
-169.7048265376411
 30
0.0
 10
415.5532037217516
 20
-169.7048265376411
 30
0.0
 10
460.4796900540025
 20
-169.7048265376411
 30
0.0
 10
460.4796900540025
 20
-194.2676845323564
 30
0.0
 10
460.4796900540025
 20
-218.8339876248296
 30
0.0
 10
460.4796900540025
 20
-243.401668756406
 30
0.0
 10
460.4796900540025
 20
-255.8426057799573
 30
0.0
 10
460.0807477336306
 20
-267.5890110955035
 30
0.0
 10
454.9392838396483
 20
-279.4704642431617
 30
0.0
 10
449.7723262222576
 20
-291.4049718962926
 30
0.0
 10
442.6423519023801
 20
-300.1989284332656
 30
0.0
 10
432.0252496318938
 20
-307.7119976238284
 30
0.0
 10
387.3915966090696
 20
-339.3118122989562
 30
0.0
 10
325.6888622346484
 20
-307.3922925518896
 30
0.0
 10
325.6888622346484
 20
-252.7068778006605
 30
0.0
 10
325.6888622346484
 20
-252.7068778006605
 30
0.0
 10
325.6940298812853
 20
-252.7068778006605
 30
0.0
 10
325.6940298812853
 20
-252.7068778006605
 30
0.0
  0
SPLINE
  5
5A
330
58
100
AcDbEntity
  8
EBENE_1
 62
   255
100
AcDbSpline
210
0.0
220
0.0
230
1.0
 70
    11
 71
     3
 72
    17
 73
    13
 74
     0
 42
0.0000000001
 43
0.0000000001
 40
0.0
 40
0.0
 40
0.0
 40
0.0
 40
1.0
 40
1.0
 40
1.0
 40
2.0
 40
2.0
 40
2.0
 40
3.0
 40
3.0
 40
3.0
 40
4.0
 40
4.0
 40
4.0
 40
4.0
 10
338.9190711545486
 20
-252.7068778006605
 30
0.0
 10
338.9190711545486
 20
-222.7903378900728
 30
0.0
 10
363.1718703510473
 20
-198.5423618304351
 30
0.0
 10
393.0815200661191
 20
-198.5423618304351
 30
0.0
 10
422.9973709571551
 20
-198.5423618304351
 30
0.0
 10
447.2498256438781
 20
-222.7903378900728
 30
0.0
 10
447.2498256438781
 20
-252.7068778006605
 30
0.0
 10
447.2498256438781
 20
-282.6172165352839
 30
0.0
 10
422.9973709571551
 20
-306.869326712231
 30
0.0
 10
393.0815200661191
 20
-306.869326712231
 30
0.0
 10
363.1718703510473
 20
-306.869326712231
 30
0.0
 10
338.9190711545486
 20
-282.6172165352839
 30
0.0
 10
338.9190711545486
 20
-252.7068778006605
 30
0.0
  0
SPLINE
  5
5B
330
58
100
AcDbEntity
  8
EBENE_1
 62
   255
100
AcDbSpline
210
0.0
220
0.0
230
1.0
 70
    11
 71
     3
 72
    17
 73
    13
 74
     0
 42
0.0000000001
 43
0.0000000001
 40
0.0
 40
0.0
 40
0.0
 40
0.0
 40
1.0
 40
1.0
 40
1.0
 40
2.0
 40
2.0
 40
2.0
 40
3.0
 40
3.0
 40
3.0
 40
4.0
 40
4.0
 40
4.0
 40
4.0
 10
393.1404312377803
 20
-264.7530066211494
 30
0.0
 10
386.4800237423128
 20
-264.7530066211494
 30
0.0
 10
381.0784549676048
 20
-259.3566054930782
 30
0.0
 10
381.0784549676048
 20
-252.6903413314223
 30
0.0
 10
381.0784549676048
 20
-246.0344124630404
 30
0.0
 10
386.4800237423128
 20
-240.633188198108
 30
0.0
 10
393.1404312377803
 20
-240.633188198108
 30
0.0
 10
399.800149713696
 20
-240.633188198108
 30
0.0
 10
405.1972398613187
 20
-246.0344124630404
 30
0.0
 10
405.1972398613187
 20
-252.6903413314223
 30
0.0
 10
405.1972398613187
 20
-259.3566054930782
 30
0.0
 10
399.800149713696
 20
-264.7530066211494
 30
0.0
 10
393.1404312377803
 20
-264.7530066211494
 30
0.0
  0
SPLINE
  5
5C
330
58
100
AcDbEntity
  8
EBENE_1
 62
   255
100
AcDbSpline
210
0.0
220
0.0
230
1.0
 70
    11
 71
     3
 72
    38
 73
    34
 74
     0
 42
0.0000000001
 43
0.0000000001
 40
0.0
 40
0.0
 40
0.0
 40
0.0
 40
1.0
 40
1.0
 40
1.0
 40
2.0
 40
2.0
 40
2.0
 40
3.0
 40
3.0
 40
3.0
 40
4.0
 40
4.0
 40
4.0
 40
5.0
 40
5.0
 40
5.0
 40
6.0
 40
6.0
 40
6.0
 40
7.0
 40
7.0
 40
7.0
 40
8.0
 40
8.0
 40
8.0
 40
9.0
 40
9.0
 40
9.0
 40
10.0
 40
10.0
 40
10.0
 40
11.0
 40
11.0
 40
11.0
 40
11.0
 10
364.0193643995058
 20
-197.4550889780226
 30
0.0
 10
363.7844087324129
 20
-197.5770454386544
 30
0.0
 10
363.5556542412842
 20
-197.7017579774926
 30
0.0
 10
363.321043083967
 20
-197.8285375749855
 30
0.0
 10
354.4685198851087
 20
-202.6289367909295
 30
0.0
 10
347.6861559290095
 20
-208.6861076689777
 30
0.0
 10
341.9156171844237
 20
-216.9350497406411
 30
0.0
 10
341.5476807438734
 20
-217.4635277367125
 30
0.0
 10
341.1856009695116
 20
-218.0023410260577
 30
0.0
 10
340.8338564884237
 20
-218.5404652958514
 30
0.0
 10
340.8279998222352
 20
-218.5452884327125
 30
0.0
 10
340.8279998222352
 20
-218.5508005891252
 30
0.0
 10
340.8279998222352
 20
-218.5508005891252
 30
0.0
 10
339.6018895301766
 20
-220.4235557303532
 30
0.0
 10
338.487400405476
 20
-222.3486763575021
 30
0.0
 10
337.4741971548595
 20
-224.3378758029492
 30
0.0
 10
337.2337293313537
 20
-224.806409098032
 30
0.0
 10
336.9994626838123
 20
-225.2756314126664
 30
0.0
 10
336.7755313295448
 20
-225.7510549032651
 30
0.0
 10
336.7114525112468
 20
-225.8833466571708
 30
0.0
 10
336.6466846733971
 20
-226.0170164501798
 30
0.0
 10
336.5832948746506
 20
-226.1513752627403
 30
0.0
 10
326.8302231218612
 20
-246.8998210198403
 30
0.0
 10
329.2404135133311
 20
-271.3276311824435
 30
0.0
 10
342.8540618136925
 20
-289.7733735981219
 30
0.0
 10
345.4247937606835
 20
-293.2605015487308
 30
0.0
 10
348.2773347042757
 20
-296.3962295280275
 30
0.0
 10
351.5088364012438
 20
-299.2749532145803
 30
0.0
 10
391.7434440969268
 20
-335.1956094977436
 30
0.0
 10
455.5153041847798
 20
-306.6343710451381
 30
0.0
 10
455.5153041847798
 20
-252.7068778006605
 30
0.0
 10
455.5153041847798
 20
-205.7309028121981
 30
0.0
 10
405.5920480643811
 20
-175.586986449585
 30
0.0
 10
364.0193643995058
 20
-197.4550889780226
 30
0.0
  0
SPLINE
  5
5D
330
58
100
AcDbEntity
  8
EBENE_1
 62
   255
100
AcDbSpline
210
0.0
220
0.0
230
1.0
 70
     8
 71
     3
 72
     8
 73
     4
 74
     0
 42
0.0000000001
 43
0.0000000001
 40
0.0
 40
0.0
 40
0.0
 40
0.0
 40
1.0
 40
1.0
 40
1.0
 40
1.0
 10
437.2307923441739
 20
-208.5579500323815
 30
0.0
 10
437.4071813493816
 20
-208.7391621744503
 30
0.0
 10
437.5821923154862
 20
-208.9203743165191
 30
0.0
 10
437.7585813206937
 20
-209.0974523412783
 30
0.0
  0
SPLINE
  5
5E
330
58
100
AcDbEntity
  8
EBENE_1
 62
   255
100
AcDbSpline
210
0.0
220
0.0
230
1.0
 70
     8
 71
     3
 72
     8
 73
     4
 74
     0
 42
0.0000000001
 43
0.0000000001
 40
0.0
 40
0.0
 40
0.0
 40
0.0
 40
1.0
 40
1.0
 40
1.0
 40
1.0
 10
435.5234018953281
 20
-206.9215285973497
 30
0.0
 10
435.7053030569485
 20
-207.0924054461446
 30
0.0
 10
435.89202735543
 20
-207.2625932753879
 30
0.0
 10
436.0725504779471
 20
-207.4327811046312
 30
0.0
  0
ENDBLK
  5
60
330
58
100
AcDbEntity
  8
0
100
AcDbBlockEnd
  0
BLOCK
  5
77
330
61
100
AcDbEntity
  8
0
100
AcDbBlockBegin
  2
BLOCK_5
 70
     0
 10
0.0
 20
0.0
 30
0.0
  3
BLOCK_5
  1

  0
SPLINE
  5
62
330
61
100
AcDbEntity
  8
EBENE_1
 62
   255
100
AcDbSpline
210
0.0
220
0.0
230
1.0
 70
    11
 71
     3
 72
   170
 73
   166
 74
     0
 42
0.0000000001
 43
0.0000000001
 40
0.0
 40
0.0
 40
0.0
 40
0.0
 40
1.0
 40
1.0
 40
1.0
 40
2.0
 40
2.0
 40
2.0
 40
3.0
 40
3.0
 40
3.0
 40
4.0
 40
4.0
 40
4.0
 40
5.0
 40
5.0
 40
5.0
 40
6.0
 40
6.0
 40
6.0
 40
7.0
 40
7.0
 40
7.0
 40
8.0
 40
8.0
 40
8.0
 40
9.0
 40
9.0
 40
9.0
 40
10.0
 40
10.0
 40
10.0
 40
11.0
 40
11.0
 40
11.0
 40
12.0
 40
12.0
 40
12.0
 40
13.0
 40
13.0
 40
13.0
 40
14.0
 40
14.0
 40
14.0
 40
15.0
 40
15.0
 40
15.0
 40
16.0
 40
16.0
 40
16.0
 40
17.0
 40
17.0
 40
17.0
 40
18.0
 40
18.0
 40
18.0
 40
19.0
 40
19.0
 40
19.0
 40
20.0
 40
20.0
 40
20.0
 40
21.0
 40
21.0
 40
21.0
 40
22.0
 40
22.0
 40
22.0
 40
23.0
 40
23.0
 40
23.0
 40
24.0
 40
24.0
 40
24.0
 40
25.0
 40
25.0
 40
25.0
 40
26.0
 40
26.0
 40
26.0
 40
27.0
 40
27.0
 40
27.0
 40
28.0
 40
28.0
 40
28.0
 40
29.0
 40
29.0
 40
29.0
 40
30.0
 40
30.0
 40
30.0
 40
31.0
 40
31.0
 40
31.0
 40
32.0
 40
32.0
 40
32.0
 40
33.0
 40
33.0
 40
33.0
 40
34.0
 40
34.0
 40
34.0
 40
35.0
 40
35.0
 40
35.0
 40
36.0
 40
36.0
 40
36.0
 40
37.0
 40
37.0
 40
37.0
 40
38.0
 40
38.0
 40
38.0
 40
39.0
 40
39.0
 40
39.0
 40
40.0
 40
40.0
 40
40.0
 40
41.0
 40
41.0
 40
41.0
 40
42.0
 40
42.0
 40
42.0
 40
43.0
 40
43.0
 40
43.0
 40
44.0
 40
44.0
 40
44.0
 40
45.0
 40
45.0
 40
45.0
 40
46.0
 40
46.0
 40
46.0
 40
47.0
 40
47.0
 40
47.0
 40
48.0
 40
48.0
 40
48.0
 40
49.0
 40
49.0
 40
49.0
 40
50.0
 40
50.0
 40
50.0
 40
51.0
 40
51.0
 40
51.0
 40
52.0
 40
52.0
 40
52.0
 40
53.0
 40
53.0
 40
53.0
 40
54.0
 40
54.0
 40
54.0
 40
55.0
 40
55.0
 40
55.0
 40
55.0
 10
154.1278170250174
 20
589.3583856109187
 30
0.0
 10
147.0784579926762
 20
589.3583856109187
 30
0.0
 10
140.0284099407834
 20
589.3583856109187
 30
0.0
 10
132.9831850257517
 20
589.3583856109187
 30
0.0
 10
131.9758384413238
 20
589.3583856109187
 30
0.0
 10
131.5651827885747
 20
588.9425623115327
 30
0.0
 10
131.5651827885747
 20
587.9374550406472
 30
0.0
 10
131.5651827885747
 20
509.2741598940051
 30
0.0
 10
131.5651827885747
 20
430.6106924924748
 30
0.0
 10
131.5651827885747
 20
351.9465360713929
 30
0.0
 10
113.5679921009829
 20
351.9417129345317
 30
0.0
 10
95.57631356980371
 20
351.9417129345317
 30
0.0
 10
77.57843386266029
 20
351.9368897976706
 30
0.0
 10
76.57591041509345
 20
351.9368897976706
 30
0.0
 10
76.16043162548327
 20
351.5265786546974
 30
0.0
 10
76.16043162548327
 20
350.5181985409418
 30
0.0
 10
76.16043162548327
 20
341.5326945686263
 30
0.0
 10
76.16043162548327
 20
332.5478796158622
 30
0.0
 10
76.16043162548327
 20
323.5623756435465
 30
0.0
 10
76.16043162548327
 20
322.5605412155313
 30
0.0
 10
76.57591041509345
 20
322.1429953672664
 30
0.0
 10
77.57843386266029
 20
322.1429953672664
 30
0.0
 10
79.5256031154602
 20
322.1429953672664
 30
0.0
 10
81.47139432915698
 20
322.1429953672664
 30
0.0
 10
83.41718554285376
 20
322.1429953672664
 30
0.0
 10
83.41718554285376
 20
223.7747745744104
 30
0.0
 10
83.41718554285376
 20
125.4084485853214
 30
0.0
 10
83.41718554285376
 20
27.0398832826897
 30
0.0
 10
83.41718554285376
 20
27.0398832826897
 30
0.0
 10
83.41718554285376
 20
27.03437112627696
 30
0.0
 10
83.41718554285376
 20
27.03437112627696
 30
0.0
 10
83.41718554285376
 20
27.01370053972919
 30
0.0
 10
83.41718554285376
 20
26.99096289452665
 30
0.0
 10
83.41718554285376
 20
26.97029230797888
 30
0.0
 10
83.42889887523082
 20
26.42183274491137
 30
0.0
 10
83.54534317944994
 20
25.86579396677636
 30
0.0
 10
83.75893924044353
 20
25.36005361590758
 30
0.0
 10
83.9725353014372
 20
24.85293522593562
 30
0.0
 10
84.28672821696329
 20
24.39473722412671
 30
0.0
 10
84.67602426361295
 20
24.00613019702865
 30
0.0
 10
85.07083246667534
 20
23.61545611127578
 30
0.0
 10
85.54005478130973
 20
23.30677535216241
 30
0.0
 10
86.05199630814285
 20
23.0924902716172
 30
0.0
 10
86.56462685452755
 20
22.87958323017516
 30
0.0
 10
87.11308641759506
 20
22.77416323878154
 30
0.0
 10
87.66223500021414
 20
22.77416323878154
 30
0.0
 10
106.2947017143741
 20
22.77416323878154
 30
0.0
 10
124.925790389431
 20
22.77416323878154
 30
0.0
 10
143.5589461231425
 20
22.77416323878154
 30
0.0
 10
162.1859006808898
 20
22.77416323878154
 30
0.0
 10
180.8169893559466
 20
22.77416323878154
 30
0.0
 10
199.4439439136939
 20
22.77416323878154
 30
0.0
 10
199.7960329045576
 20
22.77416323878154
 30
0.0
 10
200.1481218954212
 20
22.81619343142867
 30
0.0
 10
200.4884975539078
 20
22.90163185582612
 30
0.0
 10
200.5739359783053
 20
22.92368048147707
 30
0.0
 10
200.6600634222544
 20
22.94986322443759
 30
0.0
 10
200.739989690239
 20
22.97466792829491
 30
0.0
 10
200.8467877207359
 20
23.00980792542612
 30
0.0
 10
200.9480735948199
 20
23.05114909852166
 30
0.0
 10
201.0548716253168
 20
23.0924902716172
 30
0.0
 10
201.1279076977855
 20
23.1193620341293
 30
0.0
 10
201.2036998484607
 20
23.15174595305414
 30
0.0
 10
201.2719127840683
 20
23.18895300884013
 30
0.0
 10
201.3483939542951
 20
23.22133692776497
 30
0.0
 10
201.4214300267639
 20
23.2633671204121
 30
0.0
 10
201.4910210014747
 20
23.30195221530127
 30
0.0
 10
201.608843344797
 20
23.36603103359936
 30
0.0
 10
201.7197754926034
 20
23.43493298875859
 30
0.0
 10
201.8272625426518
 20
23.51003611988216
 30
0.0
 10
202.0394805645422
 20
23.65404120616495
 30
0.0
 10
202.2379181954008
 20
23.81871687899552
 30
0.0
 10
202.4232644547791
 20
23.99924000151271
 30
0.0
 10
202.5893181667129
 20
24.16115959613691
 30
0.0
 10
202.73952442896
 20
24.33065840582863
 30
0.0
 10
202.8731942219689
 20
24.51738270431015
 30
0.0
 10
202.952431470402
 20
24.63038191077129
 30
0.0
 10
203.0330467579384
 20
24.7468262149904
 30
0.0
 10
203.1005706739944
 20
24.86464855831269
 30
0.0
 10
203.1598263554313
 20
24.96524541284518
 30
0.0
 10
203.2135698804555
 20
25.06722030648084
 30
0.0
 10
203.2624902686186
 20
25.16230500460058
 30
0.0
 10
203.276959679202
 20
25.19468892352542
 30
0.0
 10
203.2934961484403
 20
25.23120695975981
 30
0.0
 10
203.3038314417142
 20
25.26359087868465
 30
0.0
 10
203.3251910478135
 20
25.29597479760949
 30
0.0
 10
203.336215360639
 20
25.32904773608593
 30
0.0
 10
203.3527518298772
 20
25.36005361590758
 30
0.0
 10
203.3789345728377
 20
25.42964459061841
 30
0.0
 10
203.410629472211
 20
25.50474772174197
 30
0.0
 10
203.4326780978619
 20
25.5736496769012
 30
0.0
 10
203.459549860374
 20
25.64117359295726
 30
0.0
 10
203.4871106424377
 20
25.71283162632286
 30
0.0
 10
203.5070922094339
 20
25.78173358148209
 30
0.0
 10
203.5284518155332
 20
25.85545867350247
 30
0.0
 10
203.5505004411842
 20
25.92987278507444
 30
0.0
 10
203.5649698517676
 20
26.00015277933686
 30
0.0
 10
203.5821953405574
 20
26.06974375404769
 30
0.0
 10
203.5973537706925
 20
26.14277982651648
 30
0.0
 10
203.6138902399307
 20
26.21857197719163
 30
0.0
 10
203.623536513653
 20
26.2936751083152
 30
0.0
 10
203.6414510219944
 20
26.36257706347443
 30
0.0
 10
203.6504082761651
 20
26.4369911750464
 30
0.0
 10
203.6621216085422
 20
26.51140528661838
 30
0.0
 10
203.6676337649549
 20
26.58719743729354
 30
0.0
 10
203.6779690582288
 20
26.65609939245277
 30
0.0
 10
203.6779690582288
 20
26.68779429182602
 30
0.0
 10
203.6779690582288
 20
26.71466605433812
 30
0.0
 10
203.6827921950899
 20
26.74153781685022
 30
0.0
 10
203.6827921950899
 20
26.77392173577506
 30
0.0
 10
203.6876153319511
 20
26.8056166351483
 30
0.0
 10
203.6876153319511
 20
26.83662251496996
 30
0.0
 10
203.6876153319511
 20
26.85936016017251
 30
0.0
 10
203.6876153319511
 20
26.88003074672028
 30
0.0
 10
203.6876153319511
 20
26.90070133326806
 30
0.0
 10
203.6876153319511
 20
26.9234389784706
 30
0.0
 10
203.6876153319511
 20
26.94962172143111
 30
0.0
 10
203.6876153319511
 20
26.97029230797888
 30
0.0
 10
203.6876153319511
 20
27.01370053972919
 30
0.0
 10
203.6876153319511
 20
27.05021857596359
 30
0.0
 10
203.6876153319511
 20
27.0936268077139
 30
0.0
 10
203.6876153319511
 20
27.80745106316357
 30
0.0
 10
203.6876153319511
 20
28.52127531861323
 30
0.0
 10
203.6876153319511
 20
29.23578859361448
 30
0.0
 10
203.6876153319511
 20
31.40688920068194
 30
0.0
 10
203.6876153319511
 20
33.57798980774939
 30
0.0
 10
203.6876153319511
 20
35.74288923885253
 30
0.0
 10
203.6876153319511
 20
43.75274152611345
 30
0.0
 10
203.6876153319511
 20
51.75019146144571
 30
0.0
 10
203.6876153319511
 20
59.76004374870663
 30
0.0
 10
203.6876153319511
 20
101.1522042910647
 30
0.0
 10
203.6876153319511
 20
142.549187970284
 30
0.0
 10
203.6876153319511
 20
183.9454826299516
 30
0.0
 10
203.6876153319511
 20
212.858637818533
 30
0.0
 10
203.6876153319511
 20
241.7654195762621
 30
0.0
 10
203.6876153319511
 20
270.6749574121976
 30
0.0
 10
203.6876153319511
 20
287.8343003250531
 30
0.0
 10
203.6876153319511
 20
304.9895091205992
 30
0.0
 10
203.6876153319511
 20
322.1429953672664
 30
0.0
 10
211.3136837289751
 20
322.1429953672664
 30
0.0
 10
218.9349289891379
 20
322.1429953672664
 30
0.0
 10
226.5589303275071
 20
322.1429953672664
 30
0.0
 10
226.5589303275071
 20
322.1429953672664
 30
0.0
 10
226.5589303275071
 20
322.1429953672664
 30
0.0
 10
226.5589303275071
 20
322.1498855627822
 30
0.0
 10
226.5589303275071
 20
322.6191078774166
 30
0.0
 10
226.5589303275071
 20
323.0931533289121
 30
0.0
 10
226.5589303275071
 20
323.5623756435465
 30
0.0
 10
226.5589303275071
 20
332.5478796158622
 30
0.0
 10
226.5589303275071
 20
341.5326945686263
 30
0.0
 10
226.5589303275071
 20
350.5181985409418
 30
0.0
 10
226.5589303275071
 20
350.9922439924375
 30
0.0
 10
226.5589303275071
 20
351.4624998363992
 30
0.0
 10
226.5589303275071
 20
351.9317221510336
 30
0.0
 10
226.5589303275071
 20
351.9368897976706
 30
0.0
 10
226.5589303275071
 20
351.9368897976706
 30
0.0
 10
226.5589303275071
 20
351.9368897976706
 30
0.0
 10
202.8883526521039
 20
351.9417129345317
 30
0.0
 10
179.2163969375976
 20
351.9417129345317
 30
0.0
 10
155.5458192621944
 20
351.9465360713929
 30
0.0
 10
155.5458192621944
 20
430.6106924924748
 30
0.0
 10
155.5458192621944
 20
509.2741598940051
 30
0.0
 10
155.5458192621944
 20
587.9374550406472
 30
0.0
 10
155.5458192621944
 20
588.9425623115327
 30
0.0
 10
155.1296514530327
 20
589.3583856109187
 30
0.0
 10
154.1278170250174
 20
589.3583856109187
 30
0.0
  0
POLYLINE
  5
63
330
61
100
AcDbEntity
  8
EBENE_1
 62
   255
100
AcDb2dPolyline
 66
     1
 10
0.0
 20
0.0
 30
0.0
  0
VERTEX
  5
64
330
63
100
AcDbEntity
  8
EBENE_1
 62
   255
100
AcDbVertex
100
AcDb2dVertex
 10
203.6876153319511
 20
322.1429953672664
 30
0.0
  0
VERTEX
  5
65
330
63
100
AcDbEntity
  8
EBENE_1
 62
   255
100
AcDbVertex
100
AcDb2dVertex
 10
83.41718554285376
 20
322.1429953672664
 30
0.0
  0
SEQEND
  5
66
330
63
100
AcDbEntity
  8
EBENE_1
 62
   255
  0
POLYLINE
  5
67
330
61
100
AcDbEntity
  8
EBENE_1
 62
   255
100
AcDb2dPolyline
 66
     1
 10
0.0
 20
0.0
 30
0.0
  0
VERTEX
  5
68
330
67
100
AcDbEntity
  8
EBENE_1
 62
   255
100
AcDbVertex
100
AcDb2dVertex
 10
131.5651827885747
 20
351.9465360713929
 30
0.0
  0
VERTEX
  5
69
330
67
100
AcDbEntity
  8
EBENE_1
 62
   255
100
AcDbVertex
100
AcDb2dVertex
 10
155.5458192621944
 20
351.9465360713929
 30
0.0
  0
SEQEND
  5
6A
330
67
100
AcDbEntity
  8
EBENE_1
 62
   255
  0
POLYLINE
  5
6B
330
61
100
AcDbEntity
  8
EBENE_1
 62
   255
100
AcDb2dPolyline
 66
     1
 10
0.0
 20
0.0
 30
0.0
  0
VERTEX
  5
6C
330
6B
100
AcDbEntity
  8
EBENE_1
 62
   255
100
AcDbVertex
100
AcDb2dVertex
 10
77.58325699952142
 20
351.9368897976706
 30
0.0
  0
VERTEX
  5
6D
330
6B
100
AcDbEntity
  8
EBENE_1
 62
   255
100
AcDbVertex
100
AcDb2dVertex
 10
77.57843386266029
 20
351.9368897976706
 30
0.0
  0
SEQEND
  5
6E
330
6B
100
AcDbEntity
  8
EBENE_1
 62
   255
  0
POLYLINE
  5
6F
330
61
100
AcDbEntity
  8
EBENE_1
 62
   255
100
AcDb2dPolyline
 66
     1
 10
0.0
 20
0.0
 30
0.0
  0
VERTEX
  5
70
330
6F
100
AcDbEntity
  8
EBENE_1
 62
   255
100
AcDbVertex
100
AcDb2dVertex
 10
76.19694966171763
 20
323.5623756435465
 30
0.0
  0
VERTEX
  5
71
330
6F
100
AcDbEntity
  8
EBENE_1
 62
   255
100
AcDbVertex
100
AcDb2dVertex
 10
76.16043162548327
 20
323.5623756435465
 30
0.0
  0
SEQEND
  5
72
330
6F
100
AcDbEntity
  8
EBENE_1
 62
   255
  0
POLYLINE
  5
73
330
61
100
AcDbEntity
  8
EBENE_1
 62
   255
100
AcDb2dPolyline
 66
     1
 10
0.0
 20
0.0
 30
0.0
  0
VERTEX
  5
74
330
73
100
AcDbEntity
  8
EBENE_1
 62
   255
100
AcDbVertex
100
AcDb2dVertex
 10
131.5651827885747
 20
587.9374550406472
 30
0.0
  0
VERTEX
  5
75
330
73
100
AcDbEntity
  8
EBENE_1
 62
   255
100
AcDbVertex
100
AcDb2dVertex
 10
155.5458192621944
 20
587.9374550406472
 30
0.0
  0
SEQEND
  5
76
330
73
100
AcDbEntity
  8
EBENE_1
 62
   255
  0
ENDBLK
  5
78
330
61
100
AcDbEntity
  8
0
100
AcDbBlockEnd
  0
BLOCK
  5
7D
330
79
100
AcDbEntity
  8
0
100
AcDbBlockBegin
  2
BLOCK_2
 70
     0
 10
0.0
 20
0.0
 30
0.0
  3
BLOCK_2
  1

  0
INSERT
  5
7A
330
79
100
AcDbEntity
  8
EBENE_1
100
AcDbBlockReference
  2
BLOCK_3
 10
0.0
 20
0.0
 30
0.0
  0
INSERT
  5
7B
330
79
100
AcDbEntity
  8
EBENE_1
100
AcDbBlockReference
  2
BLOCK_4
 10
0.0
 20
0.0
 30
0.0
  0
INSERT
  5
7C
330
79
100
AcDbEntity
  8
EBENE_1
100
AcDbBlockReference
  2
BLOCK_5
 10
0.0
 20
0.0
 30
0.0
  0
ENDBLK
  5
7E
330
79
100
AcDbEntity
  8
0
100
AcDbBlockEnd
  0
BLOCK
  5
1C
330
1B
100
AcDbEntity
  8
0
100
AcDbBlockBegin
  2
*Paper_Space5
 70
     0
 10
0.0
 20
0.0
 30
0.0
  3
*Paper_Space5
  1

  0
ENDBLK
  5
1D
330
1B
100
AcDbEntity
  8
0
100
AcDbBlockEnd
  0
BLOCK
  5
25F
330
254
100
AcDbEntity
  8
0
100
AcDbBlockBegin
  2
*D6
 70
     1
 10
0.0
 20
0.0
 30
0.0
  3
*D6
  1

  0
LINE
  5
262
330
254
100
AcDbEntity
  8
0
 62
     0
370
    -2
100
AcDbLine
 10
196.9612562371944
 20
487.2212754187991
 30
0.0
 11
392.3467536527612
 21
487.221275418799
 31
0.0
  0
LINE
  5
263
330
254
100
AcDbEntity
  8
0
 62
     0
370
    -2
100
AcDbLine
 10
196.9612562371944
 20
287.2212754187991
 30
0.0
 11
392.3467536527612
 21
287.2212754187991
 31
0.0
  0
LINE
  5
264
330
254
100
AcDbEntity
  8
0
 62
     0
370
    -2
100
AcDbLine
 10
392.1667536527611
 20
487.041275418799
 30
0.0
 11
392.1667536527611
 21
387.4012754187991
 31
0.0
  0
LINE
  5
265
330
254
100
AcDbEntity
  8
0
 62
     0
370
    -2
100
AcDbLine
 10
392.1667536527611
 20
287.4012754187991
 30
0.0
 11
392.1667536527611
 21
387.0412754187992
 31
0.0
  0
SOLID
  5
266
330
254
100
AcDbEntity
  8
0
 62
     0
100
AcDbTrace
 10
392.1367536527612
 20
487.041275418799
 30
0.0
 11
392.1967536527612
 21
487.041275418799
 31
0.0
 12
392.1667536527611
 22
487.221275418799
 32
0.0
 13
392.1667536527611
 23
487.221275418799
 33
0.0
  0
SOLID
  5
267
330
254
100
AcDbEntity
  8
0
 62
     0
100
AcDbTrace
 10
392.1367536527612
 20
287.4012754187991
 30
0.0
 11
392.1967536527612
 21
287.4012754187991
 31
0.0
 12
392.1667536527611
 22
287.2212754187991
 32
0.0
 13
392.1667536527611
 23
287.2212754187991
 33
0.0
  0
MTEXT
  5
268
330
254
100
AcDbEntity
  8
0
 62
     0
100
AcDbMText
 10
392.1667536527611
 20
387.2212754187992
 30
0.0
 40
0.18
 41
0.0
 71
     5
 72
     1
  1
\A1;200.0000
 73
     1
 44
1.0
1001
ACAD
1000
MTEXTBEGIN
1070
    73
1070
     1
1070
    44
1040
1.0
1070
    74
1070
     0
1000
MTEXTEND
  0
POINT
  5
269
330
254
100
AcDbEntity
  8
Defpoints
 62
     0
100
AcDbPoint
 10
196.8987562371944
 20
487.2212754187991
 30
-0.0000000000000021
  0
POINT
  5
26A
330
254
100
AcDbEntity
  8
Defpoints
 62
     0
100
AcDbPoint
 10
196.8987562371944
 20
287.2212754187991
 30
0.0
  0
POINT
  5
26B
330
254
100
AcDbEntity
  8
Defpoints
 62
     0
100
AcDbPoint
 10
392.1667536527611
 20
287.2212754187991
 30
0.0
  0
ENDBLK
  5
260
330
254
100
AcDbEntity
  8
0
100
AcDbBlockEnd
  0
BLOCK
  5
279
330
26E
100
AcDbEntity
  8
0
100
AcDbBlockBegin
  2
*D7
 70
     1
 10
0.0
 20
0.0
 30
0.0
  3
*D7
  1

  0
LINE
  5
27C
330
26E
100
AcDbEntity
  8
0
 62
     0
370
    -2
100
AcDbLine
 10
13.11508417500682
 20
487.2212754187991
 30
0.0
 11
-152.7873583356738
 21
487.2212754187991
 31
0.0
  0
LINE
  5
27D
330
26E
100
AcDbEntity
  8
0
 62
     0
370
    -2
100
AcDbLine
 10
13.11508417500682
 20
287.2212754187991
 30
0.0
 11
-152.7873583356738
 21
287.2212754187992
 31
0.0
  0
LINE
  5
27E
330
26E
100
AcDbEntity
  8
0
 62
     0
370
    -2
100
AcDbLine
 10
-152.6073583356738
 20
487.0412754187992
 30
0.0
 11
-152.6073583356738
 21
387.4012754187992
 31
0.0
  0
LINE
  5
27F
330
26E
100
AcDbEntity
  8
0
 62
     0
370
    -2
100
AcDbLine
 10
-152.6073583356738
 20
287.4012754187992
 30
0.0
 11
-152.6073583356738
 21
387.0412754187992
 31
0.0
  0
SOLID
  5
280
330
26E
100
AcDbEntity
  8
0
 62
     0
100
AcDbTrace
 10
-152.6373583356738
 20
487.0412754187992
 30
0.0
 11
-152.5773583356738
 21
487.0412754187992
 31
0.0
 12
-152.6073583356738
 22
487.2212754187991
 32
0.0
 13
-152.6073583356738
 23
487.2212754187991
 33
0.0
  0
SOLID
  5
281
330
26E
100
AcDbEntity
  8
0
 62
     0
100
AcDbTrace
 10
-152.6373583356738
 20
287.4012754187992
 30
0.0
 11
-152.5773583356738
 21
287.4012754187992
 31
0.0
 12
-152.6073583356738
 22
287.2212754187992
 32
0.0
 13
-152.6073583356738
 23
287.2212754187992
 33
0.0
  0
MTEXT
  5
282
330
26E
100
AcDbEntity
  8
0
 62
     0
100
AcDbMText
 10
-152.6073583356739
 20
387.2212754187991
 30
0.0
 40
0.18
 41
0.0
 71
     5
 72
     1
  1
\A1;200.0000
 73
     1
 44
1.0
1001
ACAD
1000
MTEXTBEGIN
1070
    73
1070
     1
1070
    44
1040
1.0
1070
    74
1070
     0
1000
MTEXTEND
  0
POINT
  5
283
330
26E
100
AcDbEntity
  8
Defpoints
 62
     0
100
AcDbPoint
 10
13.17758417500682
 20
487.2212754187991
 30
-0.0000000000000005
  0
POINT
  5
284
330
26E
100
AcDbEntity
  8
Defpoints
 62
     0
100
AcDbPoint
 10
13.17758417500682
 20
287.2212754187991
 30
0.0
  0
POINT
  5
285
330
26E
100
AcDbEntity
  8
Defpoints
 62
     0
100
AcDbPoint
 10
-152.6073583356738
 20
287.2212754187992
 30
0.0
  0
ENDBLK
  5
27A
330
26E
100
AcDbEntity
  8
0
100
AcDbBlockEnd
  0
BLOCK
  5
293
330
288
100
AcDbEntity
  8
0
100
AcDbBlockBegin
  2
*D8
 70
     1
 10
0.0
 20
0.0
 30
0.0
  3
*D8
  1

  0
LINE
  5
296
330
288
100
AcDbEntity
  8
0
 62
     0
370
    -2
100
AcDbLine
 10
20.61508417500682
 20
827.2212754187991
 30
0.0
 11
-126.0550749495083
 21
827.2212754187991
 31
0.0
  0
LINE
  5
297
330
288
100
AcDbEntity
  8
0
 62
     0
370
    -2
100
AcDbLine
 10
20.61508417500681
 20
287.2212754187991
 30
0.0
 11
-126.0550749495084
 21
287.2212754187991
 31
0.0
  0
LINE
  5
298
330
288
100
AcDbEntity
  8
0
 62
     0
370
    -2
100
AcDbLine
 10
-125.8750749495083
 20
827.0412754187992
 30
0.0
 11
-125.8750749495084
 21
557.4012754187989
 31
0.0
  0
LINE
  5
299
330
288
100
AcDbEntity
  8
0
 62
     0
370
    -2
100
AcDbLine
 10
-125.8750749495085
 20
287.4012754187991
 30
0.0
 11
-125.8750749495084
 21
557.0412754187991
 31
0.0
  0
SOLID
  5
29A
330
288
100
AcDbEntity
  8
0
 62
     0
100
AcDbTrace
 10
-125.9050749495083
 20
827.0412754187992
 30
0.0
 11
-125.8450749495083
 21
827.0412754187992
 31
0.0
 12
-125.8750749495083
 22
827.2212754187991
 32
0.0
 13
-125.8750749495083
 23
827.2212754187991
 33
0.0
  0
SOLID
  5
29B
330
288
100
AcDbEntity
  8
0
 62
     0
100
AcDbTrace
 10
-125.9050749495085
 20
287.4012754187991
 30
0.0
 11
-125.8450749495085
 21
287.4012754187991
 31
0.0
 12
-125.8750749495085
 22
287.2212754187991
 32
0.0
 13
-125.8750749495085
 23
287.2212754187991
 33
0.0
  0
MTEXT
  5
29C
330
288
100
AcDbEntity
  8
0
 62
     0
100
AcDbMText
 10
-125.8750749495085
 20
557.2212754187991
 30
0.0
 40
0.18
 41
0.0
 71
     5
 72
     1
  1
\A1;540.0000
 73
     1
 44
1.0
1001
ACAD
1000
MTEXTBEGIN
1070
    73
1070
     1
1070
    44
1040
1.0
1070
    74
1070
     0
1000
MTEXTEND
  0
POINT
  5
29D
330
288
100
AcDbEntity
  8
Defpoints
 62
     0
100
AcDbPoint
 10
20.67758417500682
 20
827.2212754187991
 30
0.0
  0
POINT
  5
29E
330
288
100
AcDbEntity
  8
Defpoints
 62
     0
100
AcDbPoint
 10
20.67758417500682
 20
287.2212754187991
 30
0.0
  0
POINT
  5
29F
330
288
100
AcDbEntity
  8
Defpoints
 62
     0
100
AcDbPoint
 10
-125.8750749495085
 20
287.2212754187991
 30
0.0
  0
ENDBLK
  5
294
330
288
100
AcDbEntity
  8
0
100
AcDbBlockEnd
  0
BLOCK
  5
2AD
330
2A2
100
AcDbEntity
  8
0
100
AcDbBlockBegin
  2
*D9
 70
     1
 10
0.0
 20
0.0
 30
0.0
  3
*D9
  1

  0
LINE
  5
2B0
330
2A2
100
AcDbEntity
  8
0
 62
     0
370
    -2
100
AcDbLine
 10
13.11508417500682
 20
487.2212754187991
 30
0.0
 11
-84.04720797772261
 21
487.2212754187991
 31
0.0
  0
LINE
  5
2B1
330
2A2
100
AcDbEntity
  8
0
 62
     0
370
    -2
100
AcDbLine
 10
13.11508417500682
 20
827.2212754187991
 30
0.0
 11
-84.04720797772254
 21
827.2212754187991
 31
0.0
  0
LINE
  5
2B2
330
2A2
100
AcDbEntity
  8
0
 62
     0
370
    -2
100
AcDbLine
 10
-83.86720797772261
 20
487.4012754187991
 30
0.0
 11
-83.86720797772261
 21
657.0412754187991
 31
0.0
  0
LINE
  5
2B3
330
2A2
100
AcDbEntity
  8
0
 62
     0
370
    -2
100
AcDbLine
 10
-83.86720797772253
 20
827.0412754187992
 30
0.0
 11
-83.86720797772261
 21
657.401275418799
 31
0.0
  0
SOLID
  5
2B4
330
2A2
100
AcDbEntity
  8
0
 62
     0
100
AcDbTrace
 10
-83.89720797772261
 20
487.4012754187991
 30
0.0
 11
-83.8372079777226
 21
487.4012754187991
 31
0.0
 12
-83.86720797772261
 22
487.2212754187991
 32
0.0
 13
-83.86720797772261
 23
487.2212754187991
 33
0.0
  0
SOLID
  5
2B5
330
2A2
100
AcDbEntity
  8
0
 62
     0
100
AcDbTrace
 10
-83.89720797772254
 20
827.0412754187992
 30
0.0
 11
-83.83720797772253
 21
827.0412754187992
 31
0.0
 12
-83.86720797772253
 22
827.2212754187991
 32
0.0
 13
-83.86720797772253
 23
827.2212754187991
 33
0.0
  0
MTEXT
  5
2B6
330
2A2
100
AcDbEntity
  8
0
 62
     0
100
AcDbMText
 10
-83.86720797772268
 20
657.2212754187991
 30
0.0
 40
0.18
 41
0.0
 71
     5
 72
     1
  1
\A1;340.0000
 73
     1
 44
1.0
1001
ACAD
1000
MTEXTBEGIN
1070
    73
1070
     1
1070
    44
1040
1.0
1070
    74
1070
     0
1000
MTEXTEND
  0
POINT
  5
2B7
330
2A2
100
AcDbEntity
  8
Defpoints
 62
     0
100
AcDbPoint
 10
13.17758417500682
 20
487.2212754187991
 30
-0.0000000000000005
  0
POINT
  5
2B8
330
2A2
100
AcDbEntity
  8
Defpoints
 62
     0
100
AcDbPoint
 10
13.17758417500682
 20
827.2212754187991
 30
0.0
  0
POINT
  5
2B9
330
2A2
100
AcDbEntity
  8
Defpoints
 62
     0
100
AcDbPoint
 10
-83.86720797772253
 20
827.2212754187991
 30
0.0
  0
ENDBLK
  5
2AE
330
2A2
100
AcDbEntity
  8
0
100
AcDbBlockEnd
  0
BLOCK
  5
2F6
330
2EB
100
AcDbEntity
  8
0
100
AcDbBlockBegin
  2
*D10
 70
     1
 10
0.0
 20
0.0
 30
0.0
  3
*D10
  1

  0
LINE
  5
2F9
330
2EB
100
AcDbEntity
  8
0
 62
     0
370
    -2
100
AcDbLine
 10
-31.82241582499325
 20
447.2734446686228
 30
0.0
 11
-31.82241582499325
 21
469.4078404918982
 31
0.0
  0
LINE
  5
2FA
330
2EB
100
AcDbEntity
  8
0
 62
     0
370
    -2
100
AcDbLine
 10
88.17758417500675
 20
447.2734446686228
 30
0.0
 11
88.17758417500675
 21
469.4078404918982
 31
0.0
  0
LINE
  5
2FB
330
2EB
100
AcDbEntity
  8
0
 62
     0
370
    -2
100
AcDbLine
 10
-31.64241582499325
 20
469.2278404918981
 30
0.0
 11
27.56258417500675
 21
469.2278404918981
 31
0.0
  0
LINE
  5
2FC
330
2EB
100
AcDbEntity
  8
0
 62
     0
370
    -2
100
AcDbLine
 10
87.99758417500674
 20
469.2278404918981
 30
0.0
 11
28.79258417500675
 21
469.2278404918981
 31
0.0
  0
SOLID
  5
2FD
330
2EB
100
AcDbEntity
  8
0
 62
     0
100
AcDbTrace
 10
-31.64241582499325
 20
469.2578404918982
 30
0.0
 11
-31.64241582499325
 21
469.1978404918983
 31
0.0
 12
-31.82241582499325
 22
469.2278404918981
 32
0.0
 13
-31.82241582499325
 23
469.2278404918981
 33
0.0
  0
SOLID
  5
2FE
330
2EB
100
AcDbEntity
  8
0
 62
     0
100
AcDbTrace
 10
87.99758417500674
 20
469.2578404918982
 30
0.0
 11
87.99758417500674
 21
469.1978404918983
 31
0.0
 12
88.17758417500675
 22
469.2278404918981
 32
0.0
 13
88.17758417500675
 23
469.2278404918981
 33
0.0
  0
MTEXT
  5
2FF
330
2EB
100
AcDbEntity
  8
0
 62
     0
100
AcDbMText
 10
28.17758417500675
 20
469.2278404918981
 30
0.0
 40
0.18
 41
0.0
 71
     5
 72
     1
  1
\A1;120.0000
 73
     1
 44
1.0
1001
ACAD
1000
MTEXTBEGIN
1070
    73
1070
     1
1070
    44
1040
1.0
1070
    74
1070
     0
1000
MTEXTEND
  0
POINT
  5
300
330
2EB
100
AcDbEntity
  8
Defpoints
 62
     0
100
AcDbPoint
 10
-31.82241582499325
 20
447.2109446686228
 30
0.0
  0
POINT
  5
301
330
2EB
100
AcDbEntity
  8
Defpoints
 62
     0
100
AcDbPoint
 10
88.17758417500675
 20
447.2109446686228
 30
0.0
  0
POINT
  5
302
330
2EB
100
AcDbEntity
  8
Defpoints
 62
     0
100
AcDbPoint
 10
88.17758417500675
 20
469.2278404918981
 30
0.0
  0
ENDBLK
  5
2F7
330
2EB
100
AcDbEntity
  8
0
100
AcDbBlockEnd
  0
BLOCK
  5
31D
330
316
100
AcDbEntity
  8
0
100
AcDbBlockBegin
  2
*D11
 70
     1
 10
0.0
 20
0.0
 30
0.0
  3
*D11
  1

  0
LINE
  5
320
330
316
100
AcDbEntity
  8
0
 62
     0
370
    -2
100
AcDbLine
 10
254.0785186534374
 20
166.5914321012436
 30
0.0
 11
254.3369848153848
 21
166.7880526553337
 31
0.0
  0
LINE
  5
321
330
316
100
AcDbEntity
  8
0
 62
     0
370
    -2
100
AcDbLine
 10
254.9699107418275
 20
167.2695324955478
 30
0.0
 11
254.8102202750836
 21
167.1480526553336
 31
0.0
  0
MTEXT
  5
322
330
316
100
AcDbEntity
  8
0
 62
     0
100
AcDbMText
 10
254.5585117446754
 20
166.9680526553336
 30
0.0
 40
0.18
 41
0.0
 71
     5
 72
     1
  1
\A1;R1.3000
 73
     1
 44
1.0
1001
ACAD
1000
MTEXTBEGIN
1070
    73
1070
     1
1070
    44
1040
1.0
1070
    74
1070
     0
1000
MTEXTEND
  0
SOLID
  5
323
330
316
100
AcDbEntity
  8
0
 62
     0
100
AcDbTrace
 10
254.9517473384087
 20
167.293409069344
 30
0.0
 11
254.9880741452464
 21
167.2456559217516
 31
0.0
 12
255.1131701846045
 22
167.378512916061
 32
0.0
 13
255.1131701846045
 23
167.378512916061
 33
0.0
  0
POINT
  5
324
330
316
100
AcDbEntity
  8
Defpoints
 62
     0
100
AcDbPoint
 10
255.1131701846045
 20
167.378512916061
 30
0.0
  0
POINT
  5
325
330
316
100
AcDbEntity
  8
Defpoints
 62
     0
100
AcDbPoint
 10
254.0785186534374
 20
166.5914321012436
 30
0.0
  0
ENDBLK
  5
31E
330
316
100
AcDbEntity
  8
0
100
AcDbBlockEnd
  0
ENDSEC
  0
SECTION
  2
ENTITIES
  0
LINE
  5
78C
330
1F
100
AcDbEntity
  8
Hewi
100
AcDbLine
 10
634.7797630090138
 20
418.4932666927499
 30
0.0
 11
529.7797630090137
 21
418.0351148565763
 31
0.0
  0
LINE
  5
78D
330
1F
100
AcDbEntity
  8
Hewi
100
AcDbLine
 10
529.7797630090137
 20
385.0351148565763
 30
0.0
 11
543.8137239465138
 21
385.0351148565763
 31
0.0
  0
LINE
  5
78F
330
1F
100
AcDbEntity
  8
Hewi
100
AcDbLine
 10
639.2083100292715
 20
423.4964675122252
 30
0.0
 11
635.7884895445123
 21
423.5263118334639
 31
0.0
  0
LINE
  5
790
330
1F
100
AcDbEntity
  8
Hewi
100
AcDbLine
 10
635.7884895445123
 20
383.5439178796886
 30
0.0
 11
639.2083100292715
 21
383.5737622009272
 31
0.0
  0
LINE
  5
791
330
1F
100
AcDbEntity
  8
Hewi
100
AcDbLine
 10
621.7797630090138
 20
384.6336865810717
 30
0.0
 11
634.7797630090138
 21
384.5769630204026
 31
0.0
  0
LINE
  5
792
330
1F
100
AcDbEntity
  8
Hewi
100
AcDbLine
 10
494.4797630090138
 20
384.0351148565763
 30
0.0
 11
528.7797630090137
 21
384.0351148565763
 31
0.0
  0
LINE
  5
795
330
1F
100
AcDbEntity
  8
Hewi
100
AcDbLine
 10
526.4960508340974
 20
387.0633633952489
 30
0.0
 11
496.7634751839303
 21
387.0633633952489
 31
0.0
  0
LINE
  5
79D
330
1F
100
AcDbEntity
  8
Hewi
100
AcDbLine
 10
496.9134078140974
 20
387.2351168765721
 30
0.0
 11
496.9134078140974
 21
387.2132960254159
 31
0.0
  0
LINE
  5
79E
330
1F
100
AcDbEntity
  8
Hewi
100
AcDbLine
 10
496.7634751839303
 20
387.0633633952488
 30
0.0
 11
496.9134078140974
 21
387.2132960254159
 31
0.0
  0
LINE
  5
79F
330
1F
100
AcDbEntity
  8
Hewi
100
AcDbLine
 10
496.6297630090138
 20
487.035114856576
 30
0.0
 11
496.6297630090138
 21
401.535114856576
 31
0.0
  0
LINE
  5
7A9
330
1F
100
AcDbEntity
  8
Hewi
100
AcDbLine
 10
526.6297630090138
 20
487.0351148565762
 30
0.0
 11
526.6297630090138
 21
401.5351148565763
 31
0.0
  0
LINE
  5
7AA
330
1F
100
AcDbEntity
  8
Hewi
100
AcDbLine
 10
526.4960508340974
 20
387.0633633952488
 30
0.0
 11
526.3461182039302
 21
387.2132960254159
 31
0.0
  0
LINE
  5
7AC
330
1F
100
AcDbEntity
  8
Hewi
100
AcDbLine
 10
529.7797630090137
 20
489.2851148565762
 30
0.0
 11
529.0297630090138
 21
490.0351148565762
 31
0.0
  0
LINE
  5
7AF
330
1F
100
AcDbEntity
  8
Hewi
100
AcDbLine
 10
529.0297630090138
 20
490.0351148565762
 30
0.0
 11
528.7797630090137
 21
490.0351148565762
 31
0.0
  0
LINE
  5
7B2
330
1F
100
AcDbEntity
  8
Hewi
100
AcDbLine
 10
529.7797630090137
 20
489.2851148565762
 30
0.0
 11
529.7797630090137
 21
401.5351148565763
 31
0.0
  0
LINE
  5
7B3
330
1F
100
AcDbEntity
  8
Hewi
100
AcDbLine
 10
493.4797630090137
 20
385.0351148565763
 30
0.0
 11
493.4797630090137
 21
401.5351148565763
 31
0.0
  0
LINE
  5
7B5
330
1F
100
AcDbEntity
  8
Hewi
100
AcDbLine
 10
494.4797630090138
 20
489.2851148565762
 30
0.0
 11
493.4797630090137
 21
489.2851148565762
 31
0.0
  0
LINE
  5
7B6
330
1F
100
AcDbEntity
  8
Hewi
100
AcDbLine
 10
493.4797630090137
 20
489.2851148565762
 30
0.0
 11
494.2297630090138
 21
490.0351148565762
 31
0.0
  0
LINE
  5
7B7
330
1F
100
AcDbEntity
  8
Hewi
100
AcDbLine
 10
494.2297630090138
 20
490.0351148565762
 30
0.0
 11
494.4797630090138
 21
490.0351148565762
 31
0.0
  0
LINE
  5
7B9
330
1F
100
AcDbEntity
  8
Hewi
100
AcDbLine
 10
529.7797630090137
 20
401.5351148565763
 30
0.0
 11
529.7797630090137
 21
385.4321395834316
 31
0.0
  0
LINE
  5
7BA
330
1F
100
AcDbEntity
  8
Hewi
100
AcDbLine
 10
529.7797630090137
 20
385.0351148565763
 30
0.0
 11
529.7797630090137
 21
385.4321395834316
 31
0.0
  0
LINE
  5
7BB
330
1F
100
AcDbEntity
  8
Hewi
100
AcDbLine
 10
493.4797630090137
 20
401.5351148565763
 30
0.0
 11
493.4797630090137
 21
489.2851148565762
 31
0.0
  0
LINE
  5
7BE
330
1F
100
AcDbEntity
  8
Hewi
100
AcDbLine
 10
526.6297630090138
 20
487.0351148565762
 30
0.0
 11
496.6297630090138
 21
487.0351148565762
 31
0.0
  0
LINE
  5
7BF
330
1F
100
AcDbEntity
  8
Hewi
100
AcDbLine
 10
494.4797630090138
 20
490.0351148565762
 30
0.0
 11
494.5918901310915
 21
490.0351148565762
 31
0.0
  0
LINE
  5
7C0
330
1F
100
AcDbEntity
  8
Hewi
100
AcDbLine
 10
494.5918901310915
 20
490.0351148565762
 30
0.0
 11
494.6041361004573
 21
490.0351148565762
 31
0.0
  0
LINE
  5
7CC
330
1F
100
AcDbEntity
  8
Hewi
100
AcDbLine
 10
509.6297630090138
 20
387.2351168765721
 30
0.0
 11
509.6297630090138
 21
387.213296025416
 31
0.0
  0
LINE
  5
7CF
330
1F
100
AcDbEntity
  8
Hewi
100
AcDbLine
 10
513.6297630090138
 20
387.2351168765721
 30
0.0
 11
513.6297630090138
 21
387.213296025416
 31
0.0
  0
LINE
  5
7D2
330
1F
100
AcDbEntity
  8
Hewi
100
AcDbLine
 10
529.5496619485366
 20
494.634490217126
 30
0.0
 11
529.6166737041858
 21
490.7953893071775
 31
0.0
  0
LINE
  5
7D4
330
1F
100
AcDbEntity
  8
Hewi
100
AcDbLine
 10
494.6427000089982
 20
490.7953893071775
 30
0.0
 11
528.6168260090294
 21
490.7953893071775
 31
0.0
  0
LINE
  5
7D6
330
1F
100
AcDbEntity
  8
Hewi
100
AcDbLine
 10
493.6428523138418
 20
490.7953893071775
 30
0.0
 11
493.7098640694909
 21
494.634490217126
 31
0.0
  0
LINE
  5
7D9
330
1F
100
AcDbEntity
  8
Hewi
100
AcDbLine
 10
529.5407154155145
 20
495.1470367506918
 30
0.0
 11
529.5496619485366
 21
494.634490217126
 31
0.0
  0
LINE
  5
7DC
330
1F
100
AcDbEntity
  8
Hewi
100
AcDbLine
 10
493.7098640694909
 20
494.634490217126
 30
0.0
 11
493.718810602513
 21
495.1470367506918
 31
0.0
  0
LINE
  5
7DD
330
1F
100
AcDbEntity
  8
Hewi
100
AcDbLine
 10
493.718810602513
 20
495.1470367506918
 30
0.0
 11
493.8395209811992
 21
502.062529714056
 31
0.0
  0
LINE
  5
7E0
330
1F
100
AcDbEntity
  8
Hewi
100
AcDbLine
 10
529.4200050368284
 20
502.062529714056
 30
0.0
 11
529.5407154155145
 21
495.1470367506918
 31
0.0
  0
LINE
  5
7E2
330
1F
100
AcDbEntity
  8
Hewi
100
AcDbLine
 10
528.8885239837397
 20
490.0542645105361
 30
0.0
 11
528.8693699774993
 21
490.0351105042958
 31
0.0
  0
LINE
  5
7E5
330
1F
100
AcDbEntity
  8
Hewi
100
AcDbLine
 10
494.3901560405282
 20
490.0351105042958
 30
0.0
 11
494.3710020342877
 21
490.0542645105361
 31
0.0
  0
LINE
  5
7E7
330
1F
100
AcDbEntity
  8
Hewi
100
AcDbLine
 10
529.393165437762
 20
503.6001693147538
 30
0.0
 11
529.4200050368284
 21
502.062529714056
 31
0.0
  0
LINE
  5
7EA
330
1F
100
AcDbEntity
  8
Hewi
100
AcDbLine
 10
493.8395209811992
 20
502.062529714056
 30
0.0
 11
493.8663605802656
 21
503.6001693147538
 31
0.0
  0
LINE
  5
7EB
330
1F
100
AcDbEntity
  8
Hewi
100
AcDbLine
 10
494.9619887093986
 20
509.087917752603
 30
0.0
 11
528.2975373086288
 21
509.087917752603
 31
0.0
  0
LINE
  5
7EC
330
1F
100
AcDbEntity
  8
Hewi
100
AcDbLine
 10
493.917763009013
 20
506.5455035357647
 30
0.0
 11
493.9446837898574
 21
508.0877940374135
 31
0.0
  0
LINE
  5
7EE
330
1F
100
AcDbEntity
  8
Hewi
100
AcDbLine
 10
493.8663605802656
 20
503.6001693147538
 30
0.0
 11
493.9177715777186
 21
506.545503386243
 31
0.0
  0
LINE
  5
7F0
330
1F
100
AcDbEntity
  8
Hewi
100
AcDbLine
 10
529.3148422281701
 20
508.0877940374135
 30
0.0
 11
529.3417630090146
 21
506.5455035357647
 31
0.0
  0
LINE
  5
7F1
330
1F
100
AcDbEntity
  8
Hewi
100
AcDbLine
 10
529.3417544403089
 20
506.5455033862429
 30
0.0
 11
529.393165437762
 21
503.6001693147538
 31
0.0
  0
LINE
  5
80F
330
1F
100
AcDbEntity
  8
Hewi
100
AcDbLine
 10
634.7797630090138
 20
384.5438798027528
 30
0.0
 11
634.7797630090138
 21
401.5351148565763
 31
0.0
  0
LINE
  5
811
330
1F
100
AcDbEntity
  8
Hewi
100
AcDbLine
 10
634.7797630090138
 20
401.5351148565763
 30
0.0
 11
634.7797630090138
 21
405.5351148565763
 31
0.0
  0
LINE
  5
814
330
1F
100
AcDbEntity
  8
Hewi
100
AcDbLine
 10
634.7797630090138
 20
405.5351148565763
 30
0.0
 11
634.7797630090138
 21
422.5263499103998
 31
0.0
  0
LINE
  5
818
330
1F
100
AcDbEntity
  8
Hewi
100
AcDbLine
 10
621.7797630090138
 20
384.6336865810717
 30
0.0
 11
621.7797630090138
 21
384.8697834394928
 31
0.0
  0
LINE
  5
819
330
1F
100
AcDbEntity
  8
Hewi
100
AcDbLine
 10
529.7797630090137
 20
385.456294703242
 30
0.0
 11
529.7797630090137
 21
418.0351148565763
 31
0.0
  0
LINE
  5
8A6
330
1F
100
AcDbEntity
  8
Hewi
100
AcDbLine
 10
376.806602375586
 20
490.0351148565763
 30
0.0
 11
393.3066023755861
 21
490.0351148565763
 31
0.0
  0
LINE
  5
8A8
330
1F
100
AcDbEntity
  8
Hewi
100
AcDbLine
 10
393.3066023755861
 20
490.0351148565763
 30
0.0
 11
409.806602375586
 21
490.0351148565763
 31
0.0
  0
LINE
  5
8AB
330
1F
100
AcDbEntity
  8
Hewi
100
AcDbLine
 10
410.806602375586
 20
489.2851148565763
 30
0.0
 11
410.806602375586
 21
409.7109468878263
 31
0.0
  0
LINE
  5
8AD
330
1F
100
AcDbEntity
  8
Hewi
100
AcDbLine
 10
410.056602375586
 20
490.0351148565763
 30
0.0
 11
410.806602375586
 21
489.2851148565763
 31
0.0
  0
LINE
  5
8AF
330
1F
100
AcDbEntity
  8
Hewi
100
AcDbLine
 10
409.806602375586
 20
490.0351148565763
 30
0.0
 11
410.056602375586
 21
490.0351148565763
 31
0.0
  0
LINE
  5
8B3
330
1F
100
AcDbEntity
  8
Hewi
100
AcDbLine
 10
405.7011316457186
 20
509.0879176030813
 30
0.0
 11
405.7969206484012
 21
503.6001693147538
 31
0.0
  0
LINE
  5
8B6
330
1F
100
AcDbEntity
  8
Hewi
100
AcDbLine
 10
406.1006194307037
 20
502.575076247622
 30
0.0
 11
410.4228025328064
 21
495.6595832842578
 31
0.0
  0
LINE
  5
8B8
330
1F
100
AcDbEntity
  8
Hewi
100
AcDbLine
 10
410.065363350312
 20
490.0542645105363
 30
0.0
 11
410.0462093440716
 21
490.0351105042958
 31
0.0
  0
LINE
  5
8B9
330
1F
100
AcDbEntity
  8
Hewi
100
AcDbLine
 10
409.7633666315969
 20
490.0351105042958
 30
0.0
 11
409.7825206378372
 21
490.0542645105361
 31
0.0
  0
LINE
  5
8BA
330
1F
100
AcDbEntity
  8
Hewi
100
AcDbLine
 10
410.7265013151089
 20
494.6344902171261
 30
0.0
 11
410.7935130707581
 21
490.7953893071776
 31
0.0
  0
LINE
  5
8BE
330
1F
100
AcDbEntity
  8
Hewi
100
AcDbLine
 10
411.2977993524737
 20
401.5351148565763
 30
0.0
 11
411.2977993524737
 21
405.5351148565763
 31
0.0
  0
LINE
  5
8C1
330
1F
100
AcDbEntity
  8
Hewi
100
AcDbLine
 10
375.8066023755861
 20
489.2851148565763
 30
0.0
 11
376.5566023755861
 21
490.0351148565763
 31
0.0
  0
LINE
  5
8C2
330
1F
100
AcDbEntity
  8
Hewi
100
AcDbLine
 10
376.5566023755861
 20
490.0351148565763
 30
0.0
 11
376.806602375586
 21
490.0351148565763
 31
0.0
  0
LINE
  5
8C3
330
1F
100
AcDbEntity
  8
Hewi
100
AcDbLine
 10
375.8066023755861
 20
409.7109468878262
 30
0.0
 11
375.8066023755861
 21
489.2851148565763
 31
0.0
  0
LINE
  5
8C6
330
1F
100
AcDbEntity
  8
Hewi
100
AcDbLine
 10
375.819691680414
 20
490.7953893071776
 30
0.0
 11
375.8867034360632
 21
494.634490217126
 31
0.0
  0
LINE
  5
8C7
330
1F
100
AcDbEntity
  8
Hewi
100
AcDbLine
 10
376.1904022183657
 20
495.6595832842578
 30
0.0
 11
380.5125853204684
 21
502.575076247622
 31
0.0
  0
LINE
  5
8C9
330
1F
100
AcDbEntity
  8
Hewi
100
AcDbLine
 10
376.8306841133346
 20
490.0542645105362
 30
0.0
 11
376.8498381195751
 21
490.0351105042958
 31
0.0
  0
LINE
  5
8CA
330
1F
100
AcDbEntity
  8
Hewi
100
AcDbLine
 10
376.5669954071004
 20
490.0351105042958
 30
0.0
 11
376.5478414008601
 21
490.0542645105363
 31
0.0
  0
LINE
  5
8CB
330
1F
100
AcDbEntity
  8
Hewi
100
AcDbLine
 10
380.8162841027709
 20
503.6001693147538
 30
0.0
 11
380.9120731054534
 21
509.0879176030813
 31
0.0
  0
LINE
  5
8CE
330
1F
100
AcDbEntity
  8
Hewi
100
AcDbLine
 10
375.3154053986984
 20
405.5351148565763
 30
0.0
 11
375.3154053986984
 21
401.5351148565763
 31
0.0
  0
LINE
  5
8D0
330
1F
100
AcDbEntity
  8
Hewi
100
AcDbLine
 10
375.3452497199371
 20
401.5351148565763
 30
0.0
 11
375.3154053986984
 21
401.5351148565763
 31
0.0
  0
ARC
  5
A0C
330
1F
100
AcDbEntity
  8
Hewi
100
AcDbCircle
 10
494.4797630090138
 20
385.0351148565763
 30
0.0
 40
1.0
100
AcDbArc
 50
180.0
 51
270.0
  0
ARC
  5
A0D
330
1F
100
AcDbEntity
  8
Hewi
100
AcDbCircle
 10
528.7797630090137
 20
385.0351148565763
 30
0.0
 40
1.0
100
AcDbArc
 50
270.0
 51
0.0
  0
ARC
  5
A10
330
1F
100
AcDbEntity
  8
Hewi
100
AcDbCircle
 10
639.1908569582746
 20
421.4965436660969
 30
0.0
 40
2.0
100
AcDbArc
 50
12.63747559919963
 51
89.49999999998892
  0
ARC
  5
A11
330
1F
100
AcDbEntity
  8
Hewi
100
AcDbCircle
 10
639.1908569582746
 20
385.5736860470555
 30
0.0
 40
2.0
100
AcDbArc
 50
270.5000000000111
 51
347.3625244008041
  0
ARC
  5
A12
330
1F
100
AcDbEntity
  8
Hewi
100
AcDbCircle
 10
635.7797630090137
 20
384.5438798027528
 30
0.0
 40
1.0
100
AcDbArc
 50
180.0
 51
270.5000000000111
  0
ARC
  5
A13
330
1F
100
AcDbEntity
  8
Hewi
100
AcDbCircle
 10
635.7797630090137
 20
422.5263499103998
 30
0.0
 40
1.0
100
AcDbArc
 50
89.49999999998892
 51
180.0
  0
ARC
  5
A14
330
1F
100
AcDbEntity
  8
Hewi
100
AcDbCircle
 10
559.0822018806806
 20
403.5351148565762
 30
0.0
 40
84.09756112833305
100
AcDbArc
 50
1.362731118474354
 51
12.63747559919963
  0
ARC
  5
A15
330
1F
100
AcDbEntity
  8
Hewi
100
AcDbCircle
 10
559.0822018806806
 20
403.5351148565762
 30
0.0
 40
84.09756112833305
100
AcDbArc
 50
347.3625244008003
 51
358.6372688815256
  0
ARC
  5
A16
330
1F
100
AcDbEntity
  8
Hewi
100
AcDbCircle
 10
-544.7797630090137
 20
385.2943526637253
 30
0.0
 40
1.0
210
0.0
220
0.0
230
-1.0
100
AcDbArc
 50
313.5844282945591
 51
355.2126768997916
  0
ARC
  5
A17
330
1F
100
AcDbEntity
  8
Hewi
100
AcDbCircle
 10
-620.7797630090137
 20
385.2943526637253
 30
0.0
 40
1.0
210
0.0
220
0.0
230
-1.0
100
AcDbArc
 50
205.3400067609059
 51
226.4155717054409
  0
ARC
  5
A3D
330
1F
100
AcDbEntity
  8
Hewi
100
AcDbCircle
 10
-393.3066023755862
 20
374.1814311732707
 30
0.0
 40
1.0
210
0.0
220
0.0
230
-1.0
100
AcDbArc
 50
270.0164694512163
 51
359.9999868617887
  0
ARC
  5
A3E
330
1F
100
AcDbEntity
  8
Hewi
100
AcDbCircle
 10
-393.3066023755862
 20
374.1814311732708
 30
0.0
 40
1.0
210
0.0
220
0.0
230
-1.0
100
AcDbArc
 50
180.000013138208
 51
270.0158085254509
  0
ARC
  5
A3F
330
1F
100
AcDbEntity
  8
Hewi
100
AcDbCircle
 10
393.3066023755861
 20
401.5351148565763
 30
0.0
 40
17.99123505382351
100
AcDbArc
 50
180.0
 51
270.0
  0
ARC
  5
A40
330
1F
100
AcDbEntity
  8
Hewi
100
AcDbCircle
 10
393.3066023755861
 20
401.5351148565763
 30
0.0
 40
17.99123505382351
100
AcDbArc
 50
270.0
 51
0.0
  0
ARC
  5
A41
330
1F
100
AcDbEntity
  8
Hewi
100
AcDbCircle
 10
393.306602374583
 20
520.2801313084522
 30
0.0
 40
16.70000000230639
100
AcDbArc
 50
304.6709271005967
 51
313.1068924713214
  0
ARC
  5
A42
330
1F
100
AcDbEntity
  8
Hewi
100
AcDbCircle
 10
393.3066023766656
 20
520.2801313085376
 30
0.0
 40
16.70000000241847
100
AcDbArc
 50
226.8931075286876
 51
235.3290728993553
  0
ARC
  5
A43
330
1F
100
AcDbEntity
  8
Hewi
100
AcDbCircle
 10
393.3066023755861
 20
520.2801313065229
 30
0.0
 40
16.7000000000011
100
AcDbArc
 50
235.3290740924995
 51
304.6709268095636
  0
ARC
  5
A44
330
1F
100
AcDbEntity
  8
Hewi
100
AcDbCircle
 10
407.7966160387079
 20
503.6350741276282
 30
0.0
 40
1.99999999999701
100
AcDbArc
 50
180.9999999999985
 51
212.0053832081725
  0
ARC
  5
A47
330
1F
100
AcDbEntity
  8
Hewi
100
AcDbCircle
 10
408.7268059247874
 20
494.5995854042512
 30
0.0
 40
2.000000000008749
100
AcDbArc
 50
1.000000000005003
 51
32.00538320795445
  0
ARC
  5
A48
330
1F
100
AcDbEntity
  8
Hewi
100
AcDbCircle
 10
377.8863988263851
 20
494.5995854042513
 30
0.0
 40
2.000000000009167
100
AcDbArc
 50
147.9946167920512
 51
178.9999999999982
  0
ARC
  5
A4A
330
1F
100
AcDbEntity
  8
Hewi
100
AcDbCircle
 10
378.8165887124669
 20
503.6350741276281
 30
0.0
 40
1.999999999995431
100
AcDbArc
 50
327.9946167917898
 51
359.0000000000015
  0
ARC
  5
A50
330
1F
100
AcDbEntity
  8
Hewi
100
AcDbCircle
 10
393.3066023755861
 20
401.5351148565763
 30
0.0
 40
17.99119697688767
100
AcDbArc
 50
180.0
 51
0.0
  0
ARC
  5
A51
330
1F
100
AcDbEntity
  8
Hewi
100
AcDbCircle
 10
393.3066023755861
 20
405.5351148565763
 30
0.0
 40
17.99119697688767
100
AcDbArc
 50
0.0
 51
180.0
  0
ELLIPSE
  5
A70
330
1F
100
AcDbEntity
  8
Hewi
100
AcDbEllipse
 10
496.9352266452574
 20
401.535114856575
 30
0.0
 11
0.0000000000000205
 21
17.49999999999483
 31
0.0
210
0.0
220
0.0
230
1.0
 40
0.0174550649282141
 41
1.570796326794896
 42
2.544470637110354
  0
ELLIPSE
  5
A71
330
1F
100
AcDbEntity
  8
Hewi
100
AcDbEllipse
 10
526.3242993727692
 20
401.5351148565781
 30
0.0
 11
0.0000000000000205
 21
17.50000000002151
 31
0.0
210
0.0
220
0.0
230
1.0
 40
0.0174550649282437
 41
3.738714670071027
 42
4.712388980384689
  0
ELLIPSE
  5
AB6
330
1F
100
AcDbEntity
  8
Hewi
100
AcDbEllipse
 10
393.3066023755862
 20
384.08933458804
 30
0.0
 11
1.0
 21
0.0
 31
0.0
210
0.0
220
0.0
230
1.0
 40
0.7870722707336816
 41
4.712388980384689
 42
6.047419114353472
  0
ELLIPSE
  5
ABB
330
1F
100
AcDbEntity
  8
Hewi
100
AcDbEllipse
 10
393.3066023755862
 20
384.08933458804
 30
0.0
 11
-1.0
 21
0.0
 31
0.0
210
0.0
220
0.0
230
1.0
 40
0.7870722707336816
 41
0.2357661928261177
 42
1.570796326794896
  0
SPLINE
  5
B16
330
1F
100
AcDbEntity
  8
Hewi
100
AcDbSpline
210
0.0
220
0.0
230
1.0
 70
     8
 71
     2
 72
     6
 73
     3
 74
     0
 42
0.0000000001
 43
0.0000000001
 40
0.0
 40
0.0
 40
0.0
 40
1.0
 40
1.0
 40
1.0
 10
643.1559608853421
 20
401.5351148565763
 30
0.0
 10
643.2035304315959
 20
403.5351151686541
 30
0.0
 10
643.1559346484959
 20
405.5351148565763
 30
0.0
  0
SPLINE
  5
B17
330
1F
100
AcDbEntity
  8
Hewi
100
AcDbSpline
210
0.0
220
0.0
230
1.0
 70
     8
 71
     3
 72
     8
 73
     4
 74
     0
 42
0.0000000001
 43
0.0000000001
 40
0.0
 40
0.0
 40
0.0
 40
0.0
 40
1.0
 40
1.0
 40
1.0
 40
1.0
 10
528.6168260090294
 20
490.7953893071775
 30
0.0
 10
529.1402435489092
 20
490.8045228115311
 30
0.0
 10
529.6165142782743
 20
490.8045228115311
 30
0.0
 10
529.6166737041858
 20
490.7953893071775
 30
0.0
  0
SPLINE
  5
B18
330
1F
100
AcDbEntity
  8
Hewi
100
AcDbSpline
210
0.0
220
0.0
230
1.0
 70
    24
 71
     1
 72
     4
 73
     2
 74
     0
 42
0.0000000001
 43
0.0000000001
 40
0.0
 40
0.0
 40
1.0
 40
1.0
 10
528.8925174323889
 20
490.0455035358103
 30
0.0
 10
529.6166737041858
 20
490.7953893071775
 30
0.0
  0
SPLINE
  5
B19
330
1F
100
AcDbEntity
  8
Hewi
100
AcDbSpline
210
0.0
220
0.0
230
1.0
 70
     8
 71
     3
 72
     8
 73
     4
 74
     0
 42
0.0000000001
 43
0.0000000001
 40
0.0
 40
0.0
 40
0.0
 40
0.0
 40
1.0
 40
1.0
 40
1.0
 40
1.0
 10
528.8795280150444
 20
490.0457410082808
 30
0.0
 10
528.8894434585499
 20
490.0464680305894
 30
0.0
 10
528.8949152221135
 20
490.0471925534608
 30
0.0
 10
528.8948433995033
 20
490.0479121452661
 30
0.0
  0
SPLINE
  5
B1D
330
1F
100
AcDbEntity
  8
Hewi
100
AcDbSpline
210
0.0
220
0.0
230
1.0
 70
     8
 71
     3
 72
     8
 73
     4
 74
     0
 42
0.0000000001
 43
0.0000000001
 40
0.0
 40
0.0
 40
0.0
 40
0.0
 40
1.0
 40
1.0
 40
1.0
 40
1.0
 10
493.6428523138418
 20
490.7953893071775
 30
0.0
 10
493.6430117397533
 20
490.8045228115311
 30
0.0
 10
494.1192824691183
 20
490.8045228115311
 30
0.0
 10
494.6427000089982
 20
490.7953893071775
 30
0.0
  0
SPLINE
  5
B20
330
1F
100
AcDbEntity
  8
Hewi
100
AcDbSpline
210
0.0
220
0.0
230
1.0
 70
     8
 71
     3
 72
     9
 73
     5
 74
     0
 42
0.0000000001
 43
0.0000000001
 40
0.0
 40
0.0
 40
0.0
 40
0.0
 40
0.4999702165713935
 40
1.0
 40
1.0
 40
1.0
 40
1.0
 10
494.5582295382316
 20
490.0524790917933
 30
0.0
 10
494.5185487375107
 20
490.051813753802
 30
0.0
 10
494.439182408466
 20
490.0504829985505
 30
0.0
 10
494.4036101185266
 20
490.051806207268
 30
0.0
 10
494.3858229140922
 20
490.0524678510363
 30
0.0
  0
SPLINE
  5
B21
330
1F
100
AcDbEntity
  8
Hewi
100
AcDbSpline
210
0.0
220
0.0
230
1.0
 70
     8
 71
     3
 72
     8
 73
     4
 74
     0
 42
0.0000000001
 43
0.0000000001
 40
0.0
 40
0.0
 40
0.0
 40
0.0
 40
1.0
 40
1.0
 40
1.0
 40
1.0
 10
494.3647063149553
 20
490.0478876068934
 30
0.0
 10
494.3646971438763
 20
490.0470973744055
 30
0.0
 10
494.370312413304
 20
490.0463017814277
 30
0.0
 10
494.3804180933417
 20
490.0455035358103
 30
0.0
  0
SPLINE
  5
B22
330
1F
100
AcDbEntity
  8
Hewi
100
AcDbSpline
210
0.0
220
0.0
230
1.0
 70
    24
 71
     1
 72
     4
 73
     2
 74
     0
 42
0.0000000001
 43
0.0000000001
 40
0.0
 40
0.0
 40
1.0
 40
1.0
 10
493.6428523138418
 20
490.7953893071775
 30
0.0
 10
494.3670085856386
 20
490.0455035358103
 30
0.0
  0
SPLINE
  5
B24
330
1F
100
AcDbEntity
  8
Hewi
100
AcDbSpline
210
0.0
220
0.0
230
1.0
 70
     8
 71
     3
 72
    16
 73
    12
 74
     0
 42
0.0000000001
 43
0.0000000001
 40
0.0
 40
0.0
 40
0.0
 40
0.0
 40
0.1402983833808775
 40
0.1402983833808775
 40
0.2791538761206359
 40
0.2791538761206359
 40
0.4858631724659666
 40
0.4858631724659666
 40
0.7726325045375195
 40
0.7726325045375195
 40
1.0
 40
1.0
 40
1.0
 40
1.0
 10
528.2975373086288
 20
509.087917752603
 30
0.0
 10
528.3861003223852
 20
509.087917752603
 30
0.0
 10
528.4759372580533
 20
509.0744860045943
 30
0.0
 10
528.6403982135066
 20
509.0268608472096
 30
0.0
 10
528.7175065499316
 20
508.99252977374
 30
0.0
 10
528.8883581746604
 20
508.8924326988582
 30
0.0
 10
528.9754319991812
 20
508.8181063854433
 30
0.0
 10
529.1443322182065
 20
508.6294086395775
 30
0.0
 10
529.2150571424238
 20
508.5071093636613
 30
0.0
 10
529.2942583545819
 20
508.2863536430067
 30
0.0
 10
529.3131260853145
 20
508.1861117957719
 30
0.0
 10
529.3148422281701
 20
508.0877940374135
 30
0.0
  0
SPLINE
  5
B25
330
1F
100
AcDbEntity
  8
Hewi
100
AcDbSpline
210
0.0
220
0.0
230
1.0
 70
     8
 71
     3
 72
    16
 73
    12
 74
     0
 42
0.0000000001
 43
0.0000000001
 40
0.0
 40
0.0
 40
0.0
 40
0.0
 40
0.2665302458151765
 40
0.2665302458151765
 40
0.5944000435293523
 40
0.5944000435293523
 40
0.7666890640119627
 40
0.7666890640119627
 40
0.9066025001916086
 40
0.9066025001916086
 40
1.0
 40
1.0
 40
1.0
 40
1.0
 10
493.9446837898574
 20
508.0877940374135
 30
0.0
 10
493.9466908477161
 20
508.2027783051239
 30
0.0
 10
493.972170543694
 20
508.3205842473594
 30
0.0
 10
494.0780608895771
 20
508.5731335274732
 30
0.0
 10
494.1715041936197
 20
508.7111084380002
 30
0.0
 10
494.3703644503201
 20
508.8884679769223
 30
0.0
 10
494.451372979568
 20
508.9449096899417
 30
0.0
 10
494.6164135607123
 20
509.0253950981101
 30
0.0
 10
494.6988503945629
 20
509.054118572327
 30
0.0
 10
494.8423238104658
 20
509.0819820537432
 30
0.0
 10
494.9023801909776
 20
509.087917752603
 30
0.0
 10
494.9619887093986
 20
509.087917752603
 30
0.0
  0
SPLINE
  5
B27
330
1F
100
AcDbEntity
  8
Hewi
100
AcDbSpline
210
0.0
220
0.0
230
1.0
 70
     8
 71
     3
 72
    18
 73
    14
 74
     0
 42
0.0000000001
 43
0.0000000001
 40
0.0
 40
0.0
 40
0.0
 40
0.0
 40
0.1250000000000001
 40
0.1250000000000001
 40
0.2500000000000001
 40
0.2500000000000001
 40
0.5
 40
0.5
 40
0.75
 40
0.75
 40
0.875
 40
0.875
 40
1.0
 40
1.0
 40
1.0
 40
1.0
 10
545.9507298883448
 20
382.9669400897535
 30
0.0
 10
548.5444758136655
 20
380.9341151084819
 30
0.0
 10
551.3751433888008
 20
379.4025967843357
 30
0.0
 10
557.282716657208
 20
376.860579671221
 30
0.0
 10
560.3904668503846
 20
375.8621929043956
 30
0.0
 10
569.8415930087368
 20
373.5359227970568
 30
0.0
 10
576.239099094966
 20
372.8511343987574
 30
0.0
 10
589.1860021504339
 20
372.8411352889893
 30
0.0
 10
595.6558983943115
 20
373.5305105578551
 30
0.0
 10
605.0521463390921
 20
375.8286035175256
 30
0.0
 10
608.1688691213186
 20
376.8194360579402
 30
0.0
 10
614.158312915785
 20
379.3861936146528
 30
0.0
 10
617.0362155892314
 20
380.950703288026
 30
0.0
 10
619.6087961296828
 20
382.9669400897535
 30
0.0
  0
SPLINE
  5
B2A
330
1F
100
AcDbEntity
  8
Hewi
100
AcDbSpline
210
0.0
220
0.0
230
1.0
 70
     8
 71
     3
 72
     8
 73
     4
 74
     0
 42
0.0000000001
 43
0.0000000001
 40
0.0
 40
0.0
 40
0.0
 40
0.0
 40
1.0
 40
1.0
 40
1.0
 40
1.0
 10
621.4691857136434
 20
384.5699934059386
 30
0.0
 10
620.8965971144841
 20
384.0250213131146
 30
0.0
 10
620.269105569462
 20
383.4844516591979
 30
0.0
 10
619.6087961296828
 20
382.9669400897535
 30
0.0
  0
SPLINE
  5
B2B
330
1F
100
AcDbEntity
  8
Hewi
100
AcDbSpline
210
0.0
220
0.0
230
1.0
 70
     8
 71
     3
 72
     8
 73
     4
 74
     0
 42
0.0000000001
 43
0.0000000001
 40
0.0
 40
0.0
 40
0.0
 40
0.0
 40
1.0
 40
1.0
 40
1.0
 40
1.0
 10
545.9507298883448
 20
382.9669400897535
 30
0.0
 10
545.290761237974
 20
383.4841845685719
 30
0.0
 10
544.6624559758631
 20
384.025471431032
 30
0.0
 10
544.0903403043843
 20
384.5699934059386
 30
0.0
  0
SPLINE
  5
B32
330
1F
100
AcDbEntity
  8
Hewi
100
AcDbSpline
210
0.0
220
0.0
230
1.0
 70
     8
 71
     3
 72
    10
 73
     6
 74
     0
 42
0.0000000001
 43
0.0000000001
 40
0.0
 40
0.0
 40
0.0
 40
0.0
 40
0.4260212506961626
 40
0.4260212506961626
 40
1.0
 40
1.0
 40
1.0
 40
1.0
 10
621.7797630090138
 20
384.8697834394928
 30
0.0
 10
610.5612033671684
 20
384.9191363034979
 30
0.0
 10
599.3426437420798
 20
384.9684929720445
 30
0.0
 10
573.0093103941785
 20
385.0843570885932
 30
0.0
 10
557.8945366853932
 20
385.1508677214008
 30
0.0
 10
543.90426748969
 20
385.2173857084292
 30
0.0
  0
SPLINE
  5
B58
330
1F
100
AcDbEntity
  8
Hewi
100
AcDbSpline
210
0.0
220
0.0
230
1.0
 70
    24
 71
     1
 72
     4
 73
     2
 74
     0
 42
0.0000000001
 43
0.0000000001
 40
0.0
 40
0.0
 40
1.0
 40
1.0
 10
409.7936653756017
 20
490.0455035358103
 30
0.0
 10
376.8195393755704
 20
490.0455035358103
 30
0.0
  0
SPLINE
  5
B59
330
1F
100
AcDbEntity
  8
Hewi
100
AcDbSpline
210
0.0
220
0.0
230
1.0
 70
     8
 71
     3
 72
    16
 73
    12
 74
     0
 42
0.0000000001
 43
0.0000000001
 40
0.0
 40
0.0
 40
0.0
 40
0.0
 40
0.2665302458151779
 40
0.2665302458151779
 40
0.5944000435293522
 40
0.5944000435293522
 40
0.7666890640119626
 40
0.7666890640119626
 40
0.9066025001916083
 40
0.9066025001916083
 40
1.0
 40
1.0
 40
1.0
 40
1.0
 10
404.7187411723371
 20
508.0877940374135
 30
0.0
 10
404.8415864161198
 20
508.2027783051239
 30
0.0
 10
404.9635863698032
 20
508.3205842473595
 30
0.0
 10
405.2177307044316
 20
508.5731335274733
 30
0.0
 10
405.3512285428003
 20
508.7111084380003
 30
0.0
 10
405.5183658018493
 20
508.8884679769223
 30
0.0
 10
405.5706304229687
 20
508.9449096899417
 30
0.0
 10
405.644483471479
 20
509.0253950981102
 30
0.0
 10
405.6705476818636
 20
509.0541185723271
 30
0.0
 10
405.6957783587576
 20
509.0819820537433
 30
0.0
 10
405.7011390109352
 20
509.0879259220176
 30
0.0
 10
405.7011284615473
 20
509.0879142249013
 30
0.0
  0
SPLINE
  5
B5A
330
1F
100
AcDbEntity
  8
Hewi
100
AcDbSpline
210
0.0
220
0.0
230
1.0
 70
     8
 71
     3
 72
     9
 73
     5
 74
     0
 42
0.0000000001
 43
0.0000000001
 40
0.0
 40
0.0
 40
0.0
 40
0.0
 40
0.4999702166017473
 40
1.0
 40
1.0
 40
1.0
 40
1.0
 10
410.0507279092542
 20
490.0524790917933
 30
0.0
 10
410.0330379367801
 20
490.0518137538028
 30
0.0
 10
409.9976558842367
 20
490.0504829985528
 30
0.0
 10
409.9183740292375
 20
490.0518062072688
 30
0.0
 10
409.878730740455
 20
490.0524678510364
 30
0.0
  0
SPLINE
  5
B5B
330
1F
100
AcDbEntity
  8
Hewi
100
AcDbSpline
210
0.0
220
0.0
230
1.0
 70
     8
 71
     3
 72
     8
 73
     4
 74
     0
 42
0.0000000001
 43
0.0000000001
 40
0.0
 40
0.0
 40
0.0
 40
0.0
 40
1.0
 40
1.0
 40
1.0
 40
1.0
 10
410.0563673816168
 20
490.0457410082809
 30
0.0
 10
410.0662828251221
 20
490.0464680305894
 30
0.0
 10
410.0717545886858
 20
490.0471925534609
 30
0.0
 10
410.0716827660756
 20
490.0479121452661
 30
0.0
  0
SPLINE
  5
B5C
330
1F
100
AcDbEntity
  8
Hewi
100
AcDbSpline
210
0.0
220
0.0
230
1.0
 70
     8
 71
     3
 72
     8
 73
     4
 74
     0
 42
0.0000000001
 43
0.0000000001
 40
0.0
 40
0.0
 40
0.0
 40
0.0
 40
1.0
 40
1.0
 40
1.0
 40
1.0
 10
409.7936653756017
 20
490.0478876068935
 30
0.0
 10
409.8237453173089
 20
490.0470973744056
 30
0.0
 10
409.8529465695049
 20
490.0463017814278
 30
0.0
 10
409.8802902349306
 20
490.0455035358103
 30
0.0
  0
SPLINE
  5
B5E
330
1F
100
AcDbEntity
  8
Hewi
100
AcDbSpline
210
0.0
220
0.0
230
1.0
 70
    24
 71
     1
 72
     4
 73
     2
 74
     0
 42
0.0000000001
 43
0.0000000001
 40
0.0
 40
0.0
 40
1.0
 40
1.0
 10
410.7935130707581
 20
490.7953893071776
 30
0.0
 10
410.0693567989611
 20
490.0455035358103
 30
0.0
  0
SPLINE
  5
B60
330
1F
100
AcDbEntity
  8
Hewi
100
AcDbSpline
210
0.0
220
0.0
230
1.0
 70
    24
 71
     3
 72
    12
 73
     8
 74
     0
 42
0.0000000001
 43
0.0000000001
 40
0.0
 40
0.0
 40
0.0
 40
0.0
 40
0.245156551704624
 40
0.245156551704624
 40
0.4967927488508121
 40
0.4967927488508121
 40
1.0
 40
1.0
 40
1.0
 40
1.0
 10
394.3066023755861
 20
383.9363939560032
 30
0.0
 10
394.3066023755862
 20
382.0196029042423
 30
0.0
 10
394.3066023755862
 20
380.5564327952126
 30
0.0
 10
394.3066023755862
 20
378.0827781697996
 30
0.0
 10
394.3066023755862
 20
377.1085593413456
 30
0.0
 10
394.3066023755862
 20
374.8553036901994
 30
0.0
 10
394.3066023755862
 20
374.1787779397591
 30
0.0
 10
394.3066023755862
 20
374.1814385880811
 30
0.0
  0
SPLINE
  5
B6C
330
1F
100
AcDbEntity
  8
Hewi
100
AcDbSpline
210
0.0
220
0.0
230
1.0
 70
     8
 71
     3
 72
     8
 73
     4
 74
     0
 42
0.0000000001
 43
0.0000000001
 40
0.0
 40
0.0
 40
0.0
 40
0.0
 40
1.0
 40
1.0
 40
1.0
 40
1.0
 10
376.733442147428
 20
490.0457410082809
 30
0.0
 10
376.7606551956522
 20
490.0464680305894
 30
0.0
 10
376.7896744711334
 20
490.0471925534608
 30
0.0
 10
376.8195393755704
 20
490.0479121452661
 30
0.0
  0
SPLINE
  5
B6D
330
1F
100
AcDbEntity
  8
Hewi
100
AcDbSpline
210
0.0
220
0.0
230
1.0
 70
     8
 71
     3
 72
     9
 73
     5
 74
     0
 42
0.0000000001
 43
0.0000000001
 40
0.0
 40
0.0
 40
0.0
 40
0.0
 40
0.4999702163393383
 40
1.0
 40
1.0
 40
1.0
 40
1.0
 10
376.7350689048039
 20
490.0524790917934
 30
0.0
 10
376.6953881041041
 20
490.0518137537992
 30
0.0
 10
376.6160217750651
 20
490.0504829985411
 30
0.0
 10
376.5804494851134
 20
490.0518062072647
 30
0.0
 10
376.5626622806645
 20
490.0524678510364
 30
0.0
  0
SPLINE
  5
B6E
330
1F
100
AcDbEntity
  8
Hewi
100
AcDbSpline
210
0.0
220
0.0
230
1.0
 70
     8
 71
     3
 72
     8
 73
     4
 74
     0
 42
0.0000000001
 43
0.0000000001
 40
0.0
 40
0.0
 40
0.0
 40
0.0
 40
1.0
 40
1.0
 40
1.0
 40
1.0
 10
376.5415456815276
 20
490.0478876068935
 30
0.0
 10
376.5415365104486
 20
490.0470973744056
 30
0.0
 10
376.5471517798762
 20
490.0463017814278
 30
0.0
 10
376.5572574599139
 20
490.0455035358103
 30
0.0
  0
SPLINE
  5
B6F
330
1F
100
AcDbEntity
  8
Hewi
100
AcDbSpline
210
0.0
220
0.0
230
1.0
 70
    24
 71
     1
 72
     4
 73
     2
 74
     0
 42
0.0000000001
 43
0.0000000001
 40
0.0
 40
0.0
 40
1.0
 40
1.0
 10
376.543847952211
 20
490.0455035358103
 30
0.0
 10
375.819691680414
 20
490.7953893071776
 30
0.0
  0
SPLINE
  5
B70
330
1F
100
AcDbEntity
  8
Hewi
100
AcDbSpline
210
0.0
220
0.0
230
1.0
 70
     8
 71
     3
 72
    16
 73
    12
 74
     0
 42
0.0000000001
 43
0.0000000001
 40
0.0
 40
0.0
 40
0.0
 40
0.0
 40
0.1402983833808775
 40
0.1402983833808775
 40
0.2791538761206359
 40
0.2791538761206359
 40
0.4858631724659666
 40
0.4858631724659666
 40
0.7726325045375195
 40
0.7726325045375195
 40
1.0
 40
1.0
 40
1.0
 40
1.0
 10
380.9120697611593
 20
509.0879214678734
 30
0.0
 10
380.9120764549673
 20
509.0879140373326
 30
0.0
 10
380.9241731073421
 20
509.0744860045944
 30
0.0
 10
380.967439808629
 20
509.0268608472097
 30
0.0
 10
380.9987567465721
 20
508.99252977374
 30
0.0
 10
381.0911638928608
 20
508.8924326988582
 30
0.0
 10
381.1606571171794
 20
508.8181063854433
 30
0.0
 10
381.3410843705364
 20
508.6294086395776
 30
0.0
 10
381.4610723523309
 20
508.5071093636613
 30
0.0
 10
381.6851237453064
 20
508.2863536430068
 30
0.0
 10
381.7894242614207
 20
508.1861117957719
 30
0.0
 10
381.8944635788348
 20
508.0877940374135
 30
0.0
  0
SPLINE
  5
B71
330
1F
100
AcDbEntity
  8
Hewi
100
AcDbSpline
210
0.0
220
0.0
230
1.0
 70
    24
 71
     3
 72
    14
 73
    10
 74
     0
 42
0.0000000001
 43
0.0000000001
 40
0.0
 40
0.0
 40
0.0
 40
0.0
 40
0.0019918953337088
 40
0.0019918953337088
 40
0.5044345283033364
 40
0.5044345283033364
 40
0.7556558447881498
 40
0.7556558447881498
 40
1.0
 40
1.0
 40
1.0
 40
1.0
 10
392.3066023755863
 20
374.1814379561
 30
0.0
 10
392.3066023755863
 20
374.181426839393
 30
0.0
 10
392.3066023755862
 20
374.1814286243034
 30
0.0
 10
392.3066023755862
 20
374.1842765179683
 30
0.0
 10
392.3066023755861
 20
374.8524274364164
 30
0.0
 10
392.3066023755862
 20
377.1254531027854
 30
0.0
 10
392.3066023755862
 20
378.1018448052465
 30
0.0
 10
392.3066023755862
 20
380.5564364299283
 30
0.0
 10
392.3066023755862
 20
382.0075353619026
 30
0.0
 10
392.3066023755862
 20
383.9262125879887
 30
0.0
  0
SPLINE
  5
B79
330
1F
100
AcDbEntity
  8
Hewi
100
AcDbSpline
210
0.0
220
0.0
230
1.0
 70
    24
 71
     1
 72
     4
 73
     2
 74
     0
 42
0.0000000001
 43
0.0000000001
 40
0.0
 40
0.0
 40
1.0
 40
1.0
 10
375.3452497199371
 20
401.5351148565763
 30
0.0
 10
375.3452497267279
 20
401.5399639818308
 30
0.0
  0
LINE
  5
BE3
330
1F
100
AcDbEntity
  8
Hewi
100
AcDbLine
 10
151.8334417421583
 20
418.4932666927499
 30
0.0
 11
256.8334417421584
 21
418.0351148565763
 31
0.0
  0
LINE
  5
BE4
330
1F
100
AcDbEntity
  8
Hewi
100
AcDbLine
 10
256.8334417421584
 20
385.0351148565763
 30
0.0
 11
242.7994808046583
 21
385.0351148565763
 31
0.0
  0
LINE
  5
BE5
330
1F
100
AcDbEntity
  8
Hewi
100
AcDbLine
 10
147.4048947219005
 20
423.4964675122252
 30
0.0
 11
150.8247152066598
 21
423.5263118334639
 31
0.0
  0
LINE
  5
BE6
330
1F
100
AcDbEntity
  8
Hewi
100
AcDbLine
 10
150.8247152066598
 20
383.5439178796886
 30
0.0
 11
147.4048947219005
 21
383.5737622009272
 31
0.0
  0
LINE
  5
BE7
330
1F
100
AcDbEntity
  8
Hewi
100
AcDbLine
 10
164.8334417421583
 20
384.6336865810717
 30
0.0
 11
151.8334417421583
 21
384.5769630204026
 31
0.0
  0
LINE
  5
BE8
330
1F
100
AcDbEntity
  8
Hewi
100
AcDbLine
 10
292.1334417421583
 20
384.0351148565763
 30
0.0
 11
257.8334417421583
 21
384.0351148565763
 31
0.0
  0
LINE
  5
BE9
330
1F
100
AcDbEntity
  8
Hewi
100
AcDbLine
 10
260.1171539170747
 20
387.0633633952489
 30
0.0
 11
289.8497295672419
 21
387.0633633952489
 31
0.0
  0
LINE
  5
BEA
330
1F
100
AcDbEntity
  8
Hewi
100
AcDbLine
 10
289.6997969370748
 20
387.2351168765721
 30
0.0
 11
289.6997969370748
 21
387.2132960254159
 31
0.0
  0
LINE
  5
BEB
330
1F
100
AcDbEntity
  8
Hewi
100
AcDbLine
 10
289.8497295672419
 20
387.0633633952488
 30
0.0
 11
289.6997969370748
 21
387.2132960254159
 31
0.0
  0
LINE
  5
BEC
330
1F
100
AcDbEntity
  8
Hewi
100
AcDbLine
 10
289.9834417421583
 20
487.035114856576
 30
0.0
 11
289.9834417421583
 21
401.535114856576
 31
0.0
  0
LINE
  5
BED
330
1F
100
AcDbEntity
  8
Hewi
100
AcDbLine
 10
259.9834417421583
 20
487.0351148565762
 30
0.0
 11
259.9834417421583
 21
401.5351148565763
 31
0.0
  0
LINE
  5
BEE
330
1F
100
AcDbEntity
  8
Hewi
100
AcDbLine
 10
260.1171539170747
 20
387.0633633952488
 30
0.0
 11
260.2670865472419
 21
387.2132960254159
 31
0.0
  0
LINE
  5
BEF
330
1F
100
AcDbEntity
  8
Hewi
100
AcDbLine
 10
256.8334417421584
 20
489.2851148565762
 30
0.0
 11
257.5834417421583
 21
490.0351148565762
 31
0.0
  0
LINE
  5
BF0
330
1F
100
AcDbEntity
  8
Hewi
100
AcDbLine
 10
257.5834417421583
 20
490.0351148565762
 30
0.0
 11
257.8334417421583
 21
490.0351148565762
 31
0.0
  0
LINE
  5
BF1
330
1F
100
AcDbEntity
  8
Hewi
100
AcDbLine
 10
256.8334417421584
 20
489.2851148565762
 30
0.0
 11
256.8334417421584
 21
401.5351148565763
 31
0.0
  0
LINE
  5
BF2
330
1F
100
AcDbEntity
  8
Hewi
100
AcDbLine
 10
293.1334417421583
 20
385.0351148565763
 30
0.0
 11
293.1334417421583
 21
401.5351148565763
 31
0.0
  0
LINE
  5
BF3
330
1F
100
AcDbEntity
  8
Hewi
100
AcDbLine
 10
292.1334417421583
 20
489.2851148565762
 30
0.0
 11
293.1334417421583
 21
489.2851148565762
 31
0.0
  0
LINE
  5
BF4
330
1F
100
AcDbEntity
  8
Hewi
100
AcDbLine
 10
293.1334417421583
 20
489.2851148565762
 30
0.0
 11
292.3834417421583
 21
490.0351148565762
 31
0.0
  0
LINE
  5
BF5
330
1F
100
AcDbEntity
  8
Hewi
100
AcDbLine
 10
292.3834417421583
 20
490.0351148565762
 30
0.0
 11
292.1334417421583
 21
490.0351148565762
 31
0.0
  0
LINE
  5
BF6
330
1F
100
AcDbEntity
  8
Hewi
100
AcDbLine
 10
256.8334417421584
 20
401.5351148565763
 30
0.0
 11
256.8334417421584
 21
385.4321395834316
 31
0.0
  0
LINE
  5
BF7
330
1F
100
AcDbEntity
  8
Hewi
100
AcDbLine
 10
256.8334417421584
 20
385.0351148565763
 30
0.0
 11
256.8334417421584
 21
385.4321395834316
 31
0.0
  0
LINE
  5
BF8
330
1F
100
AcDbEntity
  8
Hewi
100
AcDbLine
 10
293.1334417421583
 20
401.5351148565763
 30
0.0
 11
293.1334417421583
 21
489.2851148565762
 31
0.0
  0
LINE
  5
BF9
330
1F
100
AcDbEntity
  8
Hewi
100
AcDbLine
 10
259.9834417421583
 20
487.0351148565762
 30
0.0
 11
289.9834417421583
 21
487.0351148565762
 31
0.0
  0
LINE
  5
BFA
330
1F
100
AcDbEntity
  8
Hewi
100
AcDbLine
 10
292.1334417421583
 20
490.0351148565762
 30
0.0
 11
292.0213146200806
 21
490.0351148565762
 31
0.0
  0
LINE
  5
BFB
330
1F
100
AcDbEntity
  8
Hewi
100
AcDbLine
 10
292.0213146200806
 20
490.0351148565762
 30
0.0
 11
292.0090686507149
 21
490.0351148565762
 31
0.0
  0
LINE
  5
BFC
330
1F
100
AcDbEntity
  8
Hewi
100
AcDbLine
 10
276.9834417421583
 20
387.2351168765721
 30
0.0
 11
276.9834417421583
 21
387.213296025416
 31
0.0
  0
LINE
  5
BFD
330
1F
100
AcDbEntity
  8
Hewi
100
AcDbLine
 10
272.9834417421583
 20
387.2351168765721
 30
0.0
 11
272.9834417421583
 21
387.213296025416
 31
0.0
  0
LINE
  5
BFE
330
1F
100
AcDbEntity
  8
Hewi
100
AcDbLine
 10
257.0635428026354
 20
494.634490217126
 30
0.0
 11
256.9965310469863
 21
490.7953893071775
 31
0.0
  0
LINE
  5
BFF
330
1F
100
AcDbEntity
  8
Hewi
100
AcDbLine
 10
291.9705047421739
 20
490.7953893071775
 30
0.0
 11
257.9963787421427
 21
490.7953893071775
 31
0.0
  0
LINE
  5
C00
330
1F
100
AcDbEntity
  8
Hewi
100
AcDbLine
 10
292.9703524373303
 20
490.7953893071775
 30
0.0
 11
292.9033406816813
 21
494.634490217126
 31
0.0
  0
LINE
  5
C01
330
1F
100
AcDbEntity
  8
Hewi
100
AcDbLine
 10
257.0724893356576
 20
495.1470367506918
 30
0.0
 11
257.0635428026354
 21
494.634490217126
 31
0.0
  0
LINE
  5
C02
330
1F
100
AcDbEntity
  8
Hewi
100
AcDbLine
 10
292.9033406816813
 20
494.634490217126
 30
0.0
 11
292.8943941486591
 21
495.1470367506918
 31
0.0
  0
LINE
  5
C03
330
1F
100
AcDbEntity
  8
Hewi
100
AcDbLine
 10
292.8943941486591
 20
495.1470367506918
 30
0.0
 11
292.7736837699729
 21
502.062529714056
 31
0.0
  0
LINE
  5
C04
330
1F
100
AcDbEntity
  8
Hewi
100
AcDbLine
 10
257.1931997143437
 20
502.062529714056
 30
0.0
 11
257.0724893356576
 21
495.1470367506918
 31
0.0
  0
LINE
  5
C05
330
1F
100
AcDbEntity
  8
Hewi
100
AcDbLine
 10
257.7246807674324
 20
490.0542645105361
 30
0.0
 11
257.7438347736728
 21
490.0351105042958
 31
0.0
  0
LINE
  5
C06
330
1F
100
AcDbEntity
  8
Hewi
100
AcDbLine
 10
292.2230487106439
 20
490.0351105042958
 30
0.0
 11
292.2422027168843
 21
490.0542645105361
 31
0.0
  0
LINE
  5
C07
330
1F
100
AcDbEntity
  8
Hewi
100
AcDbLine
 10
257.2200393134101
 20
503.6001693147538
 30
0.0
 11
257.1931997143437
 21
502.062529714056
 31
0.0
  0
LINE
  5
C08
330
1F
100
AcDbEntity
  8
Hewi
100
AcDbLine
 10
292.7736837699729
 20
502.062529714056
 30
0.0
 11
292.7468441709066
 21
503.6001693147538
 31
0.0
  0
LINE
  5
C09
330
1F
100
AcDbEntity
  8
Hewi
100
AcDbLine
 10
291.6512160417734
 20
509.087917752603
 30
0.0
 11
258.3156674425433
 21
509.087917752603
 31
0.0
  0
LINE
  5
C0A
330
1F
100
AcDbEntity
  8
Hewi
100
AcDbLine
 10
292.6954417421591
 20
506.5455035357647
 30
0.0
 11
292.6685209613147
 21
508.0877940374135
 31
0.0
  0
LINE
  5
C0B
330
1F
100
AcDbEntity
  8
Hewi
100
AcDbLine
 10
292.7468441709066
 20
503.6001693147538
 30
0.0
 11
292.6954331734535
 21
506.545503386243
 31
0.0
  0
LINE
  5
C0C
330
1F
100
AcDbEntity
  8
Hewi
100
AcDbLine
 10
257.2983625230019
 20
508.0877940374135
 30
0.0
 11
257.2714417421575
 21
506.5455035357647
 31
0.0
  0
LINE
  5
C0D
330
1F
100
AcDbEntity
  8
Hewi
100
AcDbLine
 10
257.2714503108632
 20
506.5455033862429
 30
0.0
 11
257.2200393134101
 21
503.6001693147538
 31
0.0
  0
LINE
  5
C0E
330
1F
100
AcDbEntity
  8
Hewi
100
AcDbLine
 10
151.8334417421583
 20
384.5438798027528
 30
0.0
 11
151.8334417421583
 21
401.5351148565763
 31
0.0
  0
LINE
  5
C0F
330
1F
100
AcDbEntity
  8
Hewi
100
AcDbLine
 10
151.8334417421583
 20
401.5351148565763
 30
0.0
 11
151.8334417421583
 21
405.5351148565763
 31
0.0
  0
LINE
  5
C10
330
1F
100
AcDbEntity
  8
Hewi
100
AcDbLine
 10
151.8334417421583
 20
405.5351148565763
 30
0.0
 11
151.8334417421583
 21
422.5263499103998
 31
0.0
  0
LINE
  5
C11
330
1F
100
AcDbEntity
  8
Hewi
100
AcDbLine
 10
164.8334417421583
 20
384.6336865810717
 30
0.0
 11
164.8334417421583
 21
384.8697834394928
 31
0.0
  0
LINE
  5
C12
330
1F
100
AcDbEntity
  8
Hewi
100
AcDbLine
 10
256.8334417421584
 20
385.456294703242
 30
0.0
 11
256.8334417421584
 21
418.0351148565763
 31
0.0
  0
ARC
  5
C13
330
1F
100
AcDbEntity
  8
Hewi
100
AcDbCircle
 10
292.1334417421583
 20
385.0351148565763
 30
0.0
 40
1.0
100
AcDbArc
 50
270.0
 51
0.000000000000007
  0
ARC
  5
C14
330
1F
100
AcDbEntity
  8
Hewi
100
AcDbCircle
 10
257.8334417421583
 20
385.0351148565763
 30
0.0
 40
1.0
100
AcDbArc
 50
180.0
 51
270.0
  0
ARC
  5
C15
330
1F
100
AcDbEntity
  8
Hewi
100
AcDbCircle
 10
147.4223477928975
 20
421.4965436660969
 30
0.0
 40
2.0
100
AcDbArc
 50
90.50000000001761
 51
167.3625244008001
  0
ARC
  5
C16
330
1F
100
AcDbEntity
  8
Hewi
100
AcDbCircle
 10
147.4223477928975
 20
385.5736860470555
 30
0.0
 40
2.0
100
AcDbArc
 50
192.6374755991963
 51
269.4999999999954
  0
ARC
  5
C17
330
1F
100
AcDbEntity
  8
Hewi
100
AcDbCircle
 10
150.8334417421583
 20
384.5438798027528
 30
0.0
 40
1.0
100
AcDbArc
 50
269.4999999999954
 51
0.000000000000007
  0
ARC
  5
C18
330
1F
100
AcDbEntity
  8
Hewi
100
AcDbCircle
 10
150.8334417421583
 20
422.5263499103998
 30
0.0
 40
1.0
100
AcDbArc
 50
0.000000000000007
 51
90.50000000001761
  0
ARC
  5
C19
330
1F
100
AcDbEntity
  8
Hewi
100
AcDbCircle
 10
227.5310028704914
 20
403.5351148565762
 30
0.0
 40
84.09756112833305
100
AcDbArc
 50
167.3625244008001
 51
178.6372688815255
  0
ARC
  5
C1A
330
1F
100
AcDbEntity
  8
Hewi
100
AcDbCircle
 10
227.5310028704914
 20
403.5351148565762
 30
0.0
 40
84.09756112833305
100
AcDbArc
 50
181.3627311184745
 51
192.6374755991999
  0
ARC
  5
C1B
330
1F
100
AcDbEntity
  8
Hewi
100
AcDbCircle
 10
-241.8334417421584
 20
385.2943526637253
 30
0.0
 40
1.0
210
0.0
220
0.0
230
-1.0
100
AcDbArc
 50
184.7873231002082
 51
226.415571705438
  0
ARC
  5
C1C
330
1F
100
AcDbEntity
  8
Hewi
100
AcDbCircle
 10
-165.8334417421583
 20
385.2943526637253
 30
0.0
 40
1.0
210
0.0
220
0.0
230
-1.0
100
AcDbArc
 50
313.584428294562
 51
334.6599932390924
  0
ELLIPSE
  5
C1D
330
1F
100
AcDbEntity
  8
Hewi
100
AcDbEllipse
 10
289.6779781059147
 20
401.535114856575
 30
0.0
 11
-0.0000000000000205
 21
17.49999999999483
 31
0.0
210
0.0
220
0.0
230
-1.0
 40
0.0174550649282141
 41
1.570796326794896
 42
2.544470637110354
  0
ELLIPSE
  5
C1E
330
1F
100
AcDbEntity
  8
Hewi
100
AcDbEllipse
 10
260.2889053784029
 20
401.5351148565781
 30
0.0
 11
-0.0000000000000205
 21
17.50000000002151
 31
0.0
210
0.0
220
0.0
230
-1.0
 40
0.0174550649282437
 41
3.738714670071027
 42
4.712388980384689
  0
SPLINE
  5
C1F
330
1F
100
AcDbEntity
  8
Hewi
100
AcDbSpline
210
0.0
220
0.0
230
1.0
 70
     8
 71
     2
 72
     6
 73
     3
 74
     0
 42
0.0000000001
 43
0.0000000001
 40
0.0
 40
0.0
 40
0.0
 40
1.0
 40
1.0
 40
1.0
 10
143.4572438658299
 20
401.5351148565763
 30
0.0
 10
143.4096743195762
 20
403.5351151686541
 30
0.0
 10
143.4572701026761
 20
405.5351148565763
 30
0.0
  0
SPLINE
  5
C20
330
1F
100
AcDbEntity
  8
Hewi
100
AcDbSpline
210
0.0
220
0.0
230
1.0
 70
     8
 71
     3
 72
     8
 73
     4
 74
     0
 42
0.0000000001
 43
0.0000000001
 40
0.0
 40
0.0
 40
0.0
 40
0.0
 40
1.0
 40
1.0
 40
1.0
 40
1.0
 10
257.9963787421427
 20
490.7953893071775
 30
0.0
 10
257.4729612022629
 20
490.8045228115311
 30
0.0
 10
256.9966904728978
 20
490.8045228115311
 30
0.0
 10
256.9965310469863
 20
490.7953893071775
 30
0.0
  0
SPLINE
  5
C21
330
1F
100
AcDbEntity
  8
Hewi
100
AcDbSpline
210
0.0
220
0.0
230
1.0
 70
    24
 71
     1
 72
     4
 73
     2
 74
     0
 42
0.0000000001
 43
0.0000000001
 40
0.0
 40
0.0
 40
1.0
 40
1.0
 10
257.7206873187833
 20
490.0455035358103
 30
0.0
 10
256.9965310469863
 20
490.7953893071775
 30
0.0
  0
SPLINE
  5
C22
330
1F
100
AcDbEntity
  8
Hewi
100
AcDbSpline
210
0.0
220
0.0
230
1.0
 70
     8
 71
     3
 72
     8
 73
     4
 74
     0
 42
0.0000000001
 43
0.0000000001
 40
0.0
 40
0.0
 40
0.0
 40
0.0
 40
1.0
 40
1.0
 40
1.0
 40
1.0
 10
257.7336767361277
 20
490.0457410082808
 30
0.0
 10
257.7237612926223
 20
490.0464680305894
 30
0.0
 10
257.7182895290586
 20
490.0471925534608
 30
0.0
 10
257.7183613516688
 20
490.0479121452661
 30
0.0
  0
SPLINE
  5
C23
330
1F
100
AcDbEntity
  8
Hewi
100
AcDbSpline
210
0.0
220
0.0
230
1.0
 70
     8
 71
     3
 72
     8
 73
     4
 74
     0
 42
0.0000000001
 43
0.0000000001
 40
0.0
 40
0.0
 40
0.0
 40
0.0
 40
1.0
 40
1.0
 40
1.0
 40
1.0
 10
292.9703524373303
 20
490.7953893071775
 30
0.0
 10
292.9701930114188
 20
490.8045228115311
 30
0.0
 10
292.4939222820537
 20
490.8045228115311
 30
0.0
 10
291.9705047421739
 20
490.7953893071775
 30
0.0
  0
SPLINE
  5
C24
330
1F
100
AcDbEntity
  8
Hewi
100
AcDbSpline
210
0.0
220
0.0
230
1.0
 70
     8
 71
     3
 72
     9
 73
     5
 74
     0
 42
0.0000000001
 43
0.0000000001
 40
0.0
 40
0.0
 40
0.0
 40
0.0
 40
0.4999702165713935
 40
1.0
 40
1.0
 40
1.0
 40
1.0
 10
292.0549752129405
 20
490.0524790917933
 30
0.0
 10
292.0946560136614
 20
490.051813753802
 30
0.0
 10
292.1740223427061
 20
490.0504829985505
 30
0.0
 10
292.2095946326455
 20
490.051806207268
 30
0.0
 10
292.2273818370799
 20
490.0524678510363
 30
0.0
  0
SPLINE
  5
C25
330
1F
100
AcDbEntity
  8
Hewi
100
AcDbSpline
210
0.0
220
0.0
230
1.0
 70
     8
 71
     3
 72
     8
 73
     4
 74
     0
 42
0.0000000001
 43
0.0000000001
 40
0.0
 40
0.0
 40
0.0
 40
0.0
 40
1.0
 40
1.0
 40
1.0
 40
1.0
 10
292.2484984362167
 20
490.0478876068934
 30
0.0
 10
292.2485076072958
 20
490.0470973744055
 30
0.0
 10
292.2428923378681
 20
490.0463017814277
 30
0.0
 10
292.2327866578304
 20
490.0455035358103
 30
0.0
  0
SPLINE
  5
C26
330
1F
100
AcDbEntity
  8
Hewi
100
AcDbSpline
210
0.0
220
0.0
230
1.0
 70
    24
 71
     1
 72
     4
 73
     2
 74
     0
 42
0.0000000001
 43
0.0000000001
 40
0.0
 40
0.0
 40
1.0
 40
1.0
 10
292.9703524373303
 20
490.7953893071775
 30
0.0
 10
292.2461961655334
 20
490.0455035358103
 30
0.0
  0
SPLINE
  5
C27
330
1F
100
AcDbEntity
  8
Hewi
100
AcDbSpline
210
0.0
220
0.0
230
1.0
 70
     8
 71
     3
 72
    16
 73
    12
 74
     0
 42
0.0000000001
 43
0.0000000001
 40
0.0
 40
0.0
 40
0.0
 40
0.0
 40
0.1402983833808775
 40
0.1402983833808775
 40
0.2791538761206359
 40
0.2791538761206359
 40
0.4858631724659666
 40
0.4858631724659666
 40
0.7726325045375195
 40
0.7726325045375195
 40
1.0
 40
1.0
 40
1.0
 40
1.0
 10
258.3156674425433
 20
509.087917752603
 30
0.0
 10
258.2271044287869
 20
509.087917752603
 30
0.0
 10
258.1372674931188
 20
509.0744860045943
 30
0.0
 10
257.9728065376655
 20
509.0268608472096
 30
0.0
 10
257.8956982012405
 20
508.99252977374
 30
0.0
 10
257.7248465765117
 20
508.8924326988582
 30
0.0
 10
257.6377727519908
 20
508.8181063854433
 30
0.0
 10
257.4688725329656
 20
508.6294086395775
 30
0.0
 10
257.3981476087483
 20
508.5071093636613
 30
0.0
 10
257.3189463965901
 20
508.2863536430067
 30
0.0
 10
257.3000786658576
 20
508.1861117957719
 30
0.0
 10
257.2983625230019
 20
508.0877940374135
 30
0.0
  0
SPLINE
  5
C28
330
1F
100
AcDbEntity
  8
Hewi
100
AcDbSpline
210
0.0
220
0.0
230
1.0
 70
     8
 71
     3
 72
    16
 73
    12
 74
     0
 42
0.0000000001
 43
0.0000000001
 40
0.0
 40
0.0
 40
0.0
 40
0.0
 40
0.2665302458151765
 40
0.2665302458151765
 40
0.5944000435293523
 40
0.5944000435293523
 40
0.7666890640119627
 40
0.7666890640119627
 40
0.9066025001916086
 40
0.9066025001916086
 40
1.0
 40
1.0
 40
1.0
 40
1.0
 10
292.6685209613147
 20
508.0877940374135
 30
0.0
 10
292.666513903456
 20
508.2027783051239
 30
0.0
 10
292.6410342074781
 20
508.3205842473594
 30
0.0
 10
292.535143861595
 20
508.5731335274732
 30
0.0
 10
292.4417005575524
 20
508.7111084380002
 30
0.0
 10
292.242840300852
 20
508.8884679769223
 30
0.0
 10
292.161831771604
 20
508.9449096899417
 30
0.0
 10
291.9967911904598
 20
509.0253950981101
 30
0.0
 10
291.9143543566093
 20
509.054118572327
 30
0.0
 10
291.7708809407063
 20
509.0819820537432
 30
0.0
 10
291.7108245601945
 20
509.087917752603
 30
0.0
 10
291.6512160417734
 20
509.087917752603
 30
0.0
  0
SPLINE
  5
C29
330
1F
100
AcDbEntity
  8
Hewi
100
AcDbSpline
210
0.0
220
0.0
230
1.0
 70
     8
 71
     3
 72
    18
 73
    14
 74
     0
 42
0.0000000001
 43
0.0000000001
 40
0.0
 40
0.0
 40
0.0
 40
0.0
 40
0.1250000000000001
 40
0.1250000000000001
 40
0.2500000000000001
 40
0.2500000000000001
 40
0.5
 40
0.5
 40
0.75
 40
0.75
 40
0.875
 40
0.875
 40
1.0
 40
1.0
 40
1.0
 40
1.0
 10
240.6624748628273
 20
382.9669400897535
 30
0.0
 10
238.0687289375065
 20
380.9341151084819
 30
0.0
 10
235.2380613623714
 20
379.4025967843357
 30
0.0
 10
229.330488093964
 20
376.860579671221
 30
0.0
 10
226.2227379007875
 20
375.8621929043956
 30
0.0
 10
216.7716117424353
 20
373.5359227970568
 30
0.0
 10
210.3741056562061
 20
372.8511343987574
 30
0.0
 10
197.4272026007381
 20
372.8411352889893
 30
0.0
 10
190.9573063568606
 20
373.5305105578551
 30
0.0
 10
181.56105841208
 20
375.8286035175256
 30
0.0
 10
178.4443356298535
 20
376.8194360579402
 30
0.0
 10
172.4548918353871
 20
379.3861936146528
 30
0.0
 10
169.5769891619407
 20
380.950703288026
 30
0.0
 10
167.0044086214893
 20
382.9669400897535
 30
0.0
  0
SPLINE
  5
C2A
330
1F
100
AcDbEntity
  8
Hewi
100
AcDbSpline
210
0.0
220
0.0
230
1.0
 70
     8
 71
     3
 72
     8
 73
     4
 74
     0
 42
0.0000000001
 43
0.0000000001
 40
0.0
 40
0.0
 40
0.0
 40
0.0
 40
1.0
 40
1.0
 40
1.0
 40
1.0
 10
165.1440190375287
 20
384.5699934059386
 30
0.0
 10
165.7166076366879
 20
384.0250213131146
 30
0.0
 10
166.3440991817101
 20
383.4844516591979
 30
0.0
 10
167.0044086214893
 20
382.9669400897535
 30
0.0
  0
SPLINE
  5
C2B
330
1F
100
AcDbEntity
  8
Hewi
100
AcDbSpline
210
0.0
220
0.0
230
1.0
 70
     8
 71
     3
 72
     8
 73
     4
 74
     0
 42
0.0000000001
 43
0.0000000001
 40
0.0
 40
0.0
 40
0.0
 40
0.0
 40
1.0
 40
1.0
 40
1.0
 40
1.0
 10
240.6624748628273
 20
382.9669400897535
 30
0.0
 10
241.3224435131981
 20
383.4841845685719
 30
0.0
 10
241.950748775309
 20
384.025471431032
 30
0.0
 10
242.5228644467878
 20
384.5699934059386
 30
0.0
  0
SPLINE
  5
C2C
330
1F
100
AcDbEntity
  8
Hewi
100
AcDbSpline
210
0.0
220
0.0
230
1.0
 70
     8
 71
     3
 72
    10
 73
     6
 74
     0
 42
0.0000000001
 43
0.0000000001
 40
0.0
 40
0.0
 40
0.0
 40
0.0
 40
0.4260212506961626
 40
0.4260212506961626
 40
1.0
 40
1.0
 40
1.0
 40
1.0
 10
164.8334417421583
 20
384.8697834394928
 30
0.0
 10
176.0520013840037
 20
384.9191363034979
 30
0.0
 10
187.2705610090923
 20
384.9684929720445
 30
0.0
 10
213.6038943569936
 20
385.0843570885932
 30
0.0
 10
228.7186680657789
 20
385.1508677214008
 30
0.0
 10
242.7089372614821
 20
385.2173857084292
 30
0.0
  0
VIEWPORT
  5
84
102
{ACAD_XDICTIONARY
360
C39
102
}
330
80
100
AcDbEntity
 67
     1
  8
0
100
AcDbViewport
 10
7.32214401076716
 20
4.5
 30
0.0
 40
15.34286275121571
 41
9.523598182250019
 68
     1
 69
     1
 12
7.32214401076716
 22
4.5
 13
0.0
 23
0.0
 14
0.5
 24
0.5
 15
0.5
 25
0.5
 16
0.0
 26
0.0
 36
1.0
 17
0.0
 27
0.0
 37
0.0
 42
50.0
 43
0.0
 44
0.0
 45
9.523598182250019
 50
0.0
 51
0.0
 72
   100
 90
   557152
  1

281
     0
 71
     1
 74
     0
110
0.0
120
0.0
130
0.0
111
1.0
121
0.0
131
0.0
112
0.0
122
1.0
132
0.0
 79
     0
146
0.0
  0
ENDSEC
  0
SECTION
  2
OBJECTS
  0
DICTIONARY
  5
C
330
0
100
AcDbDictionary
281
     1
  3
ACAD_COLOR
350
B3
  3
ACAD_GROUP
350
D
  3
ACAD_LAYOUT
350
1A
  3
ACAD_MATERIAL
350
AF
  3
ACAD_MLEADERSTYLE
350
A8
  3
ACAD_MLINESTYLE
350
17
  3
ACAD_PLOTSETTINGS
350
19
  3
ACAD_PLOTSTYLENAME
350
E
  3
ACAD_SCALELIST
350
85
  3
ACAD_TABLESTYLE
350
A7
  3
ACAD_VISUALSTYLE
350
2A
  3
AcDbVariableDictionary
350
A9
  3
DWGPROPS
350
C35
  0
DICTIONARY
  5
BA
330
2
100
AcDbDictionary
280
     1
281
     1
  3
ACAD_LAYERFILTERS
360
C3
  3
ACAD_LAYERSTATES
360
BB
  3
ACLYDICTIONARY
360
C2
  0
DICTIONARY
  5
13D
330
1F
100
AcDbDictionary
280
     1
281
     1
  3
ACAD_SORTENTS
360
13E
  0
DICTIONARY
  5
C39
330
84
100
AcDbDictionary
280
     1
281
     1
  3
ACAD_XREC_ROUNDTRIP
360
C3A
  0
DICTIONARY
  5
B3
102
{ACAD_REACTORS
330
C
102
}
330
C
100
AcDbDictionary
281
     1
  0
DICTIONARY
  5
D
102
{ACAD_REACTORS
330
C
102
}
330
C
100
AcDbDictionary
281
     1
  0
DICTIONARY
  5
1A
102
{ACAD_REACTORS
330
C
102
}
330
C
100
AcDbDictionary
281
     1
  3
LAYOUT1
350
81
  3
Model
350
22
  0
DICTIONARY
  5
AF
102
{ACAD_REACTORS
330
C
102
}
330
C
100
AcDbDictionary
281
     1
  3
ByBlock
350
B1
  3
ByLayer
350
B0
  3
Global
350
B2
  0
DICTIONARY
  5
A8
102
{ACAD_REACTORS
330
C
102
}
330
C
100
AcDbDictionary
281
     1
  0
DICTIONARY
  5
17
102
{ACAD_REACTORS
330
C
102
}
330
C
100
AcDbDictionary
281
     1
  3
Standard
350
18
  0
DICTIONARY
  5
19
102
{ACAD_REACTORS
330
C
102
}
330
C
100
AcDbDictionary
281
     1
  0
ACDBDICTIONARYWDFLT
  5
E
102
{ACAD_REACTORS
330
C
102
}
330
C
100
AcDbDictionary
281
     1
  3
Normal
350
F
100
AcDbDictionaryWithDefault
340
F
  0
DICTIONARY
  5
85
102
{ACAD_REACTORS
330
C
102
}
330
C
100
AcDbDictionary
281
     1
  3
A0
350
86
  3
A1
350
87
  3
A2
350
88
  3
A3
350
89
  3
A4
350
8A
  3
A5
350
8B
  3
A6
350
8C
  3
A7
350
8D
  3
A8
350
8E
  3
A9
350
8F
  3
B0
350
90
  3
B1
350
91
  3
B2
350
92
  3
B3
350
93
  3
B4
350
94
  3
B5
350
95
  3
B6
350
96
  3
B7
350
97
  3
B8
350
98
  3
B9
350
99
  3
C0
350
9A
  3
C1
350
9B
  3
C2
350
9C
  3
C3
350
9D
  3
C4
350
9E
  3
C5
350
9F
  3
C6
350
A0
  3
C7
350
A1
  3
C8
350
A2
  3
C9
350
A3
  3
D0
350
A4
  3
D1
350
A5
  3
D2
350
A6
  0
DICTIONARY
  5
A7
102
{ACAD_REACTORS
330
C
102
}
330
C
100
AcDbDictionary
281
     1
  3
Standard
350
B4
  0
DICTIONARY
  5
2A
102
{ACAD_REACTORS
330
C
102
}
330
C
100
AcDbDictionary
281
     1
  3
2dWireframe
350
2F
  3
3D Hidden
350
31
  3
3dWireframe
350
30
  3
Basic
350
32
  3
Brighten
350
36
  3
ColorChange
350
3A
  3
Conceptual
350
34
  3
Dim
350
35
  3
Facepattern
350
39
  3
Flat
350
2B
  3
FlatWithEdges
350
2C
  3
Gouraud
350
2D
  3
GouraudWithEdges
350
2E
  3
Linepattern
350
38
  3
Realistic
350
33
  3
Thicken
350
37
  0
DICTIONARY
  5
A9
102
{ACAD_REACTORS
330
C
102
}
330
C
100
AcDbDictionary
281
     1
  3
CANNOSCALE
350
AA
  3
CTABLESTYLE
350
DF
  3
DIMASSOC
350
E3
  3
HIDETEXT
350
E2
  3
INDEXCTL
350
E1
  3
SORTENTS
350
E0
  0
XRECORD
  5
C35
102
{ACAD_REACTORS
330
C
102
}
330
C
100
AcDbXrecord
280
     1
  1
DWGPROPS COOKIE
  2

  3

  4

  6

  7

  8
kaschu
  9

300
=
301
=
302
=
303
=
304
=
305
=
306
=
307
=
308
=
309
=
 40
0.0150243402777778
 41
2454858.730020579
 42
2455701.72623875
  1

 90
        0
  0
DICTIONARY
  5
C3
102
{ACAD_REACTORS
330
BA
102
}
330
BA
100
AcDbDictionary
281
     1
  0
DICTIONARY
  5
BB
102
{ACAD_REACTORS
330
BA
102
}
330
BA
100
AcDbDictionary
281
     1
  0
DICTIONARY
  5
C2
102
{ACAD_REACTORS
330
BA
102
}
330
BA
100
AcDbDictionary
281
     1
1001
ACAD
1000
<All
  0
SORTENTSTABLE
  5
13E
102
{ACAD_REACTORS
330
13D
102
}
330
13D
100
AcDbSortentsTable
330
1F
  0
XRECORD
  5
C3A
102
{ACAD_REACTORS
330
C39
102
}
330
C39
100
AcDbXrecord
280
     1
102
SHADEPLOT
 70
     0
  0
LAYOUT
  5
81
102
{ACAD_XDICTIONARY
360
BD
102
}
102
{ACAD_REACTORS
330
1A
102
}
330
1A
100
AcDbPlotSettings
  1

  2
none_device
  4
Letter_(8.50_x_11.00_Inches)
  6

 40
6.349999999999997
 41
6.349999999999997
 42
6.350005079999997
 43
6.350005079999997
 44
215.9
 45
279.4
 46
0.0
 47
0.0
 48
0.0
 49
0.0
140
0.0
141
0.0
142
1.0
143
1.0
 70
   688
 72
     0
 73
     1
 74
     5
  7

 75
    16
147
1.0
148
0.0
149
0.0
100
AcDbLayout
  1
LAYOUT1
 70
     1
 71
     1
 10
0.0
 20
0.0
 11
12.0
 21
9.0
 12
0.0
 22
0.0
 32
0.0
 14
1.000000000000000E+20
 24
1.000000000000000E+20
 34
1.000000000000000E+20
 15
-1.000000000000000E+20
 25
-1.000000000000000E+20
 35
-1.000000000000000E+20
146
0.0
 13
0.0
 23
0.0
 33
0.0
 16
1.0
 26
0.0
 36
0.0
 17
0.0
 27
1.0
 37
0.0
 76
     0
330
80
331
84
  0
LAYOUT
  5
22
102
{ACAD_XDICTIONARY
360
C36
102
}
102
{ACAD_REACTORS
330
1A
102
}
330
1A
100
AcDbPlotSettings
  1

  2
none_device
  4

  6

 40
0.0
 41
0.0
 42
0.0
 43
0.0
 44
0.0
 45
0.0
 46
0.0
 47
0.0
 48
0.0
 49
0.0
140
0.0
141
0.0
142
1.0
143
1.0
 70
  1712
 72
     0
 73
     0
 74
     0
  7

 75
     0
147
1.0
148
0.0
149
0.0
100
AcDbLayout
  1
Model
 70
     1
 71
     0
 10
0.0
 20
0.0
 11
12.0
 21
9.0
 12
0.0
 22
0.0
 32
0.0
 14
120.5271707105658
 24
-121.8800959157056
 34
0.0
 15
391.4743382523756
 25
519.3203357045423
 35
0.0
146
0.0
 13
0.0
 23
0.0
 33
0.0
 16
1.0
 26
0.0
 36
0.0
 17
0.0
 27
1.0
 37
0.0
 76
     0
330
1F
331
29
  0
MATERIAL
  5
B1
102
{ACAD_XDICTIONARY
360
EC
102
}
102
{ACAD_REACTORS
330
AF
102
}
330
AF
100
AcDbMaterial
  1
ByBlock
  0
MATERIAL
  5
B0
102
{ACAD_XDICTIONARY
360
EA
102
}
102
{ACAD_REACTORS
330
AF
102
}
330
AF
100
AcDbMaterial
  1
ByLayer
  0
MATERIAL
  5
B2
102
{ACAD_XDICTIONARY
360
EE
102
}
102
{ACAD_REACTORS
330
AF
102
}
330
AF
100
AcDbMaterial
  1
Global
  0
MLINESTYLE
  5
18
102
{ACAD_REACTORS
330
17
102
}
330
17
100
AcDbMlineStyle
  2
STANDARD
 70
     0
  3

 62
   256
 51
90.0
 52
90.0
 71
     2
 49
0.5
 62
   256
  6
BYLAYER
 49
-0.5
 62
   256
  6
BYLAYER
  0
ACDBPLACEHOLDER
  5
F
102
{ACAD_REACTORS
330
E
102
}
330
E
  0
ACAD_PROXY_OBJECT
  5
86
102
{ACAD_REACTORS
330
85
102
}
330
85
100
AcDbProxyObject
 90
      499
 91
      502
 95
       25
 70
     1
100
AcDbScale
 70
     0
300
1:1
140
1.0
141
1.0
290
     1
1001
ACAD
1001
ACAD
1001
ACAD
1001
ACAD
1001
ACAD
1001
ACAD
1000
AcRTDxfName
1000
SCALE
  0
ACAD_PROXY_OBJECT
  5
87
102
{ACAD_REACTORS
330
85
102
}
330
85
100
AcDbProxyObject
 90
      499
 91
      502
 95
       25
 70
     1
100
AcDbScale
 70
     0
300
1:2
140
1.0
141
2.0
290
     0
1001
ACAD
1001
ACAD
1001
ACAD
1001
ACAD
1001
ACAD
1001
ACAD
1000
AcRTDxfName
1000
SCALE
  0
ACAD_PROXY_OBJECT
  5
88
102
{ACAD_REACTORS
330
85
102
}
330
85
100
AcDbProxyObject
 90
      499
 91
      502
 95
       25
 70
     1
100
AcDbScale
 70
     0
300
1:4
140
1.0
141
4.0
290
     0
1001
ACAD
1001
ACAD
1001
ACAD
1001
ACAD
1001
ACAD
1001
ACAD
1000
AcRTDxfName
1000
SCALE
  0
ACAD_PROXY_OBJECT
  5
89
102
{ACAD_REACTORS
330
85
102
}
330
85
100
AcDbProxyObject
 90
      499
 91
      502
 95
       25
 70
     1
100
AcDbScale
 70
     0
300
1:5
140
1.0
141
5.0
290
     0
1001
ACAD
1001
ACAD
1001
ACAD
1001
ACAD
1001
ACAD
1001
ACAD
1000
AcRTDxfName
1000
SCALE
  0
ACAD_PROXY_OBJECT
  5
8A
102
{ACAD_REACTORS
330
85
102
}
330
85
100
AcDbProxyObject
 90
      499
 91
      502
 95
       25
 70
     1
100
AcDbScale
 70
     0
300
1:8
140
1.0
141
8.0
290
     0
1001
ACAD
1001
ACAD
1001
ACAD
1001
ACAD
1001
ACAD
1001
ACAD
1000
AcRTDxfName
1000
SCALE
  0
ACAD_PROXY_OBJECT
  5
8B
102
{ACAD_REACTORS
330
85
102
}
330
85
100
AcDbProxyObject
 90
      499
 91
      502
 95
       25
 70
     1
100
AcDbScale
 70
     0
300
1:10
140
1.0
141
10.0
290
     0
1001
ACAD
1001
ACAD
1001
ACAD
1001
ACAD
1001
ACAD
1001
ACAD
1000
AcRTDxfName
1000
SCALE
  0
ACAD_PROXY_OBJECT
  5
8C
102
{ACAD_REACTORS
330
85
102
}
330
85
100
AcDbProxyObject
 90
      499
 91
      502
 95
       25
 70
     1
100
AcDbScale
 70
     0
300
1:16
140
1.0
141
16.0
290
     0
1001
ACAD
1001
ACAD
1001
ACAD
1001
ACAD
1001
ACAD
1001
ACAD
1000
AcRTDxfName
1000
SCALE
  0
ACAD_PROXY_OBJECT
  5
8D
102
{ACAD_REACTORS
330
85
102
}
330
85
100
AcDbProxyObject
 90
      499
 91
      502
 95
       25
 70
     1
100
AcDbScale
 70
     0
300
1:20
140
1.0
141
20.0
290
     0
1001
ACAD
1001
ACAD
1001
ACAD
1001
ACAD
1001
ACAD
1001
ACAD
1000
AcRTDxfName
1000
SCALE
  0
ACAD_PROXY_OBJECT
  5
8E
102
{ACAD_REACTORS
330
85
102
}
330
85
100
AcDbProxyObject
 90
      499
 91
      502
 95
       25
 70
     1
100
AcDbScale
 70
     0
300
1:30
140
1.0
141
30.0
290
     0
1001
ACAD
1001
ACAD
1001
ACAD
1001
ACAD
1001
ACAD
1001
ACAD
1000
AcRTDxfName
1000
SCALE
  0
ACAD_PROXY_OBJECT
  5
8F
102
{ACAD_REACTORS
330
85
102
}
330
85
100
AcDbProxyObject
 90
      499
 91
      502
 95
       25
 70
     1
100
AcDbScale
 70
     0
300
1:40
140
1.0
141
40.0
290
     0
1001
ACAD
1001
ACAD
1001
ACAD
1001
ACAD
1001
ACAD
1001
ACAD
1000
AcRTDxfName
1000
SCALE
  0
ACAD_PROXY_OBJECT
  5
90
102
{ACAD_REACTORS
330
85
102
}
330
85
100
AcDbProxyObject
 90
      499
 91
      502
 95
       25
 70
     1
100
AcDbScale
 70
     0
300
1:50
140
1.0
141
50.0
290
     0
1001
ACAD
1001
ACAD
1001
ACAD
1001
ACAD
1001
ACAD
1001
ACAD
1000
AcRTDxfName
1000
SCALE
  0
ACAD_PROXY_OBJECT
  5
91
102
{ACAD_REACTORS
330
85
102
}
330
85
100
AcDbProxyObject
 90
      499
 91
      502
 95
       25
 70
     1
100
AcDbScale
 70
     0
300
1:100
140
1.0
141
100.0
290
     0
1001
ACAD
1001
ACAD
1001
ACAD
1001
ACAD
1001
ACAD
1001
ACAD
1000
AcRTDxfName
1000
SCALE
  0
ACAD_PROXY_OBJECT
  5
92
102
{ACAD_REACTORS
330
85
102
}
330
85
100
AcDbProxyObject
 90
      499
 91
      502
 95
       25
 70
     1
100
AcDbScale
 70
     0
300
2:1
140
2.0
141
1.0
290
     0
1001
ACAD
1001
ACAD
1001
ACAD
1001
ACAD
1001
ACAD
1001
ACAD
1000
AcRTDxfName
1000
SCALE
  0
ACAD_PROXY_OBJECT
  5
93
102
{ACAD_REACTORS
330
85
102
}
330
85
100
AcDbProxyObject
 90
      499
 91
      502
 95
       25
 70
     1
100
AcDbScale
 70
     0
300
4:1
140
4.0
141
1.0
290
     0
1001
ACAD
1001
ACAD
1001
ACAD
1001
ACAD
1001
ACAD
1001
ACAD
1000
AcRTDxfName
1000
SCALE
  0
ACAD_PROXY_OBJECT
  5
94
102
{ACAD_REACTORS
330
85
102
}
330
85
100
AcDbProxyObject
 90
      499
 91
      502
 95
       25
 70
     1
100
AcDbScale
 70
     0
300
8:1
140
8.0
141
1.0
290
     0
1001
ACAD
1001
ACAD
1001
ACAD
1001
ACAD
1001
ACAD
1001
ACAD
1000
AcRTDxfName
1000
SCALE
  0
ACAD_PROXY_OBJECT
  5
95
102
{ACAD_REACTORS
330
85
102
}
330
85
100
AcDbProxyObject
 90
      499
 91
      502
 95
       25
 70
     1
100
AcDbScale
 70
     0
300
10:1
140
10.0
141
1.0
290
     0
1001
ACAD
1001
ACAD
1001
ACAD
1001
ACAD
1001
ACAD
1001
ACAD
1000
AcRTDxfName
1000
SCALE
  0
ACAD_PROXY_OBJECT
  5
96
102
{ACAD_REACTORS
330
85
102
}
330
85
100
AcDbProxyObject
 90
      499
 91
      502
 95
       25
 70
     1
100
AcDbScale
 70
     0
300
100:1
140
100.0
141
1.0
290
     0
1001
ACAD
1001
ACAD
1001
ACAD
1001
ACAD
1001
ACAD
1001
ACAD
1000
AcRTDxfName
1000
SCALE
  0
ACAD_PROXY_OBJECT
  5
97
102
{ACAD_REACTORS
330
85
102
}
330
85
100
AcDbProxyObject
 90
      499
 91
      502
 95
       25
 70
     1
100
AcDbScale
 70
     0
300
1/128" = 1'-0"
140
0.0078125
141
12.0
290
     0
1001
ACAD
1001
ACAD
1001
ACAD
1001
ACAD
1001
ACAD
1001
ACAD
1000
AcRTDxfName
1000
SCALE
  0
ACAD_PROXY_OBJECT
  5
98
102
{ACAD_REACTORS
330
85
102
}
330
85
100
AcDbProxyObject
 90
      499
 91
      502
 95
       25
 70
     1
100
AcDbScale
 70
     0
300
1/64" = 1'-0"
140
0.015625
141
12.0
290
     0
1001
ACAD
1001
ACAD
1001
ACAD
1001
ACAD
1001
ACAD
1001
ACAD
1000
AcRTDxfName
1000
SCALE
  0
ACAD_PROXY_OBJECT
  5
99
102
{ACAD_REACTORS
330
85
102
}
330
85
100
AcDbProxyObject
 90
      499
 91
      502
 95
       25
 70
     1
100
AcDbScale
 70
     0
300
1/32" = 1'-0"
140
0.03125
141
12.0
290
     0
1001
ACAD
1001
ACAD
1001
ACAD
1001
ACAD
1001
ACAD
1001
ACAD
1000
AcRTDxfName
1000
SCALE
  0
ACAD_PROXY_OBJECT
  5
9A
102
{ACAD_REACTORS
330
85
102
}
330
85
100
AcDbProxyObject
 90
      499
 91
      502
 95
       25
 70
     1
100
AcDbScale
 70
     0
300
1/16" = 1'-0"
140
0.0625
141
12.0
290
     0
1001
ACAD
1001
ACAD
1001
ACAD
1001
ACAD
1001
ACAD
1001
ACAD
1000
AcRTDxfName
1000
SCALE
  0
ACAD_PROXY_OBJECT
  5
9B
102
{ACAD_REACTORS
330
85
102
}
330
85
100
AcDbProxyObject
 90
      499
 91
      502
 95
       25
 70
     1
100
AcDbScale
 70
     0
300
3/32" = 1'-0"
140
0.09375
141
12.0
290
     0
1001
ACAD
1001
ACAD
1001
ACAD
1001
ACAD
1001
ACAD
1001
ACAD
1000
AcRTDxfName
1000
SCALE
  0
ACAD_PROXY_OBJECT
  5
9C
102
{ACAD_REACTORS
330
85
102
}
330
85
100
AcDbProxyObject
 90
      499
 91
      502
 95
       25
 70
     1
100
AcDbScale
 70
     0
300
1/8" = 1'-0"
140
0.125
141
12.0
290
     0
1001
ACAD
1001
ACAD
1001
ACAD
1001
ACAD
1001
ACAD
1001
ACAD
1000
AcRTDxfName
1000
SCALE
  0
ACAD_PROXY_OBJECT
  5
9D
102
{ACAD_REACTORS
330
85
102
}
330
85
100
AcDbProxyObject
 90
      499
 91
      502
 95
       25
 70
     1
100
AcDbScale
 70
     0
300
3/16" = 1'-0"
140
0.1875
141
12.0
290
     0
1001
ACAD
1001
ACAD
1001
ACAD
1001
ACAD
1001
ACAD
1001
ACAD
1000
AcRTDxfName
1000
SCALE
  0
ACAD_PROXY_OBJECT
  5
9E
102
{ACAD_REACTORS
330
85
102
}
330
85
100
AcDbProxyObject
 90
      499
 91
      502
 95
       25
 70
     1
100
AcDbScale
 70
     0
300
1/4" = 1'-0"
140
0.25
141
12.0
290
     0
1001
ACAD
1001
ACAD
1001
ACAD
1001
ACAD
1001
ACAD
1001
ACAD
1000
AcRTDxfName
1000
SCALE
  0
ACAD_PROXY_OBJECT
  5
9F
102
{ACAD_REACTORS
330
85
102
}
330
85
100
AcDbProxyObject
 90
      499
 91
      502
 95
       25
 70
     1
100
AcDbScale
 70
     0
300
3/8" = 1'-0"
140
0.375
141
12.0
290
     0
1001
ACAD
1001
ACAD
1001
ACAD
1001
ACAD
1001
ACAD
1001
ACAD
1000
AcRTDxfName
1000
SCALE
  0
ACAD_PROXY_OBJECT
  5
A0
102
{ACAD_REACTORS
330
85
102
}
330
85
100
AcDbProxyObject
 90
      499
 91
      502
 95
       25
 70
     1
100
AcDbScale
 70
     0
300
1/2" = 1'-0"
140
0.5
141
12.0
290
     0
1001
ACAD
1001
ACAD
1001
ACAD
1001
ACAD
1001
ACAD
1001
ACAD
1000
AcRTDxfName
1000
SCALE
  0
ACAD_PROXY_OBJECT
  5
A1
102
{ACAD_REACTORS
330
85
102
}
330
85
100
AcDbProxyObject
 90
      499
 91
      502
 95
       25
 70
     1
100
AcDbScale
 70
     0
300
3/4" = 1'-0"
140
0.75
141
12.0
290
     0
1001
ACAD
1001
ACAD
1001
ACAD
1001
ACAD
1001
ACAD
1001
ACAD
1000
AcRTDxfName
1000
SCALE
  0
ACAD_PROXY_OBJECT
  5
A2
102
{ACAD_REACTORS
330
85
102
}
330
85
100
AcDbProxyObject
 90
      499
 91
      502
 95
       25
 70
     1
100
AcDbScale
 70
     0
300
1" = 1'-0"
140
1.0
141
12.0
290
     0
1001
ACAD
1001
ACAD
1001
ACAD
1001
ACAD
1001
ACAD
1001
ACAD
1000
AcRTDxfName
1000
SCALE
  0
ACAD_PROXY_OBJECT
  5
A3
102
{ACAD_REACTORS
330
85
102
}
330
85
100
AcDbProxyObject
 90
      499
 91
      502
 95
       25
 70
     1
100
AcDbScale
 70
     0
300
1-1/2" = 1'-0"
140
1.5
141
12.0
290
     0
1001
ACAD
1001
ACAD
1001
ACAD
1001
ACAD
1001
ACAD
1001
ACAD
1000
AcRTDxfName
1000
SCALE
  0
ACAD_PROXY_OBJECT
  5
A4
102
{ACAD_REACTORS
330
85
102
}
330
85
100
AcDbProxyObject
 90
      499
 91
      502
 95
       25
 70
     1
100
AcDbScale
 70
     0
300
3" = 1'-0"
140
3.0
141
12.0
290
     0
1001
ACAD
1001
ACAD
1001
ACAD
1001
ACAD
1001
ACAD
1001
ACAD
1000
AcRTDxfName
1000
SCALE
  0
ACAD_PROXY_OBJECT
  5
A5
102
{ACAD_REACTORS
330
85
102
}
330
85
100
AcDbProxyObject
 90
      499
 91
      502
 95
       25
 70
     1
100
AcDbScale
 70
     0
300
6" = 1'-0"
140
6.0
141
12.0
290
     0
1001
ACAD
1001
ACAD
1001
ACAD
1001
ACAD
1001
ACAD
1001
ACAD
1000
AcRTDxfName
1000
SCALE
  0
ACAD_PROXY_OBJECT
  5
A6
102
{ACAD_REACTORS
330
85
102
}
330
85
100
AcDbProxyObject
 90
      499
 91
      502
 95
       25
 70
     1
100
AcDbScale
 70
     0
300
1'-0" = 1'-0"
140
12.0
141
12.0
290
     0
1001
ACAD
1001
ACAD
1001
ACAD
1001
ACAD
1001
ACAD
1001
ACAD
1000
AcRTDxfName
1000
SCALE
  0
TABLESTYLE
  5
B4
102
{ACAD_XDICTIONARY
360
C3B
102
}
102
{ACAD_REACTORS
330
A7
102
}
330
A7
100
AcDbTableStyle
  3
Standard
 70
     0
 71
     0
 40
0.06
 41
0.06
280
     0
281
     0
  7
Standard
140
0.18
170
     2
 62
     0
 63
     7
283
     0
274
    -2
284
     1
 64
     0
275
    -2
285
     1
 65
     0
276
    -2
286
     1
 66
     0
277
    -2
287
     1
 67
     0
278
    -2
288
     1
 68
     0
279
    -2
289
     1
 69
     0
  7
Standard
140
0.25
170
     5
 62
     0
 63
     7
283
     0
274
    -2
284
     1
 64
     0
275
    -2
285
     1
 65
     0
276
    -2
286
     1
 66
     0
277
    -2
287
     1
 67
     0
278
    -2
288
     1
 68
     0
279
    -2
289
     1
 69
     0
  7
Standard
140
0.18
170
     5
 62
     0
 63
     7
283
     0
274
    -2
284
     1
 64
     0
275
    -2
285
     1
 65
     0
276
    -2
286
     1
 66
     0
277
    -2
287
     1
 67
     0
278
    -2
288
     1
 68
     0
279
    -2
289
     1
 69
     0
  0
VISUALSTYLE
  5
2F
102
{ACAD_REACTORS
330
2A
102
}
330
2A
100
AcDbVisualStyle
  2
2dWireframe
 70
     4
 71
     0
 72
     2
 73
     0
 90
        0
 40
-0.6
 41
-30.0
 62
     5
 63
     7
 74
     1
 91
        4
 64
     7
 65
   257
 75
     1
175
     1
 42
1.0
 92
        0
 66
   257
 43
1.0
 76
     1
 77
     6
 78
     2
 67
     7
 79
     5
170
     0
171
     0
290
     0
174
     0
 93
        1
 44
0.0
173
     0
291
     0
 45
0.0
1001
ACAD
1000
AcDbSavedByObjectVersion
1070
     0
1000
AcDbSavedByObjectVersion
1070
     0
1000
AcDbSavedByObjectVersion
1070
     0
1000
AcDbSavedByObjectVersion
1070
     0
1000
AcDbSavedByObjectVersion
1070
     0
  0
VISUALSTYLE
  5
31
102
{ACAD_REACTORS
330
2A
102
}
330
2A
100
AcDbVisualStyle
  2
3D Hidden
 70
     6
 71
     1
 72
     2
 73
     2
 90
        0
 40
-0.6
 41
-30.0
 62
     5
 63
     7
 74
     2
 91
        2
 64
     7
 65
   257
 75
     2
175
     1
 42
40.0
 92
        0
 66
   257
 43
1.0
 76
     1
 77
     6
 78
     2
 67
     7
 79
     3
170
     0
171
     0
290
     0
174
     0
 93
        1
 44
0.0
173
     0
291
     0
 45
0.0
1001
ACAD
1000
AcDbSavedByObjectVersion
1070
     0
1000
AcDbSavedByObjectVersion
1070
     0
1000
AcDbSavedByObjectVersion
1070
     0
1000
AcDbSavedByObjectVersion
1070
     0
1000
AcDbSavedByObjectVersion
1070
     0
  0
VISUALSTYLE
  5
30
102
{ACAD_REACTORS
330
2A
102
}
330
2A
100
AcDbVisualStyle
  2
3dWireframe
 70
     5
 71
     0
 72
     2
 73
     0
 90
        0
 40
-0.6
 41
-30.0
 62
     5
 63
     7
 74
     1
 91
        4
 64
     7
 65
   257
 75
     1
175
     1
 42
1.0
 92
        0
 66
   257
 43
1.0
 76
     1
 77
     6
 78
     2
 67
     7
 79
     5
170
     0
171
     0
290
     0
174
     0
 93
        1
 44
0.0
173
     0
291
     0
 45
0.0
1001
ACAD
1000
AcDbSavedByObjectVersion
1070
     0
1000
AcDbSavedByObjectVersion
1070
     0
1000
AcDbSavedByObjectVersion
1070
     0
1000
AcDbSavedByObjectVersion
1070
     0
1000
AcDbSavedByObjectVersion
1070
     0
  0
VISUALSTYLE
  5
32
102
{ACAD_REACTORS
330
2A
102
}
330
2A
100
AcDbVisualStyle
  2
Basic
 70
     7
 71
     1
 72
     0
 73
     1
 90
        0
 40
-0.6
 41
-30.0
 62
     5
 63
     7
 74
     0
 91
        4
 64
     7
 65
   257
 75
     1
175
     1
 42
1.0
 92
        8
 66
     7
 43
1.0
 76
     1
 77
     6
 78
     2
 67
     7
 79
     5
170
     0
171
     0
290
     0
174
     0
 93
        1
 44
0.0
173
     0
291
     1
 45
0.0
1001
ACAD
1000
AcDbSavedByObjectVersion
1070
     0
1000
AcDbSavedByObjectVersion
1070
     0
1000
AcDbSavedByObjectVersion
1070
     0
1000
AcDbSavedByObjectVersion
1070
     0
1000
AcDbSavedByObjectVersion
1070
     0
  0
VISUALSTYLE
  5
36
102
{ACAD_REACTORS
330
2A
102
}
330
2A
100
AcDbVisualStyle
  2
Brighten
 70
    12
 71
     2
 72
     2
 73
     0
 90
        0
 40
-0.6
 41
-30.0
 62
     5
 63
     7
 74
     1
 91
        4
 64
     7
 65
   257
 75
     1
175
     1
 42
1.0
 92
        8
 66
     7
 43
1.0
 76
     1
 77
     6
 78
     2
 67
     7
 79
     5
170
     0
171
     0
290
     0
174
     0
 93
        1
 44
50.0
173
     0
291
     1
 45
0.0
1001
ACAD
1000
AcDbSavedByObjectVersion
1070
     0
1000
AcDbSavedByObjectVersion
1070
     0
1000
AcDbSavedByObjectVersion
1070
     0
1000
AcDbSavedByObjectVersion
1070
     0
1000
AcDbSavedByObjectVersion
1070
     0
  0
VISUALSTYLE
  5
3A
102
{ACAD_REACTORS
330
2A
102
}
330
2A
100
AcDbVisualStyle
  2
ColorChange
 70
    16
 71
     2
 72
     2
 73
     3
 90
        0
 40
-0.6
 41
-30.0
 62
     5
 63
     8
 74
     1
 91
        4
 64
     7
 65
   257
 75
     1
175
     1
 42
1.0
 92
        8
 66
     8
 43
1.0
 76
     1
 77
     6
 78
     2
 67
     7
 79
     5
170
     0
171
     0
290
     0
174
     0
 93
        1
 44
0.0
173
     0
291
     1
 45
0.0
1001
ACAD
1000
AcDbSavedByObjectVersion
1070
     0
1000
AcDbSavedByObjectVersion
1070
     0
1000
AcDbSavedByObjectVersion
1070
     0
1000
AcDbSavedByObjectVersion
1070
     0
1000
AcDbSavedByObjectVersion
1070
     0
  0
VISUALSTYLE
  5
34
102
{ACAD_REACTORS
330
2A
102
}
330
2A
100
AcDbVisualStyle
  2
Conceptual
 70
     9
 71
     3
 72
     2
 73
     0
 90
        0
 40
-0.6
 41
-30.0
 62
     5
 63
     7
 74
     2
 91
        2
 64
     7
 65
   257
 75
     1
175
     1
 42
40.0
 92
        8
 66
     7
 43
1.0
 76
     1
 77
     6
 78
     2
 67
     7
 79
     3
170
     0
171
     0
290
     0
174
     0
 93
        1
 44
0.0
173
     0
291
     0
 45
0.0
1001
ACAD
1000
AcDbSavedByObjectVersion
1070
     0
1000
AcDbSavedByObjectVersion
1070
     0
1000
AcDbSavedByObjectVersion
1070
     0
1000
AcDbSavedByObjectVersion
1070
     0
1000
AcDbSavedByObjectVersion
1070
     0
  0
VISUALSTYLE
  5
35
102
{ACAD_REACTORS
330
2A
102
}
330
2A
100
AcDbVisualStyle
  2
Dim
 70
    11
 71
     2
 72
     2
 73
     0
 90
        0
 40
-0.6
 41
-30.0
 62
     5
 63
     7
 74
     1
 91
        4
 64
     7
 65
   257
 75
     1
175
     1
 42
1.0
 92
        8
 66
     7
 43
1.0
 76
     1
 77
     6
 78
     2
 67
     7
 79
     5
170
     0
171
     0
290
     0
174
     0
 93
        1
 44
-50.0
173
     0
291
     1
 45
0.0
1001
ACAD
1000
AcDbSavedByObjectVersion
1070
     0
1000
AcDbSavedByObjectVersion
1070
     0
1000
AcDbSavedByObjectVersion
1070
     0
1000
AcDbSavedByObjectVersion
1070
     0
1000
AcDbSavedByObjectVersion
1070
     0
  0
VISUALSTYLE
  5
39
102
{ACAD_REACTORS
330
2A
102
}
330
2A
100
AcDbVisualStyle
  2
Facepattern
 70
    15
 71
     2
 72
     2
 73
     0
 90
        0
 40
-0.6
 41
-30.0
 62
     5
 63
     7
 74
     1
 91
        4
 64
     7
 65
   257
 75
     1
175
     1
 42
1.0
 92
        8
 66
     7
 43
1.0
 76
     1
 77
     6
 78
     2
 67
     7
 79
     5
170
     0
171
     0
290
     0
174
     0
 93
        1
 44
0.0
173
     0
291
     1
 45
0.0
1001
ACAD
1000
AcDbSavedByObjectVersion
1070
     0
1000
AcDbSavedByObjectVersion
1070
     0
1000
AcDbSavedByObjectVersion
1070
     0
1000
AcDbSavedByObjectVersion
1070
     0
1000
AcDbSavedByObjectVersion
1070
     0
  0
VISUALSTYLE
  5
2B
102
{ACAD_REACTORS
330
2A
102
}
330
2A
100
AcDbVisualStyle
  2
Flat
 70
     0
 71
     2
 72
     1
 73
     1
 90
        2
 40
-0.6
 41
30.0
 62
     5
 63
     7
 74
     0
 91
        4
 64
     7
 65
   257
 75
     1
175
     1
 42
1.0
 92
        8
 66
     7
 43
1.0
 76
     1
 77
     6
 78
     2
 67
     7
 79
     5
170
     0
171
     0
290
     0
174
     0
 93
       13
 44
0.0
173
     0
291
     1
 45
0.0
1001
ACAD
1000
AcDbSavedByObjectVersion
1070
     0
1000
AcDbSavedByObjectVersion
1070
     0
1000
AcDbSavedByObjectVersion
1070
     0
1000
AcDbSavedByObjectVersion
1070
     0
1000
AcDbSavedByObjectVersion
1070
     0
  0
VISUALSTYLE
  5
2C
102
{ACAD_REACTORS
330
2A
102
}
330
2A
100
AcDbVisualStyle
  2
FlatWithEdges
 70
     1
 71
     2
 72
     1
 73
     1
 90
        2
 40
-0.6
 41
30.0
 62
     5
 63
     7
 74
     1
 91
        4
 64
     7
 65
   257
 75
     1
175
     1
 42
1.0
 92
        0
 66
   257
 43
1.0
 76
     1
 77
     6
 78
     2
 67
     7
 79
     5
170
     0
171
     0
290
     0
174
     0
 93
       13
 44
0.0
173
     0
291
     1
 45
0.0
1001
ACAD
1000
AcDbSavedByObjectVersion
1070
     0
1000
AcDbSavedByObjectVersion
1070
     0
1000
AcDbSavedByObjectVersion
1070
     0
1000
AcDbSavedByObjectVersion
1070
     0
1000
AcDbSavedByObjectVersion
1070
     0
  0
VISUALSTYLE
  5
2D
102
{ACAD_REACTORS
330
2A
102
}
330
2A
100
AcDbVisualStyle
  2
Gouraud
 70
     2
 71
     2
 72
     2
 73
     1
 90
        2
 40
-0.6
 41
30.0
 62
     5
 63
     7
 74
     0
 91
        4
 64
     7
 65
   257
 75
     1
175
     1
 42
1.0
 92
        0
 66
     7
 43
1.0
 76
     1
 77
     6
 78
     2
 67
     7
 79
     5
170
     0
171
     0
290
     0
174
     0
 93
       13
 44
0.0
173
     0
291
     1
 45
0.0
1001
ACAD
1000
AcDbSavedByObjectVersion
1070
     0
1000
AcDbSavedByObjectVersion
1070
     0
1000
AcDbSavedByObjectVersion
1070
     0
1000
AcDbSavedByObjectVersion
1070
     0
1000
AcDbSavedByObjectVersion
1070
     0
  0
VISUALSTYLE
  5
2E
102
{ACAD_REACTORS
330
2A
102
}
330
2A
100
AcDbVisualStyle
  2
GouraudWithEdges
 70
     3
 71
     2
 72
     2
 73
     1
 90
        2
 40
-0.6
 41
30.0
 62
     5
 63
     7
 74
     1
 91
        4
 64
     7
 65
   257
 75
     1
175
     1
 42
1.0
 92
        0
 66
   257
 43
1.0
 76
     1
 77
     6
 78
     2
 67
     7
 79
     5
170
     0
171
     0
290
     0
174
     0
 93
       13
 44
0.0
173
     0
291
     1
 45
0.0
1001
ACAD
1000
AcDbSavedByObjectVersion
1070
     0
1000
AcDbSavedByObjectVersion
1070
     0
1000
AcDbSavedByObjectVersion
1070
     0
1000
AcDbSavedByObjectVersion
1070
     0
1000
AcDbSavedByObjectVersion
1070
     0
  0
VISUALSTYLE
  5
38
102
{ACAD_REACTORS
330
2A
102
}
330
2A
100
AcDbVisualStyle
  2
Linepattern
 70
    14
 71
     2
 72
     2
 73
     0
 90
        0
 40
-0.6
 41
-30.0
 62
     5
 63
     7
 74
     1
 91
        4
 64
     7
 65
   257
 75
     7
175
     7
 42
1.0
 92
        8
 66
     7
 43
1.0
 76
     1
 77
     6
 78
     2
 67
     7
 79
     5
170
     0
171
     0
290
     0
174
     0
 93
        1
 44
0.0
173
     0
291
     1
 45
0.0
1001
ACAD
1000
AcDbSavedByObjectVersion
1070
     0
1000
AcDbSavedByObjectVersion
1070
     0
1000
AcDbSavedByObjectVersion
1070
     0
1000
AcDbSavedByObjectVersion
1070
     0
1000
AcDbSavedByObjectVersion
1070
     0
  0
VISUALSTYLE
  5
33
102
{ACAD_REACTORS
330
2A
102
}
330
2A
100
AcDbVisualStyle
  2
Realistic
 70
     8
 71
     2
 72
     2
 73
     0
 90
        0
 40
-0.6
 41
-30.0
 62
     5
 63
     7
 74
     1
 91
        0
 64
     7
 65
   257
 75
     1
175
     1
 42
1.0
 92
        8
 66
     8
 43
1.0
 76
     1
 77
     6
 78
     2
 67
     7
 79
     5
170
     0
171
     0
290
     0
174
     0
 93
       13
 44
0.0
173
     0
291
     0
 45
0.0
1001
ACAD
1000
AcDbSavedByObjectVersion
1070
     0
1000
AcDbSavedByObjectVersion
1070
     0
1000
AcDbSavedByObjectVersion
1070
     0
1000
AcDbSavedByObjectVersion
1070
     0
1000
AcDbSavedByObjectVersion
1070
     0
  0
VISUALSTYLE
  5
37
102
{ACAD_REACTORS
330
2A
102
}
330
2A
100
AcDbVisualStyle
  2
Thicken
 70
    13
 71
     2
 72
     2
 73
     0
 90
        0
 40
-0.6
 41
-30.0
 62
     5
 63
     7
 74
     1
 91
        4
 64
     7
 65
   257
 75
     1
175
     1
 42
1.0
 92
       12
 66
     7
 43
1.0
 76
     1
 77
     6
 78
     2
 67
     7
 79
     5
170
     0
171
     0
290
     0
174
     0
 93
        1
 44
0.0
173
     0
291
     1
 45
0.0
1001
ACAD
1000
AcDbSavedByObjectVersion
1070
     0
1000
AcDbSavedByObjectVersion
1070
     0
1000
AcDbSavedByObjectVersion
1070
     0
1000
AcDbSavedByObjectVersion
1070
     0
1000
AcDbSavedByObjectVersion
1070
     0
  0
DICTIONARYVAR
  5
AA
102
{ACAD_REACTORS
330
A9
102
}
330
A9
100
DictionaryVariables
280
     0
  1
1:1
  0
DICTIONARYVAR
  5
DF
102
{ACAD_REACTORS
330
A9
102
}
330
A9
100
DictionaryVariables
280
     0
  1
STANDARD
  0
DICTIONARYVAR
  5
E3
102
{ACAD_REACTORS
330
A9
102
}
330
A9
100
DictionaryVariables
280
     0
  1
2
  0
DICTIONARYVAR
  5
E2
102
{ACAD_REACTORS
330
A9
102
}
330
A9
100
DictionaryVariables
280
     0
  1
1
  0
DICTIONARYVAR
  5
E1
102
{ACAD_REACTORS
330
A9
102
}
330
A9
100
DictionaryVariables
280
     0
  1
0
  0
DICTIONARYVAR
  5
E0
102
{ACAD_REACTORS
330
A9
102
}
330
A9
100
DictionaryVariables
280
     0
  1
127
  0
DICTIONARY
  5
BD
330
81
100
AcDbDictionary
280
     1
281
     1
  3
ACAD_XREC_ROUNDTRIP
360
C38
  3
ADSK_XREC_LAYOUTTHUMBNAIL
360
BE
  0
DICTIONARY
  5
C36
330
22
100
AcDbDictionary
280
     1
281
     1
  3
ACAD_XREC_ROUNDTRIP
360
C37
  0
DICTIONARY
  5
EC
330
B1
100
AcDbDictionary
280
     1
281
     1
  3
ACAD_XREC_ROUNDTRIP
360
ED
  0
DICTIONARY
  5
EA
330
B0
100
AcDbDictionary
280
     1
281
     1
  3
ACAD_XREC_ROUNDTRIP
360
EB
  0
DICTIONARY
  5
EE
330
B2
100
AcDbDictionary
280
     1
281
     1
  3
ACAD_XREC_ROUNDTRIP
360
EF
  0
DICTIONARY
  5
C3B
330
B4
100
AcDbDictionary
280
     1
281
     1
  3
ACAD_XREC_ROUNDTRIP
360
C3C
  0
XRECORD
  5
C38
102
{ACAD_REACTORS
330
BD
102
}
330
BD
100
AcDbXrecord
280
     1
102
SHADEPLOT
 70
     0
102
SHADEPLOTRESLEVEL
 70
     2
102
SHADEPLOTCUSTOMDPI
 70
   300
  0
XRECORD
  5
BE
102
{ACAD_REACTORS
330
BD
102
}
330
BD
100
AcDbXrecord
280
     1
310
28000000B4000000870000000100080000000000EC5E000000000000000000000001000000000000FFFFFF0000000000FFFFFF000000000000000000000000000000000000000000000000000000000000000000330000006600000099000000CC000000FF00000000330000333300006633000099330000CC330000FF3300
310
0000660000336600006666000099660000CC660000FF66000000990000339900006699000099990000CC990000FF99000000CC000033CC000066CC000099CC0000CCCC0000FFCC000000FF000033FF000066FF000099FF0000CCFF0000FFFF000000003300330033006600330099003300CC003300FF003300003333003333
310
33006633330099333300CC333300FF33330000663300336633006666330099663300CC663300FF66330000993300339933006699330099993300CC993300FF99330000CC330033CC330066CC330099CC3300CCCC3300FFCC330000FF330033FF330066FF330099FF3300CCFF3300FFFF330000006600330066006600660099
310
006600CC006600FF00660000336600333366006633660099336600CC336600FF33660000666600336666006666660099666600CC666600FF66660000996600339966006699660099996600CC996600FF99660000CC660033CC660066CC660099CC6600CCCC6600FFCC660000FF660033FF660066FF660099FF6600CCFF6600
310
FFFF660000009900330099006600990099009900CC009900FF00990000339900333399006633990099339900CC339900FF33990000669900336699006666990099669900CC669900FF66990000999900339999006699990099999900CC999900FF99990000CC990033CC990066CC990099CC9900CCCC9900FFCC990000FF99
310
0033FF990066FF990099FF9900CCFF9900FFFF99000000CC003300CC006600CC009900CC00CC00CC00FF00CC000033CC003333CC006633CC009933CC00CC33CC00FF33CC000066CC003366CC006666CC009966CC00CC66CC00FF66CC000099CC003399CC006699CC009999CC00CC99CC00FF99CC0000CCCC0033CCCC0066CC
310
CC0099CCCC00CCCCCC00FFCCCC0000FFCC0033FFCC0066FFCC0099FFCC00CCFFCC00FFFFCC000000FF003300FF006600FF009900FF00CC00FF00FF00FF000033FF003333FF006633FF009933FF00CC33FF00FF33FF000066FF003366FF006666FF009966FF00CC66FF00FF66FF000099FF003399FF006699FF009999FF00CC
310
99FF00FF99FF0000CCFF0033CCFF0066CCFF0099CCFF00CCCCFF00FFCCFF0000FFFF0033FFFF0066FFFF0099FFFF00CCFFFF00FFFFFF00000000000D0D0D001A1A1A00282828003535350043434300505050005D5D5D006B6B6B00787878008686860093939300A1A1A100AEAEAE00BBBBBB00C9C9C900D6D6D600E4E4E400
310
F1F1F100FFFFFF0000000000000000000000000000000000000000000000000000000000000000000000000000000000E2E2E2E2E2E2E2E2E2F5F5F5F5F5F5F5F5F5E2E2E2E2E2E2E2E2E2E2E2E2E2E2E2E2E2F5F5F5F5F5F5F5F5F5E2E2E2E2E2E2E2E2E2E2E2E2E2E2E2E2E2F5F5F5F5F5F5F5F5F5E2E2E2E2E2E2E2E2E2
310
E2E2E2E2E2E2E2E2F5F5F5F5F5F5F5F5F5E2E2E2E2E2E2E2E2E2E2E2E2E2E2E2E2E2F5F5F5F5F5F5F5F5F5E2E2E2E2E2E2E2E2E2E2E2E2E2E2E2E2E2F5F5F5F5F5F5F5F5F5E2E2E2E2E2E2E2E2E2F5F5F5E2E2EFEFEFEFEFEFEFEFEFEFEFEFEFEFEFEFEFEFE2F5F5F5F5F5F5F5F5F5F5F5F5F5F5F5F5F5F5F5F5F5F5F5F5F5
310
F5F5F5F5F5F5F5F5F5F5F5F5F5F5F5F5F5F5F5F5F5F5F5F5F5F5F5F5F5F5F5F5F5F5F5F5F5F5F5F5F5F5F5F5F5F5F5F5F5F5F5F5F5F5F5F5F5F5F5F5F5F5F5F5F5F5F5F5F5F5F5F5F5F5F5F5F5F5F5F5F5F5F5F5F5F5F5F5F5F5F5F5F5F5F5F5F5F5F5F5F5F5F5F5F5F5F5F5F5F5F5F5F5F5F5F5F5F5F5F5F5F5F5F5F5F5F5
310
F5F5F5E2F5F5F5E2E2EFEFEFEFEFEFEFEFEFEFEFEFEFEFEFEFEFEFE2F5F5F5F5F5F5F5F5F5F5F5F5F5F5F5F5F5F5F5F5F5F5F5F5F5F5F5F5F5F5F5F5F5F5F5F5F5F5F5F5F5F5F5F5F5F5F5F5F5F5F5F5F5F5F5F5F5F5F5F5F5F5F5F5F5F5F5F5F5F5F5F5F5F5F5F5F5F5F5F5F5F5F5F5F5F5F5F5F5F5F5F5F5F5F5F5F5F5F5
310
F5F5F5F5F5F5F5F5F5F5F5F5F5F5F5F5F5F5F5F5F5F5F5F5F5F5F5F5F5F5F5F5F5F5F5F5F5F5F5F5F5F5F5F5F5F5F5F5F5F5F5F5F5F5F5F5E2F5F5F5E2E2EFEFEFEFEFEFEFEFEFEFEFEFEFEFEFEFEFEFE2F5F5F5F5F5F5F5F5F5F5F5F5F5F5F5F5F5F5F5F5F5F5F5F5F5F5F5F5F5F5F5F5F5F5F5F5F5F5F5F5F5F5F5F5F5F5
310
F5F5F5F5F5F5F5F5F5F5F5F5F5F5F5F5F5F5F5F5F5F5F5F5F5F5F5F5F5F5F5F5F5F5F5F5F5F5F5F5F5F5F5F5F5F5F5F5F5F5F5F5F5F5F5F5F5F5F5F5F5F5F5F5F5F5F5F5F5F5F5F5F5F5F5F5F5F5F5F5F5F5F5F5F5F5F5F5F5F5F5F5F5F5F5F5F5F5F5F5F5F5F5F5F5F5F5F5F5E2F5F5F5E2E2EFEFEFEFEFEFEFEFEFEFEFEF
310
EFEFEFEFEFEFE2F5F5F5F5F5F5F5F5F5F5F5F5F5F5F5F5F5F5F5F5F5F5F5F5F5F5F5F5F5F5F5F5F5F5F5F5F5F5F5F5F5F5F5F5F5F5F5F5F5F5F5F5F5F5F5F5F5F5F5F5F5F5F5F5F5F5F5F5F5F5F5F5F5F5F5F5F5F5F5F5F5F5F5F5F5F5F5F5F5F5F5F5F5F5F5F5F5F5F5F5F5F5F5F5F5F5F5F5F5F5F5F5F5F5F5F5F5F5F5F5
310
F5F5F5F5F5F5F5F5F5F5F5F5F5F5F5F5F5F5F5F5F5F5F5F5F5F5F5F5F5F5F5F5F5F5F5E2F5F5F5E2E2EFEFEFEFEFEFEFEFEFEFEFEFEFEFEFEFEFEFE2F5F5F5F5F5F5F5F5F5F5F5F5F5F5F5F5F5F5F5F5F5F5F5F5F5F5F5F5F5F5F5F5F5F5F5F5F5F5F5F5F5F5F5F5F5F5F5F5F5F5F5F5F5F5F5F5F5F5F5F5F5F5F5F5F5F5F5
310
F5F5F5F5F5F5F5F5F5F5F5F5F5F5F5F5F5F5F5F5F5F5F5F5F5F5F5F5F5F5F5F5F5F5F5F5F5F5F5F5F5F5F5F5F5F5F5F5F5F5F5F5F5F5F5F5F5F5F5F5F5F5F5F5F5F5F5F5F5F5F5F5F5F5F5F5F5F5F5F5F5F5F5F5F5F5F5F5E2F5F5F5E2E2EFEFEFEFEFEFEFEFEFEFEFEFEFEFEFEFEFEFE2F5F5F5F5F5F5F5F5F5F5F5F5F5F5
310
F5F5F5F5F5F5F5F5F5F5F5F5F5F5F5F5F5F5F5F5F5F5F5F5F5F5F5F5F5F5F5F5F5F5F5F5F5F5F5F5F5F5F5F5F5F5F5F5F5F5F5F5F5F5F5F5F5F5F5F5F5F5F5F5F5F5F5F5F5F5F5F5F5F5F5F5F5F5F5F5F5F5F5F5F5F5F5F5F5F5F5F5F5F5F5F5F5F5F5F5F5F5F5F5F5F5F5F5F5F5F5F5F5F5F5F5F5F5F5F5F5F5F5F5F5F5F5
310
F5F5F5F5F5F5F5F5F5F5F5F5F5F5E2F5F5F5E2E2EFEFEFEFEFEFEFEFEFEFEFEFEFEFEFEFEFEFE2F5F5F5F5F5F5F5F5F5F5F5F5F5F5F5F5F5F5F5F5F5F5F5F5F5F5F5F5F5F5F5F5F5F5F5F5F5F5F5F5F5F5F5F5F5F5F5F5F5F5F5F5F5F5F5F5F5F5F5F5F5F5F5F5F5F5F5F5F5F5F5F5F5F5F5F5F5F5F5F5F5F5F5F5F5F5F5F5
310
F5F5F5F5F5F5F5F5F5F5F5F5F5F5F5F5F5F5F5F5F5F5F5F5F5F5F5F5F5F5F5F5F5F5F5F5F5F5F5F5F5F5F5F5F5F5F5F5F5F5F5F5F5F5F5F5F5F5F5F5F5F5F5F5F5F5F5E2F5F5F5E2E2EFEFEFEFEFEFEFEFEFEFEFEFEFEFEFEFEFEFF5F5F5F5F5F5F5F5F5F5F5F5F5F5F5F5F5F5F5F5F5F5F5F5F5F5F5F5F5F5F5F5F5F5F5F5
310
F5F5F5F5F5F5F5F5F5F5F5F5F5F5F5F5F5F5F5F5F5F5F5F5F5F5F5F5F5F5F5F5F5F5F5F5F5F5F5F5F5F5F5F5F5F5F5F5F5F5F5F5F5F5F5F5F5F5F5F5F5F5F5F5F5F5F5F5F5F5F5F5F5F5F5F5F5F5F5F5F5F5F5F5F5F5F5F5F5F5F5F5F5F5F5F5F5F5F5F5F5F5F5F5F5F5F5F5F5F5F5F5F5F5F5F5F5F5F5F5F5F5F5F5E2E2EF
310
EFEFEFEFEFEFEFEFEFEFEFEFEFEFEFEFEFF5F5F5F5F5F5F5F5F5F5F5F5F5F5F5F5F5F5F5F5F5F5F5F5F5F5F5F5F5F5F5F5F5F5F5F5F5F5F5F5F5F5F5F5F5F5F5F5F5F5F5F5F5F5F5F5F5F5F5F5F5F5F5F5F5F5F5F5F5F5F5F5F5F5F5F5F5F5F5F5F5F5F5F5F5F5F5F5F5F5F5F5F5F5F5F5F5F5F5F5F5F5F5F5F5F5F5F5F5F5
310
F5F5F5F5F5F5F5F5F5F5F5F5F5F5F5F5F5F5F5F5F5F5F5F5F5F5F5F5F5F5F5F5F5F5F5F5F5F5F5F5F5F5F5F5F5F5F5F5F5F5E2E2EFEFEFEFEFEFEFEFEFEFEFEFEFEFEFEFEFEFF5F5F5F5F5F5F5F5F5F5F5F5F5F5F5F5F5F5F5F5F5F5F5F5F5F5F5F5F5F5F5F5F5F5F5F5F5F5F5F5F5F5F5F5F5F5F5F5F5F5F5F5F5F5F5F5F5
310
F5F5F5F5F5F5F5F5F5F5F5F5F5F5F5F5F5F5F5F5F5F5F5F5F5F5F5F5F5F5F5F5F5F5F5F5F5F5F5F5F5F5F5F5F5F5F5F5F5F5F5F5F5F5F5F5F5F5F5F5F5F5F5F5F5F5F5F5F5F5F5F5F5F5F5F5F5F5F5F5F5F5F5F5F5F5F5F5F5F5F5F5F5F5F5F5F5F5F5F5F5F5F5E2E2EFEFEFEFEFEFEFEFEFEFEFEFEFEFEFEFEFEFF5F5F5F5
310
F5F5F5F5F5F5F5F5F5F5F5F5F5F5F5F5F5F5F5F5F5F5F5F5F5F5F5F5F5F5F5F5F5F5F5F5F5F5F5F5F5F5F5F5F5F5F5F5F5F5F5F5F5F5F5F5F5F5F5F5F5F5F5F5F5F5F5F5F5F5F5F5F5F5F5F5F5F5F5F5F5F5F5F5F5F5F5F5F5F5F5F5F5F5F5F5F5F5F5F5F5F5F5F5F5F5F5F5F5F5F5F5F5F5F5F5F5F5F5F5F5F5F5F5F5F5F5
310
F5F5F5F5F5F5F5F5F5F5F5F5F5F5F5F5F5F5F5F5F5F5F5F5F5F5F5F5F5E2E2EFEFEFEFEFEFEFEFEFEFEFEFEFEFEFEFEFEFF5F5F5F5F5F5F5F5F5F5F5F5F5F5F5F5F5F5F5F5F5F5F5F5F5F5F5F5F5F5F5F5F5F5F5F5F5F5F5F5F5F5F5F5F5F5F5F5F5F5F5F5F5F5F5F5F5F5F5F5F5F5F5F5F5F5F5F5F5F5F5F5F5F5F5F5F5F5
310
F5F5F5F5F5F5F5F5F5F5F5F5F5F5F5F5F5F5F5F5F5F5F5F5F5F5F5F5F5F5F5F5F5F5F5F5F5F5F5F5F5F5F5F5F5F5F5F5F5F5F5F5F5F5F5F5F5F5F5F5F5F5F5F5F5F5F5F5F5F5F5F5F5F5F5F5F5F5F5F5F5F5E2E2EFEFEFEFEFEFEFEFEFEFEFEFEFEFEFEFEFEFF5F5F5F5F5F5F5F5F5F5F5F5F5F5F5F5F5F5F5F5F5F5F5F5F5
310
F5F5F5F5F5F5F5F5F5F5F5F5F5F5F5F5F5F5F5F5F5F5F5F5F5F5F5F5F5F5F5F5F5F5F5F5F5F5F5F5F5F5F5F5F5F5F5F5F5F5F5F5F5F5F5F5F5F5F5F5F5F5F5F5F5F5F5F5F5F5F5F5F5F5F5F5F5F5F5F5F5F5F5F5F5F5F5F5F5F5F5F5F5F5F5F5F5F5F5F5F5F5F5F5F5F5F5F5F5F5F5F5F5F5F5F5F5F5F5F5F5F5F5F5F5F5F5
310
F5F5F5F5F5F5F5F5E2E2EFEFEFEFEFEFEFEFEFEFEFEFEFEFEFEFEFEFF5F5F5F5F5F5F5F5F5F5F5F5F5F5F5F5F5F5F5F5F5F5F5F5F5F5F5F5F5F5F5F5F5F5F5F5F5F5F5F5F5F5F5F5F5F5F5F5F5F5F5F5F5F5F5F5F5F5F5F5F5F5F5F5F5F5F5F5F5F5F5F5F5F5F5F5F5F5F5F5F5F5F5F5F5F5F5F5F5F5F5F5F5F5F5F5F5F5F5
310
F5F5F5F5F5F5F5F5F5F5F5F5F5F5F5F5F5F5F5F5F5F5F5F5F5F5F5F5F5F5F5F5F5F5F5F5F5F5F5F5F5F5F5F5F5F5F5F5F5F5F5F5F5F5F5F5F5F5F5F5F5E2E2EFEFEFEFEFEFEFEFEFEFEFEFEFEFEFEFEFEFF5F5F5F5F5F5F5F5F5F5F5F5F5F5F5F5F5F5F5F5F5F5F5F5F5F5F5F5F5F5F5F5F5F5F5F5F5F5F5F5F5F5F5F5F5F5
310
F5F5F5F5F5F5F5F5F5F5F5F5F5F5F5F5F5F5F5F5F5F5F5F5F5F5F5F5F5F5F5F5F5F5F5F5F5F5F5F5F5F5F5F5F5F5F5F5F5F5F5F5F5F5F5F5F5F5F5F5F5F5F5F5F5F5F5F5F5F5F5F5F5F5F5F5F5F5F5F5F5F5F5F5F5F5F5F5F5F5F5F5F5F5F5F5F5F5F5F5F5F5F5F5F5F5F5F5F5F5F5F5F5F5E2E2EFEFEFEFEFEFEFEFEFEFEF
310
EFEFEFEFEFEFEFF5F5F5F5F5F5F5F5F5F5F5F5F5F5F5F5F5F5F5F5F5F5F5F5F5F5F5F5F5F5F5F5F5F5F5F5F5F5F5F5F5F5F5F5F5F5F5F5F5F5F5F5F5F5F5F5F5F5F5F5F5F5F5F5F5F5F5F5F5F5F5F5F5F5F5F5F5F5F5F5F5F5F5F5F5F5F5F5F5F5F5F5F5F5F5F5F5F5F5F5F5F5F5F5F5F5F5F5F5F5F5F5F5F5F5F5F5F5F5F5
310
F5F5F5F5F5F5F5F5F5F5F5F5F5F5F5F5F5F5F5F5F5F5F5F5F5F5F5F5F5F5F5F5F5F5F5F5F5F5F5F5E2E2EFEFEFEFEFEFEFEFEFEFEFEFEFEFEFEFEFEFE2F5F5F5F5F5F5F5F5F5F5F5F5F5F5F5F5F5F5F5F5F5F5F5F5F5F5F5F5F5F5F5F5F5F5F5F5F5F5F5F5F5F5F5F5F5F5F5F5F5F5F5F5F5F5F5F5F5F5F5F5F5F5F5F5F5F5
310
F5F5F5F5F5F5F5F5F5F5F5F5F5F5F5F5F5F5F5F5F5F5F5F5F5F5F5F5F5F5F5F5F5F5F5F5F5F5F5F5F5F5F5F5F5F5F5F5F5F5F5F5F5F5F5F5F5F5F5F5F5F5F5F5F5F5F5F5F5F5F5F5F5F5F5F5F5F5F5F5F5F5F5F5F5F5F5F5F5E2F5F5F5E2E2EFEFEFEFEFEFEFEFEFEFEFEFEFEFEFEFEFEFE2F5F5F5F5F5F5F5F5F5F5F5F5F5
310
F5F5F5F5F5F5F5F5F5F5F5F5F5F5F5F5F5F5F5F5F5F5F5F5F5F5F5F5F5F5F5F5F5F5F5F5F5F5F5F5F5F5F5F5F5F5F5F5F5F5F5F5F5F5F5F5F5F5F5F5F5F5F5F5F5F5F5F5F5F5F5F5F5F5F5F5F5F5F5F5F5F5F5F5F5F5F5F5F5F5F5F5F5F5F5F5F5F5F5F5F5F5F5F5F5F5F5F5F5F5F5F5F5F5F5F5F5F5F5F5F5F5F5F5F5F5F5
310
F5F5F5F5F5F5F5F5F5F5F5F5F5F5F5E2F5F5F5E2E2EFEFEFEFEFEFEFEFEFEFEFEFEFEFEFEFEFEFE2F5F5F5F5F5F5F5F5F5F5F5F5F5F5F5F5F5F5F5F5F5F5F5F5F5F5F5F5F5F5F5F5F5F5F5F5F5F5F5F5F5F5F5F5F5F5F5F5F5F5F5F5F5F5F5F5F5F5F5F5F5F5F5F5F5F5F5F5F5F5F5F5F5F5F5F5F5F5F5F5F5F5F5F5F5F5F5
310
F5F5F5F5F5F5F5F5F5F5F5F5F5F5F5F5F5F5F5F5F5F5F5F5F5F5F5F5F5F5F5F5F5F5F5F5F5F5F5F5F5F5F5F5F5F5F5F5F5F5F5F5F5F5F5F5F5F5F5F5F5F5F5F5F5F5F5F5E2F5F5F5E2E2EFEFEFEFEFEFEFEFEFEFEFEFEFEFEFEFEFEFE2F5F5F5F5F5F5F5F5F5F5F5F5F5F5F5F5F5F5F5F5F5F5F5F5F5F5F5F5F5F5F5F5F5F5
310
F5F5F5F5F5F5F5F5F5F5F5F5F5F5F5F5F5F5F5F5F5F5F5F5F5F5F5F5F5F5F5F5F5F5F5F5F5F5F5F5F5F5F5F5F5F5F5F5F5F5F5F5F5F5F5F5F5F5F5F5F5F5F5F5F5F5F5F5F5F5F5F5F5F5F5F5F5F5F5F5F5F5F5F5F5F5F5F5F5F5F5F5F5F5F5F5F5F5F5F5F5F5F5F5F5F5F5F5F5F5F5F5F5F5F5F5F5F5F5F5F5E2F5F5F5E2E2
310
EFEFEFEFEFEFEFEFEFEFEFEFEFEFEFEFEFEFE2F5F5F5F5F5F5F5F5F5F5F5F5F5F5F5F5F5F5F5F5F5F5F5F5F5F5F5F5F5F5F5F5F5F5F5F5F5F5F5F5F5F5F5F5F5F5F5F5F5F5F5F5F5F5F5F5F5F5F5F5F5F5F5F5F5F5F5F5F5F5F5F5F5F5F5F5F5F5F5F5F5F5F5F5F5F5F5F5F5F5F5F5F5F5F5F5F5F5F5F5F5F5F5F5F5F5F5F5
310
F5F5F5F5F5F5F5F5F5F5F5F5F5F5F5F5F5F5F5F5F5F5F5F5F5F5F5F5F5F5F5F5F5F5F5F5F5F5F5F5F5F5F5F5F5F5F5E2F5F5F5E2E2EFEFEFEFEFEFEFEFEFEFEFEFEFEFEFEFEFEFE2F5F5F5F5F5F5F5F5F5F5F5F5F5F5F5F5F5F5F5F5F5F5F5F5F5F5F5F5F5F5F5F5F5F5F5F5F5F5F5F5F5F5F5F5F5F5F5F5F5F5F5F5F5F5F5
310
F5F5F5F5F5F5F5F5F5F5F5F5F5F5F5F5F5F5F5F5F5F5F5F5F5F5F5F5F5F5F5F5F5F5F5F5F5F5F5F5F5F5F5F5F5F5F5F5F5F5F5F5F5F5F5F5F5F5F5F5F5F5F5F5F5F5F5F5F5F5F5F5F5F5F5F5F5F5F5F5F5F5F5F5F5F5F5F5F5F5F5F5F5F5F5F5F5F5F5F5E2F5F5F5E2E2EFEFEFEFEFEFEFEFEFEFEFEFEFEFEFEFEFEFE2F5F5
310
F5F5F5F5F5F5F5F5F5F5F5F5F5F5F5F5F5F5F5F5F5F5F5F5F5F5F5F5F5F5F5F5F5F5F5F5F5F5F5F5F5F5F5F5F5F5F5F5F5F5F5F5F5F5F5F5F5F5F5F5F5F5F5F5F5F5F5F5F5F5F5F5F5F5F5F5F5F5F5F5F5F5F5F5F5F5F5F5F5F5F5F5F5F5F5F5F5F5F5F5F5F5F5F5F5F5F5F5F5F5F5F5F5F5F5F5F5F5F5F5F5F5F5F5F5F5F5
310
F5F5F5F5F5F5F5F5F5F5F5F5F5F5F5F5F5F5F5F5F5F5F5F5F5F5E2F5F5F5E2E2EFEFEFEFEFEFEFEFEFEFEFEFEFEFEFEFEFEFE2F5F5F5F5F5F5F5F5F5F5F5F5F5F5F5F5F5F5F5F5F5F5F5F5F5F5F5F5F5F5F5F5F5F5F5F5F5F5F5F5F5F5F5F5F5F5F5F5F5F5F5F5F5F5F5F5F5F5F5F5F5F5F5F5F5F5F5F5F5F5F5F5F5F5F5F5
310
F5F5F5F5F5F5F5F5F5F5F5F5F5F5F5F5F5F5F5F5F5F5F5F5F5F5F5F5F5F5F5F5F5F5F5F5F5F5F5F5F5F5F5F5F5F5F5F5F5F5F5F5F5F5F5F5F5F5F5F5F5F5F5F5F5F5F5F5F5F5F5F5F5F5F5F5F5F5F5E2F5F5F5E2E2EFEFEFEFEFEFEFEFEFEFEFEFEFEFEFEFEFEFE2F5F5F5F5F5F5F5F5F5F5F5F5F5F5F5F5F5F5F5F5F5F5F5
310
F5F5F5F5F5F5F5F5F5F5F5F5F5F5F5F5F5F5F5F5F5F5F5F5F5F5F5F5F5F5F5F5F5F5F5F5F5F5F5F5F5F5F5F5F5F5F5F5F5F5F5F5F5F5F5F5F5F5F5F5F5F5F5F5F5F5F5F5F5F5F5F5F5F5F5F5F5F5F5F5F5F5F5F5F5F5F5F5F5F5F5F5F5F5F5F5F5F5F5F5F5F5F5F5F5F5F5F5F5F5F5F5F5F5F5F5F5F5F5F5F5F5F5F5F5F5F5
310
F5F5F5F5F5E2F5F5F5E2E2EFEFEFEFEFEFEFEFEFEFEFEFEFEFEFEFEFEFE2F5F5F5F5F5F5F5F5F5F5F5F5F5F5F5F5F5F5F5F5F5F5F5F5F5F5F5F5F5F5F5F5F5F5F5F5F5F5F5F5F5F5F5F5F5F5F5F5F5F5F5F5F5F5F5F5F5F5F5F5F5F5F5F5F5F5F5F5F5F5F5F5F5F5F5F5F5F5F5F5F5F5F5F5F5F5F5F5F5F5F5F5F5F5F5F5F5
310
F5F5F5F5F5F5F5F5F5F5F5F5F5F5F5F5F5F5F5F5F5F5F5F5F5F5F5F5F5F5F5F5F5F5F5F5F5F5F5F5F5F5F5F5F5F5F5F5F5F5F5F5F5F5F5F5F5F5E2F5F5F5E2E2EFEFEFEFEFEFEFEFEFEFEFEFEFEFEFEFEFEFE2F5F5F5F5F5F5F5F5F5F5F5F5F5F5F5F5F5F5F5F5F5F5F5F5F5F5F5F5F5F5F5F5F5F5F5F5F5F5F5F5F5F5F5F5
310
F5F5F5F5F5F5F5F5F5F5F5F5F5F5F5F5F5F5F5F5F5F5F5F5F5F5F5F5F5F5F5F5F5F5F5F5F5F5F5F5F5F5F5F5F5F5F5F5F5F5F5F5F5F5F5F5F5F5F5F5F5F5F5F5F5F5F5F5F5F5F5F5F5F5F5F5F5F5F5F5F5F5F5F5F5F5F5F5F5F5F5F5F5F5F5F5F5F5F5F5F5F5F5F5F5F5F5F5F5F5F5E2F5F5F5E2E2EFEFEFEFEFEFEFEFEFEF
310
EFEFEFEFEFEFEFEFE2F5F5F5F5F5F5F5F5F5F5F5F5F5F5F5F5F5F5F5F5F5F5F5F5F5F5F5F5F5F5F5F5F5F5F5F5F5F5F5F5F5F5F5F5F5F5F5F5F5F5F5F5F5F5F5F5F5F5F5F5F5F5F5F5F5F5F5F5F5F5F5F5F5F5F5F5F5F5F5F5F5F5F5F5F5F5F5F5F5F5F5F5F5F5F5F5F5F5F5F5F5F5F5F5F5F5F5F5F5F5F5F5F5F5F5F5F5F5
310
F5F5F5F5F5F5F5F5F5F5F5F5F5F5F5F5F5F5F5F5F5F5F5F5F5F5F5F5F5F5F5F5F5F5F5F5F5E2F5F5F5E2E2EFEFEFEFEFEFEFEFEFEFEFEFEFEFEFEFEFEFE2F5F5F5F5F5F5F5F5F5F5F5F5F5F5F5F5F5F5F5F5F5F5F5F5F5F5F5F5F5F5F5F5F5F5F5F5F5F5F5F5F5F5F5F5F5F5F5F5F5F5F5F5F5F5F5F5F5F5F5F5F5F5F5F5F5
310
F5F5F5F5F5F5F5F5F5F5F5F5F5F5F5F5F5F5F5F5F5F5F5F5F5F5F5F5F5F5F5F5F5F5F5F5F5F5F5F5F5F5F5F5F5F5F5F5F5F5F5F5F5F5F5F5F5F5F5F5F5F5F5F5F5F5F5F5F5F5F5F5F5F5F5F5F5F5F5F5F5F5F5F5F5F5F5F5F5F5E2F5F5F5E2E2EFEFEFEFEFEFEFEFEFEFEFEFEFEFEFEFEFEFE2F5F5F5F5F5F5F5F5F5F5F5F5
310
F5F5F5F5F5F5F5F5F5F5F5F5F5F5F5F5F5F5F5F5F5F5F5F5F5F5F5F5F5F5F5F5F5F5F5F5F5F5F5F5F5F5F5F5F5F5F5F5F5F5F5F5F5F5F5F5F5F5F5F5F5F5F5F5F5F5F5F5F5F5F5F5F5F5F5F5F5F5F5F5F5F5F5F5F5F5F5F5F5F5F5F5F5F5F5F5F5F5F5F5F5F5F5F5F5F5F5F5F5F5F5F5F5F5F5F5F5F5F5F5F5F5F5F5F5F5F5
310
F5F5F5F5F5F5F5F5F5F5F5F5F5F5F5F5E2F5F5F5E2E2EFEFEFEFEFEFEFEFEFEFEFEFEFEFEFEFEFEFE2F5F5F5F5F5F5F5F5F5F5F5F5F5F5F5F5F5F5F5F5F5F5F5F5F5F5F5F5F5F5F5F5F5F5F5F5F5F5F5F5F5F5F5F5F5F5F5F5F5F5F5F5F5F5F5F5F5F5F5F5F5F5F5F5F5F5F5F5F5F5F5F5F5F5F5F5F5F5F5F5F5F5F5F5F5F5
310
F5F5F5F5F5F5F5F5F5F5F5F5F5F5F5F5F5F5F5F5F5F5F5F5F5F5F5F5F5F5F5F5F5F5F5F5F5F5F5F5F5F5F5F5F5F5F5F5F5F5F5F5F5F5F5F5F5F5F5F5F5F5F5F5F5F5F5F5F5E2F5F5F5E2E2EFEFEFEFEFEFEFEFEFEFEFEFEFEFEFEFEFEFF5F5F5F5F5F5F5F5F5F5F5F5F5F5F5F5F5F5F5F5F5F5F5F5F5F5F5F5F5F5F5F5F5F5
310
F5F5F5F5F5F5F5F5F5F5F5F5F5F5F5F5F5F5F5F5F5F5F5F5F5F5F5F5F5F5F5F5F5F5F5F5F5F5F5F5F5F5F5F5F5F5F5F5F5F5F5F5F5F5F5F5F5F5F5F5F5F5F5F5F5F5F5F5F5F5F5F5F5F5F5F5F5F5F5F5F5F5F5F5F5F5F5F5F5F5F5F5F5F5F5F5F5F5F5F5F5F5F5F5F5F5F5F5F5F5F5F5F5F5F5F5F5F5F5F5F5F5F5F5F5F5E2
310
E2EFEFEFEFEFEFEFEFEFEFEFEFEFEFEFEFEFEFF5F5F5F5F5F5F5F5F5F5F5F5F5F5F5F5F5F5F5F5F5F5F5F5F5F5F5F5F5F5F5F5F5F5F5F5F5F5F5F5F5F5F5F5F5F5F5F5F5F5F5F5F5F5F5F5F5F5F5F5F5F5F5F5F5F5F5F5F5F5F5F5F5F5F5F5F5F5F5F5F5F5F5F5F5F5F5F5F5F5F5F5F5F5F5F5F5F5F5F5F5F5F5F5F5F5F5F5
310
F5F5F5F5F5F5F5F5F5F5F5F5F5F5F5F5F5F5F5F5F5F5F5F5F5F5F5F5F5F5F5F5F5F5F5F5F5F5F5F5F5F5F5F5F5F5F5F5F5F5F5F5E2E2EFEFEFEFEFEFEFEFEFEFEFEFEFEFEFEFEFEFF5F5F5F5F5F5F5F5F5F5F5F5F5F5F5F5F5F5F5F5F5F5F5F5F5F5F5F5F5F5F5F5F5F5F5F5F5F5F5F5F5F5F5F5F5F5F5F5F5F5F5F5F5F5F5
310
F5F5F5F5F5F5F5F5F5F5F5F5F5F5F5F5F5F5F5F5F5F5F5F5F5F5F5F5F5F5F5F5F5F5F5F5F5F5F5F5F5F5F5F5F5F5F5F5F5F5F5F5F5F5F5F5F5F5F5F5F5F5F5F5F5F5F5F5F5F5F5F5F5F5F5F5F5F5F5F5F5F5F5F5F5F5F5F5F5F5F5F5F5F5F5F5F5F5F5F5F5F5F5F5F5E2E2EFEFEFEFEFEFEFEFEFEFEFEFEFEFEFEFEFEFF5F5
310
F5F5F5F5F5F5F5F5F5F5F5F5F5F5F5F5F5F5F5F5F5F5F5F5F5F5F5F5F5F5F5F5F5F5F5F5F5F5F5F5F5F5F5F5F5F5F5F5F5F5F5F5F5F5F5F5F5F5F5F5F5F5F5F5F5F5F5F5F5F5F5F5F5F5F5F5F5F5F5F5F5F5F5F5F5F5F5F5F5F5F5F5F5F5F5F5F5F5F5F5F5F5F5F5F5F5F5F5F5F5F5F5F5F5F5F5F5F5F5F5F5F5F5F5F5F5F5
310
F5F5F5F5F5F5F5F5F5F5F5F5F5F5F5F5F5F5F5F5F5F5F5F5F5F5F5F5F5F5F5E2E2EFEFEFEFEFEFEFEFEFEFEFEFEFEFEFEFEFEFF5F5F5F5F5F5F5F5F5F5F5F5F5F5F5F5F5F5F5F5F5F5F5F5F5F5F5F5F5F5F5F5F5F5F5F5F5F5F5F5F5F5F5F5F5F5F5F5F5F5F5F5F5F5F5F5F5F5F5F5F5F5F5F5F5F5F5F5F5F5F5F5F5F5F5F5
310
F5F5F5F5F5F5F5F5F5F5F5F5F5F5F5F5F5F5F5F5F5F5F5F5F5F5F5F5F5F5F5F5F5F5F5F5F5F5F5F5F5F5F5F5F5F5F5F5F5F5F5F5F5F5F5F5F5F5F5F5F5F5F5F5F5F5F5F5F5F5F5F5F5F5F5F5F5F5F5F5F5F5F5F5E2E2EFEFEFEFEFEFEFEFEFEFEFEFEFEFEFEFEFEFF5F5F5F5F5F5F5F5F5F5F5F5F5F5F5F5F5F5F5F5F5F5F5
310
F5F5F5F5F5F5F5F5F5F5F5F5F5F5F5F5F5F5F5F5F5F5F5F5F5F5F5F5F5F5F5F5F5F5F5F5F5F5F5F5F5F5F5F5F5F5F5F5F5F5F5F5F5F5F5F5F5F5F5F5F5F5F5F5F5F5F5F5F5F5F5F5F5F5F5F5F5F5F5F5F5F5F5F5F5F5F5F5F5F5F5F5F5F5F5F5F5F5F5F5F5F5F5F5F5F5F5F5F5F5F5F5F5F5F5F5F5F5F5F5F5F5F5F5F5F5F5
310
F5F5F5F5F5F5F5F5F5F5E2E2EFEFEFEFEFEFEFEFEFEFEFEFEFEFEFEFEFEFF5F5F5F5F5F5F5F5F5F5F5F5F5F5F5F5F5F5F5F5F5F5F5F5F5F5F5F5F5F5F5F5F5F5F5F5F5F5F5F5F5F5F5F5F5F5F5F5F5F5F5F5F5F5F5F5F5F5F5F5F5F5F5F5F5F5F5F5F5F5F5F5F5F5F5F5F5F5F5F5F5F5F5F5F5F5F5F5F5F5F5F5F5F5F5F5F5
310
F5F5F5F5F5F5F5F5F5F5F5F5F5F5F5F5F5F5F5F5F5F5F5F5F5F5F5F5F5F5F5F5F5F5F5F5F5F5F5F5F5F5F5F5F5F5F5F5F5F5F5F5F5F5F5F5F5F5F5F5F5F5F5E2E2EFEFEFEFEFEFEFEFEFEFEFEFEFEFEFEFEFEFF5F5F5F5F5F5F5F5F5F5F5F5F5F5F5F5F5F5F5F5F5F5F5F5F5F5F5F5F5F5F5F5F5F5F5F5F5F5F5F5F5F5F5F5
310
F5F5F5F5F5F5F5F5F5F5F5F5F5F5F5F5F5F5F5F5F5F5F5F5F5F5F5F5F5F5F5F5F5F5F5F5F5F5F5F5F5F5F5F5F5F5F5F5F5F5F5F5F5F5F5F5F5F5F5F5F5F5F5F5F5F5F5F5F5F5F5F5F5F5F5F5F5F5F5F5F5F5F5F5F5F5F5F5F5F5F5F5F5F5F5F5F5F5F5F5F5F5F5F5F5F5F5F5F5F5F5F5F5F5F5F5E2E2EFEFEFEFEFEFEFEFEF
310
EFEFEFEFEFEFEFEFEFE2F5F5F5F5F5F5F5F5F5F5F5F5F5F5F5F5F5F5F5F5F5F5F5F5F5F5F5F5F5F5F5F5F5F5F5F5F5F5F5F5F5F5F5F5F5F5F5F5F5F5F5F5F5F5F5F5F5F5F5F5F5F5F5F5F5F5F5F5F5F5F5F5F5F5F5F5F5F5F5F5F5F5F5F5F5F5F5F5F5F5F5F5F5F5F5F5F5F5F5F5F5F5F5F5F5F5F5F5F5F5F5F5F5F5F5F5F5
310
F5F5F5F5F5F5F5F5F5F5F5F5F5F5F5F5F5F5F5F5F5F5F5F5F5F5F5F5F5F5F5F5F5F5F5F5F5F5E2F5F5F5E2E2EFEFEFEFEFEFEFEFEFEFEFEFEFEFEFEFEFEFE2F5F5F5F5F5F5F5F5F5F5F5F5F5F5F5F5F5F5F5F5F5F5F5F5F5F5F5F5F5F5F5F5F5F5F5F5F5F5F5F5F5F5F5F5F5F5F5F5F5F5F5F5F5F5F5F5F5F5F5F5F5F5F5F5
310
F5F5F5F5F5F5F5F5F5F5F5F5F5F5F5F5F5F5F5F5F5F5F5F5F5F5F5F5F5F5F5F5F5F5F5F5F5F5F5F5F5F5F5F5F5F5F5F5F5F5F5F5F5F5F5F5F5F5F5F5F5F5F5F5F5F5F5F5F5F5F5F5F5F5F5F5F5F5F5F5F5F5F5F5F5F5F5F5F5F5F5E2F5F5F5E2E2EFEFEFEFEFEFEFEFEFEFEFEFEFEFEFEFEFEFE2F5F5F5F5F5F5F5F5F5F5F5
310
F5F5F5F5F5F5F5F5F5F5F5F5F5F5F5F5F5F5F5F5F5F5F5F5F5F5F5F5F5F5F5F5F5F5F5F5F5F5F5F5F5F5F5F5F5F5F5F5F5F5F5F5F5F5F5F5F5F5F5F5F5F5F5F5F5F5F5F5F5F5F5F5F5F5F5F5F5F5F5F5F5F5F5F5F5F5F5F5F5F5F5F5F5F5F5F5F5F5F5F5F5F5F5F5F5F5F5F5F5F5F5F5F5F5F5F5F5F5F5F5F5F5F5F5F5F5F5
310
F5F5F5F5F5F5F5F5F5F5F5F5F5F5F5F5F5E2F5F5F5E2E2EFEFEFEFEFEFEFEFEFEFEFEFEFEFEFEFEFEFE2F5F5F5F5F5F5F5F5F5F5F5F5F5F5F5F5F5F5F5F5F5F5F5F5F5F5F5F5F5F5F5F5F5F5F5F5F5F5F5F5F5F5F5F5F5F5F5F5F5F5F5F5F5F5F5F5F5F5F5F5F5F5F5F5F5F5F5F5F5F5F5F5F5F5F5F5F5F5F5F5F5F5F5F5F5
310
F5F5F5F5F5F5F5F5F5F5F5F5F5F5F5F5F5F5F5F5F5F5F5F5F5F5F5F5F5F5F5F5F5F5F5F5F5F5F5F5F5F5F5F5F5F5F5F5F5F5F5F5F5F5F5F5F5F5F5F5F5F5F5F5F5F5F5F5F5F5E2F5F5F5E2E2EFEFEFEFEFEFEFEFEFEFEFEFEFEFEFEFEFEFE2F5F5F5F5F5F5F5F5F5F5F5F5F5F5F5F5F5F5F5F5F5F5F5F5F5F5F5F5F5F5F5F5
310
F5F5F5F5F5F5F5F5F5F5F5F5F5F5F5F5F5F5F5F5F5F5F5F5F5F5F5F5F5F5F5F5F5F5F5F5F5F5F5F5F5F5F5F5F5F5F5F5F5F5F5F5F5F5F5F5F5F5F5F5F5F5F5F5F5F5F5F5F5F5F5F5F5F5F5F5F5F5F5F5F5F5F5F5F5F5F5F5F5F5F5F5F5F5F5F5F5F5F5F5F5F5F5F5F5F5F5F5F5F5F5F5F5F5F5F5F5F5F5F5F5F5F5E2F5F5F5
310
E2E2EFEFEFEFEFEFEFEFEFEFEFEFEFEFEFEFEFEFE2F5F5F5F5F5F5F5F5F5F5F5F5F5F5F5F5F5F5F5F5F5F5F5F5F5F5F5F5F5F5F5F5F5F5F5F5F5F5F5F5F5F5F5F5F5F5F5F5F5F5F5F5F5F5F5F5F5F5F5F5F5F5F5F5F5F5F5F5F5F5F5F5F5F5F5F5F5F5F5F5F5F5F5F5F5F5F5F5F5F5F5F5F5F5F5F5F5F5F5F5F5F5F5F5F5F5
310
F5F5F5F5F5F5F5F5F5F5F5F5F5F5F5F5F5F5F5F5F5F5F5F5F5F5F5F5F5F5F5F5F5F5F5F5F5F5F5F5F5F5F5F5F5F5F5F5F5E2F5F5F5E2E2EFEFEFEFEFEFEFEFEFEFEFEFEFEFEFEFEFEFE2F5F5F5F5F5F5F5F5F5F5F5F5F5F5F5F5F5F5F5F5F5F5F5F5F5F5F5F5F5F5F5F5F5F5F5F5F5F5F5F5F5F5F5F5F5F5F5F5F5F5F5F5F5
310
F5F5F5F5F5F5F5F5F5F5F5F5F5F5F5F5F5F5F5F5F5F5F5F5F5F5F5F5F5F5F5F5F5F5F5F5F5F5F5F5F5F5F5F5F5F5F5F5F5F5F5F5F5F5F5F5F5F5F5F5F5F5F5F5F5F5F5F5F5F5F5F5F5F5F5F5F5F5F5F5F5F5F5F5F5F5F5F5F5F5F5F5F5F5F5F5F5F5F5F5F5F5E2F5F5F5E2E2EFEFEFEFEFEFEFEFEFEFEFEFEFEFEFEFEFEFE2
310
F5F5F5F5F5F5F5F5F5F5F5F5F5F5F5F5F5F5F5F5F5F5F5F5F5F5F5F5F5F5F5F5F5F5F5F5F5F5F5F5F5F5F5F5F5F5F5F5F5F5F5F5F5F5F5F5F5F5F5F5F5F5F5F5F5F5F5F5F5F5F5F5F5F5F5F5F5F5F5F5F5F5F5F5F5F5F5F5F5F5F5F5F5F5F5F5F5F5F5F5F5F5F5F5F5F5F5F5F5F5F5F5F5F5F5F5F5F5F5F5F5F5F5F5F5F5F5
310
F5F5F5F5F5F5F5F5F5F5F5F5F5F5F5F5F5F5F5F5F5F5F5F5F5F5F5F5E2F5F5F5E2E2EFEFEFEFEFEFEFEFEFEFEFEFEFEFEFEFEFEFE2F5F5F5F5F5F5F5F5F5F5F5F5F5F5F5F5F5F5F5F5F5F5F5F5F5F5F5F5F5F5F5F5F5F5F5F5F5F5F5F5F5F5F5F5F5F5F5F5F5F5F5F5F5F5F5F5F5F5F5F5F5F5F5F5F5F5F5F5F5F5F5F5F5F5
310
F5F5F5F5F5F5F5F5F5F5F5F5F5F5F5F5F5F5F5F5F5F5F5F5F5F5F5F5F5F5F5F5F5F5F5F5F5F5F5F5F5F5F5F5F5F5F5F5F5F5F5F5F5F5F5F5F5F5F5F5F5F5F5F5F5F5F5F5F5F5F5F5F5F5F5F5F5F5F5F5F5E2F5F5F5E2E2EFEFEFEFEFEFEFEFEFEFEFEFEFEFEFEFEFEFE2F5F5F5F5F5F5F5F5F5F5F5F5F5F5F5F5F5F5F5F5F5
310
F5F5F5F5F5F5F5F5F5F5F5F5F5F5F5F5F5F5F5F5F5F5F5F5F5F5F5F5F5F5F5F5F5F5F5F5F5F5F5F5F5F5F5F5F5F5F5F5F5F5F5F5F5F5F5F5F5F5F5F5F5F5F5F5F5F5F5F5F5F5F5F5F5F5F5F5F5F5F5F5F5F5F5F5F5F5F5F5F5F5F5F5F5F5F5F5F5F5F5F5F5F5F5F5F5F5F5F5F5F5F5F5F5F5F5F5F5F5F5F5F5F5F5F5F5F5F5
310
F5F5F5F5F5F5F5E2F5F5F5E2E2EFEFEFEFEFEFEFEFEFEFEFEFEFEFEFEFEFEFE2F5F5F5F5F5F5F5F5F5F5F5F5F5F5F5F5F5F5F5F5F5F5F5F5F5F5F5F5F5F5F5F5F5F5F5F5F5F5F5F5F5F5F5F5F5F5F5F5F5F5F5F5F5F5F5F5F5F5F5F5F5F5F5F5F5F5F5F5F5F5F5F5F5F5F5F5F5F5F5F5F5F5F5F5F5F5F5F5F5F5F5F5F5F5F5
310
F5F5F5F5F5F5F5F5F5F5F5F5F5F5F5F5F5F5F5F5F5F5F5F5F5F5F5F5F5F5F5F5F5F5F5F5F5F5F5F5F5F5F5F5F5F5F5F5F5F5F5F5F5F5F5F5F5F5F5F5E2F5F5F5E2E2EFEFEFEFEFEFEFEFEFEFEFEFEFEFEFEFEFEFE2F5F5F5F5F5F5F5F5F5F5F5F5F5F5F5F5F5F5F5F5F5F5F5F5F5F5F5F5F5F5F5F5F5F5F5F5F5F5F5F5F5F5
310
F5F5F5F5F5F5F5F5F5F5F5F5F5F5F5F5F5F5F5F5F5F5F5F5F5F5F5F5F5F5F5F5F5F5F5F5F5F5F5F5F5F5F5F5F5F5F5F5F5F5F5F5F5F5F5F5F5F5F5F5F5F5F5F5F5F5F5F5F5F5F5F5F5F5F5F5F5F5F5F5F5F5F5F5F5F5F5F5F5F5F5F5F5F5F5F5F5F5F5F5F5F5F5F5F5F5F5F5F5F5F5F5F5E2F5F5F5E2E2EFEFEFEFEFEFEFEF
310
EFEFEFEFEFEFEFEFEFEFE2F5F5F5F5F5F5F5F5F5F5F5F5F5F5F5F5F5F5F5F5F5F5F5F5F5F5F5F5F5F5F5F5F5F5F5F5F5F5F5F5F5F5F5F5F5F5F5F5F5F5F5F5F5F5F5F5F5F5F5F5F5F5F5F5F5F5F5F5F5F5F5F5F5F5F5F5F5F5F5F5F5F5F5F5F5F5F5F5F5F5F5F5F5F5F5F5F5F5F5F5F5F5F5F5F5F5F5F5F5F5F5F5F5F5F5F5
310
F5F5F5F5F5F5F5F5F5F5F5F5F5F5F5F5F5F5F5F5F5F5F5F5F5F5F5F5F5F5F5F5F5F5F5F5F5F5F5E2F5F5F5E2E2EFEFEFEFEFEFEFEFEFEFEFEFEFEFEFEFEFEFE2F5F5F5F5F5F5F5F5F5F5F5F5F5F5F5F5F5F5F5F5F5F5F5F5F5F5F5F5F5F5F5F5F5F5F5F5F5F5F5F5F5F5F5F5F5F5F5F5F5F5F5F5F5F5F5F5F5F5F5F5F5F5F5
310
F5F5F5F5F5F5F5F5F5F5F5F5F5F5F5F5F5F5F5F5F5F5F5F5F5F5F5F5F5F5F5F5F5F5F5F5F5F5F5F5F5F5F5F5F5F5F5F5F5F5F5F5F5F5F5F5F5F5F5F5F5F5F5F5F5F5F5F5F5F5F5F5F5F5F5F5F5F5F5F5F5F5F5F5F5F5F5F5F5F5F5F5E2F5F5F5E2E2EFEFEFEFEFEFEFEFEFEFEFEFEFEFEFEFEFEFE2F5F5F5F5F5F5F5F5F5F5
310
F5F5F5F5F5F5F5F5F5F5F5F5F5F5F5F5F5F5F5F5F5F5F5F5F5F5F5F5F5F5F5F5F5F5F5F5F5F5F5F5F5F5F5F5F5F5F5F5F5F5F5F5F5F5F5F5F5F5F5F5F5F5F5F5F5F5F5F5F5F5F5F5F5F5F5F5F5F5F5F5F5F5F5F5F5F5F5F5F5F5F5F5F5F5F5F5F5F5F5F5F5F5F5F5F5F5F5F5F5F5F5F5F5F5F5F5F5F5F5F5F5F5F5F5F5F5F5
310
F5F5F5F5F5F5F5F5F5F5F5F5F5F5F5F5F5F5E2F5F5F5E2E2EFEFEFEFEFEFEFEFEFEFEFEFEFEFEFEFEFEFE2F5F5F5F5F5F5F5F5F5F5F5F5F5F5F5F5F5F5F5F5F5F5F5F5F5F5F5F5F5F5F5F5F5F5F5F5F5F5F5F5F5F5F5F5F5F5F5F5F5F5F5F5F5F5F5F5F5F5F5F5F5F5F5F5F5F5F5F5F5F5F5F5F5F5F5F5F5F5F5F5F5F5F5F5
310
F5F5F5F5F5F5F5F5F5F5F5F5F5F5F5F5F5F5F5F5F5F5F5F5F5F5F5F5F5F5F5F5F5F5F5F5F5F5F5F5F5F5F5F5F5F5F5F5F5F5F5F5F5F5F5F5F5F5F5F5F5F5F5F5F5F5F5F5F5F5F5E2F5F5F5E2E2EFEFEFEFEFEFEFEFEFEFEFEFEFEFEFEFEFEFF5F5F5F5F5F5F5F5F5F5F5F5F5F5F5F5F5F5F5F5F5F5F5F5F5F5F5F5F5F5F5F5
310
F5F5F5F5F5F5F5F5F5F5F5F5F5F5F5F5F5F5F5F5F5F5F5F5F5F5F5F5F5F5F5F5F5F5F5F5F5F5F5F5F5F5F5F5F5F5F5F5F5F5F5F5F5F5F5F5F5F5F5F5F5F5F5F5F5F5F5F5F5F5F5F5F5F5F5F5F5F5F5F5F5F5F5F5F5F5F5F5F5F5F5F5F5F5F5F5F5F5F5F5F5F5F5F5F5F5F5F5F5F5F5F5F5F5F5F5F5F5F5F5F5F5F5F5F5F5F5
310
F5E2E2EFEFEFEFEFEFEFEFEFEFEFEFEFEFEFEFEFEFF5F5F5F5F5F5F5F5F5F5F5F5F5F5F5F5F5F5F5F5F5F5F5F5F5F5F5F5F5F5F5F5F5F5F5F5F5F5F5F5F5F5F5F5F5F5F5F5F5F5F5F5F5F5F5F5F5F5F5F5F5F5F5F5F5F5F5F5F5F5F5F5F5F5F5F5F5F5F5F5F5F5F5F5F5F5F5F5F5F5F5F5F5F5F5F5F5F5F5F5F5F5F5F5F5F5
310
F5F5F5F5F5F5F5F5F5F5F5F5F5F5F5F5F5F5F5F5F5F5F5F5F5F5F5F5F5F5F5F5F5F5F5F5F5F5F5F5F5F5F5F5F5F5F5F5F5F5F5F5F5F5E2E2EFEFEFEFEFEFEFEFEFEFEFEFEFEFEFEFEFEFF5F5F5F5F5F5F5F5F5F5F5F5F5F5F5F5F5F5F5F5F5F5F5F5F5F5F5F5F5F5F5F5F5F5F5F5F5F5F5F5F5F5F5F5F5F5F5F5F5F5F5F5F5
310
F5F5F5F5F5F5F5F5F5F5F5F5F5F5F5F5F5F5F5F5F5F5F5F5F5F5F5F5F5F5F5F5F5F5F5F5F5F5F5F5F5F5F5F5F5F5F5F5F5F5F5F5F5F5F5F5F5F5F5F5F5F5F5F5F5F5F5F5F5F5F5F5F5F5F5F5F5F5F5F5F5F5F5F5F5F5F5F5F5F5F5F5F5F5F5F5F5F5F5F5F5F5F5F5F5F5F5E2E2EFEFEFEFEFEFEFEFEFEFEFEFEFEFEFEFEFEF
310
F5F5F5F5F5F5F5F5F5F5F5F5F5F5F5F5F5F5F5F5F5F5F5F5F5F5F5F5F5F5F5F5F5F5F5F5F5F5F5F5F5F5F5F5F5F5F5F5F5F5F5F5F5F5F5F5F5F5F5F5F5F5F5F5F5F5F5F5F5F5F5F5F5F5F5F5F5F5F5F5F5F5F5F5F5F5F5F5F5F5F5F5F5F5F5F5F5F5F5F5F5F5F5F5F5F5F5F5F5F5F5F5F5F5F5F5F5F5F5F5F5F5F5F5F5F5F5
310
F5F5F5F5F5F5F5F5F5F5F5F5F5F5F5F5F5F5F5F5F5F5F5F5F5F5F5F5F5F5F5F5F5E2E2EFEFEFEFEFEFEFEFEFEFEFEFEFEFEFEFEFEFF5F5F5F5F5F5F5F5F5F5F5F5F5F5F5F5F5F5F5F5F5F5F5F5F5F5F5F5F5F5F5F5F5F5F5F5F5F5F5F5F5F5F5F5F5F5F5F5F5F5F5F5F5F5F5F5F5F5F5F5F5F5F5F5F5F5F5F5F5F5F5F5F5F5
310
F5F5F5F5F5F5F5F5F5F5F5F5F5F5F5F5F5F5F5F5F5F5F5F5F5F5F5F5F5F5F5F5F5F5F5F5F5F5F5F5F5F5F5F5F5F5F5F5F5F5F5F5F5F5F5F5F5F5F5F5F5F5F5F5F5F5F5F5F5F5F5F5F5F5F5F5F5F5F5F5F5F5F5F5F5F5E2E2EFEFEFEFEFEFEFEFEFEFEFEFEFEFEFEFEFEFF5F5F5F5F5F5F5F5F5F5F5F5F5F5F5F5F5F5F5F5F5
310
F5F5F5F5F5F5F5F5F5F5F5F5F5F5F5F5F5F5F5F5F5F5F5F5F5F5F5F5F5F5F5F5F5F5F5F5F5F5F5F5F5F5F5F5F5F5F5F5F5F5F5F5F5F5F5F5F5F5F5F5F5F5F5F5F5F5F5F5F5F5F5F5F5F5F5F5F5F5F5F5F5F5F5F5F5F5F5F5F5F5F5F5F5F5F5F5F5F5F5F5F5F5F5F5F5F5F5F5F5F5F5F5F5F5F5F5F5F5F5F5F5F5F5F5F5F5F5
310
F5F5F5F5F5F5F5F5F5F5F5F5E2E2EFEFEFEFEFEFEFEFEFEFEFEFEFEFEFEFEFEFF5F5F5F5F5F5F5F5F5F5F5F5F5F5F5F5F5F5F5F5F5F5F5F5F5F5F5F5F5F5F5F5F5F5F5F5F5F5F5F5F5F5F5F5F5F5F5F5F5F5F5F5F5F5F5F5F5F5F5F5F5F5F5F5F5F5F5F5F5F5F5F5F5F5F5F5F5F5F5F5F5F5F5F5F5F5F5F5F5F5F5F5F5F5F5
310
F5F5F5F5F5F5F5F5F5F5F5F5F5F5F5F5F5F5F5F5F5F5F5F5F5F5F5F5F5F5F5F5F5F5F5F5F5F5F5F5F5F5F5F5F5F5F5F5F5F5F5F5F5F5F5F5F5F5F5F5F5F5F5F5F5E2E2EFEFEFEFEFEFEFEFEFEFEFEFEFEFEFEFEFEFF5F5F5F5F5F5F5F5F5F5F5F5F5F5F5F5F5F5F5F5F5F5F5F5F5F5F5F5F5F5F5F5F5F5F5F5F5F5F5F5F5F5
310
F5F5F5F5F5F5F5F5F5F5F5F5F5F5F5F5F5F5F5F5F5F5F5F5F5F5F5F5F5F5F5F5F5F5F5F5F5F5F5F5F5F5F5F5F5F5F5F5F5F5F5F5F5F5F5F5F5F5F5F5F5F5F5F5F5F5F5F5F5F5F5F5F5F5F5F5F5F5F5F5F5F5F5F5F5F5F5F5F5F5F5F5F5F5F5F5F5F5F5F5F5F5F5F5F5F5F5F5F5F5F5F5F5F5F5F5F5F5E2E2EFEFEFEFEFEFEF
310
EFEFEFEFEFEFEFEFEFEFEFE2F5F5F5F5F5F5F5F5F5F5F5F5F5F5F5F5F5F5F5F5F5F5F5F5F5F5F5F5F5F5F5F5F5F5F5F5F5F5F5F5F5F5F5F5F5F5F5F5F5F5F5F5F5F5F5F5F5F5F5F5F5F5F5F5F5F5F5F5F5F5F5F5F5F5F5F5F5F5F5F5F5F5F5F5F5F5F5F5F5F5F5F5F5F5F5F5F5F5F5F5F5F5F5F5F5F5F5F5F5F5F5F5F5F5F5
310
F5F5F5F5F5F5F5F5F5F5F5F5F5F5F5F5F5F5F5F5F5F5F5F5F5F5F5F5F5F5F5F5F5F5F5F5F5F5F5F5E2F5F5F5E2E2EFEFEFEFEFEFEFEFEFEFEFEFEFEFEFEFEFEFE2F5F5F5F5F5F5F5F5F5F5F5F5F5F5F5F5F5F5F5F5F5F5F5F5F5F5F5F5F5F5F5F5F5F5F5F5F5F5F5F5F5F5F5F5F5F5F5F5F5F5F5F5F5F5F5F5F5F5F5F5F5F5
310
F5F5F5F5F5F5F5F5F5F5F5F5F5F5F5F5F5F5F5F5F5F5F5F5F5F5F5F5F5F5F5F5F5F5F5F5F5F5F5F5F5F5F5F5F5F5F5F5F5F5F5F5F5F5F5F5F5F5F5F5F5F5F5F5F5F5F5F5F5F5F5F5F5F5F5F5F5F5F5F5F5F5F5F5F5F5F5F5F5F5F5F5F5E2F5F5F5E2E2EFEFEFEFEFEFEFEFEFEFEFEFEFEFEFEFEFEFE2F5F5F5F5F5F5F5F5F5
310
F5F5F5F5F5F5F5F5F5F5F5F5F5F5F5F5F5F5F5F5F5F5F5F5F5F5F5F5F5F5F5F5F5F5F5F5F5F5F5F5F5F5F5F5F5F5F5F5F5F5F5F5F5F5F5F5F5F5F5F5F5F5F5F5F5F5F5F5F5F5F5F5F5F5F5F5F5F5F5F5F5F5F5F5F5F5F5F5F5F5F5F5F5F5F5F5F5F5F5F5F5F5F5F5F5F5F5F5F5F5F5F5F5F5F5F5F5F5F5F5F5F5F5F5F5F5F5
310
F5F5F5F5F5F5F5F5F5F5F5F5F5F5F5F5F5F5F5E2F5F5F5E2E2EFEFEFEFEFEFEFEFEFEFEFEFEFEFEFEFEFEFE2F5F5F5F5F5F5F5F5F5F5F5F5F5F5F5F5F5F5F5F5F5F5F5F5F5F5F5F5F5F5F5F5F5F5F5F5F5F5F5F5F5F5F5F5F5F5F5F5F5F5F5F5F5F5F5F5F5F5F5F5F5F5F5F5F5F5F5F5F5F5F5F5F5F5F5F5F5F5F5F5F5F5F5
310
F5F5F5F5F5F5F5F5F5F5F5F5F5F5F5F5F5F5F5F5F5F5F5F5F5F5F5F5F5F5F5F5F5F5F5F5F5F5F5F5F5F5F5F5F5F5F5F5F5F5F5F5F5F5F5F5F5F5F5F5F5F5F5F5F5F5F5F5F5F5F5F5E2F5F5F5E2E2EFEFEFEFEFEFEFEFEFEFEFEFEFEFEFEFEFEFE2F5F5F5F5F5F5F5F5F5F5F5F5F5F5F5F5F5F5F5F5F5F5F5F5F5F5F5F5F5F5
310
F5F5F5F5F5F5F5F5F5F5F5F5F5F5F5F5F5F5F5F5F5F5F5F5F5F5F5F5F5F5F5F5F5F5F5F5F5F5F5F5F5F5F5F5F5F5F5F5F5F5F5F5F5F5F5F5F5F5F5F5F5F5F5F5F5F5F5F5F5F5F5F5F5F5F5F5F5F5F5F5F5F5F5F5F5F5F5F5F5F5F5F5F5F5F5F5F5F5F5F5F5F5F5F5F5F5F5F5F5F5F5F5F5F5F5F5F5F5F5F5F5F5F5F5F5E2F5
310
F5F5E2E2EFEFEFEFEFEFEFEFEFEFEFEFEFEFEFEFEFEFE2F5F5F5F5F5F5F5F5F5F5F5F5F5F5F5F5F5F5F5F5F5F5F5F5F5F5F5F5F5F5F5F5F5F5F5F5F5F5F5F5F5F5F5F5F5F5F5F5F5F5F5F5F5F5F5F5F5F5F5F5F5F5F5F5F5F5F5F5F5F5F5F5F5F5F5F5F5F5F5F5F5F5F5F5F5F5F5F5F5F5F5F5F5F5F5F5F5F5F5F5F5F5F5F5
310
F5F5F5F5F5F5F5F5F5F5F5F5F5F5F5F5F5F5F5F5F5F5F5F5F5F5F5F5F5F5F5F5F5F5F5F5F5F5F5F5F5F5F5F5F5F5F5F5F5F5F5E2F5F5F5E2E2EFEFEFEFEFEFEFEFEFEFEFEFEFEFEFEFEFEFE2F5F5F5F5F5F5F5F5F5F5F5F5F5F5F5F5F5F5F5F5F5F5F5F5F5F5F5F5F5F5F5F5F5F5F5F5F5F5F5F5F5F5F5F5F5F5F5F5F5F5F5
310
F5F5F5F5F5F5F5F5F5F5F5F5F5F5F5F5F5F5F5F5F5F5F5F5F5F5F5F5F5F5F5F5F5F5F5F5F5F5F5F5F5F5F5F5F5F5F5F5F5F5F5F5F5F5F5F5F5F5F5F5F5F5F5F5F5F5F5F5F5F5F5F5F5F5F5F5F5F5F5F5F5F5F5F5F5F5F5F5F5F5F5F5F5F5F5F5F5F5F5F5F5F5F5F5E2F5F5F5E2E2EFEFEFEFEFEFEFEFEFEFEFEFEFEFEFEFEF
310
EFE2F5F5F5F5F5F5F5F5F5F5F5F5F5F5F5F5F5F5F5F5F5F5F5F5F5F5F5F5F5F5F5F5F5F5F5F5F5F5F5F5F5F5F5F5F5F5F5F5F5F5F5F5F5F5F5F5F5F5F5F5F5F5F5F5F5F5F5F5F5F5F5F5F5F5F5F5F5F5F5F5F5F5F5F5F5F5F5F5F5F5F5F5F5F5F5F5F5F5F5F5F5F5F5F5F5F5F5F5F5F5F5F5F5F5F5F5F5F5F5F5F5F5F5F5F5
310
F5F5F5F5F5F5F5F5F5F5F5F5F5F5F5F5F5F5F5F5F5F5F5F5F5F5F5F5F5F5E2F5F5F5E2E2EFEFEFEFEFEFEFEFEFEFEFEFEFEFEFEFEFEFE2F5F5F5F5F5F5F5F5F5F5F5F5F5F5F5F5F5F5F5F5F5F5F5F5F5F5F5F5F5F5F5F5F5F5F5F5F5F5F5F5F5F5F5F5F5F5F5F5F5F5F5F5F5F5F5F5F5F5F5F5F5F5F5F5F5F5F5F5F5F5F5F5
310
F5F5F5F5F5F5F5F5F5F5F5F5F5F5F5F5F5F5F5F5F5F5F5F5F5F5F5F5F5F5F5F5F5F5F5F5F5F5F5F5F5F5F5F5F5F5F5F5F5F5F5F5F5F5F5F5F5F5F5F5F5F5F5F5F5F5F5F5F5F5F5F5F5F5F5F5F5F5F5F5F5F5F5E2F5F5F5E2E2EFEFEFEFEFEFEFEFEFEFEFEFEFEFEFEFEFEFE2F5F5F5F5F5F5F5F5F5F5F5F5F5F5F5F5F5F5F5
310
F5F5F5F5F5F5F5F5F5F5F5F5F5F5F5F5F5F5F5F5F5F5F5F5F5F5F5F5F5F5F5F5F5F5F5F5F5F5F5F5F5F5F5F5F5F5F5F5F5F5F5F5F5F5F5F5F5F5F5F5F5F5F5F5F5F5F5F5F5F5F5F5F5F5F5F5F5F5F5F5F5F5F5F5F5F5F5F5F5F5F5F5F5F5F5F5F5F5F5F5F5F5F5F5F5F5F5F5F5F5F5F5F5F5F5F5F5F5F5F5F5F5F5F5F5F5F5
310
F5F5F5F5F5F5F5F5F5E2F5F5F5E2E2EFEFEFEFEFEFEFEFEFEFEFEFEFEFEFEFEFEFE2F5F5F5F5F5F5F5F5F5F5F5F5F5F5F5F5F5F5F5F5F5F5F5F5F5F5F5F5F5F5F5F5F5F5F5F5F5F5F5F5F5F5F5F5F5F5F5F5F5F5F5F5F5F5F5F5F5F5F5F5F5F5F5F5F5F5F5F5F5F5F5F5F5F5F5F5F5F5F5F5F5F5F5F5F5F5F5F5F5F5F5F5F5
310
F5F5F5F5F5F5F5F5F5F5F5F5F5F5F5F5F5F5F5F5F5F5F5F5F5F5F5F5F5F5F5F5F5F5F5F5F5F5F5F5F5F5F5F5F5F5F5F5F5F5F5F5F5F5F5F5F5F5F5F5F5F5E2F5F5F5E2E2EFEFEFEFEFEFEFEFEFEFEFEFEFEFEFEFEFEFE2F5F5F5F5F5F5F5F5F5F5F5F5F5F5F5F5F5F5F5F5F5F5F5F5F5F5F5F5F5F5F5F5F5F5F5F5F5F5F5F5
310
F5F5F5F5F5F5F5F5F5F5F5F5F5F5F5F5F5F5F5F5F5F5F5F5F5F5F5F5F5F5F5F5F5F5F5F5F5F5F5F5F5F5F5F5F5F5F5F5F5F5F5F5F5F5F5F5F5F5F5F5F5F5F5F5F5F5F5F5F5F5F5F5F5F5F5F5F5F5F5F5F5F5F5F5F5F5F5F5F5F5F5F5F5F5F5F5F5F5F5F5F5F5F5F5F5F5F5F5F5F5F5F5F5F5F5E2F5F5F5E2E2EFEFEFEFEFEF
310
EFEFEFEFEFEFEFEFEFEFEFEFE2F5F5F5F5F5F5F5F5F5F5F5F5F5F5F5F5F5F5F5F5F5F5F5F5F5F5F5F5F5F5F5F5F5F5F5F5F5F5F5F5F5F5F5F5F5F5F5F5F5F5F5F5F5F5F5F5F5F5F5F5F5F5F5F5F5F5F5F5F5F5F5F5F5F5F5F5F5F5F5F5F5F5F5F5F5F5F5F5F5F5F5F5F5F5F5F5F5F5F5F5F5F5F5F5F5F5F5F5F5F5F5F5F5F5
310
F5F5F5F5F5F5F5F5F5F5F5F5F5F5F5F5F5F5F5F5F5F5F5F5F5F5F5F5F5F5F5F5F5F5F5F5F5F5F5F5F5E2F5F5F5E2E2EFEFEFEFEFEFEFEFEFEFEFEFEFEFEFEFEFEFE2F5F5F5F5F5F5F5F5F5F5F5F5F5F5F5F5F5F5F5F5F5F5F5F5F5F5F5F5F5F5F5F5F5F5F5F5F5F5F5F5F5F5F5F5F5F5F5F5F5F5F5F5F5F5F5F5F5F5F5F5F5
310
F5F5F5F5F5F5F5F5F5F5F5F5F5F5F5F5F5F5F5F5F5F5F5F5F5F5F5F5F5F5F5F5F5F5F5F5F5F5F5F5F5F5F5F5F5F5F5F5F5F5F5F5F5F5F5F5F5F5F5F5F5F5F5F5F5F5F5F5F5F5F5F5F5F5F5F5F5F5F5F5F5F5F5F5F5F5F5F5F5F5F5F5F5F5E2F5F5F5E2E2EFEFEFEFEFEFEFEFEFEFEFEFEFEFEFEFEFEFE2F5F5F5F5F5F5F5F5
310
F5F5F5F5F5F5F5F5F5F5F5F5F5F5F5F5F5F5F5F5F5F5F5F5F5F5F5F5F5F5F5F5F5F5F5F5F5F5F5F5F5F5F5F5F5F5F5F5F5F5F5F5F5F5F5F5F5F5F5F5F5F5F5F5F5F5F5F5F5F5F5F5F5F5F5F5F5F5F5F5F5F5F5F5F5F5F5F5F5F5F5F5F5F5F5F5F5F5F5F5F5F5F5F5F5F5F5F5F5F5F5F5F5F5F5F5F5F5F5F5F5F5F5F5F5F5F5
310
F5F5F5F5F5F5F5F5F5F5F5F5F5F5F5F5F5F5F5F5E2F5F5F5E2E2EFEFEFEFEFEFEFEFEFEFEFEFEFEFEFEFEFEFE2F5F5F5F5F5F5F5F5F5F5F5F5F5F5F5F5F5F5F5F5F5F5F5F5F5F5F5F5F5F5F5F5F5F5F5F5F5F5F5F5F5F5F5F5F5F5F5F5F5F5F5F5F5F5F5F5F5F5F5F5F5F5F5F5F5F5F5F5F5F5F5F5F5F5F5F5F5F5F5F5F5F5
310
F5F5F5F5F5F5F5F5F5F5F5F5F5F5F5F5F5F5F5F5F5F5F5F5F5F5F5F5F5F5F5F5F5F5F5F5F5F5F5F5F5F5F5F5F5F5F5F5F5F5F5F5F5F5F5F5F5F5F5F5F5F5F5F5F5F5F5F5F5F5F5F5F5E2F5F5F5E2E2EFEFEFEFEFEFEFEFEFEFEFEFEFEFEFEFEFEFF5F5F5F5F5F5F5F5F5F5F5F5F5F5F5F5F5F5F5F5F5F5F5F5F5F5F5F5F5F5
310
F5F5F5F5F5F5F5F5F5F5F5F5F5F5F5F5F5F5F5F5F5F5F5F5F5F5F5F5F5F5F5F5F5F5F5F5F5F5F5F5F5F5F5F5F5F5F5F5F5F5F5F5F5F5F5F5F5F5F5F5F5F5F5F5F5F5F5F5F5F5F5F5F5F5F5F5F5F5F5F5F5F5F5F5F5F5F5F5F5F5F5F5F5F5F5F5F5F5F5F5F5F5F5F5F5F5F5F5F5F5F5F5F5F5F5F5F5F5F5F5F5F5F5F5F5F5F5
310
F5F5F5E2E2EFEFEFEFEFEFEFEFEFEFEFEFEFEFEFEFEFEFF5F5F5F5F5F5F5F5F5F5F5F5F5F5F5F5F5F5F5F5F5F5F5F5F5F5F5F5F5F5F5F5F5F5F5F5F5F5F5F5F5F5F5F5F5F5F5F5F5F5F5F5F5F5F5F5F5F5F5F5F5F5F5F5F5F5F5F5F5F5F5F5F5F5F5F5F5F5F5F5F5F5F5F5F5F5F5F5F5F5F5F5F5F5F5F5F5F5F5F5F5F5F5F5
310
F5F5F5F5F5F5F5F5F5F5F5F5F5F5F5F5F5F5F5F5F5F5F5F5F5F5F5F5F5F5F5F5F5F5F5F5F5F5F5F5F5F5F5F5F5F5F5F5F5F5F5F5F5F5F5F5E2E2EFEFEFEFEFEFEFEFEFEFEFEFEFEFEFEFEFEFF5F5F5F5F5F5F5F5F5F5F5F5F5F5F5F5F5F5F5F5F5F5F5F5F5F5F5F5F5F5F5F5F5F5F5F5F5F5F5F5F5F5F5F5F5F5F5F5F5F5F5
310
F5F5F5F5F5F5F5F5F5F5F5F5F5F5F5F5F5F5F5F5F5F5F5F5F5F5F5F5F5F5F5F5F5F5F5F5F5F5F5F5F5F5F5F5F5F5F5F5F5F5F5F5F5F5F5F5F5F5F5F5F5F5F5F5F5F5F5F5F5F5F5F5F5F5F5F5F5F5F5F5F5F5F5F5F5F5F5F5F5F5F5F5F5F5F5F5F5F5F5F5F5F5F5F5F5F5F5F5F5E2E2EFEFEFEFEFEFEFEFEFEFEFEFEFEFEFEF
310
EFEFF5F5F5F5F5F5F5F5F5F5F5F5F5F5F5F5F5F5F5F5F5F5F5F5F5F5F5F5F5F5F5F5F5F5F5F5F5F5F5F5F5F5F5F5F5F5F5F5F5F5F5F5F5F5F5F5F5F5F5F5F5F5F5F5F5F5F5F5F5F5F5F5F5F5F5F5F5F5F5F5F5F5F5F5F5F5F5F5F5F5F5F5F5F5F5F5F5F5F5F5F5F5F5F5F5F5F5F5F5F5F5F5F5F5F5F5F5F5F5F5F5F5F5F5F5
310
F5F5F5F5F5F5F5F5F5F5F5F5F5F5F5F5F5F5F5F5F5F5F5F5F5F5F5F5F5F5F5F5F5F5F5E2E2EFEFEFEFEFEFEFEFEFEFEFEFEFEFEFEFEFEFF5F5F5F5F5F5F5F5F5F5F5F5F5F5F5F5F5F5F5F5F5F5F5F5F5F5F5F5F5F5F5F5F5F5F5F5F5F5F5F5F5F5F5F5F5F5F5F5F5F5F5F5F5F5F5F5F5F5F5F5F5F5F5F5F5F5F5F5F5F5F5F5
310
F5F5F5F5F5F5F5F5F5F5F5F5F5F5F5F5F5F5F5F5F5F5F5F5F5F5F5F5F5F5F5F5F5F5F5F5F5F5F5F5F5F5F5F5F5F5F5F5F5F5F5F5F5F5F5F5F5F5F5F5F5F5F5F5F5F5F5F5F5F5F5F5F5F5F5F5F5F5F5F5F5F5F5F5F5F5F5F5E2E2EFEFEFEFEFEFEFEFEFEFEFEFEFEFEFEFEFEFF5F5F5F5F5F5F5F5F5F5F5F5F5F5F5F5F5F5F5
310
F5F5F5F5F5F5F5F5F5F5F5F5F5F5F5F5F5F5F5F5F5F5F5F5F5F5F5F5F5F5F5F5F5F5F5F5F5F5F5F5F5F5F5F5F5F5F5F5F5F5F5F5F5F5F5F5F5F5F5F5F5F5F5F5F5F5F5F5F5F5F5F5F5F5F5F5F5F5F5F5F5F5F5F5F5F5F5F5F5F5F5F5F5F5F5F5F5F5F5F5F5F5F5F5F5F5F5F5F5F5F5F5F5F5F5F5F5F5F5F5F5F5F5F5F5F5F5
310
F5F5F5F5F5F5F5F5F5F5F5F5F5F5E2E2EFEFEFEFEFEFEFEFEFEFEFEFEFEFEFEFEFEFF5F5F5F5F5F5F5F5F5F5F5F5F5F5F5F5F5F5F5F5F5F5F5F5F5F5F5F5F5F5F5F5F5F5F5F5F5F5F5F5F5F5F5F5F5F5F5F5F5F5F5F5F5F5F5F5F5F5F5F5F5F5F5F5F5F5F5F5F5F5F5F5F5F5F5F5F5F5F5F5F5F5F5F5F5F5F5F5F5F5F5F5F5
310
F5F5F5F5F5F5F5F5F5F5F5F5F5F5F5F5F5F5F5F5F5F5F5F5F5F5F5F5F5F5F5F5F5F5F5F5F5F5F5F5F5F5F5F5F5F5F5F5F5F5F5F5F5F5F5F5F5F5F5F5F5F5F5F5F5F5F5E2E2EFEFEFEFEFEFEFEFEFEFEFEFEFEFEFEFEFEFF5F5F5F5F5F5F5F5F5F5F5F5F5F5F5F5F5F5F5F5F5F5F5F5F5F5F5F5F5F5F5F5F5F5F5F5F5F5F5F5
310
F5F5F5F5F5F5F5F5F5F5F5F5F5F5F5F5F5F5F5F5F5F5F5F5F5F5F5F5F5F5F5F5F5F5F5F5F5F5F5F5F5F5F5F5F5F5F5F5F5F5F5F5F5F5F5F5F5F5F5F5F5F5F5F5F5F5F5F5F5F5F5F5F5F5F5F5F5F5F5F5F5F5F5F5F5F5F5F5F5F5F5F5F5F5F5F5F5F5F5F5F5F5F5F5F5F5F5F5F5F5F5F5F5F5F5F5F5F5F5F5E2E2EFEFEFEFEF
310
EFEFEFEFEFEFEFEFEFEFEFEFEFE2F5F5F5F5F5F5F5F5F5F5F5F5F5F5F5F5F5F5F5F5F5F5F5F5F5F5F5F5F5F5F5F5F5F5F5F5F5F5F5F5F5F5F5F5F5F5F5F5F5F5F5F5F5F5F5F5F5F5F5F5F5F5F5F5F5F5F5F5F5F5F5F5F5F5F5F5F5F5F5F5F5F5F5F5F5F5F5F5F5F5F5F5F5F5F5F5F5F5F5F5F5F5F5F5F5F5F5F5F5F5F5F5F5
310
F5F5F5F5F5F5F5F5F5F5F5F5F5F5F5F5F5F5F5F5F5F5F5F5F5F5F5F5F5F5F5F5F5F5F5F5F5F5F5F5F5F5E2F5F5F5E2E2EFEFEFEFEFEFEFEFEFEFEFEFEFEFEFEFEFEFE2F5F5F5F5F5F5F5F5F5F5F5F5F5F5F5F5F5F5F5F5F5F5F5F5F5F5F5F5F5F5F5F5F5F5F5F5F5F5F5F5F5F5F5F5F5F5F5F5F5F5F5F5F5F5F5F5F5F5F5F5
310
F5F5F5F5F5F5F5F5F5F5F5F5F5F5F5F5F5F5F5F5F5F5F5F5F5F5F5F5F5F5F5F5F5F5F5F5F5F5F5F5F5F5F5F5F5F5F5F5F5F5F5F5F5F5F5F5F5F5F5F5F5F5F5F5F5F5F5F5F5F5F5F5F5F5F5F5F5F5F5F5F5F5F5F5F5F5F5F5F5F5F5F5F5F5F5E2F5F5F5E2E2EFEFEFEFEFEFEFEFEFEFEFEFEFEFEFEFEFEFE2F5F5F5F5F5F5F5
310
F5F5F5F5F5F5F5F5F5F5F5F5F5F5F5F5F5F5F5F5F5F5F5F5F5F5F5F5F5F5F5F5F5F5F5F5F5F5F5F5F5F5F5F5F5F5F5F5F5F5F5F5F5F5F5F5F5F5F5F5F5F5F5F5F5F5F5F5F5F5F5F5F5F5F5F5F5F5F5F5F5F5F5F5F5F5F5F5F5F5F5F5F5F5F5F5F5F5F5F5F5F5F5F5F5F5F5F5F5F5F5F5F5F5F5F5F5F5F5F5F5F5F5F5F5F5F5
310
F5F5F5F5F5F5F5F5F5F5F5F5F5F5F5F5F5F5F5F5F5E2F5F5F5E2E2EFEFEFEFEFEFEFEFEFEFEFEFEFEFEFEFEFEFE2F5F5F5F5F5F5F5F5F5F5F5F5F5F5F5F5F5F5F5F5F5F5F5F5F5F5F5F5F5F5F5F5F5F5F5F5F5F5F5F5F5F5F5F5F5F5F5F5F5F5F5F5F5F5F5F5F5F5F5F5F5F5F5F5F5F5F5F5F5F5F5F5F5F5F5F5F5F5F5F5F5
310
F5F5F5F5F5F5F5F5F5F5F5F5F5F5F5F5F5F5F5F5F5F5F5F5F5F5F5F5F5F5F5F5F5F5F5F5F5F5F5F5F5F5F5F5F5F5F5F5F5F5F5F5F5F5F5F5F5F5F5F5F5F5F5F5F5F5F5F5F5F5F5F5F5F5E2F5F5F5E2E2EFEFEFEFEFEFEFEFEFEFEFEFEFEFEFEFEFEFE2F5F5F5F5F5F5F5F5F5F5F5F5F5F5F5F5F5F5F5F5F5F5F5F5F5F5F5F5
310
F5F5F5F5F5F5F5F5F5F5F5F5F5F5F5F5F5F5F5F5F5F5F5F5F5F5F5F5F5F5F5F5F5F5F5F5F5F5F5F5F5F5F5F5F5F5F5F5F5F5F5F5F5F5F5F5F5F5F5F5F5F5F5F5F5F5F5F5F5F5F5F5F5F5F5F5F5F5F5F5F5F5F5F5F5F5F5F5F5F5F5F5F5F5F5F5F5F5F5F5F5F5F5F5F5F5F5F5F5F5F5F5F5F5F5F5F5F5F5F5F5F5F5F5F5F5F5
310
E2F5F5F5E2E2EFEFEFEFEFEFEFEFEFEFEFEFEFEFEFEFEFEFE2F5F5F5F5F5F5F5F5F5F5F5F5F5F5F5F5F5F5F5F5F5F5F5F5F5F5F5F5F5F5F5F5F5F5F5F5F5F5F5F5F5F5F5F5F5F5F5F5F5F5F5F5F5F5F5F5F5F5F5F5F5F5F5F5F5F5F5F5F5F5F5F5F5F5F5F5F5F5F5F5F5F5F5F5F5F5F5F5F5F5F5F5F5F5F5F5F5F5F5F5F5F5
310
F5F5F5F5F5F5F5F5F5F5F5F5F5F5F5F5F5F5F5F5F5F5F5F5F5F5F5F5F5F5F5F5F5F5F5F5F5F5F5F5F5F5F5F5F5F5F5F5F5F5F5F5F5E2F5F5F5E2E2EFEFEFEFEFEFEFEFEFEFEFEFEFEFEFEFEFEFE2F5F5F5F5F5F5F5F5F5F5F5F5F5F5F5F5F5F5F5F5F5F5F5F5F5F5F5F5F5F5F5F5F5F5F5F5F5F5F5F5F5F5F5F5F5F5F5F5F5
310
F5F5F5F5F5F5F5F5F5F5F5F5F5F5F5F5F5F5F5F5F5F5F5F5F5F5F5F5F5F5F5F5F5F5F5F5F5F5F5F5F5F5F5F5F5F5F5F5F5F5F5F5F5F5F5F5F5F5F5F5F5F5F5F5F5F5F5F5F5F5F5F5F5F5F5F5F5F5F5F5F5F5F5F5F5F5F5F5F5F5F5F5F5F5F5F5F5F5F5F5F5F5F5F5F5F5E2F5F5F5E2E2EFEFEFEFEFEFEFEFEFEFEFEFEFEFEF
310
EFEFEFE2F5F5F5F5F5F5F5F5F5F5F5F5F5F5F5F5F5F5F5F5F5F5F5F5F5F5F5F5F5F5F5F5F5F5F5F5F5F5F5F5F5F5F5F5F5F5F5F5F5F5F5F5F5F5F5F5F5F5F5F5F5F5F5F5F5F5F5F5F5F5F5F5F5F5F5F5F5F5F5F5F5F5F5F5F5F5F5F5F5F5F5F5F5F5F5F5F5F5F5F5F5F5F5F5F5F5F5F5F5F5F5F5F5F5F5F5F5F5F5F5F5F5F5
310
F5F5F5F5F5F5F5F5F5F5F5F5F5F5F5F5F5F5F5F5F5F5F5F5F5F5F5F5F5F5F5F5E2F5F5F5E2E2EFEFEFEFEFEFEFEFEFEFEFEFEFEFEFEFEFEFE2F5F5F5F5F5F5F5F5F5F5F5F5F5F5F5F5F5F5F5F5F5F5F5F5F5F5F5F5F5F5F5F5F5F5F5F5F5F5F5F5F5F5F5F5F5F5F5F5F5F5F5F5F5F5F5F5F5F5F5F5F5F5F5F5F5F5F5F5F5F5
310
F5F5F5F5F5F5F5F5F5F5F5F5F5F5F5F5F5F5F5F5F5F5F5F5F5F5F5F5F5F5F5F5F5F5F5F5F5F5F5F5F5F5F5F5F5F5F5F5F5F5F5F5F5F5F5F5F5F5F5F5F5F5F5F5F5F5F5F5F5F5F5F5F5F5F5F5F5F5F5F5F5F5F5F5F5E2F5F5F5E2E2EFEFEFEFEFEFEFEFEFEFEFEFEFEFEFEFEFEFE2F5F5F5F5F5F5F5F5F5F5F5F5F5F5F5F5F5
310
F5F5F5F5F5F5F5F5F5F5F5F5F5F5F5F5F5F5F5F5F5F5F5F5F5F5F5F5F5F5F5F5F5F5F5F5F5F5F5F5F5F5F5F5F5F5F5F5F5F5F5F5F5F5F5F5F5F5F5F5F5F5F5F5F5F5F5F5F5F5F5F5F5F5F5F5F5F5F5F5F5F5F5F5F5F5F5F5F5F5F5F5F5F5F5F5F5F5F5F5F5F5F5F5F5F5F5F5F5F5F5F5F5F5F5F5F5F5F5F5F5F5F5F5F5F5F5
310
F5F5F5F5F5F5F5F5F5F5F5E2F5F5F5E2E2EFEFEFEFEFEFEFEFEFEFEFEFEFEFEFEFEFEFE2F5F5F5F5F5F5F5F5F5F5F5F5F5F5F5F5F5F5F5F5F5F5F5F5F5F5F5F5F5F5F5F5F5F5F5F5F5F5F5F5F5F5F5F5F5F5F5F5F5F5F5F5F5F5F5F5F5F5F5F5F5F5F5F5F5F5F5F5F5F5F5F5F5F5F5F5F5F5F5F5F5F5F5F5F5F5F5F5F5F5F5
310
F5F5F5F5F5F5F5F5F5F5F5F5F5F5F5F5F5F5F5F5F5F5F5F5F5F5F5F5F5F5F5F5F5F5F5F5F5F5F5F5F5F5F5F5F5F5F5F5F5F5F5F5F5F5F5F5F5F5F5F5F5F5F5F5E2F5F5F5E2E2EFEFEFEFEFEFEFEFEFEFEFEFEFEFEFEFEFEFE2F5F5F5F5F5F5F5F5F5F5F5F5F5F5F5F5F5F5F5F5F5F5F5F5F5F5F5F5F5F5F5F5F5F5F5F5F5F5
310
F5F5F5F5F5F5F5F5F5F5F5F5F5F5F5F5F5F5F5F5F5F5F5F5F5F5F5F5F5F5F5F5F5F5F5F5F5F5F5F5F5F5F5F5F5F5F5F5F5F5F5F5F5F5F5F5F5F5F5F5F5F5F5F5F5F5F5F5F5F5F5F5F5F5F5F5F5F5F5F5F5F5F5F5F5F5F5F5F5F5F5F5F5F5F5F5F5F5F5F5F5F5F5F5F5F5F5F5F5F5F5F5F5F5F5F5F5E2F5F5F5E2E2EFEFEFEF
310
EFEFEFEFEFEFEFEFEFEFEFEFEFEFE2F5F5F5F5F5F5F5F5F5F5F5F5F5F5F5F5F5F5F5F5F5F5F5F5F5F5F5F5F5F5F5F5F5F5F5F5F5F5F5F5F5F5F5F5F5F5F5F5F5F5F5F5F5F5F5F5F5F5F5F5F5F5F5F5F5F5F5F5F5F5F5F5F5F5F5F5F5F5F5F5F5F5F5F5F5F5F5F5F5F5F5F5F5F5F5F5F5F5F5F5F5F5F5F5F5F5F5F5F5F5F5F5
310
F5F5F5F5F5F5F5F5F5F5F5F5F5F5F5F5F5F5F5F5F5F5F5F5F5F5F5F5F5F5F5F5F5F5F5F5F5F5F5F5F5F5F5E2F5F5F5E2E2EFEFEFEFEFEFEFEFEFEFEFEFEFEFEFEFEFEFE2F5F5F5F5F5F5F5F5F5F5F5F5F5F5F5F5F5F5F5F5F5F5F5F5F5F5F5F5F5F5F5F5F5F5F5F5F5F5F5F5F5F5F5F5F5F5F5F5F5F5F5F5F5F5F5F5F5F5F5
310
F5F5F5F5F5F5F5F5F5F5F5F5F5F5F5F5F5F5F5F5F5F5F5F5F5F5F5F5F5F5F5F5F5F5F5F5F5F5F5F5F5F5F5F5F5F5F5F5F5F5F5F5F5F5F5F5F5F5F5F5F5F5F5F5F5F5F5F5F5F5F5F5F5F5F5F5F5F5F5F5F5F5F5F5F5F5F5F5F5F5F5F5F5F5F5F5E2F5F5F5E2E2EFEFEFEFEFEFEFEFEFEFEFEFEFEFEFEFEFEFE2F5F5F5F5F5F5
310
F5F5F5F5F5F5F5F5F5F5F5F5F5F5F5F5F5F5F5F5F5F5F5F5F5F5F5F5F5F5F5F5F5F5F5F5F5F5F5F5F5F5F5F5F5F5F5F5F5F5F5F5F5F5F5F5F5F5F5F5F5F5F5F5F5F5F5F5F5F5F5F5F5F5F5F5F5F5F5F5F5F5F5F5F5F5F5F5F5F5F5F5F5F5F5F5F5F5F5F5F5F5F5F5F5F5F5F5F5F5F5F5F5F5F5F5F5F5F5F5F5F5F5F5F5F5F5
310
F5F5F5F5F5F5F5F5F5F5F5F5F5F5F5F5F5F5F5F5F5F5E2F5F5F5E2E2EFEFEFEFEFEFEFEFEFEFEFEFEFEFEFEFEFEFF5F5F5F5F5F5F5F5F5F5F5F5F5F5F5F5F5F5F5F5F5F5F5F5F5F5F5F5F5F5F5F5F5F5F5F5F5F5F5F5F5F5F5F5F5F5F5F5F5F5F5F5F5F5F5F5F5F5F5F5F5F5F5F5F5F5F5F5F5F5F5F5F5F5F5F5F5F5F5F5F5
310
F5F5F5F5F5F5F5F5F5F5F5F5F5F5F5F5F5F5F5F5F5F5F5F5F5F5F5F5F5F5F5F5F5F5F5F5F5F5F5F5F5F5F5F5F5F5F5F5F5F5F5F5F5F5F5F5F5F5F5F5F5F5F5F5F5F5F5F5F5F5F5F5F5F5F5F5F5F5F5E2E2EFEFEFEFEFEFEFEFEFEFEFEFEFEFEFEFEFEFF5F5F5F5F5F5F5F5F5F5F5F5F5F5F5F5F5F5F5F5F5F5F5F5F5F5F5F5
310
F5F5F5F5F5F5F5F5F5F5F5F5F5F5F5F5F5F5F5F5F5F5F5F5F5F5F5F5F5F5F5F5F5F5F5F5F5F5F5F5F5F5F5F5F5F5F5F5F5F5F5F5F5F5F5F5F5F5F5F5F5F5F5F5F5F5F5F5F5F5F5F5F5F5F5F5F5F5F5F5F5F5F5F5F5F5F5F5F5F5F5F5F5F5F5F5F5F5F5F5F5F5F5F5F5F5F5F5F5F5F5F5F5F5F5F5F5F5F5F5F5F5F5F5F5F5F5
310
F5F5F5F5F5E2E2EFEFEFEFEFEFEFEFEFEFEFEFEFEFEFEFEFEFF5F5F5F5F5F5F5F5F5F5F5F5F5F5F5F5F5F5F5F5F5F5F5F5F5F5F5F5F5F5F5F5F5F5F5F5F5F5F5F5F5F5F5F5F5F5F5F5F5F5F5F5F5F5F5F5F5F5F5F5F5F5F5F5F5F5F5F5F5F5F5F5F5F5F5F5F5F5F5F5F5F5F5F5F5F5F5F5F5F5F5F5F5F5F5F5F5F5F5F5F5F5
310
F5F5F5F5F5F5F5F5F5F5F5F5F5F5F5F5F5F5F5F5F5F5F5F5F5F5F5F5F5F5F5F5F5F5F5F5F5F5F5F5F5F5F5F5F5F5F5F5F5F5F5F5F5F5F5F5F5F5E2E2EFEFEFEFEFEFEFEFEFEFEFEFEFEFEFEFEFEFF5F5F5F5F5F5F5F5F5F5F5F5F5F5F5F5F5F5F5F5F5F5F5F5F5F5F5F5F5F5F5F5F5F5F5F5F5F5F5F5F5F5F5F5F5F5F5F5F5
310
F5F5F5F5F5F5F5F5F5F5F5F5F5F5F5F5F5F5F5F5F5F5F5F5F5F5F5F5F5F5F5F5F5F5F5F5F5F5F5F5F5F5F5F5F5F5F5F5F5F5F5F5F5F5F5F5F5F5F5F5F5F5F5F5F5F5F5F5F5F5F5F5F5F5F5F5F5F5F5F5F5F5F5F5F5F5F5F5F5F5F5F5F5F5F5F5F5F5F5F5F5F5F5F5F5F5F5F5F5F5F5E2E2EFEFEFEFEFEFEFEFEFEFEFEFEFEF
310
EFEFEFEFF5F5F5F5F5F5F5F5F5F5F5F5F5F5F5F5F5F5F5F5F5F5F5F5F5F5F5F5F5F5F5F5F5F5F5F5F5F5F5F5F5F5F5F5F5F5F5F5F5F5F5F5F5F5F5F5F5F5F5F5F5F5F5F5F5F5F5F5F5F5F5F5F5F5F5F5F5F5F5F5F5F5F5F5F5F5F5F5F5F5F5F5F5F5F5F5F5F5F5F5F5F5F5F5F5F5F5F5F5F5F5F5F5F5F5F5F5F5F5F5F5F5F5
310
F5F5F5F5F5F5F5F5F5F5F5F5F5F5F5F5F5F5F5F5F5F5F5F5F5F5F5F5F5F5F5F5F5F5F5F5F5E2E2EFEFEFEFEFEFEFEFEFEFEFEFEFEFEFEFEFEFF5F5F5F5F5F5F5F5F5F5F5F5F5F5F5F5F5F5F5F5F5F5F5F5F5F5F5F5F5F5F5F5F5F5F5F5F5F5F5F5F5F5F5F5F5F5F5F5F5F5F5F5F5F5F5F5F5F5F5F5F5F5F5F5F5F5F5F5F5F5
310
F5F5F5F5F5F5F5F5F5F5F5F5F5F5F5F5F5F5F5F5F5F5F5F5F5F5F5F5F5F5F5F5F5F5F5F5F5F5F5F5F5F5F5F5F5F5F5F5F5F5F5F5F5F5F5F5F5F5F5F5F5F5F5F5F5F5F5F5F5F5F5F5F5F5F5F5F5F5F5F5F5F5F5F5F5F5F5F5F5F5E2E2EFEFEFEFEFEFEFEFEFEFEFEFEFEFEFEFEFEFF5F5F5F5F5F5F5F5F5F5F5F5F5F5F5F5F5
310
F5F5F5F5F5F5F5F5F5F5F5F5F5F5F5F5F5F5F5F5F5F5F5F5F5F5F5F5F5F5F5F5F5F5F5F5F5F5F5F5F5F5F5F5F5F5F5F5F5F5F5F5F5F5F5F5F5F5F5F5F5F5F5F5F5F5F5F5F5F5F5F5F5F5F5F5F5F5F5F5F5F5F5F5F5F5F5F5F5F5F5F5F5F5F5F5F5F5F5F5F5F5F5F5F5F5F5F5F5F5F5F5F5F5F5F5F5F5F5F5F5F5F5F5F5F5F5
310
F5F5F5F5F5F5F5F5F5F5F5F5F5F5F5F5E2E2EFEFEFEFEFEFEFEFEFEFEFEFEFEFEFEFEFEFF5F5F5F5F5F5F5F5F5F5F5F5F5F5F5F5F5F5F5F5F5F5F5F5F5F5F5F5F5F5F5F5F5F5F5F5F5F5F5F5F5F5F5F5F5F5F5F5F5F5F5F5F5F5F5F5F5F5F5F5F5F5F5F5F5F5F5F5F5F5F5F5F5F5F5F5F5F5F5F5F5F5F5F5F5F5F5F5F5F5F5
310
F5F5F5F5F5F5F5F5F5F5F5F5F5F5F5F5F5F5F5F5F5F5F5F5F5F5F5F5F5F5F5F5F5F5F5F5F5F5F5F5F5F5F5F5F5F5F5F5F5F5F5F5F5F5F5F5F5F5F5F5F5F5F5F5F5F5F5F5F5E2E2EFEFEFEFEFEFEFEFEFEFEFEFEFEFEFEFEFEFF5F5F5F5F5F5F5F5F5F5F5F5F5F5F5F5F5F5F5F5F5F5F5F5F5F5F5F5F5F5F5F5F5F5F5F5F5F5
310
F5F5F5F5F5F5F5F5F5F5F5F5F5F5F5F5F5F5F5F5F5F5F5F5F5F5F5F5F5F5F5F5F5F5F5F5F5F5F5F5F5F5F5F5F5F5F5F5F5F5F5F5F5F5F5F5F5F5F5F5F5F5F5F5F5F5F5F5F5F5F5F5F5F5F5F5F5F5F5F5F5F5F5F5F5F5F5F5F5F5F5F5F5F5F5F5F5F5F5F5F5F5F5F5F5F5F5F5F5F5F5F5F5F5F5F5F5F5F5F5F5F5E2E2EFEFEF
310
EFEFEFEFEFEFEFEFEFEFEFEFEFEFEFE2F5F5F5F5F5F5F5F5F5F5F5F5F5F5F5F5F5F5F5F5F5F5F5F5F5F5F5F5F5F5F5F5F5F5F5F5F5F5F5F5F5F5F5F5F5F5F5F5F5F5F5F5F5F5F5F5F5F5F5F5F5F5F5F5F5F5F5F5F5F5F5F5F5F5F5F5F5F5F5F5F5F5F5F5F5F5F5F5F5F5F5F5F5F5F5F5F5F5F5F5F5F5F5F5F5F5F5F5F5F5F5
310
F5F5F5F5F5F5F5F5F5F5F5F5F5F5F5F5F5F5F5F5F5F5F5F5F5F5F5F5F5F5F5F5F5F5F5F5F5F5F5F5F5F5F5F5E2F5F5F5E2E2EFEFEFEFEFEFEFEFEFEFEFEFEFEFEFEFEFEFE2F5F5F5F5F5F5F5F5F5F5F5F5F5F5F5F5F5F5F5F5F5F5F5F5F5F5F5F5F5F5F5F5F5F5F5F5F5F5F5F5F5F5F5F5F5F5F5F5F5F5F5F5F5F5F5F5F5F5
310
F5F5F5F5F5F5F5F5F5F5F5F5F5F5F5F5F5F5F5F5F5F5F5F5F5F5F5F5F5F5F5F5F5F5F5F5F5F5F5F5F5F5F5F5F5F5F5F5F5F5F5F5F5F5F5F5F5F5F5F5F5F5F5F5F5F5F5F5F5F5F5F5F5F5F5F5F5F5F5F5F5F5F5F5F5F5F5F5F5F5F5F5F5F5F5F5F5E2F5F5F5E2E2EFEFEFEFEFEFEFEFEFEFEFEFEFEFEFEFEFEFE2F5F5F5F5F5
310
F5F5F5F5F5F5F5F5F5F5F5F5F5F5F5F5F5F5F5F5F5F5F5F5F5F5F5F5F5F5F5F5F5F5F5F5F5F5F5F5F5F5F5F5F5F5F5F5F5F5F5F5F5F5F5F5F5F5F5F5F5F5F5F5F5F5F5F5F5F5F5F5F5F5F5F5F5F5F5F5F5F5F5F5F5F5F5F5F5F5F5F5F5F5F5F5F5F5F5F5F5F5F5F5F5F5F5F5F5F5F5F5F5F5F5F5F5F5F5F5F5F5F5F5F5F5F5
310
F5F5F5F5F5F5F5F5F5F5F5F5F5F5F5F5F5F5F5F5F5F5F5E2F5F5F5E2E2EFEFEFEFEFEFEFEFEFEFEFEFEFEFEFEFEFEFE2F5F5F5F5F5F5F5F5F5F5F5F5F5F5F5F5F5F5F5F5F5F5F5F5F5F5F5F5F5F5F5F5F5F5F5F5F5F5F5F5F5F5F5F5F5F5F5F5F5F5F5F5F5F5F5F5F5F5F5F5F5F5F5F5F5F5F5F5F5F5F5F5F5F5F5F5F5F5F5
310
F5F5F5F5F5F5F5F5F5F5F5F5F5F5F5F5F5F5F5F5F5F5F5F5F5F5F5F5F5F5F5F5F5F5F5F5F5F5F5F5F5F5F5F5F5F5F5F5F5F5F5F5F5F5F5F5F5F5F5F5F5F5F5F5F5F5F5F5F5F5F5F5F5F5F5F5E2F5F5F5E2E2EFEFEFEFEFEFEFEFEFEFEFEFEFEFEFEFEFEFE2F5F5F5F5F5F5F5F5F5F5F5F5F5F5F5F5F5F5F5F5F5F5F5F5F5F5
310
F5F5F5F5F5F5F5F5F5F5F5F5F5F5F5F5F5F5F5F5F5F5F5F5F5F5F5F5F5F5F5F5F5F5F5F5F5F5F5F5F5F5F5F5F5F5F5F5F5F5F5F5F5F5F5F5F5F5F5F5F5F5F5F5F5F5F5F5F5F5F5F5F5F5F5F5F5F5F5F5F5F5F5F5F5F5F5F5F5F5F5F5F5F5F5F5F5F5F5F5F5F5F5F5F5F5F5F5F5F5F5F5F5F5F5F5F5F5F5F5F5F5F5F5F5F5F5
310
F5F5E2F5F5F5E2E2EFEFEFEFEFEFEFEFEFEFEFEFEFEFEFEFEFEFE2F5F5F5F5F5F5F5F5F5F5F5F5F5F5F5F5F5F5F5F5F5F5F5F5F5F5F5F5F5F5F5F5F5F5F5F5F5F5F5F5F5F5F5F5F5F5F5F5F5F5F5F5F5F5F5F5F5F5F5F5F5F5F5F5F5F5F5F5F5F5F5F5F5F5F5F5F5F5F5F5F5F5F5F5F5F5F5F5F5F5F5F5F5F5F5F5F5F5F5F5
310
F5F5F5F5F5F5F5F5F5F5F5F5F5F5F5F5F5F5F5F5F5F5F5F5F5F5F5F5F5F5F5F5F5F5F5F5F5F5F5F5F5F5F5F5F5F5F5F5F5F5F5F5F5F5F5E2F5F5F5E2E2EFEFEFEFEFEFEFEFEFEFEFEFEFEFEFEFEFEFE2F5F5F5F5F5F5F5F5F5F5F5F5F5F5F5F5F5F5F5F5F5F5F5F5F5F5F5F5F5F5F5F5F5F5F5F5F5F5F5F5F5F5F5F5F5F5F5
310
F5F5F5F5F5F5F5F5F5F5F5F5F5F5F5F5F5F5F5F5F5F5F5F5F5F5F5F5F5F5F5F5F5F5F5F5F5F5F5F5F5F5F5F5F5F5F5F5F5F5F5F5F5F5F5F5F5F5F5F5F5F5F5F5F5F5F5F5F5F5F5F5F5F5F5F5F5F5F5F5F5F5F5F5F5F5F5F5F5F5F5F5F5F5F5F5F5F5F5F5F5F5F5F5F5F5F5F5E2F5F5F5E2E2EFEFEFEFEFEFEFEFEFEFEFEFEF
310
EFEFEFEFEFE2E2E2E2E2E2E2E2E2F5F5F5F5F5F5F5F5F5E2E2E2E2E2E2E2E2E2E2E2E2E2E2E2E2E2F5F5F5F5F5F5F5F5F5E2E2E2E2E2E2E2E2E2E2E2E2E2E2E2E2E2F5F5F5F5F5F5F5F5F5E2E2E2E2E2E2E2E2E2E2E2E2E2E2E2E2E2F5F5F5F5F5F5F5F5F5E2E2E2E2E2E2E2E2E2E2E2E2E2E2E2E2E2F5F5F5F5F5F5F5F5F5
310
E2E2E2E2E2E2E2E2E2E2E2E2E2E2E2E2E2F5F5F5F5F5F5F5F5F5E2E2E2E2E2E2E2E2E2F5F5F5E2E2EFEFEFEFEFEFEFEFEFEFEFEFEFEFEFEFEFEFF5F5F5F5F5F5F5F5F5F5F5F5F5F5F5F5F5F5F5F5F5F5F5F5F5F5F5F5F5F5F5F5F5F5F5F5F5F5F5F5F5F5F5F5F5F5F5F5F5F5F5F5F5F5F5F5F5F5F5F5F5F5F5F5F5F5F5F5F5
310
F5F5F5F5F5F5F5F5F5F5F5F5F5F5F5F5F5F5F5F5F5F5F5F5F5F5F5F5F5F5F5F5F5F5F5F5F5F5F5F5F5F5F5F5F5F5F5F5F5F5F5F5F5F5F5F5F5F5F5F5F5F5F5F5F5F5F5F5F5F5F5F5F5F5F5F5F5F5F5F5F5F5F5F5F5F5F5F5F5F5F5E2E2EFEFEFEFEFEFEFEFEFEFEFEFEFEFEFEFEFEFF5F5F5F5F5F5F5F5F5F5F5F5F5F5F5F5
310
F5F5F5F5F5F5F5F5F5F5F5F5F5F5F5F5F5F5F5F5F5F5F5F5F5F5F5F5F5F5F5F5F5F5F5F5F5F5F5F5F5F5F5F5F5F5F5F5F5F5F5F5F5F5F5F5F5F5F5F5F5F5F5F5F5F5F5F5F5F5F5F5F5F5F5F5F5F5F5F5F5F5F5F5F5F5F5F5F5F5F5F5F5F5F5F5F5F5F5F5F5F5F5F5F5F5F5F5F5F5F5F5F5F5F5F5F5F5F5F5F5F5F5F5F5F5F5
310
F5F5F5F5F5F5F5F5F5F5F5F5F5F5F5F5F5E2E2EFEFEFEFEFEFEFEFEFEFEFEFEFEFEFEFEFEFF5F5F5F5F5F5F5F5F5F5F5F5F5F5F5F5F5F5F5F5F5F5F5F5F5F5F5F5F5F5F5F5F5F5F5F5F5F5F5F5F5F5F5F5F5F5F5F5F5F5F5F5F5F5F5F5F5F5F5F5F5F5F5F5F5F5F5F5F5F5F5F5F5F5F5F5F5F5F5F5F5F5F5F5F5F5F5F5F5F5
310
F5F5F5F5F5F5F5F5F5F5F5F5F5F5F5F5F5F5F5F5F5F5F5F5F5F5F5F5F5F5F5F5F5F5F5F5F5F5F5F5F5F5F5F5F5F5F5F5F5F5F5F5F5F5F5F5F5F5F5F5F5F5F5F5F5F5F5F5F5F5E2EFEFEFEFEFEFEFEFEFEFEFEFEFEFEFEFEFEFEFE2E2E2E2E2E2E2E2E2E2E2E2E2E2E2E2E2E2E2E2E2E2E2E2E2E2E2E2E2E2E2E2E2E2E2E2E2
310
E2E2E2E2E2E2E2E2E2E2E2E2E2E2E2E2E2E2E2E2E2E2E2E2E2E2E2E2E2E2E2E2E2E2E2E2E2E2E2E2E2E2E2E2E2E2E2E2E2E2E2E2E2E2E2E2E2E2E2E2E2E2E2E2E2E2E2E2E2E2E2E2E2E2E2E2E2E2E2E2E2E2E2E2E2E2E2E2E2E2E2E2E2E2E2E2E2E2E2E2E2E2E2E2E2E2E2E2E2E2E2E2E2E2E2E2E2E2E2E2E2E2E2E2EFEFEF
310
EFEFEFEFEFEFEFEFEFEFEFEFEFEFEFEFEFEFEFEFEFEFEFEFEFEFEFEFEFEFEFEFEFEFEFEFEFEFEFEFEFEFEFEFEFEFEFEFEFEFEFEFEFEFEFEFEFEFEFEFEFEFEFEFEFEFEFEFEFEFEFEFEFEFEFEFEFEFEFEFEFEFEFEFEFEFEFEFEFEFEFEFEFEFEFEFEFEFEFEFEFEFEFEFEFEFEFEFEFEFEFEFEFEFEFEFEFEFEFEFEFEFEFEFEFEFEF
310
EFEFEFEFEFEFEFEFEFEFEFEFEFEFEFEFEFEFEFEFEFEFEFEFEFEFEFEFEFEFEFEFEFEFEFEFEFEFEFEFEFEFEFEFEFEFEFEFEFEFEFEFEFEFEFEFEFEFEFEFEFEFEFEFEFEFEFEFEFEFEFEFEFEFEFEFEFEFEFEFEFEFEFEFEFEFEFEFEFEFEFEFEFEFEFEFEFEFEFEFEFEFEFEFEFEFEFEFEFEFEFEFEFEFEFEFEFEFEFEFEFEFEFEFEFEFEF
310
EFEFEFEFEFEFEFEFEFEFEFEFEFEFEFEFEFEFEFEFEFEFEFEFEFEFEFEFEFEFEFEFEFEFEFEFEFEFEFEFEFEFEFEFEFEFEFEFEFEFEFEFEFEFEFEFEFEFEFEFEFEFEFEFEFEFEFEFEFEFEFEFEFEFEFEFEFEFEFEFEFEFEFEFEFEFEFEFEFEFEFEFEFEFEFEFEFEFEFEFEFEFEFEFEFEFEFEFEFEFEFEFEFEFEFEFEFEFEFEFEFEFEFEFEFEFEF
310
EFEFEFEFEFEFEFEFEFEFEFEFEFEFEFEFEFEFEFEFEFEFEFEFEFEFEFEFEFEFEFEFEFEFEFEFEFEFEFEFEFEFEFEFEFEFEFEFEFEFEFEFEFEFEFEFEFEFEFEFEFEFEFEFEFEFEFEFEFEFEFEFEFEFEFEFEFEFEFEFEFEFEFEFEFEFEFEFEFEFEFEFEFEFEFEFEFEFEFEFEFEFEFEFEFEFEFEFEFEFEFEFEFEFEFEFEFEFEFEFEFEFEFEFEFEFEF
310
EFEFEFEFEFEFEFEFEFEFEFEFEFEFEFEFEFEFEFEFEFEFEFEFEFEFEFEFEFEFEFEFEFEFEFEFEFEFEFEFEFEFEFEFEFEFEFEFEFEFEFEFEFEFEFEFEFEFEFEFEFEFEFEFEFEFEFEFEFEFEFEFEFEFEFEFEFEFEFEFEFEFEFEFEFEFEFEFEFEFEFEFEFEFEFEFEFEFEFEFEFEFEFEFEFEFEFEFEFEFEFEFEFEFEFEFEFEFEFEFEFEFEFEFEFEFEF
310
EFEFEFEFEFEFEFEFEFEFEFEFEFEFEFEFEFEFEFEFEFEFEFEFEFEFEFEFEFEFEFEFEFEFEFEFEFEFEFEFEFEFEFEFEFEFEFEFEFEFEFEFEFEFEFEFEFEFEFEFEFEFEFEFEFEFEFEFEFEFEFEFEFEFEFEFEFEFEFEFEFEFEFEFEFEFEFEFEFEFEFEFEFEFEFEFEFEFEFEFEFEFEFEFEFEFEFEFEFEFEFEFEFEFEFEFEFEFEFEFEFEFEFEFEFEFEF
310
EFEFEFEFEFEFEFEFEFEFEFEFEFEFEFEFEFEFEFEFEFEFEFEFEFEFEFEFEFEFEFEFEFEFEFEFEFEFEFEFEFEFEFEFEFEFEFEFEFEFEFEFEFEFEFEFEFEFEFEFEFEFEFEFEFEFEFEFEFEFEFEFEFEFEFEFEFEFEFEFEFEFEFEFEFEFEFEFEFEFEFEFEFEFEFEFEFEFEFEFEFEFEFEFEFEFEFEFEFEFEFEFEFEFEFEFEFEFEFEFEFEFEFEFEFEFEF
310
EFEFEFEFEFEFEFEFEFEFEFEFEFEFEFEFEFEFEFEFEFEFEFEFEFEFEFEFEFEFEFEFEFEFEFEFEFEFEFEFEFEFEFEFEFEFEFEFEFEFEFEFEFEFEFEFEFEFEFEFEFEFEFEFEFEFEFEFEFEFEFEFEFEFEFEFEFEFEFEFEFEFEFEFEFEFEFEFEFEFEFEFEFEFEFEFEFEFEFEFEFEFEFEFEFEFEFEFEFEFEFEFEFEFEFEFEFEFEFEFEFEFEFEFEFEFEF
310
EFEFEFEFEFEFEFEFEFEFEFEFEFEFEFEFEFEFEFEFEFEFEFEFEFEFEFEFEFEFEFEFEFEFEFEFEFEFEFEFEFEFEFEFEFEFEFEFEFEFEFEFEFEFEFEFEFEFEFEFEFEFEFEFEFEFEFEFEFEFEFEFEFEFEFEFEFEFEFEFEFEFEFEFEFEFEFEFEFEFEFEFEFEFEFEFEFEFEFEFEFEFEFEFEFEFEFEFEFEFEFEFEFEFEFEFEFEFEFEFEFEFEFEFEFEFEF
310
EFEFEFEFEFEFEFEFEFEFEFEFEFEFEFEFEFEFEFEFEFEFEFEFEFEFEFEFEFEFEFEFEFEFEFEFEFEFEFEFEFEFEFEFEFEFEFEFEFEFEFEFEFEFEFEFEFEFEFEFEFEFEFEFEFEFEFEFEFEFEFEFEFEFEFEFEFEFEFEFEFEFEFEFEFEFEFEFEFEFEFEFEFEFEFEFEFEFEFEFEFEFEFEFEFEFEFEFEFEFEFEFEFEFEFEFEFEFEFEFEFEFEFEFEFEFEF
310
EFEFEFEFEFEFEFEFEFEFEFEFEFEFEFEFEFEFEFEFEFEFEFEFEFEFEFEFEFEFEFEFEFEFEFEFEFEFEFEFEFEFEFEFEFEFEFEFEFEFEFEFEFEFEFEFEFEFEFEFEFEFEFEFEFEFEFEFEFEFEFEFEFEFEFEFEFEFEFEFEFEFEFEFEFEFEFEFEFEFEFEFEFEFEFEFEFEFEFEFEFEFEFEFEFEFEFEFEFEFEFEFEFEFEFEFEFEFEFEFEFEFEFEFEFEFEF
310
EFEFEFEFEFEFEFEFEFEFEFEFEFEFEFEFEFEFEFEFEFEFEFEFEFEFEFEFEFEFEFEFEFEFEFEFEFEFEFEFEFEFEFEFEFEFEFEFEFEFEFEFEFEFEFEFEFEFEFEFEFEFEFEFEFEFEFEFEFEFEFEFEFEFEFEFEFEFEFEFEFEFEFEFEFEFEFEFEFEFEFEFEFEFEFEFEFEFEFEFEFEFEFEFEFEFEFEFEFEFEFEFEFEFEFEFEFEFEFEFEFEFEFEFEFEFEF
310
EFEFEFEFEFEFEFEFEFEFEFEFEFEFEFEFEFEFEFEFEFEFEFEFEFEFEFEFEFEFEFEFEFEFEFEFEFEFEFEFEFEFEFEFEFEFEFEFEFEFEFEFEFEFEFEFEFEFEFEFEFEFEFEFEFEFEFEFEFEFEFEFEFEFEFEFEFEFEFEFEFEFEFEFEFEFEFEFEFEFEFEFEFEFEFEFEFEFEFEFEFEFEFEFEFEFEFEFEFEFEFEFEFEFEFEFEFEFEFEFEFEFEFEFEFEFEF
310
EFEFEFEFEFEFEFEFEFEFEFEFEFEFEFEFEFEFEFEFEFEFEFEFEFEFEFEFEFEFEFEFEFEFEFEFEFEFEFEFEFEFEFEFEFEFEFEFEFEFEFEFEFEFEFEFEFEFEFEFEFEFEFEFEFEFEFEFEFEFEFEFEFEFEFEFEFEFEFEFEFEFEFEFEFEFEFEFEFEFEFEFEFEFEFEFEFEFEFEFEFEFEFEFEFEFEFEFEFEFEFEFEFEFEFEFEFEFEFEFEFEFEFEFEFEFEF
310
EFEFEFEFEFEFEFEFEFEFEFEFEFEFEFEFEFEFEFEFEFEFEFEFEFEFEFEFEFEFEFEFEFEFEFEFEFEFEFEFEFEFEFEFEFEFEFEFEFEFEFEFEFEFEFEFEFEFEFEFEFEFEFEFEFEFEFEFEFEFEFEFEFEFEFEFEFEFEFEFEFEFEFEFEFEFEFEFEFEFEFEFEFEFEFEFEFEFEFEFEFEFEFEFEFEFEFEFEFEFEFEFEFEFEFEFEFEFEFEFEFEFEFEFEFEFEF
310
EFEFEFEFEFEFEFEFEFEFEFEFEFEFEFEFEFEFEFEFEFEFEFEFEFEFEFEFEFEFEFEFEFEFEFEFEFEFEFEFEFEFEFEFEFEFEFEFEFEFEFEFEFEFEFEFEFEFEFEFEFEFEFEFEFEFEFEFEFEFEFEFEFEFEFEFEFEFEFEFEFEFEFEFEFEFEFEFEFEFEF
  0
XRECORD
  5
C37
102
{ACAD_REACTORS
330
C36
102
}
330
C36
100
AcDbXrecord
280
     1
102
SHADEPLOT
 70
     0
102
SHADEPLOTRESLEVEL
 70
     2
102
SHADEPLOTCUSTOMDPI
 70
   300
  0
XRECORD
  5
ED
102
{ACAD_REACTORS
330
EC
102
}
330
EC
100
AcDbXrecord
280
     1
102
MATERIAL
148
0.0
149
0.0
149
0.0
 93
        0
 94
       63
282
     0
 72
     1
 77
     1
171
     1
175
     1
179
     1
273
     0
  0
XRECORD
  5
EB
102
{ACAD_REACTORS
330
EA
102
}
330
EA
100
AcDbXrecord
280
     1
102
MATERIAL
148
0.0
149
0.0
149
0.0
 93
        0
 94
       63
282
     0
 72
     1
 77
     1
171
     1
175
     1
179
     1
273
     0
  0
XRECORD
  5
EF
102
{ACAD_REACTORS
330
EE
102
}
330
EE
100
AcDbXrecord
280
     1
102
MATERIAL
148
0.0
149
0.0
149
0.0
 93
        0
 94
       63
282
     0
 72
     1
 77
     1
171
     1
175
     1
179
     1
273
     0
  0
XRECORD
  5
C3C
102
{ACAD_REACTORS
330
C3B
102
}
330
C3B
100
AcDbXrecord
280
     1
102
ACAD_ROUNDTRIP_PRE2007_TABLESTYLE
 90
      512
 91
        0
  1

 92
      512
 93
        0
  2

 94
      512
 95
        0
  3

  0
ENDSEC
  0
EOF
