  0
SECTION
  2
HEADER
  9
$ACADVER
  1
AC1009
  9
$DWGCODEPAGE
  3
ansi_1252
  9
$INSBASE
 10
0.0
 20
0.0
 30
0.0
  9
$EXTMIN
 10
1.000000000000000E+20
 20
1.000000000000000E+20
 30
1.000000000000000E+20
  9
$EXTMAX
 10
-1.000000000000000E+20
 20
-1.000000000000000E+20
 30
-1.000000000000000E+20
  9
$LIMMIN
 10
0.0
 20
0.0
  9
$LIMMAX
 10
12.0
 20
9.0
  9
$ORTHOMODE
 70
     0
  9
$REGENMODE
 70
     1
  9
$FILLMODE
 70
     1
  9
$QTEXTMODE
 70
     0
  9
$MIRRTEXT
 70
     1
  9
$DRAGMODE
 70
     2
  9
$LTSCALE
 40
1.0
  9
$OSMODE
 70
    37
  9
$ATTMODE
 70
     1
  9
$TEXTSIZE
 40
0.2
  9
$TRACEWID
 40
0.05
  9
$TEXTSTYLE
  7
STANDARD
  9
$CLAYER
  8
0
  9
$CELTYPE
  6
BYLAYER
  9
$CECOLOR
 62
   256
  9
$DIMSCALE
 40
1.0
  9
$DIMASZ
 40
0.18
  9
$DIMEXO
 40
0.0625
  9
$DIMDLI
 40
0.38
  9
$DIMRND
 40
0.0
  9
$DIMDLE
 40
0.0
  9
$DIMEXE
 40
0.18
  9
$DIMTP
 40
0.0
  9
$DIMTM
 40
0.0
  9
$DIMTXT
 40
0.18
  9
$DIMCEN
 40
0.09
  9
$DIMTSZ
 40
0.0
  9
$DIMTOL
 70
     0
  9
$DIMLIM
 70
     0
  9
$DIMTIH
 70
     1
  9
$DIMTOH
 70
     1
  9
$DIMSE1
 70
     0
  9
$DIMSE2
 70
     0
  9
$DIMTAD
 70
     0
  9
$DIMZIN
 70
     0
  9
$DIMBLK
  1

  9
$DIMASO
 70
     1
  9
$DIMSHO
 70
     1
  9
$DIMPOST
  1

  9
$DIMAPOST
  1

  9
$DIMALT
 70
     0
  9
$DIMALTD
 70
     2
  9
$DIMALTF
 40
25.4
  9
$DIMLFAC
 40
1.0
  9
$DIMTOFL
 70
     0
  9
$DIMTVP
 40
0.0
  9
$DIMTIX
 70
     0
  9
$DIMSOXD
 70
     0
  9
$DIMSAH
 70
     0
  9
$DIMBLK1
  1

  9
$DIMBLK2
  1

  9
$DIMSTYLE
  2
STANDARD
  9
$DIMCLRD
 70
     0
  9
$DIMCLRE
 70
     0
  9
$DIMCLRT
 70
     0
  9
$DIMTFAC
 40
1.0
  9
$DIMGAP
 40
0.09
  9
$LUNITS
 70
     2
  9
$LUPREC
 70
     4
  9
$SKETCHINC
 40
0.1
  9
$FILLETRAD
 40
0.5
  9
$AUNITS
 70
     0
  9
$AUPREC
 70
     0
  9
$MENU
  1
.
  9
$ELEVATION
 40
0.0
  9
$PELEVATION
 40
0.0
  9
$THICKNESS
 40
0.0
  9
$LIMCHECK
 70
     0
  9
$CHAMFERA
 40
0.5
  9
$CHAMFERB
 40
0.5
  9
$SKPOLY
 70
     0
  9
$TDCREATE
 40
2455497.866847511
  9
$TDUPDATE
 40
2455497.866847511
  9
$TDINDWG
 40
0.0000000116
  9
$TDUSRTIMER
 40
0.0000000116
  9
$USRTIMER
 70
     1
  9
$ANGBASE
 50
0.0
  9
$ANGDIR
 70
     0
  9
$PDMODE
 70
     0
  9
$PDSIZE
 40
0.0
  9
$PLINEWID
 40
0.0
  9
$COORDS
 70
     1
  9
$SPLFRAME
 70
     0
  9
$SPLINETYPE
 70
     6
  9
$SPLINESEGS
 70
     8
  9
$ATTDIA
 70
     0
  9
$ATTREQ
 70
     1
  9
$HANDLING
 70
     1
  9
$HANDSEED
  5
1D9
  9
$SURFTAB1
 70
     6
  9
$SURFTAB2
 70
     6
  9
$SURFTYPE
 70
     6
  9
$SURFU
 70
     6
  9
$SURFV
 70
     6
  9
$UCSNAME
  2

  9
$UCSORG
 10
0.0
 20
0.0
 30
0.0
  9
$UCSXDIR
 10
1.0
 20
0.0
 30
0.0
  9
$UCSYDIR
 10
0.0
 20
1.0
 30
0.0
  9
$PUCSNAME
  2

  9
$PUCSORG
 10
0.0
 20
0.0
 30
0.0
  9
$PUCSXDIR
 10
1.0
 20
0.0
 30
0.0
  9
$PUCSYDIR
 10
0.0
 20
1.0
 30
0.0
  9
$USERI1
 70
     0
  9
$USERI2
 70
     0
  9
$USERI3
 70
     0
  9
$USERI4
 70
     0
  9
$USERI5
 70
     0
  9
$USERR1
 40
0.0
  9
$USERR2
 40
0.0
  9
$USERR3
 40
0.0
  9
$USERR4
 40
0.0
  9
$USERR5
 40
0.0
  9
$WORLDVIEW
 70
     1
  9
$SHADEDGE
 70
     3
  9
$SHADEDIF
 70
    70
  9
$TILEMODE
 70
     1
  9
$MAXACTVP
 70
    64
  9
$PLIMCHECK
 70
     0
  9
$PEXTMIN
 10
1.000000000000000E+20
 20
1.000000000000000E+20
 30
1.000000000000000E+20
  9
$PEXTMAX
 10
-1.000000000000000E+20
 20
-1.000000000000000E+20
 30
-1.000000000000000E+20
  9
$PLIMMIN
 10
0.0
 20
0.0
  9
$PLIMMAX
 10
12.0
 20
9.0
  9
$UNITMODE
 70
     0
  9
$VISRETAIN
 70
     1
  9
$PLINEGEN
 70
     0
  9
$PSLTSCALE
 70
     1
  0
ENDSEC
  0
SECTION
  2
TABLES
  0
TABLE
  2
VPORT
 70
     1
  0
VPORT
  2
*ACTIVE
 70
     0
 10
0.0
 20
0.0
 11
1.0
 21
1.0
 12
0.0
 22
0.0
 13
0.0
 23
0.0
 14
0.5
 24
0.5
 15
0.5
 25
0.5
 16
106.4058074951172
 26
60.7980842590332
 36
106.4058151245117
 17
31.5
 27
0.0
 37
10.0
 40
59.45146566264121
 41
1.972972972850329
 42
50.0
 43
0.0
 44
0.0
 50
0.0
 51
0.0
 71
     0
 72
   100
 73
     1
 74
     3
 75
     0
 76
     0
 77
     0
 78
     0
  0
ENDTAB
  0
TABLE
  2
LTYPE
 70
     1
  0
LTYPE
  2
CONTINUOUS
 70
     0
  3
Solid line
 72
    65
 73
     0
 40
0.0
  0
ENDTAB
  0
TABLE
  2
LAYER
 70
     2
  0
LAYER
  2
0
 70
     0
 62
     7
  6
CONTINUOUS
  0
LAYER
  2
LAYER_1
 70
     0
 62
     7
  6
CONTINUOUS
  0
ENDTAB
  0
TABLE
  2
STYLE
 70
     1
  0
STYLE
  2
STANDARD
 70
     0
 40
0.0
 41
1.0
 50
0.0
 71
     0
 42
0.2
  3
txt
  4

  0
ENDTAB
  0
TABLE
  2
VIEW
 70
     0
  0
ENDTAB
  0
TABLE
  2
UCS
 70
     0
  0
ENDTAB
  0
TABLE
  2
APPID
 70
     1
  0
APPID
  2
ACAD
 70
     0
  0
ENDTAB
  0
TABLE
  2
DIMSTYLE
 70
     1
  0
DIMSTYLE
  2
STANDARD
 70
     0
  3

  4

  5

  6

  7

 40
1.0
 41
0.18
 42
0.0625
 43
0.38
 44
0.18
 45
0.0
 46
0.0
 47
0.0
 48
0.0
140
0.18
141
0.09
142
0.0
143
25.4
144
1.0
145
0.0
146
1.0
147
0.09
 71
     0
 72
     0
 73
     1
 74
     1
 75
     0
 76
     0
 77
     0
 78
     0
170
     0
171
     2
172
     0
173
     0
174
     0
175
     0
176
     0
177
     0
178
     0
  0
ENDTAB
  0
ENDSEC
  0
SECTION
  2
BLOCKS
  0
BLOCK
  8
0
  2
$MODEL_SPACE
 70
     0
 10
0.0
 20
0.0
 30
0.0
  3
$MODEL_SPACE
  1

  0
ENDBLK
  5
21
  8
0
  0
BLOCK
 67
     1
  8
0
  2
$PAPER_SPACE
 70
     0
 10
0.0
 20
0.0
 30
0.0
  3
$PAPER_SPACE
  1

  0
ENDBLK
  5
1D
 67
     1
  8
0
  0
BLOCK
  8
0
  2
E3_NODE
 70
     0
 10
0.0
 20
0.0
 30
0.0
  3
E3_NODE
  1

  0
POLYLINE
  5
3C
  8
0
 62
     9
 66
     1
 10
0.0
 20
0.0
 30
0.0
 70
    64
 71
     8
 72
     6
  0
VERTEX
  5
3D
  8
0
 10
63.0
 20
0.0
 30
-3.220000028610229
 70
   192
  0
VERTEX
  5
3E
  8
0
 10
63.0
 20
-9.347999572753906
 30
19.34799957275391
 70
   192
  0
VERTEX
  5
3F
  8
0
 10
63.0
 20
-13.22000026702881
 30
10.0
 70
   192
  0
VERTEX
  5
40
  8
0
 10
63.0
 20
0.0
 30
23.21999931335449
 70
   192
  0
VERTEX
  5
41
  8
0
 10
63.0
 20
9.347999572753906
 30
0.6520000100135803
 70
   192
  0
VERTEX
  5
42
  8
0
 10
63.0
 20
13.22000026702881
 30
10.0
 70
   192
  0
VERTEX
  5
43
  8
0
 10
63.0
 20
9.347999572753906
 30
19.34799957275391
 70
   192
  0
VERTEX
  5
44
  8
0
 10
63.0
 20
-9.347999572753906
 30
0.6520000100135803
 70
   192
  0
VERTEX
  5
45
  8
0
 62
     9
 10
0.0
 20
0.0
 30
0.0
 70
   128
 71
     3
 72
     2
 73
     1
  0
VERTEX
  5
46
  8
0
 62
     9
 10
0.0
 20
0.0
 30
0.0
 70
   128
 71
     6
 72
     5
 73
     4
  0
VERTEX
  5
47
  8
0
 62
     9
 10
0.0
 20
0.0
 30
0.0
 70
   128
 71
     2
 72
     4
 73
     1
  0
VERTEX
  5
48
  8
0
 62
     9
 10
0.0
 20
0.0
 30
0.0
 70
   128
 71
     5
 72
     1
 73
     4
  0
VERTEX
  5
49
  8
0
 62
     9
 10
0.0
 20
0.0
 30
0.0
 70
   128
 71
     4
 72
     7
 73
     6
  0
VERTEX
  5
4A
  8
0
 62
     9
 10
0.0
 20
0.0
 30
0.0
 70
   128
 71
     1
 72
     8
 73
     3
  0
SEQEND
  5
4B
  8
0
 62
     9
  0
ENDBLK
  5
4F
  8
0
  0
BLOCK
  8
0
  2
E3_NODE_1_
 70
     0
 10
0.0
 20
0.0
 30
0.0
  3
E3_NODE_1_
  1

  0
POLYLINE
  5
51
  8
0
 62
     9
 66
     1
 10
0.0
 20
0.0
 30
0.0
 70
    64
 71
    16
 72
    16
  0
VERTEX
  5
52
  8
0
 10
52.0
 20
9.347999572753906
 30
0.6520000100135803
 70
   192
  0
VERTEX
  5
53
  8
0
 10
63.0
 20
9.347999572753906
 30
0.6520000100135803
 70
   192
  0
VERTEX
  5
54
  8
0
 10
63.0
 20
0.0
 30
-3.220000028610229
 70
   192
  0
VERTEX
  5
55
  8
0
 10
52.0
 20
13.22000026702881
 30
10.0
 70
   192
  0
VERTEX
  5
56
  8
0
 10
63.0
 20
13.22000026702881
 30
10.0
 70
   192
  0
VERTEX
  5
57
  8
0
 10
52.0
 20
9.347999572753906
 30
19.34799957275391
 70
   192
  0
VERTEX
  5
58
  8
0
 10
63.0
 20
9.347999572753906
 30
19.34799957275391
 70
   192
  0
VERTEX
  5
59
  8
0
 10
52.0
 20
0.0
 30
23.21999931335449
 70
   192
  0
VERTEX
  5
5A
  8
0
 10
63.0
 20
0.0
 30
23.21999931335449
 70
   192
  0
VERTEX
  5
5B
  8
0
 10
52.0
 20
-9.347999572753906
 30
19.34799957275391
 70
   192
  0
VERTEX
  5
5C
  8
0
 10
63.0
 20
-9.347999572753906
 30
19.34799957275391
 70
   192
  0
VERTEX
  5
5D
  8
0
 10
52.0
 20
-13.22000026702881
 30
10.0
 70
   192
  0
VERTEX
  5
5E
  8
0
 10
63.0
 20
-13.22000026702881
 30
10.0
 70
   192
  0
VERTEX
  5
5F
  8
0
 10
52.0
 20
-9.347999572753906
 30
0.6520000100135803
 70
   192
  0
VERTEX
  5
60
  8
0
 10
63.0
 20
-9.347999572753906
 30
0.6520000100135803
 70
   192
  0
VERTEX
  5
61
  8
0
 10
52.0
 20
0.0
 30
-3.220000028610229
 70
   192
  0
VERTEX
  5
62
  8
0
 62
     9
 10
0.0
 20
0.0
 30
0.0
 70
   128
 71
     3
 72
     2
 73
     1
  0
VERTEX
  5
63
  8
0
 62
     9
 10
0.0
 20
0.0
 30
0.0
 70
   128
 71
     2
 72
     5
 73
     4
  0
VERTEX
  5
64
  8
0
 62
     9
 10
0.0
 20
0.0
 30
0.0
 70
   128
 71
     5
 72
     7
 73
     6
  0
VERTEX
  5
65
  8
0
 62
     9
 10
0.0
 20
0.0
 30
0.0
 70
   128
 71
     7
 72
     9
 73
     8
  0
VERTEX
  5
66
  8
0
 62
     9
 10
0.0
 20
0.0
 30
0.0
 70
   128
 71
     9
 72
    11
 73
    10
  0
VERTEX
  5
67
  8
0
 62
     9
 10
0.0
 20
0.0
 30
0.0
 70
   128
 71
    11
 72
    13
 73
    12
  0
VERTEX
  5
68
  8
0
 62
     9
 10
0.0
 20
0.0
 30
0.0
 70
   128
 71
    13
 72
    15
 73
    14
  0
VERTEX
  5
69
  8
0
 62
     9
 10
0.0
 20
0.0
 30
0.0
 70
   128
 71
    15
 72
     3
 73
    16
  0
VERTEX
  5
6A
  8
0
 62
     9
 10
0.0
 20
0.0
 30
0.0
 70
   128
 71
    16
 72
    14
 73
    15
  0
VERTEX
  5
6B
  8
0
 62
     9
 10
0.0
 20
0.0
 30
0.0
 70
   128
 71
    14
 72
    12
 73
    13
  0
VERTEX
  5
6C
  8
0
 62
     9
 10
0.0
 20
0.0
 30
0.0
 70
   128
 71
    12
 72
    10
 73
    11
  0
VERTEX
  5
6D
  8
0
 62
     9
 10
0.0
 20
0.0
 30
0.0
 70
   128
 71
    10
 72
     8
 73
     9
  0
VERTEX
  5
6E
  8
0
 62
     9
 10
0.0
 20
0.0
 30
0.0
 70
   128
 71
     8
 72
     6
 73
     7
  0
VERTEX
  5
6F
  8
0
 62
     9
 10
0.0
 20
0.0
 30
0.0
 70
   128
 71
     6
 72
     4
 73
     5
  0
VERTEX
  5
70
  8
0
 62
     9
 10
0.0
 20
0.0
 30
0.0
 70
   128
 71
     4
 72
     1
 73
     2
  0
VERTEX
  5
71
  8
0
 62
     9
 10
0.0
 20
0.0
 30
0.0
 70
   128
 71
     1
 72
    16
 73
     3
  0
SEQEND
  5
72
  8
0
 62
     9
  0
ENDBLK
  5
75
  8
0
  0
BLOCK
  8
0
  2
E3_NODE_2_
 70
     0
 10
0.0
 20
0.0
 30
0.0
  3
E3_NODE_2_
  1

  0
POLYLINE
  5
77
  8
0
 62
     9
 66
     1
 10
0.0
 20
0.0
 30
0.0
 70
    64
 71
    18
 72
    18
  0
VERTEX
  5
78
  8
0
 10
52.0
 20
0.0
 30
23.21999931335449
 70
   192
  0
VERTEX
  5
79
  8
0
 10
52.0
 20
9.347999572753906
 30
19.34799957275391
 70
   192
  0
VERTEX
  5
7A
  8
0
 10
52.0
 20
8.381999969482422
 30
21.53700065612793
 70
   192
  0
VERTEX
  5
7B
  8
0
 10
52.0
 20
0.0
 30
24.26000022888184
 70
   192
  0
VERTEX
  5
7C
  8
0
 10
52.0
 20
-8.381999969482422
 30
21.53700065612793
 70
   192
  0
VERTEX
  5
7D
  8
0
 10
52.0
 20
0.0
 30
-3.220000028610229
 70
   192
  0
VERTEX
  5
7E
  8
0
 10
52.0
 20
0.0
 30
-4.260000228881836
 70
   192
  0
VERTEX
  5
7F
  8
0
 10
52.0
 20
8.381999969482422
 30
-1.536999940872192
 70
   192
  0
VERTEX
  5
80
  8
0
 10
52.0
 20
13.5629997253418
 30
5.592999935150146
 70
   192
  0
VERTEX
  5
81
  8
0
 10
52.0
 20
13.22000026702881
 30
10.0
 70
   192
  0
VERTEX
  5
82
  8
0
 10
52.0
 20
9.347999572753906
 30
0.6520000100135803
 70
   192
  0
VERTEX
  5
83
  8
0
 10
52.0
 20
13.5629997253418
 30
14.4069995880127
 70
   192
  0
VERTEX
  5
84
  8
0
 10
52.0
 20
-9.347999572753906
 30
19.34799957275391
 70
   192
  0
VERTEX
  5
85
  8
0
 10
52.0
 20
-13.5629997253418
 30
14.4069995880127
 70
   192
  0
VERTEX
  5
86
  8
0
 10
52.0
 20
-13.22000026702881
 30
10.0
 70
   192
  0
VERTEX
  5
87
  8
0
 10
52.0
 20
-13.5629997253418
 30
5.592999935150146
 70
   192
  0
VERTEX
  5
88
  8
0
 10
52.0
 20
-8.381999969482422
 30
-1.536999940872192
 70
   192
  0
VERTEX
  5
89
  8
0
 10
52.0
 20
-9.347999572753906
 30
0.6520000100135803
 70
   192
  0
VERTEX
  5
8A
  8
0
 62
     9
 10
0.0
 20
0.0
 30
0.0
 70
   128
 71
     3
 72
     2
 73
     1
  0
VERTEX
  5
8B
  8
0
 62
     9
 10
0.0
 20
0.0
 30
0.0
 70
   128
 71
     5
 72
     4
 73
     1
  0
VERTEX
  5
8C
  8
0
 62
     9
 10
0.0
 20
0.0
 30
0.0
 70
   128
 71
     8
 72
     7
 73
     6
  0
VERTEX
  5
8D
  8
0
 62
     9
 10
0.0
 20
0.0
 30
0.0
 70
   128
 71
    11
 72
    10
 73
     9
  0
VERTEX
  5
8E
  8
0
 62
     9
 10
0.0
 20
0.0
 30
0.0
 70
   128
 71
     2
 72
     3
 73
    12
  0
VERTEX
  5
8F
  8
0
 62
     9
 10
0.0
 20
0.0
 30
0.0
 70
   128
 71
     1
 72
    13
 73
     5
  0
VERTEX
  5
90
  8
0
 62
     9
 10
0.0
 20
0.0
 30
0.0
 70
   128
 71
    13
 72
    15
 73
    14
  0
VERTEX
  5
91
  8
0
 62
     9
 10
0.0
 20
0.0
 30
0.0
 70
   128
 71
    18
 72
    17
 73
    16
  0
VERTEX
  5
92
  8
0
 62
     9
 10
0.0
 20
0.0
 30
0.0
 70
   128
 71
     9
 72
     8
 73
    11
  0
VERTEX
  5
93
  8
0
 62
     9
 10
0.0
 20
0.0
 30
0.0
 70
   128
 71
    12
 72
    10
 73
     2
  0
VERTEX
  5
94
  8
0
 62
     9
 10
0.0
 20
0.0
 30
0.0
 70
   128
 71
    14
 72
     5
 73
    13
  0
VERTEX
  5
95
  8
0
 62
     9
 10
0.0
 20
0.0
 30
0.0
 70
   128
 71
    16
 72
    15
 73
    18
  0
VERTEX
  5
96
  8
0
 62
     9
 10
0.0
 20
0.0
 30
0.0
 70
   128
 71
    12
 72
     9
 73
    10
  0
VERTEX
  5
97
  8
0
 62
     9
 10
0.0
 20
0.0
 30
0.0
 70
   128
 71
    16
 72
    14
 73
    15
  0
VERTEX
  5
98
  8
0
 62
     9
 10
0.0
 20
0.0
 30
0.0
 70
   128
 71
     1
 72
     4
 73
     3
  0
VERTEX
  5
99
  8
0
 62
     9
 10
0.0
 20
0.0
 30
0.0
 70
   128
 71
    17
 72
    18
 73
     6
  0
VERTEX
  5
9A
  8
0
 62
     9
 10
0.0
 20
0.0
 30
0.0
 70
   128
 71
     6
 72
     7
 73
    17
  0
VERTEX
  5
9B
  8
0
 62
     9
 10
0.0
 20
0.0
 30
0.0
 70
   128
 71
     6
 72
    11
 73
     8
  0
SEQEND
  5
9C
  8
0
 62
     9
  0
ENDBLK
  5
9F
  8
0
  0
BLOCK
  8
0
  2
E3_NODE_3_
 70
     0
 10
0.0
 20
0.0
 30
0.0
  3
E3_NODE_3_
  1

  0
POLYLINE
  5
A1
  8
0
 62
     9
 66
     1
 10
0.0
 20
0.0
 30
0.0
 70
    64
 71
    20
 72
    20
  0
VERTEX
  5
A2
  8
0
 10
40.5
 20
12.28499984741211
 30
26.90800094604492
 70
   192
  0
VERTEX
  5
A3
  8
0
 10
40.5
 20
0.0
 30
30.89999961853027
 70
   192
  0
VERTEX
  5
A4
  8
0
 10
52.0
 20
0.0
 30
24.26000022888184
 70
   192
  0
VERTEX
  5
A5
  8
0
 10
52.0
 20
8.381999969482422
 30
21.53700065612793
 70
   192
  0
VERTEX
  5
A6
  8
0
 10
52.0
 20
13.5629997253418
 30
14.4069995880127
 70
   192
  0
VERTEX
  5
A7
  8
0
 10
40.5
 20
19.87700080871582
 30
16.45800018310547
 70
   192
  0
VERTEX
  5
A8
  8
0
 10
52.0
 20
13.5629997253418
 30
5.592999935150146
 70
   192
  0
VERTEX
  5
A9
  8
0
 10
40.5
 20
12.28499984741211
 30
-6.907999992370605
 70
   192
  0
VERTEX
  5
AA
  8
0
 10
40.5
 20
19.87700080871582
 30
3.54200005531311
 70
   192
  0
VERTEX
  5
AB
  8
0
 10
40.5
 20
0.0
 30
-10.89999961853027
 70
   192
  0
VERTEX
  5
AC
  8
0
 10
52.0
 20
8.381999969482422
 30
-1.536999940872192
 70
   192
  0
VERTEX
  5
AD
  8
0
 10
52.0
 20
0.0
 30
-4.260000228881836
 70
   192
  0
VERTEX
  5
AE
  8
0
 10
52.0
 20
-8.381999969482422
 30
-1.536999940872192
 70
   192
  0
VERTEX
  5
AF
  8
0
 10
40.5
 20
-12.28499984741211
 30
-6.907999992370605
 70
   192
  0
VERTEX
  5
B0
  8
0
 10
52.0
 20
-13.5629997253418
 30
5.592999935150146
 70
   192
  0
VERTEX
  5
B1
  8
0
 10
40.5
 20
-19.87700080871582
 30
16.45800018310547
 70
   192
  0
VERTEX
  5
B2
  8
0
 10
40.5
 20
-19.87700080871582
 30
3.54200005531311
 70
   192
  0
VERTEX
  5
B3
  8
0
 10
40.5
 20
-12.28499984741211
 30
26.90800094604492
 70
   192
  0
VERTEX
  5
B4
  8
0
 10
52.0
 20
-13.5629997253418
 30
14.4069995880127
 70
   192
  0
VERTEX
  5
B5
  8
0
 10
52.0
 20
-8.381999969482422
 30
21.53700065612793
 70
   192
  0
VERTEX
  5
B6
  8
0
 62
     9
 10
0.0
 20
0.0
 30
0.0
 70
   128
 71
     3
 72
     2
 73
     1
  0
VERTEX
  5
B7
  8
0
 62
     9
 10
0.0
 20
0.0
 30
0.0
 70
   128
 71
     5
 72
     4
 73
     1
  0
VERTEX
  5
B8
  8
0
 62
     9
 10
0.0
 20
0.0
 30
0.0
 70
   128
 71
     7
 72
     5
 73
     6
  0
VERTEX
  5
B9
  8
0
 62
     9
 10
0.0
 20
0.0
 30
0.0
 70
   128
 71
     7
 72
     9
 73
     8
  0
VERTEX
  5
BA
  8
0
 62
     9
 10
0.0
 20
0.0
 30
0.0
 70
   128
 71
    11
 72
     8
 73
    10
  0
VERTEX
  5
BB
  8
0
 62
     9
 10
0.0
 20
0.0
 30
0.0
 70
   128
 71
    13
 72
    12
 73
    10
  0
VERTEX
  5
BC
  8
0
 62
     9
 10
0.0
 20
0.0
 30
0.0
 70
   128
 71
    15
 72
    13
 73
    14
  0
VERTEX
  5
BD
  8
0
 62
     9
 10
0.0
 20
0.0
 30
0.0
 70
   128
 71
    15
 72
    17
 73
    16
  0
VERTEX
  5
BE
  8
0
 62
     9
 10
0.0
 20
0.0
 30
0.0
 70
   128
 71
    19
 72
    16
 73
    18
  0
VERTEX
  5
BF
  8
0
 62
     9
 10
0.0
 20
0.0
 30
0.0
 70
   128
 71
    20
 72
    18
 73
     2
  0
VERTEX
  5
C0
  8
0
 62
     9
 10
0.0
 20
0.0
 30
0.0
 70
   128
 71
     2
 72
     3
 73
    20
  0
VERTEX
  5
C1
  8
0
 62
     9
 10
0.0
 20
0.0
 30
0.0
 70
   128
 71
    18
 72
    20
 73
    19
  0
VERTEX
  5
C2
  8
0
 62
     9
 10
0.0
 20
0.0
 30
0.0
 70
   128
 71
    16
 72
    19
 73
    15
  0
VERTEX
  5
C3
  8
0
 62
     9
 10
0.0
 20
0.0
 30
0.0
 70
   128
 71
    14
 72
    17
 73
    15
  0
VERTEX
  5
C4
  8
0
 62
     9
 10
0.0
 20
0.0
 30
0.0
 70
   128
 71
    10
 72
    14
 73
    13
  0
VERTEX
  5
C5
  8
0
 62
     9
 10
0.0
 20
0.0
 30
0.0
 70
   128
 71
    10
 72
    12
 73
    11
  0
VERTEX
  5
C6
  8
0
 62
     9
 10
0.0
 20
0.0
 30
0.0
 70
   128
 71
     8
 72
    11
 73
     7
  0
VERTEX
  5
C7
  8
0
 62
     9
 10
0.0
 20
0.0
 30
0.0
 70
   128
 71
     6
 72
     9
 73
     7
  0
VERTEX
  5
C8
  8
0
 62
     9
 10
0.0
 20
0.0
 30
0.0
 70
   128
 71
     1
 72
     6
 73
     5
  0
VERTEX
  5
C9
  8
0
 62
     9
 10
0.0
 20
0.0
 30
0.0
 70
   128
 71
     1
 72
     4
 73
     3
  0
SEQEND
  5
CA
  8
0
 62
     9
  0
ENDBLK
  5
CD
  8
0
  0
BLOCK
  8
0
  2
E3_NODE_4_
 70
     0
 10
0.0
 20
0.0
 30
0.0
  3
E3_NODE_4_
  1

  0
POLYLINE
  5
CF
  8
0
 62
     9
 66
     1
 10
0.0
 20
0.0
 30
0.0
 70
    64
 71
    20
 72
    20
  0
VERTEX
  5
D0
  8
0
 10
25.0
 20
12.28499984741211
 30
-6.907999992370605
 70
   192
  0
VERTEX
  5
D1
  8
0
 10
40.5
 20
12.28499984741211
 30
-6.907999992370605
 70
   192
  0
VERTEX
  5
D2
  8
0
 10
40.5
 20
0.0
 30
-10.89999961853027
 70
   192
  0
VERTEX
  5
D3
  8
0
 10
25.0
 20
19.87700080871582
 30
3.54200005531311
 70
   192
  0
VERTEX
  5
D4
  8
0
 10
40.5
 20
19.87700080871582
 30
3.54200005531311
 70
   192
  0
VERTEX
  5
D5
  8
0
 10
25.0
 20
19.87700080871582
 30
16.45800018310547
 70
   192
  0
VERTEX
  5
D6
  8
0
 10
40.5
 20
19.87700080871582
 30
16.45800018310547
 70
   192
  0
VERTEX
  5
D7
  8
0
 10
25.0
 20
12.28499984741211
 30
26.90800094604492
 70
   192
  0
VERTEX
  5
D8
  8
0
 10
40.5
 20
12.28499984741211
 30
26.90800094604492
 70
   192
  0
VERTEX
  5
D9
  8
0
 10
25.0
 20
0.0
 30
30.89999961853027
 70
   192
  0
VERTEX
  5
DA
  8
0
 10
40.5
 20
0.0
 30
30.89999961853027
 70
   192
  0
VERTEX
  5
DB
  8
0
 10
25.0
 20
-12.28499984741211
 30
26.90800094604492
 70
   192
  0
VERTEX
  5
DC
  8
0
 10
40.5
 20
-12.28499984741211
 30
26.90800094604492
 70
   192
  0
VERTEX
  5
DD
  8
0
 10
25.0
 20
-19.87700080871582
 30
16.45800018310547
 70
   192
  0
VERTEX
  5
DE
  8
0
 10
40.5
 20
-19.87700080871582
 30
16.45800018310547
 70
   192
  0
VERTEX
  5
DF
  8
0
 10
25.0
 20
-19.87700080871582
 30
3.54200005531311
 70
   192
  0
VERTEX
  5
E0
  8
0
 10
40.5
 20
-19.87700080871582
 30
3.54200005531311
 70
   192
  0
VERTEX
  5
E1
  8
0
 10
25.0
 20
-12.28499984741211
 30
-6.907999992370605
 70
   192
  0
VERTEX
  5
E2
  8
0
 10
40.5
 20
-12.28499984741211
 30
-6.907999992370605
 70
   192
  0
VERTEX
  5
E3
  8
0
 10
25.0
 20
0.0
 30
-10.89999961853027
 70
   192
  0
VERTEX
  5
E4
  8
0
 62
     9
 10
0.0
 20
0.0
 30
0.0
 70
   128
 71
     3
 72
     2
 73
     1
  0
VERTEX
  5
E5
  8
0
 62
     9
 10
0.0
 20
0.0
 30
0.0
 70
   128
 71
     2
 72
     5
 73
     4
  0
VERTEX
  5
E6
  8
0
 62
     9
 10
0.0
 20
0.0
 30
0.0
 70
   128
 71
     5
 72
     7
 73
     6
  0
VERTEX
  5
E7
  8
0
 62
     9
 10
0.0
 20
0.0
 30
0.0
 70
   128
 71
     7
 72
     9
 73
     8
  0
VERTEX
  5
E8
  8
0
 62
     9
 10
0.0
 20
0.0
 30
0.0
 70
   128
 71
     9
 72
    11
 73
    10
  0
VERTEX
  5
E9
  8
0
 62
     9
 10
0.0
 20
0.0
 30
0.0
 70
   128
 71
    11
 72
    13
 73
    12
  0
VERTEX
  5
EA
  8
0
 62
     9
 10
0.0
 20
0.0
 30
0.0
 70
   128
 71
    13
 72
    15
 73
    14
  0
VERTEX
  5
EB
  8
0
 62
     9
 10
0.0
 20
0.0
 30
0.0
 70
   128
 71
    15
 72
    17
 73
    16
  0
VERTEX
  5
EC
  8
0
 62
     9
 10
0.0
 20
0.0
 30
0.0
 70
   128
 71
    17
 72
    19
 73
    18
  0
VERTEX
  5
ED
  8
0
 62
     9
 10
0.0
 20
0.0
 30
0.0
 70
   128
 71
    19
 72
     3
 73
    20
  0
VERTEX
  5
EE
  8
0
 62
     9
 10
0.0
 20
0.0
 30
0.0
 70
   128
 71
    20
 72
    18
 73
    19
  0
VERTEX
  5
EF
  8
0
 62
     9
 10
0.0
 20
0.0
 30
0.0
 70
   128
 71
    18
 72
    16
 73
    17
  0
VERTEX
  5
F0
  8
0
 62
     9
 10
0.0
 20
0.0
 30
0.0
 70
   128
 71
    16
 72
    14
 73
    15
  0
VERTEX
  5
F1
  8
0
 62
     9
 10
0.0
 20
0.0
 30
0.0
 70
   128
 71
    14
 72
    12
 73
    13
  0
VERTEX
  5
F2
  8
0
 62
     9
 10
0.0
 20
0.0
 30
0.0
 70
   128
 71
    12
 72
    10
 73
    11
  0
VERTEX
  5
F3
  8
0
 62
     9
 10
0.0
 20
0.0
 30
0.0
 70
   128
 71
    10
 72
     8
 73
     9
  0
VERTEX
  5
F4
  8
0
 62
     9
 10
0.0
 20
0.0
 30
0.0
 70
   128
 71
     8
 72
     6
 73
     7
  0
VERTEX
  5
F5
  8
0
 62
     9
 10
0.0
 20
0.0
 30
0.0
 70
   128
 71
     6
 72
     4
 73
     5
  0
VERTEX
  5
F6
  8
0
 62
     9
 10
0.0
 20
0.0
 30
0.0
 70
   128
 71
     4
 72
     1
 73
     2
  0
VERTEX
  5
F7
  8
0
 62
     9
 10
0.0
 20
0.0
 30
0.0
 70
   128
 71
     1
 72
    20
 73
     3
  0
SEQEND
  5
F8
  8
0
 62
     9
  0
ENDBLK
  5
FB
  8
0
  0
BLOCK
  8
0
  2
E3_NODE_5_
 70
     0
 10
0.0
 20
0.0
 30
0.0
  3
E3_NODE_5_
  1

  0
POLYLINE
  5
FD
  8
0
 62
     9
 66
     1
 10
0.0
 20
0.0
 30
0.0
 70
    64
 71
    48
 72
    48
  0
VERTEX
  5
FE
  8
0
 10
25.0
 20
12.28499984741211
 30
-6.907999992370605
 70
   192
  0
VERTEX
  5
FF
  8
0
 10
24.93600082397461
 20
5.591000080108643
 30
-8.861000061035156
 70
   192
  0
VERTEX
  5
100
  8
0
 10
24.87199974060059
 20
8.189000129699707
 30
-6.528999805450439
 70
   192
  0
VERTEX
  5
101
  8
0
 10
24.87100028991699
 20
8.208000183105469
 30
-6.51200008392334
 70
   192
  0
VERTEX
  5
102
  8
0
 10
25.0
 20
0.0
 30
-10.89999961853027
 70
   192
  0
VERTEX
  5
103
  8
0
 10
24.97400093078613
 20
-0.0040000001899898
 30
-10.3459997177124
 70
   192
  0
VERTEX
  5
104
  8
0
 10
24.97100067138672
 20
2.345000028610229
 30
-10.21199989318848
 70
   192
  0
VERTEX
  5
105
  8
0
 10
25.0
 20
19.87700080871582
 30
3.54200005531311
 70
   192
  0
VERTEX
  5
106
  8
0
 10
24.66200065612793
 20
10.47700023651123
 30
0.0419999994337559
 70
   192
  0
VERTEX
  5
107
  8
0
 10
24.57200050354004
 20
10.08199977874756
 30
2.308000087738037
 70
   192
  0
VERTEX
  5
108
  8
0
 10
24.77899932861328
 20
9.901000022888184
 30
-3.427999973297119
 70
   192
  0
VERTEX
  5
109
  8
0
 10
24.78300094604492
 20
9.835000038146973
 30
-3.54800009727478
 70
   192
  0
VERTEX
  5
10A
  8
0
 10
24.52400016784668
 20
9.873000144958496
 30
3.507999897003174
 70
   192
  0
VERTEX
  5
10B
  8
0
 10
24.36800003051758
 20
8.154000282287598
 30
6.578999996185303
 70
   192
  0
VERTEX
  5
10C
  8
0
 10
25.0
 20
19.87700080871582
 30
16.45800018310547
 70
   192
  0
VERTEX
  5
10D
  8
0
 10
24.19899940490723
 20
5.514999866485596
 30
8.909000396728516
 70
   192
  0
VERTEX
  5
10E
  8
0
 10
24.14399909973145
 20
4.498000144958496
 30
9.321000099182129
 70
   192
  0
VERTEX
  5
10F
  8
0
 10
24.02300071716309
 20
2.252000093460083
 30
10.23299980163574
 70
   192
  0
VERTEX
  5
110
  8
0
 10
24.29700088500977
 20
7.045000076293945
 30
7.558000087738037
 70
   192
  0
VERTEX
  5
111
  8
0
 10
25.0
 20
12.28499984741211
 30
26.90800094604492
 70
   192
  0
VERTEX
  5
112
  8
0
 10
24.0049991607666
 20
1.830999970436096
 30
10.27999973297119
 70
   192
  0
VERTEX
  5
113
  8
0
 10
25.0
 20
0.0
 30
30.89999961853027
 70
   192
  0
VERTEX
  5
114
  8
0
 10
23.95100021362305
 20
0.5809999704360962
 30
10.42300033569336
 70
   192
  0
VERTEX
  5
115
  8
0
 10
23.93000030517578
 20
0.1040000021457672
 30
10.47700023651123
 70
   192
  0
VERTEX
  5
116
  8
0
 10
23.9330005645752
 20
0.0120000001043081
 30
10.4709997177124
 70
   192
  0
VERTEX
  5
117
  8
0
 10
23.95499992370605
 20
-0.6100000143051147
 30
10.42700004577637
 70
   192
  0
VERTEX
  5
118
  8
0
 10
25.0
 20
-12.28499984741211
 30
26.90800094604492
 70
   192
  0
VERTEX
  5
119
  8
0
 10
23.98500061035156
 20
-1.458999991416931
 30
10.36800003051758
 70
   192
  0
VERTEX
  5
11A
  8
0
 10
25.0
 20
-19.87700080871582
 30
16.45800018310547
 70
   192
  0
VERTEX
  5
11B
  8
0
 10
24.24200057983398
 20
-6.235000133514404
 30
8.420999526977539
 70
   192
  0
VERTEX
  5
11C
  8
0
 10
24.29599952697754
 20
-7.035999774932861
 30
7.585000038146973
 70
   192
  0
VERTEX
  5
11D
  8
0
 10
24.07200050354004
 20
-3.190000057220459
 30
9.979999542236328
 70
   192
  0
VERTEX
  5
11E
  8
0
 10
24.14399909973145
 20
-4.482999801635742
 30
9.317999839782715
 70
   192
  0
VERTEX
  5
11F
  8
0
 10
23.98900032043457
 20
-1.564000010490417
 30
10.35999965667725
 70
   192
  0
VERTEX
  5
120
  8
0
 10
25.0
 20
-19.87700080871582
 30
3.54200005531311
 70
   192
  0
VERTEX
  5
121
  8
0
 10
24.69300079345703
 20
-10.44400024414062
 30
-0.8360000252723694
 70
   192
  0
VERTEX
  5
122
  8
0
 10
24.7810001373291
 20
-9.763999938964844
 30
-3.515000104904175
 70
   192
  0
VERTEX
  5
123
  8
0
 10
24.55999946594238
 20
-10.13099956512451
 30
2.671999931335449
 70
   192
  0
VERTEX
  5
124
  8
0
 10
24.57299995422363
 20
-10.16199970245361
 30
2.32699990272522
 70
   192
  0
VERTEX
  5
125
  8
0
 10
24.40800094604492
 20
-8.67300033569336
 30
5.877999782562256
 70
   192
  0
VERTEX
  5
126
  8
0
 10
24.97599983215332
 20
-1.16700005531311
 30
-10.41199970245361
 70
   192
  0
VERTEX
  5
127
  8
0
 10
24.97400093078613
 20
-0.0080000003799796
 30
-10.3459997177124
 70
   192
  0
VERTEX
  5
128
  8
0
 10
25.0
 20
-12.28499984741211
 30
-6.907999992370605
 70
   192
  0
VERTEX
  5
129
  8
0
 10
24.80400085449219
 20
-9.57699966430664
 30
-4.249000072479248
 70
   192
  0
VERTEX
  5
12A
  8
0
 10
24.86899948120117
 20
-8.109999656677246
 30
-6.479000091552734
 70
   192
  0
VERTEX
  5
12B
  8
0
 10
24.88800048828125
 20
-7.692999839782715
 30
-7.11299991607666
 70
   192
  0
VERTEX
  5
12C
  8
0
 10
24.89599990844727
 20
-7.414999961853027
 30
-7.402999877929688
 70
   192
  0
VERTEX
  5
12D
  8
0
 10
24.95100021362305
 20
-4.546999931335449
 30
-9.439000129699707
 70
   192
  0
VERTEX
  5
12E
  8
0
 62
     9
 10
0.0
 20
0.0
 30
0.0
 70
   128
 71
     3
 72
     2
 73
     1
  0
VERTEX
  5
12F
  8
0
 62
     9
 10
0.0
 20
0.0
 30
0.0
 70
   128
 71
     1
 72
     4
 73
     3
  0
VERTEX
  5
130
  8
0
 62
     9
 10
0.0
 20
0.0
 30
0.0
 70
   128
 71
     7
 72
     6
 73
     5
  0
VERTEX
  5
131
  8
0
 62
     9
 10
0.0
 20
0.0
 30
0.0
 70
   128
 71
     5
 72
     1
 73
     7
  0
VERTEX
  5
132
  8
0
 62
     9
 10
0.0
 20
0.0
 30
0.0
 70
   128
 71
     1
 72
     2
 73
     7
  0
VERTEX
  5
133
  8
0
 62
     9
 10
0.0
 20
0.0
 30
0.0
 70
   128
 71
    10
 72
     9
 73
     8
  0
VERTEX
  5
134
  8
0
 62
     9
 10
0.0
 20
0.0
 30
0.0
 70
   128
 71
    11
 72
     1
 73
     8
  0
VERTEX
  5
135
  8
0
 62
     9
 10
0.0
 20
0.0
 30
0.0
 70
   128
 71
    11
 72
    12
 73
     1
  0
VERTEX
  5
136
  8
0
 62
     9
 10
0.0
 20
0.0
 30
0.0
 70
   128
 71
     8
 72
     9
 73
    11
  0
VERTEX
  5
137
  8
0
 62
     9
 10
0.0
 20
0.0
 30
0.0
 70
   128
 71
     8
 72
    13
 73
    10
  0
VERTEX
  5
138
  8
0
 62
     9
 10
0.0
 20
0.0
 30
0.0
 70
   128
 71
     8
 72
    14
 73
    13
  0
VERTEX
  5
139
  8
0
 62
     9
 10
0.0
 20
0.0
 30
0.0
 70
   128
 71
    17
 72
    16
 73
    15
  0
VERTEX
  5
13A
  8
0
 62
     9
 10
0.0
 20
0.0
 30
0.0
 70
   128
 71
    15
 72
    18
 73
    17
  0
VERTEX
  5
13B
  8
0
 62
     9
 10
0.0
 20
0.0
 30
0.0
 70
   128
 71
    19
 72
     8
 73
    15
  0
VERTEX
  5
13C
  8
0
 62
     9
 10
0.0
 20
0.0
 30
0.0
 70
   128
 71
    15
 72
    16
 73
    19
  0
VERTEX
  5
13D
  8
0
 62
     9
 10
0.0
 20
0.0
 30
0.0
 70
   128
 71
    21
 72
    15
 73
    20
  0
VERTEX
  5
13E
  8
0
 62
     9
 10
0.0
 20
0.0
 30
0.0
 70
   128
 71
    23
 72
    20
 73
    22
  0
VERTEX
  5
13F
  8
0
 62
     9
 10
0.0
 20
0.0
 30
0.0
 70
   128
 71
    22
 72
    24
 73
    23
  0
VERTEX
  5
140
  8
0
 62
     9
 10
0.0
 20
0.0
 30
0.0
 70
   128
 71
    26
 72
    25
 73
    22
  0
VERTEX
  5
141
  8
0
 62
     9
 10
0.0
 20
0.0
 30
0.0
 70
   128
 71
    28
 72
    26
 73
    27
  0
VERTEX
  5
142
  8
0
 62
     9
 10
0.0
 20
0.0
 30
0.0
 70
   128
 71
    31
 72
    30
 73
    29
  0
VERTEX
  5
143
  8
0
 62
     9
 10
0.0
 20
0.0
 30
0.0
 70
   128
 71
    33
 72
    32
 73
    29
  0
VERTEX
  5
144
  8
0
 62
     9
 10
0.0
 20
0.0
 30
0.0
 70
   128
 71
    34
 72
    28
 73
    29
  0
VERTEX
  5
145
  8
0
 62
     9
 10
0.0
 20
0.0
 30
0.0
 70
   128
 71
    29
 72
    32
 73
    34
  0
VERTEX
  5
146
  8
0
 62
     9
 10
0.0
 20
0.0
 30
0.0
 70
   128
 71
    29
 72
    30
 73
    33
  0
VERTEX
  5
147
  8
0
 62
     9
 10
0.0
 20
0.0
 30
0.0
 70
   128
 71
    37
 72
    36
 73
    35
  0
VERTEX
  5
148
  8
0
 62
     9
 10
0.0
 20
0.0
 30
0.0
 70
   128
 71
    39
 72
    38
 73
    35
  0
VERTEX
  5
149
  8
0
 62
     9
 10
0.0
 20
0.0
 30
0.0
 70
   128
 71
    35
 72
    36
 73
    39
  0
VERTEX
  5
14A
  8
0
 62
     9
 10
0.0
 20
0.0
 30
0.0
 70
   128
 71
    38
 72
    40
 73
    35
  0
VERTEX
  5
14B
  8
0
 62
     9
 10
0.0
 20
0.0
 30
0.0
 70
   128
 71
    40
 72
    31
 73
    35
  0
VERTEX
  5
14C
  8
0
 62
     9
 10
0.0
 20
0.0
 30
0.0
 70
   128
 71
    42
 72
    41
 73
     5
  0
VERTEX
  5
14D
  8
0
 62
     9
 10
0.0
 20
0.0
 30
0.0
 70
   128
 71
    44
 72
    37
 73
    43
  0
VERTEX
  5
14E
  8
0
 62
     9
 10
0.0
 20
0.0
 30
0.0
 70
   128
 71
    46
 72
    45
 73
    43
  0
VERTEX
  5
14F
  8
0
 62
     9
 10
0.0
 20
0.0
 30
0.0
 70
   128
 71
    48
 72
    47
 73
    43
  0
VERTEX
  5
150
  8
0
 62
     9
 10
0.0
 20
0.0
 30
0.0
 70
   128
 71
    43
 72
     5
 73
    48
  0
VERTEX
  5
151
  8
0
 62
     9
 10
0.0
 20
0.0
 30
0.0
 70
   128
 71
     5
 72
    41
 73
    48
  0
VERTEX
  5
152
  8
0
 62
     9
 10
0.0
 20
0.0
 30
0.0
 70
   128
 71
    43
 72
    47
 73
    46
  0
VERTEX
  5
153
  8
0
 62
     9
 10
0.0
 20
0.0
 30
0.0
 70
   128
 71
    43
 72
    45
 73
    44
  0
VERTEX
  5
154
  8
0
 62
     9
 10
0.0
 20
0.0
 30
0.0
 70
   128
 71
     5
 72
     6
 73
    42
  0
VERTEX
  5
155
  8
0
 62
     9
 10
0.0
 20
0.0
 30
0.0
 70
   128
 71
    35
 72
    43
 73
    37
  0
VERTEX
  5
156
  8
0
 62
     9
 10
0.0
 20
0.0
 30
0.0
 70
   128
 71
    29
 72
    35
 73
    31
  0
VERTEX
  5
157
  8
0
 62
     9
 10
0.0
 20
0.0
 30
0.0
 70
   128
 71
    27
 72
    29
 73
    28
  0
VERTEX
  5
158
  8
0
 62
     9
 10
0.0
 20
0.0
 30
0.0
 70
   128
 71
    22
 72
    27
 73
    26
  0
VERTEX
  5
159
  8
0
 62
     9
 10
0.0
 20
0.0
 30
0.0
 70
   128
 71
    22
 72
    25
 73
    24
  0
VERTEX
  5
15A
  8
0
 62
     9
 10
0.0
 20
0.0
 30
0.0
 70
   128
 71
    20
 72
    23
 73
    21
  0
VERTEX
  5
15B
  8
0
 62
     9
 10
0.0
 20
0.0
 30
0.0
 70
   128
 71
    15
 72
    21
 73
    18
  0
VERTEX
  5
15C
  8
0
 62
     9
 10
0.0
 20
0.0
 30
0.0
 70
   128
 71
     8
 72
    19
 73
    14
  0
VERTEX
  5
15D
  8
0
 62
     9
 10
0.0
 20
0.0
 30
0.0
 70
   128
 71
     1
 72
    12
 73
     4
  0
SEQEND
  5
15E
  8
0
 62
     9
  0
ENDBLK
  5
161
  8
0
  0
BLOCK
  8
0
  2
E3_NODE_6_
 70
     0
 10
0.0
 20
0.0
 30
0.0
  3
E3_NODE_6_
  1

  0
POLYLINE
  5
163
  8
0
 62
     9
 66
     1
 10
0.0
 20
0.0
 30
0.0
 70
    64
 71
    45
 72
    45
  0
VERTEX
  5
164
  8
0
 10
0.0
 20
-8.192000389099121
 30
-6.532999992370605
 70
   192
  0
VERTEX
  5
165
  8
0
 10
24.7810001373291
 20
-9.763999938964844
 30
-3.515000104904175
 70
   192
  0
VERTEX
  5
166
  8
0
 10
24.69300079345703
 20
-10.44400024414062
 30
-0.8360000252723694
 70
   192
  0
VERTEX
  5
167
  8
0
 10
0.0
 20
-10.21500015258789
 30
2.331000089645386
 70
   192
  0
VERTEX
  5
168
  8
0
 10
24.86899948120117
 20
-8.109999656677246
 30
-6.479000091552734
 70
   192
  0
VERTEX
  5
169
  8
0
 10
24.80400085449219
 20
-9.57699966430664
 30
-4.249000072479248
 70
   192
  0
VERTEX
  5
16A
  8
0
 10
0.0
 20
-4.546000003814697
 30
9.4399995803833
 70
   192
  0
VERTEX
  5
16B
  8
0
 10
24.29599952697754
 20
-7.035999774932861
 30
7.585000038146973
 70
   192
  0
VERTEX
  5
16C
  8
0
 10
24.24200057983398
 20
-6.235000133514404
 30
8.420999526977539
 70
   192
  0
VERTEX
  5
16D
  8
0
 10
24.40800094604492
 20
-8.67300033569336
 30
5.877999782562256
 70
   192
  0
VERTEX
  5
16E
  8
0
 10
24.55999946594238
 20
-10.13099956512451
 30
2.671999931335449
 70
   192
  0
VERTEX
  5
16F
  8
0
 10
24.57299995422363
 20
-10.16199970245361
 30
2.32699990272522
 70
   192
  0
VERTEX
  5
170
  8
0
 10
0.0
 20
4.546000003814697
 30
9.4399995803833
 70
   192
  0
VERTEX
  5
171
  8
0
 10
23.93000030517578
 20
0.1040000021457672
 30
10.47700023651123
 70
   192
  0
VERTEX
  5
172
  8
0
 10
23.95100021362305
 20
0.5809999704360962
 30
10.42300033569336
 70
   192
  0
VERTEX
  5
173
  8
0
 10
24.0049991607666
 20
1.830999970436096
 30
10.27999973297119
 70
   192
  0
VERTEX
  5
174
  8
0
 10
24.02300071716309
 20
2.252000093460083
 30
10.23299980163574
 70
   192
  0
VERTEX
  5
175
  8
0
 10
23.9330005645752
 20
0.0120000001043081
 30
10.4709997177124
 70
   192
  0
VERTEX
  5
176
  8
0
 10
23.98900032043457
 20
-1.564000010490417
 30
10.35999965667725
 70
   192
  0
VERTEX
  5
177
  8
0
 10
23.98500061035156
 20
-1.458999991416931
 30
10.36800003051758
 70
   192
  0
VERTEX
  5
178
  8
0
 10
23.95499992370605
 20
-0.6100000143051147
 30
10.42700004577637
 70
   192
  0
VERTEX
  5
179
  8
0
 10
24.14399909973145
 20
-4.482999801635742
 30
9.317999839782715
 70
   192
  0
VERTEX
  5
17A
  8
0
 10
24.07200050354004
 20
-3.190000057220459
 30
9.979999542236328
 70
   192
  0
VERTEX
  5
17B
  8
0
 10
0.0
 20
10.21500015258789
 30
2.331000089645386
 70
   192
  0
VERTEX
  5
17C
  8
0
 10
24.29700088500977
 20
7.045000076293945
 30
7.558000087738037
 70
   192
  0
VERTEX
  5
17D
  8
0
 10
24.36800003051758
 20
8.154000282287598
 30
6.578999996185303
 70
   192
  0
VERTEX
  5
17E
  8
0
 10
24.52400016784668
 20
9.873000144958496
 30
3.507999897003174
 70
   192
  0
VERTEX
  5
17F
  8
0
 10
24.14399909973145
 20
4.498000144958496
 30
9.321000099182129
 70
   192
  0
VERTEX
  5
180
  8
0
 10
24.19899940490723
 20
5.514999866485596
 30
8.909000396728516
 70
   192
  0
VERTEX
  5
181
  8
0
 10
0.0
 20
8.192000389099121
 30
-6.532999992370605
 70
   192
  0
VERTEX
  5
182
  8
0
 10
24.78300094604492
 20
9.835000038146973
 30
-3.54800009727478
 70
   192
  0
VERTEX
  5
183
  8
0
 10
24.87100028991699
 20
8.208000183105469
 30
-6.51200008392334
 70
   192
  0
VERTEX
  5
184
  8
0
 10
24.66200065612793
 20
10.47700023651123
 30
0.0419999994337559
 70
   192
  0
VERTEX
  5
185
  8
0
 10
24.57200050354004
 20
10.08199977874756
 30
2.308000087738037
 70
   192
  0
VERTEX
  5
186
  8
0
 10
24.77899932861328
 20
9.901000022888184
 30
-3.427999973297119
 70
   192
  0
VERTEX
  5
187
  8
0
 10
0.0
 20
0.0
 30
-10.47799968719482
 70
   192
  0
VERTEX
  5
188
  8
0
 10
24.93600082397461
 20
5.591000080108643
 30
-8.861000061035156
 70
   192
  0
VERTEX
  5
189
  8
0
 10
24.87199974060059
 20
8.189000129699707
 30
-6.528999805450439
 70
   192
  0
VERTEX
  5
18A
  8
0
 10
24.97100067138672
 20
2.345000028610229
 30
-10.21199989318848
 70
   192
  0
VERTEX
  5
18B
  8
0
 10
24.97400093078613
 20
-0.0040000001899898
 30
-10.3459997177124
 70
   192
  0
VERTEX
  5
18C
  8
0
 10
24.89599990844727
 20
-7.414999961853027
 30
-7.402999877929688
 70
   192
  0
VERTEX
  5
18D
  8
0
 10
24.88800048828125
 20
-7.692999839782715
 30
-7.11299991607666
 70
   192
  0
VERTEX
  5
18E
  8
0
 10
24.95100021362305
 20
-4.546999931335449
 30
-9.439000129699707
 70
   192
  0
VERTEX
  5
18F
  8
0
 10
24.97599983215332
 20
-1.16700005531311
 30
-10.41199970245361
 70
   192
  0
VERTEX
  5
190
  8
0
 10
24.97400093078613
 20
-0.0080000003799796
 30
-10.3459997177124
 70
   192
  0
VERTEX
  5
191
  8
0
 62
     9
 10
0.0
 20
0.0
 30
0.0
 70
   128
 71
     3
 72
     2
 73
     1
  0
VERTEX
  5
192
  8
0
 62
     9
 10
0.0
 20
0.0
 30
0.0
 70
   128
 71
     1
 72
     4
 73
     3
  0
VERTEX
  5
193
  8
0
 62
     9
 10
0.0
 20
0.0
 30
0.0
 70
   128
 71
     6
 72
     5
 73
     1
  0
VERTEX
  5
194
  8
0
 62
     9
 10
0.0
 20
0.0
 30
0.0
 70
   128
 71
     1
 72
     2
 73
     6
  0
VERTEX
  5
195
  8
0
 62
     9
 10
0.0
 20
0.0
 30
0.0
 70
   128
 71
     9
 72
     8
 73
     7
  0
VERTEX
  5
196
  8
0
 62
     9
 10
0.0
 20
0.0
 30
0.0
 70
   128
 71
     8
 72
    10
 73
     4
  0
VERTEX
  5
197
  8
0
 62
     9
 10
0.0
 20
0.0
 30
0.0
 70
   128
 71
    10
 72
    11
 73
     4
  0
VERTEX
  5
198
  8
0
 62
     9
 10
0.0
 20
0.0
 30
0.0
 70
   128
 71
     4
 72
     7
 73
     8
  0
VERTEX
  5
199
  8
0
 62
     9
 10
0.0
 20
0.0
 30
0.0
 70
   128
 71
    11
 72
    12
 73
     4
  0
VERTEX
  5
19A
  8
0
 62
     9
 10
0.0
 20
0.0
 30
0.0
 70
   128
 71
    15
 72
    14
 73
    13
  0
VERTEX
  5
19B
  8
0
 62
     9
 10
0.0
 20
0.0
 30
0.0
 70
   128
 71
    13
 72
    16
 73
    15
  0
VERTEX
  5
19C
  8
0
 62
     9
 10
0.0
 20
0.0
 30
0.0
 70
   128
 71
    13
 72
    17
 73
    16
  0
VERTEX
  5
19D
  8
0
 62
     9
 10
0.0
 20
0.0
 30
0.0
 70
   128
 71
    14
 72
    18
 73
     7
  0
VERTEX
  5
19E
  8
0
 62
     9
 10
0.0
 20
0.0
 30
0.0
 70
   128
 71
    20
 72
    19
 73
     7
  0
VERTEX
  5
19F
  8
0
 62
     9
 10
0.0
 20
0.0
 30
0.0
 70
   128
 71
     7
 72
    21
 73
    20
  0
VERTEX
  5
1A0
  8
0
 62
     9
 10
0.0
 20
0.0
 30
0.0
 70
   128
 71
     7
 72
    18
 73
    21
  0
VERTEX
  5
1A1
  8
0
 62
     9
 10
0.0
 20
0.0
 30
0.0
 70
   128
 71
    23
 72
    22
 73
     7
  0
VERTEX
  5
1A2
  8
0
 62
     9
 10
0.0
 20
0.0
 30
0.0
 70
   128
 71
     7
 72
    19
 73
    23
  0
VERTEX
  5
1A3
  8
0
 62
     9
 10
0.0
 20
0.0
 30
0.0
 70
   128
 71
     7
 72
    13
 73
    14
  0
VERTEX
  5
1A4
  8
0
 62
     9
 10
0.0
 20
0.0
 30
0.0
 70
   128
 71
    25
 72
    13
 73
    24
  0
VERTEX
  5
1A5
  8
0
 62
     9
 10
0.0
 20
0.0
 30
0.0
 70
   128
 71
    24
 72
    26
 73
    25
  0
VERTEX
  5
1A6
  8
0
 62
     9
 10
0.0
 20
0.0
 30
0.0
 70
   128
 71
    24
 72
    27
 73
    26
  0
VERTEX
  5
1A7
  8
0
 62
     9
 10
0.0
 20
0.0
 30
0.0
 70
   128
 71
    29
 72
    28
 73
    13
  0
VERTEX
  5
1A8
  8
0
 62
     9
 10
0.0
 20
0.0
 30
0.0
 70
   128
 71
    13
 72
    25
 73
    29
  0
VERTEX
  5
1A9
  8
0
 62
     9
 10
0.0
 20
0.0
 30
0.0
 70
   128
 71
    32
 72
    31
 73
    30
  0
VERTEX
  5
1AA
  8
0
 62
     9
 10
0.0
 20
0.0
 30
0.0
 70
   128
 71
    33
 72
    24
 73
    30
  0
VERTEX
  5
1AB
  8
0
 62
     9
 10
0.0
 20
0.0
 30
0.0
 70
   128
 71
    33
 72
    34
 73
    24
  0
VERTEX
  5
1AC
  8
0
 62
     9
 10
0.0
 20
0.0
 30
0.0
 70
   128
 71
    30
 72
    35
 73
    33
  0
VERTEX
  5
1AD
  8
0
 62
     9
 10
0.0
 20
0.0
 30
0.0
 70
   128
 71
    30
 72
    31
 73
    35
  0
VERTEX
  5
1AE
  8
0
 62
     9
 10
0.0
 20
0.0
 30
0.0
 70
   128
 71
    37
 72
    30
 73
    36
  0
VERTEX
  5
1AF
  8
0
 62
     9
 10
0.0
 20
0.0
 30
0.0
 70
   128
 71
    37
 72
    38
 73
    30
  0
VERTEX
  5
1B0
  8
0
 62
     9
 10
0.0
 20
0.0
 30
0.0
 70
   128
 71
    36
 72
    39
 73
    37
  0
VERTEX
  5
1B1
  8
0
 62
     9
 10
0.0
 20
0.0
 30
0.0
 70
   128
 71
    36
 72
    40
 73
    39
  0
VERTEX
  5
1B2
  8
0
 62
     9
 10
0.0
 20
0.0
 30
0.0
 70
   128
 71
    42
 72
    41
 73
     1
  0
VERTEX
  5
1B3
  8
0
 62
     9
 10
0.0
 20
0.0
 30
0.0
 70
   128
 71
    43
 72
    36
 73
     1
  0
VERTEX
  5
1B4
  8
0
 62
     9
 10
0.0
 20
0.0
 30
0.0
 70
   128
 71
    43
 72
    44
 73
    36
  0
VERTEX
  5
1B5
  8
0
 62
     9
 10
0.0
 20
0.0
 30
0.0
 70
   128
 71
    44
 72
    45
 73
    36
  0
VERTEX
  5
1B6
  8
0
 62
     9
 10
0.0
 20
0.0
 30
0.0
 70
   128
 71
     1
 72
    41
 73
    43
  0
VERTEX
  5
1B7
  8
0
 62
     9
 10
0.0
 20
0.0
 30
0.0
 70
   128
 71
     1
 72
     5
 73
    42
  0
VERTEX
  5
1B8
  8
0
 62
     9
 10
0.0
 20
0.0
 30
0.0
 70
   128
 71
    36
 72
    45
 73
    40
  0
VERTEX
  5
1B9
  8
0
 62
     9
 10
0.0
 20
0.0
 30
0.0
 70
   128
 71
    30
 72
    38
 73
    32
  0
VERTEX
  5
1BA
  8
0
 62
     9
 10
0.0
 20
0.0
 30
0.0
 70
   128
 71
    24
 72
    34
 73
    27
  0
VERTEX
  5
1BB
  8
0
 62
     9
 10
0.0
 20
0.0
 30
0.0
 70
   128
 71
    13
 72
    28
 73
    17
  0
VERTEX
  5
1BC
  8
0
 62
     9
 10
0.0
 20
0.0
 30
0.0
 70
   128
 71
     7
 72
    22
 73
     9
  0
VERTEX
  5
1BD
  8
0
 62
     9
 10
0.0
 20
0.0
 30
0.0
 70
   128
 71
     4
 72
    12
 73
     3
  0
SEQEND
  5
1BE
  8
0
 62
     9
  0
ENDBLK
  5
1C1
  8
0
  0
BLOCK
  8
0
  2
E3_NODE_7_
 70
     0
 10
0.0
 20
0.0
 30
0.0
  3
E3_NODE_7_
  1

  0
POLYLINE
  5
1C3
  8
0
 62
     9
 66
     1
 10
0.0
 20
0.0
 30
0.0
 70
    64
 71
     7
 72
     5
  0
VERTEX
  5
1C4
  8
0
 10
0.0
 20
-8.192000389099121
 30
-6.532999992370605
 70
   192
  0
VERTEX
  5
1C5
  8
0
 10
0.0
 20
10.21500015258789
 30
2.331000089645386
 70
   192
  0
VERTEX
  5
1C6
  8
0
 10
0.0
 20
8.192000389099121
 30
-6.532999992370605
 70
   192
  0
VERTEX
  5
1C7
  8
0
 10
0.0
 20
4.546000003814697
 30
9.4399995803833
 70
   192
  0
VERTEX
  5
1C8
  8
0
 10
0.0
 20
-10.21500015258789
 30
2.331000089645386
 70
   192
  0
VERTEX
  5
1C9
  8
0
 10
0.0
 20
-4.546000003814697
 30
9.4399995803833
 70
   192
  0
VERTEX
  5
1CA
  8
0
 10
0.0
 20
0.0
 30
-10.47799968719482
 70
   192
  0
VERTEX
  5
1CB
  8
0
 62
     9
 10
0.0
 20
0.0
 30
0.0
 70
   128
 71
     3
 72
     2
 73
     1
  0
VERTEX
  5
1CC
  8
0
 62
     9
 10
0.0
 20
0.0
 30
0.0
 70
   128
 71
     2
 72
     4
 73
     1
  0
VERTEX
  5
1CD
  8
0
 62
     9
 10
0.0
 20
0.0
 30
0.0
 70
   128
 71
     5
 72
     1
 73
     4
  0
VERTEX
  5
1CE
  8
0
 62
     9
 10
0.0
 20
0.0
 30
0.0
 70
   128
 71
     4
 72
     6
 73
     5
  0
VERTEX
  5
1CF
  8
0
 62
     9
 10
0.0
 20
0.0
 30
0.0
 70
   128
 71
     1
 72
     7
 73
     3
  0
SEQEND
  5
1D0
  8
0
 62
     9
  0
ENDBLK
  5
1D3
  8
0
  0
ENDSEC
  0
SECTION
  2
ENTITIES
  0
INSERT
  5
4C
  8
LAYER_1
  2
E3_NODE
 10
0.0
 20
0.0
 30
0.0
  0
INSERT
  5
73
  8
LAYER_1
  2
E3_NODE_1_
 10
0.0
 20
0.0
 30
0.0
  0
INSERT
  5
9D
  8
LAYER_1
  2
E3_NODE_2_
 10
0.0
 20
0.0
 30
0.0
  0
INSERT
  5
CB
  8
LAYER_1
  2
E3_NODE_3_
 10
0.0
 20
0.0
 30
0.0
  0
INSERT
  5
F9
  8
LAYER_1
  2
E3_NODE_4_
 10
0.0
 20
0.0
 30
0.0
  0
INSERT
  5
15F
  8
LAYER_1
  2
E3_NODE_5_
 10
0.0
 20
0.0
 30
0.0
  0
INSERT
  5
1BF
  8
LAYER_1
  2
E3_NODE_6_
 10
0.0
 20
0.0
 30
0.0
  0
INSERT
  5
1D1
  8
LAYER_1
  2
E3_NODE_7_
 10
0.0
 20
0.0
 30
0.0
  0
ENDSEC
  0
EOF
