  0
SECTION
  2
HEADER
  9
$ACADVER
  1
AC1021
  9
$ACADMAINTVER
 70
    25
  9
$DWGCODEPAGE
  3
UNDEFINED
  9
$INSBASE
 10
0.0
 20
0.0
 30
0.0
  9
$EXTMIN
 10
1.000000000000000E+20
 20
1.000000000000000E+20
 30
1.000000000000000E+20
  9
$EXTMAX
 10
-1.000000000000000E+20
 20
-1.000000000000000E+20
 30
-1.000000000000000E+20
  9
$LIMMIN
 10
0.0
 20
0.0
  9
$LIMMAX
 10
12.0
 20
9.0
  9
$ORTHOMODE
 70
     0
  9
$REGENMODE
 70
     1
  9
$FILLMODE
 70
     1
  9
$QTEXTMODE
 70
     0
  9
$MIRRTEXT
 70
     1
  9
$LTSCALE
 40
1.0
  9
$ATTMODE
 70
     1
  9
$TEXTSIZE
 40
0.2
  9
$TRACEWID
 40
0.05
  9
$TEXTSTYLE
  7
Standard
  9
$CLAYER
  8
0
  9
$CELTYPE
  6
ByLayer
  9
$CECOLOR
 62
   256
  9
$CELTSCALE
 40
1.0
  9
$DISPSILH
 70
     0
  9
$DIMSCALE
 40
1.0
  9
$DIMASZ
 40
0.18
  9
$DIMEXO
 40
0.0625
  9
$DIMDLI
 40
0.38
  9
$DIMRND
 40
0.0
  9
$DIMDLE
 40
0.0
  9
$DIMEXE
 40
0.18
  9
$DIMTP
 40
0.0
  9
$DIMTM
 40
0.0
  9
$DIMTXT
 40
0.18
  9
$DIMCEN
 40
0.09
  9
$DIMTSZ
 40
0.0
  9
$DIMTOL
 70
     0
  9
$DIMLIM
 70
     0
  9
$DIMTIH
 70
     1
  9
$DIMTOH
 70
     1
  9
$DIMSE1
 70
     0
  9
$DIMSE2
 70
     0
  9
$DIMTAD
 70
     0
  9
$DIMZIN
 70
     0
  9
$DIMBLK
  1

  9
$DIMASO
 70
     1
  9
$DIMSHO
 70
     1
  9
$DIMPOST
  1

  9
$DIMAPOST
  1

  9
$DIMALT
 70
     0
  9
$DIMALTD
 70
     2
  9
$DIMALTF
 40
25.4
  9
$DIMLFAC
 40
1.0
  9
$DIMTOFL
 70
     0
  9
$DIMTVP
 40
0.0
  9
$DIMTIX
 70
     0
  9
$DIMSOXD
 70
     0
  9
$DIMSAH
 70
     0
  9
$DIMBLK1
  1

  9
$DIMBLK2
  1

  9
$DIMSTYLE
  2
Standard
  9
$DIMCLRD
 70
     0
  9
$DIMCLRE
 70
     0
  9
$DIMCLRT
 70
     0
  9
$DIMTFAC
 40
1.0
  9
$DIMGAP
 40
0.09
  9
$DIMJUST
 70
     0
  9
$DIMSD1
 70
     0
  9
$DIMSD2
 70
     0
  9
$DIMTOLJ
 70
     1
  9
$DIMTZIN
 70
     0
  9
$DIMALTZ
 70
     0
  9
$DIMALTTZ
 70
     0
  9
$DIMUPT
 70
     0
  9
$DIMDEC
 70
     4
  9
$DIMTDEC
 70
     4
  9
$DIMALTU
 70
     2
  9
$DIMALTTD
 70
     2
  9
$DIMTXSTY
  7
Standard
  9
$DIMAUNIT
 70
     0
  9
$DIMADEC
 70
     0
  9
$DIMALTRND
 40
0.0
  9
$DIMAZIN
 70
     0
  9
$DIMDSEP
 70
    46
  9
$DIMATFIT
 70
     3
  9
$DIMFRAC
 70
     0
  9
$DIMLDRBLK
  1

  9
$DIMLUNIT
 70
     2
  9
$DIMLWD
 70
    -2
  9
$DIMLWE
 70
    -2
  9
$DIMTMOVE
 70
     0
  9
$DIMFXL
 40
1.0
  9
$DIMFXLON
 70
     0
  9
$DIMJOGANG
 40
0.7853981633974483
  9
$DIMTFILL
 70
     0
  9
$DIMTFILLCLR
 70
     0
  9
$DIMARCSYM
 70
     0
  9
$DIMLTYPE
  6

  9
$DIMLTEX1
  6

  9
$DIMLTEX2
  6

  9
$LUNITS
 70
     2
  9
$LUPREC
 70
     4
  9
$SKETCHINC
 40
0.1
  9
$FILLETRAD
 40
0.5
  9
$AUNITS
 70
     0
  9
$AUPREC
 70
     0
  9
$MENU
  1
.
  9
$ELEVATION
 40
0.0
  9
$PELEVATION
 40
0.0
  9
$THICKNESS
 40
0.0
  9
$LIMCHECK
 70
     0
  9
$CHAMFERA
 40
0.5
  9
$CHAMFERB
 40
0.5
  9
$CHAMFERC
 40
1.0
  9
$CHAMFERD
 40
0.0
  9
$SKPOLY
 70
     0
  9
$TDCREATE
 40
2459380.330706007
  9
$TDUCREATE
 40
2459380.289039352
  9
$TDUPDATE
 40
2459380.330706007
  9
$TDUUPDATE
 40
2459380.289039352
  9
$TDINDWG
 40
0.0000000116
  9
$TDUSRTIMER
 40
0.0000000116
  9
$USRTIMER
 70
     1
  9
$ANGBASE
 50
0.0
  9
$ANGDIR
 70
     0
  9
$PDMODE
 70
     0
  9
$PDSIZE
 40
0.0
  9
$PLINEWID
 40
0.0
  9
$SPLFRAME
 70
     0
  9
$SPLINETYPE
 70
     6
  9
$SPLINESEGS
 70
     8
  9
$HANDSEED
  5
12B
  9
$SURFTAB1
 70
     6
  9
$SURFTAB2
 70
     6
  9
$SURFTYPE
 70
     6
  9
$SURFU
 70
     6
  9
$SURFV
 70
     6
  9
$UCSBASE
  2

  9
$UCSNAME
  2

  9
$UCSORG
 10
0.0
 20
0.0
 30
0.0
  9
$UCSXDIR
 10
1.0
 20
0.0
 30
0.0
  9
$UCSYDIR
 10
0.0
 20
1.0
 30
0.0
  9
$UCSORTHOREF
  2

  9
$UCSORTHOVIEW
 70
     0
  9
$UCSORGTOP
 10
0.0
 20
0.0
 30
0.0
  9
$UCSORGBOTTOM
 10
0.0
 20
0.0
 30
0.0
  9
$UCSORGLEFT
 10
0.0
 20
0.0
 30
0.0
  9
$UCSORGRIGHT
 10
0.0
 20
0.0
 30
0.0
  9
$UCSORGFRONT
 10
0.0
 20
0.0
 30
0.0
  9
$UCSORGBACK
 10
0.0
 20
0.0
 30
0.0
  9
$PUCSBASE
  2

  9
$PUCSNAME
  2

  9
$PUCSORG
 10
0.0
 20
0.0
 30
0.0
  9
$PUCSXDIR
 10
1.0
 20
0.0
 30
0.0
  9
$PUCSYDIR
 10
0.0
 20
1.0
 30
0.0
  9
$PUCSORTHOREF
  2

  9
$PUCSORTHOVIEW
 70
     0
  9
$PUCSORGTOP
 10
0.0
 20
0.0
 30
0.0
  9
$PUCSORGBOTTOM
 10
0.0
 20
0.0
 30
0.0
  9
$PUCSORGLEFT
 10
0.0
 20
0.0
 30
0.0
  9
$PUCSORGRIGHT
 10
0.0
 20
0.0
 30
0.0
  9
$PUCSORGFRONT
 10
0.0
 20
0.0
 30
0.0
  9
$PUCSORGBACK
 10
0.0
 20
0.0
 30
0.0
  9
$USERI1
 70
     0
  9
$USERI2
 70
     0
  9
$USERI3
 70
     0
  9
$USERI4
 70
     0
  9
$USERI5
 70
     0
  9
$USERR1
 40
0.0
  9
$USERR2
 40
0.0
  9
$USERR3
 40
0.0
  9
$USERR4
 40
0.0
  9
$USERR5
 40
0.0
  9
$WORLDVIEW
 70
     1
  9
$SHADEDGE
 70
     3
  9
$SHADEDIF
 70
    70
  9
$TILEMODE
 70
     1
  9
$MAXACTVP
 70
    64
  9
$PINSBASE
 10
0.0
 20
0.0
 30
0.0
  9
$PLIMCHECK
 70
     0
  9
$PEXTMIN
 10
1.000000000000000E+20
 20
1.000000000000000E+20
 30
1.000000000000000E+20
  9
$PEXTMAX
 10
-1.000000000000000E+20
 20
-1.000000000000000E+20
 30
-1.000000000000000E+20
  9
$PLIMMIN
 10
0.0
 20
0.0
  9
$PLIMMAX
 10
12.0
 20
9.0
  9
$UNITMODE
 70
     0
  9
$VISRETAIN
 70
     1
  9
$PLINEGEN
 70
     0
  9
$PSLTSCALE
 70
     1
  9
$TREEDEPTH
 70
  3020
  9
$CMLSTYLE
  2
Standard
  9
$CMLJUST
 70
     0
  9
$CMLSCALE
 40
1.0
  9
$PROXYGRAPHICS
 70
     1
  9
$MEASUREMENT
 70
     0
  9
$CELWEIGHT
370
    -1
  9
$ENDCAPS
280
     0
  9
$JOINSTYLE
280
     0
  9
$LWDISPLAY
290
     1
  9
$INSUNITS
 70
     1
  9
$HYPERLINKBASE
  1

  9
$STYLESHEET
  1

  9
$XEDIT
290
     1
  9
$CEPSNTYPE
380
     0
  9
$PSTYLEMODE
290
     1
  9
$FINGERPRINTGUID
  2
{B8417D59-316F-2EFD-0656-D8E9C8FAB003}
  9
$VERSIONGUID
  2
{FAEB1C32-E019-11D5-929B-00C0DF256EC4}
  9
$EXTNAMES
290
     1
  9
$PSVPSCALE
 40
0.0
  9
$OLESTARTUP
290
     0
  9
$SORTENTS
280
   127
  9
$INDEXCTL
280
     0
  9
$HIDETEXT
280
     1
  9
$XCLIPFRAME
290
     0
  9
$HALOGAP
280
     0
  9
$OBSCOLOR
 70
   257
  9
$OBSLTYPE
280
     0
  9
$INTERSECTIONDISPLAY
280
     0
  9
$INTERSECTIONCOLOR
 70
   257
  9
$DIMASSOC
280
     2
  9
$PROJECTNAME
  1

  9
$CAMERADISPLAY
290
     0
  9
$LENSLENGTH
 40
50.0
  9
$CAMERAHEIGHT
 40
0.0
  9
$STEPSPERSEC
 40
2.0
  9
$STEPSIZE
 40
6.0
  9
$3DDWFPREC
 40
2.0
  9
$PSOLWIDTH
 40
0.25
  9
$PSOLHEIGHT
 40
4.0
  9
$LOFTANG1
 40
1.570796326794897
  9
$LOFTANG2
 40
1.570796326794897
  9
$LOFTMAG1
 40
0.0
  9
$LOFTMAG2
 40
0.0
  9
$LOFTPARAM
 70
     7
  9
$LOFTNORMALS
280
     1
  9
$LATITUDE
 40
37.795
  9
$LONGITUDE
 40
-122.394
  9
$NORTHDIRECTION
 40
0.0
  9
$TIMEZONE
 70
 -8000
  9
$LIGHTGLYPHDISPLAY
280
     1
  9
$TILEMODELIGHTSYNCH
280
     1
  9
$CMATERIAL
347
3C
  9
$SOLIDHIST
280
     1
  9
$SHOWHIST
280
     1
  9
$DWFFRAME
280
     2
  9
$DGNFRAME
280
     2
  9
$REALWORLDSCALE
290
     1
  9
$INTERFERECOLOR
 62
   256
  9
$CSHADOW
280
     0
  9
$SHADOWPLANELOCATION
 40
0.0
  0
ENDSEC
  0
SECTION
  2
CLASSES
  0
CLASS
  1
ACDBDICTIONARYWDFLT
  2
AcDbDictionaryWithDefault
  3
ObjectDBX Classes
 90
        0
 91
        4
280
     0
281
     0
  0
CLASS
  1
VISUALSTYLE
  2
AcDbVisualStyle
  3
ObjectDBX Classes
 90
     4095
 91
        4
280
     0
281
     0
  0
CLASS
  1
MATERIAL
  2
AcDbMaterial
  3
ObjectDBX Classes
 90
     1153
 91
        4
280
     0
281
     0
  0
CLASS
  1
SUN
  2
AcDbSun
  3
SCENEOE
 90
     1024
 91
        4
280
     0
281
     0
  0
ENDSEC
  0
SECTION
  2
TABLES
  0
TABLE
  2
VPORT
  5
8
330
0
100
AcDbSymbolTable
 70
     1
  0
VPORT
  5
29
330
8
100
AcDbSymbolTableRecord
100
AcDbViewportTableRecord
  2
*Active
 70
     0
 10
0.0
 20
0.0
 11
1.0
 21
1.0
 12
0.0
 22
0.0
 13
0.0
 23
0.0
 14
0.5
 24
0.5
 15
0.5
 25
0.5
 16
0.0
 26
0.0
 36
1.0
 17
105.0007777515277
 27
-148.5000416295416
 37
0.0
 40
297.0000832590831
 41
0.7070757462376333
 42
50.0
 43
0.0
 44
0.0
 50
0.0
 51
0.0
 71
     0
 72
   100
 73
     1
 74
     3
 75
     0
 76
     0
 77
     0
 78
     0
281
     0
 65
     1
110
0.0
120
0.0
130
0.0
111
1.0
121
0.0
131
0.0
112
0.0
122
1.0
132
0.0
 79
     0
146
0.0
 60
     3
 61
     5
292
     1
282
     1
141
0.0
142
0.0
 63
   250
361
3F
  0
ENDTAB
  0
TABLE
  2
LTYPE
  5
5
330
0
100
AcDbSymbolTable
 70
    11
  0
LTYPE
  5
14
330
5
100
AcDbSymbolTableRecord
100
AcDbLinetypeTableRecord
  2
ByBlock
 70
     0
  3

 72
    65
 73
     0
 40
0.0
  0
LTYPE
  5
15
330
5
100
AcDbSymbolTableRecord
100
AcDbLinetypeTableRecord
  2
ByLayer
 70
     0
  3

 72
    65
 73
     0
 40
0.0
  0
LTYPE
  5
16
330
5
100
AcDbSymbolTableRecord
100
AcDbLinetypeTableRecord
  2
Continuous
 70
     0
  3
Solid line
 72
    65
 73
     0
 40
0.0
  0
LTYPE
  5
A7
330
5
100
AcDbSymbolTableRecord
100
AcDbLinetypeTableRecord
  2
AI-Linetype-1
 70
     0
  3
Adobe Illustrator Linetype No. 1
 72
    65
 73
     2
 40
8.794588616609676
 49
4.397294308304838
 74
     0
 49
-4.397294308304838
 74
     0
  0
LTYPE
  5
AC
330
5
100
AcDbSymbolTableRecord
100
AcDbLinetypeTableRecord
  2
AI-Linetype-2
 70
     0
  3
Adobe Illustrator Linetype No. 2
 72
    65
 73
     4
 40
39.57584525284543
 49
26.38396232793092
 74
     0
 49
-4.397294308304838
 74
     0
 49
4.397294308304838
 74
     0
 49
-4.397294308304838
 74
     0
  0
LTYPE
  5
C1
330
5
100
AcDbSymbolTableRecord
100
AcDbLinetypeTableRecord
  2
AI-Linetype-3
 70
     0
  3
Adobe Illustrator Linetype No. 3
 72
    65
 73
     2
 40
8.776214549731606
 49
4.388107274865803
 74
     0
 49
-4.388107274865803
 74
     0
  0
LTYPE
  5
C6
330
5
100
AcDbSymbolTableRecord
100
AcDbLinetypeTableRecord
  2
AI-Linetype-4
 70
     0
  3
Adobe Illustrator Linetype No. 4
 72
    65
 73
     4
 40
39.49316262476433
 49
26.32884080016692
 74
     0
 49
-4.388107274865803
 74
     0
 49
4.388107274865803
 74
     0
 49
-4.388107274865803
 74
     0
  0
LTYPE
  5
DD
330
5
100
AcDbSymbolTableRecord
100
AcDbLinetypeTableRecord
  2
AI-Linetype-5
 70
     0
  3
Adobe Illustrator Linetype No. 5
 72
    65
 73
     2
 40
9.58361506752326
 49
4.79180753376163
 74
     0
 49
-4.79180753376163
 74
     0
  0
LTYPE
  5
E2
330
5
100
AcDbSymbolTableRecord
100
AcDbLinetypeTableRecord
  2
AI-Linetype-6
 70
     0
  3
Adobe Illustrator Linetype No. 6
 72
    65
 73
     4
 40
43.12648043084164
 49
28.75105782955676
 74
     0
 49
-4.79180753376163
 74
     0
 49
4.79180753376163
 74
     0
 49
-4.79180753376163
 74
     0
  0
LTYPE
  5
F7
330
5
100
AcDbSymbolTableRecord
100
AcDbLinetypeTableRecord
  2
AI-Linetype-7
 70
     0
  3
Adobe Illustrator Linetype No. 7
 72
    65
 73
     2
 40
9.583604974470079
 49
4.79180248723504
 74
     0
 49
-4.79180248723504
 74
     0
  0
LTYPE
  5
FC
330
5
100
AcDbSymbolTableRecord
100
AcDbLinetypeTableRecord
  2
AI-Linetype-8
 70
     0
  3
Adobe Illustrator Linetype No. 8
 72
    65
 73
     4
 40
43.12643568497255
 49
28.75102822326743
 74
     0
 49
-4.79180248723504
 74
     0
 49
4.79180248723504
 74
     0
 49
-4.79180248723504
 74
     0
  0
LTYPE
  5
103
330
5
100
AcDbSymbolTableRecord
100
AcDbLinetypeTableRecord
  2
AI-Linetype-9
 70
     0
  3
Adobe Illustrator Linetype No. 9
 72
    65
 73
     2
 40
7.270862246391072
 49
3.635375106750391
 74
     0
 49
-3.635487139640682
 74
     0
  0
LTYPE
  5
105
330
5
100
AcDbSymbolTableRecord
100
AcDbLinetypeTableRecord
  2
AI-Linetype-10
 70
     0
  3
Adobe Illustrator Linetype No. 10
 72
    65
 73
     2
 40
7.270862246391072
 49
3.635375106750391
 74
     0
 49
-3.635487139640682
 74
     0
  0
ENDTAB
  0
TABLE
  2
LAYER
  5
2
330
0
100
AcDbSymbolTable
 70
     1
  0
LAYER
  5
10
330
2
100
AcDbSymbolTableRecord
100
AcDbLayerTableRecord
  2
0
 70
     0
 62
     7
  6
Continuous
370
    -3
390
F
347
3E
  0
ENDTAB
  0
TABLE
  2
STYLE
  5
3
330
0
100
AcDbSymbolTable
 70
     1
  0
STYLE
  5
11
330
3
100
AcDbSymbolTableRecord
100
AcDbTextStyleTableRecord
  2
Standard
 70
     0
 40
0.0
 41
1.0
 50
0.0
 71
     0
 42
0.2
  3
txt
  4

  0
ENDTAB
  0
TABLE
  2
VIEW
  5
6
330
0
100
AcDbSymbolTable
 70
     0
  0
ENDTAB
  0
TABLE
  2
UCS
  5
7
330
0
100
AcDbSymbolTable
 70
     0
  0
ENDTAB
  0
TABLE
  2
APPID
  5
9
330
0
100
AcDbSymbolTable
 70
     1
  0
APPID
  5
12
330
9
100
AcDbSymbolTableRecord
100
AcDbRegAppTableRecord
  2
ACAD
 70
     0
  0
ENDTAB
  0
TABLE
  2
DIMSTYLE
  5
A
330
0
100
AcDbSymbolTable
 70
     1
100
AcDbDimStyleTable
  0
DIMSTYLE
105
27
330
A
100
AcDbSymbolTableRecord
100
AcDbDimStyleTableRecord
  2
Standard
 70
     0
178
     0
340
11
  0
ENDTAB
  0
TABLE
  2
BLOCK_RECORD
  5
1
330
0
100
AcDbSymbolTable
 70
     9
  0
BLOCK_RECORD
  5
1F
330
1
100
AcDbSymbolTableRecord
100
AcDbBlockTableRecord
  2
*Model_Space
340
22
 70
     0
280
     1
281
     0
  0
BLOCK_RECORD
  5
1B
330
1
100
AcDbSymbolTableRecord
100
AcDbBlockTableRecord
  2
*Paper_Space
340
1E
 70
     0
280
     1
281
     0
  0
BLOCK_RECORD
  5
23
330
1
100
AcDbSymbolTableRecord
100
AcDbBlockTableRecord
  2
*Paper_Space0
340
26
 70
     0
280
     1
281
     0
  0
BLOCK_RECORD
  5
98
330
1
100
AcDbSymbolTableRecord
100
AcDbBlockTableRecord
  2
block 2
340
0
102
{BLKREFS
331
99
102
}
 70
     0
280
     1
281
     0
  0
BLOCK_RECORD
  5
9C
330
1
100
AcDbSymbolTableRecord
100
AcDbBlockTableRecord
  2
block 3
340
0
102
{BLKREFS
331
9D
102
}
 70
     0
280
     1
281
     0
  0
BLOCK_RECORD
  5
B2
330
1
100
AcDbSymbolTableRecord
100
AcDbBlockTableRecord
  2
block 4
340
0
102
{BLKREFS
331
B3
102
}
 70
     0
280
     1
281
     0
  0
BLOCK_RECORD
  5
B6
330
1
100
AcDbSymbolTableRecord
100
AcDbBlockTableRecord
  2
block 5
340
0
102
{BLKREFS
331
B7
102
}
 70
     0
280
     1
281
     0
  0
BLOCK_RECORD
  5
CE
330
1
100
AcDbSymbolTableRecord
100
AcDbBlockTableRecord
  2
block 6
340
0
102
{BLKREFS
331
CF
102
}
 70
     0
280
     1
281
     0
  0
BLOCK_RECORD
  5
D2
330
1
100
AcDbSymbolTableRecord
100
AcDbBlockTableRecord
  2
block 7
340
0
102
{BLKREFS
331
D3
102
}
 70
     0
280
     1
281
     0
  0
BLOCK_RECORD
  5
E8
330
1
100
AcDbSymbolTableRecord
100
AcDbBlockTableRecord
  2
block 8
340
0
102
{BLKREFS
331
E9
102
}
 70
     0
280
     1
281
     0
  0
BLOCK_RECORD
  5
EC
330
1
100
AcDbSymbolTableRecord
100
AcDbBlockTableRecord
  2
block 9
340
0
102
{BLKREFS
331
ED
102
}
 70
     0
280
     1
281
     0
  0
ENDTAB
  0
ENDSEC
  0
SECTION
  2
BLOCKS
  0
BLOCK
  5
20
330
1F
100
AcDbEntity
  8
0
100
AcDbBlockBegin
  2
*Model_Space
 70
     0
 10
0.0
 20
0.0
 30
0.0
  3
*Model_Space
  1

  0
ENDBLK
  5
21
330
1F
100
AcDbEntity
  8
0
100
AcDbBlockEnd
  0
BLOCK
  5
1C
330
1B
100
AcDbEntity
 67
     1
  8
0
100
AcDbBlockBegin
  2
*Paper_Space
 70
     0
 10
0.0
 20
0.0
 30
0.0
  3
*Paper_Space
  1

  0
ENDBLK
  5
1D
330
1B
100
AcDbEntity
 67
     1
  8
0
100
AcDbBlockEnd
  0
BLOCK
  5
24
330
23
100
AcDbEntity
  8
0
100
AcDbBlockBegin
  2
*Paper_Space0
 70
     0
 10
0.0
 20
0.0
 30
0.0
  3
*Paper_Space0
  1

  0
ENDBLK
  5
25
330
23
100
AcDbEntity
  8
0
100
AcDbBlockEnd
  0
BLOCK
  5
9A
330
98
100
AcDbEntity
  8
0
100
AcDbBlockBegin
  2
block 2
 70
     0
 10
0.0
 20
0.0
 30
0.0
  3
block 2
  1

  0
INSERT
  5
9D
330
98
100
AcDbEntity
  8
0
100
AcDbBlockReference
  2
block 3
 10
0.0
 20
0.0
 30
0.0
  0
ENDBLK
  5
9B
330
98
100
AcDbEntity
  8
0
100
AcDbBlockEnd
  0
BLOCK
  5
9E
330
9C
100
AcDbEntity
  8
0
100
AcDbBlockBegin
  2
block 3
 70
     0
 10
0.0
 20
0.0
 30
0.0
  3
block 3
  1

  0
POLYLINE
  5
A0
330
9C
100
AcDbEntity
  8
0
 62
     4
370
    25
100
AcDb2dPolyline
 66
     1
 10
0.0
 20
0.0
 30
0.0
  0
VERTEX
  5
A1
330
A0
100
AcDbEntity
  8
0
 62
     4
370
    25
100
AcDbVertex
100
AcDb2dVertex
 10
58.26109710932253
 20
-200.1728591418513
 30
0.0
  0
VERTEX
  5
A2
330
A0
100
AcDbEntity
  8
0
 62
     4
370
    25
100
AcDbVertex
100
AcDb2dVertex
 10
69.51118022452488
 20
-200.1728591418513
 30
0.0
  0
SEQEND
  5
A3
330
A0
100
AcDbEntity
  8
0
 62
     4
370
    25
  0
POLYLINE
  5
A4
330
9C
100
AcDbEntity
  8
0
  6
AI-Linetype-1
 62
     4
370
    25
100
AcDb2dPolyline
 66
     1
 10
0.0
 20
0.0
 30
0.0
  0
VERTEX
  5
A5
330
A4
100
AcDbEntity
  8
0
  6
AI-Linetype-1
 62
     4
370
    25
100
AcDbVertex
100
AcDb2dVertex
 10
73.90847318708929
 20
-200.1728591418513
 30
0.0
  0
VERTEX
  5
A6
330
A4
100
AcDbEntity
  8
0
  6
AI-Linetype-1
 62
     4
370
    25
100
AcDbVertex
100
AcDb2dVertex
 10
80.50441532241676
 20
-200.1728591418513
 30
0.0
  0
SEQEND
  5
A8
330
A4
100
AcDbEntity
  8
0
  6
AI-Linetype-1
 62
     4
370
    25
  0
POLYLINE
  5
A9
330
9C
100
AcDbEntity
  8
0
  6
AI-Linetype-2
 62
     4
370
    25
100
AcDb2dPolyline
 66
     1
 10
0.0
 20
0.0
 30
0.0
  0
VERTEX
  5
AA
330
A9
100
AcDbEntity
  8
0
  6
AI-Linetype-2
 62
     4
370
    25
100
AcDbVertex
100
AcDb2dVertex
 10
82.70306449517982
 20
-200.1728591418513
 30
0.0
  0
VERTEX
  5
AB
330
A9
100
AcDbEntity
  8
0
  6
AI-Linetype-2
 62
     4
370
    25
100
AcDbVertex
100
AcDb2dVertex
 10
159.6561031366268
 20
-200.1728591418513
 30
0.0
  0
SEQEND
  5
AD
330
A9
100
AcDbEntity
  8
0
  6
AI-Linetype-2
 62
     4
370
    25
  0
POLYLINE
  5
AE
330
9C
100
AcDbEntity
  8
0
 62
     4
370
    25
100
AcDb2dPolyline
 66
     1
 10
0.0
 20
0.0
 30
0.0
  0
VERTEX
  5
AF
330
AE
100
AcDbEntity
  8
0
 62
     4
370
    25
100
AcDbVertex
100
AcDb2dVertex
 10
161.8547523093898
 20
-200.1728591418513
 30
0.0
  0
VERTEX
  5
B0
330
AE
100
AcDbEntity
  8
0
 62
     4
370
    25
100
AcDbVertex
100
AcDb2dVertex
 10
173.1048408075539
 20
-200.1728591418513
 30
0.0
  0
SEQEND
  5
B1
330
AE
100
AcDbEntity
  8
0
 62
     4
370
    25
  0
ENDBLK
  5
9F
330
9C
100
AcDbEntity
  8
0
100
AcDbBlockEnd
  0
BLOCK
  5
B4
330
B2
100
AcDbEntity
  8
0
100
AcDbBlockBegin
  2
block 4
 70
     0
 10
0.0
 20
0.0
 30
0.0
  3
block 4
  1

  0
INSERT
  5
B7
330
B2
100
AcDbEntity
  8
0
100
AcDbBlockReference
  2
block 5
 10
0.0
 20
0.0
 30
0.0
  0
ENDBLK
  5
B5
330
B2
100
AcDbEntity
  8
0
100
AcDbBlockEnd
  0
BLOCK
  5
B8
330
B6
100
AcDbEntity
  8
0
100
AcDbBlockBegin
  2
block 5
 70
     0
 10
0.0
 20
0.0
 30
0.0
  3
block 5
  1

  0
POLYLINE
  5
BA
330
B6
100
AcDbEntity
  8
0
 62
     4
370
    25
100
AcDb2dPolyline
 66
     1
 10
0.0
 20
0.0
 30
0.0
  0
VERTEX
  5
BB
330
BA
100
AcDbEntity
  8
0
 62
     4
370
    25
100
AcDbVertex
100
AcDb2dVertex
 10
115.6829689584382
 20
-143.5674641568165
 30
0.0
  0
VERTEX
  5
BC
330
BA
100
AcDbEntity
  8
0
 62
     4
370
    25
100
AcDbVertex
100
AcDb2dVertex
 10
115.6829689584382
 20
-154.8175526549805
 30
0.0
  0
SEQEND
  5
BD
330
BA
100
AcDbEntity
  8
0
 62
     4
370
    25
  0
POLYLINE
  5
BE
330
B6
100
AcDbEntity
  8
0
  6
AI-Linetype-3
 62
     4
370
    25
100
AcDb2dPolyline
 66
     1
 10
0.0
 20
0.0
 30
0.0
  0
VERTEX
  5
BF
330
BE
100
AcDbEntity
  8
0
  6
AI-Linetype-3
 62
     4
370
    25
100
AcDbVertex
100
AcDb2dVertex
 10
115.6829689584382
 20
-159.2056569019304
 30
0.0
  0
VERTEX
  5
C0
330
BE
100
AcDbEntity
  8
0
  6
AI-Linetype-3
 62
     4
370
    25
100
AcDbVertex
100
AcDb2dVertex
 10
115.6829689584382
 20
-165.7878132723552
 30
0.0
  0
SEQEND
  5
C2
330
BE
100
AcDbEntity
  8
0
  6
AI-Linetype-3
 62
     4
370
    25
  0
POLYLINE
  5
C3
330
B6
100
AcDbEntity
  8
0
  6
AI-Linetype-4
 62
     4
370
    25
100
AcDb2dPolyline
 66
     1
 10
0.0
 20
0.0
 30
0.0
  0
VERTEX
  5
C4
330
C3
100
AcDbEntity
  8
0
  6
AI-Linetype-4
 62
     4
370
    25
100
AcDbVertex
100
AcDb2dVertex
 10
115.6829689584382
 20
-167.9818761617535
 30
0.0
  0
VERTEX
  5
C5
330
C3
100
AcDbEntity
  8
0
  6
AI-Linetype-4
 62
     4
370
    25
100
AcDbVertex
100
AcDb2dVertex
 10
115.6829689584382
 20
-244.7741418862349
 30
0.0
  0
SEQEND
  5
C7
330
C3
100
AcDbEntity
  8
0
  6
AI-Linetype-4
 62
     4
370
    25
  0
POLYLINE
  5
C8
330
B6
100
AcDbEntity
  8
0
 62
     4
370
    25
100
AcDb2dPolyline
 66
     1
 10
0.0
 20
0.0
 30
0.0
  0
VERTEX
  5
C9
330
C8
100
AcDbEntity
  8
0
 62
     4
370
    25
100
AcDbVertex
100
AcDb2dVertex
 10
115.6829689584382
 20
-246.9681940097098
 30
0.0
  0
VERTEX
  5
CA
330
C8
100
AcDbEntity
  8
0
 62
     4
370
    25
100
AcDbVertex
100
AcDb2dVertex
 10
115.6829689584382
 20
-258.2182825078738
 30
0.0
  0
SEQEND
  5
CB
330
C8
100
AcDbEntity
  8
0
 62
     4
370
    25
  0
ENDBLK
  5
B9
330
B6
100
AcDbEntity
  8
0
100
AcDbBlockEnd
  0
BLOCK
  5
D0
330
CE
100
AcDbEntity
  8
0
100
AcDbBlockBegin
  2
block 6
 70
     0
 10
0.0
 20
0.0
 30
0.0
  3
block 6
  1

  0
INSERT
  5
D3
330
CE
100
AcDbEntity
  8
0
100
AcDbBlockReference
  2
block 7
 10
0.0
 20
0.0
 30
0.0
  0
ENDBLK
  5
D1
330
CE
100
AcDbEntity
  8
0
100
AcDbBlockEnd
  0
BLOCK
  5
D4
330
D2
100
AcDbEntity
  8
0
100
AcDbBlockBegin
  2
block 7
 70
     0
 10
0.0
 20
0.0
 30
0.0
  3
block 7
  1

  0
POLYLINE
  5
D6
330
D2
100
AcDbEntity
  8
0
 62
     4
370
    25
100
AcDb2dPolyline
 66
     1
 10
0.0
 20
0.0
 30
0.0
  0
VERTEX
  5
D7
330
D6
100
AcDbEntity
  8
0
 62
     4
370
    25
100
AcDbVertex
100
AcDb2dVertex
 10
75.62611166864772
 20
-50.40531046984768
 30
0.0
  0
VERTEX
  5
D8
330
D6
100
AcDbEntity
  8
0
 62
     4
370
    25
100
AcDbVertex
100
AcDb2dVertex
 10
86.87619478385007
 20
-50.40531046984768
 30
0.0
  0
SEQEND
  5
D9
330
D6
100
AcDbEntity
  8
0
 62
     4
370
    25
  0
POLYLINE
  5
DA
330
D2
100
AcDbEntity
  8
0
  6
AI-Linetype-5
 62
     4
370
    25
100
AcDb2dPolyline
 66
     1
 10
0.0
 20
0.0
 30
0.0
  0
VERTEX
  5
DB
330
DA
100
AcDbEntity
  8
0
  6
AI-Linetype-5
 62
     4
370
    25
100
AcDbVertex
100
AcDb2dVertex
 10
91.66800500909255
 20
-50.40531046984768
 30
0.0
  0
VERTEX
  5
DC
330
DA
100
AcDbEntity
  8
0
  6
AI-Linetype-5
 62
     4
370
    25
100
AcDbVertex
100
AcDb2dVertex
 10
98.85571227251373
 20
-50.40531046984768
 30
0.0
  0
SEQEND
  5
DE
330
DA
100
AcDbEntity
  8
0
  6
AI-Linetype-5
 62
     4
370
    25
  0
POLYLINE
  5
DF
330
D2
100
AcDbEntity
  8
0
  6
AI-Linetype-6
 62
     4
370
    25
100
AcDb2dPolyline
 66
     1
 10
0.0
 20
0.0
 30
0.0
  0
VERTEX
  5
E0
330
DF
100
AcDbEntity
  8
0
  6
AI-Linetype-6
 62
     4
370
    25
100
AcDbVertex
100
AcDb2dVertex
 10
101.2516146936541
 20
-50.40531046984768
 30
0.0
  0
VERTEX
  5
E1
330
DF
100
AcDbEntity
  8
0
  6
AI-Linetype-6
 62
     4
370
    25
100
AcDbVertex
100
AcDb2dVertex
 10
141.9821927033554
 20
-50.40531046984768
 30
0.0
  0
SEQEND
  5
E3
330
DF
100
AcDbEntity
  8
0
  6
AI-Linetype-6
 62
     4
370
    25
  0
POLYLINE
  5
E4
330
D2
100
AcDbEntity
  8
0
 62
     4
370
    25
100
AcDb2dPolyline
 66
     1
 10
0.0
 20
0.0
 30
0.0
  0
VERTEX
  5
E5
330
E4
100
AcDbEntity
  8
0
 62
     4
370
    25
100
AcDbVertex
100
AcDb2dVertex
 10
144.3780951244958
 20
-50.40531046984768
 30
0.0
  0
VERTEX
  5
E6
330
E4
100
AcDbEntity
  8
0
 62
     4
370
    25
100
AcDbVertex
100
AcDb2dVertex
 10
155.6281836226598
 20
-50.40531046984768
 30
0.0
  0
SEQEND
  5
E7
330
E4
100
AcDbEntity
  8
0
 62
     4
370
    25
  0
ENDBLK
  5
D5
330
D2
100
AcDbEntity
  8
0
100
AcDbBlockEnd
  0
BLOCK
  5
EA
330
E8
100
AcDbEntity
  8
0
100
AcDbBlockBegin
  2
block 8
 70
     0
 10
0.0
 20
0.0
 30
0.0
  3
block 8
  1

  0
INSERT
  5
ED
330
E8
100
AcDbEntity
  8
0
100
AcDbBlockReference
  2
block 9
 10
0.0
 20
0.0
 30
0.0
  0
ENDBLK
  5
EB
330
E8
100
AcDbEntity
  8
0
100
AcDbBlockEnd
  0
BLOCK
  5
EE
330
EC
100
AcDbEntity
  8
0
100
AcDbBlockBegin
  2
block 9
 70
     0
 10
0.0
 20
0.0
 30
0.0
  3
block 9
  1

  0
POLYLINE
  5
F0
330
EC
100
AcDbEntity
  8
0
 62
     4
370
    25
100
AcDb2dPolyline
 66
     1
 10
0.0
 20
0.0
 30
0.0
  0
VERTEX
  5
F1
330
F0
100
AcDbEntity
  8
0
 62
     4
370
    25
100
AcDbVertex
100
AcDb2dVertex
 10
115.6271476456538
 20
-90.40629261723676
 30
0.0
  0
VERTEX
  5
F2
330
F0
100
AcDbEntity
  8
0
 62
     4
370
    25
100
AcDbVertex
100
AcDb2dVertex
 10
115.6271476456538
 20
-79.15620411907271
 30
0.0
  0
SEQEND
  5
F3
330
F0
100
AcDbEntity
  8
0
 62
     4
370
    25
  0
POLYLINE
  5
F4
330
EC
100
AcDbEntity
  8
0
  6
AI-Linetype-7
 62
     4
370
    25
100
AcDb2dPolyline
 66
     1
 10
0.0
 20
0.0
 30
0.0
  0
VERTEX
  5
F5
330
F4
100
AcDbEntity
  8
0
  6
AI-Linetype-7
 62
     4
370
    25
100
AcDbVertex
100
AcDb2dVertex
 10
115.6271476456538
 20
-74.36440465975363
 30
0.0
  0
VERTEX
  5
F6
330
F4
100
AcDbEntity
  8
0
  6
AI-Linetype-7
 62
     4
370
    25
100
AcDbVertex
100
AcDb2dVertex
 10
115.6271476456538
 20
-67.17669739633246
 30
0.0
  0
SEQEND
  5
F8
330
F4
100
AcDbEntity
  8
0
  6
AI-Linetype-7
 62
     4
370
    25
  0
POLYLINE
  5
F9
330
EC
100
AcDbEntity
  8
0
  6
AI-Linetype-8
 62
     4
370
    25
100
AcDb2dPolyline
 66
     1
 10
0.0
 20
0.0
 30
0.0
  0
VERTEX
  5
FA
330
F9
100
AcDbEntity
  8
0
  6
AI-Linetype-8
 62
     4
370
    25
100
AcDbVertex
100
AcDb2dVertex
 10
115.6271476456538
 20
-64.78079497519207
 30
0.0
  0
VERTEX
  5
FB
330
F9
100
AcDbEntity
  8
0
  6
AI-Linetype-8
 62
     4
370
    25
100
AcDbVertex
100
AcDb2dVertex
 10
115.6271476456538
 20
-24.05026272066522
 30
0.0
  0
SEQEND
  5
FD
330
F9
100
AcDbEntity
  8
0
  6
AI-Linetype-8
 62
     4
370
    25
  0
POLYLINE
  5
FE
330
EC
100
AcDbEntity
  8
0
 62
     4
370
    25
100
AcDb2dPolyline
 66
     1
 10
0.0
 20
0.0
 30
0.0
  0
VERTEX
  5
FF
330
FE
100
AcDbEntity
  8
0
 62
     4
370
    25
100
AcDbVertex
100
AcDb2dVertex
 10
115.6271476456538
 20
-21.65436164526526
 30
0.0
  0
VERTEX
  5
100
330
FE
100
AcDbEntity
  8
0
 62
     4
370
    25
100
AcDbVertex
100
AcDb2dVertex
 10
115.6271476456538
 20
-10.40427853006291
 30
0.0
  0
SEQEND
  5
101
330
FE
100
AcDbEntity
  8
0
 62
     4
370
    25
  0
ENDBLK
  5
EF
330
EC
100
AcDbEntity
  8
0
100
AcDbBlockEnd
  0
ENDSEC
  0
SECTION
  2
ENTITIES
  0
SPLINE
  5
40
330
1F
100
AcDbEntity
  8
0
 62
   250
370
    25
100
AcDbSpline
210
0.0
220
0.0
230
1.0
 70
     8
 71
     3
 72
     8
 73
     4
 74
     0
 42
0.0000000001
 43
0.0000000001
 12
1.0
 22
0.0
 32
0.0
 13
1.0
 23
0.0
 33
0.0
 40
0.0
 40
0.0
 40
0.0
 40
0.0
 40
1.0
 40
1.0
 40
1.0
 40
1.0
 10
123.5339445202648
 20
-118.2534023197995
 30
0.0
 10
121.1476921033058
 20
-118.1007558287506
 30
0.0
 10
118.7625332942459
 20
-118.0235682802421
 30
0.0
 10
116.3713772806236
 20
-118.0216280082263
 30
0.0
  0
SPLINE
  5
41
330
1F
100
AcDbEntity
  8
0
 62
   250
370
    25
100
AcDbSpline
210
0.0
220
0.0
230
1.0
 70
     8
 71
     3
 72
     8
 73
     4
 74
     0
 42
0.0000000001
 43
0.0000000001
 12
1.0
 22
0.0
 32
0.0
 13
1.0
 23
0.0
 33
0.0
 40
0.0
 40
0.0
 40
0.0
 40
0.0
 40
1.0
 40
1.0
 40
1.0
 40
1.0
 10
-158.5699719084301
 20
14.12466553381238
 30
0.0
 10
-158.6123051170899
 20
14.11066029727969
 30
0.0
 10
-158.6492408416479
 20
14.09069313385945
 30
0.0
 10
-158.6841657387948
 20
14.06292960451158
 30
0.0
  0
POLYLINE
  5
42
330
1F
100
AcDbEntity
  8
0
 62
   250
370
    25
100
AcDb2dPolyline
 66
     1
 10
0.0
 20
0.0
 30
0.0
  0
VERTEX
  5
43
330
42
100
AcDbEntity
  8
0
 62
   250
370
    25
100
AcDbVertex
100
AcDb2dVertex
 10
384.3848968720739
 20
16.76195387813529
 30
0.0
  0
VERTEX
  5
44
330
42
100
AcDbEntity
  8
0
 62
   250
370
    25
100
AcDbVertex
100
AcDb2dVertex
 10
-151.6420717554759
 20
16.76195387813529
 30
0.0
  0
SEQEND
  5
45
330
42
100
AcDbEntity
  8
0
 62
   250
370
    25
  0
SPLINE
  5
46
330
1F
100
AcDbEntity
  8
0
 62
   250
370
    25
100
AcDbSpline
210
0.0
220
0.0
230
1.0
 70
     8
 71
     3
 72
     8
 73
     4
 74
     0
 42
0.0000000001
 43
0.0000000001
 12
1.0
 22
0.0
 32
0.0
 13
1.0
 23
0.0
 33
0.0
 40
0.0
 40
0.0
 40
0.0
 40
0.0
 40
1.0
 40
1.0
 40
1.0
 40
1.0
 10
391.312832302698
 20
14.12466553381238
 30
0.0
 10
391.3526960741907
 20
14.10879058056217
 30
0.0
 10
391.3900198531585
 20
14.08938785993373
 30
0.0
 10
391.4259325251755
 20
14.06589292911985
 30
0.0
  0
SPLINE
  5
47
330
1F
100
AcDbEntity
  8
0
 62
   250
370
    25
100
AcDbSpline
210
0.0
220
0.0
230
1.0
 70
     8
 71
     3
 72
     8
 73
     4
 74
     0
 42
0.0000000001
 43
0.0000000001
 12
1.0
 22
0.0
 32
0.0
 13
1.0
 23
0.0
 33
0.0
 40
0.0
 40
0.0
 40
0.0
 40
0.0
 40
1.0
 40
1.0
 40
1.0
 40
1.0
 10
109.2086689302946
 20
-118.2534023197995
 30
0.0
 10
111.5472259321494
 20
-118.1037897086297
 30
0.0
 10
113.884830436818
 20
-118.026707993138
 30
0.0
 10
116.228149924649
 20
-118.0218396742638
 30
0.0
  0
SPLINE
  5
48
330
1F
100
AcDbEntity
  8
0
 62
   250
370
    25
100
AcDbSpline
210
0.0
220
0.0
230
1.0
 70
     8
 71
     3
 72
     8
 73
     4
 74
     0
 42
0.0000000001
 43
0.0000000001
 12
1.0
 22
0.0
 32
0.0
 13
1.0
 23
0.0
 33
0.0
 40
0.0
 40
0.0
 40
0.0
 40
0.0
 40
1.0
 40
1.0
 40
1.0
 40
1.0
 10
116.228149924649
 20
-118.0218396742638
 30
0.0
 10
116.2759158950874
 20
-118.0217691189199
 30
0.0
 10
116.3236465878619
 20
-118.0216985635728
 30
0.0
 10
116.3713772806236
 20
-118.0216280082263
 30
0.0
  0
SPLINE
  5
49
330
1F
100
AcDbEntity
  8
0
 62
   250
370
    25
100
AcDbSpline
210
0.0
220
0.0
230
1.0
 70
     8
 71
     3
 72
     8
 73
     4
 74
     0
 42
0.0000000001
 43
0.0000000001
 12
1.0
 22
0.0
 32
0.0
 13
1.0
 23
0.0
 33
0.0
 40
0.0
 40
0.0
 40
0.0
 40
0.0
 40
1.0
 40
1.0
 40
1.0
 40
1.0
 10
116.5143929705569
 20
-120.7549773894876
 30
0.0
 10
116.4667328331359
 20
-120.7550126671611
 30
0.0
 10
116.4190726957214
 20
-120.7550126671611
 30
0.0
 10
116.3714125583004
 20
-120.7549773894876
 30
0.0
  0
SPLINE
  5
4A
330
1F
100
AcDbEntity
  8
0
 62
   250
370
    25
100
AcDbSpline
210
0.0
220
0.0
230
1.0
 70
     8
 71
     3
 72
    53
 73
    49
 74
     0
 42
0.0000000001
 43
0.0000000001
 12
1.0
 22
0.0
 32
0.0
 13
1.0
 23
0.0
 33
0.0
 40
0.0
 40
0.0
 40
0.0
 40
0.0
 40
1.0
 40
1.0
 40
1.0
 40
2.0
 40
2.0
 40
2.0
 40
3.0
 40
3.0
 40
3.0
 40
4.0
 40
4.0
 40
4.0
 40
5.0
 40
5.0
 40
5.0
 40
6.0
 40
6.0
 40
6.0
 40
7.0
 40
7.0
 40
7.0
 40
8.0
 40
8.0
 40
8.0
 40
9.0
 40
9.0
 40
9.0
 40
10.0
 40
10.0
 40
10.0
 40
11.0
 40
11.0
 40
11.0
 40
12.0
 40
12.0
 40
12.0
 40
13.0
 40
13.0
 40
13.0
 40
14.0
 40
14.0
 40
14.0
 40
15.0
 40
15.0
 40
15.0
 40
16.0
 40
16.0
 40
16.0
 40
16.0
 10
123.5339445202648
 20
-118.2534023197995
 30
0.0
 10
124.3108294545599
 20
-118.3035671707967
 30
0.0
 10
125.0868677246907
 20
-118.3654794869022
 30
0.0
 10
125.8607187790465
 20
-118.4506750671776
 30
0.0
 10
126.4101685498061
 20
-118.51114099869
 30
0.0
 10
126.9584894350079
 20
-118.5833543953132
 30
0.0
 10
127.5014481137746
 20
-118.6871060315881
 30
0.0
 10
127.7124086036131
 20
-118.7274284118162
 30
0.0
 10
127.9225577069462
 20
-118.7725132779075
 30
0.0
 10
128.1296023749799
 20
-118.8298042188504
 30
0.0
 10
128.2798499880587
 20
-118.8713965953114
 30
0.0
 10
128.4284748281317
 20
-118.9194095082546
 30
0.0
 10
128.5703263548296
 20
-118.9840029275067
 30
0.0
 10
128.6214084266146
 20
-119.0072509140094
 30
0.0
 10
128.6716085565527
 20
-119.0326155608927
 30
0.0
 10
128.7185631404973
 20
-119.0634129694141
 30
0.0
 10
128.7543699794839
 20
-119.0868726219541
 30
0.0
 10
128.7883423794374
 20
-119.1135072650703
 30
0.0
 10
128.8169525729618
 20
-119.1455393921468
 30
0.0
 10
128.8386130647291
 20
-119.1698104311611
 30
0.0
 10
128.8572043988598
 20
-119.1971506277377
 30
0.0
 10
128.8656357629231
 20
-119.2284772013571
 30
0.0
 10
128.8711390800518
 20
-119.2490088070397
 30
0.0
 10
128.8723032432871
 20
-119.2712337410238
 30
0.0
 10
128.8690224196174
 20
-119.2920828457679
 30
0.0
 10
128.861190776013
 20
-119.3418596423598
 30
0.0
 10
128.8281708732604
 20
-119.3837342402022
 30
0.0
 10
128.7911645933547
 20
-119.4194705229472
 30
0.0
 10
128.7237489585548
 20
-119.4845931072924
 30
0.0
 10
128.6429278076877
 20
-119.5293957519958
 30
0.0
 10
128.5597430526673
 20
-119.5693653554991
 30
0.0
 10
128.4570144663089
 20
-119.6187188200185
 30
0.0
 10
128.3506522795457
 20
-119.6607698062223
 30
0.0
 10
128.2428437081529
 20
-119.6981288619282
 30
0.0
 10
128.103602729325
 20
-119.7463887185827
 30
0.0
 10
127.9619275909974
 20
-119.7868874871815
 30
0.0
 10
127.8195116215231
 20
-119.8242465428816
 30
0.0
 10
127.4061631166152
 20
-119.9327606650133
 30
0.0
 10
126.9864293527262
 20
-120.0152045867981
 30
0.0
 10
126.5649317051435
 20
-120.0863949309002
 30
0.0
 10
126.0572154225883
 20
-120.1721902316216
 30
0.0
 10
125.5469944251785
 20
-120.2416872474221
 30
0.0
 10
125.0358209305832
 20
-120.3028940100672
 30
0.0
 10
123.6774540976267
 20
-120.4655240825692
 30
0.0
 10
122.3125961726792
 20
-120.5696637732489
 30
0.0
 10
120.9462918631007
 20
-120.6403602299287
 30
0.0
 10
119.4702034323901
 20
-120.7167011142864
 30
0.0
 10
117.9924216733322
 20
-120.7540248923161
 30
0.0
 10
116.5143929705569
 20
-120.7549773894876
 30
0.0
  0
SPLINE
  5
4B
330
1F
100
AcDbEntity
  8
0
 62
   250
370
    25
100
AcDbSpline
210
0.0
220
0.0
230
1.0
 70
     8
 71
     3
 72
    53
 73
    49
 74
     0
 42
0.0000000001
 43
0.0000000001
 12
1.0
 22
0.0
 32
0.0
 13
1.0
 23
0.0
 33
0.0
 40
0.0
 40
0.0
 40
0.0
 40
0.0
 40
1.0
 40
1.0
 40
1.0
 40
2.0
 40
2.0
 40
2.0
 40
3.0
 40
3.0
 40
3.0
 40
4.0
 40
4.0
 40
4.0
 40
5.0
 40
5.0
 40
5.0
 40
6.0
 40
6.0
 40
6.0
 40
7.0
 40
7.0
 40
7.0
 40
8.0
 40
8.0
 40
8.0
 40
9.0
 40
9.0
 40
9.0
 40
10.0
 40
10.0
 40
10.0
 40
11.0
 40
11.0
 40
11.0
 40
12.0
 40
12.0
 40
12.0
 40
13.0
 40
13.0
 40
13.0
 40
14.0
 40
14.0
 40
14.0
 40
15.0
 40
15.0
 40
15.0
 40
16.0
 40
16.0
 40
16.0
 40
16.0
 10
109.2086689302946
 20
-118.2534023197995
 30
0.0
 10
108.4283973392963
 20
-118.3037788368343
 30
0.0
 10
107.648972412475
 20
-118.3660439296683
 30
0.0
 10
106.8717699791057
 20
-118.4518039527169
 30
0.0
 10
106.3212971557992
 20
-118.5125521056101
 30
0.0
 10
105.7719532180564
 20
-118.5851182789625
 30
0.0
 10
105.2280773197689
 20
-118.6896813017179
 30
0.0
 10
105.0175048843451
 20
-118.7301447926396
 30
0.0
 10
104.8077085577506
 20
-118.7754413247661
 30
0.0
 10
104.6011224994761
 20
-118.8331555977806
 30
0.0
 10
104.4518273835938
 20
-118.8748538072617
 30
0.0
 10
104.3041903183822
 20
-118.9230431085727
 30
0.0
 10
104.1635029549279
 20
-118.9881304152444
 30
0.0
 10
104.1130911589458
 20
-119.0114489570975
 30
0.0
 10
104.0635613048105
 20
-119.0369194369976
 30
0.0
 10
104.0174181073689
 20
-119.0678932338858
 30
0.0
 10
103.9822815441813
 20
-119.0914587194468
 30
0.0
 10
103.9491205307287
 20
-119.1181991955767
 30
0.0
 10
103.9215686674247
 20
-119.1504429886946
 30
0.0
 10
103.9006490068106
 20
-119.1748904160799
 30
0.0
 10
103.8829396145199
 20
-119.2024775563605
 30
0.0
 10
103.8757429690477
 20
-119.2336630192863
 30
0.0
 10
103.8709452053984
 20
-119.2544062910039
 30
0.0
 10
103.870768817028
 20
-119.2767370580113
 30
0.0
 10
103.8748257495241
 20
-119.2975508850786
 30
0.0
 10
103.8846329428667
 20
-119.3481037904812
 30
0.0
 10
103.9193814516426
 20
-119.3897667222861
 30
0.0
 10
103.9579046715238
 20
-119.4254324496807
 30
0.0
 10
104.0281425202319
 20
-119.490484478682
 30
0.0
 10
104.1110097761876
 20
-119.5356399001172
 30
0.0
 10
104.196311191643
 20
-119.5758917250014
 30
0.0
 10
104.3012975491236
 20
-119.6253863002156
 30
0.0
 10
104.4099880623661
 20
-119.6675078417685
 30
0.0
 10
104.5200544048872
 20
-119.7050080081628
 30
0.0
 10
104.6618706539058
 20
-119.7533031424906
 30
0.0
 10
104.8059799517302
 20
-119.7939430217802
 30
0.0
 10
104.950830080701
 20
-119.8314784658409
 30
0.0
 10
105.3705285669201
 20
-119.9402748093573
 30
0.0
 10
105.7966475897791
 20
-120.0228951195132
 30
0.0
 10
106.2244599409843
 20
-120.0942971296528
 30
0.0
 10
106.7389495369293
 20
-120.1801277080478
 30
0.0
 10
107.2559085700456
 20
-120.2496952791922
 30
0.0
 10
107.7737848226817
 20
-120.3108667641637
 30
0.0
 10
109.1477091098199
 20
-120.4731793376107
 30
0.0
 10
110.5280892112808
 20
-120.5766840301749
 30
0.0
 10
111.9099156973673
 20
-120.6461810459712
 30
0.0
 10
113.3958818767645
 20
-120.7208991573745
 30
0.0
 10
114.8835413845082
 20
-120.7563532187347
 30
0.0
 10
116.3714125583004
 20
-120.7549773894876
 30
0.0
  0
SPLINE
  5
4C
330
1F
100
AcDbEntity
  8
0
 62
   250
370
    25
100
AcDbSpline
210
0.0
220
0.0
230
1.0
 70
     8
 71
     3
 72
    35
 73
    31
 74
     0
 42
0.0000000001
 43
0.0000000001
 12
1.0
 22
0.0
 32
0.0
 13
1.0
 23
0.0
 33
0.0
 40
0.0
 40
0.0
 40
0.0
 40
0.0
 40
1.0
 40
1.0
 40
1.0
 40
2.0
 40
2.0
 40
2.0
 40
3.0
 40
3.0
 40
3.0
 40
4.0
 40
4.0
 40
4.0
 40
5.0
 40
5.0
 40
5.0
 40
6.0
 40
6.0
 40
6.0
 40
7.0
 40
7.0
 40
7.0
 40
8.0
 40
8.0
 40
8.0
 40
9.0
 40
9.0
 40
9.0
 40
10.0
 40
10.0
 40
10.0
 40
10.0
 10
116.3714125583004
 20
-423.2880460118531
 30
0.0
 10
58.20357302873842
 20
-423.2880107341815
 30
0.0
 10
0.0387673791289538
 20
-423.0203237447345
 30
0.0
 10
-58.12663799093335
 20
-422.4845969891151
 30
0.0
 10
-72.66813044414447
 20
-422.3506829390461
 30
0.0
 10
-87.20941123131452
 20
-422.2000119938833
 30
0.0
 10
-101.7505509077874
 20
-422.0325841536203
 30
0.0
 10
-109.0210325518388
 20
-421.948870233492
 30
0.0
 10
-116.2914789182164
 20
-421.8600410506506
 30
0.0
 10
-123.5618900069204
 20
-421.7688835413316
 30
0.0
 10
-131.4262712908292
 20
-421.6702824428212
 30
0.0
 10
-137.3875279016482
 20
-421.7967176260273
 30
0.0
 10
-144.5582795616262
 20
-417.2932403331735
 30
0.0
 10
-150.6763454328676
 20
-413.4509019265996
 30
0.0
 10
-155.4134314821886
 20
-407.2045664331162
 30
0.0
 10
-157.4319494265613
 20
-400.2608971599367
 30
0.0
 10
-158.4709827555066
 20
-396.6865632418705
 30
0.0
 10
-158.6777804798222
 20
-393.1377350820287
 30
0.0
 10
-158.6789799207343
 20
-389.4690686639932
 30
0.0
 10
-158.6801440839719
 20
-385.8337405939595
 30
0.0
 10
-158.678803532363
 20
-382.1984116695896
 30
0.0
 10
-158.6789799207343
 20
-378.5630474675415
 30
0.0
 10
-158.6797207518865
 20
-364.0217317700418
 30
0.0
 10
-158.6791210314308
 20
-349.4804160725452
 30
0.0
 10
-158.6791563091012
 20
-334.9390650973782
 30
0.0
 10
-158.6792974197986
 20
-276.7722148120975
 30
0.0
 10
-158.6796149188633
 20
-218.6053998045
 30
0.0
 10
-158.680214639319
 20
-160.4385495192258
 30
0.0
 10
-158.6807790821012
 20
-102.2716992339483
 30
0.0
 10
-158.7424797337284
 20
-44.1049099250504
 30
0.0
 10
-158.6844126825126
 20
14.06194182964408
 30
0.0
  0
SPLINE
  5
4D
330
1F
100
AcDbEntity
  8
0
 62
   250
370
    25
100
AcDbSpline
210
0.0
220
0.0
230
1.0
 70
     8
 71
     3
 72
     8
 73
     4
 74
     0
 42
0.0000000001
 43
0.0000000001
 12
1.0
 22
0.0
 32
0.0
 13
1.0
 23
0.0
 33
0.0
 40
0.0
 40
0.0
 40
0.0
 40
0.0
 40
1.0
 40
1.0
 40
1.0
 40
1.0
 10
-158.5001926694838
 20
14.15228795246311
 30
0.0
 10
-156.2142346793891
 20
15.0224117788448
 30
0.0
 10
-153.928170856271
 20
15.89221810616505
 30
0.0
 10
-151.6420717554759
 20
16.76195387813529
 30
0.0
  0
SPLINE
  5
4E
330
1F
100
AcDbEntity
  8
0
 62
   250
370
    25
100
AcDbSpline
210
0.0
220
0.0
230
1.0
 70
     8
 71
     3
 72
     8
 73
     4
 74
     0
 42
0.0000000001
 43
0.0000000001
 12
1.0
 22
0.0
 32
0.0
 13
1.0
 23
0.0
 33
0.0
 40
0.0
 40
0.0
 40
0.0
 40
0.0
 40
1.0
 40
1.0
 40
1.0
 40
1.0
 10
384.3848968720739
 20
16.76195387813529
 30
0.0
 10
386.6710312505374
 20
15.89221810616505
 30
0.0
 10
388.957095073657
 20
15.0224117788448
 30
0.0
 10
391.2430530637572
 20
14.15228795246311
 30
0.0
  0
SPLINE
  5
4F
330
1F
100
AcDbEntity
  8
0
 62
   250
370
    25
100
AcDbSpline
210
0.0
220
0.0
230
1.0
 70
     8
 71
     3
 72
    35
 73
    31
 74
     0
 42
0.0000000001
 43
0.0000000001
 12
1.0
 22
0.0
 32
0.0
 13
1.0
 23
0.0
 33
0.0
 40
0.0
 40
0.0
 40
0.0
 40
0.0
 40
1.0
 40
1.0
 40
1.0
 40
2.0
 40
2.0
 40
2.0
 40
3.0
 40
3.0
 40
3.0
 40
4.0
 40
4.0
 40
4.0
 40
5.0
 40
5.0
 40
5.0
 40
6.0
 40
6.0
 40
6.0
 40
7.0
 40
7.0
 40
7.0
 40
8.0
 40
8.0
 40
8.0
 40
9.0
 40
9.0
 40
9.0
 40
10.0
 40
10.0
 40
10.0
 40
10.0
 10
391.4272377991109
 20
14.06359988031764
 30
0.0
 10
391.4853401280024
 20
-44.1033929850711
 30
0.0
 10
391.4236394763726
 20
-102.2703586823689
 30
0.0
 10
391.4230397559176
 20
-160.4373148006696
 30
0.0
 10
391.4224753131347
 20
-218.6043061966381
 30
0.0
 10
391.4221578140733
 20
-276.7712623149292
 30
0.0
 10
391.4220167033714
 20
-334.9382537108971
 30
0.0
 10
391.4219461480242
 20
-349.4802749618515
 30
0.0
 10
391.4225811461612
 20
-364.0222609351349
 30
0.0
 10
391.4218403150086
 20
-378.5642821860977
 30
0.0
 10
391.4216639266344
 20
-382.1997874988303
 30
0.0
 10
391.4230397559176
 20
-385.8352928115739
 30
0.0
 10
391.4218050373293
 20
-389.4708325476958
 30
0.0
 10
391.4205703187411
 20
-393.1396753540908
 30
0.0
 10
391.2135609283861
 20
-396.6886446246243
 30
0.0
 10
390.1741748227035
 20
-400.263084375717
 30
0.0
 10
388.1550218801983
 20
-407.2068594819152
 30
0.0
 10
383.4171244443754
 20
-413.4531596977269
 30
0.0
 10
377.2983530196598
 20
-417.2949689391904
 30
0.0
 10
370.127566082007
 20
-421.7973526241572
 30
0.0
 10
364.1662036381679
 20
-421.6703177204967
 30
0.0
 10
356.3023867970418
 20
-421.7689188190033
 30
0.0
 10
349.0322932074016
 20
-421.8600763283197
 30
0.0
 10
341.7621643400858
 20
-421.9489055111642
 30
0.0
 10
334.4919649174293
 20
-422.0325841536203
 30
0.0
 10
319.951424961415
 20
-422.2000119938833
 30
0.0
 10
305.4107791723768
 20
-422.3506829390461
 30
0.0
 10
290.869886439616
 20
-422.4845969891151
 30
0.0
 10
232.7043399588594
 20
-423.0203237447345
 30
0.0
 10
174.5394284762321
 20
-423.2880107341815
 30
0.0
 10
116.3714125583004
 20
-423.2880460118531
 30
0.0
  0
SPLINE
  5
50
330
1F
100
AcDbEntity
  8
0
 62
   250
370
    25
100
AcDbSpline
210
0.0
220
0.0
230
1.0
 70
     8
 71
     3
 72
     8
 73
     4
 74
     0
 42
0.0000000001
 43
0.0000000001
 12
1.0
 22
0.0
 32
0.0
 13
1.0
 23
0.0
 33
0.0
 40
0.0
 40
0.0
 40
0.0
 40
0.0
 40
1.0
 40
1.0
 40
1.0
 40
1.0
 10
376.6952776379846
 20
-98.50575655190627
 30
0.0
 10
375.6519757104953
 20
-98.5134823622917
 30
0.0
 10
-143.4236195645688
 20
-98.49383570856341
 30
0.0
 10
-144.4669214920484
 20
-98.49923319253018
 30
0.0
  0
POLYLINE
  5
51
330
1F
100
AcDbEntity
  8
0
 62
   250
370
    25
100
AcDb2dPolyline
 66
     1
 10
0.0
 20
0.0
 30
0.0
  0
VERTEX
  5
52
330
51
100
AcDbEntity
  8
0
 62
   250
370
    25
100
AcDbVertex
100
AcDb2dVertex
 10
197.5934589156515
 20
-118.4392098234572
 30
0.0
  0
VERTEX
  5
53
330
51
100
AcDbEntity
  8
0
 62
   250
370
    25
100
AcDbVertex
100
AcDb2dVertex
 10
197.5821700600057
 20
-118.4391745457869
 30
0.0
  0
SEQEND
  5
54
330
51
100
AcDbEntity
  8
0
 62
   250
370
    25
  0
SPLINE
  5
55
330
1F
100
AcDbEntity
  8
0
 62
   250
370
    25
100
AcDbSpline
210
0.0
220
0.0
230
1.0
 70
     8
 71
     3
 72
     8
 73
     4
 74
     0
 42
0.0000000001
 43
0.0000000001
 12
1.0
 22
0.0
 32
0.0
 13
1.0
 23
0.0
 33
0.0
 40
0.0
 40
0.0
 40
0.0
 40
0.0
 40
1.0
 40
1.0
 40
1.0
 40
1.0
 10
319.2408973316897
 20
-122.2489162854419
 30
0.0
 10
319.1965885732856
 20
-122.2446476870106
 30
0.0
 10
319.1522798148878
 20
-122.2404143662496
 30
0.0
 10
319.107935778814
 20
-122.2362163231654
 30
0.0
  0
POLYLINE
  5
56
330
1F
100
AcDbEntity
  8
0
 62
   250
370
    25
100
AcDb2dPolyline
 66
     1
 10
0.0
 20
0.0
 30
0.0
  0
VERTEX
  5
57
330
56
100
AcDbEntity
  8
0
 62
   250
370
    25
100
AcDbVertex
100
AcDb2dVertex
 10
35.14940147861969
 20
-118.4392098234572
 30
0.0
  0
VERTEX
  5
58
330
56
100
AcDbEntity
  8
0
 62
   250
370
    25
100
AcDbVertex
100
AcDb2dVertex
 10
35.16069033426805
 20
-118.4391745457869
 30
0.0
  0
SEQEND
  5
59
330
56
100
AcDbEntity
  8
0
 62
   250
370
    25
  0
SPLINE
  5
5A
330
1F
100
AcDbEntity
  8
0
 62
   250
370
    25
100
AcDbSpline
210
0.0
220
0.0
230
1.0
 70
     8
 71
     3
 72
    29
 73
    25
 74
     0
 42
0.0000000001
 43
0.0000000001
 12
1.0
 22
0.0
 32
0.0
 13
1.0
 23
0.0
 33
0.0
 40
0.0
 40
0.0
 40
0.0
 40
0.0
 40
1.0
 40
1.0
 40
1.0
 40
2.0
 40
2.0
 40
2.0
 40
3.0
 40
3.0
 40
3.0
 40
4.0
 40
4.0
 40
4.0
 40
5.0
 40
5.0
 40
5.0
 40
6.0
 40
6.0
 40
6.0
 40
7.0
 40
7.0
 40
7.0
 40
8.0
 40
8.0
 40
8.0
 40
8.0
 10
-145.5763579522848
 20
-98.41133403354416
 30
0.0
 10
-145.5821434908013
 20
-91.34246447432274
 30
0.0
 10
-145.5875762525796
 20
-84.27359491509812
 30
0.0
 10
-145.5948081757251
 20
-77.2047253558799
 30
0.0
 10
-145.6004173258712
 20
-71.71731859931009
 30
0.0
 10
-145.6071553615849
 20
-66.22986754502416
 30
0.0
 10
-145.6145283954275
 20
-60.74246064983132
 30
0.0
 10
-145.6249705868994
 20
-52.9538910870999
 30
0.0
 10
-145.6367533299764
 20
-45.16532152436528
 30
0.0
 10
-145.6590840975462
 20
-37.37675196163674
 30
0.0
 10
-145.6736890545347
 20
-32.28103307959432
 30
0.0
 10
-145.6927742761017
 20
-27.18531419755223
 30
0.0
 10
-145.721384469626
 20
-22.08963059318627
 30
0.0
 10
-145.7333083234005
 20
-19.96721989922111
 30
0.0
 10
-145.7468549501717
 20
-17.8448092052553
 30
0.0
 10
-145.7641057327005
 20
-15.72239851129334
 30
0.0
 10
-145.7840376184472
 20
-13.27246989297789
 30
0.0
 10
-145.8089083785371
 20
-10.82261183000957
 30
0.0
 10
-145.8314508121474
 20
-8.37271848936769
 30
0.0
 10
-145.8349785795378
 20
-7.993342384406996
 30
0.0
 10
-145.838400513905
 20
-7.614001557116016
 30
0.0
 10
-145.8411168947926
 20
-7.234660729828245
 30
0.0
 10
-145.8479254858534
 20
-6.288725182266254
 30
0.0
 10
-145.8502185346559
 20
-5.342719079357134
 30
0.0
 10
-145.8468318779623
 20
-4.396783531794502
 30
0.0
  0
SPLINE
  5
5B
330
1F
100
AcDbEntity
  8
0
 62
   250
370
    25
100
AcDbSpline
210
0.0
220
0.0
230
1.0
 70
     8
 71
     3
 72
    29
 73
    25
 74
     0
 42
0.0000000001
 43
0.0000000001
 12
1.0
 22
0.0
 32
0.0
 13
1.0
 23
0.0
 33
0.0
 40
0.0
 40
0.0
 40
0.0
 40
0.0
 40
1.0
 40
1.0
 40
1.0
 40
2.0
 40
2.0
 40
2.0
 40
3.0
 40
3.0
 40
3.0
 40
4.0
 40
4.0
 40
4.0
 40
5.0
 40
5.0
 40
5.0
 40
6.0
 40
6.0
 40
6.0
 40
7.0
 40
7.0
 40
7.0
 40
8.0
 40
8.0
 40
8.0
 40
8.0
 10
-150.8599657254401
 20
-98.41962428669892
 30
0.0
 10
-150.8543918529646
 20
-86.64570092489996
 30
0.0
 10
-150.8475832619042
 20
-74.87174228543064
 30
0.0
 10
-150.8374938471733
 20
-63.09777454678701
 30
0.0
 10
-150.8335074700243
 20
-58.42341220163078
 30
0.0
 10
-150.8289919277661
 20
-53.74908513415131
 30
0.0
 10
-150.8232769445996
 20
-49.07472278899443
 30
0.0
 10
-150.8189730683859
 20
-45.57263754704807
 30
0.0
 10
-150.8139989163662
 20
-42.07055230510429
 30
0.0
 10
-150.8073314360026
 20
-38.56843178547764
 30
0.0
 10
-150.795725081296
 20
-32.504164366919
 30
0.0
 10
-150.7789329085254
 20
-26.43989694835684
 30
0.0
 10
-150.7542385368062
 20
-20.37566480746502
 30
0.0
 10
-150.7467949476164
 20
-18.54337770353581
 30
0.0
 10
-150.7386105272738
 20
-16.71105532192662
 30
0.0
 10
-150.7276038930198
 20
-14.87876821800126
 30
0.0
 10
-150.7146922643813
 20
-12.73127509790477
 30
0.0
 10
-150.6979000916104
 20
-10.58378197780187
 30
0.0
 10
-150.6822720820784
 20
-8.436324135382794
 30
0.0
 10
-150.6794851458434
 20
-8.053208596987075
 30
0.0
 10
-150.6767334872791
 20
-7.670128336264276
 30
0.0
 10
-150.6750048812587
 20
-7.287048075548538
 30
0.0
 10
-150.6706304496979
 20
-6.314054552114452
 30
0.0
 10
-150.6728529431501
 20
-5.340990473333557
 30
0.0
 10
-150.681672361622
 20
-4.368032227579453
 30
0.0
  0
SPLINE
  5
5C
330
1F
100
AcDbEntity
  8
0
 62
   250
370
    25
100
AcDbSpline
210
0.0
220
0.0
230
1.0
 70
     8
 71
     3
 72
    29
 73
    25
 74
     0
 42
0.0000000001
 43
0.0000000001
 12
1.0
 22
0.0
 32
0.0
 13
1.0
 23
0.0
 33
0.0
 40
0.0
 40
0.0
 40
0.0
 40
0.0
 40
1.0
 40
1.0
 40
1.0
 40
2.0
 40
2.0
 40
2.0
 40
3.0
 40
3.0
 40
3.0
 40
4.0
 40
4.0
 40
4.0
 40
5.0
 40
5.0
 40
5.0
 40
6.0
 40
6.0
 40
6.0
 40
7.0
 40
7.0
 40
7.0
 40
8.0
 40
8.0
 40
8.0
 40
8.0
 10
-137.9452679257776
 20
2.628059668991641
 30
0.0
 10
-138.5552541849266
 20
2.731529086496554
 30
0.0
 10
-139.1747301383539
 20
2.806670531874321
 30
0.0
 10
-139.7944883131688
 20
2.804659704462872
 30
0.0
 10
-140.2995587701897
 20
2.803001653789632
 30
0.0
 10
-140.8048408932484
 20
2.750155698307871
 30
0.0
 10
-141.2981638848598
 20
2.641359352048238
 30
0.0
 10
-141.8347373046575
 20
2.523002756163825
 30
0.0
 10
-142.3571996548986
 20
2.338500521741054
 30
0.0
 10
-142.8473123781872
 20
2.089969309217842
 30
0.0
 10
-143.3031352024613
 20
1.858829989920932
 30
0.0
 10
-143.7309828313429
 20
1.572340000299309
 30
0.0
 10
-144.1140983697361
 20
1.234203496107054
 30
0.0
 10
-144.498201682999
 20
0.8952203277447667
 30
0.0
 10
-144.8373259620587
 20
0.5043437010943311
 30
0.0
 10
-145.1145732011267
 20
0.0736385806273297
 30
0.0
 10
-145.3836360198484
 20
-0.3443312995649152
 30
0.0
 10
-145.5943848436404
 20
-0.7998013470973113
 30
0.0
 10
-145.7405402465462
 20
-1.274991614335633
 30
0.0
 10
-145.8860959289964
 20
-1.748417997873926
 30
0.0
 10
-145.967516800326
 20
-2.241388212750323
 30
0.0
 10
-145.9862139674844
 20
-2.736228144337496
 30
0.0
 10
-146.0071689057719
 20
-3.292274840116871
 30
0.0
 10
-145.9489254661882
 20
-3.850614584701984
 30
0.0
 10
-145.8468318779623
 20
-4.396783531794502
 30
0.0
  0
SPLINE
  5
5D
330
1F
100
AcDbEntity
  8
0
 62
   250
370
    25
100
AcDbSpline
210
0.0
220
0.0
230
1.0
 70
     8
 71
     3
 72
     8
 73
     4
 74
     0
 42
0.0000000001
 43
0.0000000001
 12
1.0
 22
0.0
 32
0.0
 13
1.0
 23
0.0
 33
0.0
 40
0.0
 40
0.0
 40
0.0
 40
0.0
 40
1.0
 40
1.0
 40
1.0
 40
1.0
 10
-150.681672361622
 20
-4.368032227579453
 30
0.0
 10
-149.0700471078446
 20
-4.374981929330961
 30
0.0
 10
-147.4584218540668
 20
-4.38344857106787
 30
0.0
 10
-145.8468318779623
 20
-4.396783531794502
 30
0.0
  0
SPLINE
  5
5E
330
1F
100
AcDbEntity
  8
0
 62
   250
370
    25
100
AcDbSpline
210
0.0
220
0.0
230
1.0
 70
     8
 71
     3
 72
    29
 73
    25
 74
     0
 42
0.0000000001
 43
0.0000000001
 12
1.0
 22
0.0
 32
0.0
 13
1.0
 23
0.0
 33
0.0
 40
0.0
 40
0.0
 40
0.0
 40
0.0
 40
1.0
 40
1.0
 40
1.0
 40
2.0
 40
2.0
 40
2.0
 40
3.0
 40
3.0
 40
3.0
 40
4.0
 40
4.0
 40
4.0
 40
5.0
 40
5.0
 40
5.0
 40
6.0
 40
6.0
 40
6.0
 40
7.0
 40
7.0
 40
7.0
 40
8.0
 40
8.0
 40
8.0
 40
8.0
 10
-150.681672361622
 20
-4.368032227579453
 30
0.0
 10
-150.685976237836
 20
-3.571744572640178
 30
0.0
 10
-150.6287558507935
 20
-2.768260272226103
 30
0.0
 10
-150.4732871419835
 20
-1.98558979940807
 30
0.0
 10
-150.3264614632713
 20
-1.246346143140955
 30
0.0
 10
-150.0919707649547
 20
-0.5256938210083855
 30
0.0
 10
-149.7977196870783
 20
0.1689941331396388
 30
0.0
 10
-149.4677323255551
 20
0.9480310055497553
 30
0.0
 10
-149.0626035186545
 20
1.694436029615219
 30
0.0
 10
-148.5849438142461
 20
2.39212258604572
 30
0.0
 10
-148.1043913405831
 20
3.094042463343071
 30
0.0
 10
-147.5504613052323
 20
3.746644152549415
 30
0.0
 10
-146.937405888455
 20
4.336522137584251
 30
0.0
 10
-145.6787690395719
 20
5.547639959743208
 30
0.0
 10
-144.1710718130608
 20
6.494316338455182
 30
0.0
 10
-142.5439596604475
 20
7.130408076281707
 30
0.0
 10
-142.201272336327
 20
7.264392681699132
 30
0.0
 10
-141.8532580834453
 20
7.384583716627493
 30
0.0
 10
-141.4984352395092
 20
7.480997599354108
 30
0.0
 10
-141.1873214335123
 20
7.565558183659511
 30
0.0
 10
-140.8709512541103
 20
7.631809655215353
 30
0.0
 10
-140.5526055249679
 20
7.683985334891373
 30
0.0
 10
-139.7113741134984
 20
7.821885762110682
 30
0.0
 10
-138.8561374654959
 20
7.861432034542263
 30
0.0
 10
-138.0049577499908
 20
7.867111740028776
 30
0.0
  0
SPLINE
  5
5F
330
1F
100
AcDbEntity
  8
0
 62
   250
370
    25
100
AcDbSpline
210
0.0
220
0.0
230
1.0
 70
     8
 71
     3
 72
     8
 73
     4
 74
     0
 42
0.0000000001
 43
0.0000000001
 12
1.0
 22
0.0
 32
0.0
 13
1.0
 23
0.0
 33
0.0
 40
0.0
 40
0.0
 40
0.0
 40
0.0
 40
1.0
 40
1.0
 40
1.0
 40
1.0
 10
-137.9452679257776
 20
2.628059668991641
 30
0.0
 10
-137.9728197890815
 20
4.374339803989368
 30
0.0
 10
-137.9927163971514
 20
6.120655216663868
 30
0.0
 10
-138.0049577499908
 20
7.867111740028776
 30
0.0
  0
SPLINE
  5
60
330
1F
100
AcDbEntity
  8
0
 62
   250
370
    25
100
AcDbSpline
210
0.0
220
0.0
230
1.0
 70
     8
 71
     3
 72
    23
 73
    19
 74
     0
 42
0.0000000001
 43
0.0000000001
 12
1.0
 22
0.0
 32
0.0
 13
1.0
 23
0.0
 33
0.0
 40
0.0
 40
0.0
 40
0.0
 40
0.0
 40
1.0
 40
1.0
 40
1.0
 40
2.0
 40
2.0
 40
2.0
 40
3.0
 40
3.0
 40
3.0
 40
4.0
 40
4.0
 40
4.0
 40
5.0
 40
5.0
 40
5.0
 40
6.0
 40
6.0
 40
6.0
 40
6.0
 10
-138.0049577499908
 20
7.867111740028776
 30
0.0
 10
-136.4461784516913
 20
7.866829518637696
 30
0.0
 10
-134.8875049864156
 20
7.879846980303212
 30
0.0
 10
-133.32883152114
 20
7.89434610426773
 30
0.0
 10
-129.135409704065
 20
7.93339848926107
 30
0.0
 10
-124.9420937200104
 20
7.983281120134239
 30
0.0
 10
-120.7487071806055
 20
8.025155719035498
 30
0.0
 10
-118.2160876947054
 20
8.050414533540096
 30
0.0
 10
-115.6834329311253
 20
8.072780578783231
 30
0.0
 10
-113.1507781675516
 20
8.093488573356334
 30
0.0
 10
-106.9391206274957
 20
8.144288423746666
 30
0.0
 10
-100.7274278097623
 20
8.185175247780425
 30
0.0
 10
-94.51569971435929
 20
8.222569582100204
 30
0.0
 10
-74.52719330255437
 20
8.342937005396067
 30
0.0
 10
-54.53851050238163
 20
8.427074257613565
 30
0.0
 10
-34.54979242453533
 20
8.496606552839115
 30
0.0
 10
15.75708775548113
 20
8.671654370657478
 30
0.0
 10
320.4406204651796
 20
7.862172865685507
 30
0.0
 10
370.7477828665903
 20
7.867111740028776
 30
0.0
  0
SPLINE
  5
61
330
1F
100
AcDbEntity
  8
0
 62
   250
370
    25
100
AcDbSpline
210
0.0
220
0.0
230
1.0
 70
     8
 71
     3
 72
    20
 73
    16
 74
     0
 42
0.0000000001
 43
0.0000000001
 12
1.0
 22
0.0
 32
0.0
 13
1.0
 23
0.0
 33
0.0
 40
0.0
 40
0.0
 40
0.0
 40
0.0
 40
1.0
 40
1.0
 40
1.0
 40
2.0
 40
2.0
 40
2.0
 40
3.0
 40
3.0
 40
3.0
 40
4.0
 40
4.0
 40
4.0
 40
5.0
 40
5.0
 40
5.0
 40
5.0
 10
375.1401707643765
 20
-7.372525879371102
 30
0.0
 10
374.9765529129007
 20
-6.982495916897758
 30
0.0
 10
374.7944495603041
 20
-6.600191765001716
 30
0.0
 10
374.5955187572633
 20
-6.226953975291891
 30
0.0
 10
374.3853696539296
 20
-5.832620136604568
 30
0.0
 10
374.1564528280813
 20
-5.448375712643884
 30
0.0
 10
373.9120843810791
 20
-5.074255981090461
 30
0.0
 10
373.4057439278083
 20
-4.299064375132855
 30
0.0
 10
372.8330461699504
 20
-3.567264308055811
 30
0.0
 10
372.2018933064709
 20
-2.88979185876306
 30
0.0
 10
371.5819940209599
 20
-2.224419651611925
 30
0.0
 10
370.905685734898
 20
-1.611434790177875
 30
0.0
 10
370.1792125965817
 20
-1.06427806821465
 30
0.0
 10
369.4891812953821
 20
-0.5445673765343316
 30
0.0
 10
368.7538887385914
 20
-0.0842290100086834
 30
0.0
 10
367.9737229806118
 20
0.2879151718065336
 30
0.0
  0
POLYLINE
  5
62
330
1F
100
AcDbEntity
  8
0
 62
   250
370
    25
100
AcDb2dPolyline
 66
     1
 10
0.0
 20
0.0
 30
0.0
  0
VERTEX
  5
63
330
62
100
AcDbEntity
  8
0
 62
   250
370
    25
100
AcDbVertex
100
AcDb2dVertex
 10
-142.3973103701063
 20
-7.372525879371102
 30
0.0
  0
VERTEX
  5
64
330
62
100
AcDbEntity
  8
0
 62
   250
370
    25
100
AcDbVertex
100
AcDb2dVertex
 10
-142.3972750924327
 20
-98.50573708647862
 30
0.0
  0
SEQEND
  5
65
330
62
100
AcDbEntity
  8
0
 62
   250
370
    25
  0
SPLINE
  5
66
330
1F
100
AcDbEntity
  8
0
 62
   250
370
    25
100
AcDbSpline
210
0.0
220
0.0
230
1.0
 70
     8
 71
     3
 72
     8
 73
     4
 74
     0
 42
0.0000000001
 43
0.0000000001
 12
1.0
 22
0.0
 32
0.0
 13
1.0
 23
0.0
 33
0.0
 40
0.0
 40
0.0
 40
0.0
 40
0.0
 40
1.0
 40
1.0
 40
1.0
 40
1.0
 10
-145.8468318779623
 20
-4.396783531794502
 30
0.0
 10
-144.6971324860398
 20
-5.388862276798807
 30
0.0
 10
-143.5475389271377
 20
-6.381046854823164
 30
0.0
 10
-142.3973103701063
 20
-7.372525879371102
 30
0.0
  0
SPLINE
  5
67
330
1F
100
AcDbEntity
  8
0
 62
   250
370
    25
100
AcDbSpline
210
0.0
220
0.0
230
1.0
 70
     8
 71
     3
 72
    20
 73
    16
 74
     0
 42
0.0000000001
 43
0.0000000001
 12
1.0
 22
0.0
 32
0.0
 13
1.0
 23
0.0
 33
0.0
 40
0.0
 40
0.0
 40
0.0
 40
0.0
 40
1.0
 40
1.0
 40
1.0
 40
2.0
 40
2.0
 40
2.0
 40
3.0
 40
3.0
 40
3.0
 40
4.0
 40
4.0
 40
4.0
 40
5.0
 40
5.0
 40
5.0
 40
5.0
 10
-142.3973103701063
 20
-7.372525879371102
 30
0.0
 10
-142.233692518627
 20
-6.982495916897758
 30
0.0
 10
-142.05158916603
 20
-6.600191765001716
 30
0.0
 10
-141.8526583629892
 20
-6.226953975291891
 30
0.0
 10
-141.6425092596568
 20
-5.832620136604568
 30
0.0
 10
-141.4135924338124
 20
-5.448375712643884
 30
0.0
 10
-141.1692239868096
 20
-5.074255981090461
 30
0.0
 10
-140.6629188112065
 20
-4.29909965280642
 30
0.0
 10
-140.0902563310273
 20
-3.56733486340294
 30
0.0
 10
-139.4591387452173
 20
-2.889897691783432
 30
0.0
 10
-138.8393100150521
 20
-2.224560762306182
 30
0.0
 10
-138.1630722843444
 20
-1.611611178548904
 30
0.0
 10
-137.4366697013724
 20
-1.064489734261811
 30
0.0
 10
-136.746532567152
 20
-0.5446732095611204
 30
0.0
 10
-136.0111341773403
 20
-0.0842642876822476
 30
0.0
 10
-135.2308625863423
 20
0.2879151718065336
 30
0.0
  0
SPLINE
  5
68
330
1F
100
AcDbEntity
  8
0
 62
   250
370
    25
100
AcDbSpline
210
0.0
220
0.0
230
1.0
 70
     8
 71
     3
 72
     8
 73
     4
 74
     0
 42
0.0000000001
 43
0.0000000001
 12
1.0
 22
0.0
 32
0.0
 13
1.0
 23
0.0
 33
0.0
 40
0.0
 40
0.0
 40
0.0
 40
0.0
 40
1.0
 40
1.0
 40
1.0
 40
1.0
 10
-135.2308625863423
 20
0.2879151718065336
 30
0.0
 10
-136.1356290884794
 20
1.068010374433844
 30
0.0
 10
-137.0403603129433
 20
1.848140854734718
 30
0.0
 10
-137.9452679257776
 20
2.628059668991641
 30
0.0
  0
SPLINE
  5
69
330
1F
100
AcDbEntity
  8
0
 62
   250
370
    25
100
AcDbSpline
210
0.0
220
0.0
230
1.0
 70
     8
 71
     3
 72
    29
 73
    25
 74
     0
 42
0.0000000001
 43
0.0000000001
 12
1.0
 22
0.0
 32
0.0
 13
1.0
 23
0.0
 33
0.0
 40
0.0
 40
0.0
 40
0.0
 40
0.0
 40
1.0
 40
1.0
 40
1.0
 40
2.0
 40
2.0
 40
2.0
 40
3.0
 40
3.0
 40
3.0
 40
4.0
 40
4.0
 40
4.0
 40
5.0
 40
5.0
 40
5.0
 40
6.0
 40
6.0
 40
6.0
 40
7.0
 40
7.0
 40
7.0
 40
8.0
 40
8.0
 40
8.0
 40
8.0
 10
-137.9452679257776
 20
2.628059668991641
 30
0.0
 10
-136.7210268089363
 20
2.638149083722129
 30
0.0
 10
-135.4967856920918
 20
2.63687908746355
 30
0.0
 10
-134.2725092975734
 20
2.635291592137439
 30
0.0
 10
-128.2436606635899
 20
2.627459948535915
 30
0.0
 10
-122.2148120296067
 20
2.611302773897836
 30
0.0
 10
-116.18592811795
 20
2.610103332983177
 30
0.0
 10
-111.2363293611399
 20
2.609115558115679
 30
0.0
 10
-106.2867306043336
 20
2.618252475652233
 30
0.0
 10
-101.3371318475203
 20
2.628729944794495
 30
0.0
 10
-95.89325760190864
 20
2.640265744157158
 30
0.0
 10
-90.44934807861705
 20
2.653494871863739
 30
0.0
 10
-85.00547383300224
 20
2.667817607461078
 30
0.0
 10
-69.47857011515045
 20
2.708704431494838
 30
0.0
 10
-53.95170167497223
 20
2.758763450738716
 30
0.0
 10
-38.42479795712398
 20
2.801484713813537
 30
0.0
 10
-30.60955847293255
 20
2.822968817209545
 30
0.0
 10
-22.79428371107045
 20
2.842618481565134
 30
0.0
 10
-14.97900894920835
 20
2.861174538026114
 30
0.0
 10
1.613633296719122
 20
2.900579699757343
 30
0.0
 10
18.20634609799373
 20
2.935116542489223
 30
0.0
 10
34.79902362159477
 20
2.960481190014193
 30
0.0
 10
61.98981993382741
 20
3.002038289854015
 30
0.0
 10
342.1401293380949
 20
3.019825350698349
 30
0.0
 10
369.3309256503266
 20
3.014815921004744
 30
0.0
  0
POLYLINE
  5
6A
330
1F
100
AcDbEntity
  8
0
 62
   250
370
    25
100
AcDb2dPolyline
 66
     1
 10
0.0
 20
0.0
 30
0.0
  0
VERTEX
  5
6B
330
6A
100
AcDbEntity
  8
0
 62
   250
370
    25
100
AcDbVertex
100
AcDb2dVertex
 10
367.9737229806118
 20
0.2879151718065336
 30
0.0
  0
VERTEX
  5
6C
330
6A
100
AcDbEntity
  8
0
 62
   250
370
    25
100
AcDbVertex
100
AcDb2dVertex
 10
-135.2308625863423
 20
0.2879151718065336
 30
0.0
  0
SEQEND
  5
6D
330
6A
100
AcDbEntity
  8
0
 62
   250
370
    25
  0
SPLINE
  5
6E
330
1F
100
AcDbEntity
  8
0
 62
   250
370
    25
100
AcDbSpline
210
0.0
220
0.0
230
1.0
 70
     8
 71
     3
 72
     8
 73
     4
 74
     0
 42
0.0000000001
 43
0.0000000001
 12
1.0
 22
0.0
 32
0.0
 13
1.0
 23
0.0
 33
0.0
 40
0.0
 40
0.0
 40
0.0
 40
0.0
 40
1.0
 40
1.0
 40
1.0
 40
1.0
 10
367.9737229806118
 20
0.2879151718065336
 30
0.0
 10
368.8784894827509
 20
1.068010374433844
 30
0.0
 10
369.7832207072183
 20
1.848140854734718
 30
0.0
 10
370.6881283200485
 20
2.628059668991641
 30
0.0
  0
SPLINE
  5
6F
330
1F
100
AcDbEntity
  8
0
 62
   250
370
    25
100
AcDbSpline
210
0.0
220
0.0
230
1.0
 70
     8
 71
     3
 72
    23
 73
    19
 74
     0
 42
0.0000000001
 43
0.0000000001
 12
1.0
 22
0.0
 32
0.0
 13
1.0
 23
0.0
 33
0.0
 40
0.0
 40
0.0
 40
0.0
 40
0.0
 40
1.0
 40
1.0
 40
1.0
 40
2.0
 40
2.0
 40
2.0
 40
3.0
 40
3.0
 40
3.0
 40
4.0
 40
4.0
 40
4.0
 40
5.0
 40
5.0
 40
5.0
 40
6.0
 40
6.0
 40
6.0
 40
6.0
 10
378.5896922722341
 20
-4.396783531794502
 30
0.0
 10
378.5962539195805
 20
-5.376162314204352
 30
0.0
 10
378.5897275499089
 20
-6.35547054125745
 30
0.0
 10
378.582107572351
 20
-7.334814045990207
 30
0.0
 10
378.5600943038429
 20
-10.17445512771435
 30
0.0
 10
378.5290146731498
 20
-13.01406093176558
 30
0.0
 10
378.505625575365
 20
-15.85370201349614
 30
0.0
 10
378.4886922918976
 20
-17.91014345728724
 30
0.0
 10
378.4758159409286
 20
-19.96658490109182
 30
0.0
 10
378.4644212522692
 20
-22.0230616225629
 30
0.0
 10
378.4361991131611
 20
-27.11546440325851
 30
0.0
 10
378.4169727808947
 20
-32.20790246163089
 30
0.0
 10
378.4022267132069
 20
-37.30037579767428
 30
0.0
 10
378.3795784465752
 20
-45.13505328017381
 30
0.0
 10
378.3675840374543
 20
-52.96976604034979
 30
0.0
 10
378.3572124013263
 20
-60.80451407819709
 30
0.0
 10
378.3406318945997
 20
-73.34012683471417
 30
0.0
 10
378.3282141533973
 20
-85.87573043412917
 30
0.0
 10
378.3191830688808
 20
-98.41133403354416
 30
0.0
  0
SPLINE
  5
70
330
1F
100
AcDbEntity
  8
0
 62
   250
370
    25
100
AcDbSpline
210
0.0
220
0.0
230
1.0
 70
     8
 71
     3
 72
     8
 73
     4
 74
     0
 42
0.0000000001
 43
0.0000000001
 12
1.0
 22
0.0
 32
0.0
 13
1.0
 23
0.0
 33
0.0
 40
0.0
 40
0.0
 40
0.0
 40
0.0
 40
1.0
 40
1.0
 40
1.0
 40
1.0
 10
375.1401354867081
 20
-98.50573708647862
 30
0.0
 10
375.2169702604278
 20
-98.50358514842458
 30
0.0
 10
375.2937697564721
 20
-98.50139793270017
 30
0.0
 10
375.3706045302021
 20
-98.49924599464612
 30
0.0
  0
POLYLINE
  5
71
330
1F
100
AcDbEntity
  8
0
 62
   250
370
    25
100
AcDb2dPolyline
 66
     1
 10
0.0
 20
0.0
 30
0.0
  0
VERTEX
  5
72
330
71
100
AcDbEntity
  8
0
 62
   250
370
    25
100
AcDbVertex
100
AcDb2dVertex
 10
375.1401707643765
 20
-7.372525879371102
 30
0.0
  0
VERTEX
  5
73
330
71
100
AcDbEntity
  8
0
 62
   250
370
    25
100
AcDbVertex
100
AcDb2dVertex
 10
375.1401354867081
 20
-98.50573708647862
 30
0.0
  0
SEQEND
  5
74
330
71
100
AcDbEntity
  8
0
 62
   250
370
    25
  0
SPLINE
  5
75
330
1F
100
AcDbEntity
  8
0
 62
   250
370
    25
100
AcDbSpline
210
0.0
220
0.0
230
1.0
 70
     8
 71
     3
 72
     8
 73
     4
 74
     0
 42
0.0000000001
 43
0.0000000001
 12
1.0
 22
0.0
 32
0.0
 13
1.0
 23
0.0
 33
0.0
 40
0.0
 40
0.0
 40
0.0
 40
0.0
 40
1.0
 40
1.0
 40
1.0
 40
1.0
 10
378.5896922722341
 20
-4.396783531794502
 30
0.0
 10
377.4399928803094
 20
-5.388862276798807
 30
0.0
 10
376.2903993214117
 20
-6.381046854823164
 30
0.0
 10
375.1401707643765
 20
-7.372525879371102
 30
0.0
  0
SPLINE
  5
76
330
1F
100
AcDbEntity
  8
0
 62
   250
370
    25
100
AcDbSpline
210
0.0
220
0.0
230
1.0
 70
     8
 71
     3
 72
     8
 73
     4
 74
     0
 42
0.0000000001
 43
0.0000000001
 12
1.0
 22
0.0
 32
0.0
 13
1.0
 23
0.0
 33
0.0
 40
0.0
 40
0.0
 40
0.0
 40
0.0
 40
1.0
 40
1.0
 40
1.0
 40
1.0
 10
370.6881283200485
 20
2.628059668991641
 30
0.0
 10
370.7156801833543
 20
4.374339803989368
 30
0.0
 10
370.7355767914229
 20
6.120655216663868
 30
0.0
 10
370.7477828665903
 20
7.867111740028776
 30
0.0
  0
SPLINE
  5
77
330
1F
100
AcDbEntity
  8
0
 62
   250
370
    25
100
AcDbSpline
210
0.0
220
0.0
230
1.0
 70
     8
 71
     3
 72
    29
 73
    25
 74
     0
 42
0.0000000001
 43
0.0000000001
 12
1.0
 22
0.0
 32
0.0
 13
1.0
 23
0.0
 33
0.0
 40
0.0
 40
0.0
 40
0.0
 40
0.0
 40
1.0
 40
1.0
 40
1.0
 40
2.0
 40
2.0
 40
2.0
 40
3.0
 40
3.0
 40
3.0
 40
4.0
 40
4.0
 40
4.0
 40
5.0
 40
5.0
 40
5.0
 40
6.0
 40
6.0
 40
6.0
 40
7.0
 40
7.0
 40
7.0
 40
8.0
 40
8.0
 40
8.0
 40
8.0
 10
378.5896922722341
 20
-4.396783531794502
 30
0.0
 10
378.69178586046
 20
-3.850614584701984
 30
0.0
 10
378.7500293000465
 20
-3.292274840116871
 30
0.0
 10
378.729039084084
 20
-2.736228144337496
 30
0.0
 10
378.7103771945933
 20
-2.241388212750323
 30
0.0
 10
378.6289563232679
 20
-1.748417997873926
 30
0.0
 10
378.4833653631458
 20
-1.274991614335633
 30
0.0
 10
378.3372452379138
 20
-0.7998013470973113
 30
0.0
 10
378.1264964141218
 20
-0.3443312995649152
 30
0.0
 10
377.8574335953955
 20
0.0736385806273297
 30
0.0
 10
377.5801863563318
 20
0.5043437010943311
 30
0.0
 10
377.2410267996001
 20
0.8952203277447667
 30
0.0
 10
376.8569587640105
 20
1.234203496107054
 30
0.0
 10
376.4738432256154
 20
1.572340000299309
 30
0.0
 10
376.0459955967334
 20
1.858829989920932
 30
0.0
 10
375.5901727724615
 20
2.089969309217842
 30
0.0
 10
375.1000600491734
 20
2.338500521741054
 30
0.0
 10
374.5775976989322
 20
2.523002756163825
 30
0.0
 10
374.0410242791332
 20
2.641359352048238
 30
0.0
 10
373.5477012875231
 20
2.750155698307871
 30
0.0
 10
373.0424191644592
 20
2.803001653789632
 30
0.0
 10
372.5373487074457
 20
2.804659704462872
 30
0.0
 10
371.9175552549502
 20
2.806670531874321
 30
0.0
 10
371.2981145791956
 20
2.731529086496554
 30
0.0
 10
370.6881283200485
 20
2.628059668991641
 30
0.0
  0
SPLINE
  5
78
330
1F
100
AcDbEntity
  8
0
 62
   250
370
    25
100
AcDbSpline
210
0.0
220
0.0
230
1.0
 70
     8
 71
     3
 72
     8
 73
     4
 74
     0
 42
0.0000000001
 43
0.0000000001
 12
1.0
 22
0.0
 32
0.0
 13
1.0
 23
0.0
 33
0.0
 40
0.0
 40
0.0
 40
0.0
 40
0.0
 40
1.0
 40
1.0
 40
1.0
 40
1.0
 10
383.4245327558945
 20
-4.368032227579453
 30
0.0
 10
381.8128722244431
 20
-4.374981929330961
 30
0.0
 10
380.2012822483383
 20
-4.38344857106787
 30
0.0
 10
378.5896922722341
 20
-4.396783531794502
 30
0.0
  0
SPLINE
  5
79
330
1F
100
AcDbEntity
  8
0
 62
   250
370
    25
100
AcDbSpline
210
0.0
220
0.0
230
1.0
 70
     8
 71
     3
 72
    29
 73
    25
 74
     0
 42
0.0000000001
 43
0.0000000001
 12
1.0
 22
0.0
 32
0.0
 13
1.0
 23
0.0
 33
0.0
 40
0.0
 40
0.0
 40
0.0
 40
0.0
 40
1.0
 40
1.0
 40
1.0
 40
2.0
 40
2.0
 40
2.0
 40
3.0
 40
3.0
 40
3.0
 40
4.0
 40
4.0
 40
4.0
 40
5.0
 40
5.0
 40
5.0
 40
6.0
 40
6.0
 40
6.0
 40
7.0
 40
7.0
 40
7.0
 40
8.0
 40
8.0
 40
8.0
 40
8.0
 10
383.4245327558945
 20
-4.368032227579453
 30
0.0
 10
383.4288366321103
 20
-3.571744572640178
 30
0.0
 10
383.3716162450668
 20
-2.768260272226103
 30
0.0
 10
383.2161475362531
 20
-1.98558979940807
 30
0.0
 10
383.0692865798673
 20
-1.246346143140955
 30
0.0
 10
382.8348311592291
 20
-0.5256938210083855
 30
0.0
 10
382.5405448036753
 20
0.1689941331396388
 30
0.0
 10
382.2105927198305
 20
0.9480310055497553
 30
0.0
 10
381.8054639129273
 20
1.694436029615219
 30
0.0
 10
381.327804208517
 20
2.39212258604572
 30
0.0
 10
380.8472517348494
 20
3.094042463343071
 30
0.0
 10
380.2932864218337
 20
3.746644152549415
 30
0.0
 10
379.6802662827236
 20
4.336522137584251
 30
0.0
 10
378.4216294338475
 20
5.547639959743208
 30
0.0
 10
376.9139322073332
 20
6.494316338455182
 30
0.0
 10
375.2868200547228
 20
7.130408076281707
 30
0.0
 10
374.9441327305962
 20
7.264392681699132
 30
0.0
 10
374.5961184777145
 20
7.384583716627493
 30
0.0
 10
374.2412956337816
 20
7.480997599354108
 30
0.0
 10
373.9301818277838
 20
7.565558183659511
 30
0.0
 10
373.6138116483812
 20
7.631809655215353
 30
0.0
 10
373.2954306415662
 20
7.683985334891373
 30
0.0
 10
372.4542345077718
 20
7.821885762110682
 30
0.0
 10
371.598997859768
 20
7.861432034542263
 30
0.0
 10
370.7477828665903
 20
7.867111740028776
 30
0.0
  0
SPLINE
  5
7A
330
1F
100
AcDbEntity
  8
0
 62
   250
370
    25
100
AcDbSpline
210
0.0
220
0.0
230
1.0
 70
     8
 71
     3
 72
    29
 73
    25
 74
     0
 42
0.0000000001
 43
0.0000000001
 12
1.0
 22
0.0
 32
0.0
 13
1.0
 23
0.0
 33
0.0
 40
0.0
 40
0.0
 40
0.0
 40
0.0
 40
1.0
 40
1.0
 40
1.0
 40
2.0
 40
2.0
 40
2.0
 40
3.0
 40
3.0
 40
3.0
 40
4.0
 40
4.0
 40
4.0
 40
5.0
 40
5.0
 40
5.0
 40
6.0
 40
6.0
 40
6.0
 40
7.0
 40
7.0
 40
7.0
 40
8.0
 40
8.0
 40
8.0
 40
8.0
 10
383.6028261197141
 20
-98.41962428669892
 30
0.0
 10
383.5972169695622
 20
-86.64570092489996
 30
0.0
 10
383.5904436561801
 20
-74.87174228543064
 30
0.0
 10
383.580354241449
 20
-63.09777454678701
 30
0.0
 10
383.5763678642945
 20
-58.42341220163078
 30
0.0
 10
383.5718523220436
 20
-53.74908513415131
 30
0.0
 10
383.5661373388691
 20
-49.07472278899443
 30
0.0
 10
383.5618334626565
 20
-45.57263754704807
 30
0.0
 10
383.5568593106383
 20
-42.07055230510429
 30
0.0
 10
383.5501565526002
 20
-38.56843178547764
 30
0.0
 10
383.5385854755665
 20
-32.504164366919
 30
0.0
 10
383.5217933027972
 20
-26.43989694835684
 30
0.0
 10
383.4970989310809
 20
-20.37566480746502
 30
0.0
 10
383.4896553418863
 20
-18.54337770353581
 30
0.0
 10
383.4814709215456
 20
-16.71105532192662
 30
0.0
 10
383.4704290096192
 20
-14.87876821800126
 30
0.0
 10
383.4575526586541
 20
-12.73127509790477
 30
0.0
 10
383.4407252082055
 20
-10.58378197780187
 30
0.0
 10
383.4251324763528
 20
-8.436324135382794
 30
0.0
 10
383.422345540111
 20
-8.053208596987075
 30
0.0
 10
383.4195938815519
 20
-7.670128336264276
 30
0.0
 10
383.4178652755286
 20
-7.287048075548538
 30
0.0
 10
383.4134908439649
 20
-6.314054552114452
 30
0.0
 10
383.4156780597484
 20
-5.340990473333557
 30
0.0
 10
383.4245327558945
 20
-4.368032227579453
 30
0.0
  0
POLYLINE
  5
7B
330
1F
100
AcDbEntity
  8
0
 62
   250
370
    25
100
AcDb2dPolyline
 66
     1
 10
0.0
 20
0.0
 30
0.0
  0
VERTEX
  5
7C
330
7B
100
AcDbEntity
  8
0
 62
   250
370
    25
100
AcDbVertex
100
AcDb2dVertex
 10
383.7176902258826
 20
-160.1814105607686
 30
0.0
  0
VERTEX
  5
106
330
7B
100
AcDbEntity
  8
0
100
AcDbVertex
100
AcDb2dVertex
 10
383.7176902258826
 20
-160.1814105607686
 30
0.0
  0
SEQEND
  5
7D
330
7B
100
AcDbEntity
  8
0
 62
   250
370
    25
  0
POLYLINE
  5
7E
330
1F
100
AcDbEntity
  8
0
 62
   250
370
    25
100
AcDb2dPolyline
 66
     1
 10
0.0
 20
0.0
 30
0.0
  0
VERTEX
  5
7F
330
7E
100
AcDbEntity
  8
0
 62
   250
370
    25
100
AcDbVertex
100
AcDb2dVertex
 10
383.9431851173592
 20
-200.2287307767495
 30
0.0
  0
VERTEX
  5
107
330
7E
100
AcDbEntity
  8
0
100
AcDbVertex
100
AcDb2dVertex
 10
383.9431851173592
 20
-200.2287307767495
 30
0.0
  0
SEQEND
  5
80
330
7E
100
AcDbEntity
  8
0
 62
   250
370
    25
  0
POLYLINE
  5
81
330
1F
100
AcDbEntity
  8
0
 62
   250
370
    25
100
AcDb2dPolyline
 66
     1
 10
0.0
 20
0.0
 30
0.0
  0
VERTEX
  5
82
330
81
100
AcDbEntity
  8
0
 62
   250
370
    25
100
AcDbVertex
100
AcDb2dVertex
 10
378.2599871321023
 20
-200.2374090843
 30
0.0
  0
VERTEX
  5
108
330
81
100
AcDbEntity
  8
0
100
AcDbVertex
100
AcDb2dVertex
 10
378.2599871321023
 20
-200.2374090843
 30
0.0
  0
SEQEND
  5
83
330
81
100
AcDbEntity
  8
0
 62
   250
370
    25
  0
SPLINE
  5
84
330
1F
100
AcDbEntity
  8
0
 62
   250
370
    25
100
AcDbSpline
210
0.0
220
0.0
230
1.0
 70
     8
 71
     3
 72
    20
 73
    16
 74
     0
 42
0.0000000001
 43
0.0000000001
 12
1.0
 22
0.0
 32
0.0
 13
1.0
 23
0.0
 33
0.0
 40
0.0
 40
0.0
 40
0.0
 40
0.0
 40
1.0
 40
1.0
 40
1.0
 40
2.0
 40
2.0
 40
2.0
 40
3.0
 40
3.0
 40
3.0
 40
4.0
 40
4.0
 40
4.0
 40
5.0
 40
5.0
 40
5.0
 40
5.0
 10
378.2963584138787
 20
-368.837310522112
 30
0.0
 10
378.2879270498173
 20
-364.6493568502794
 30
0.0
 10
378.2808715150422
 20
-360.4614031784475
 30
0.0
 10
378.2764265281314
 20
-356.2734495066258
 30
0.0
 10
378.2708173779827
 20
-350.9994021163284
 30
0.0
 10
378.2693709933557
 20
-345.7253194483536
 30
0.0
 10
378.2684537738328
 20
-340.4512720580556
 30
0.0
 10
378.265878503644
 20
-325.3572963354324
 30
0.0
 10
378.2677482203551
 20
-310.2633558904796
 30
0.0
 10
378.2661254473615
 20
-295.1693801678571
 30
0.0
 10
378.2640440645974
 20
-276.1898862639873
 30
0.0
 10
378.2563888093641
 20
-257.2103923601111
 30
0.0
 10
378.2553657568217
 20
-238.2308984562412
 30
0.0
 10
378.2546954810227
 20
-225.566390239703
 30
0.0
 10
378.3161491889215
 20
-111.0758422500792
 30
0.0
 10
378.3191830688808
 20
-98.41133403354416
 30
0.0
  0
SPLINE
  5
85
330
1F
100
AcDbEntity
  8
0
 62
   250
370
    25
100
AcDbSpline
210
0.0
220
0.0
230
1.0
 70
     8
 71
     3
 72
    71
 73
    67
 74
     0
 42
0.0000000001
 43
0.0000000001
 12
1.0
 22
0.0
 32
0.0
 13
1.0
 23
0.0
 33
0.0
 40
0.0
 40
0.0
 40
0.0
 40
0.0
 40
1.0
 40
1.0
 40
1.0
 40
2.0
 40
2.0
 40
2.0
 40
3.0
 40
3.0
 40
3.0
 40
4.0
 40
4.0
 40
4.0
 40
5.0
 40
5.0
 40
5.0
 40
6.0
 40
6.0
 40
6.0
 40
7.0
 40
7.0
 40
7.0
 40
8.0
 40
8.0
 40
8.0
 40
9.0
 40
9.0
 40
9.0
 40
10.0
 40
10.0
 40
10.0
 40
11.0
 40
11.0
 40
11.0
 40
12.0
 40
12.0
 40
12.0
 40
13.0
 40
13.0
 40
13.0
 40
14.0
 40
14.0
 40
14.0
 40
15.0
 40
15.0
 40
15.0
 40
16.0
 40
16.0
 40
16.0
 40
17.0
 40
17.0
 40
17.0
 40
18.0
 40
18.0
 40
18.0
 40
19.0
 40
19.0
 40
19.0
 40
20.0
 40
20.0
 40
20.0
 40
21.0
 40
21.0
 40
21.0
 40
22.0
 40
22.0
 40
22.0
 40
22.0
 10
336.1614455563754
 20
-408.8654745973098
 30
0.0
 10
338.0418161298135
 20
-408.8451899348249
 30
0.0
 10
339.9222572585993
 20
-408.8275863755592
 30
0.0
 10
341.8026631097084
 20
-408.8101592046568
 30
0.0
 10
345.2186708273758
 20
-408.7784445758331
 30
0.0
 10
348.6346785450381
 20
-408.7472238344452
 30
0.0
 10
352.0506862627068
 20
-408.715756149339
 30
0.0
 10
352.8070395908034
 20
-408.7088064475865
 30
0.0
 10
353.5634281965793
 20
-408.7018214681592
 30
0.0
 10
354.3197815246867
 20
-408.6949775994223
 30
0.0
 10
354.9257814066896
 20
-408.6895095599724
 30
0.0
 10
355.531746011017
 20
-408.6841120758664
 30
0.0
 10
356.1377458930167
 20
-408.6798081996434
 30
0.0
 10
356.5845729104475
 20
-408.6766332090002
 30
0.0
 10
357.0313646502036
 20
-408.6740579388114
 30
0.0
 10
357.4781916676415
 20
-408.6746929369413
 30
0.0
 10
358.7445896047742
 20
-408.6764568206329
 30
0.0
 10
360.010916986563
 20
-408.7038675732407
 30
0.0
 10
361.2774207567222
 20
-408.6878867869717
 30
0.0
 10
362.4655022578326
 20
-408.6728937755702
 30
0.0
 10
363.6536895919656
 20
-408.619695043349
 30
0.0
 10
364.8341158378432
 20
-408.4857104379329
 30
0.0
 10
365.7558509011182
 20
-408.3811121348614
 30
0.0
 10
366.6727882007453
 20
-408.2272309213728
 30
0.0
 10
367.5734272150389
 20
-408.0051226865968
 30
0.0
 10
368.3832262190749
 20
-407.8053804970551
 30
0.0
 10
369.1798313730797
 20
-407.5504640255584
 30
0.0
 10
369.9493785512176
 20
-407.2283083076412
 30
0.0
 10
371.3916356926684
 20
-406.6244956414217
 30
0.0
 10
372.7387842253282
 20
-405.7843931155143
 30
0.0
 10
373.8781825364823
 20
-404.7144565442389
 30
0.0
 10
374.4704946810159
 20
-404.1583040154399
 30
0.0
 10
375.0066447687231
 20
-403.5399922252507
 30
0.0
 10
375.4792244880927
 20
-402.8785005622308
 30
0.0
 10
375.9966774086408
 20
-402.1541793620116
 30
0.0
 10
376.4379305535953
 20
-401.3780705365336
 30
0.0
 10
376.8036189210943
 20
-400.5672484799553
 30
0.0
 10
377.1768919884757
 20
-399.7396695282839
 30
0.0
 10
377.4714605654155
 20
-398.8759662385425
 30
0.0
 10
377.6997423931293
 20
-397.9967760499781
 30
0.0
 10
377.9342683691224
 20
-397.0935617654849
 30
0.0
 10
378.0988387177927
 20
-396.1740139179934
 30
0.0
 10
378.2111628314415
 20
-395.2477985901284
 30
0.0
 10
378.2911725958154
 20
-394.588388309866
 30
0.0
 10
378.3446535494297
 20
-393.9255560952384
 30
0.0
 10
378.3785201163606
 20
-393.262159437821
 30
0.0
 10
378.4133391804835
 20
-392.579959780229
 30
0.0
 10
378.427344417015
 20
-391.897089846827
 30
0.0
 10
378.4290377453627
 20
-391.2141140804101
 30
0.0
 10
378.4305899630162
 20
-390.5850425996877
 30
0.0
 10
378.421664711516
 20
-389.9558652859426
 30
0.0
 10
378.4120691842237
 20
-389.3268290828886
 30
0.0
 10
378.4005333848623
 20
-388.5694527022491
 30
0.0
 10
378.3879392552863
 20
-387.8122536061697
 30
0.0
 10
378.3806720544654
 20
-387.0548772446502
 30
0.0
 10
378.3756626247717
 20
-386.5299101928282
 30
0.0
 10
378.3731931876023
 20
-386.0049078633274
 30
0.0
 10
378.3702651406657
 20
-385.4799055338337
 30
0.0
 10
378.3669137616482
 20
-384.8756342731118
 30
0.0
 10
378.3629979398486
 20
-384.2714335677414
 30
0.0
 10
378.3592937840942
 20
-383.6671975846988
 30
0.0
 10
378.3487810372713
 20
-381.9585234932306
 30
0.0
 10
378.3398910634536
 20
-380.2498494017599
 30
0.0
 10
378.3320241421743
 20
-378.541140032613
 30
0.0
 10
378.3171016861238
 20
-375.3065301957791
 30
0.0
 10
378.3057069974606
 20
-372.0719203589453
 30
0.0
 10
378.2963584138787
 20
-368.837310522112
 30
0.0
  0
SPLINE
  5
86
330
1F
100
AcDbEntity
  8
0
 62
   250
370
    25
100
AcDbSpline
210
0.0
220
0.0
230
1.0
 70
     8
 71
     3
 72
    65
 73
    61
 74
     0
 42
0.0000000001
 43
0.0000000001
 12
1.0
 22
0.0
 32
0.0
 13
1.0
 23
0.0
 33
0.0
 40
0.0
 40
0.0
 40
0.0
 40
0.0
 40
1.0
 40
1.0
 40
1.0
 40
2.0
 40
2.0
 40
2.0
 40
3.0
 40
3.0
 40
3.0
 40
4.0
 40
4.0
 40
4.0
 40
5.0
 40
5.0
 40
5.0
 40
6.0
 40
6.0
 40
6.0
 40
7.0
 40
7.0
 40
7.0
 40
8.0
 40
8.0
 40
8.0
 40
9.0
 40
9.0
 40
9.0
 40
10.0
 40
10.0
 40
10.0
 40
11.0
 40
11.0
 40
11.0
 40
12.0
 40
12.0
 40
12.0
 40
13.0
 40
13.0
 40
13.0
 40
14.0
 40
14.0
 40
14.0
 40
15.0
 40
15.0
 40
15.0
 40
16.0
 40
16.0
 40
16.0
 40
17.0
 40
17.0
 40
17.0
 40
18.0
 40
18.0
 40
18.0
 40
19.0
 40
19.0
 40
19.0
 40
20.0
 40
20.0
 40
20.0
 40
20.0
 10
336.2717588426214
 20
-414.4208262924059
 30
0.0
 10
340.0425188488719
 20
-414.3460376237677
 30
0.0
 10
343.8130671890875
 20
-414.2596778780925
 30
0.0
 10
347.5833333079095
 20
-414.1625584418879
 30
0.0
 10
349.6398100293806
 20
-414.1096066533848
 30
0.0
 10
351.6962514731819
 20
-414.05340931889
 30
0.0
 10
353.7525870839549
 20
-413.9943192151316
 30
0.0
 10
354.7807548893439
 20
-413.9647918020882
 30
0.0
 10
355.8088874170613
 20
-413.9345235578948
 30
0.0
 10
356.8369846670994
 20
-413.9028089290718
 30
0.0
 10
357.3582475764284
 20
-413.8867223097795
 30
0.0
 10
357.8795104857568
 20
-413.8702476360755
 30
0.0
 10
358.4006675620626
 20
-413.8501040842856
 30
0.0
 10
359.5888196185278
 20
-413.804101997542
 30
0.0
 10
360.7765130652258
 20
-413.7387677455043
 30
0.0
 10
361.9600790240776
 20
-413.6254558569855
 30
0.0
 10
362.8034976513238
 20
-413.5447052614622
 30
0.0
 10
363.644799618144
 20
-413.4395777932841
 30
0.0
 10
364.4808804892292
 20
-413.3016773660676
 30
0.0
 10
365.6795452925025
 20
-413.1039460039357
 30
0.0
 10
366.8674504052425
 20
-412.8387990070129
 30
0.0
 10
368.0317547541557
 20
-412.4921605834106
 30
0.0
 10
369.1791610972775
 20
-412.1505668671843
 30
0.0
 10
370.3036722300464
 20
-411.7298100507529
 30
0.0
 10
371.3857090434589
 20
-411.2176840589636
 30
0.0
 10
372.3112893731863
 20
-410.7796059046563
 30
0.0
 10
373.2057900722245
 20
-410.2747118360054
 30
0.0
 10
374.0554175700771
 20
-409.7030018530182
 30
0.0
 10
374.917639197512
 20
-409.1228605059766
 30
0.0
 10
375.733611794475
 20
-408.4739276948572
 30
0.0
 10
376.4904237323388
 20
-407.7618478474809
 30
0.0
 10
377.2413090209861
 20
-407.0553418725772
 30
0.0
 10
377.93395087005
 20
-406.2866413586145
 30
0.0
 10
378.5598826378041
 20
-405.4673879379748
 30
0.0
 10
379.2830749524506
 20
-404.5208526699564
 30
0.0
 10
379.9172969735577
 20
-403.5068664894756
 30
0.0
 10
380.4606437067426
 20
-402.4468429445648
 30
0.0
 10
381.0094232017045
 20
-401.3762713751697
 30
0.0
 10
381.4655282473701
 20
-400.2588157771759
 30
0.0
 10
381.837037431056
 20
-399.1145491470295
 30
0.0
 10
382.2061830105874
 20
-397.9776202730588
 30
0.0
 10
382.4917910583655
 20
-396.8143036990119
 30
0.0
 10
382.7085723643934
 20
-395.6387457721304
 30
0.0
 10
382.8944151504161
 20
-394.6309684622489
 30
0.0
 10
383.0296697520928
 20
-393.6141953455224
 30
0.0
 10
383.1281650175806
 20
-392.5941766828024
 30
0.0
 10
383.227859723981
 20
-391.5613169467883
 30
0.0
 10
383.2898778746761
 20
-390.5251058317566
 30
0.0
 10
383.3297063684927
 20
-389.4882244409196
 30
0.0
 10
383.3468160403234
 20
-389.0430201964816
 30
0.0
 10
383.3598335019873
 20
-388.5977101190256
 30
0.0
 10
383.3717573557618
 20
-388.1523294862249
 30
0.0
 10
383.385868425319
 20
-387.6264813801753
 30
0.0
 10
383.3984625548911
 20
-387.1005971088547
 30
0.0
 10
383.4109508514484
 20
-386.5746775598554
 30
0.0
 10
383.4675715180304
 20
-384.1920235258331
 30
0.0
 10
383.5217580251217
 20
-381.8093342141345
 30
0.0
 10
383.5715348229713
 20
-379.4265743470928
 30
0.0
 10
383.6446654409405
 20
-375.9237483624823
 30
0.0
 10
383.5516382149059
 20
-101.9228030480335
 30
0.0
 10
383.6028261197141
 20
-98.41962428669892
 30
0.0
  0
SPLINE
  5
87
330
1F
100
AcDbEntity
  8
0
 62
   250
370
    25
100
AcDbSpline
210
0.0
220
0.0
230
1.0
 70
     8
 71
     3
 72
    20
 73
    16
 74
     0
 42
0.0000000001
 43
0.0000000001
 12
1.0
 22
0.0
 32
0.0
 13
1.0
 23
0.0
 33
0.0
 40
0.0
 40
0.0
 40
0.0
 40
0.0
 40
1.0
 40
1.0
 40
1.0
 40
2.0
 40
2.0
 40
2.0
 40
3.0
 40
3.0
 40
3.0
 40
4.0
 40
4.0
 40
4.0
 40
5.0
 40
5.0
 40
5.0
 40
5.0
 10
336.2717588426214
 20
-414.4208262924059
 30
0.0
 10
321.6309244597476
 20
-414.4206499040355
 30
0.0
 10
87.08974379255488
 20
-415.8168696810666
 30
0.0
 10
72.44887413200856
 20
-415.806462767267
 30
0.0
 10
61.56313646818684
 20
-415.7987722343652
 30
0.0
 10
50.6773635266922
 20
-415.7858958833962
 30
0.0
 10
39.79162586287048
 20
-415.7637767818718
 30
0.0
 10
21.53874572855032
 20
-415.7266293912705
 30
0.0
 10
3.285900871906934
 20
-415.6634470773414
 30
0.0
 10
-14.96662648567213
 20
-415.5451610368044
 30
0.0
 10
-30.08307446786823
 20
-415.4472302140956
 30
0.0
 10
-45.19931078402005
 20
-415.3115522803349
 30
0.0
 10
-60.31487682436934
 20
-415.1206647869329
 30
0.0
 10
-74.72030328940188
 20
-414.9387731003891
 30
0.0
 10
-89.12516531165805
 20
-414.7067871169203
 30
0.0
 10
-103.5289337260206
 20
-414.4208262924059
 30
0.0
  0
SPLINE
  5
88
330
1F
100
AcDbEntity
  8
0
 62
   250
370
    25
100
AcDbSpline
210
0.0
220
0.0
230
1.0
 70
     8
 71
     3
 72
    62
 73
    58
 74
     0
 42
0.0000000001
 43
0.0000000001
 12
1.0
 22
0.0
 32
0.0
 13
1.0
 23
0.0
 33
0.0
 40
0.0
 40
0.0
 40
0.0
 40
0.0
 40
1.0
 40
1.0
 40
1.0
 40
2.0
 40
2.0
 40
2.0
 40
3.0
 40
3.0
 40
3.0
 40
4.0
 40
4.0
 40
4.0
 40
5.0
 40
5.0
 40
5.0
 40
6.0
 40
6.0
 40
6.0
 40
7.0
 40
7.0
 40
7.0
 40
8.0
 40
8.0
 40
8.0
 40
9.0
 40
9.0
 40
9.0
 40
10.0
 40
10.0
 40
10.0
 40
11.0
 40
11.0
 40
11.0
 40
12.0
 40
12.0
 40
12.0
 40
13.0
 40
13.0
 40
13.0
 40
14.0
 40
14.0
 40
14.0
 40
15.0
 40
15.0
 40
15.0
 40
16.0
 40
16.0
 40
16.0
 40
17.0
 40
17.0
 40
17.0
 40
18.0
 40
18.0
 40
18.0
 40
19.0
 40
19.0
 40
19.0
 40
19.0
 10
-150.8599657254401
 20
-98.41962428669892
 30
0.0
 10
-150.8089894866758
 20
-101.9225208266553
 30
0.0
 10
-150.9016639359709
 20
-375.923148642042
 30
0.0
 10
-150.8284627626601
 20
-379.4256218499226
 30
0.0
 10
-150.7787212424811
 20
-381.8054889477809
 30
0.0
 10
-150.7247111237615
 20
-384.1852502126197
 30
0.0
 10
-150.6691840650686
 20
-386.5649761997838
 30
0.0
 10
-150.6464299654108
 20
-387.5395571939152
 30
0.0
 10
-150.6234289220384
 20
-388.5141020319167
 30
0.0
 10
-150.584905702154
 20
-389.488189163244
 30
0.0
 10
-150.5439130450999
 20
-390.5253527754741
 30
0.0
 10
-150.4853168287781
 20
-391.5619872225937
 30
0.0
 10
-150.3862218428345
 20
-392.595129179997
 30
0.0
 10
-150.2883968531487
 20
-393.6150772873705
 30
0.0
 10
-150.1510608687148
 20
-394.6316387380543
 30
0.0
 10
-149.964759472928
 20
-395.6393102149132
 30
0.0
 10
-149.747484279467
 20
-396.8146564757495
 30
0.0
 10
-149.4634990046851
 20
-397.9779024944448
 30
0.0
 10
-149.0947414795635
 20
-399.1146197023772
 30
0.0
 10
-148.7235145172686
 20
-400.2588863325237
 30
0.0
 10
-148.2663511413891
 20
-401.3763066528419
 30
0.0
 10
-147.7173952580581
 20
-402.4469134999119
 30
0.0
 10
-147.1739426918563
 20
-403.506901767144
 30
0.0
 10
-146.5404967795699
 20
-404.5209937806583
 30
0.0
 10
-145.8174102979444
 20
-405.4674232156534
 30
0.0
 10
-145.1914785301948
 20
-406.2866413586145
 30
0.0
 10
-144.4983780713694
 20
-407.0551302065384
 30
0.0
 10
-143.7474222273724
 20
-407.761706736786
 30
0.0
 10
-142.9905044564879
 20
-408.4738924171817
 30
0.0
 10
-142.1748493585845
 20
-409.1231074496941
 30
0.0
 10
-141.3126982865011
 20
-409.7031782413886
 30
0.0
 10
-140.4631060663218
 20
-410.2747823913596
 30
0.0
 10
-139.5683231458945
 20
-410.7792178502438
 30
0.0
 10
-138.6427428161642
 20
-411.2173312822235
 30
0.0
 10
-137.5606707250794
 20
-411.7294925516915
 30
0.0
 10
-136.4364770913761
 20
-412.1510607546199
 30
0.0
 10
-135.2890354705787
 20
-412.4925839155055
 30
0.0
 10
-134.1247311216678
 20
-412.839151783757
 30
0.0
 10
-132.9364732321903
 20
-413.103311005809
 30
0.0
 10
-131.7378789842592
 20
-413.3012540339797
 30
0.0
 10
-130.9018333908502
 20
-413.4392955718943
 30
0.0
 10
-130.0607783677517
 20
-413.5451285935469
 30
0.0
 10
-129.217395018174
 20
-413.6259497444211
 30
0.0
 10
-128.0338996146693
 20
-413.7393321882871
 30
0.0
 10
-126.8457828358827
 20
-413.8034669994115
 30
0.0
 10
-125.6576660570994
 20
-413.8496101968506
 30
0.0
 10
-125.1365089807901
 20
-413.8698948593354
 30
0.0
 10
-124.6153871821579
 20
-413.8866870321079
 30
0.0
 10
-124.0941595505012
 20
-413.9029500397629
 30
0.0
 10
-123.0662034111567
 20
-413.9350527229989
 30
0.0
 10
-122.0379650504209
 20
-413.9650387458057
 30
0.0
 10
-121.0097266896853
 20
-413.9944250481542
 30
0.0
 10
-118.9533205235614
 20
-414.0531623751725
 30
0.0
 10
-116.8969143574368
 20
-414.1094302650144
 30
0.0
 10
-114.8404376359625
 20
-414.1624526088653
 30
0.0
 10
-111.0702067948141
 20
-414.2596778780925
 30
0.0
 10
-107.2996937322782
 20
-414.3460376237677
 30
0.0
 10
-103.5289337260206
 20
-414.4208262924059
 30
0.0
  0
SPLINE
  5
89
330
1F
100
AcDbEntity
  8
0
 62
   250
370
    25
100
AcDbSpline
210
0.0
220
0.0
230
1.0
 70
     8
 71
     3
 72
    71
 73
    67
 74
     0
 42
0.0000000001
 43
0.0000000001
 12
1.0
 22
0.0
 32
0.0
 13
1.0
 23
0.0
 33
0.0
 40
0.0
 40
0.0
 40
0.0
 40
0.0
 40
1.0
 40
1.0
 40
1.0
 40
2.0
 40
2.0
 40
2.0
 40
3.0
 40
3.0
 40
3.0
 40
4.0
 40
4.0
 40
4.0
 40
5.0
 40
5.0
 40
5.0
 40
6.0
 40
6.0
 40
6.0
 40
7.0
 40
7.0
 40
7.0
 40
8.0
 40
8.0
 40
8.0
 40
9.0
 40
9.0
 40
9.0
 40
10.0
 40
10.0
 40
10.0
 40
11.0
 40
11.0
 40
11.0
 40
12.0
 40
12.0
 40
12.0
 40
13.0
 40
13.0
 40
13.0
 40
14.0
 40
14.0
 40
14.0
 40
15.0
 40
15.0
 40
15.0
 40
16.0
 40
16.0
 40
16.0
 40
17.0
 40
17.0
 40
17.0
 40
18.0
 40
18.0
 40
18.0
 40
19.0
 40
19.0
 40
19.0
 40
20.0
 40
20.0
 40
20.0
 40
21.0
 40
21.0
 40
21.0
 40
22.0
 40
22.0
 40
22.0
 40
22.0
 10
-145.5534980196063
 20
-368.837310522112
 30
0.0
 10
-145.5677149221833
 20
-373.780629728089
 30
0.0
 10
-145.5869412544503
 20
-378.7239489340658
 30
0.0
 10
-145.6161864461007
 20
-383.6671975846988
 30
0.0
 10
-145.6192556037297
 20
-384.1840507717353
 30
0.0
 10
-145.6223953167058
 20
-384.7009039587761
 30
0.0
 10
-145.6256055850287
 20
-385.2177571458132
 30
0.0
 10
-145.6294155738073
 20
-385.830106993644
 30
0.0
 10
-145.6332608402627
 20
-386.4424568414755
 30
0.0
 10
-145.6389758234324
 20
-387.0548066893102
 30
0.0
 10
-145.6452552493807
 20
-387.731503012682
 30
0.0
 10
-145.6537924464616
 20
-388.4081278995659
 30
0.0
 10
-145.6643404709509
 20
-389.0847889623641
 30
0.0
 10
-145.675417660555
 20
-389.7945052055871
 30
0.0
 10
-145.688752621282
 20
-390.5042214488134
 30
0.0
 10
-145.6870592929352
 20
-391.2140082473869
 30
0.0
 10
-145.6854365199387
 20
-391.8970192914799
 30
0.0
 10
-145.6699143434264
 20
-392.5801361685994
 30
0.0
 10
-145.6349894462831
 20
-393.262300548516
 30
0.0
 10
-145.6010170463302
 20
-393.9256619282579
 30
0.0
 10
-145.5487355336305
 20
-394.5881413661485
 30
0.0
 10
-145.4687257692598
 20
-395.2475163687424
 30
0.0
 10
-145.4164442565635
 20
-395.6786095436192
 30
0.0
 10
-145.3523094454397
 20
-396.1083621668949
 30
0.0
 10
-145.2755452270655
 20
-396.535786463689
 30
0.0
 10
-145.1873510423519
 20
-397.0267105734768
 30
0.0
 10
-145.082470517888
 20
-397.514530247966
 30
0.0
 10
-144.9571994979225
 20
-397.9972699374061
 30
0.0
 10
-144.7291646139278
 20
-398.8763190152827
 30
0.0
 10
-144.4335729844431
 20
-399.7385406427182
 30
0.0
 10
-144.0602999170601
 20
-400.5663665381111
 30
0.0
 10
-143.6945409942171
 20
-401.3775060937509
 30
0.0
 10
-143.2541697911085
 20
-402.1556257466425
 30
0.0
 10
-142.7368227035807
 20
-402.8797705584875
 30
0.0
 10
-142.264278261886
 20
-403.5411563884912
 30
0.0
 10
-141.7275284537211
 20
-404.1575279066182
 30
0.0
 10
-141.1350399208159
 20
-404.7132218256577
 30
0.0
 10
-139.9952535552532
 20
-405.7822058997309
 30
0.0
 10
-138.64919863048
 20
-406.626612301851
 30
0.0
 10
-137.206800378334
 20
-407.2296488592456
 30
0.0
 10
-136.4372179225219
 20
-407.5514165227536
 30
0.0
 10
-135.6401894364333
 20
-407.8044632775392
 30
0.0
 10
-134.8303551547231
 20
-408.0039232456841
 30
0.0
 10
-133.9296808627557
 20
-408.2257139813954
 30
0.0
 10
-133.0130963398677
 20
-408.3812179678878
 30
0.0
 10
-132.0914671096128
 20
-408.4862748807157
 30
0.0
 10
-130.9111114190839
 20
-408.6208239289146
 30
0.0
 10
-129.7225007528655
 20
-408.6726468318527
 30
0.0
 10
-128.5344192517526
 20
-408.6874281772083
 30
0.0
 10
-127.267915481595
 20
-408.7031972974353
 30
0.0
 10
-126.0020467095667
 20
-408.6768801527144
 30
0.0
 10
-124.7354723840624
 20
-408.6750809913505
 30
0.0
 10
-124.2886453666309
 20
-408.6744459932237
 30
0.0
 10
-123.841712516179
 20
-408.6768448750454
 30
0.0
 10
-123.3948502210713
 20
-408.6799140326737
 30
0.0
 10
-122.788779783721
 20
-408.6841120758664
 30
0.0
 10
-122.182885734742
 20
-408.6894742822969
 30
0.0
 10
-121.5769211304127
 20
-408.6949775994223
 30
0.0
 10
-120.8206030799807
 20
-408.7018214681592
 30
0.0
 10
-120.064214474208
 20
-408.7088064475865
 30
0.0
 10
-119.307861146106
 20
-408.7157914270145
 30
0.0
 10
-115.8918181507673
 20
-408.7472943897923
 30
0.0
 10
-112.4758104331024
 20
-408.7784445758331
 30
0.0
 10
-109.0598027154376
 20
-408.8101239269845
 30
0.0
 10
-107.1793968643288
 20
-408.8275863755592
 30
0.0
 10
334.2810397052669
 20
-408.8451899348249
 30
0.0
 10
336.1614455563754
 20
-408.8654745973098
 30
0.0
  0
SPLINE
  5
8A
330
1F
100
AcDbEntity
  8
0
 62
   250
370
    25
100
AcDbSpline
210
0.0
220
0.0
230
1.0
 70
     8
 71
     3
 72
    17
 73
    13
 74
     0
 42
0.0000000001
 43
0.0000000001
 12
1.0
 22
0.0
 32
0.0
 13
1.0
 23
0.0
 33
0.0
 40
0.0
 40
0.0
 40
0.0
 40
0.0
 40
1.0
 40
1.0
 40
1.0
 40
2.0
 40
2.0
 40
2.0
 40
3.0
 40
3.0
 40
3.0
 40
4.0
 40
4.0
 40
4.0
 40
4.0
 10
-145.5763579522848
 20
-98.41133403354416
 30
0.0
 10
-145.5734651830262
 20
-111.0758422500792
 30
0.0
 10
-145.5117998090758
 20
-225.566390239703
 30
0.0
 10
-145.5124700848786
 20
-238.2308984562412
 30
0.0
 10
-145.5134578597458
 20
-257.2103923601111
 30
0.0
 10
-145.5213953363709
 20
-276.1898862639873
 30
0.0
 10
-145.5233356084352
 20
-295.1693801678571
 30
0.0
 10
-145.5248525484113
 20
-310.2633558904796
 30
0.0
 10
-145.5226300549559
 20
-325.3572963354324
 30
0.0
 10
-145.5256992125849
 20
-340.4512720580556
 30
0.0
 10
-145.5276394846492
 20
-349.9132731201862
 30
0.0
 10
-145.5316964171492
 20
-359.3753094599827
 30
0.0
 10
-145.5534980196063
 20
-368.837310522112
 30
0.0
  0
SPLINE
  5
8B
330
1F
100
AcDbEntity
  8
0
 62
   250
370
    25
100
AcDbSpline
210
0.0
220
0.0
230
1.0
 70
     8
 71
     3
 72
     8
 73
     4
 74
     0
 42
0.0000000001
 43
0.0000000001
 12
1.0
 22
0.0
 32
0.0
 13
1.0
 23
0.0
 33
0.0
 40
0.0
 40
0.0
 40
0.0
 40
0.0
 40
1.0
 40
1.0
 40
1.0
 40
1.0
 10
322.3708031141447
 20
-122.5755522596957
 30
0.0
 10
321.3284536838551
 20
-122.4570898337813
 30
0.0
 10
320.2852575893897
 20
-122.348222934921
 30
0.0
 10
319.2408973316897
 20
-122.2489162854419
 30
0.0
  0
SPLINE
  5
8C
330
1F
100
AcDbEntity
  8
0
 62
   250
370
    25
100
AcDbSpline
210
0.0
220
0.0
230
1.0
 70
     8
 71
     3
 72
    29
 73
    25
 74
     0
 42
0.0000000001
 43
0.0000000001
 12
1.0
 22
0.0
 32
0.0
 13
1.0
 23
0.0
 33
0.0
 40
0.0
 40
0.0
 40
0.0
 40
0.0
 40
1.0
 40
1.0
 40
1.0
 40
2.0
 40
2.0
 40
2.0
 40
3.0
 40
3.0
 40
3.0
 40
4.0
 40
4.0
 40
4.0
 40
5.0
 40
5.0
 40
5.0
 40
6.0
 40
6.0
 40
6.0
 40
7.0
 40
7.0
 40
7.0
 40
8.0
 40
8.0
 40
8.0
 40
8.0
 10
319.107935778814
 20
-122.2362163231654
 30
0.0
 10
315.9398242755418
 20
-121.9349097181149
 30
0.0
 10
312.7674794514008
 20
-121.6799226977214
 30
0.0
 10
309.5930532445009
 20
-121.4548864216918
 30
0.0
 10
305.9019855035538
 20
-121.1932671987657
 30
0.0
 10
302.2081661040418
 20
-120.9721820221117
 30
0.0
 10
298.5130414305944
 20
-120.7757559388813
 30
0.0
 10
294.154237878343
 20
-120.5440521826545
 30
0.0
 10
289.7936351647277
 20
-120.3466736022526
 30
0.0
 10
285.4322916199527
 20
-120.1682744099221
 30
0.0
 10
279.4536431159099
 20
-119.923694303051
 30
0.0
 10
273.4735835049091
 20
-119.7147799235819
 30
0.0
 10
267.4929241734559
 20
-119.5261502060798
 30
0.0
 10
262.1692762404363
 20
-119.3582284826285
 30
0.0
 10
256.8451696976648
 20
-119.2063228227136
 30
0.0
 10
251.5204634344344
 20
-119.0777357046511
 30
0.0
 10
246.0610670123037
 20
-118.9459030406733
 30
0.0
 10
240.6011061473979
 20
-118.8385178040809
 30
0.0
 10
235.1407925057501
 20
-118.7543452763139
 30
0.0
 10
229.2807475413109
 20
-118.6640344334461
 30
0.0
 10
223.4203145224528
 20
-118.6004640667159
 30
0.0
 10
217.5597756705772
 20
-118.5521336547106
 30
0.0
 10
210.9044661037395
 20
-118.4972063178599
 30
0.0
 10
204.2489801485306
 20
-118.4619286448674
 30
0.0
 10
197.5934589156515
 20
-118.4392098234572
 30
0.0
  0
SPLINE
  5
8D
330
1F
100
AcDbEntity
  8
0
 62
   250
370
    25
100
AcDbSpline
210
0.0
220
0.0
230
1.0
 70
     8
 71
     3
 72
    11
 73
     7
 74
     0
 42
0.0000000001
 43
0.0000000001
 12
1.0
 22
0.0
 32
0.0
 13
1.0
 23
0.0
 33
0.0
 40
0.0
 40
0.0
 40
0.0
 40
0.0
 40
1.0
 40
1.0
 40
1.0
 40
2.0
 40
2.0
 40
2.0
 40
2.0
 10
197.5821700600057
 20
-118.4391745457869
 30
0.0
 10
185.2407344609782
 20
-118.3903855240336
 30
0.0
 10
172.8993341396275
 20
-118.4366345533313
 30
0.0
 10
160.5579338182762
 20
-118.3996282743599
 30
0.0
 10
148.2165687745965
 20
-118.3626572730613
 30
0.0
 10
135.8754153969633
 20
-118.2731225390017
 30
0.0
 10
123.5339445202648
 20
-118.2534023197995
 30
0.0
  0
POLYLINE
  5
8E
330
1F
100
AcDbEntity
  8
0
 62
   250
370
    25
100
AcDb2dPolyline
 66
     1
 10
0.0
 20
0.0
 30
0.0
  0
VERTEX
  5
8F
330
8E
100
AcDbEntity
  8
0
 62
   250
370
    25
100
AcDbVertex
100
AcDb2dVertex
 10
33.5619237926071
 20
-118.3624456081596
 30
0.0
  0
VERTEX
  5
90
330
8E
100
AcDbEntity
  8
0
 62
   250
370
    25
100
AcDbVertex
100
AcDb2dVertex
 10
33.57321264825257
 20
-118.3624103304934
 30
0.0
  0
SEQEND
  5
91
330
8E
100
AcDbEntity
  8
0
 62
   250
370
    25
  0
SPLINE
  5
92
330
1F
100
AcDbEntity
  8
0
 62
   250
370
    25
100
AcDbSpline
210
0.0
220
0.0
230
1.0
 70
     8
 71
     3
 72
     8
 73
     4
 74
     0
 42
0.0000000001
 43
0.0000000001
 12
1.0
 22
0.0
 32
0.0
 13
1.0
 23
0.0
 33
0.0
 40
0.0
 40
0.0
 40
0.0
 40
0.0
 40
1.0
 40
1.0
 40
1.0
 40
1.0
 10
-88.08551462359829
 20
-122.1721520646777
 30
0.0
 10
-88.04120586519414
 20
-122.1678834662553
 30
0.0
 10
-87.99689710679641
 20
-122.1636501454944
 30
0.0
 10
-87.95255307072513
 20
-122.1594521024134
 30
0.0
  0
SPLINE
  5
93
330
1F
100
AcDbEntity
  8
0
 62
   250
370
    25
100
AcDbSpline
210
0.0
220
0.0
230
1.0
 70
     8
 71
     3
 72
     8
 73
     4
 74
     0
 42
0.0000000001
 43
0.0000000001
 12
1.0
 22
0.0
 32
0.0
 13
1.0
 23
0.0
 33
0.0
 40
0.0
 40
0.0
 40
0.0
 40
0.0
 40
1.0
 40
1.0
 40
1.0
 40
1.0
 10
-91.21542040607221
 20
-122.4987880387961
 30
0.0
 10
-90.17307097577687
 20
-122.3803256129265
 30
0.0
 10
-89.12987488130507
 20
-122.2714587141176
 30
0.0
 10
-88.08551462359829
 20
-122.1721520646777
 30
0.0
  0
SPLINE
  5
94
330
1F
100
AcDbEntity
  8
0
 62
   250
370
    25
100
AcDbSpline
210
0.0
220
0.0
230
1.0
 70
     8
 71
     3
 72
    29
 73
    25
 74
     0
 42
0.0000000001
 43
0.0000000001
 12
1.0
 22
0.0
 32
0.0
 13
1.0
 23
0.0
 33
0.0
 40
0.0
 40
0.0
 40
0.0
 40
0.0
 40
1.0
 40
1.0
 40
1.0
 40
2.0
 40
2.0
 40
2.0
 40
3.0
 40
3.0
 40
3.0
 40
4.0
 40
4.0
 40
4.0
 40
5.0
 40
5.0
 40
5.0
 40
6.0
 40
6.0
 40
6.0
 40
7.0
 40
7.0
 40
7.0
 40
8.0
 40
8.0
 40
8.0
 40
8.0
 10
-87.95255307072513
 20
-122.1594521024134
 30
0.0
 10
-84.78444156743784
 20
-121.8581454975105
 30
0.0
 10
-81.61209674328369
 20
-121.6031584772556
 30
0.0
 10
-78.43767053637771
 20
-121.3781222013665
 30
0.0
 10
-74.74660279541716
 20
-121.1165029786072
 30
0.0
 10
-71.05278339589198
 20
-120.8954178021201
 30
0.0
 10
-67.3576587224385
 20
-120.6989917190533
 30
0.0
 10
-62.99885517017427
 20
-120.4672879630229
 30
0.0
 10
-58.6382524565525
 20
-120.2699093828128
 30
0.0
 10
-54.27690891177112
 20
-120.091510190678
 30
0.0
 10
-48.29826040771614
 20
-119.8469300840797
 30
0.0
 10
-42.31820079670865
 20
-119.6380157048798
 30
0.0
 10
-36.33754146524223
 20
-119.4493859876453
 30
0.0
 10
-31.01389353221651
 20
-119.2814642644337
 30
0.0
 10
-25.68978698943862
 20
-119.1295586047593
 30
0.0
 10
-20.36508072620147
 20
-119.0009714869349
 30
0.0
 10
-14.90568430406503
 20
-118.8691388232004
 30
0.0
 10
-9.445723439152518
 20
-118.7617535868544
 30
0.0
 10
-3.98540979750501
 20
-118.6775810593318
 30
0.0
 10
1.874635166941295
 20
-118.5872702167313
 30
0.0
 10
7.735068185799373
 20
-118.5236998502594
 30
0.0
 10
13.59560703768103
 20
-118.4753694385185
 30
0.0
 10
20.25091660451913
 20
-118.4204421019694
 30
0.0
 10
26.90640255973115
 20
-118.3851644292714
 30
0.0
 10
33.5619237926071
 20
-118.3624456081596
 30
0.0
  0
SPLINE
  5
95
330
1F
100
AcDbEntity
  8
0
 62
   250
370
    25
100
AcDbSpline
210
0.0
220
0.0
230
1.0
 70
     8
 71
     3
 72
    11
 73
     7
 74
     0
 42
0.0000000001
 43
0.0000000001
 12
1.0
 22
0.0
 32
0.0
 13
1.0
 23
0.0
 33
0.0
 40
0.0
 40
0.0
 40
0.0
 40
0.0
 40
1.0
 40
1.0
 40
1.0
 40
2.0
 40
2.0
 40
2.0
 40
2.0
 10
33.57321264825257
 20
-118.3624103304934
 30
0.0
 10
45.91464824728646
 20
-118.3136213092911
 30
0.0
 10
58.25604856863107
 20
-118.3598703391406
 30
0.0
 10
70.5974488899882
 20
-118.3228640607275
 30
0.0
 10
82.93881393366854
 20
-118.2858930599814
 30
0.0
 10
95.27996731130173
 20
-118.1963583264763
 30
0.0
 10
107.6214381880063
 20
-118.1766381078291
 30
0.0
  0
SPLINE
  5
96
330
1F
100
AcDbEntity
  8
0
 62
   250
370
    25
100
AcDbSpline
210
0.0
220
0.0
230
1.0
 70
     8
 71
     3
 72
    11
 73
     7
 74
     0
 42
0.0000000001
 43
0.0000000001
 12
1.0
 22
0.0
 32
0.0
 13
1.0
 23
0.0
 33
0.0
 40
0.0
 40
0.0
 40
0.0
 40
0.0
 40
1.0
 40
1.0
 40
1.0
 40
2.0
 40
2.0
 40
2.0
 40
2.0
 10
98.54573276211192
 20
-50.23777418004253
 30
0.0
 10
98.54573276211192
 20
-40.57280286525126
 30
0.0
 10
106.3807417775179
 20
-32.73779365191702
 30
0.0
 10
116.0457128481491
 20
-32.73779365191702
 30
0.0
 10
125.7106839187816
 20
-32.73779365191702
 30
0.0
 10
133.5456929341876
 20
-40.57280286525126
 30
0.0
 10
133.5456929341876
 20
-50.23777418004253
 30
0.0
  0
SPLINE
  5
97
330
1F
100
AcDbEntity
  8
0
 62
   250
370
    25
100
AcDbSpline
210
0.0
220
0.0
230
1.0
 70
     8
 71
     3
 72
    11
 73
     7
 74
     0
 42
0.0000000001
 43
0.0000000001
 12
1.0
 22
0.0
 32
0.0
 13
1.0
 23
0.0
 33
0.0
 40
0.0
 40
0.0
 40
0.0
 40
0.0
 40
1.0
 40
1.0
 40
1.0
 40
2.0
 40
2.0
 40
2.0
 40
2.0
 10
133.5456929341876
 20
-50.23777418004253
 30
0.0
 10
133.5456929341876
 20
-59.90274549482738
 30
0.0
 10
125.7106839187816
 20
-67.73775470816226
 30
0.0
 10
116.0457128481491
 20
-67.73775470816226
 30
0.0
 10
106.3807417775179
 20
-67.73775470816226
 30
0.0
 10
98.54573276211192
 20
-59.90274549482738
 30
0.0
 10
98.54573276211192
 20
-50.23777418004253
 30
0.0
  0
INSERT
  5
99
330
1F
100
AcDbEntity
  8
0
100
AcDbBlockReference
  2
block 2
 10
0.0
 20
0.0
 30
0.0
  0
INSERT
  5
B3
330
1F
100
AcDbEntity
  8
0
100
AcDbBlockReference
  2
block 4
 10
0.0
 20
0.0
 30
0.0
  0
SPLINE
  5
CC
330
1F
100
AcDbEntity
  8
0
 62
   250
370
    25
100
AcDbSpline
210
0.0
220
0.0
230
1.0
 70
    11
 71
     3
 72
    17
 73
    13
 74
     0
 42
0.0000000001
 43
0.0000000001
 12
1.0
 22
0.0
 32
0.0
 13
1.0
 23
0.0
 33
0.0
 40
0.0
 40
0.0
 40
0.0
 40
0.0
 40
1.0
 40
1.0
 40
1.0
 40
2.0
 40
2.0
 40
2.0
 40
3.0
 40
3.0
 40
3.0
 40
4.0
 40
4.0
 40
4.0
 40
4.0
 10
141.4530884740708
 20
-200.172849714197
 30
0.0
 10
141.4530884740708
 20
-185.931716331226
 30
0.0
 10
129.9098897945856
 20
-174.4070350008637
 30
0.0
 10
115.6842593085535
 20
-174.4070350008637
 30
0.0
 10
101.4500161020002
 20
-174.4070350008637
 30
0.0
 10
89.89949661007186
 20
-185.931716331226
 30
0.0
 10
89.89949661007186
 20
-200.172849714197
 30
0.0
 10
89.89949661007186
 20
-214.4174281853778
 30
0.0
 10
101.4500161020002
 20
-225.9489996921575
 30
0.0
 10
115.6842593085535
 20
-225.9489996921575
 30
0.0
 10
129.9098897945856
 20
-225.9489996921575
 30
0.0
 10
141.4530884740708
 20
-214.4174281853778
 30
0.0
 10
141.4530884740708
 20
-200.172849714197
 30
0.0
  0
SPLINE
  5
CD
330
1F
100
AcDbEntity
  8
0
 62
   250
370
    25
100
AcDbSpline
210
0.0
220
0.0
230
1.0
 70
    11
 71
     3
 72
    17
 73
    13
 74
     0
 42
0.0000000001
 43
0.0000000001
 12
1.0
 22
0.0
 32
0.0
 13
1.0
 23
0.0
 33
0.0
 40
0.0
 40
0.0
 40
0.0
 40
0.0
 40
1.0
 40
1.0
 40
1.0
 40
2.0
 40
2.0
 40
2.0
 40
3.0
 40
3.0
 40
3.0
 40
4.0
 40
4.0
 40
4.0
 40
4.0
 10
152.6345528916347
 20
-200.172849714197
 30
0.0
 10
152.6345528916347
 20
-179.7546731729149
 30
0.0
 10
136.0921005852099
 20
-163.2285850354818
 30
0.0
 10
115.6902882129188
 20
-163.2285850354818
 30
0.0
 10
95.28847584062845
 20
-163.2285850354818
 30
0.0
 10
78.73224318136847
 20
-179.7546731729149
 30
0.0
 10
78.73224318136847
 20
-200.172849714197
 30
0.0
 10
78.73224318136847
 20
-220.5918875275319
 30
0.0
 10
95.28847584062845
 20
-237.121420753174
 30
0.0
 10
115.6902882129188
 20
-237.121420753174
 30
0.0
 10
136.0921005852099
 20
-237.121420753174
 30
0.0
 10
152.6345528916347
 20
-220.5918875275319
 30
0.0
 10
152.6345528916347
 20
-200.172849714197
 30
0.0
  0
INSERT
  5
CF
330
1F
100
AcDbEntity
  8
0
100
AcDbBlockReference
  2
block 6
 10
0.0
 20
0.0
 30
0.0
  0
INSERT
  5
E9
330
1F
100
AcDbEntity
  8
0
100
AcDbBlockReference
  2
block 8
 10
0.0
 20
0.0
 30
0.0
  0
SPLINE
  5
102
330
1F
100
AcDbEntity
  8
0
  6
AI-Linetype-9
 62
     6
370
    25
100
AcDbSpline
210
0.0
220
0.0
230
1.0
 70
    11
 71
     3
 72
    17
 73
    13
 74
     0
 42
0.0000000001
 43
0.0000000001
 12
1.0
 22
0.0
 32
0.0
 13
1.0
 23
0.0
 33
0.0
 40
0.0
 40
0.0
 40
0.0
 40
0.0
 40
1.0
 40
1.0
 40
1.0
 40
2.0
 40
2.0
 40
2.0
 40
3.0
 40
3.0
 40
3.0
 40
4.0
 40
4.0
 40
4.0
 40
4.0
 10
217.2951247833465
 20
-65.13505663710175
 30
0.0
 10
225.5218231342262
 20
-65.13505663710175
 30
0.0
 10
232.1937586857664
 20
-58.46582397627711
 30
0.0
 10
232.1937586857664
 20
-50.2391256253968
 30
0.0
 10
232.1937586857664
 20
-42.00972438380538
 30
0.0
 10
225.5218231342262
 20
-35.3404917229833
 30
0.0
 10
217.2951247833465
 20
-35.3404917229833
 30
0.0
 10
209.068426432479
 20
-35.3404917229833
 30
0.0
 10
202.3964908809394
 20
-42.00972438380538
 30
0.0
 10
202.3964908809394
 20
-50.2391256253968
 30
0.0
 10
202.3964908809394
 20
-58.46582397627711
 30
0.0
 10
209.068426432479
 20
-65.13505663710175
 30
0.0
 10
217.2951247833465
 20
-65.13505663710175
 30
0.0
  0
SPLINE
  5
104
330
1F
100
AcDbEntity
  8
0
  6
AI-Linetype-10
 62
     6
370
    25
100
AcDbSpline
210
0.0
220
0.0
230
1.0
 70
    11
 71
     3
 72
    17
 73
    13
 74
     0
 42
0.0000000001
 43
0.0000000001
 12
1.0
 22
0.0
 32
0.0
 13
1.0
 23
0.0
 33
0.0
 40
0.0
 40
0.0
 40
0.0
 40
0.0
 40
1.0
 40
1.0
 40
1.0
 40
2.0
 40
2.0
 40
2.0
 40
3.0
 40
3.0
 40
3.0
 40
4.0
 40
4.0
 40
4.0
 40
4.0
 10
16.61859334920583
 20
-65.13505663710175
 30
0.0
 10
24.84529170008294
 20
-65.13505663710175
 30
0.0
 10
31.51722725162253
 20
-58.46582397627711
 30
0.0
 10
31.51722725162253
 20
-50.2391256253968
 30
0.0
 10
31.51722725162253
 20
-42.00972438380538
 30
0.0
 10
24.84529170008294
 20
-35.3404917229833
 30
0.0
 10
16.61859334920583
 20
-35.3404917229833
 30
0.0
 10
8.391894998335463
 20
-35.3404917229833
 30
0.0
 10
1.719959446795872
 20
-42.00972438380538
 30
0.0
 10
1.719959446795872
 20
-50.2391256253968
 30
0.0
 10
1.719959446795872
 20
-58.46582397627711
 30
0.0
 10
8.391894998335463
 20
-65.13505663710175
 30
0.0
 10
16.61859334920583
 20
-65.13505663710175
 30
0.0
  0
ENDSEC
  0
SECTION
  2
OBJECTS
  0
DICTIONARY
  5
C
330
0
100
AcDbDictionary
281
     1
  3
ACAD_GROUP
350
D
  3
ACAD_LAYOUT
350
1A
  3
ACAD_MATERIAL
350
3B
  3
ACAD_MLEADERSTYLE
350
12A
  3
ACAD_MLINESTYLE
350
17
  3
ACAD_PLOTSETTINGS
350
19
  3
ACAD_PLOTSTYLENAME
350
E
  3
ACAD_TABLESTYLE
350
129
  3
ACAD_VISUALSTYLE
350
2A
  0
SUN
  5
3F
330
29
100
AcDbSun
 90
        1
290
     0
 63
     7
421
 16777215
 40
1.0
291
     1
 91
  2455826
 92
 54000000
292
     0
 70
     2
 71
   256
280
     1
  0
DICTIONARY
  5
D
102
{ACAD_REACTORS
330
C
102
}
330
C
100
AcDbDictionary
281
     1
  0
DICTIONARY
  5
1A
102
{ACAD_REACTORS
330
C
102
}
330
C
100
AcDbDictionary
281
     1
  3
Layout1
350
1E
  3
Layout2
350
26
  3
Model
350
22
  0
DICTIONARY
  5
3B
102
{ACAD_REACTORS
330
C
102
}
330
C
100
AcDbDictionary
281
     1
  3
ByBlock
350
3D
  3
ByLayer
350
3C
  3
Global
350
3E
  0
DICTIONARY
  5
12A
102
{ACAD_REACTORS
330
C
102
}
330
C
100
AcDbDictionary
281
     1
  0
DICTIONARY
  5
17
102
{ACAD_REACTORS
330
C
102
}
330
C
100
AcDbDictionary
281
     1
  3
Standard
350
18
  0
DICTIONARY
  5
19
102
{ACAD_REACTORS
330
C
102
}
330
C
100
AcDbDictionary
281
     1
  0
ACDBDICTIONARYWDFLT
  5
E
102
{ACAD_REACTORS
330
C
102
}
330
C
100
AcDbDictionary
281
     1
  3
Normal
350
F
100
AcDbDictionaryWithDefault
340
F
  0
DICTIONARY
  5
129
102
{ACAD_REACTORS
330
C
102
}
330
C
100
AcDbDictionary
281
     1
  0
DICTIONARY
  5
2A
102
{ACAD_REACTORS
330
C
102
}
330
C
100
AcDbDictionary
281
     1
  3
2dWireframe
350
2F
  3
3D Hidden
350
31
  3
3dWireframe
350
30
  3
Basic
350
32
  3
Brighten
350
36
  3
ColorChange
350
3A
  3
Conceptual
350
34
  3
Dim
350
35
  3
Facepattern
350
39
  3
Flat
350
2B
  3
FlatWithEdges
350
2C
  3
Gouraud
350
2D
  3
GouraudWithEdges
350
2E
  3
Linepattern
350
38
  3
Realistic
350
33
  3
Thicken
350
37
  0
LAYOUT
  5
1E
102
{ACAD_REACTORS
330
1A
102
}
330
1A
100
AcDbPlotSettings
  1

  2
none_device
  4

  6

 40
0.0
 41
0.0
 42
0.0
 43
0.0
 44
0.0
 45
0.0
 46
0.0
 47
0.0
 48
0.0
 49
0.0
140
0.0
141
0.0
142
1.0
143
1.0
 70
   688
 72
     0
 73
     0
 74
     5
  7

 75
    16
 76
     0
 77
     2
 78
   300
147
1.0
148
0.0
149
0.0
100
AcDbLayout
  1
Layout1
 70
     1
 71
     1
 10
0.0
 20
0.0
 11
12.0
 21
9.0
 12
0.0
 22
0.0
 32
0.0
 14
1.000000000000000E+20
 24
1.000000000000000E+20
 34
1.000000000000000E+20
 15
-1.000000000000000E+20
 25
-1.000000000000000E+20
 35
-1.000000000000000E+20
146
0.0
 13
0.0
 23
0.0
 33
0.0
 16
1.0
 26
0.0
 36
0.0
 17
0.0
 27
1.0
 37
0.0
 76
     0
330
1B
  0
LAYOUT
  5
26
102
{ACAD_REACTORS
330
1A
102
}
330
1A
100
AcDbPlotSettings
  1

  2
none_device
  4

  6

 40
0.0
 41
0.0
 42
0.0
 43
0.0
 44
0.0
 45
0.0
 46
0.0
 47
0.0
 48
0.0
 49
0.0
140
0.0
141
0.0
142
1.0
143
1.0
 70
   688
 72
     0
 73
     0
 74
     5
  7

 75
    16
 76
     0
 77
     2
 78
   300
147
1.0
148
0.0
149
0.0
100
AcDbLayout
  1
Layout2
 70
     1
 71
     2
 10
0.0
 20
0.0
 11
0.0
 21
0.0
 12
0.0
 22
0.0
 32
0.0
 14
0.0
 24
0.0
 34
0.0
 15
0.0
 25
0.0
 35
0.0
146
0.0
 13
0.0
 23
0.0
 33
0.0
 16
1.0
 26
0.0
 36
0.0
 17
0.0
 27
1.0
 37
0.0
 76
     0
330
23
  0
LAYOUT
  5
22
102
{ACAD_REACTORS
330
1A
102
}
330
1A
100
AcDbPlotSettings
  1

  2
none_device
  4

  6

 40
0.0
 41
0.0
 42
0.0
 43
0.0
 44
0.0
 45
0.0
 46
0.0
 47
0.0
 48
0.0
 49
0.0
140
0.0
141
0.0
142
1.0
143
1.0
 70
  1712
 72
     0
 73
     0
 74
     0
  7

 75
     0
 76
     0
 77
     2
 78
   300
147
1.0
148
0.0
149
0.0
100
AcDbLayout
  1
Model
 70
     1
 71
     0
 10
0.0
 20
0.0
 11
12.0
 21
9.0
 12
0.0
 22
0.0
 32
0.0
 14
1.000000000000000E+20
 24
1.000000000000000E+20
 34
1.000000000000000E+20
 15
-1.000000000000000E+20
 25
-1.000000000000000E+20
 35
-1.000000000000000E+20
146
0.0
 13
0.0
 23
0.0
 33
0.0
 16
1.0
 26
0.0
 36
0.0
 17
0.0
 27
1.0
 37
0.0
 76
     0
330
1F
331
29
  0
MATERIAL
  5
3D
102
{ACAD_REACTORS
330
3B
102
}
330
3B
100
AcDbMaterial
  1
ByBlock
 72
     1
 94
      127
  0
MATERIAL
  5
3C
102
{ACAD_REACTORS
330
3B
102
}
330
3B
100
AcDbMaterial
  1
ByLayer
 72
     1
 94
      127
  0
MATERIAL
  5
3E
102
{ACAD_REACTORS
330
3B
102
}
330
3B
100
AcDbMaterial
  1
Global
 72
     1
 94
      127
  0
MLINESTYLE
  5
18
102
{ACAD_REACTORS
330
17
102
}
330
17
100
AcDbMlineStyle
  2
Standard
 70
     0
  3

 62
   256
 51
90.0
 52
90.0
 71
     2
 49
0.5
 62
   256
  6
BYLAYER
 49
-0.5
 62
   256
  6
BYLAYER
  0
ACDBPLACEHOLDER
  5
F
102
{ACAD_REACTORS
330
E
102
}
330
E
  0
VISUALSTYLE
  5
2F
102
{ACAD_REACTORS
330
2A
102
}
102
{ACAD_XDICTIONARY
360
111
102
}
330
2A
100
AcDbVisualStyle
  2
2dWireframe
 70
     4
 71
     0
 72
     2
 73
     0
 90
        0
 40
-0.6
 41
-30.0
 62
     5
 63
     7
421
 16777215
 74
     1
 91
        4
 64
     7
 65
   257
 75
     1
175
     1
 42
1.0
 92
        0
 66
   257
 43
1.0
 76
     1
 77
     6
 78
     2
 67
     7
 79
     5
170
     0
171
     0
290
     0
174
     0
 93
        1
 44
0.0
173
     0
291
     0
 45
0.0
  0
VISUALSTYLE
  5
31
102
{ACAD_REACTORS
330
2A
102
}
102
{ACAD_XDICTIONARY
360
115
102
}
330
2A
100
AcDbVisualStyle
  2
3D Hidden
 70
     6
 71
     1
 72
     2
 73
     2
 90
        0
 40
-0.6
 41
-30.0
 62
     5
 63
     7
421
 16777215
 74
     2
 91
        2
 64
     7
 65
   257
 75
     2
175
     1
 42
40.0
 92
        0
 66
   257
 43
1.0
 76
     1
 77
     6
 78
     2
 67
     7
 79
     3
170
     0
171
     0
290
     0
174
     0
 93
        1
 44
0.0
173
     0
291
     0
 45
0.0
  0
VISUALSTYLE
  5
30
102
{ACAD_REACTORS
330
2A
102
}
102
{ACAD_XDICTIONARY
360
113
102
}
330
2A
100
AcDbVisualStyle
  2
3dWireframe
 70
     5
 71
     0
 72
     2
 73
     0
 90
        0
 40
-0.6
 41
-30.0
 62
     5
 63
     7
421
 16777215
 74
     1
 91
        4
 64
     7
 65
   257
 75
     1
175
     1
 42
1.0
 92
        0
 66
   257
 43
1.0
 76
     1
 77
     6
 78
     2
 67
     7
 79
     5
170
     0
171
     0
290
     0
174
     0
 93
        1
 44
0.0
173
     0
291
     0
 45
0.0
  0
VISUALSTYLE
  5
32
102
{ACAD_REACTORS
330
2A
102
}
102
{ACAD_XDICTIONARY
360
117
102
}
330
2A
100
AcDbVisualStyle
  2
Basic
 70
     7
 71
     1
 72
     0
 73
     1
 90
        0
 40
-0.6
 41
-30.0
 62
     5
 63
     7
421
 16777215
 74
     0
 91
        4
 64
     7
 65
   257
 75
     1
175
     1
 42
1.0
 92
        8
 66
     7
 43
1.0
 76
     1
 77
     6
 78
     2
 67
     7
 79
     5
170
     0
171
     0
290
     0
174
     0
 93
        1
 44
0.0
173
     0
291
     1
 45
0.0
  0
VISUALSTYLE
  5
36
102
{ACAD_REACTORS
330
2A
102
}
102
{ACAD_XDICTIONARY
360
11F
102
}
330
2A
100
AcDbVisualStyle
  2
Brighten
 70
    12
 71
     2
 72
     2
 73
     0
 90
        0
 40
-0.6
 41
-30.0
 62
     5
 63
     7
421
 16777215
 74
     1
 91
        4
 64
     7
 65
   257
 75
     1
175
     1
 42
1.0
 92
        8
 66
     7
 43
1.0
 76
     1
 77
     6
 78
     2
 67
     7
 79
     5
170
     0
171
     0
290
     0
174
     0
 93
        1
 44
50.0
173
     0
291
     1
 45
0.0
  0
VISUALSTYLE
  5
3A
102
{ACAD_REACTORS
330
2A
102
}
102
{ACAD_XDICTIONARY
360
127
102
}
330
2A
100
AcDbVisualStyle
  2
ColorChange
 70
    16
 71
     2
 72
     2
 73
     3
 90
        0
 40
-0.6
 41
-30.0
 62
     5
 63
     8
421
  8421504
 74
     1
 91
        4
 64
     7
 65
   257
 75
     1
175
     1
 42
1.0
 92
        8
 66
     8
424
  8421504
 43
1.0
 76
     1
 77
     6
 78
     2
 67
     7
 79
     5
170
     0
171
     0
290
     0
174
     0
 93
        1
 44
0.0
173
     0
291
     1
 45
0.0
  0
VISUALSTYLE
  5
34
102
{ACAD_REACTORS
330
2A
102
}
102
{ACAD_XDICTIONARY
360
11B
102
}
330
2A
100
AcDbVisualStyle
  2
Conceptual
 70
     9
 71
     3
 72
     2
 73
     0
 90
        0
 40
-0.6
 41
-30.0
 62
     5
 63
     7
421
 16777215
 74
     2
 91
        2
 64
     7
 65
   257
 75
     1
175
     1
 42
40.0
 92
        8
 66
     7
 43
1.0
 76
     1
 77
     6
 78
     2
 67
     7
 79
     3
170
     0
171
     0
290
     0
174
     0
 93
        1
 44
0.0
173
     0
291
     0
 45
0.0
  0
VISUALSTYLE
  5
35
102
{ACAD_REACTORS
330
2A
102
}
102
{ACAD_XDICTIONARY
360
11D
102
}
330
2A
100
AcDbVisualStyle
  2
Dim
 70
    11
 71
     2
 72
     2
 73
     0
 90
        0
 40
-0.6
 41
-30.0
 62
     5
 63
     7
421
 16777215
 74
     1
 91
        4
 64
     7
 65
   257
 75
     1
175
     1
 42
1.0
 92
        8
 66
     7
 43
1.0
 76
     1
 77
     6
 78
     2
 67
     7
 79
     5
170
     0
171
     0
290
     0
174
     0
 93
        1
 44
-50.0
173
     0
291
     1
 45
0.0
  0
VISUALSTYLE
  5
39
102
{ACAD_REACTORS
330
2A
102
}
102
{ACAD_XDICTIONARY
360
125
102
}
330
2A
100
AcDbVisualStyle
  2
Facepattern
 70
    15
 71
     2
 72
     2
 73
     0
 90
        0
 40
-0.6
 41
-30.0
 62
     5
 63
     7
421
 16777215
 74
     1
 91
        4
 64
     7
 65
   257
 75
     1
175
     1
 42
1.0
 92
        8
 66
     7
 43
1.0
 76
     1
 77
     6
 78
     2
 67
     7
 79
     5
170
     0
171
     0
290
     0
174
     0
 93
        1
 44
0.0
173
     0
291
     1
 45
0.0
  0
VISUALSTYLE
  5
2B
102
{ACAD_REACTORS
330
2A
102
}
102
{ACAD_XDICTIONARY
360
109
102
}
330
2A
100
AcDbVisualStyle
  2
Flat
 70
     0
 71
     2
 72
     1
 73
     1
 90
        2
 40
-0.6
 41
30.0
 62
     5
 63
     7
421
 16777215
 74
     0
 91
        4
 64
     7
 65
   257
 75
     1
175
     1
 42
1.0
 92
        8
 66
     7
 43
1.0
 76
     1
 77
     6
 78
     2
 67
     7
 79
     5
170
     0
171
     0
290
     0
174
     0
 93
       13
 44
0.0
173
     0
291
     1
 45
0.0
  0
VISUALSTYLE
  5
2C
102
{ACAD_REACTORS
330
2A
102
}
102
{ACAD_XDICTIONARY
360
10B
102
}
330
2A
100
AcDbVisualStyle
  2
FlatWithEdges
 70
     1
 71
     2
 72
     1
 73
     1
 90
        2
 40
-0.6
 41
30.0
 62
     5
 63
     7
421
 16777215
 74
     1
 91
        4
 64
     7
 65
   257
 75
     1
175
     1
 42
1.0
 92
        0
 66
   257
 43
1.0
 76
     1
 77
     6
 78
     2
 67
     7
 79
     5
170
     0
171
     0
290
     0
174
     0
 93
       13
 44
0.0
173
     0
291
     1
 45
0.0
  0
VISUALSTYLE
  5
2D
102
{ACAD_REACTORS
330
2A
102
}
102
{ACAD_XDICTIONARY
360
10D
102
}
330
2A
100
AcDbVisualStyle
  2
Gouraud
 70
     2
 71
     2
 72
     2
 73
     1
 90
        2
 40
-0.6
 41
30.0
 62
     5
 63
     7
421
 16777215
 74
     0
 91
        4
 64
     7
 65
   257
 75
     1
175
     1
 42
1.0
 92
        0
 66
     7
 43
1.0
 76
     1
 77
     6
 78
     2
 67
     7
 79
     5
170
     0
171
     0
290
     0
174
     0
 93
       13
 44
0.0
173
     0
291
     1
 45
0.0
  0
VISUALSTYLE
  5
2E
102
{ACAD_REACTORS
330
2A
102
}
102
{ACAD_XDICTIONARY
360
10F
102
}
330
2A
100
AcDbVisualStyle
  2
GouraudWithEdges
 70
     3
 71
     2
 72
     2
 73
     1
 90
        2
 40
-0.6
 41
30.0
 62
     5
 63
     7
421
 16777215
 74
     1
 91
        4
 64
     7
 65
   257
 75
     1
175
     1
 42
1.0
 92
        0
 66
   257
 43
1.0
 76
     1
 77
     6
 78
     2
 67
     7
 79
     5
170
     0
171
     0
290
     0
174
     0
 93
       13
 44
0.0
173
     0
291
     1
 45
0.0
  0
VISUALSTYLE
  5
38
102
{ACAD_REACTORS
330
2A
102
}
102
{ACAD_XDICTIONARY
360
123
102
}
330
2A
100
AcDbVisualStyle
  2
Linepattern
 70
    14
 71
     2
 72
     2
 73
     0
 90
        0
 40
-0.6
 41
-30.0
 62
     5
 63
     7
421
 16777215
 74
     1
 91
        4
 64
     7
 65
   257
 75
     7
175
     7
 42
1.0
 92
        8
 66
     7
 43
1.0
 76
     1
 77
     6
 78
     2
 67
     7
 79
     5
170
     0
171
     0
290
     0
174
     0
 93
        1
 44
0.0
173
     0
291
     1
 45
0.0
  0
VISUALSTYLE
  5
33
102
{ACAD_REACTORS
330
2A
102
}
102
{ACAD_XDICTIONARY
360
119
102
}
330
2A
100
AcDbVisualStyle
  2
Realistic
 70
     8
 71
     2
 72
     2
 73
     0
 90
        0
 40
-0.6
 41
-30.0
 62
     5
 63
     7
421
 16777215
 74
     1
 91
        0
 64
     7
 65
   257
 75
     1
175
     1
 42
1.0
 92
        8
 66
     8
424
  7895160
 43
1.0
 76
     1
 77
     6
 78
     2
 67
     7
 79
     5
170
     0
171
     0
290
     0
174
     0
 93
       13
 44
0.0
173
     0
291
     0
 45
0.0
  0
VISUALSTYLE
  5
37
102
{ACAD_REACTORS
330
2A
102
}
102
{ACAD_XDICTIONARY
360
121
102
}
330
2A
100
AcDbVisualStyle
  2
Thicken
 70
    13
 71
     2
 72
     2
 73
     0
 90
        0
 40
-0.6
 41
-30.0
 62
     5
 63
     7
421
 16777215
 74
     1
 91
        4
 64
     7
 65
   257
 75
     1
175
     1
 42
1.0
 92
       12
 66
     7
 43
1.0
 76
     1
 77
     6
 78
     2
 67
     7
 79
     5
170
     0
171
     0
290
     0
174
     0
 93
        1
 44
0.0
173
     0
291
     1
 45
0.0
  0
DICTIONARY
  5
111
330
2F
100
AcDbDictionary
280
     1
281
     1
  3
ACAD_XREC_ROUNDTRIP
360
112
  0
DICTIONARY
  5
115
330
31
100
AcDbDictionary
280
     1
281
     1
  3
ACAD_XREC_ROUNDTRIP
360
116
  0
DICTIONARY
  5
113
330
30
100
AcDbDictionary
280
     1
281
     1
  3
ACAD_XREC_ROUNDTRIP
360
114
  0
DICTIONARY
  5
117
330
32
100
AcDbDictionary
280
     1
281
     1
  3
ACAD_XREC_ROUNDTRIP
360
118
  0
DICTIONARY
  5
11F
330
36
100
AcDbDictionary
280
     1
281
     1
  3
ACAD_XREC_ROUNDTRIP
360
120
  0
DICTIONARY
  5
127
330
3A
100
AcDbDictionary
280
     1
281
     1
  3
ACAD_XREC_ROUNDTRIP
360
128
  0
DICTIONARY
  5
11B
330
34
100
AcDbDictionary
280
     1
281
     1
  3
ACAD_XREC_ROUNDTRIP
360
11C
  0
DICTIONARY
  5
11D
330
35
100
AcDbDictionary
280
     1
281
     1
  3
ACAD_XREC_ROUNDTRIP
360
11E
  0
DICTIONARY
  5
125
330
39
100
AcDbDictionary
280
     1
281
     1
  3
ACAD_XREC_ROUNDTRIP
360
126
  0
DICTIONARY
  5
109
330
2B
100
AcDbDictionary
280
     1
281
     1
  3
ACAD_XREC_ROUNDTRIP
360
10A
  0
DICTIONARY
  5
10B
330
2C
100
AcDbDictionary
280
     1
281
     1
  3
ACAD_XREC_ROUNDTRIP
360
10C
  0
DICTIONARY
  5
10D
330
2D
100
AcDbDictionary
280
     1
281
     1
  3
ACAD_XREC_ROUNDTRIP
360
10E
  0
DICTIONARY
  5
10F
330
2E
100
AcDbDictionary
280
     1
281
     1
  3
ACAD_XREC_ROUNDTRIP
360
110
  0
DICTIONARY
  5
123
330
38
100
AcDbDictionary
280
     1
281
     1
  3
ACAD_XREC_ROUNDTRIP
360
124
  0
DICTIONARY
  5
119
330
33
100
AcDbDictionary
280
     1
281
     1
  3
ACAD_XREC_ROUNDTRIP
360
11A
  0
DICTIONARY
  5
121
330
37
100
AcDbDictionary
280
     1
281
     1
  3
ACAD_XREC_ROUNDTRIP
360
122
  0
XRECORD
  5
112
102
{ACAD_REACTORS
330
111
102
}
330
111
100
AcDbXrecord
280
     1
102
RTVSPropertyOp0
 70
     1
102
RTVSPropertyOp1
 70
     1
102
RTVSPropertyOp2
 70
     1
102
RTVSPropertyOp3
 70
     1
102
RTVSPropertyOp4
 70
     1
102
RTVSPropertyOp5
 70
     1
102
RTVSPropertyOp6
 70
     1
102
RTVSPropertyOp7
 70
     1
102
RTVSPropertyOp8
 70
     1
102
RTVSPropertyOp9
 70
     1
102
RTVSPropertyOp10
 70
     1
102
RTVSPropertyOp11
 70
     1
102
RTVSPropertyOp12
 70
     1
102
RTVSPropertyOp13
 70
     1
102
RTVSPropertyOp14
 70
     1
102
RTVSPropertyOp15
 70
     1
102
RTVSPropertyOp16
 70
     1
102
RTVSPropertyOp17
 70
     1
102
RTVSPropertyOp18
 70
     1
102
RTVSPropertyOp19
 70
     1
102
RTVSPropertyOp20
 70
     1
102
RTVSPropertyOp21
 70
     1
102
RTVSPropertyOp22
 70
     1
102
RTVSPropertyOp23
 70
     1
102
RTVSPropertyOp24
 70
     1
102
RTVSPropertyOp25
 70
     1
102
RTVSPropertyOp26
 70
     1
102
RTVSPropertyOp27
 70
     1
102
RTVSPropertyOp28
 70
     1
102
RTVSPropertyOp29
 70
     1
102
RTVSPropertyOp30
 70
     1
102
RTVSPropertyOp31
 70
     1
102
RTVSPropertyOp32
 70
     1
  0
XRECORD
  5
116
102
{ACAD_REACTORS
330
115
102
}
330
115
100
AcDbXrecord
280
     1
102
RTVSPropertyOp0
 70
     1
102
RTVSPropertyOp1
 70
     1
102
RTVSPropertyOp2
 70
     1
102
RTVSPropertyOp3
 70
     1
102
RTVSPropertyOp4
 70
     1
102
RTVSPropertyOp5
 70
     1
102
RTVSPropertyOp6
 70
     1
102
RTVSPropertyOp7
 70
     1
102
RTVSPropertyOp8
 70
     1
102
RTVSPropertyOp9
 70
     1
102
RTVSPropertyOp10
 70
     1
102
RTVSPropertyOp11
 70
     1
102
RTVSPropertyOp12
 70
     1
102
RTVSPropertyOp13
 70
     1
102
RTVSPropertyOp14
 70
     1
102
RTVSPropertyOp15
 70
     1
102
RTVSPropertyOp16
 70
     1
102
RTVSPropertyOp17
 70
     1
102
RTVSPropertyOp18
 70
     1
102
RTVSPropertyOp19
 70
     1
102
RTVSPropertyOp20
 70
     1
102
RTVSPropertyOp21
 70
     1
102
RTVSPropertyOp22
 70
     1
102
RTVSPropertyOp23
 70
     1
102
RTVSPropertyOp24
 70
     1
102
RTVSPropertyOp25
 70
     1
102
RTVSPropertyOp26
 70
     1
102
RTVSPropertyOp27
 70
     1
102
RTVSPropertyOp28
 70
     1
102
RTVSPropertyOp29
 70
     1
102
RTVSPropertyOp30
 70
     1
102
RTVSPropertyOp31
 70
     1
102
RTVSPropertyOp32
 70
     1
  0
XRECORD
  5
114
102
{ACAD_REACTORS
330
113
102
}
330
113
100
AcDbXrecord
280
     1
102
RTVSPropertyOp0
 70
     1
102
RTVSPropertyOp1
 70
     1
102
RTVSPropertyOp2
 70
     1
102
RTVSPropertyOp3
 70
     1
102
RTVSPropertyOp4
 70
     1
102
RTVSPropertyOp5
 70
     1
102
RTVSPropertyOp6
 70
     1
102
RTVSPropertyOp7
 70
     1
102
RTVSPropertyOp8
 70
     1
102
RTVSPropertyOp9
 70
     1
102
RTVSPropertyOp10
 70
     1
102
RTVSPropertyOp11
 70
     1
102
RTVSPropertyOp12
 70
     1
102
RTVSPropertyOp13
 70
     1
102
RTVSPropertyOp14
 70
     1
102
RTVSPropertyOp15
 70
     1
102
RTVSPropertyOp16
 70
     1
102
RTVSPropertyOp17
 70
     1
102
RTVSPropertyOp18
 70
     1
102
RTVSPropertyOp19
 70
     1
102
RTVSPropertyOp20
 70
     1
102
RTVSPropertyOp21
 70
     1
102
RTVSPropertyOp22
 70
     1
102
RTVSPropertyOp23
 70
     1
102
RTVSPropertyOp24
 70
     1
102
RTVSPropertyOp25
 70
     1
102
RTVSPropertyOp26
 70
     1
102
RTVSPropertyOp27
 70
     1
102
RTVSPropertyOp28
 70
     1
102
RTVSPropertyOp29
 70
     1
102
RTVSPropertyOp30
 70
     1
102
RTVSPropertyOp31
 70
     1
102
RTVSPropertyOp32
 70
     1
  0
XRECORD
  5
118
102
{ACAD_REACTORS
330
117
102
}
330
117
100
AcDbXrecord
280
     1
102
RTVSPropertyOp0
 70
     1
102
RTVSPropertyOp1
 70
     1
102
RTVSPropertyOp2
 70
     1
102
RTVSPropertyOp3
 70
     1
102
RTVSPropertyOp4
 70
     1
102
RTVSPropertyOp5
 70
     1
102
RTVSPropertyOp6
 70
     1
102
RTVSPropertyOp7
 70
     1
102
RTVSPropertyOp8
 70
     1
102
RTVSPropertyOp9
 70
     1
102
RTVSPropertyOp10
 70
     1
102
RTVSPropertyOp11
 70
     1
102
RTVSPropertyOp12
 70
     1
102
RTVSPropertyOp13
 70
     1
102
RTVSPropertyOp14
 70
     1
102
RTVSPropertyOp15
 70
     1
102
RTVSPropertyOp16
 70
     1
102
RTVSPropertyOp17
 70
     1
102
RTVSPropertyOp18
 70
     1
102
RTVSPropertyOp19
 70
     1
102
RTVSPropertyOp20
 70
     1
102
RTVSPropertyOp21
 70
     1
102
RTVSPropertyOp22
 70
     1
102
RTVSPropertyOp23
 70
     1
102
RTVSPropertyOp24
 70
     1
102
RTVSPropertyOp25
 70
     1
102
RTVSPropertyOp26
 70
     1
102
RTVSPropertyOp27
 70
     1
102
RTVSPropertyOp28
 70
     1
102
RTVSPropertyOp29
 70
     1
102
RTVSPropertyOp30
 70
     1
102
RTVSPropertyOp31
 70
     1
102
RTVSPropertyOp32
 70
     1
  0
XRECORD
  5
120
102
{ACAD_REACTORS
330
11F
102
}
330
11F
100
AcDbXrecord
280
     1
102
RTVSPropertyOp0
 70
     1
102
RTVSPropertyOp1
 70
     1
102
RTVSPropertyOp2
 70
     1
102
RTVSPropertyOp3
 70
     1
102
RTVSPropertyOp4
 70
     1
102
RTVSPropertyOp5
 70
     1
102
RTVSPropertyOp6
 70
     1
102
RTVSPropertyOp7
 70
     1
102
RTVSPropertyOp8
 70
     1
102
RTVSPropertyOp9
 70
     1
102
RTVSPropertyOp10
 70
     1
102
RTVSPropertyOp11
 70
     1
102
RTVSPropertyOp12
 70
     1
102
RTVSPropertyOp13
 70
     1
102
RTVSPropertyOp14
 70
     1
102
RTVSPropertyOp15
 70
     1
102
RTVSPropertyOp16
 70
     1
102
RTVSPropertyOp17
 70
     1
102
RTVSPropertyOp18
 70
     1
102
RTVSPropertyOp19
 70
     1
102
RTVSPropertyOp20
 70
     1
102
RTVSPropertyOp21
 70
     1
102
RTVSPropertyOp22
 70
     1
102
RTVSPropertyOp23
 70
     1
102
RTVSPropertyOp24
 70
     1
102
RTVSPropertyOp25
 70
     1
102
RTVSPropertyOp26
 70
     1
102
RTVSPropertyOp27
 70
     1
102
RTVSPropertyOp28
 70
     1
102
RTVSPropertyOp29
 70
     1
102
RTVSPropertyOp30
 70
     1
102
RTVSPropertyOp31
 70
     1
102
RTVSPropertyOp32
 70
     1
  0
XRECORD
  5
128
102
{ACAD_REACTORS
330
127
102
}
330
127
100
AcDbXrecord
280
     1
102
RTVSPropertyOp0
 70
     1
102
RTVSPropertyOp1
 70
     1
102
RTVSPropertyOp2
 70
     1
102
RTVSPropertyOp3
 70
     1
102
RTVSPropertyOp4
 70
     1
102
RTVSPropertyOp5
 70
     1
102
RTVSPropertyOp6
 70
     1
102
RTVSPropertyOp7
 70
     1
102
RTVSPropertyOp8
 70
     1
102
RTVSPropertyOp9
 70
     1
102
RTVSPropertyOp10
 70
     1
102
RTVSPropertyOp11
 70
     1
102
RTVSPropertyOp12
 70
     1
102
RTVSPropertyOp13
 70
     1
102
RTVSPropertyOp14
 70
     1
102
RTVSPropertyOp15
 70
     1
102
RTVSPropertyOp16
 70
     1
102
RTVSPropertyOp17
 70
     1
102
RTVSPropertyOp18
 70
     1
102
RTVSPropertyOp19
 70
     1
102
RTVSPropertyOp20
 70
     1
102
RTVSPropertyOp21
 70
     1
102
RTVSPropertyOp22
 70
     1
102
RTVSPropertyOp23
 70
     1
102
RTVSPropertyOp24
 70
     1
102
RTVSPropertyOp25
 70
     1
102
RTVSPropertyOp26
 70
     1
102
RTVSPropertyOp27
 70
     1
102
RTVSPropertyOp28
 70
     1
102
RTVSPropertyOp29
 70
     1
102
RTVSPropertyOp30
 70
     1
102
RTVSPropertyOp31
 70
     1
102
RTVSPropertyOp32
 70
     1
  0
XRECORD
  5
11C
102
{ACAD_REACTORS
330
11B
102
}
330
11B
100
AcDbXrecord
280
     1
102
RTVSPropertyOp0
 70
     1
102
RTVSPropertyOp1
 70
     1
102
RTVSPropertyOp2
 70
     1
102
RTVSPropertyOp3
 70
     1
102
RTVSPropertyOp4
 70
     1
102
RTVSPropertyOp5
 70
     1
102
RTVSPropertyOp6
 70
     1
102
RTVSPropertyOp7
 70
     1
102
RTVSPropertyOp8
 70
     1
102
RTVSPropertyOp9
 70
     1
102
RTVSPropertyOp10
 70
     1
102
RTVSPropertyOp11
 70
     1
102
RTVSPropertyOp12
 70
     1
102
RTVSPropertyOp13
 70
     1
102
RTVSPropertyOp14
 70
     1
102
RTVSPropertyOp15
 70
     1
102
RTVSPropertyOp16
 70
     1
102
RTVSPropertyOp17
 70
     1
102
RTVSPropertyOp18
 70
     1
102
RTVSPropertyOp19
 70
     1
102
RTVSPropertyOp20
 70
     1
102
RTVSPropertyOp21
 70
     1
102
RTVSPropertyOp22
 70
     1
102
RTVSPropertyOp23
 70
     1
102
RTVSPropertyOp24
 70
     1
102
RTVSPropertyOp25
 70
     1
102
RTVSPropertyOp26
 70
     1
102
RTVSPropertyOp27
 70
     1
102
RTVSPropertyOp28
 70
     1
102
RTVSPropertyOp29
 70
     1
102
RTVSPropertyOp30
 70
     1
102
RTVSPropertyOp31
 70
     1
102
RTVSPropertyOp32
 70
     1
  0
XRECORD
  5
11E
102
{ACAD_REACTORS
330
11D
102
}
330
11D
100
AcDbXrecord
280
     1
102
RTVSPropertyOp0
 70
     1
102
RTVSPropertyOp1
 70
     1
102
RTVSPropertyOp2
 70
     1
102
RTVSPropertyOp3
 70
     1
102
RTVSPropertyOp4
 70
     1
102
RTVSPropertyOp5
 70
     1
102
RTVSPropertyOp6
 70
     1
102
RTVSPropertyOp7
 70
     1
102
RTVSPropertyOp8
 70
     1
102
RTVSPropertyOp9
 70
     1
102
RTVSPropertyOp10
 70
     1
102
RTVSPropertyOp11
 70
     1
102
RTVSPropertyOp12
 70
     1
102
RTVSPropertyOp13
 70
     1
102
RTVSPropertyOp14
 70
     1
102
RTVSPropertyOp15
 70
     1
102
RTVSPropertyOp16
 70
     1
102
RTVSPropertyOp17
 70
     1
102
RTVSPropertyOp18
 70
     1
102
RTVSPropertyOp19
 70
     1
102
RTVSPropertyOp20
 70
     1
102
RTVSPropertyOp21
 70
     1
102
RTVSPropertyOp22
 70
     1
102
RTVSPropertyOp23
 70
     1
102
RTVSPropertyOp24
 70
     1
102
RTVSPropertyOp25
 70
     1
102
RTVSPropertyOp26
 70
     1
102
RTVSPropertyOp27
 70
     1
102
RTVSPropertyOp28
 70
     1
102
RTVSPropertyOp29
 70
     1
102
RTVSPropertyOp30
 70
     1
102
RTVSPropertyOp31
 70
     1
102
RTVSPropertyOp32
 70
     1
  0
XRECORD
  5
126
102
{ACAD_REACTORS
330
125
102
}
330
125
100
AcDbXrecord
280
     1
102
RTVSPropertyOp0
 70
     1
102
RTVSPropertyOp1
 70
     1
102
RTVSPropertyOp2
 70
     1
102
RTVSPropertyOp3
 70
     1
102
RTVSPropertyOp4
 70
     1
102
RTVSPropertyOp5
 70
     1
102
RTVSPropertyOp6
 70
     1
102
RTVSPropertyOp7
 70
     1
102
RTVSPropertyOp8
 70
     1
102
RTVSPropertyOp9
 70
     1
102
RTVSPropertyOp10
 70
     1
102
RTVSPropertyOp11
 70
     1
102
RTVSPropertyOp12
 70
     1
102
RTVSPropertyOp13
 70
     1
102
RTVSPropertyOp14
 70
     1
102
RTVSPropertyOp15
 70
     1
102
RTVSPropertyOp16
 70
     1
102
RTVSPropertyOp17
 70
     1
102
RTVSPropertyOp18
 70
     1
102
RTVSPropertyOp19
 70
     1
102
RTVSPropertyOp20
 70
     1
102
RTVSPropertyOp21
 70
     1
102
RTVSPropertyOp22
 70
     1
102
RTVSPropertyOp23
 70
     1
102
RTVSPropertyOp24
 70
     1
102
RTVSPropertyOp25
 70
     1
102
RTVSPropertyOp26
 70
     1
102
RTVSPropertyOp27
 70
     1
102
RTVSPropertyOp28
 70
     1
102
RTVSPropertyOp29
 70
     1
102
RTVSPropertyOp30
 70
     1
102
RTVSPropertyOp31
 70
     1
102
RTVSPropertyOp32
 70
     1
  0
XRECORD
  5
10A
102
{ACAD_REACTORS
330
109
102
}
330
109
100
AcDbXrecord
280
     1
102
RTVSPropertyOp0
 70
     1
102
RTVSPropertyOp1
 70
     1
102
RTVSPropertyOp2
 70
     1
102
RTVSPropertyOp3
 70
     1
102
RTVSPropertyOp4
 70
     1
102
RTVSPropertyOp5
 70
     1
102
RTVSPropertyOp6
 70
     1
102
RTVSPropertyOp7
 70
     1
102
RTVSPropertyOp8
 70
     1
102
RTVSPropertyOp9
 70
     1
102
RTVSPropertyOp10
 70
     1
102
RTVSPropertyOp11
 70
     1
102
RTVSPropertyOp12
 70
     1
102
RTVSPropertyOp13
 70
     1
102
RTVSPropertyOp14
 70
     1
102
RTVSPropertyOp15
 70
     1
102
RTVSPropertyOp16
 70
     1
102
RTVSPropertyOp17
 70
     1
102
RTVSPropertyOp18
 70
     1
102
RTVSPropertyOp19
 70
     1
102
RTVSPropertyOp20
 70
     1
102
RTVSPropertyOp21
 70
     1
102
RTVSPropertyOp22
 70
     1
102
RTVSPropertyOp23
 70
     1
102
RTVSPropertyOp24
 70
     1
102
RTVSPropertyOp25
 70
     1
102
RTVSPropertyOp26
 70
     1
102
RTVSPropertyOp27
 70
     1
102
RTVSPropertyOp28
 70
     1
102
RTVSPropertyOp29
 70
     1
102
RTVSPropertyOp30
 70
     1
102
RTVSPropertyOp31
 70
     1
102
RTVSPropertyOp32
 70
     1
  0
XRECORD
  5
10C
102
{ACAD_REACTORS
330
10B
102
}
330
10B
100
AcDbXrecord
280
     1
102
RTVSPropertyOp0
 70
     1
102
RTVSPropertyOp1
 70
     1
102
RTVSPropertyOp2
 70
     1
102
RTVSPropertyOp3
 70
     1
102
RTVSPropertyOp4
 70
     1
102
RTVSPropertyOp5
 70
     1
102
RTVSPropertyOp6
 70
     1
102
RTVSPropertyOp7
 70
     1
102
RTVSPropertyOp8
 70
     1
102
RTVSPropertyOp9
 70
     1
102
RTVSPropertyOp10
 70
     1
102
RTVSPropertyOp11
 70
     1
102
RTVSPropertyOp12
 70
     1
102
RTVSPropertyOp13
 70
     1
102
RTVSPropertyOp14
 70
     1
102
RTVSPropertyOp15
 70
     1
102
RTVSPropertyOp16
 70
     1
102
RTVSPropertyOp17
 70
     1
102
RTVSPropertyOp18
 70
     1
102
RTVSPropertyOp19
 70
     1
102
RTVSPropertyOp20
 70
     1
102
RTVSPropertyOp21
 70
     1
102
RTVSPropertyOp22
 70
     1
102
RTVSPropertyOp23
 70
     1
102
RTVSPropertyOp24
 70
     1
102
RTVSPropertyOp25
 70
     1
102
RTVSPropertyOp26
 70
     1
102
RTVSPropertyOp27
 70
     1
102
RTVSPropertyOp28
 70
     1
102
RTVSPropertyOp29
 70
     1
102
RTVSPropertyOp30
 70
     1
102
RTVSPropertyOp31
 70
     1
102
RTVSPropertyOp32
 70
     1
  0
XRECORD
  5
10E
102
{ACAD_REACTORS
330
10D
102
}
330
10D
100
AcDbXrecord
280
     1
102
RTVSPropertyOp0
 70
     1
102
RTVSPropertyOp1
 70
     1
102
RTVSPropertyOp2
 70
     1
102
RTVSPropertyOp3
 70
     1
102
RTVSPropertyOp4
 70
     1
102
RTVSPropertyOp5
 70
     1
102
RTVSPropertyOp6
 70
     1
102
RTVSPropertyOp7
 70
     1
102
RTVSPropertyOp8
 70
     1
102
RTVSPropertyOp9
 70
     1
102
RTVSPropertyOp10
 70
     1
102
RTVSPropertyOp11
 70
     1
102
RTVSPropertyOp12
 70
     1
102
RTVSPropertyOp13
 70
     1
102
RTVSPropertyOp14
 70
     1
102
RTVSPropertyOp15
 70
     1
102
RTVSPropertyOp16
 70
     1
102
RTVSPropertyOp17
 70
     1
102
RTVSPropertyOp18
 70
     1
102
RTVSPropertyOp19
 70
     1
102
RTVSPropertyOp20
 70
     1
102
RTVSPropertyOp21
 70
     1
102
RTVSPropertyOp22
 70
     1
102
RTVSPropertyOp23
 70
     1
102
RTVSPropertyOp24
 70
     1
102
RTVSPropertyOp25
 70
     1
102
RTVSPropertyOp26
 70
     1
102
RTVSPropertyOp27
 70
     1
102
RTVSPropertyOp28
 70
     1
102
RTVSPropertyOp29
 70
     1
102
RTVSPropertyOp30
 70
     1
102
RTVSPropertyOp31
 70
     1
102
RTVSPropertyOp32
 70
     1
  0
XRECORD
  5
110
102
{ACAD_REACTORS
330
10F
102
}
330
10F
100
AcDbXrecord
280
     1
102
RTVSPropertyOp0
 70
     1
102
RTVSPropertyOp1
 70
     1
102
RTVSPropertyOp2
 70
     1
102
RTVSPropertyOp3
 70
     1
102
RTVSPropertyOp4
 70
     1
102
RTVSPropertyOp5
 70
     1
102
RTVSPropertyOp6
 70
     1
102
RTVSPropertyOp7
 70
     1
102
RTVSPropertyOp8
 70
     1
102
RTVSPropertyOp9
 70
     1
102
RTVSPropertyOp10
 70
     1
102
RTVSPropertyOp11
 70
     1
102
RTVSPropertyOp12
 70
     1
102
RTVSPropertyOp13
 70
     1
102
RTVSPropertyOp14
 70
     1
102
RTVSPropertyOp15
 70
     1
102
RTVSPropertyOp16
 70
     1
102
RTVSPropertyOp17
 70
     1
102
RTVSPropertyOp18
 70
     1
102
RTVSPropertyOp19
 70
     1
102
RTVSPropertyOp20
 70
     1
102
RTVSPropertyOp21
 70
     1
102
RTVSPropertyOp22
 70
     1
102
RTVSPropertyOp23
 70
     1
102
RTVSPropertyOp24
 70
     1
102
RTVSPropertyOp25
 70
     1
102
RTVSPropertyOp26
 70
     1
102
RTVSPropertyOp27
 70
     1
102
RTVSPropertyOp28
 70
     1
102
RTVSPropertyOp29
 70
     1
102
RTVSPropertyOp30
 70
     1
102
RTVSPropertyOp31
 70
     1
102
RTVSPropertyOp32
 70
     1
  0
XRECORD
  5
124
102
{ACAD_REACTORS
330
123
102
}
330
123
100
AcDbXrecord
280
     1
102
RTVSPropertyOp0
 70
     1
102
RTVSPropertyOp1
 70
     1
102
RTVSPropertyOp2
 70
     1
102
RTVSPropertyOp3
 70
     1
102
RTVSPropertyOp4
 70
     1
102
RTVSPropertyOp5
 70
     1
102
RTVSPropertyOp6
 70
     1
102
RTVSPropertyOp7
 70
     1
102
RTVSPropertyOp8
 70
     1
102
RTVSPropertyOp9
 70
     1
102
RTVSPropertyOp10
 70
     1
102
RTVSPropertyOp11
 70
     1
102
RTVSPropertyOp12
 70
     1
102
RTVSPropertyOp13
 70
     1
102
RTVSPropertyOp14
 70
     1
102
RTVSPropertyOp15
 70
     1
102
RTVSPropertyOp16
 70
     1
102
RTVSPropertyOp17
 70
     1
102
RTVSPropertyOp18
 70
     1
102
RTVSPropertyOp19
 70
     1
102
RTVSPropertyOp20
 70
     1
102
RTVSPropertyOp21
 70
     1
102
RTVSPropertyOp22
 70
     1
102
RTVSPropertyOp23
 70
     1
102
RTVSPropertyOp24
 70
     1
102
RTVSPropertyOp25
 70
     1
102
RTVSPropertyOp26
 70
     1
102
RTVSPropertyOp27
 70
     1
102
RTVSPropertyOp28
 70
     1
102
RTVSPropertyOp29
 70
     1
102
RTVSPropertyOp30
 70
     1
102
RTVSPropertyOp31
 70
     1
102
RTVSPropertyOp32
 70
     1
  0
XRECORD
  5
11A
102
{ACAD_REACTORS
330
119
102
}
330
119
100
AcDbXrecord
280
     1
102
RTVSPropertyOp0
 70
     1
102
RTVSPropertyOp1
 70
     1
102
RTVSPropertyOp2
 70
     1
102
RTVSPropertyOp3
 70
     1
102
RTVSPropertyOp4
 70
     1
102
RTVSPropertyOp5
 70
     1
102
RTVSPropertyOp6
 70
     1
102
RTVSPropertyOp7
 70
     1
102
RTVSPropertyOp8
 70
     1
102
RTVSPropertyOp9
 70
     1
102
RTVSPropertyOp10
 70
     1
102
RTVSPropertyOp11
 70
     1
102
RTVSPropertyOp12
 70
     1
102
RTVSPropertyOp13
 70
     1
102
RTVSPropertyOp14
 70
     1
102
RTVSPropertyOp15
 70
     1
102
RTVSPropertyOp16
 70
     1
102
RTVSPropertyOp17
 70
     1
102
RTVSPropertyOp18
 70
     1
102
RTVSPropertyOp19
 70
     1
102
RTVSPropertyOp20
 70
     1
102
RTVSPropertyOp21
 70
     1
102
RTVSPropertyOp22
 70
     1
102
RTVSPropertyOp23
 70
     1
102
RTVSPropertyOp24
 70
     1
102
RTVSPropertyOp25
 70
     1
102
RTVSPropertyOp26
 70
     1
102
RTVSPropertyOp27
 70
     1
102
RTVSPropertyOp28
 70
     1
102
RTVSPropertyOp29
 70
     1
102
RTVSPropertyOp30
 70
     1
102
RTVSPropertyOp31
 70
     1
102
RTVSPropertyOp32
 70
     1
  0
XRECORD
  5
122
102
{ACAD_REACTORS
330
121
102
}
330
121
100
AcDbXrecord
280
     1
102
RTVSPropertyOp0
 70
     1
102
RTVSPropertyOp1
 70
     1
102
RTVSPropertyOp2
 70
     1
102
RTVSPropertyOp3
 70
     1
102
RTVSPropertyOp4
 70
     1
102
RTVSPropertyOp5
 70
     1
102
RTVSPropertyOp6
 70
     1
102
RTVSPropertyOp7
 70
     1
102
RTVSPropertyOp8
 70
     1
102
RTVSPropertyOp9
 70
     1
102
RTVSPropertyOp10
 70
     1
102
RTVSPropertyOp11
 70
     1
102
RTVSPropertyOp12
 70
     1
102
RTVSPropertyOp13
 70
     1
102
RTVSPropertyOp14
 70
     1
102
RTVSPropertyOp15
 70
     1
102
RTVSPropertyOp16
 70
     1
102
RTVSPropertyOp17
 70
     1
102
RTVSPropertyOp18
 70
     1
102
RTVSPropertyOp19
 70
     1
102
RTVSPropertyOp20
 70
     1
102
RTVSPropertyOp21
 70
     1
102
RTVSPropertyOp22
 70
     1
102
RTVSPropertyOp23
 70
     1
102
RTVSPropertyOp24
 70
     1
102
RTVSPropertyOp25
 70
     1
102
RTVSPropertyOp26
 70
     1
102
RTVSPropertyOp27
 70
     1
102
RTVSPropertyOp28
 70
     1
102
RTVSPropertyOp29
 70
     1
102
RTVSPropertyOp30
 70
     1
102
RTVSPropertyOp31
 70
     1
102
RTVSPropertyOp32
 70
     1
  0
ENDSEC
  0
EOF
