ISO-10303-21;
HEADER;
FILE_DESCRIPTION (( 'STEP AP214' ),
    '1' );
FILE_NAME ('13801811.STEP',
    '2020-06-29T07:24:17',
    ( '' ),
    ( '' ),
    'SwSTEP 2.0',
    'SolidWorks 2017',
    '' );
FILE_SCHEMA (( 'AUTOMOTIVE_DESIGN' ));
ENDSEC;

DATA;
#1 = CIRCLE ( 'NONE', #233, 102.7280970492110700 ) ;
#2 = FACE_OUTER_BOUND ( 'NONE', #129, .T. ) ;
#3 = DIRECTION ( 'NONE',  ( 0.0000000000000000000, 1.000000000000000000, 1.734723475976806800E-016 ) ) ;
#4 = AXIS2_PLACEMENT_3D ( 'NONE', #122, #76, #281 ) ;
#5 = DIRECTION ( 'NONE',  ( 0.0000000000000000000, 0.0000000000000000000, -1.000000000000000000 ) ) ;
#6 = ORIENTED_EDGE ( 'NONE', *, *, #40, .T. ) ;
#7 = ORIENTED_EDGE ( 'NONE', *, *, #143, .F. ) ;
#8 = FILL_AREA_STYLE ('',( #240 ) ) ;
#9 = EDGE_CURVE ( 'NONE', #54, #20, #27, .T. ) ;
#10 = CARTESIAN_POINT ( 'NONE',  ( 24.00000000000000000, 40.00000000000000700, 1.387778780781445700E-014 ) ) ;
#11 = PRODUCT ( '13801811', '13801811', '', ( #279 ) ) ;
#12 = VERTEX_POINT ( 'NONE', #232 ) ;
#13 = CARTESIAN_POINT ( 'NONE',  ( -24.00000000000000000, -77.72809704921105800, 105.5492156765163300 ) ) ;
#14 = DIRECTION ( 'NONE',  ( -1.000000000000000000, -0.0000000000000000000, -0.0000000000000000000 ) ) ;
#15 = VECTOR ( 'NONE', #3, 1000.000000000000000 ) ;
#16 = EDGE_LOOP ( 'NONE', ( #208, #199, #117, #173 ) ) ;
#17 = ORIENTED_EDGE ( 'NONE', *, *, #128, .T. ) ;
#18 = PRODUCT ( 'Planungsmodell_Auslauf-+-09.11.81.100.90-1', 'Planungsmodell_Auslauf-+-09.11.81.100.90-1', '', ( #147 ) ) ;
#19 = DIRECTION ( 'NONE',  ( 0.0000000000000000000, -0.0000000000000000000, 1.000000000000000000 ) ) ;
#20 = VERTEX_POINT ( 'NONE', #81 ) ;
#21 = DIRECTION ( 'NONE',  ( 1.000000000000000000, 0.0000000000000000000, 0.0000000000000000000 ) ) ;
#22 = AXIS2_PLACEMENT_3D ( 'NONE', #247, #64, #37 ) ;
#23 = DIRECTION ( 'NONE',  ( -1.000000000000000000, -0.0000000000000000000, -0.0000000000000000000 ) ) ;
#24 = EDGE_CURVE ( 'NONE', #105, #75, #219, .T. ) ;
#25 = ADVANCED_FACE ( 'NONE', ( #46 ), #155, .F. ) ;
#26 = ORIENTED_EDGE ( 'NONE', *, *, #288, .F. ) ;
#27 = LINE ( 'NONE', #323, #202 ) ;
#28 = EDGE_CURVE ( 'NONE', #229, #54, #340, .T. ) ;
#29 = CONTEXT_DEPENDENT_SHAPE_REPRESENTATION ( #253, #256 ) ;
#30 = CARTESIAN_POINT ( 'NONE',  ( 24.00000000000000000, -40.00000000000000700, 9.999999999999994700 ) ) ;
#31 = CARTESIAN_POINT ( 'NONE',  ( -24.00000000000000000, 40.00000000000000700, 1.387778780781445700E-014 ) ) ;
#32 = EDGE_LOOP ( 'NONE', ( #61, #7, #77, #6 ) ) ;
#33 = DIRECTION ( 'NONE',  ( -1.000000000000000000, -0.0000000000000000000, 0.0000000000000000000 ) ) ;
#34 = ORIENTED_EDGE ( 'NONE', *, *, #40, .F. ) ;
#35 = FACE_OUTER_BOUND ( 'NONE', #100, .T. ) ;
#36 = SURFACE_SIDE_STYLE ('',( #193 ) ) ;
#37 = DIRECTION ( 'NONE',  ( 0.0000000000000000000, 0.0000000000000000000, 1.000000000000000000 ) ) ;
#38 =( GEOMETRIC_REPRESENTATION_CONTEXT ( 3 ) GLOBAL_UNCERTAINTY_ASSIGNED_CONTEXT ( ( #272 ) ) GLOBAL_UNIT_ASSIGNED_CONTEXT ( ( #338, #249, #150 ) ) REPRESENTATION_CONTEXT ( 'NONE', 'WORKASPACE' ) );
#39 = CARTESIAN_POINT ( 'NONE',  ( 24.00000000000000000, -77.72809704921105800, 105.5492156765163300 ) ) ;
#40 = EDGE_CURVE ( 'NONE', #261, #20, #66, .T. ) ;
#41 = DIRECTION ( 'NONE',  ( 0.0000000000000000000, 0.0000000000000000000, 1.000000000000000000 ) ) ;
#42 = FACE_OUTER_BOUND ( 'NONE', #16, .T. ) ;
#43 = FACE_OUTER_BOUND ( 'NONE', #90, .T. ) ;
#44 = CARTESIAN_POINT ( 'NONE',  ( 24.00000000000000000, -77.72809704921107300, 105.5492156765163400 ) ) ;
#45 = ORIENTED_EDGE ( 'NONE', *, *, #288, .T. ) ;
#46 = FACE_OUTER_BOUND ( 'NONE', #53, .T. ) ;
#47 = CYLINDRICAL_SURFACE ( 'NONE', #282, 117.7280970492111000 ) ;
#48 = DIRECTION ( 'NONE',  ( -0.0000000000000000000, 1.000000000000000000, 0.0000000000000000000 ) ) ;
#49 = EDGE_CURVE ( 'NONE', #12, #220, #1, .T. ) ;
#50 = PRODUCT_DEFINITION_FORMATION_WITH_SPECIFIED_SOURCE ( 'ANY', '', #18, .NOT_KNOWN. ) ;
#51 = SHAPE_REPRESENTATION ( '13801811', ( #104, #329 ), #38 ) ;
#52 =( NAMED_UNIT ( * ) SI_UNIT ( $, .STERADIAN. ) SOLID_ANGLE_UNIT ( ) );
#53 = EDGE_LOOP ( 'NONE', ( #209, #205, #26, #327 ) ) ;
#54 = VERTEX_POINT ( 'NONE', #60 ) ;
#55 = ORIENTED_EDGE ( 'NONE', *, *, #321, .F. ) ;
#56 = DIRECTION ( 'NONE',  ( 0.0000000000000000000, 0.0000000000000000000, 1.000000000000000000 ) ) ;
#57 = AXIS2_PLACEMENT_3D ( 'NONE', #65, #241, #243 ) ;
#58 = EDGE_CURVE ( 'NONE', #229, #261, #141, .T. ) ;
#59 = UNCERTAINTY_MEASURE_WITH_UNIT (LENGTH_MEASURE( 1.000000000000000100E-005 ), #310, 'distance_accuracy_value', 'NONE');
#60 = CARTESIAN_POINT ( 'NONE',  ( -24.00000000000000000, -40.00000000000000700, 0.0000000000000000000 ) ) ;
#61 = ORIENTED_EDGE ( 'NONE', *, *, #79, .T. ) ;
#62 = DIRECTION ( 'NONE',  ( 0.0000000000000000000, -0.6494480483301784400, -0.7604059656000353700 ) ) ;
#63 = EDGE_CURVE ( 'NONE', #255, #229, #80, .T. ) ;
#64 = DIRECTION ( 'NONE',  ( -1.000000000000000000, -0.0000000000000000000, -0.0000000000000000000 ) ) ;
#65 = CARTESIAN_POINT ( 'NONE',  ( 24.00000000000000000, -12.32812178967994400, 184.7887449304985800 ) ) ;
#66 = LINE ( 'NONE', #107, #145 ) ;
#67 = DIRECTION ( 'NONE',  ( 1.000000000000000000, 0.0000000000000000000, 0.0000000000000000000 ) ) ;
#68 = PRODUCT_DEFINITION ( 'UNKNOWN', '', #50, #226 ) ;
#69 = DIRECTION ( 'NONE',  ( -1.000000000000000000, -0.0000000000000000000, -0.0000000000000000000 ) ) ;
#70 = CARTESIAN_POINT ( 'NONE',  ( 0.0000000000000000000, 0.0000000000000000000, 0.0000000000000000000 ) ) ;
#71 = VERTEX_POINT ( 'NONE', #207 ) ;
#72 = DIRECTION ( 'NONE',  ( 0.0000000000000000000, 0.0000000000000000000, 1.000000000000000000 ) ) ;
#73 = CARTESIAN_POINT ( 'NONE',  ( 24.00000000000000000, -11.01153491192776600, 183.6642735074758300 ) ) ;
#74 = SURFACE_SIDE_STYLE ('',( #203 ) ) ;
#75 = VERTEX_POINT ( 'NONE', #160 ) ;
#76 = DIRECTION ( 'NONE',  ( 0.0000000000000000000, 0.0000000000000000000, 1.000000000000000000 ) ) ;
#77 = ORIENTED_EDGE ( 'NONE', *, *, #163, .F. ) ;
#78 = LINE ( 'NONE', #31, #132 ) ;
#79 = EDGE_CURVE ( 'NONE', #20, #108, #78, .T. ) ;
#80 = LINE ( 'NONE', #30, #197 ) ;
#81 = CARTESIAN_POINT ( 'NONE',  ( -24.00000000000000000, 40.00000000000000700, 1.387778780781445700E-014 ) ) ;
#82 = EDGE_LOOP ( 'NONE', ( #153, #254, #134, #280 ) ) ;
#83 = ITEM_DEFINED_TRANSFORMATION ( 'NONE', 'NONE', #329,  #311 ) ;
#84 = AXIS2_PLACEMENT_3D ( 'NONE', #44, #333, #89 ) ;
#85 = ORIENTED_EDGE ( 'NONE', *, *, #49, .T. ) ;
#86 = DIRECTION ( 'NONE',  ( 0.0000000000000000000, -0.0000000000000000000, -1.000000000000000000 ) ) ;
#87 = EDGE_CURVE ( 'NONE', #220, #54, #276, .T. ) ;
#88 = PLANE ( 'NONE',  #84 ) ;
#89 = DIRECTION ( 'NONE',  ( 0.0000000000000000000, 0.0000000000000000000, 1.000000000000000000 ) ) ;
#90 = EDGE_LOOP ( 'NONE', ( #85, #55, #293, #318 ) ) ;
#91 = CARTESIAN_POINT ( 'NONE',  ( 24.00000000000000000, 40.00000000000000700, 1.387778780781445700E-014 ) ) ;
#92 = DIRECTION ( 'NONE',  ( 1.000000000000000000, 0.0000000000000000000, 0.0000000000000000000 ) ) ;
#93 = FILL_AREA_STYLE ('',( #224 ) ) ;
#94 = MANIFOLD_SOLID_BREP ( 'Aufsatz-Linear austragen1', #264 ) ;
#95 = EDGE_CURVE ( 'NONE', #269, #12, #230, .T. ) ;
#96 = APPLICATION_PROTOCOL_DEFINITION ( 'draft international standard', 'automotive_design', 1998, #222 ) ;
#97 = ORIENTED_EDGE ( 'NONE', *, *, #49, .F. ) ;
#98 = DIRECTION ( 'NONE',  ( -1.000000000000000000, -0.0000000000000000000, -0.0000000000000000000 ) ) ;
#99 = ADVANCED_FACE ( 'NONE', ( #42 ), #216, .F. ) ;
#100 = EDGE_LOOP ( 'NONE', ( #97, #285, #325, #271, #210, #186, #239 ) ) ;
#101 = ORIENTED_EDGE ( 'NONE', *, *, #28, .T. ) ;
#102 = CIRCLE ( 'NONE', #130, 117.7280970492110900 ) ;
#103 = LINE ( 'NONE', #211, #308 ) ;
#104 = AXIS2_PLACEMENT_3D ( 'NONE', #168, #223, #21 ) ;
#105 = VERTEX_POINT ( 'NONE', #212 ) ;
#106 = EDGE_CURVE ( 'NONE', #167, #269, #103, .T. ) ;
#107 = CARTESIAN_POINT ( 'NONE',  ( 24.00000000000000000, 40.00000000000000700, 1.387778780781445700E-014 ) ) ;
#108 = VERTEX_POINT ( 'NONE', #161 ) ;
#109 = VECTOR ( 'NONE', #14, 1000.000000000000000 ) ;
#110 = DIRECTION ( 'NONE',  ( 0.0000000000000000000, 0.0000000000000000000, 1.000000000000000000 ) ) ;
#111 = VECTOR ( 'NONE', #136, 1000.000000000000000 ) ;
#112 = AXIS2_PLACEMENT_3D ( 'NONE', #215, #192, #266 ) ;
#113 = LINE ( 'NONE', #251, #139 ) ;
#114 = AXIS2_PLACEMENT_3D ( 'NONE', #290, #234, #322 ) ;
#115 = PLANE ( 'NONE',  #112 ) ;
#116 = PLANE ( 'NONE',  #206 ) ;
#117 = ORIENTED_EDGE ( 'NONE', *, *, #24, .F. ) ;
#118 = CARTESIAN_POINT ( 'NONE',  ( 24.00000000000000000, -2.594670308517801800, 196.1851523739949200 ) ) ;
#119 = CARTESIAN_POINT ( 'NONE',  ( 24.00000000000000000, -12.32812178967994400, 184.7887449304985800 ) ) ;
#120 =( NAMED_UNIT ( * ) PLANE_ANGLE_UNIT ( ) SI_UNIT ( $, .RADIAN. ) );
#121 = EDGE_LOOP ( 'NONE', ( #302, #34, #152, #101 ) ) ;
#122 = CARTESIAN_POINT ( 'NONE',  ( 0.0000000000000000000, 0.0000000000000000000, 0.0000000000000000000 ) ) ;
#123 = ADVANCED_FACE ( 'NONE', ( #316 ), #115, .F. ) ;
#124 = AXIS2_PLACEMENT_3D ( 'NONE', #217, #190, #245 ) ;
#125 = APPLICATION_CONTEXT ( 'automotive_design' ) ;
#126 = ADVANCED_FACE ( 'NONE', ( #2 ), #47, .T. ) ;
#127 = VECTOR ( 'NONE', #295, 1000.000000000000000 ) ;
#128 = EDGE_CURVE ( 'NONE', #75, #255, #246, .T. ) ;
#129 = EDGE_LOOP ( 'NONE', ( #291, #287, #235, #138 ) ) ;
#130 = AXIS2_PLACEMENT_3D ( 'NONE', #334, #67, #273 ) ;
#131 = STYLED_ITEM ( 'NONE', ( #176 ), #94 ) ;
#132 = VECTOR ( 'NONE', #110, 1000.000000000000000 ) ;
#133 = PRESENTATION_STYLE_ASSIGNMENT (( #314 ) ) ;
#134 = ORIENTED_EDGE ( 'NONE', *, *, #63, .F. ) ;
#135 = PRODUCT_DEFINITION_FORMATION_WITH_SPECIFIED_SOURCE ( 'ANY', '', #11, .NOT_KNOWN. ) ;
#136 = DIRECTION ( 'NONE',  ( 0.0000000000000000000, 0.7604059656000429200, -0.6494480483301696700 ) ) ;
#137 = CARTESIAN_POINT ( 'NONE',  ( -24.00000000000000000, -40.00000000000000700, 9.999999999999994700 ) ) ;
#138 = ORIENTED_EDGE ( 'NONE', *, *, #143, .T. ) ;
#139 = VECTOR ( 'NONE', #98, 1000.000000000000000 ) ;
#140 =( LENGTH_UNIT ( ) NAMED_UNIT ( * ) SI_UNIT ( .MILLI., .METRE. ) );
#141 = LINE ( 'NONE', #236, #15 ) ;
#142 = CARTESIAN_POINT ( 'NONE',  ( -24.00000000000000000, -77.72809704921107300, 105.5492156765163400 ) ) ;
#143 = EDGE_CURVE ( 'NONE', #71, #108, #242, .T. ) ;
#144 = CARTESIAN_POINT ( 'NONE',  ( 24.00000000000000000, -2.594670308517788000, 196.1851523739949000 ) ) ;
#145 = VECTOR ( 'NONE', #324, 1000.000000000000000 ) ;
#146 = APPLICATION_PROTOCOL_DEFINITION ( 'draft international standard', 'automotive_design', 1998, #125 ) ;
#147 = PRODUCT_CONTEXT ( 'NONE', #125, 'mechanical' ) ;
#148 = CARTESIAN_POINT ( 'NONE',  ( 24.00000000000000000, -40.00000000000000700, 9.999999999999994700 ) ) ;
#149 = PRESENTATION_LAYER_ASSIGNMENT (  '', '', ( #131 ) ) ;
#150 =( NAMED_UNIT ( * ) SI_UNIT ( $, .STERADIAN. ) SOLID_ANGLE_UNIT ( ) );
#151 = PLANE ( 'NONE',  #171 ) ;
#152 = ORIENTED_EDGE ( 'NONE', *, *, #58, .F. ) ;
#153 = ORIENTED_EDGE ( 'NONE', *, *, #87, .T. ) ;
#154 = CARTESIAN_POINT ( 'NONE',  ( 24.00000000000000000, -12.32812178967994400, 184.7887449304985800 ) ) ;
#155 = PLANE ( 'NONE',  #114 ) ;
#156 =( GEOMETRIC_REPRESENTATION_CONTEXT ( 3 ) GLOBAL_UNCERTAINTY_ASSIGNED_CONTEXT ( ( #59 ) ) GLOBAL_UNIT_ASSIGNED_CONTEXT ( ( #310, #307, #248 ) ) REPRESENTATION_CONTEXT ( 'NONE', 'WORKASPACE' ) );
#157 = SHAPE_REPRESENTATION ( 'Planungsmodell_Auslauf-+-09.11.81.100.90-1', ( #311 ), #156 ) ;
#158 = ORIENTED_EDGE ( 'NONE', *, *, #163, .T. ) ;
#159 = ADVANCED_BREP_SHAPE_REPRESENTATION ( '', ( #94, #311 ), #156 ) ;
#160 = CARTESIAN_POINT ( 'NONE',  ( 24.00000000000000000, -11.01153491192776600, 183.6642735074758300 ) ) ;
#161 = CARTESIAN_POINT ( 'NONE',  ( -24.00000000000000000, 40.00000000000000700, 105.5492156765163500 ) ) ;
#162 = VECTOR ( 'NONE', #296, 1000.000000000000000 ) ;
#163 = EDGE_CURVE ( 'NONE', #261, #71, #257, .T. ) ;
#164 = PLANE ( 'NONE',  #252 ) ;
#165 = DIRECTION ( 'NONE',  ( 0.0000000000000000000, -1.000000000000000000, 0.0000000000000000000 ) ) ;
#166 = CARTESIAN_POINT ( 'NONE',  ( 24.00000000000000000, 40.00000000000000700, 1.387778780781445700E-014 ) ) ;
#167 = VERTEX_POINT ( 'NONE', #330 ) ;
#168 = CARTESIAN_POINT ( 'NONE',  ( 0.0000000000000000000, 0.0000000000000000000, 0.0000000000000000000 ) ) ;
#169 = APPLICATION_CONTEXT ( 'automotive_design' ) ;
#170 = DIRECTION ( 'NONE',  ( 1.000000000000000000, 0.0000000000000000000, 0.0000000000000000000 ) ) ;
#171 = AXIS2_PLACEMENT_3D ( 'NONE', #339, #48, #19 ) ;
#172 = UNCERTAINTY_MEASURE_WITH_UNIT (LENGTH_MEASURE( 1.000000000000000100E-005 ), #277, 'distance_accuracy_value', 'NONE');
#173 = ORIENTED_EDGE ( 'NONE', *, *, #214, .T. ) ;
#174 = VECTOR ( 'NONE', #299, 1000.000000000000000 ) ;
#175 = ADVANCED_FACE ( 'NONE', ( #35 ), #116, .T. ) ;
#176 = PRESENTATION_STYLE_ASSIGNMENT (( #263 ) ) ;
#177 = LINE ( 'NONE', #73, #328 ) ;
#178 = MECHANICAL_DESIGN_GEOMETRIC_PRESENTATION_REPRESENTATION (  '', ( #191 ), #244 ) ;
#179 =( GEOMETRIC_REPRESENTATION_CONTEXT ( 3 ) GLOBAL_UNCERTAINTY_ASSIGNED_CONTEXT ( ( #286 ) ) GLOBAL_UNIT_ASSIGNED_CONTEXT ( ( #140, #326, #187 ) ) REPRESENTATION_CONTEXT ( 'NONE', 'WORKASPACE' ) );
#180 = CARTESIAN_POINT ( 'NONE',  ( 24.00000000000000000, -40.00000000000000700, 0.0000000000000000000 ) ) ;
#181 = ORIENTED_EDGE ( 'NONE', *, *, #297, .T. ) ;
#182 = PRODUCT_DEFINITION_CONTEXT ( 'detailed design', #222, 'design' ) ;
#183 = VERTEX_POINT ( 'NONE', #118 ) ;
#184 = SHAPE_REPRESENTATION_RELATIONSHIP ( 'NONE' , 'NONE' ,  #157, #159 ) ;
#185 = CARTESIAN_POINT ( 'NONE',  ( -24.00000000000000000, -77.72809704921107300, 105.5492156765163400 ) ) ;
#186 = ORIENTED_EDGE ( 'NONE', *, *, #9, .F. ) ;
#187 =( NAMED_UNIT ( * ) SI_UNIT ( $, .STERADIAN. ) SOLID_ANGLE_UNIT ( ) );
#188 = VECTOR ( 'NONE', #275, 1000.000000000000000 ) ;
#189 = PRODUCT_RELATED_PRODUCT_CATEGORY ( 'part', '', ( #11 ) ) ;
#190 = DIRECTION ( 'NONE',  ( -1.000000000000000000, -0.0000000000000000000, 0.0000000000000000000 ) ) ;
#191 = STYLED_ITEM ( 'NONE', ( #133 ), #159 ) ;
#192 = DIRECTION ( 'NONE',  ( 0.0000000000000000000, -1.734723475976806800E-016, 1.000000000000000000 ) ) ;
#193 = SURFACE_STYLE_FILL_AREA ( #8 ) ;
#194 = CARTESIAN_POINT ( 'NONE',  ( 24.00000000000000000, 40.00000000000000700, 105.5492156765163500 ) ) ;
#195 = DIRECTION ( 'NONE',  ( 0.0000000000000000000, 0.0000000000000000000, -1.000000000000000000 ) ) ;
#196 = PRODUCT_DEFINITION_SHAPE ( 'NONE', 'NONE',  #267 ) ;
#197 = VECTOR ( 'NONE', #5, 1000.000000000000000 ) ;
#198 = SHAPE_DEFINITION_REPRESENTATION ( #196, #51 ) ;
#199 = ORIENTED_EDGE ( 'NONE', *, *, #331, .F. ) ;
#200 = APPLICATION_PROTOCOL_DEFINITION ( 'draft international standard', 'automotive_design', 1998, #278 ) ;
#201 = MECHANICAL_DESIGN_GEOMETRIC_PRESENTATION_REPRESENTATION (  '', ( #131 ), #179 ) ;
#202 = VECTOR ( 'NONE', #289, 1000.000000000000000 ) ;
#203 = SURFACE_STYLE_FILL_AREA ( #93 ) ;
#204 = ADVANCED_FACE ( 'NONE', ( #43 ), #250, .F. ) ;
#205 = ORIENTED_EDGE ( 'NONE', *, *, #214, .F. ) ;
#206 = AXIS2_PLACEMENT_3D ( 'NONE', #142, #268, #41 ) ;
#207 = CARTESIAN_POINT ( 'NONE',  ( 24.00000000000000000, 40.00000000000000700, 105.5492156765163500 ) ) ;
#208 = ORIENTED_EDGE ( 'NONE', *, *, #95, .T. ) ;
#209 = ORIENTED_EDGE ( 'NONE', *, *, #106, .T. ) ;
#210 = ORIENTED_EDGE ( 'NONE', *, *, #79, .F. ) ;
#211 = CARTESIAN_POINT ( 'NONE',  ( -24.00000000000000000, -2.594670308517788000, 196.1851523739949000 ) ) ;
#212 = CARTESIAN_POINT ( 'NONE',  ( 24.00000000000000000, -12.32812178967994400, 184.7887449304985800 ) ) ;
#213 = CARTESIAN_POINT ( 'NONE',  ( -24.00000000000000000, -40.00000000000000700, 9.999999999999994700 ) ) ;
#214 = EDGE_CURVE ( 'NONE', #105, #269, #317, .T. ) ;
#215 = CARTESIAN_POINT ( 'NONE',  ( 24.00000000000000000, -40.00000000000000700, 0.0000000000000000000 ) ) ;
#216 = PLANE ( 'NONE',  #57 ) ;
#217 = CARTESIAN_POINT ( 'NONE',  ( 24.00000000000000000, -77.72809704921107300, 105.5492156765163400 ) ) ;
#218 = DIRECTION ( 'NONE',  ( 0.0000000000000000000, 0.0000000000000000000, 1.000000000000000000 ) ) ;
#219 = LINE ( 'NONE', #154, #111 ) ;
#220 = VERTEX_POINT ( 'NONE', #213 ) ;
#221 = DIRECTION ( 'NONE',  ( -1.000000000000000000, -0.0000000000000000000, -0.0000000000000000000 ) ) ;
#222 = APPLICATION_CONTEXT ( 'automotive_design' ) ;
#223 = DIRECTION ( 'NONE',  ( 0.0000000000000000000, 0.0000000000000000000, 1.000000000000000000 ) ) ;
#224 = FILL_AREA_STYLE_COLOUR ( '', #309 ) ;
#225 = PRESENTATION_LAYER_ASSIGNMENT (  '', '', ( #191 ) ) ;
#226 = PRODUCT_DEFINITION_CONTEXT ( 'detailed design', #169, 'design' ) ;
#227 = ORIENTED_EDGE ( 'NONE', *, *, #63, .T. ) ;
#228 = CIRCLE ( 'NONE', #265, 117.7280970492110900 ) ;
#229 = VERTEX_POINT ( 'NONE', #301 ) ;
#230 = LINE ( 'NONE', #294, #162 ) ;
#231 = FACE_OUTER_BOUND ( 'NONE', #283, .T. ) ;
#232 = CARTESIAN_POINT ( 'NONE',  ( -24.00000000000000000, -11.01153491192776600, 183.6642735074758300 ) ) ;
#233 = AXIS2_PLACEMENT_3D ( 'NONE', #185, #33, #56 ) ;
#234 = DIRECTION ( 'NONE',  ( 0.0000000000000000000, 0.7604059656000353700, -0.6494480483301784400 ) ) ;
#235 = ORIENTED_EDGE ( 'NONE', *, *, #297, .F. ) ;
#236 = CARTESIAN_POINT ( 'NONE',  ( 24.00000000000000000, -40.00000000000000700, 0.0000000000000000000 ) ) ;
#237 = ORIENTED_EDGE ( 'NONE', *, *, #24, .T. ) ;
#238 = LINE ( 'NONE', #144, #259 ) ;
#239 = ORIENTED_EDGE ( 'NONE', *, *, #87, .F. ) ;
#240 = FILL_AREA_STYLE_COLOUR ( '', #332 ) ;
#241 = DIRECTION ( 'NONE',  ( -0.0000000000000000000, 0.6494480483301695600, 0.7604059656000429200 ) ) ;
#242 = LINE ( 'NONE', #194, #174 ) ;
#243 = DIRECTION ( 'NONE',  ( 0.0000000000000000000, -0.7604059656000429200, 0.6494480483301695600 ) ) ;
#244 =( GEOMETRIC_REPRESENTATION_CONTEXT ( 3 ) GLOBAL_UNCERTAINTY_ASSIGNED_CONTEXT ( ( #172 ) ) GLOBAL_UNIT_ASSIGNED_CONTEXT ( ( #277, #120, #52 ) ) REPRESENTATION_CONTEXT ( 'NONE', 'WORKASPACE' ) );
#245 = DIRECTION ( 'NONE',  ( 0.0000000000000000000, 0.0000000000000000000, 1.000000000000000000 ) ) ;
#246 = CIRCLE ( 'NONE', #124, 102.7280970492110700 ) ;
#247 = CARTESIAN_POINT ( 'NONE',  ( 24.00000000000000000, -77.72809704921107300, 105.5492156765163400 ) ) ;
#248 =( NAMED_UNIT ( * ) SI_UNIT ( $, .STERADIAN. ) SOLID_ANGLE_UNIT ( ) );
#249 =( NAMED_UNIT ( * ) PLANE_ANGLE_UNIT ( ) SI_UNIT ( $, .RADIAN. ) );
#250 = CYLINDRICAL_SURFACE ( 'NONE', #22, 102.7280970492110700 ) ;
#251 = CARTESIAN_POINT ( 'NONE',  ( 24.00000000000000000, -2.594670308517801800, 196.1851523739949200 ) ) ;
#252 = AXIS2_PLACEMENT_3D ( 'NONE', #10, #165, #86 ) ;
#253 =( REPRESENTATION_RELATIONSHIP ('NONE','NONE', #51, #157 ) REPRESENTATION_RELATIONSHIP_WITH_TRANSFORMATION ( #83 )SHAPE_REPRESENTATION_RELATIONSHIP( ) );
#254 = ORIENTED_EDGE ( 'NONE', *, *, #28, .F. ) ;
#255 = VERTEX_POINT ( 'NONE', #335 ) ;
#256 = PRODUCT_DEFINITION_SHAPE ( 'NONE', 'NONE',  #342 ) ;
#257 = LINE ( 'NONE', #91, #188 ) ;
#258 = VECTOR ( 'NONE', #262, 1000.000000000000000 ) ;
#259 = VECTOR ( 'NONE', #300, 1000.000000000000200 ) ;
#260 = ORIENTED_EDGE ( 'NONE', *, *, #58, .T. ) ;
#261 = VERTEX_POINT ( 'NONE', #166 ) ;
#262 = DIRECTION ( 'NONE',  ( -1.000000000000000000, -0.0000000000000000000, -0.0000000000000000000 ) ) ;
#263 = SURFACE_STYLE_USAGE ( .BOTH. , #36 ) ;
#264 = CLOSED_SHELL ( 'NONE', ( #204, #319, #123, #284, #126, #25, #99, #315, #175 ) ) ;
#265 = AXIS2_PLACEMENT_3D ( 'NONE', #13, #270, #195 ) ;
#266 = DIRECTION ( 'NONE',  ( 0.0000000000000000000, -1.000000000000000000, -1.734723475976806800E-016 ) ) ;
#267 = PRODUCT_DEFINITION ( 'UNKNOWN', '', #135, #182 ) ;
#268 = DIRECTION ( 'NONE',  ( -1.000000000000000000, -0.0000000000000000000, 0.0000000000000000000 ) ) ;
#269 = VERTEX_POINT ( 'NONE', #305 ) ;
#270 = DIRECTION ( 'NONE',  ( 1.000000000000000000, 0.0000000000000000000, 0.0000000000000000000 ) ) ;
#271 = ORIENTED_EDGE ( 'NONE', *, *, #313, .F. ) ;
#272 = UNCERTAINTY_MEASURE_WITH_UNIT (LENGTH_MEASURE( 1.000000000000000100E-005 ), #338, 'distance_accuracy_value', 'NONE');
#273 = DIRECTION ( 'NONE',  ( 0.0000000000000000000, 0.0000000000000000000, -1.000000000000000000 ) ) ;
#274 = PRODUCT_RELATED_PRODUCT_CATEGORY ( 'part', '', ( #18 ) ) ;
#275 = DIRECTION ( 'NONE',  ( 0.0000000000000000000, 0.0000000000000000000, 1.000000000000000000 ) ) ;
#276 = LINE ( 'NONE', #137, #127 ) ;
#277 =( LENGTH_UNIT ( ) NAMED_UNIT ( * ) SI_UNIT ( .MILLI., .METRE. ) );
#278 = APPLICATION_CONTEXT ( 'automotive_design' ) ;
#279 = PRODUCT_CONTEXT ( 'NONE', #278, 'mechanical' ) ;
#280 = ORIENTED_EDGE ( 'NONE', *, *, #321, .T. ) ;
#281 = DIRECTION ( 'NONE',  ( 1.000000000000000000, 0.0000000000000000000, 0.0000000000000000000 ) ) ;
#282 = AXIS2_PLACEMENT_3D ( 'NONE', #39, #69, #218 ) ;
#283 = EDGE_LOOP ( 'NONE', ( #17, #227, #260, #158, #181, #45, #237 ) ) ;
#284 = ADVANCED_FACE ( 'NONE', ( #304 ), #164, .F. ) ;
#285 = ORIENTED_EDGE ( 'NONE', *, *, #95, .F. ) ;
#286 = UNCERTAINTY_MEASURE_WITH_UNIT (LENGTH_MEASURE( 1.000000000000000100E-005 ), #140, 'distance_accuracy_value', 'NONE');
#287 = ORIENTED_EDGE ( 'NONE', *, *, #337, .F. ) ;
#288 = EDGE_CURVE ( 'NONE', #183, #105, #238, .T. ) ;
#289 = DIRECTION ( 'NONE',  ( 0.0000000000000000000, 1.000000000000000000, 1.734723475976806800E-016 ) ) ;
#290 = CARTESIAN_POINT ( 'NONE',  ( 24.00000000000000000, -2.594670308517788000, 196.1851523739949000 ) ) ;
#291 = ORIENTED_EDGE ( 'NONE', *, *, #313, .T. ) ;
#292 = LINE ( 'NONE', #148, #320 ) ;
#293 = ORIENTED_EDGE ( 'NONE', *, *, #128, .F. ) ;
#294 = CARTESIAN_POINT ( 'NONE',  ( -24.00000000000000000, -12.32812178967994400, 184.7887449304985800 ) ) ;
#295 = DIRECTION ( 'NONE',  ( 0.0000000000000000000, 0.0000000000000000000, -1.000000000000000000 ) ) ;
#296 = DIRECTION ( 'NONE',  ( 0.0000000000000000000, 0.7604059656000429200, -0.6494480483301696700 ) ) ;
#297 = EDGE_CURVE ( 'NONE', #71, #183, #102, .T. ) ;
#298 = SHAPE_DEFINITION_REPRESENTATION ( #303, #157 ) ;
#299 = DIRECTION ( 'NONE',  ( -1.000000000000000000, -0.0000000000000000000, -0.0000000000000000000 ) ) ;
#300 = DIRECTION ( 'NONE',  ( 0.0000000000000000000, -0.6494480483301784400, -0.7604059656000353700 ) ) ;
#301 = CARTESIAN_POINT ( 'NONE',  ( 24.00000000000000000, -40.00000000000000700, 0.0000000000000000000 ) ) ;
#302 = ORIENTED_EDGE ( 'NONE', *, *, #9, .T. ) ;
#303 = PRODUCT_DEFINITION_SHAPE ( 'NONE', 'NONE',  #68 ) ;
#304 = FACE_OUTER_BOUND ( 'NONE', #32, .T. ) ;
#305 = CARTESIAN_POINT ( 'NONE',  ( -24.00000000000000000, -12.32812178967994400, 184.7887449304985800 ) ) ;
#306 = CARTESIAN_POINT ( 'NONE',  ( 0.0000000000000000000, 0.0000000000000000000, 0.0000000000000000000 ) ) ;
#307 =( NAMED_UNIT ( * ) PLANE_ANGLE_UNIT ( ) SI_UNIT ( $, .RADIAN. ) );
#308 = VECTOR ( 'NONE', #62, 1000.000000000000200 ) ;
#309 = COLOUR_RGB ( '',0.7529411764705882200, 0.7529411764705882200, 0.7529411764705882200 ) ;
#310 =( LENGTH_UNIT ( ) NAMED_UNIT ( * ) SI_UNIT ( .MILLI., .METRE. ) );
#311 = AXIS2_PLACEMENT_3D ( 'NONE', #70, #72, #92 ) ;
#312 = APPLICATION_PROTOCOL_DEFINITION ( 'draft international standard', 'automotive_design', 1998, #169 ) ;
#313 = EDGE_CURVE ( 'NONE', #108, #167, #228, .T. ) ;
#314 = SURFACE_STYLE_USAGE ( .BOTH. , #74 ) ;
#315 = ADVANCED_FACE ( 'NONE', ( #231 ), #88, .F. ) ;
#316 = FACE_OUTER_BOUND ( 'NONE', #121, .T. ) ;
#317 = LINE ( 'NONE', #119, #109 ) ;
#318 = ORIENTED_EDGE ( 'NONE', *, *, #331, .T. ) ;
#319 = ADVANCED_FACE ( 'NONE', ( #341 ), #151, .F. ) ;
#320 = VECTOR ( 'NONE', #23, 1000.000000000000000 ) ;
#321 = EDGE_CURVE ( 'NONE', #255, #220, #292, .T. ) ;
#322 = DIRECTION ( 'NONE',  ( 0.0000000000000000000, 0.6494480483301784400, 0.7604059656000353700 ) ) ;
#323 = CARTESIAN_POINT ( 'NONE',  ( -24.00000000000000000, -40.00000000000000700, 0.0000000000000000000 ) ) ;
#324 = DIRECTION ( 'NONE',  ( -1.000000000000000000, -0.0000000000000000000, -0.0000000000000000000 ) ) ;
#325 = ORIENTED_EDGE ( 'NONE', *, *, #106, .F. ) ;
#326 =( NAMED_UNIT ( * ) PLANE_ANGLE_UNIT ( ) SI_UNIT ( $, .RADIAN. ) );
#327 = ORIENTED_EDGE ( 'NONE', *, *, #337, .T. ) ;
#328 = VECTOR ( 'NONE', #221, 1000.000000000000000 ) ;
#329 = AXIS2_PLACEMENT_3D ( 'NONE', #306, #336, #170 ) ;
#330 = CARTESIAN_POINT ( 'NONE',  ( -24.00000000000000000, -2.594670308517801800, 196.1851523739949200 ) ) ;
#331 = EDGE_CURVE ( 'NONE', #75, #12, #177, .T. ) ;
#332 = COLOUR_RGB ( '',0.7529411764705882200, 0.7529411764705882200, 0.7529411764705882200 ) ;
#333 = DIRECTION ( 'NONE',  ( -1.000000000000000000, -0.0000000000000000000, 0.0000000000000000000 ) ) ;
#334 = CARTESIAN_POINT ( 'NONE',  ( 24.00000000000000000, -77.72809704921105800, 105.5492156765163300 ) ) ;
#335 = CARTESIAN_POINT ( 'NONE',  ( 24.00000000000000000, -40.00000000000000700, 9.999999999999994700 ) ) ;
#336 = DIRECTION ( 'NONE',  ( 0.0000000000000000000, 0.0000000000000000000, 1.000000000000000000 ) ) ;
#337 = EDGE_CURVE ( 'NONE', #183, #167, #113, .T. ) ;
#338 =( LENGTH_UNIT ( ) NAMED_UNIT ( * ) SI_UNIT ( .MILLI., .METRE. ) );
#339 = CARTESIAN_POINT ( 'NONE',  ( 24.00000000000000000, -40.00000000000000700, 9.999999999999994700 ) ) ;
#340 = LINE ( 'NONE', #180, #258 ) ;
#341 = FACE_OUTER_BOUND ( 'NONE', #82, .T. ) ;
#342 = NEXT_ASSEMBLY_USAGE_OCCURRENCE ( 'NAUO1', ' ', ' ', #267, #68, $ ) ;
ENDSEC;
END-ISO-10303-21;
