  0
SECTION
  2
HEADER
  9
$ACADVER
  1
AC1009
  9
$DWGCODEPAGE
  3
ansi_1252
  9
$INSBASE
 10
0.0
 20
0.0
 30
0.0
  9
$EXTMIN
 10
1.000000000000000E+20
 20
1.000000000000000E+20
 30
1.000000000000000E+20
  9
$EXTMAX
 10
-1.000000000000000E+20
 20
-1.000000000000000E+20
 30
-1.000000000000000E+20
  9
$LIMMIN
 10
0.0
 20
0.0
  9
$LIMMAX
 10
12.0
 20
9.0
  9
$ORTHOMODE
 70
     0
  9
$REGENMODE
 70
     1
  9
$FILLMODE
 70
     1
  9
$QTEXTMODE
 70
     0
  9
$MIRRTEXT
 70
     1
  9
$DRAGMODE
 70
     2
  9
$LTSCALE
 40
1.0
  9
$OSMODE
 70
    37
  9
$ATTMODE
 70
     1
  9
$TEXTSIZE
 40
0.2
  9
$TRACEWID
 40
0.05
  9
$TEXTSTYLE
  7
STANDARD
  9
$CLAYER
  8
0
  9
$CELTYPE
  6
BYLAYER
  9
$CECOLOR
 62
   256
  9
$DIMSCALE
 40
1.0
  9
$DIMASZ
 40
0.18
  9
$DIMEXO
 40
0.0625
  9
$DIMDLI
 40
0.38
  9
$DIMRND
 40
0.0
  9
$DIMDLE
 40
0.0
  9
$DIMEXE
 40
0.18
  9
$DIMTP
 40
0.0
  9
$DIMTM
 40
0.0
  9
$DIMTXT
 40
0.18
  9
$DIMCEN
 40
0.09
  9
$DIMTSZ
 40
0.0
  9
$DIMTOL
 70
     0
  9
$DIMLIM
 70
     0
  9
$DIMTIH
 70
     1
  9
$DIMTOH
 70
     1
  9
$DIMSE1
 70
     0
  9
$DIMSE2
 70
     0
  9
$DIMTAD
 70
     0
  9
$DIMZIN
 70
     0
  9
$DIMBLK
  1

  9
$DIMASO
 70
     1
  9
$DIMSHO
 70
     1
  9
$DIMPOST
  1

  9
$DIMAPOST
  1

  9
$DIMALT
 70
     0
  9
$DIMALTD
 70
     2
  9
$DIMALTF
 40
25.4
  9
$DIMLFAC
 40
1.0
  9
$DIMTOFL
 70
     0
  9
$DIMTVP
 40
0.0
  9
$DIMTIX
 70
     0
  9
$DIMSOXD
 70
     0
  9
$DIMSAH
 70
     0
  9
$DIMBLK1
  1

  9
$DIMBLK2
  1

  9
$DIMSTYLE
  2
STANDARD
  9
$DIMCLRD
 70
     0
  9
$DIMCLRE
 70
     0
  9
$DIMCLRT
 70
     0
  9
$DIMTFAC
 40
1.0
  9
$DIMGAP
 40
0.09
  9
$LUNITS
 70
     2
  9
$LUPREC
 70
     4
  9
$SKETCHINC
 40
0.1
  9
$FILLETRAD
 40
0.5
  9
$AUNITS
 70
     0
  9
$AUPREC
 70
     0
  9
$MENU
  1
.
  9
$ELEVATION
 40
0.0
  9
$PELEVATION
 40
0.0
  9
$THICKNESS
 40
0.0
  9
$LIMCHECK
 70
     0
  9
$CHAMFERA
 40
0.5
  9
$CHAMFERB
 40
0.5
  9
$SKPOLY
 70
     0
  9
$TDCREATE
 40
2455348.783047593
  9
$TDUPDATE
 40
2455348.783047593
  9
$TDINDWG
 40
0.0000000116
  9
$TDUSRTIMER
 40
0.0000000116
  9
$USRTIMER
 70
     1
  9
$ANGBASE
 50
0.0
  9
$ANGDIR
 70
     0
  9
$PDMODE
 70
     0
  9
$PDSIZE
 40
0.0
  9
$PLINEWID
 40
0.0
  9
$COORDS
 70
     1
  9
$SPLFRAME
 70
     0
  9
$SPLINETYPE
 70
     6
  9
$SPLINESEGS
 70
     8
  9
$ATTDIA
 70
     0
  9
$ATTREQ
 70
     1
  9
$HANDLING
 70
     1
  9
$HANDSEED
  5
ADE
  9
$SURFTAB1
 70
     6
  9
$SURFTAB2
 70
     6
  9
$SURFTYPE
 70
     6
  9
$SURFU
 70
     6
  9
$SURFV
 70
     6
  9
$UCSNAME
  2

  9
$UCSORG
 10
0.0
 20
0.0
 30
0.0
  9
$UCSXDIR
 10
1.0
 20
0.0
 30
0.0
  9
$UCSYDIR
 10
0.0
 20
1.0
 30
0.0
  9
$PUCSNAME
  2

  9
$PUCSORG
 10
0.0
 20
0.0
 30
0.0
  9
$PUCSXDIR
 10
1.0
 20
0.0
 30
0.0
  9
$PUCSYDIR
 10
0.0
 20
1.0
 30
0.0
  9
$USERI1
 70
     0
  9
$USERI2
 70
     0
  9
$USERI3
 70
     0
  9
$USERI4
 70
     0
  9
$USERI5
 70
     0
  9
$USERR1
 40
0.0
  9
$USERR2
 40
0.0
  9
$USERR3
 40
0.0
  9
$USERR4
 40
0.0
  9
$USERR5
 40
0.0
  9
$WORLDVIEW
 70
     1
  9
$SHADEDGE
 70
     3
  9
$SHADEDIF
 70
    70
  9
$TILEMODE
 70
     1
  9
$MAXACTVP
 70
    64
  9
$PLIMCHECK
 70
     0
  9
$PEXTMIN
 10
1.000000000000000E+20
 20
1.000000000000000E+20
 30
1.000000000000000E+20
  9
$PEXTMAX
 10
-1.000000000000000E+20
 20
-1.000000000000000E+20
 30
-1.000000000000000E+20
  9
$PLIMMIN
 10
0.0
 20
0.0
  9
$PLIMMAX
 10
12.0
 20
9.0
  9
$UNITMODE
 70
     0
  9
$VISRETAIN
 70
     1
  9
$PLINEGEN
 70
     0
  9
$PSLTSCALE
 70
     1
  0
ENDSEC
  0
SECTION
  2
TABLES
  0
TABLE
  2
VPORT
 70
     1
  0
VPORT
  2
*ACTIVE
 70
     0
 10
0.0
 20
0.0
 11
1.0
 21
1.0
 12
0.0
 22
0.0
 13
0.0
 23
0.0
 14
0.5
 24
0.5
 15
0.5
 25
0.5
 16
530.1857299804688
 26
302.9371948242188
 36
530.1857299804688
 17
102.6585083007812
 27
-20.64199829101562
 37
160.7664794921875
 40
336.6339772054828
 41
1.972972972850329
 42
50.0
 43
0.0
 44
0.0
 50
0.0
 51
0.0
 71
     0
 72
   100
 73
     1
 74
     3
 75
     0
 76
     0
 77
     0
 78
     0
  0
ENDTAB
  0
TABLE
  2
LTYPE
 70
     1
  0
LTYPE
  2
CONTINUOUS
 70
     0
  3
Solid line
 72
    65
 73
     0
 40
0.0
  0
ENDTAB
  0
TABLE
  2
LAYER
 70
     2
  0
LAYER
  2
0
 70
     0
 62
     7
  6
CONTINUOUS
  0
LAYER
  2
LAYER_1
 70
     0
 62
     7
  6
CONTINUOUS
  0
ENDTAB
  0
TABLE
  2
STYLE
 70
     1
  0
STYLE
  2
STANDARD
 70
     0
 40
0.0
 41
1.0
 50
0.0
 71
     0
 42
0.2
  3
txt
  4

  0
ENDTAB
  0
TABLE
  2
VIEW
 70
     0
  0
ENDTAB
  0
TABLE
  2
UCS
 70
     0
  0
ENDTAB
  0
TABLE
  2
APPID
 70
     1
  0
APPID
  2
ACAD
 70
     0
  0
ENDTAB
  0
TABLE
  2
DIMSTYLE
 70
     1
  0
DIMSTYLE
  2
STANDARD
 70
     0
  3

  4

  5

  6

  7

 40
1.0
 41
0.18
 42
0.0625
 43
0.38
 44
0.18
 45
0.0
 46
0.0
 47
0.0
 48
0.0
140
0.18
141
0.09
142
0.0
143
25.4
144
1.0
145
0.0
146
1.0
147
0.09
 71
     0
 72
     0
 73
     1
 74
     1
 75
     0
 76
     0
 77
     0
 78
     0
170
     0
171
     2
172
     0
173
     0
174
     0
175
     0
176
     0
177
     0
178
     0
  0
ENDTAB
  0
ENDSEC
  0
SECTION
  2
BLOCKS
  0
BLOCK
  8
0
  2
$MODEL_SPACE
 70
     0
 10
0.0
 20
0.0
 30
0.0
  3
$MODEL_SPACE
  1

  0
ENDBLK
  5
21
  8
0
  0
BLOCK
 67
     1
  8
0
  2
$PAPER_SPACE
 70
     0
 10
0.0
 20
0.0
 30
0.0
  3
$PAPER_SPACE
  1

  0
ENDBLK
  5
1D
 67
     1
  8
0
  0
BLOCK
  8
0
  2
E3_NODE
 70
     0
 10
0.0
 20
0.0
 30
0.0
  3
E3_NODE
  1

  0
POLYLINE
  5
3C
  8
0
 62
     9
 66
     1
 10
0.0
 20
0.0
 30
0.0
 70
    64
 71
     8
 72
     6
  0
VERTEX
  5
3D
  8
0
 10
-9.545999526977539
 20
-45.95399856567383
 30
76.0
 70
   192
  0
VERTEX
  5
3E
  8
0
 10
13.5
 20
-55.5
 30
76.0
 70
   192
  0
VERTEX
  5
3F
  8
0
 10
9.545999526977539
 20
-45.95399856567383
 30
76.0
 70
   192
  0
VERTEX
  5
40
  8
0
 10
9.545999526977539
 20
-65.0459976196289
 30
76.0
 70
   192
  0
VERTEX
  5
41
  8
0
 10
-13.5
 20
-55.5
 30
76.0
 70
   192
  0
VERTEX
  5
42
  8
0
 10
-9.545999526977539
 20
-65.0459976196289
 30
76.0
 70
   192
  0
VERTEX
  5
43
  8
0
 10
0.0
 20
-69.0
 30
76.0
 70
   192
  0
VERTEX
  5
44
  8
0
 10
0.0
 20
-42.0
 30
76.0
 70
   192
  0
VERTEX
  5
45
  8
0
 62
     9
 10
0.0
 20
0.0
 30
0.0
 70
   128
 71
     3
 72
     2
 73
     1
  0
VERTEX
  5
46
  8
0
 62
     9
 10
0.0
 20
0.0
 30
0.0
 70
   128
 71
     6
 72
     5
 73
     4
  0
VERTEX
  5
47
  8
0
 62
     9
 10
0.0
 20
0.0
 30
0.0
 70
   128
 71
     2
 72
     4
 73
     1
  0
VERTEX
  5
48
  8
0
 62
     9
 10
0.0
 20
0.0
 30
0.0
 70
   128
 71
     5
 72
     1
 73
     4
  0
VERTEX
  5
49
  8
0
 62
     9
 10
0.0
 20
0.0
 30
0.0
 70
   128
 71
     4
 72
     7
 73
     6
  0
VERTEX
  5
4A
  8
0
 62
     9
 10
0.0
 20
0.0
 30
0.0
 70
   128
 71
     1
 72
     8
 73
     3
  0
SEQEND
  5
4B
  8
0
 62
     9
  0
ENDBLK
  5
4F
  8
0
  0
BLOCK
  8
0
  2
E3_NODE_1_
 70
     0
 10
0.0
 20
0.0
 30
0.0
  3
E3_NODE_1_
  1

  0
POLYLINE
  5
51
  8
0
 62
     9
 66
     1
 10
0.0
 20
0.0
 30
0.0
 70
    64
 71
    24
 72
    24
  0
VERTEX
  5
52
  8
0
 10
0.0
 20
-42.0
 30
76.0
 70
   192
  0
VERTEX
  5
53
  8
0
 10
0.0
 20
-42.0
 30
43.5
 70
   192
  0
VERTEX
  5
54
  8
0
 10
-6.75
 20
-43.80899810791016
 30
43.5
 70
   192
  0
VERTEX
  5
55
  8
0
 10
-9.545999526977539
 20
-45.95399856567383
 30
76.0
 70
   192
  0
VERTEX
  5
56
  8
0
 10
-13.5
 20
-55.5
 30
76.0
 70
   192
  0
VERTEX
  5
57
  8
0
 10
-11.69099998474121
 20
-48.75
 30
43.5
 70
   192
  0
VERTEX
  5
58
  8
0
 10
-9.220999717712402
 20
-46.27899932861328
 30
43.5
 70
   192
  0
VERTEX
  5
59
  8
0
 10
-13.5
 20
-55.5
 30
43.5
 70
   192
  0
VERTEX
  5
5A
  8
0
 10
-11.69099998474121
 20
-62.25
 30
43.5
 70
   192
  0
VERTEX
  5
5B
  8
0
 10
-9.545999526977539
 20
-65.0459976196289
 30
76.0
 70
   192
  0
VERTEX
  5
5C
  8
0
 10
0.0
 20
-69.0
 30
76.0
 70
   192
  0
VERTEX
  5
5D
  8
0
 10
-6.75
 20
-67.19100189208984
 30
43.5
 70
   192
  0
VERTEX
  5
5E
  8
0
 10
-9.220999717712402
 20
-64.72100067138672
 30
43.5
 70
   192
  0
VERTEX
  5
5F
  8
0
 10
0.0
 20
-69.0
 30
43.5
 70
   192
  0
VERTEX
  5
60
  8
0
 10
6.75
 20
-67.19100189208984
 30
43.5
 70
   192
  0
VERTEX
  5
61
  8
0
 10
9.545999526977539
 20
-65.0459976196289
 30
76.0
 70
   192
  0
VERTEX
  5
62
  8
0
 10
13.5
 20
-55.5
 30
76.0
 70
   192
  0
VERTEX
  5
63
  8
0
 10
11.69099998474121
 20
-62.25
 30
43.5
 70
   192
  0
VERTEX
  5
64
  8
0
 10
9.220999717712402
 20
-64.72100067138672
 30
43.5
 70
   192
  0
VERTEX
  5
65
  8
0
 10
13.5
 20
-55.5
 30
43.5
 70
   192
  0
VERTEX
  5
66
  8
0
 10
11.69099998474121
 20
-48.75
 30
43.5
 70
   192
  0
VERTEX
  5
67
  8
0
 10
9.545999526977539
 20
-45.95399856567383
 30
76.0
 70
   192
  0
VERTEX
  5
68
  8
0
 10
6.75
 20
-43.80899810791016
 30
43.5
 70
   192
  0
VERTEX
  5
69
  8
0
 10
9.220999717712402
 20
-46.27899932861328
 30
43.5
 70
   192
  0
VERTEX
  5
6A
  8
0
 62
     9
 10
0.0
 20
0.0
 30
0.0
 70
   128
 71
     3
 72
     2
 73
     1
  0
VERTEX
  5
6B
  8
0
 62
     9
 10
0.0
 20
0.0
 30
0.0
 70
   128
 71
     1
 72
     4
 73
     3
  0
VERTEX
  5
6C
  8
0
 62
     9
 10
0.0
 20
0.0
 30
0.0
 70
   128
 71
     6
 72
     4
 73
     5
  0
VERTEX
  5
6D
  8
0
 62
     9
 10
0.0
 20
0.0
 30
0.0
 70
   128
 71
     6
 72
     7
 73
     4
  0
VERTEX
  5
6E
  8
0
 62
     9
 10
0.0
 20
0.0
 30
0.0
 70
   128
 71
     9
 72
     8
 73
     5
  0
VERTEX
  5
6F
  8
0
 62
     9
 10
0.0
 20
0.0
 30
0.0
 70
   128
 71
     5
 72
    10
 73
     9
  0
VERTEX
  5
70
  8
0
 62
     9
 10
0.0
 20
0.0
 30
0.0
 70
   128
 71
    12
 72
    10
 73
    11
  0
VERTEX
  5
71
  8
0
 62
     9
 10
0.0
 20
0.0
 30
0.0
 70
   128
 71
    12
 72
    13
 73
    10
  0
VERTEX
  5
72
  8
0
 62
     9
 10
0.0
 20
0.0
 30
0.0
 70
   128
 71
    15
 72
    14
 73
    11
  0
VERTEX
  5
73
  8
0
 62
     9
 10
0.0
 20
0.0
 30
0.0
 70
   128
 71
    11
 72
    16
 73
    15
  0
VERTEX
  5
74
  8
0
 62
     9
 10
0.0
 20
0.0
 30
0.0
 70
   128
 71
    18
 72
    16
 73
    17
  0
VERTEX
  5
75
  8
0
 62
     9
 10
0.0
 20
0.0
 30
0.0
 70
   128
 71
    18
 72
    19
 73
    16
  0
VERTEX
  5
76
  8
0
 62
     9
 10
0.0
 20
0.0
 30
0.0
 70
   128
 71
    21
 72
    20
 73
    17
  0
VERTEX
  5
77
  8
0
 62
     9
 10
0.0
 20
0.0
 30
0.0
 70
   128
 71
    17
 72
    22
 73
    21
  0
VERTEX
  5
78
  8
0
 62
     9
 10
0.0
 20
0.0
 30
0.0
 70
   128
 71
    23
 72
    22
 73
     1
  0
VERTEX
  5
79
  8
0
 62
     9
 10
0.0
 20
0.0
 30
0.0
 70
   128
 71
    23
 72
    24
 73
    22
  0
VERTEX
  5
7A
  8
0
 62
     9
 10
0.0
 20
0.0
 30
0.0
 70
   128
 71
     1
 72
     2
 73
    23
  0
VERTEX
  5
7B
  8
0
 62
     9
 10
0.0
 20
0.0
 30
0.0
 70
   128
 71
    22
 72
    24
 73
    21
  0
VERTEX
  5
7C
  8
0
 62
     9
 10
0.0
 20
0.0
 30
0.0
 70
   128
 71
    17
 72
    20
 73
    18
  0
VERTEX
  5
7D
  8
0
 62
     9
 10
0.0
 20
0.0
 30
0.0
 70
   128
 71
    16
 72
    19
 73
    15
  0
VERTEX
  5
7E
  8
0
 62
     9
 10
0.0
 20
0.0
 30
0.0
 70
   128
 71
    11
 72
    14
 73
    12
  0
VERTEX
  5
7F
  8
0
 62
     9
 10
0.0
 20
0.0
 30
0.0
 70
   128
 71
    10
 72
    13
 73
     9
  0
VERTEX
  5
80
  8
0
 62
     9
 10
0.0
 20
0.0
 30
0.0
 70
   128
 71
     5
 72
     8
 73
     6
  0
VERTEX
  5
81
  8
0
 62
     9
 10
0.0
 20
0.0
 30
0.0
 70
   128
 71
     4
 72
     7
 73
     3
  0
SEQEND
  5
82
  8
0
 62
     9
  0
ENDBLK
  5
85
  8
0
  0
BLOCK
  8
0
  2
E3_NODE_2_
 70
     0
 10
0.0
 20
0.0
 30
0.0
  3
E3_NODE_2_
  1

  0
POLYLINE
  5
87
  8
0
 62
     9
 66
     1
 10
0.0
 20
0.0
 30
0.0
 70
    64
 71
    80
 72
   128
  0
VERTEX
  5
88
  8
0
 10
6.75
 20
-39.10400009155273
 30
37.02500152587891
 70
   192
  0
VERTEX
  5
89
  8
0
 10
6.75
 20
-37.0
 30
36.69100189208984
 70
   192
  0
VERTEX
  5
8A
  8
0
 10
0.0
 20
-37.0
 30
38.5
 70
   192
  0
VERTEX
  5
8B
  8
0
 10
0.0
 20
-38.54499816894531
 30
38.74499893188477
 70
   192
  0
VERTEX
  5
8C
  8
0
 10
0.0
 20
-39.93899917602539
 30
39.45500183105469
 70
   192
  0
VERTEX
  5
8D
  8
0
 10
6.75
 20
-41.00199890136719
 30
37.99200057983398
 70
   192
  0
VERTEX
  5
8E
  8
0
 10
0.0
 20
-41.04499816894531
 30
40.56100082397461
 70
   192
  0
VERTEX
  5
8F
  8
0
 10
6.75
 20
-42.50799942016602
 30
39.49800109863281
 70
   192
  0
VERTEX
  5
90
  8
0
 10
0.0
 20
-41.75500106811523
 30
41.95500183105469
 70
   192
  0
VERTEX
  5
91
  8
0
 10
6.75
 20
-43.47499847412109
 30
41.39599990844727
 70
   192
  0
VERTEX
  5
92
  8
0
 10
0.0
 20
-42.0
 30
43.5
 70
   192
  0
VERTEX
  5
93
  8
0
 10
11.69099998474121
 20
-40.63100051879883
 30
32.32500076293945
 70
   192
  0
VERTEX
  5
94
  8
0
 10
9.220999717712402
 20
-37.0
 30
34.22100067138672
 70
   192
  0
VERTEX
  5
95
  8
0
 10
11.69099998474121
 20
-37.0
 30
31.75
 70
   192
  0
VERTEX
  5
96
  8
0
 10
11.69099998474121
 20
-43.90599822998047
 30
33.99399948120117
 70
   192
  0
VERTEX
  5
97
  8
0
 10
11.69099998474121
 20
-46.50600051879883
 30
36.59400177001953
 70
   192
  0
VERTEX
  5
98
  8
0
 10
11.69099998474121
 20
-48.17499923706055
 30
39.86899948120117
 70
   192
  0
VERTEX
  5
99
  8
0
 10
6.75
 20
-43.80899810791016
 30
43.5
 70
   192
  0
VERTEX
  5
9A
  8
0
 10
9.220999717712402
 20
-46.27899932861328
 30
43.5
 70
   192
  0
VERTEX
  5
9B
  8
0
 10
13.5
 20
-37.0
 30
25.0
 70
   192
  0
VERTEX
  5
9C
  8
0
 10
13.5
 20
-47.87400054931641
 30
28.53300094604492
 70
   192
  0
VERTEX
  5
9D
  8
0
 10
13.5
 20
-51.96699905395508
 30
32.62599945068359
 70
   192
  0
VERTEX
  5
9E
  8
0
 10
13.5
 20
-54.59500122070312
 30
37.78300094604492
 70
   192
  0
VERTEX
  5
9F
  8
0
 10
11.69099998474121
 20
-48.75
 30
43.5
 70
   192
  0
VERTEX
  5
A0
  8
0
 10
11.69099998474121
 20
-44.80300140380859
 30
19.48600006103516
 70
   192
  0
VERTEX
  5
A1
  8
0
 10
11.69099998474121
 20
-37.0
 30
18.25
 70
   192
  0
VERTEX
  5
A2
  8
0
 10
13.5
 20
-42.71699905395508
 30
25.90500068664551
 70
   192
  0
VERTEX
  5
A3
  8
0
 10
11.69099998474121
 20
-51.84199905395508
 30
23.07200050354004
 70
   192
  0
VERTEX
  5
A4
  8
0
 10
11.69099998474121
 20
-57.42800140380859
 30
28.65800094604492
 70
   192
  0
VERTEX
  5
A5
  8
0
 10
11.69099998474121
 20
-61.01399993896484
 30
35.69699859619141
 70
   192
  0
VERTEX
  5
A6
  8
0
 10
11.69099998474121
 20
-62.25
 30
43.5
 70
   192
  0
VERTEX
  5
A7
  8
0
 10
6.75
 20
-46.33000183105469
 30
14.78600025177002
 70
   192
  0
VERTEX
  5
A8
  8
0
 10
9.220999717712402
 20
-37.0
 30
15.7790002822876
 70
   192
  0
VERTEX
  5
A9
  8
0
 10
6.75
 20
-37.0
 30
13.30900001525879
 70
   192
  0
VERTEX
  5
AA
  8
0
 10
6.75
 20
-54.74599838256836
 30
19.07500076293945
 70
   192
  0
VERTEX
  5
AB
  8
0
 10
6.75
 20
-61.42499923706055
 30
25.75399971008301
 70
   192
  0
VERTEX
  5
AC
  8
0
 10
6.75
 20
-65.71399688720703
 30
34.16999816894531
 70
   192
  0
VERTEX
  5
AD
  8
0
 10
9.220999717712402
 20
-64.72100067138672
 30
43.5
 70
   192
  0
VERTEX
  5
AE
  8
0
 10
0.0
 20
-37.0
 30
11.5
 70
   192
  0
VERTEX
  5
AF
  8
0
 10
0.0
 20
-55.80899810791016
 30
17.61100006103516
 70
   192
  0
VERTEX
  5
B0
  8
0
 10
0.0
 20
-62.88899993896484
 30
24.69099998474121
 70
   192
  0
VERTEX
  5
B1
  8
0
 10
0.0
 20
-67.43399810791016
 30
33.61100006103516
 70
   192
  0
VERTEX
  5
B2
  8
0
 10
6.75
 20
-67.19100189208984
 30
43.5
 70
   192
  0
VERTEX
  5
B3
  8
0
 10
0.0
 20
-46.88899993896484
 30
13.06599998474121
 70
   192
  0
VERTEX
  5
B4
  8
0
 10
-6.75
 20
-46.33000183105469
 30
14.78600025177002
 70
   192
  0
VERTEX
  5
B5
  8
0
 10
-6.75
 20
-37.0
 30
13.30900001525879
 70
   192
  0
VERTEX
  5
B6
  8
0
 10
-6.75
 20
-54.74599838256836
 30
19.07500076293945
 70
   192
  0
VERTEX
  5
B7
  8
0
 10
-6.75
 20
-61.42499923706055
 30
25.75399971008301
 70
   192
  0
VERTEX
  5
B8
  8
0
 10
-6.75
 20
-65.71399688720703
 30
34.16999816894531
 70
   192
  0
VERTEX
  5
B9
  8
0
 10
0.0
 20
-69.0
 30
43.5
 70
   192
  0
VERTEX
  5
BA
  8
0
 10
-6.75
 20
-67.19100189208984
 30
43.5
 70
   192
  0
VERTEX
  5
BB
  8
0
 10
-11.69099998474121
 20
-44.80300140380859
 30
19.48600006103516
 70
   192
  0
VERTEX
  5
BC
  8
0
 10
-11.69099998474121
 20
-37.0
 30
18.25
 70
   192
  0
VERTEX
  5
BD
  8
0
 10
-9.220999717712402
 20
-37.0
 30
15.7790002822876
 70
   192
  0
VERTEX
  5
BE
  8
0
 10
-11.69099998474121
 20
-51.84199905395508
 30
23.07200050354004
 70
   192
  0
VERTEX
  5
BF
  8
0
 10
-11.69099998474121
 20
-57.42800140380859
 30
28.65800094604492
 70
   192
  0
VERTEX
  5
C0
  8
0
 10
-11.69099998474121
 20
-61.01399993896484
 30
35.69699859619141
 70
   192
  0
VERTEX
  5
C1
  8
0
 10
-9.220999717712402
 20
-64.72100067138672
 30
43.5
 70
   192
  0
VERTEX
  5
C2
  8
0
 10
-13.5
 20
-42.71699905395508
 30
25.90500068664551
 70
   192
  0
VERTEX
  5
C3
  8
0
 10
-13.5
 20
-37.0
 30
25.0
 70
   192
  0
VERTEX
  5
C4
  8
0
 10
-13.5
 20
-47.87400054931641
 30
28.53300094604492
 70
   192
  0
VERTEX
  5
C5
  8
0
 10
-13.5
 20
-51.96699905395508
 30
32.62599945068359
 70
   192
  0
VERTEX
  5
C6
  8
0
 10
-13.5
 20
-54.59500122070312
 30
37.78300094604492
 70
   192
  0
VERTEX
  5
C7
  8
0
 10
-11.69099998474121
 20
-62.25
 30
43.5
 70
   192
  0
VERTEX
  5
C8
  8
0
 10
-13.5
 20
-55.5
 30
43.5
 70
   192
  0
VERTEX
  5
C9
  8
0
 10
-11.69099998474121
 20
-40.63100051879883
 30
32.32500076293945
 70
   192
  0
VERTEX
  5
CA
  8
0
 10
-11.69099998474121
 20
-37.0
 30
31.75
 70
   192
  0
VERTEX
  5
CB
  8
0
 10
-11.69099998474121
 20
-43.90599822998047
 30
33.99399948120117
 70
   192
  0
VERTEX
  5
CC
  8
0
 10
-11.69099998474121
 20
-46.50600051879883
 30
36.59400177001953
 70
   192
  0
VERTEX
  5
CD
  8
0
 10
-11.69099998474121
 20
-48.17499923706055
 30
39.86899948120117
 70
   192
  0
VERTEX
  5
CE
  8
0
 10
-11.69099998474121
 20
-48.75
 30
43.5
 70
   192
  0
VERTEX
  5
CF
  8
0
 10
-6.75
 20
-39.10400009155273
 30
37.02500152587891
 70
   192
  0
VERTEX
  5
D0
  8
0
 10
-6.75
 20
-37.0
 30
36.69100189208984
 70
   192
  0
VERTEX
  5
D1
  8
0
 10
-9.220999717712402
 20
-37.0
 30
34.22100067138672
 70
   192
  0
VERTEX
  5
D2
  8
0
 10
-6.75
 20
-41.00199890136719
 30
37.99200057983398
 70
   192
  0
VERTEX
  5
D3
  8
0
 10
-6.75
 20
-42.50799942016602
 30
39.49800109863281
 70
   192
  0
VERTEX
  5
D4
  8
0
 10
-6.75
 20
-43.47499847412109
 30
41.39599990844727
 70
   192
  0
VERTEX
  5
D5
  8
0
 10
-9.220999717712402
 20
-46.27899932861328
 30
43.5
 70
   192
  0
VERTEX
  5
D6
  8
0
 10
-6.75
 20
-43.80899810791016
 30
43.5
 70
   192
  0
VERTEX
  5
D7
  8
0
 10
13.5
 20
-55.5
 30
43.5
 70
   192
  0
VERTEX
  5
D8
  8
0
 62
     9
 10
0.0
 20
0.0
 30
0.0
 70
   128
 71
     3
 72
     2
 73
     1
  0
VERTEX
  5
D9
  8
0
 62
     9
 10
0.0
 20
0.0
 30
0.0
 70
   128
 71
     6
 72
     5
 73
     4
  0
VERTEX
  5
DA
  8
0
 62
     9
 10
0.0
 20
0.0
 30
0.0
 70
   128
 71
     8
 72
     7
 73
     5
  0
VERTEX
  5
DB
  8
0
 62
     9
 10
0.0
 20
0.0
 30
0.0
 70
   128
 71
    10
 72
     9
 73
     7
  0
VERTEX
  5
DC
  8
0
 62
     9
 10
0.0
 20
0.0
 30
0.0
 70
   128
 71
    11
 72
     9
 73
    10
  0
VERTEX
  5
DD
  8
0
 62
     9
 10
0.0
 20
0.0
 30
0.0
 70
   128
 71
    13
 72
    12
 73
     1
  0
VERTEX
  5
DE
  8
0
 62
     9
 10
0.0
 20
0.0
 30
0.0
 70
   128
 71
    13
 72
    14
 73
    12
  0
VERTEX
  5
DF
  8
0
 62
     9
 10
0.0
 20
0.0
 30
0.0
 70
   128
 71
    15
 72
     6
 73
     1
  0
VERTEX
  5
E0
  8
0
 62
     9
 10
0.0
 20
0.0
 30
0.0
 70
   128
 71
    16
 72
     8
 73
     6
  0
VERTEX
  5
E1
  8
0
 62
     9
 10
0.0
 20
0.0
 30
0.0
 70
   128
 71
    17
 72
    10
 73
     8
  0
VERTEX
  5
E2
  8
0
 62
     9
 10
0.0
 20
0.0
 30
0.0
 70
   128
 71
    19
 72
    18
 73
    10
  0
VERTEX
  5
E3
  8
0
 62
     9
 10
0.0
 20
0.0
 30
0.0
 70
   128
 71
    10
 72
    17
 73
    19
  0
VERTEX
  5
E4
  8
0
 62
     9
 10
0.0
 20
0.0
 30
0.0
 70
   128
 71
    12
 72
    14
 73
    20
  0
VERTEX
  5
E5
  8
0
 62
     9
 10
0.0
 20
0.0
 30
0.0
 70
   128
 71
    21
 72
    15
 73
    12
  0
VERTEX
  5
E6
  8
0
 62
     9
 10
0.0
 20
0.0
 30
0.0
 70
   128
 71
    22
 72
    16
 73
    15
  0
VERTEX
  5
E7
  8
0
 62
     9
 10
0.0
 20
0.0
 30
0.0
 70
   128
 71
    23
 72
    17
 73
    16
  0
VERTEX
  5
E8
  8
0
 62
     9
 10
0.0
 20
0.0
 30
0.0
 70
   128
 71
    24
 72
    17
 73
    23
  0
VERTEX
  5
E9
  8
0
 62
     9
 10
0.0
 20
0.0
 30
0.0
 70
   128
 71
    20
 72
    26
 73
    25
  0
VERTEX
  5
EA
  8
0
 62
     9
 10
0.0
 20
0.0
 30
0.0
 70
   128
 71
    28
 72
    21
 73
    27
  0
VERTEX
  5
EB
  8
0
 62
     9
 10
0.0
 20
0.0
 30
0.0
 70
   128
 71
    29
 72
    22
 73
    21
  0
VERTEX
  5
EC
  8
0
 62
     9
 10
0.0
 20
0.0
 30
0.0
 70
   128
 71
    30
 72
    23
 73
    22
  0
VERTEX
  5
ED
  8
0
 62
     9
 10
0.0
 20
0.0
 30
0.0
 70
   128
 71
    23
 72
    30
 73
    31
  0
VERTEX
  5
EE
  8
0
 62
     9
 10
0.0
 20
0.0
 30
0.0
 70
   128
 71
    33
 72
    32
 73
    25
  0
VERTEX
  5
EF
  8
0
 62
     9
 10
0.0
 20
0.0
 30
0.0
 70
   128
 71
    33
 72
    34
 73
    32
  0
VERTEX
  5
F0
  8
0
 62
     9
 10
0.0
 20
0.0
 30
0.0
 70
   128
 71
    35
 72
    28
 73
    25
  0
VERTEX
  5
F1
  8
0
 62
     9
 10
0.0
 20
0.0
 30
0.0
 70
   128
 71
    36
 72
    29
 73
    28
  0
VERTEX
  5
F2
  8
0
 62
     9
 10
0.0
 20
0.0
 30
0.0
 70
   128
 71
    37
 72
    30
 73
    29
  0
VERTEX
  5
F3
  8
0
 62
     9
 10
0.0
 20
0.0
 30
0.0
 70
   128
 71
    38
 72
    31
 73
    30
  0
VERTEX
  5
F4
  8
0
 62
     9
 10
0.0
 20
0.0
 30
0.0
 70
   128
 71
    30
 72
    37
 73
    38
  0
VERTEX
  5
F5
  8
0
 62
     9
 10
0.0
 20
0.0
 30
0.0
 70
   128
 71
    32
 72
    34
 73
    39
  0
VERTEX
  5
F6
  8
0
 62
     9
 10
0.0
 20
0.0
 30
0.0
 70
   128
 71
    40
 72
    35
 73
    32
  0
VERTEX
  5
F7
  8
0
 62
     9
 10
0.0
 20
0.0
 30
0.0
 70
   128
 71
    41
 72
    36
 73
    35
  0
VERTEX
  5
F8
  8
0
 62
     9
 10
0.0
 20
0.0
 30
0.0
 70
   128
 71
    42
 72
    37
 73
    36
  0
VERTEX
  5
F9
  8
0
 62
     9
 10
0.0
 20
0.0
 30
0.0
 70
   128
 71
    43
 72
    37
 73
    42
  0
VERTEX
  5
FA
  8
0
 62
     9
 10
0.0
 20
0.0
 30
0.0
 70
   128
 71
    46
 72
    45
 73
    44
  0
VERTEX
  5
FB
  8
0
 62
     9
 10
0.0
 20
0.0
 30
0.0
 70
   128
 71
    47
 72
    40
 73
    44
  0
VERTEX
  5
FC
  8
0
 62
     9
 10
0.0
 20
0.0
 30
0.0
 70
   128
 71
    48
 72
    41
 73
    40
  0
VERTEX
  5
FD
  8
0
 62
     9
 10
0.0
 20
0.0
 30
0.0
 70
   128
 71
    49
 72
    42
 73
    41
  0
VERTEX
  5
FE
  8
0
 62
     9
 10
0.0
 20
0.0
 30
0.0
 70
   128
 71
    51
 72
    50
 73
    42
  0
VERTEX
  5
FF
  8
0
 62
     9
 10
0.0
 20
0.0
 30
0.0
 70
   128
 71
    54
 72
    53
 73
    52
  0
VERTEX
  5
100
  8
0
 62
     9
 10
0.0
 20
0.0
 30
0.0
 70
   128
 71
    52
 72
    45
 73
    54
  0
VERTEX
  5
101
  8
0
 62
     9
 10
0.0
 20
0.0
 30
0.0
 70
   128
 71
    55
 72
    47
 73
    45
  0
VERTEX
  5
102
  8
0
 62
     9
 10
0.0
 20
0.0
 30
0.0
 70
   128
 71
    56
 72
    48
 73
    47
  0
VERTEX
  5
103
  8
0
 62
     9
 10
0.0
 20
0.0
 30
0.0
 70
   128
 71
    57
 72
    49
 73
    48
  0
VERTEX
  5
104
  8
0
 62
     9
 10
0.0
 20
0.0
 30
0.0
 70
   128
 71
    58
 72
    49
 73
    57
  0
VERTEX
  5
105
  8
0
 62
     9
 10
0.0
 20
0.0
 30
0.0
 70
   128
 71
    58
 72
    51
 73
    49
  0
VERTEX
  5
106
  8
0
 62
     9
 10
0.0
 20
0.0
 30
0.0
 70
   128
 71
    60
 72
    59
 73
    52
  0
VERTEX
  5
107
  8
0
 62
     9
 10
0.0
 20
0.0
 30
0.0
 70
   128
 71
    61
 72
    55
 73
    52
  0
VERTEX
  5
108
  8
0
 62
     9
 10
0.0
 20
0.0
 30
0.0
 70
   128
 71
    62
 72
    56
 73
    55
  0
VERTEX
  5
109
  8
0
 62
     9
 10
0.0
 20
0.0
 30
0.0
 70
   128
 71
    63
 72
    57
 73
    56
  0
VERTEX
  5
10A
  8
0
 62
     9
 10
0.0
 20
0.0
 30
0.0
 70
   128
 71
    63
 72
    65
 73
    64
  0
VERTEX
  5
10B
  8
0
 62
     9
 10
0.0
 20
0.0
 30
0.0
 70
   128
 71
    67
 72
    66
 73
    59
  0
VERTEX
  5
10C
  8
0
 62
     9
 10
0.0
 20
0.0
 30
0.0
 70
   128
 71
    68
 72
    61
 73
    59
  0
VERTEX
  5
10D
  8
0
 62
     9
 10
0.0
 20
0.0
 30
0.0
 70
   128
 71
    69
 72
    62
 73
    61
  0
VERTEX
  5
10E
  8
0
 62
     9
 10
0.0
 20
0.0
 30
0.0
 70
   128
 71
    70
 72
    63
 73
    62
  0
VERTEX
  5
10F
  8
0
 62
     9
 10
0.0
 20
0.0
 30
0.0
 70
   128
 71
    70
 72
    71
 73
    65
  0
VERTEX
  5
110
  8
0
 62
     9
 10
0.0
 20
0.0
 30
0.0
 70
   128
 71
    74
 72
    73
 73
    72
  0
VERTEX
  5
111
  8
0
 62
     9
 10
0.0
 20
0.0
 30
0.0
 70
   128
 71
    72
 72
    66
 73
    74
  0
VERTEX
  5
112
  8
0
 62
     9
 10
0.0
 20
0.0
 30
0.0
 70
   128
 71
    75
 72
    68
 73
    66
  0
VERTEX
  5
113
  8
0
 62
     9
 10
0.0
 20
0.0
 30
0.0
 70
   128
 71
    76
 72
    69
 73
    68
  0
VERTEX
  5
114
  8
0
 62
     9
 10
0.0
 20
0.0
 30
0.0
 70
   128
 71
    77
 72
    70
 73
    69
  0
VERTEX
  5
115
  8
0
 62
     9
 10
0.0
 20
0.0
 30
0.0
 70
   128
 71
    78
 72
    70
 73
    77
  0
VERTEX
  5
116
  8
0
 62
     9
 10
0.0
 20
0.0
 30
0.0
 70
   128
 71
    78
 72
    71
 73
    70
  0
VERTEX
  5
117
  8
0
 62
     9
 10
0.0
 20
0.0
 30
0.0
 70
   128
 71
     3
 72
     4
 73
    72
  0
VERTEX
  5
118
  8
0
 62
     9
 10
0.0
 20
0.0
 30
0.0
 70
   128
 71
     5
 72
    75
 73
    72
  0
VERTEX
  5
119
  8
0
 62
     9
 10
0.0
 20
0.0
 30
0.0
 70
   128
 71
     7
 72
    76
 73
    75
  0
VERTEX
  5
11A
  8
0
 62
     9
 10
0.0
 20
0.0
 30
0.0
 70
   128
 71
     9
 72
    77
 73
    76
  0
VERTEX
  5
11B
  8
0
 62
     9
 10
0.0
 20
0.0
 30
0.0
 70
   128
 71
    11
 72
    79
 73
    77
  0
VERTEX
  5
11C
  8
0
 62
     9
 10
0.0
 20
0.0
 30
0.0
 70
   128
 71
    77
 72
     9
 73
    11
  0
VERTEX
  5
11D
  8
0
 62
     9
 10
0.0
 20
0.0
 30
0.0
 70
   128
 71
    76
 72
     7
 73
     9
  0
VERTEX
  5
11E
  8
0
 62
     9
 10
0.0
 20
0.0
 30
0.0
 70
   128
 71
    75
 72
     5
 73
     7
  0
VERTEX
  5
11F
  8
0
 62
     9
 10
0.0
 20
0.0
 30
0.0
 70
   128
 71
    72
 72
     4
 73
     5
  0
VERTEX
  5
120
  8
0
 62
     9
 10
0.0
 20
0.0
 30
0.0
 70
   128
 71
    72
 72
    73
 73
     3
  0
VERTEX
  5
121
  8
0
 62
     9
 10
0.0
 20
0.0
 30
0.0
 70
   128
 71
    77
 72
    79
 73
    78
  0
VERTEX
  5
122
  8
0
 62
     9
 10
0.0
 20
0.0
 30
0.0
 70
   128
 71
    69
 72
    76
 73
    77
  0
VERTEX
  5
123
  8
0
 62
     9
 10
0.0
 20
0.0
 30
0.0
 70
   128
 71
    68
 72
    75
 73
    76
  0
VERTEX
  5
124
  8
0
 62
     9
 10
0.0
 20
0.0
 30
0.0
 70
   128
 71
    66
 72
    72
 73
    75
  0
VERTEX
  5
125
  8
0
 62
     9
 10
0.0
 20
0.0
 30
0.0
 70
   128
 71
    66
 72
    67
 73
    74
  0
VERTEX
  5
126
  8
0
 62
     9
 10
0.0
 20
0.0
 30
0.0
 70
   128
 71
    65
 72
    63
 73
    70
  0
VERTEX
  5
127
  8
0
 62
     9
 10
0.0
 20
0.0
 30
0.0
 70
   128
 71
    62
 72
    69
 73
    70
  0
VERTEX
  5
128
  8
0
 62
     9
 10
0.0
 20
0.0
 30
0.0
 70
   128
 71
    61
 72
    68
 73
    69
  0
VERTEX
  5
129
  8
0
 62
     9
 10
0.0
 20
0.0
 30
0.0
 70
   128
 71
    59
 72
    66
 73
    68
  0
VERTEX
  5
12A
  8
0
 62
     9
 10
0.0
 20
0.0
 30
0.0
 70
   128
 71
    59
 72
    60
 73
    67
  0
VERTEX
  5
12B
  8
0
 62
     9
 10
0.0
 20
0.0
 30
0.0
 70
   128
 71
    64
 72
    57
 73
    63
  0
VERTEX
  5
12C
  8
0
 62
     9
 10
0.0
 20
0.0
 30
0.0
 70
   128
 71
    56
 72
    62
 73
    63
  0
VERTEX
  5
12D
  8
0
 62
     9
 10
0.0
 20
0.0
 30
0.0
 70
   128
 71
    55
 72
    61
 73
    62
  0
VERTEX
  5
12E
  8
0
 62
     9
 10
0.0
 20
0.0
 30
0.0
 70
   128
 71
    52
 72
    59
 73
    61
  0
VERTEX
  5
12F
  8
0
 62
     9
 10
0.0
 20
0.0
 30
0.0
 70
   128
 71
    52
 72
    53
 73
    60
  0
VERTEX
  5
130
  8
0
 62
     9
 10
0.0
 20
0.0
 30
0.0
 70
   128
 71
    57
 72
    64
 73
    58
  0
VERTEX
  5
131
  8
0
 62
     9
 10
0.0
 20
0.0
 30
0.0
 70
   128
 71
    48
 72
    56
 73
    57
  0
VERTEX
  5
132
  8
0
 62
     9
 10
0.0
 20
0.0
 30
0.0
 70
   128
 71
    47
 72
    55
 73
    56
  0
VERTEX
  5
133
  8
0
 62
     9
 10
0.0
 20
0.0
 30
0.0
 70
   128
 71
    45
 72
    52
 73
    55
  0
VERTEX
  5
134
  8
0
 62
     9
 10
0.0
 20
0.0
 30
0.0
 70
   128
 71
    45
 72
    46
 73
    54
  0
VERTEX
  5
135
  8
0
 62
     9
 10
0.0
 20
0.0
 30
0.0
 70
   128
 71
    42
 72
    49
 73
    51
  0
VERTEX
  5
136
  8
0
 62
     9
 10
0.0
 20
0.0
 30
0.0
 70
   128
 71
    41
 72
    48
 73
    49
  0
VERTEX
  5
137
  8
0
 62
     9
 10
0.0
 20
0.0
 30
0.0
 70
   128
 71
    40
 72
    47
 73
    48
  0
VERTEX
  5
138
  8
0
 62
     9
 10
0.0
 20
0.0
 30
0.0
 70
   128
 71
    44
 72
    45
 73
    47
  0
VERTEX
  5
139
  8
0
 62
     9
 10
0.0
 20
0.0
 30
0.0
 70
   128
 71
    44
 72
    39
 73
    46
  0
VERTEX
  5
13A
  8
0
 62
     9
 10
0.0
 20
0.0
 30
0.0
 70
   128
 71
    42
 72
    50
 73
    43
  0
VERTEX
  5
13B
  8
0
 62
     9
 10
0.0
 20
0.0
 30
0.0
 70
   128
 71
    36
 72
    41
 73
    42
  0
VERTEX
  5
13C
  8
0
 62
     9
 10
0.0
 20
0.0
 30
0.0
 70
   128
 71
    35
 72
    40
 73
    41
  0
VERTEX
  5
13D
  8
0
 62
     9
 10
0.0
 20
0.0
 30
0.0
 70
   128
 71
    32
 72
    44
 73
    40
  0
VERTEX
  5
13E
  8
0
 62
     9
 10
0.0
 20
0.0
 30
0.0
 70
   128
 71
    39
 72
    44
 73
    32
  0
VERTEX
  5
13F
  8
0
 62
     9
 10
0.0
 20
0.0
 30
0.0
 70
   128
 71
    37
 72
    43
 73
    38
  0
VERTEX
  5
140
  8
0
 62
     9
 10
0.0
 20
0.0
 30
0.0
 70
   128
 71
    29
 72
    36
 73
    37
  0
VERTEX
  5
141
  8
0
 62
     9
 10
0.0
 20
0.0
 30
0.0
 70
   128
 71
    28
 72
    35
 73
    36
  0
VERTEX
  5
142
  8
0
 62
     9
 10
0.0
 20
0.0
 30
0.0
 70
   128
 71
    25
 72
    32
 73
    35
  0
VERTEX
  5
143
  8
0
 62
     9
 10
0.0
 20
0.0
 30
0.0
 70
   128
 71
    25
 72
    26
 73
    33
  0
VERTEX
  5
144
  8
0
 62
     9
 10
0.0
 20
0.0
 30
0.0
 70
   128
 71
    31
 72
    80
 73
    23
  0
VERTEX
  5
145
  8
0
 62
     9
 10
0.0
 20
0.0
 30
0.0
 70
   128
 71
    22
 72
    29
 73
    30
  0
VERTEX
  5
146
  8
0
 62
     9
 10
0.0
 20
0.0
 30
0.0
 70
   128
 71
    21
 72
    28
 73
    29
  0
VERTEX
  5
147
  8
0
 62
     9
 10
0.0
 20
0.0
 30
0.0
 70
   128
 71
    27
 72
    25
 73
    28
  0
VERTEX
  5
148
  8
0
 62
     9
 10
0.0
 20
0.0
 30
0.0
 70
   128
 71
    25
 72
    27
 73
    20
  0
VERTEX
  5
149
  8
0
 62
     9
 10
0.0
 20
0.0
 30
0.0
 70
   128
 71
    23
 72
    80
 73
    24
  0
VERTEX
  5
14A
  8
0
 62
     9
 10
0.0
 20
0.0
 30
0.0
 70
   128
 71
    16
 72
    22
 73
    23
  0
VERTEX
  5
14B
  8
0
 62
     9
 10
0.0
 20
0.0
 30
0.0
 70
   128
 71
    15
 72
    21
 73
    22
  0
VERTEX
  5
14C
  8
0
 62
     9
 10
0.0
 20
0.0
 30
0.0
 70
   128
 71
    12
 72
    27
 73
    21
  0
VERTEX
  5
14D
  8
0
 62
     9
 10
0.0
 20
0.0
 30
0.0
 70
   128
 71
    20
 72
    27
 73
    12
  0
VERTEX
  5
14E
  8
0
 62
     9
 10
0.0
 20
0.0
 30
0.0
 70
   128
 71
    17
 72
    24
 73
    19
  0
VERTEX
  5
14F
  8
0
 62
     9
 10
0.0
 20
0.0
 30
0.0
 70
   128
 71
     8
 72
    16
 73
    17
  0
VERTEX
  5
150
  8
0
 62
     9
 10
0.0
 20
0.0
 30
0.0
 70
   128
 71
     6
 72
    15
 73
    16
  0
VERTEX
  5
151
  8
0
 62
     9
 10
0.0
 20
0.0
 30
0.0
 70
   128
 71
     1
 72
    12
 73
    15
  0
VERTEX
  5
152
  8
0
 62
     9
 10
0.0
 20
0.0
 30
0.0
 70
   128
 71
     1
 72
     2
 73
    13
  0
VERTEX
  5
153
  8
0
 62
     9
 10
0.0
 20
0.0
 30
0.0
 70
   128
 71
    10
 72
    18
 73
    11
  0
VERTEX
  5
154
  8
0
 62
     9
 10
0.0
 20
0.0
 30
0.0
 70
   128
 71
     7
 72
     8
 73
    10
  0
VERTEX
  5
155
  8
0
 62
     9
 10
0.0
 20
0.0
 30
0.0
 70
   128
 71
     5
 72
     6
 73
     8
  0
VERTEX
  5
156
  8
0
 62
     9
 10
0.0
 20
0.0
 30
0.0
 70
   128
 71
     4
 72
     1
 73
     6
  0
VERTEX
  5
157
  8
0
 62
     9
 10
0.0
 20
0.0
 30
0.0
 70
   128
 71
     1
 72
     4
 73
     3
  0
SEQEND
  5
158
  8
0
 62
     9
  0
ENDBLK
  5
15B
  8
0
  0
BLOCK
  8
0
  2
E3_NODE_3_
 70
     0
 10
0.0
 20
0.0
 30
0.0
  3
E3_NODE_3_
  1

  0
POLYLINE
  5
15D
  8
0
 62
     9
 66
     1
 10
0.0
 20
0.0
 30
0.0
 70
    64
 71
    24
 72
    24
  0
VERTEX
  5
15E
  8
0
 10
0.0
 20
-12.0
 30
38.5
 70
   192
  0
VERTEX
  5
15F
  8
0
 10
-9.545999526977539
 20
-12.0
 30
34.54600143432617
 70
   192
  0
VERTEX
  5
160
  8
0
 10
-6.75
 20
-37.0
 30
36.69100189208984
 70
   192
  0
VERTEX
  5
161
  8
0
 10
-9.220999717712402
 20
-37.0
 30
34.22100067138672
 70
   192
  0
VERTEX
  5
162
  8
0
 10
-13.5
 20
-12.0
 30
25.0
 70
   192
  0
VERTEX
  5
163
  8
0
 10
-13.5
 20
-37.0
 30
25.0
 70
   192
  0
VERTEX
  5
164
  8
0
 10
-11.69099998474121
 20
-37.0
 30
31.75
 70
   192
  0
VERTEX
  5
165
  8
0
 10
-9.545999526977539
 20
-12.0
 30
15.45400047302246
 70
   192
  0
VERTEX
  5
166
  8
0
 10
-11.69099998474121
 20
-37.0
 30
18.25
 70
   192
  0
VERTEX
  5
167
  8
0
 10
-9.220999717712402
 20
-37.0
 30
15.7790002822876
 70
   192
  0
VERTEX
  5
168
  8
0
 10
0.0
 20
-12.0
 30
11.5
 70
   192
  0
VERTEX
  5
169
  8
0
 10
0.0
 20
-37.0
 30
11.5
 70
   192
  0
VERTEX
  5
16A
  8
0
 10
-6.75
 20
-37.0
 30
13.30900001525879
 70
   192
  0
VERTEX
  5
16B
  8
0
 10
9.545999526977539
 20
-12.0
 30
15.45400047302246
 70
   192
  0
VERTEX
  5
16C
  8
0
 10
6.75
 20
-37.0
 30
13.30900001525879
 70
   192
  0
VERTEX
  5
16D
  8
0
 10
9.220999717712402
 20
-37.0
 30
15.7790002822876
 70
   192
  0
VERTEX
  5
16E
  8
0
 10
13.5
 20
-12.0
 30
25.0
 70
   192
  0
VERTEX
  5
16F
  8
0
 10
13.5
 20
-37.0
 30
25.0
 70
   192
  0
VERTEX
  5
170
  8
0
 10
11.69099998474121
 20
-37.0
 30
18.25
 70
   192
  0
VERTEX
  5
171
  8
0
 10
9.545999526977539
 20
-12.0
 30
34.54600143432617
 70
   192
  0
VERTEX
  5
172
  8
0
 10
11.69099998474121
 20
-37.0
 30
31.75
 70
   192
  0
VERTEX
  5
173
  8
0
 10
9.220999717712402
 20
-37.0
 30
34.22100067138672
 70
   192
  0
VERTEX
  5
174
  8
0
 10
0.0
 20
-37.0
 30
38.5
 70
   192
  0
VERTEX
  5
175
  8
0
 10
6.75
 20
-37.0
 30
36.69100189208984
 70
   192
  0
VERTEX
  5
176
  8
0
 62
     9
 10
0.0
 20
0.0
 30
0.0
 70
   128
 71
     3
 72
     2
 73
     1
  0
VERTEX
  5
177
  8
0
 62
     9
 10
0.0
 20
0.0
 30
0.0
 70
   128
 71
     3
 72
     4
 73
     2
  0
VERTEX
  5
178
  8
0
 62
     9
 10
0.0
 20
0.0
 30
0.0
 70
   128
 71
     7
 72
     6
 73
     5
  0
VERTEX
  5
179
  8
0
 62
     9
 10
0.0
 20
0.0
 30
0.0
 70
   128
 71
     5
 72
     2
 73
     7
  0
VERTEX
  5
17A
  8
0
 62
     9
 10
0.0
 20
0.0
 30
0.0
 70
   128
 71
     9
 72
     8
 73
     5
  0
VERTEX
  5
17B
  8
0
 62
     9
 10
0.0
 20
0.0
 30
0.0
 70
   128
 71
     9
 72
    10
 73
     8
  0
VERTEX
  5
17C
  8
0
 62
     9
 10
0.0
 20
0.0
 30
0.0
 70
   128
 71
    13
 72
    12
 73
    11
  0
VERTEX
  5
17D
  8
0
 62
     9
 10
0.0
 20
0.0
 30
0.0
 70
   128
 71
    11
 72
     8
 73
    13
  0
VERTEX
  5
17E
  8
0
 62
     9
 10
0.0
 20
0.0
 30
0.0
 70
   128
 71
    15
 72
    14
 73
    11
  0
VERTEX
  5
17F
  8
0
 62
     9
 10
0.0
 20
0.0
 30
0.0
 70
   128
 71
    15
 72
    16
 73
    14
  0
VERTEX
  5
180
  8
0
 62
     9
 10
0.0
 20
0.0
 30
0.0
 70
   128
 71
    19
 72
    18
 73
    17
  0
VERTEX
  5
181
  8
0
 62
     9
 10
0.0
 20
0.0
 30
0.0
 70
   128
 71
    17
 72
    14
 73
    19
  0
VERTEX
  5
182
  8
0
 62
     9
 10
0.0
 20
0.0
 30
0.0
 70
   128
 71
    21
 72
    20
 73
    17
  0
VERTEX
  5
183
  8
0
 62
     9
 10
0.0
 20
0.0
 30
0.0
 70
   128
 71
    21
 72
    22
 73
    20
  0
VERTEX
  5
184
  8
0
 62
     9
 10
0.0
 20
0.0
 30
0.0
 70
   128
 71
    24
 72
    23
 73
     1
  0
VERTEX
  5
185
  8
0
 62
     9
 10
0.0
 20
0.0
 30
0.0
 70
   128
 71
     1
 72
    20
 73
    24
  0
VERTEX
  5
186
  8
0
 62
     9
 10
0.0
 20
0.0
 30
0.0
 70
   128
 71
    20
 72
    22
 73
    24
  0
VERTEX
  5
187
  8
0
 62
     9
 10
0.0
 20
0.0
 30
0.0
 70
   128
 71
    17
 72
    18
 73
    21
  0
VERTEX
  5
188
  8
0
 62
     9
 10
0.0
 20
0.0
 30
0.0
 70
   128
 71
    14
 72
    16
 73
    19
  0
VERTEX
  5
189
  8
0
 62
     9
 10
0.0
 20
0.0
 30
0.0
 70
   128
 71
    11
 72
    12
 73
    15
  0
VERTEX
  5
18A
  8
0
 62
     9
 10
0.0
 20
0.0
 30
0.0
 70
   128
 71
     8
 72
    10
 73
    13
  0
VERTEX
  5
18B
  8
0
 62
     9
 10
0.0
 20
0.0
 30
0.0
 70
   128
 71
     5
 72
     6
 73
     9
  0
VERTEX
  5
18C
  8
0
 62
     9
 10
0.0
 20
0.0
 30
0.0
 70
   128
 71
     2
 72
     4
 73
     7
  0
VERTEX
  5
18D
  8
0
 62
     9
 10
0.0
 20
0.0
 30
0.0
 70
   128
 71
     1
 72
    23
 73
     3
  0
SEQEND
  5
18E
  8
0
 62
     9
  0
ENDBLK
  5
191
  8
0
  0
BLOCK
  8
0
  2
E3_NODE_4_
 70
     0
 10
0.0
 20
0.0
 30
0.0
  3
E3_NODE_4_
  1

  0
POLYLINE
  5
193
  8
0
 62
     9
 66
     1
 10
0.0
 20
0.0
 30
0.0
 70
    64
 71
    17
 72
    15
  0
VERTEX
  5
194
  8
0
 10
82.01300048828125
 20
11.04100036621094
 30
135.552001953125
 70
   192
  0
VERTEX
  5
195
  8
0
 10
88.08399963378906
 20
13.76200008392334
 30
136.2960052490234
 70
   192
  0
VERTEX
  5
196
  8
0
 10
88.35099792480469
 20
13.71199989318848
 30
136.3309936523438
 70
   192
  0
VERTEX
  5
197
  8
0
 10
82.01499938964844
 20
14.89700031280518
 30
135.5030059814453
 70
   192
  0
VERTEX
  5
198
  8
0
 10
90.40899658203125
 20
12.58199977874756
 30
136.8049926757812
 70
   192
  0
VERTEX
  5
199
  8
0
 10
82.01100158691406
 20
6.675000190734863
 30
135.6080017089844
 70
   192
  0
VERTEX
  5
19A
  8
0
 10
90.31700134277344
 20
0.0
 30
136.8580017089844
 70
   192
  0
VERTEX
  5
19B
  8
0
 10
82.01000213623047
 20
1.957000017166138
 30
135.6679992675781
 70
   192
  0
VERTEX
  5
19C
  8
0
 10
88.23500061035156
 20
0.0
 30
136.1600036621094
 70
   192
  0
VERTEX
  5
19D
  8
0
 10
82.00900268554688
 20
0.0
 30
135.6779937744141
 70
   192
  0
VERTEX
  5
19E
  8
0
 10
96.43099975585938
 20
0.0
 30
138.9080047607422
 70
   192
  0
VERTEX
  5
19F
  8
0
 10
96.875
 20
5.933000087738037
 30
138.9660034179688
 70
   192
  0
VERTEX
  5
1A0
  8
0
 10
98.14199829101562
 20
2.529999971389771
 30
139.6340026855469
 70
   192
  0
VERTEX
  5
1A1
  8
0
 10
98.36699676513672
 20
0.0
 30
139.7590026855469
 70
   192
  0
VERTEX
  5
1A2
  8
0
 10
93.32499694824219
 20
10.74300003051758
 30
137.5390014648438
 70
   192
  0
VERTEX
  5
1A3
  8
0
 10
96.3759994506836
 20
7.271999835968018
 30
138.7030029296875
 70
   192
  0
VERTEX
  5
1A4
  8
0
 10
92.91999816894531
 20
11.20400047302246
 30
137.3849945068359
 70
   192
  0
VERTEX
  5
1A5
  8
0
 62
     9
 10
0.0
 20
0.0
 30
0.0
 70
   128
 71
     3
 72
     2
 73
     1
  0
VERTEX
  5
1A6
  8
0
 62
     9
 10
0.0
 20
0.0
 30
0.0
 70
   128
 71
     2
 72
     4
 73
     1
  0
VERTEX
  5
1A7
  8
0
 62
     9
 10
0.0
 20
0.0
 30
0.0
 70
   128
 71
     1
 72
     6
 73
     5
  0
VERTEX
  5
1A8
  8
0
 62
     9
 10
0.0
 20
0.0
 30
0.0
 70
   128
 71
     6
 72
     8
 73
     7
  0
VERTEX
  5
1A9
  8
0
 62
     9
 10
0.0
 20
0.0
 30
0.0
 70
   128
 71
     7
 72
     5
 73
     6
  0
VERTEX
  5
1AA
  8
0
 62
     9
 10
0.0
 20
0.0
 30
0.0
 70
   128
 71
     9
 72
     7
 73
     8
  0
VERTEX
  5
1AB
  8
0
 62
     9
 10
0.0
 20
0.0
 30
0.0
 70
   128
 71
     8
 72
    10
 73
     9
  0
VERTEX
  5
1AC
  8
0
 62
     9
 10
0.0
 20
0.0
 30
0.0
 70
   128
 71
    13
 72
    12
 73
    11
  0
VERTEX
  5
1AD
  8
0
 62
     9
 10
0.0
 20
0.0
 30
0.0
 70
   128
 71
    11
 72
    14
 73
    13
  0
VERTEX
  5
1AE
  8
0
 62
     9
 10
0.0
 20
0.0
 30
0.0
 70
   128
 71
    16
 72
    15
 73
     7
  0
VERTEX
  5
1AF
  8
0
 62
     9
 10
0.0
 20
0.0
 30
0.0
 70
   128
 71
     7
 72
    12
 73
    16
  0
VERTEX
  5
1B0
  8
0
 62
     9
 10
0.0
 20
0.0
 30
0.0
 70
   128
 71
    17
 72
     5
 73
     7
  0
VERTEX
  5
1B1
  8
0
 62
     9
 10
0.0
 20
0.0
 30
0.0
 70
   128
 71
     7
 72
    15
 73
    17
  0
VERTEX
  5
1B2
  8
0
 62
     9
 10
0.0
 20
0.0
 30
0.0
 70
   128
 71
    12
 72
     7
 73
    11
  0
VERTEX
  5
1B3
  8
0
 62
     9
 10
0.0
 20
0.0
 30
0.0
 70
   128
 71
     1
 72
     5
 73
     3
  0
SEQEND
  5
1B4
  8
0
 62
     9
  0
ENDBLK
  5
1B7
  8
0
  0
BLOCK
  8
0
  2
E3_NODE_5_
 70
     0
 10
0.0
 20
0.0
 30
0.0
  3
E3_NODE_5_
  1

  0
POLYLINE
  5
1B9
  8
0
 62
     9
 66
     1
 10
0.0
 20
0.0
 30
0.0
 70
    64
 71
    16
 72
    14
  0
VERTEX
  5
1BA
  8
0
 10
96.43099975585938
 20
0.0
 30
138.9080047607422
 70
   192
  0
VERTEX
  5
1BB
  8
0
 10
98.36699676513672
 20
0.0
 30
139.7590026855469
 70
   192
  0
VERTEX
  5
1BC
  8
0
 10
98.18499755859375
 20
-2.279999971389771
 30
139.6569976806641
 70
   192
  0
VERTEX
  5
1BD
  8
0
 10
96.94000244140625
 20
-5.966000080108643
 30
138.9909973144531
 70
   192
  0
VERTEX
  5
1BE
  8
0
 10
90.31700134277344
 20
0.0
 30
136.8580017089844
 70
   192
  0
VERTEX
  5
1BF
  8
0
 10
96.68099975585938
 20
-6.73199987411499
 30
138.8529968261719
 70
   192
  0
VERTEX
  5
1C0
  8
0
 10
93.4010009765625
 20
-10.80700016021729
 30
137.531005859375
 70
   192
  0
VERTEX
  5
1C1
  8
0
 10
90.40699768066406
 20
-12.54399967193604
 30
136.8150024414062
 70
   192
  0
VERTEX
  5
1C2
  8
0
 10
82.00900268554688
 20
-0.0759999975562096
 30
135.6779937744141
 70
   192
  0
VERTEX
  5
1C3
  8
0
 10
82.00900268554688
 20
0.0
 30
135.6779937744141
 70
   192
  0
VERTEX
  5
1C4
  8
0
 10
88.23500061035156
 20
0.0
 30
136.1600036621094
 70
   192
  0
VERTEX
  5
1C5
  8
0
 10
82.01200103759766
 20
-6.574999809265137
 30
135.6009979248047
 70
   192
  0
VERTEX
  5
1C6
  8
0
 10
82.01300048828125
 20
-10.99300003051758
 30
135.5489959716797
 70
   192
  0
VERTEX
  5
1C7
  8
0
 10
88.46199798583984
 20
-13.67199993133545
 30
136.3500061035156
 70
   192
  0
VERTEX
  5
1C8
  8
0
 10
88.08000183105469
 20
-13.74400043487549
 30
136.3000030517578
 70
   192
  0
VERTEX
  5
1C9
  8
0
 10
82.01499938964844
 20
-14.89700031280518
 30
135.5030059814453
 70
   192
  0
VERTEX
  5
1CA
  8
0
 62
     9
 10
0.0
 20
0.0
 30
0.0
 70
   128
 71
     3
 72
     2
 73
     1
  0
VERTEX
  5
1CB
  8
0
 62
     9
 10
0.0
 20
0.0
 30
0.0
 70
   128
 71
     1
 72
     4
 73
     3
  0
VERTEX
  5
1CC
  8
0
 62
     9
 10
0.0
 20
0.0
 30
0.0
 70
   128
 71
     6
 72
     1
 73
     5
  0
VERTEX
  5
1CD
  8
0
 62
     9
 10
0.0
 20
0.0
 30
0.0
 70
   128
 71
     5
 72
     7
 73
     6
  0
VERTEX
  5
1CE
  8
0
 62
     9
 10
0.0
 20
0.0
 30
0.0
 70
   128
 71
     5
 72
     8
 73
     7
  0
VERTEX
  5
1CF
  8
0
 62
     9
 10
0.0
 20
0.0
 30
0.0
 70
   128
 71
    11
 72
    10
 73
     9
  0
VERTEX
  5
1D0
  8
0
 62
     9
 10
0.0
 20
0.0
 30
0.0
 70
   128
 71
    12
 72
     8
 73
     5
  0
VERTEX
  5
1D1
  8
0
 62
     9
 10
0.0
 20
0.0
 30
0.0
 70
   128
 71
    14
 72
     8
 73
    13
  0
VERTEX
  5
1D2
  8
0
 62
     9
 10
0.0
 20
0.0
 30
0.0
 70
   128
 71
    13
 72
    15
 73
    14
  0
VERTEX
  5
1D3
  8
0
 62
     9
 10
0.0
 20
0.0
 30
0.0
 70
   128
 71
    13
 72
    16
 73
    15
  0
VERTEX
  5
1D4
  8
0
 62
     9
 10
0.0
 20
0.0
 30
0.0
 70
   128
 71
     8
 72
    12
 73
    13
  0
VERTEX
  5
1D5
  8
0
 62
     9
 10
0.0
 20
0.0
 30
0.0
 70
   128
 71
     5
 72
     9
 73
    12
  0
VERTEX
  5
1D6
  8
0
 62
     9
 10
0.0
 20
0.0
 30
0.0
 70
   128
 71
     9
 72
     5
 73
    11
  0
VERTEX
  5
1D7
  8
0
 62
     9
 10
0.0
 20
0.0
 30
0.0
 70
   128
 71
     1
 72
     6
 73
     4
  0
SEQEND
  5
1D8
  8
0
 62
     9
  0
ENDBLK
  5
1DB
  8
0
  0
BLOCK
  8
0
  2
E3_NODE_6_
 70
     0
 10
0.0
 20
0.0
 30
0.0
  3
E3_NODE_6_
  1

  0
POLYLINE
  5
1DD
  8
0
 62
     9
 66
     1
 10
0.0
 20
0.0
 30
0.0
 70
    64
 71
    69
 72
    87
  0
VERTEX
  5
1DE
  8
0
 10
32.45000076293945
 20
7.382999897003174
 30
123.4700012207031
 70
   192
  0
VERTEX
  5
1DF
  8
0
 10
30.69000053405762
 20
12.43200016021729
 30
122.9369964599609
 70
   192
  0
VERTEX
  5
1E0
  8
0
 10
38.95500183105469
 20
11.7819995880127
 30
128.6419982910156
 70
   192
  0
VERTEX
  5
1E1
  8
0
 10
39.48699951171875
 20
7.558000087738037
 30
130.2830047607422
 70
   192
  0
VERTEX
  5
1E2
  8
0
 10
40.01599884033203
 20
0.0
 30
131.2510070800781
 70
   192
  0
VERTEX
  5
1E3
  8
0
 10
33.61299896240234
 20
0.0
 30
124.3249969482422
 70
   192
  0
VERTEX
  5
1E4
  8
0
 10
26.17399978637695
 20
8.798999786376953
 30
104.2570037841797
 70
   192
  0
VERTEX
  5
1E5
  8
0
 10
21.21599960327148
 20
16.58099937438965
 30
105.9560012817383
 70
   192
  0
VERTEX
  5
1E6
  8
0
 10
24.97999954223633
 20
14.01099967956543
 30
115.1689987182617
 70
   192
  0
VERTEX
  5
1E7
  8
0
 10
28.17099952697754
 20
7.686999797821045
 30
114.0
 70
   192
  0
VERTEX
  5
1E8
  8
0
 10
28.74200057983398
 20
0.0
 30
110.5080032348633
 70
   192
  0
VERTEX
  5
1E9
  8
0
 10
28.26199913024902
 20
0.0
 30
104.068000793457
 70
   192
  0
VERTEX
  5
1EA
  8
0
 10
29.74699974060059
 20
0.0
 30
113.6859970092773
 70
   192
  0
VERTEX
  5
1EB
  8
0
 10
32.85400009155273
 20
0.0
 30
123.5029983520508
 70
   192
  0
VERTEX
  5
1EC
  8
0
 10
29.87899971008301
 20
0.0
 30
114.1009979248047
 70
   192
  0
VERTEX
  5
1ED
  8
0
 10
33.40900039672852
 20
0.0
 30
124.1039962768555
 70
   192
  0
VERTEX
  5
1EE
  8
0
 10
60.77500152587891
 20
7.742000102996826
 30
135.9369964599609
 70
   192
  0
VERTEX
  5
1EF
  8
0
 10
49.07799911499023
 20
7.782000064849854
 30
134.3000030517578
 70
   192
  0
VERTEX
  5
1F0
  8
0
 10
49.56100082397461
 20
11.61200046539307
 30
132.2940063476562
 70
   192
  0
VERTEX
  5
1F1
  8
0
 10
60.66600036621094
 20
0.0
 30
136.2700042724609
 70
   192
  0
VERTEX
  5
1F2
  8
0
 10
52.40000152587891
 20
0.0
 30
136.0959930419922
 70
   192
  0
VERTEX
  5
1F3
  8
0
 10
49.20700073242188
 20
0.0
 30
134.9329986572266
 70
   192
  0
VERTEX
  5
1F4
  8
0
 10
49.0260009765625
 20
0.0
 30
134.8670043945312
 70
   192
  0
VERTEX
  5
1F5
  8
0
 10
40.47900009155273
 20
0.0
 30
131.7519989013672
 70
   192
  0
VERTEX
  5
1F6
  8
0
 10
49.86000061035156
 20
14.56799983978271
 30
130.9730072021484
 70
   192
  0
VERTEX
  5
1F7
  8
0
 10
61.4370002746582
 20
14.51299953460693
 30
132.9830017089844
 70
   192
  0
VERTEX
  5
1F8
  8
0
 10
61.13999938964844
 20
11.53400039672852
 30
134.1820068359375
 70
   192
  0
VERTEX
  5
1F9
  8
0
 10
27.91200065612793
 20
16.39800071716309
 30
123.379997253418
 70
   192
  0
VERTEX
  5
1FA
  8
0
 10
37.9379997253418
 20
15.0649995803833
 30
127.8339996337891
 70
   192
  0
VERTEX
  5
1FB
  8
0
 10
20.1200008392334
 20
18.94799995422363
 30
117.286003112793
 70
   192
  0
VERTEX
  5
1FC
  8
0
 10
13.84700012207031
 20
22.41399955749512
 30
108.3170013427734
 70
   192
  0
VERTEX
  5
1FD
  8
0
 10
20.04000091552734
 20
17.99200057983398
 30
100.4540023803711
 70
   192
  0
VERTEX
  5
1FE
  8
0
 10
28.23299980163574
 20
0.0
 30
103.6839981079102
 70
   192
  0
VERTEX
  5
1FF
  8
0
 10
27.55400085449219
 20
0.0
 30
94.56700134277344
 70
   192
  0
VERTEX
  5
200
  8
0
 10
26.70700073242188
 20
6.809999942779541
 30
94.56700134277344
 70
   192
  0
VERTEX
  5
201
  8
0
 10
26.07500076293945
 20
8.930999755859375
 30
94.56700134277344
 70
   192
  0
VERTEX
  5
202
  8
0
 10
21.76199913024902
 20
16.89399909973145
 30
94.56700134277344
 70
   192
  0
VERTEX
  5
203
  8
0
 10
19.29100036621094
 20
19.36100006103516
 30
94.56700134277344
 70
   192
  0
VERTEX
  5
204
  8
0
 10
25.22500038146973
 20
10.66499996185303
 30
94.56700134277344
 70
   192
  0
VERTEX
  5
205
  8
0
 10
23.05699920654297
 20
15.08699989318848
 30
94.56700134277344
 70
   192
  0
VERTEX
  5
206
  8
0
 10
16.86400032043457
 20
21.7819995880127
 30
94.56700134277344
 70
   192
  0
VERTEX
  5
207
  8
0
 10
11.71700000762939
 20
23.97100067138672
 30
101.9759979248047
 70
   192
  0
VERTEX
  5
208
  8
0
 10
14.98499965667725
 20
23.12100028991699
 30
94.56700134277344
 70
   192
  0
VERTEX
  5
209
  8
0
 10
6.39300012588501
 20
26.86300086975098
 30
94.56700134277344
 70
   192
  0
VERTEX
  5
20A
  8
0
 10
-0.2160000056028366
 20
27.71599960327148
 30
94.56700134277344
 70
   192
  0
VERTEX
  5
20B
  8
0
 10
0.7519999742507935
 20
26.99200057983398
 30
100.088996887207
 70
   192
  0
VERTEX
  5
20C
  8
0
 10
8.729999542236328
 20
26.17300033569336
 30
94.56700134277344
 70
   192
  0
VERTEX
  5
20D
  8
0
 10
10.52200031280518
 20
25.29800033569336
 30
94.56700134277344
 70
   192
  0
VERTEX
  5
20E
  8
0
 10
1.88100004196167
 20
26.51700019836426
 30
103.4049987792969
 70
   192
  0
VERTEX
  5
20F
  8
0
 10
4.10099983215332
 20
25.6609992980957
 30
109.0400009155273
 70
   192
  0
VERTEX
  5
210
  8
0
 10
5.314000129699707
 20
25.25799942016602
 30
110.6230010986328
 70
   192
  0
VERTEX
  5
211
  8
0
 10
3.203999996185303
 20
25.96299934387207
 30
107.2880020141602
 70
   192
  0
VERTEX
  5
212
  8
0
 10
9.315999984741211
 20
23.92900085449219
 30
115.8470001220703
 70
   192
  0
VERTEX
  5
213
  8
0
 10
14.7519998550415
 20
22.13500022888184
 30
120.0390014648438
 70
   192
  0
VERTEX
  5
214
  8
0
 10
23.57099914550781
 20
19.76600074768066
 30
124.2620010375977
 70
   192
  0
VERTEX
  5
215
  8
0
 10
32.06100082397461
 20
18.23399925231934
 30
127.0449981689453
 70
   192
  0
VERTEX
  5
216
  8
0
 10
25.11000061035156
 20
19.48800086975098
 30
124.765998840332
 70
   192
  0
VERTEX
  5
217
  8
0
 10
39.00699996948242
 20
17.37800025939941
 30
128.8350067138672
 70
   192
  0
VERTEX
  5
218
  8
0
 10
57.00699996948242
 20
16.10899925231934
 30
132.2760009765625
 70
   192
  0
VERTEX
  5
219
  8
0
 10
36.94699859619141
 20
17.63199996948242
 30
128.3040008544922
 70
   192
  0
VERTEX
  5
21A
  8
0
 10
81.34500122070312
 20
14.92899990081787
 30
135.4170074462891
 70
   192
  0
VERTEX
  5
21B
  8
0
 10
82.01300048828125
 20
11.04100036621094
 30
135.552001953125
 70
   192
  0
VERTEX
  5
21C
  8
0
 10
82.01100158691406
 20
6.675000190734863
 30
135.6080017089844
 70
   192
  0
VERTEX
  5
21D
  8
0
 10
82.01000213623047
 20
1.957000017166138
 30
135.6679992675781
 70
   192
  0
VERTEX
  5
21E
  8
0
 10
82.00900268554688
 20
0.0
 30
135.6779937744141
 70
   192
  0
VERTEX
  5
21F
  8
0
 10
71.63600158691406
 20
0.0
 30
136.5010070800781
 70
   192
  0
VERTEX
  5
220
  8
0
 10
60.80799865722656
 20
0.0
 30
136.2729949951172
 70
   192
  0
VERTEX
  5
221
  8
0
 10
82.01499938964844
 20
14.89700031280518
 30
135.5030059814453
 70
   192
  0
VERTEX
  5
222
  8
0
 10
61.48199844360352
 20
15.89200019836426
 30
132.85400390625
 70
   192
  0
VERTEX
  5
223
  8
0
 62
     9
 10
0.0
 20
0.0
 30
0.0
 70
   128
 71
     3
 72
     2
 73
     1
  0
VERTEX
  5
224
  8
0
 62
     9
 10
0.0
 20
0.0
 30
0.0
 70
   128
 71
     6
 72
     5
 73
     4
  0
VERTEX
  5
225
  8
0
 62
     9
 10
0.0
 20
0.0
 30
0.0
 70
   128
 71
     4
 72
     1
 73
     6
  0
VERTEX
  5
226
  8
0
 62
     9
 10
0.0
 20
0.0
 30
0.0
 70
   128
 71
     9
 72
     8
 73
     7
  0
VERTEX
  5
227
  8
0
 62
     9
 10
0.0
 20
0.0
 30
0.0
 70
   128
 71
     2
 72
     9
 73
    10
  0
VERTEX
  5
228
  8
0
 62
     9
 10
0.0
 20
0.0
 30
0.0
 70
   128
 71
    11
 72
    10
 73
     7
  0
VERTEX
  5
229
  8
0
 62
     9
 10
0.0
 20
0.0
 30
0.0
 70
   128
 71
     7
 72
    12
 73
    11
  0
VERTEX
  5
22A
  8
0
 62
     9
 10
0.0
 20
0.0
 30
0.0
 70
   128
 71
    11
 72
    13
 73
    10
  0
VERTEX
  5
22B
  8
0
 62
     9
 10
0.0
 20
0.0
 30
0.0
 70
   128
 71
    15
 72
    14
 73
     1
  0
VERTEX
  5
22C
  8
0
 62
     9
 10
0.0
 20
0.0
 30
0.0
 70
   128
 71
     1
 72
    10
 73
    15
  0
VERTEX
  5
22D
  8
0
 62
     9
 10
0.0
 20
0.0
 30
0.0
 70
   128
 71
    14
 72
    16
 73
     1
  0
VERTEX
  5
22E
  8
0
 62
     9
 10
0.0
 20
0.0
 30
0.0
 70
   128
 71
    19
 72
    18
 73
    17
  0
VERTEX
  5
22F
  8
0
 62
     9
 10
0.0
 20
0.0
 30
0.0
 70
   128
 71
    21
 72
    20
 73
    17
  0
VERTEX
  5
230
  8
0
 62
     9
 10
0.0
 20
0.0
 30
0.0
 70
   128
 71
    17
 72
    18
 73
    21
  0
VERTEX
  5
231
  8
0
 62
     9
 10
0.0
 20
0.0
 30
0.0
 70
   128
 71
    18
 72
    22
 73
    21
  0
VERTEX
  5
232
  8
0
 62
     9
 10
0.0
 20
0.0
 30
0.0
 70
   128
 71
     4
 72
    18
 73
    19
  0
VERTEX
  5
233
  8
0
 62
     9
 10
0.0
 20
0.0
 30
0.0
 70
   128
 71
    24
 72
    23
 73
    18
  0
VERTEX
  5
234
  8
0
 62
     9
 10
0.0
 20
0.0
 30
0.0
 70
   128
 71
    18
 72
     4
 73
    24
  0
VERTEX
  5
235
  8
0
 62
     9
 10
0.0
 20
0.0
 30
0.0
 70
   128
 71
    27
 72
    26
 73
    25
  0
VERTEX
  5
236
  8
0
 62
     9
 10
0.0
 20
0.0
 30
0.0
 70
   128
 71
     3
 72
    19
 73
    25
  0
VERTEX
  5
237
  8
0
 62
     9
 10
0.0
 20
0.0
 30
0.0
 70
   128
 71
    29
 72
    28
 73
     2
  0
VERTEX
  5
238
  8
0
 62
     9
 10
0.0
 20
0.0
 30
0.0
 70
   128
 71
    28
 72
    30
 73
     9
  0
VERTEX
  5
239
  8
0
 62
     9
 10
0.0
 20
0.0
 30
0.0
 70
   128
 71
    30
 72
    31
 73
     8
  0
VERTEX
  5
23A
  8
0
 62
     9
 10
0.0
 20
0.0
 30
0.0
 70
   128
 71
    32
 72
     8
 73
    31
  0
VERTEX
  5
23B
  8
0
 62
     9
 10
0.0
 20
0.0
 30
0.0
 70
   128
 71
    35
 72
    34
 73
    33
  0
VERTEX
  5
23C
  8
0
 62
     9
 10
0.0
 20
0.0
 30
0.0
 70
   128
 71
    33
 72
     7
 73
    35
  0
VERTEX
  5
23D
  8
0
 62
     9
 10
0.0
 20
0.0
 30
0.0
 70
   128
 71
     7
 72
    36
 73
    35
  0
VERTEX
  5
23E
  8
0
 62
     9
 10
0.0
 20
0.0
 30
0.0
 70
   128
 71
    32
 72
    38
 73
    37
  0
VERTEX
  5
23F
  8
0
 62
     9
 10
0.0
 20
0.0
 30
0.0
 70
   128
 71
    39
 72
     7
 73
     8
  0
VERTEX
  5
240
  8
0
 62
     9
 10
0.0
 20
0.0
 30
0.0
 70
   128
 71
     8
 72
    40
 73
    39
  0
VERTEX
  5
241
  8
0
 62
     9
 10
0.0
 20
0.0
 30
0.0
 70
   128
 71
     8
 72
    37
 73
    40
  0
VERTEX
  5
242
  8
0
 62
     9
 10
0.0
 20
0.0
 30
0.0
 70
   128
 71
    41
 72
    38
 73
    32
  0
VERTEX
  5
243
  8
0
 62
     9
 10
0.0
 20
0.0
 30
0.0
 70
   128
 71
    32
 72
    42
 73
    41
  0
VERTEX
  5
244
  8
0
 62
     9
 10
0.0
 20
0.0
 30
0.0
 70
   128
 71
    42
 72
    43
 73
    41
  0
VERTEX
  5
245
  8
0
 62
     9
 10
0.0
 20
0.0
 30
0.0
 70
   128
 71
    46
 72
    45
 73
    44
  0
VERTEX
  5
246
  8
0
 62
     9
 10
0.0
 20
0.0
 30
0.0
 70
   128
 71
    44
 72
    47
 73
    42
  0
VERTEX
  5
247
  8
0
 62
     9
 10
0.0
 20
0.0
 30
0.0
 70
   128
 71
    47
 72
    48
 73
    42
  0
VERTEX
  5
248
  8
0
 62
     9
 10
0.0
 20
0.0
 30
0.0
 70
   128
 71
    42
 72
    49
 73
    44
  0
VERTEX
  5
249
  8
0
 62
     9
 10
0.0
 20
0.0
 30
0.0
 70
   128
 71
    51
 72
    50
 73
    42
  0
VERTEX
  5
24A
  8
0
 62
     9
 10
0.0
 20
0.0
 30
0.0
 70
   128
 71
    50
 72
    52
 73
    42
  0
VERTEX
  5
24B
  8
0
 62
     9
 10
0.0
 20
0.0
 30
0.0
 70
   128
 71
    52
 72
    49
 73
    42
  0
VERTEX
  5
24C
  8
0
 62
     9
 10
0.0
 20
0.0
 30
0.0
 70
   128
 71
    54
 72
    53
 73
    31
  0
VERTEX
  5
24D
  8
0
 62
     9
 10
0.0
 20
0.0
 30
0.0
 70
   128
 71
    53
 72
    51
 73
    31
  0
VERTEX
  5
24E
  8
0
 62
     9
 10
0.0
 20
0.0
 30
0.0
 70
   128
 71
    55
 72
    30
 73
    28
  0
VERTEX
  5
24F
  8
0
 62
     9
 10
0.0
 20
0.0
 30
0.0
 70
   128
 71
    55
 72
    54
 73
    30
  0
VERTEX
  5
250
  8
0
 62
     9
 10
0.0
 20
0.0
 30
0.0
 70
   128
 71
    56
 72
    28
 73
    29
  0
VERTEX
  5
251
  8
0
 62
     9
 10
0.0
 20
0.0
 30
0.0
 70
   128
 71
    56
 72
    57
 73
    28
  0
VERTEX
  5
252
  8
0
 62
     9
 10
0.0
 20
0.0
 30
0.0
 70
   128
 71
    25
 72
    59
 73
    58
  0
VERTEX
  5
253
  8
0
 62
     9
 10
0.0
 20
0.0
 30
0.0
 70
   128
 71
    25
 72
    26
 73
    59
  0
VERTEX
  5
254
  8
0
 62
     9
 10
0.0
 20
0.0
 30
0.0
 70
   128
 71
    58
 72
    29
 73
    25
  0
VERTEX
  5
255
  8
0
 62
     9
 10
0.0
 20
0.0
 30
0.0
 70
   128
 71
    58
 72
    60
 73
    29
  0
VERTEX
  5
256
  8
0
 62
     9
 10
0.0
 20
0.0
 30
0.0
 70
   128
 71
    61
 72
    26
 73
    27
  0
VERTEX
  5
257
  8
0
 62
     9
 10
0.0
 20
0.0
 30
0.0
 70
   128
 71
    27
 72
    62
 73
    61
  0
VERTEX
  5
258
  8
0
 62
     9
 10
0.0
 20
0.0
 30
0.0
 70
   128
 71
    27
 72
    17
 73
    63
  0
VERTEX
  5
259
  8
0
 62
     9
 10
0.0
 20
0.0
 30
0.0
 70
   128
 71
    66
 72
    65
 73
    64
  0
VERTEX
  5
25A
  8
0
 62
     9
 10
0.0
 20
0.0
 30
0.0
 70
   128
 71
    64
 72
    67
 73
    66
  0
VERTEX
  5
25B
  8
0
 62
     9
 10
0.0
 20
0.0
 30
0.0
 70
   128
 71
    64
 72
    63
 73
    17
  0
VERTEX
  5
25C
  8
0
 62
     9
 10
0.0
 20
0.0
 30
0.0
 70
   128
 71
    17
 72
    20
 73
    64
  0
VERTEX
  5
25D
  8
0
 62
     9
 10
0.0
 20
0.0
 30
0.0
 70
   128
 71
    64
 72
    20
 73
    67
  0
VERTEX
  5
25E
  8
0
 62
     9
 10
0.0
 20
0.0
 30
0.0
 70
   128
 71
    63
 72
    62
 73
    27
  0
VERTEX
  5
25F
  8
0
 62
     9
 10
0.0
 20
0.0
 30
0.0
 70
   128
 71
    62
 72
    68
 73
    61
  0
VERTEX
  5
260
  8
0
 62
     9
 10
0.0
 20
0.0
 30
0.0
 70
   128
 71
    69
 72
    26
 73
    61
  0
VERTEX
  5
261
  8
0
 62
     9
 10
0.0
 20
0.0
 30
0.0
 70
   128
 71
    26
 72
    69
 73
    59
  0
VERTEX
  5
262
  8
0
 62
     9
 10
0.0
 20
0.0
 30
0.0
 70
   128
 71
    29
 72
    60
 73
    56
  0
VERTEX
  5
263
  8
0
 62
     9
 10
0.0
 20
0.0
 30
0.0
 70
   128
 71
    28
 72
    57
 73
    55
  0
VERTEX
  5
264
  8
0
 62
     9
 10
0.0
 20
0.0
 30
0.0
 70
   128
 71
    31
 72
    30
 73
    54
  0
VERTEX
  5
265
  8
0
 62
     9
 10
0.0
 20
0.0
 30
0.0
 70
   128
 71
    42
 72
    31
 73
    51
  0
VERTEX
  5
266
  8
0
 62
     9
 10
0.0
 20
0.0
 30
0.0
 70
   128
 71
    44
 72
    49
 73
    46
  0
VERTEX
  5
267
  8
0
 62
     9
 10
0.0
 20
0.0
 30
0.0
 70
   128
 71
    42
 72
    48
 73
    43
  0
VERTEX
  5
268
  8
0
 62
     9
 10
0.0
 20
0.0
 30
0.0
 70
   128
 71
    37
 72
     8
 73
    32
  0
VERTEX
  5
269
  8
0
 62
     9
 10
0.0
 20
0.0
 30
0.0
 70
   128
 71
     7
 72
    39
 73
    36
  0
VERTEX
  5
26A
  8
0
 62
     9
 10
0.0
 20
0.0
 30
0.0
 70
   128
 71
    31
 72
    42
 73
    32
  0
VERTEX
  5
26B
  8
0
 62
     9
 10
0.0
 20
0.0
 30
0.0
 70
   128
 71
     8
 72
     9
 73
    30
  0
VERTEX
  5
26C
  8
0
 62
     9
 10
0.0
 20
0.0
 30
0.0
 70
   128
 71
     9
 72
     2
 73
    28
  0
VERTEX
  5
26D
  8
0
 62
     9
 10
0.0
 20
0.0
 30
0.0
 70
   128
 71
     2
 72
     3
 73
    29
  0
VERTEX
  5
26E
  8
0
 62
     9
 10
0.0
 20
0.0
 30
0.0
 70
   128
 71
    25
 72
    29
 73
     3
  0
VERTEX
  5
26F
  8
0
 62
     9
 10
0.0
 20
0.0
 30
0.0
 70
   128
 71
    25
 72
    19
 73
    27
  0
VERTEX
  5
270
  8
0
 62
     9
 10
0.0
 20
0.0
 30
0.0
 70
   128
 71
     4
 72
     5
 73
    24
  0
VERTEX
  5
271
  8
0
 62
     9
 10
0.0
 20
0.0
 30
0.0
 70
   128
 71
    19
 72
     3
 73
     4
  0
VERTEX
  5
272
  8
0
 62
     9
 10
0.0
 20
0.0
 30
0.0
 70
   128
 71
    18
 72
    23
 73
    22
  0
VERTEX
  5
273
  8
0
 62
     9
 10
0.0
 20
0.0
 30
0.0
 70
   128
 71
    17
 72
    27
 73
    19
  0
VERTEX
  5
274
  8
0
 62
     9
 10
0.0
 20
0.0
 30
0.0
 70
   128
 71
    10
 72
    13
 73
    15
  0
VERTEX
  5
275
  8
0
 62
     9
 10
0.0
 20
0.0
 30
0.0
 70
   128
 71
     7
 72
    33
 73
    12
  0
VERTEX
  5
276
  8
0
 62
     9
 10
0.0
 20
0.0
 30
0.0
 70
   128
 71
    10
 72
     1
 73
     2
  0
VERTEX
  5
277
  8
0
 62
     9
 10
0.0
 20
0.0
 30
0.0
 70
   128
 71
     7
 72
    10
 73
     9
  0
VERTEX
  5
278
  8
0
 62
     9
 10
0.0
 20
0.0
 30
0.0
 70
   128
 71
     1
 72
    16
 73
     6
  0
VERTEX
  5
279
  8
0
 62
     9
 10
0.0
 20
0.0
 30
0.0
 70
   128
 71
     1
 72
     4
 73
     3
  0
SEQEND
  5
27A
  8
0
 62
     9
  0
ENDBLK
  5
27D
  8
0
  0
BLOCK
  8
0
  2
E3_NODE_7_
 70
     0
 10
0.0
 20
0.0
 30
0.0
  3
E3_NODE_7_
  1

  0
POLYLINE
  5
27F
  8
0
 62
     9
 66
     1
 10
0.0
 20
0.0
 30
0.0
 70
    64
 71
    47
 72
    54
  0
VERTEX
  5
280
  8
0
 10
56.87400054931641
 20
17.42900085449219
 30
133.4429931640625
 70
   192
  0
VERTEX
  5
281
  8
0
 10
57.00699996948242
 20
16.10899925231934
 30
132.2760009765625
 70
   192
  0
VERTEX
  5
282
  8
0
 10
39.00699996948242
 20
17.37800025939941
 30
128.8350067138672
 70
   192
  0
VERTEX
  5
283
  8
0
 10
56.59199905395508
 20
16.71599960327148
 30
135.0359954833984
 70
   192
  0
VERTEX
  5
284
  8
0
 10
38.77899932861328
 20
18.32799911499023
 30
130.0269927978516
 70
   192
  0
VERTEX
  5
285
  8
0
 10
31.77599906921387
 20
18.93499946594238
 30
128.1959991455078
 70
   192
  0
VERTEX
  5
286
  8
0
 10
36.94699859619141
 20
17.63199996948242
 30
128.3040008544922
 70
   192
  0
VERTEX
  5
287
  8
0
 10
33.5369987487793
 20
18.17200088500977
 30
130.0050048828125
 70
   192
  0
VERTEX
  5
288
  8
0
 10
31.34600067138672
 20
18.3799991607666
 30
129.3820037841797
 70
   192
  0
VERTEX
  5
289
  8
0
 10
32.06100082397461
 20
18.23399925231934
 30
127.0449981689453
 70
   192
  0
VERTEX
  5
28A
  8
0
 10
25.11000061035156
 20
19.48800086975098
 30
124.765998840332
 70
   192
  0
VERTEX
  5
28B
  8
0
 10
23.20899963378906
 20
20.10499954223633
 30
125.2239990234375
 70
   192
  0
VERTEX
  5
28C
  8
0
 10
23.57099914550781
 20
19.76600074768066
 30
124.2620010375977
 70
   192
  0
VERTEX
  5
28D
  8
0
 10
14.7519998550415
 20
22.13500022888184
 30
120.0390014648438
 70
   192
  0
VERTEX
  5
28E
  8
0
 10
14.3769998550415
 20
22.18400001525879
 30
120.6029968261719
 70
   192
  0
VERTEX
  5
28F
  8
0
 10
13.9680004119873
 20
21.93899917602539
 30
121.0869979858398
 70
   192
  0
VERTEX
  5
290
  8
0
 10
19.5620002746582
 20
20.4950008392334
 30
124.2829971313477
 70
   192
  0
VERTEX
  5
291
  8
0
 10
9.315999984741211
 20
23.92900085449219
 30
115.8470001220703
 70
   192
  0
VERTEX
  5
292
  8
0
 10
8.982999801635742
 20
23.92600059509277
 30
116.1699981689453
 70
   192
  0
VERTEX
  5
293
  8
0
 10
5.314000129699707
 20
25.25799942016602
 30
110.6230010986328
 70
   192
  0
VERTEX
  5
294
  8
0
 10
3.852999925613403
 20
25.65500068664551
 30
109.1689987182617
 70
   192
  0
VERTEX
  5
295
  8
0
 10
5.000999927520752
 20
25.09499931335449
 30
111.2730026245117
 70
   192
  0
VERTEX
  5
296
  8
0
 10
3.607000112533569
 20
25.59700012207031
 30
109.2890014648438
 70
   192
  0
VERTEX
  5
297
  8
0
 10
4.10099983215332
 20
25.6609992980957
 30
109.0400009155273
 70
   192
  0
VERTEX
  5
298
  8
0
 10
3.203999996185303
 20
25.96299934387207
 30
107.2880020141602
 70
   192
  0
VERTEX
  5
299
  8
0
 10
2.759999990463257
 20
25.9109992980957
 30
107.4800033569336
 70
   192
  0
VERTEX
  5
29A
  8
0
 10
0.625
 20
26.98800086975098
 30
100.1149978637695
 70
   192
  0
VERTEX
  5
29B
  8
0
 10
2.980999946594238
 20
25.95599937438965
 30
107.3870010375977
 70
   192
  0
VERTEX
  5
29C
  8
0
 10
1.88100004196167
 20
26.51700019836426
 30
103.4049987792969
 70
   192
  0
VERTEX
  5
29D
  8
0
 10
0.4979999959468842
 20
26.97299957275391
 30
100.1399993896484
 70
   192
  0
VERTEX
  5
29E
  8
0
 10
2.243000030517578
 20
26.15399932861328
 30
105.802001953125
 70
   192
  0
VERTEX
  5
29F
  8
0
 10
0.7519999742507935
 20
26.99200057983398
 30
100.088996887207
 70
   192
  0
VERTEX
  5
2A0
  8
0
 10
-0.2160000056028366
 20
27.71599960327148
 30
94.56700134277344
 70
   192
  0
VERTEX
  5
2A1
  8
0
 10
-0.2849999964237213
 20
27.7140007019043
 30
94.56700134277344
 70
   192
  0
VERTEX
  5
2A2
  8
0
 10
81.97799682617188
 20
16.10700035095215
 30
136.72900390625
 70
   192
  0
VERTEX
  5
2A3
  8
0
 10
65.8479995727539
 20
16.24399948120117
 30
136.2519989013672
 70
   192
  0
VERTEX
  5
2A4
  8
0
 10
81.9489974975586
 20
16.12700080871582
 30
137.6909942626953
 70
   192
  0
VERTEX
  5
2A5
  8
0
 10
81.97799682617188
 20
16.10700035095215
 30
136.7310028076172
 70
   192
  0
VERTEX
  5
2A6
  8
0
 10
81.92900085449219
 20
15.42500019073486
 30
138.3650054931641
 70
   192
  0
VERTEX
  5
2A7
  8
0
 10
81.99299621582031
 20
16.09799957275391
 30
136.2530059814453
 70
   192
  0
VERTEX
  5
2A8
  8
0
 10
81.34500122070312
 20
14.92899990081787
 30
135.4170074462891
 70
   192
  0
VERTEX
  5
2A9
  8
0
 10
61.48199844360352
 20
15.89200019836426
 30
132.85400390625
 70
   192
  0
VERTEX
  5
2AA
  8
0
 10
82.01499938964844
 20
14.89700031280518
 30
135.5030059814453
 70
   192
  0
VERTEX
  5
2AB
  8
0
 10
-0.3529999852180481
 20
27.71199989318848
 30
94.56700134277344
 70
   192
  0
VERTEX
  5
2AC
  8
0
 10
8.644000053405762
 20
23.78499984741211
 30
116.4530029296875
 70
   192
  0
VERTEX
  5
2AD
  8
0
 10
22.7450008392334
 20
19.67399978637695
 30
126.1019973754883
 70
   192
  0
VERTEX
  5
2AE
  8
0
 10
38.4010009765625
 20
17.71100044250488
 30
131.3869934082031
 70
   192
  0
VERTEX
  5
2AF
  8
0
 62
     9
 10
0.0
 20
0.0
 30
0.0
 70
   128
 71
     3
 72
     2
 73
     1
  0
VERTEX
  5
2B0
  8
0
 62
     9
 10
0.0
 20
0.0
 30
0.0
 70
   128
 71
     5
 72
     1
 73
     4
  0
VERTEX
  5
2B1
  8
0
 62
     9
 10
0.0
 20
0.0
 30
0.0
 70
   128
 71
     7
 72
     5
 73
     6
  0
VERTEX
  5
2B2
  8
0
 62
     9
 10
0.0
 20
0.0
 30
0.0
 70
   128
 71
     7
 72
     3
 73
     5
  0
VERTEX
  5
2B3
  8
0
 62
     9
 10
0.0
 20
0.0
 30
0.0
 70
   128
 71
     8
 72
     6
 73
     5
  0
VERTEX
  5
2B4
  8
0
 62
     9
 10
0.0
 20
0.0
 30
0.0
 70
   128
 71
     8
 72
     9
 73
     6
  0
VERTEX
  5
2B5
  8
0
 62
     9
 10
0.0
 20
0.0
 30
0.0
 70
   128
 71
    11
 72
    10
 73
     6
  0
VERTEX
  5
2B6
  8
0
 62
     9
 10
0.0
 20
0.0
 30
0.0
 70
   128
 71
     6
 72
    12
 73
    11
  0
VERTEX
  5
2B7
  8
0
 62
     9
 10
0.0
 20
0.0
 30
0.0
 70
   128
 71
    12
 72
     6
 73
     9
  0
VERTEX
  5
2B8
  8
0
 62
     9
 10
0.0
 20
0.0
 30
0.0
 70
   128
 71
    14
 72
    13
 73
    12
  0
VERTEX
  5
2B9
  8
0
 62
     9
 10
0.0
 20
0.0
 30
0.0
 70
   128
 71
    17
 72
    16
 73
    15
  0
VERTEX
  5
2BA
  8
0
 62
     9
 10
0.0
 20
0.0
 30
0.0
 70
   128
 71
    15
 72
    12
 73
    17
  0
VERTEX
  5
2BB
  8
0
 62
     9
 10
0.0
 20
0.0
 30
0.0
 70
   128
 71
    18
 72
    14
 73
    15
  0
VERTEX
  5
2BC
  8
0
 62
     9
 10
0.0
 20
0.0
 30
0.0
 70
   128
 71
    19
 72
    15
 73
    16
  0
VERTEX
  5
2BD
  8
0
 62
     9
 10
0.0
 20
0.0
 30
0.0
 70
   128
 71
    20
 72
    18
 73
    19
  0
VERTEX
  5
2BE
  8
0
 62
     9
 10
0.0
 20
0.0
 30
0.0
 70
   128
 71
    19
 72
    21
 73
    20
  0
VERTEX
  5
2BF
  8
0
 62
     9
 10
0.0
 20
0.0
 30
0.0
 70
   128
 71
    22
 72
    21
 73
    19
  0
VERTEX
  5
2C0
  8
0
 62
     9
 10
0.0
 20
0.0
 30
0.0
 70
   128
 71
    22
 72
    23
 73
    21
  0
VERTEX
  5
2C1
  8
0
 62
     9
 10
0.0
 20
0.0
 30
0.0
 70
   128
 71
    25
 72
    24
 73
    21
  0
VERTEX
  5
2C2
  8
0
 62
     9
 10
0.0
 20
0.0
 30
0.0
 70
   128
 71
    21
 72
    23
 73
    26
  0
VERTEX
  5
2C3
  8
0
 62
     9
 10
0.0
 20
0.0
 30
0.0
 70
   128
 71
    29
 72
    28
 73
    27
  0
VERTEX
  5
2C4
  8
0
 62
     9
 10
0.0
 20
0.0
 30
0.0
 70
   128
 71
    29
 72
    25
 73
    28
  0
VERTEX
  5
2C5
  8
0
 62
     9
 10
0.0
 20
0.0
 30
0.0
 70
   128
 71
    31
 72
    30
 73
    27
  0
VERTEX
  5
2C6
  8
0
 62
     9
 10
0.0
 20
0.0
 30
0.0
 70
   128
 71
    27
 72
    28
 73
    31
  0
VERTEX
  5
2C7
  8
0
 62
     9
 10
0.0
 20
0.0
 30
0.0
 70
   128
 71
    33
 72
    32
 73
    27
  0
VERTEX
  5
2C8
  8
0
 62
     9
 10
0.0
 20
0.0
 30
0.0
 70
   128
 71
    34
 72
    27
 73
    30
  0
VERTEX
  5
2C9
  8
0
 62
     9
 10
0.0
 20
0.0
 30
0.0
 70
   128
 71
    36
 72
     1
 73
    35
  0
VERTEX
  5
2CA
  8
0
 62
     9
 10
0.0
 20
0.0
 30
0.0
 70
   128
 71
    36
 72
     4
 73
     1
  0
VERTEX
  5
2CB
  8
0
 62
     9
 10
0.0
 20
0.0
 30
0.0
 70
   128
 71
    38
 72
    37
 73
    36
  0
VERTEX
  5
2CC
  8
0
 62
     9
 10
0.0
 20
0.0
 30
0.0
 70
   128
 71
    37
 72
    39
 73
    36
  0
VERTEX
  5
2CD
  8
0
 62
     9
 10
0.0
 20
0.0
 30
0.0
 70
   128
 71
    42
 72
    41
 73
    40
  0
VERTEX
  5
2CE
  8
0
 62
     9
 10
0.0
 20
0.0
 30
0.0
 70
   128
 71
    41
 72
    43
 73
    40
  0
VERTEX
  5
2CF
  8
0
 62
     9
 10
0.0
 20
0.0
 30
0.0
 70
   128
 71
    40
 72
     1
 73
    42
  0
VERTEX
  5
2D0
  8
0
 62
     9
 10
0.0
 20
0.0
 30
0.0
 70
   128
 71
    40
 72
    35
 73
     1
  0
VERTEX
  5
2D1
  8
0
 62
     9
 10
0.0
 20
0.0
 30
0.0
 70
   128
 71
     1
 72
     2
 73
    42
  0
VERTEX
  5
2D2
  8
0
 62
     9
 10
0.0
 20
0.0
 30
0.0
 70
   128
 71
    35
 72
    38
 73
    36
  0
VERTEX
  5
2D3
  8
0
 62
     9
 10
0.0
 20
0.0
 30
0.0
 70
   128
 71
    30
 72
    44
 73
    34
  0
VERTEX
  5
2D4
  8
0
 62
     9
 10
0.0
 20
0.0
 30
0.0
 70
   128
 71
    27
 72
    34
 73
    33
  0
VERTEX
  5
2D5
  8
0
 62
     9
 10
0.0
 20
0.0
 30
0.0
 70
   128
 71
    28
 72
    26
 73
    31
  0
VERTEX
  5
2D6
  8
0
 62
     9
 10
0.0
 20
0.0
 30
0.0
 70
   128
 71
    27
 72
    32
 73
    29
  0
VERTEX
  5
2D7
  8
0
 62
     9
 10
0.0
 20
0.0
 30
0.0
 70
   128
 71
    26
 72
    28
 73
    21
  0
VERTEX
  5
2D8
  8
0
 62
     9
 10
0.0
 20
0.0
 30
0.0
 70
   128
 71
    21
 72
    28
 73
    25
  0
VERTEX
  5
2D9
  8
0
 62
     9
 10
0.0
 20
0.0
 30
0.0
 70
   128
 71
    19
 72
    45
 73
    22
  0
VERTEX
  5
2DA
  8
0
 62
     9
 10
0.0
 20
0.0
 30
0.0
 70
   128
 71
    21
 72
    24
 73
    20
  0
VERTEX
  5
2DB
  8
0
 62
     9
 10
0.0
 20
0.0
 30
0.0
 70
   128
 71
    16
 72
    45
 73
    19
  0
VERTEX
  5
2DC
  8
0
 62
     9
 10
0.0
 20
0.0
 30
0.0
 70
   128
 71
    15
 72
    19
 73
    18
  0
VERTEX
  5
2DD
  8
0
 62
     9
 10
0.0
 20
0.0
 30
0.0
 70
   128
 71
    12
 72
    46
 73
    17
  0
VERTEX
  5
2DE
  8
0
 62
     9
 10
0.0
 20
0.0
 30
0.0
 70
   128
 71
    12
 72
    15
 73
    14
  0
VERTEX
  5
2DF
  8
0
 62
     9
 10
0.0
 20
0.0
 30
0.0
 70
   128
 71
     9
 72
    46
 73
    12
  0
VERTEX
  5
2E0
  8
0
 62
     9
 10
0.0
 20
0.0
 30
0.0
 70
   128
 71
    12
 72
    13
 73
    11
  0
VERTEX
  5
2E1
  8
0
 62
     9
 10
0.0
 20
0.0
 30
0.0
 70
   128
 71
     5
 72
    47
 73
     8
  0
VERTEX
  5
2E2
  8
0
 62
     9
 10
0.0
 20
0.0
 30
0.0
 70
   128
 71
     6
 72
    10
 73
     7
  0
VERTEX
  5
2E3
  8
0
 62
     9
 10
0.0
 20
0.0
 30
0.0
 70
   128
 71
     4
 72
    47
 73
     5
  0
VERTEX
  5
2E4
  8
0
 62
     9
 10
0.0
 20
0.0
 30
0.0
 70
   128
 71
     1
 72
     5
 73
     3
  0
SEQEND
  5
2E5
  8
0
 62
     9
  0
ENDBLK
  5
2E8
  8
0
  0
BLOCK
  8
0
  2
E3_NODE_8_
 70
     0
 10
0.0
 20
0.0
 30
0.0
  3
E3_NODE_8_
  1

  0
POLYLINE
  5
2EA
  8
0
 62
     9
 66
     1
 10
0.0
 20
0.0
 30
0.0
 70
    64
 71
    31
 72
    32
  0
VERTEX
  5
2EB
  8
0
 10
98.08200073242188
 20
6.451000213623047
 30
140.9049987792969
 70
   192
  0
VERTEX
  5
2EC
  8
0
 10
94.3010025024414
 20
11.70600032806396
 30
139.3560028076172
 70
   192
  0
VERTEX
  5
2ED
  8
0
 10
94.81099700927734
 20
9.21399974822998
 30
141.4299926757812
 70
   192
  0
VERTEX
  5
2EE
  8
0
 10
93.00599670410156
 20
10.89700031280518
 30
140.8170013427734
 70
   192
  0
VERTEX
  5
2EF
  8
0
 10
93.49199676513672
 20
10.44400024414062
 30
140.9819946289062
 70
   192
  0
VERTEX
  5
2F0
  8
0
 10
81.9489974975586
 20
16.12700080871582
 30
137.6909942626953
 70
   192
  0
VERTEX
  5
2F1
  8
0
 10
81.92900085449219
 20
15.42500019073486
 30
138.3650054931641
 70
   192
  0
VERTEX
  5
2F2
  8
0
 10
86.16100311279297
 20
14.78899955749512
 30
138.9799957275391
 70
   192
  0
VERTEX
  5
2F3
  8
0
 10
88.64399719238281
 20
15.03400039672852
 30
137.8049926757812
 70
   192
  0
VERTEX
  5
2F4
  8
0
 10
81.97799682617188
 20
16.10700035095215
 30
136.7310028076172
 70
   192
  0
VERTEX
  5
2F5
  8
0
 10
96.3759994506836
 20
7.271999835968018
 30
138.7030029296875
 70
   192
  0
VERTEX
  5
2F6
  8
0
 10
96.875
 20
5.933000087738037
 30
138.9660034179688
 70
   192
  0
VERTEX
  5
2F7
  8
0
 10
81.99299621582031
 20
16.09799957275391
 30
136.2530059814453
 70
   192
  0
VERTEX
  5
2F8
  8
0
 10
88.08399963378906
 20
13.76200008392334
 30
136.2960052490234
 70
   192
  0
VERTEX
  5
2F9
  8
0
 10
82.01499938964844
 20
14.89700031280518
 30
135.5030059814453
 70
   192
  0
VERTEX
  5
2FA
  8
0
 10
81.97799682617188
 20
16.10700035095215
 30
136.72900390625
 70
   192
  0
VERTEX
  5
2FB
  8
0
 10
87.89299774169922
 20
14.02999973297119
 30
139.3999938964844
 70
   192
  0
VERTEX
  5
2FC
  8
0
 10
91.19999694824219
 20
12.57999992370605
 30
140.2039947509766
 70
   192
  0
VERTEX
  5
2FD
  8
0
 10
92.91999816894531
 20
11.20400047302246
 30
137.3849945068359
 70
   192
  0
VERTEX
  5
2FE
  8
0
 10
90.40899658203125
 20
12.58199977874756
 30
136.8049926757812
 70
   192
  0
VERTEX
  5
2FF
  8
0
 10
88.35099792480469
 20
13.71199989318848
 30
136.3309936523438
 70
   192
  0
VERTEX
  5
300
  8
0
 10
93.32499694824219
 20
10.74300003051758
 30
137.5390014648438
 70
   192
  0
VERTEX
  5
301
  8
0
 10
98.72100067138672
 20
0.0
 30
142.4720001220703
 70
   192
  0
VERTEX
  5
302
  8
0
 10
97.18199920654297
 20
4.60099983215332
 30
142.3789978027344
 70
   192
  0
VERTEX
  5
303
  8
0
 10
97.875
 20
0.0
 30
142.6750030517578
 70
   192
  0
VERTEX
  5
304
  8
0
 10
96.4729995727539
 20
5.980000019073486
 30
142.0950012207031
 70
   192
  0
VERTEX
  5
305
  8
0
 10
99.4260025024414
 20
0.0
 30
141.5590057373047
 70
   192
  0
VERTEX
  5
306
  8
0
 10
98.14199829101562
 20
2.529999971389771
 30
139.6340026855469
 70
   192
  0
VERTEX
  5
307
  8
0
 10
99.42900085449219
 20
0.0
 30
141.5549926757812
 70
   192
  0
VERTEX
  5
308
  8
0
 10
99.1989974975586
 20
-0.0010000000474975
 30
140.3950042724609
 70
   192
  0
VERTEX
  5
309
  8
0
 10
98.36699676513672
 20
0.0
 30
139.7590026855469
 70
   192
  0
VERTEX
  5
30A
  8
0
 62
     9
 10
0.0
 20
0.0
 30
0.0
 70
   128
 71
     3
 72
     2
 73
     1
  0
VERTEX
  5
30B
  8
0
 62
     9
 10
0.0
 20
0.0
 30
0.0
 70
   128
 71
     5
 72
     4
 73
     2
  0
VERTEX
  5
30C
  8
0
 62
     9
 10
0.0
 20
0.0
 30
0.0
 70
   128
 71
     2
 72
     3
 73
     5
  0
VERTEX
  5
30D
  8
0
 62
     9
 10
0.0
 20
0.0
 30
0.0
 70
   128
 71
     8
 72
     7
 73
     6
  0
VERTEX
  5
30E
  8
0
 62
     9
 10
0.0
 20
0.0
 30
0.0
 70
   128
 71
     6
 72
    10
 73
     9
  0
VERTEX
  5
30F
  8
0
 62
     9
 10
0.0
 20
0.0
 30
0.0
 70
   128
 71
     6
 72
     9
 73
     8
  0
VERTEX
  5
310
  8
0
 62
     9
 10
0.0
 20
0.0
 30
0.0
 70
   128
 71
    11
 72
     1
 73
     2
  0
VERTEX
  5
311
  8
0
 62
     9
 10
0.0
 20
0.0
 30
0.0
 70
   128
 71
    11
 72
    12
 73
     1
  0
VERTEX
  5
312
  8
0
 62
     9
 10
0.0
 20
0.0
 30
0.0
 70
   128
 71
    14
 72
     9
 73
    13
  0
VERTEX
  5
313
  8
0
 62
     9
 10
0.0
 20
0.0
 30
0.0
 70
   128
 71
    13
 72
    15
 73
    14
  0
VERTEX
  5
314
  8
0
 62
     9
 10
0.0
 20
0.0
 30
0.0
 70
   128
 71
     9
 72
    16
 73
    13
  0
VERTEX
  5
315
  8
0
 62
     9
 10
0.0
 20
0.0
 30
0.0
 70
   128
 71
    18
 72
    17
 73
     9
  0
VERTEX
  5
316
  8
0
 62
     9
 10
0.0
 20
0.0
 30
0.0
 70
   128
 71
     9
 72
     2
 73
    18
  0
VERTEX
  5
317
  8
0
 62
     9
 10
0.0
 20
0.0
 30
0.0
 70
   128
 71
    20
 72
    19
 73
     2
  0
VERTEX
  5
318
  8
0
 62
     9
 10
0.0
 20
0.0
 30
0.0
 70
   128
 71
     2
 72
     9
 73
    20
  0
VERTEX
  5
319
  8
0
 62
     9
 10
0.0
 20
0.0
 30
0.0
 70
   128
 71
     9
 72
    21
 73
    20
  0
VERTEX
  5
31A
  8
0
 62
     9
 10
0.0
 20
0.0
 30
0.0
 70
   128
 71
    19
 72
    22
 73
     2
  0
VERTEX
  5
31B
  8
0
 62
     9
 10
0.0
 20
0.0
 30
0.0
 70
   128
 71
    24
 72
     1
 73
    23
  0
VERTEX
  5
31C
  8
0
 62
     9
 10
0.0
 20
0.0
 30
0.0
 70
   128
 71
    23
 72
    25
 73
    24
  0
VERTEX
  5
31D
  8
0
 62
     9
 10
0.0
 20
0.0
 30
0.0
 70
   128
 71
    24
 72
    26
 73
     1
  0
VERTEX
  5
31E
  8
0
 62
     9
 10
0.0
 20
0.0
 30
0.0
 70
   128
 71
    28
 72
    27
 73
     1
  0
VERTEX
  5
31F
  8
0
 62
     9
 10
0.0
 20
0.0
 30
0.0
 70
   128
 71
    29
 72
    27
 73
    28
  0
VERTEX
  5
320
  8
0
 62
     9
 10
0.0
 20
0.0
 30
0.0
 70
   128
 71
    28
 72
    30
 73
    29
  0
VERTEX
  5
321
  8
0
 62
     9
 10
0.0
 20
0.0
 30
0.0
 70
   128
 71
    28
 72
    31
 73
    30
  0
VERTEX
  5
322
  8
0
 62
     9
 10
0.0
 20
0.0
 30
0.0
 70
   128
 71
     1
 72
    12
 73
    28
  0
VERTEX
  5
323
  8
0
 62
     9
 10
0.0
 20
0.0
 30
0.0
 70
   128
 71
     1
 72
    27
 73
    23
  0
VERTEX
  5
324
  8
0
 62
     9
 10
0.0
 20
0.0
 30
0.0
 70
   128
 71
     9
 72
    14
 73
    21
  0
VERTEX
  5
325
  8
0
 62
     9
 10
0.0
 20
0.0
 30
0.0
 70
   128
 71
     2
 72
     4
 73
    18
  0
VERTEX
  5
326
  8
0
 62
     9
 10
0.0
 20
0.0
 30
0.0
 70
   128
 71
     9
 72
    10
 73
    16
  0
VERTEX
  5
327
  8
0
 62
     9
 10
0.0
 20
0.0
 30
0.0
 70
   128
 71
     2
 72
    22
 73
    11
  0
VERTEX
  5
328
  8
0
 62
     9
 10
0.0
 20
0.0
 30
0.0
 70
   128
 71
     9
 72
    17
 73
     8
  0
VERTEX
  5
329
  8
0
 62
     9
 10
0.0
 20
0.0
 30
0.0
 70
   128
 71
     1
 72
    26
 73
     3
  0
SEQEND
  5
32A
  8
0
 62
     9
  0
ENDBLK
  5
32D
  8
0
  0
BLOCK
  8
0
  2
E3_NODE_9_
 70
     0
 10
0.0
 20
0.0
 30
0.0
  3
E3_NODE_9_
  1

  0
POLYLINE
  5
32F
  8
0
 62
     9
 66
     1
 10
0.0
 20
0.0
 30
0.0
 70
    64
 71
    70
 72
    87
  0
VERTEX
  5
330
  8
0
 10
16.62599945068359
 20
5.961999893188477
 30
131.8500061035156
 70
   192
  0
VERTEX
  5
331
  8
0
 10
34.33700180053711
 20
5.122000217437744
 30
136.1580047607422
 70
   192
  0
VERTEX
  5
332
  8
0
 10
34.02399826049805
 20
10.26700019836426
 30
134.6699981689453
 70
   192
  0
VERTEX
  5
333
  8
0
 10
16.57299995422363
 20
0.0
 30
131.8919982910156
 70
   192
  0
VERTEX
  5
334
  8
0
 10
29.14500045776367
 20
0.0
 30
135.5169982910156
 70
   192
  0
VERTEX
  5
335
  8
0
 10
-1.328999996185303
 20
7.479000091552734
 30
124.802001953125
 70
   192
  0
VERTEX
  5
336
  8
0
 10
1.0
 20
14.33500003814697
 30
123.0869979858398
 70
   192
  0
VERTEX
  5
337
  8
0
 10
-6.370999813079834
 20
15.72399997711182
 30
117.6989974975586
 70
   192
  0
VERTEX
  5
338
  8
0
 10
17.23200035095215
 20
11.69900035858154
 30
130.2259979248047
 70
   192
  0
VERTEX
  5
339
  8
0
 10
-17.0629997253418
 20
9.071999549865723
 30
112.0469970703125
 70
   192
  0
VERTEX
  5
33A
  8
0
 10
-12.58899974822998
 20
17.00399971008301
 30
110.7539978027344
 70
   192
  0
VERTEX
  5
33B
  8
0
 10
-17.13899993896484
 20
18.26600074768066
 30
102.5650024414062
 70
   192
  0
VERTEX
  5
33C
  8
0
 10
-9.767000198364258
 20
8.298999786376953
 30
119.306999206543
 70
   192
  0
VERTEX
  5
33D
  8
0
 10
-9.170999526977539
 20
0.0
 30
121.1309967041016
 70
   192
  0
VERTEX
  5
33E
  8
0
 10
-10.72299957275391
 20
0.0
 30
119.6009979248047
 70
   192
  0
VERTEX
  5
33F
  8
0
 10
4.914000034332275
 20
0.0
 30
128.5299987792969
 70
   192
  0
VERTEX
  5
340
  8
0
 10
-1.940000057220459
 20
0.0
 30
124.9300003051758
 70
   192
  0
VERTEX
  5
341
  8
0
 10
-22.59900093078613
 20
9.843999862670898
 30
103.286003112793
 70
   192
  0
VERTEX
  5
342
  8
0
 10
-23.8799991607666
 20
0.0
 30
103.3109970092773
 70
   192
  0
VERTEX
  5
343
  8
0
 10
-20.78800010681152
 20
0.0
 30
109.6800003051758
 70
   192
  0
VERTEX
  5
344
  8
0
 10
-18.24699974060059
 20
0.0
 30
112.1849975585938
 70
   192
  0
VERTEX
  5
345
  8
0
 10
67.03500366210938
 20
9.71500015258789
 30
139.4010009765625
 70
   192
  0
VERTEX
  5
346
  8
0
 10
43.7859992980957
 20
0.0
 30
138.27099609375
 70
   192
  0
VERTEX
  5
347
  8
0
 10
34.40999984741211
 20
0.0
 30
136.5079956054688
 70
   192
  0
VERTEX
  5
348
  8
0
 10
33.66699981689453
 20
15.3100004196167
 30
132.0740051269531
 70
   192
  0
VERTEX
  5
349
  8
0
 10
18.29199981689453
 20
16.89900016784668
 30
127.4219970703125
 70
   192
  0
VERTEX
  5
34A
  8
0
 10
4.598000049591064
 20
19.99300003051758
 30
120.1389999389648
 70
   192
  0
VERTEX
  5
34B
  8
0
 10
-1.167999982833862
 20
21.54000091552734
 30
114.9599990844727
 70
   192
  0
VERTEX
  5
34C
  8
0
 10
-5.770999908447266
 20
22.8799991607666
 30
108.6190032958984
 70
   192
  0
VERTEX
  5
34D
  8
0
 10
-8.9399995803833
 20
24.15399932861328
 30
101.4300003051758
 70
   192
  0
VERTEX
  5
34E
  8
0
 10
38.4010009765625
 20
17.71100044250488
 30
131.3869934082031
 70
   192
  0
VERTEX
  5
34F
  8
0
 10
33.5369987487793
 20
18.17200088500977
 30
130.0050048828125
 70
   192
  0
VERTEX
  5
350
  8
0
 10
56.59199905395508
 20
16.71599960327148
 30
135.0359954833984
 70
   192
  0
VERTEX
  5
351
  8
0
 10
65.8479995727539
 20
16.24399948120117
 30
136.2519989013672
 70
   192
  0
VERTEX
  5
352
  8
0
 10
31.34600067138672
 20
18.3799991607666
 30
129.3820037841797
 70
   192
  0
VERTEX
  5
353
  8
0
 10
22.7450008392334
 20
19.67399978637695
 30
126.1019973754883
 70
   192
  0
VERTEX
  5
354
  8
0
 10
19.5620002746582
 20
20.4950008392334
 30
124.2829971313477
 70
   192
  0
VERTEX
  5
355
  8
0
 10
13.9680004119873
 20
21.93899917602539
 30
121.0869979858398
 70
   192
  0
VERTEX
  5
356
  8
0
 10
8.644000053405762
 20
23.78499984741211
 30
116.4530029296875
 70
   192
  0
VERTEX
  5
357
  8
0
 10
3.607000112533569
 20
25.59700012207031
 30
109.2890014648438
 70
   192
  0
VERTEX
  5
358
  8
0
 10
2.759999990463257
 20
25.9109992980957
 30
107.4800033569336
 70
   192
  0
VERTEX
  5
359
  8
0
 10
5.000999927520752
 20
25.09499931335449
 30
111.2730026245117
 70
   192
  0
VERTEX
  5
35A
  8
0
 10
0.4979999959468842
 20
26.97299957275391
 30
100.1399993896484
 70
   192
  0
VERTEX
  5
35B
  8
0
 10
-3.273000001907349
 20
27.37400054931641
 30
94.56700134277344
 70
   192
  0
VERTEX
  5
35C
  8
0
 10
-10.34099960327148
 20
25.46599960327148
 30
94.56700134277344
 70
   192
  0
VERTEX
  5
35D
  8
0
 10
-0.3529999852180481
 20
27.71199989318848
 30
94.56700134277344
 70
   192
  0
VERTEX
  5
35E
  8
0
 10
2.243000030517578
 20
26.15399932861328
 30
105.802001953125
 70
   192
  0
VERTEX
  5
35F
  8
0
 10
-12.9689998626709
 20
24.27599906921387
 30
94.56700134277344
 70
   192
  0
VERTEX
  5
360
  8
0
 10
-10.59899997711182
 20
25.34900093078613
 30
94.56700134277344
 70
   192
  0
VERTEX
  5
361
  8
0
 10
-18.72800064086914
 20
20.38699913024902
 30
94.56700134277344
 70
   192
  0
VERTEX
  5
362
  8
0
 10
-24.44599914550781
 20
13.47399997711182
 30
94.56700134277344
 70
   192
  0
VERTEX
  5
363
  8
0
 10
-25.54100036621094
 20
11.39099979400635
 30
94.56700134277344
 70
   192
  0
VERTEX
  5
364
  8
0
 10
-20.27499961853027
 20
18.93199920654297
 30
94.56700134277344
 70
   192
  0
VERTEX
  5
365
  8
0
 10
-19.70000076293945
 20
19.47299957275391
 30
94.56700134277344
 70
   192
  0
VERTEX
  5
366
  8
0
 10
-25.81100082397461
 20
10.56700038909912
 30
94.56700134277344
 70
   192
  0
VERTEX
  5
367
  8
0
 10
-27.64900016784668
 20
4.948999881744385
 30
94.56700134277344
 70
   192
  0
VERTEX
  5
368
  8
0
 10
-28.0
 20
2.523000001907349
 30
94.56700134277344
 70
   192
  0
VERTEX
  5
369
  8
0
 10
81.82099914550781
 20
0.0
 30
141.9969940185547
 70
   192
  0
VERTEX
  5
36A
  8
0
 10
94.81099700927734
 20
9.21399974822998
 30
141.4299926757812
 70
   192
  0
VERTEX
  5
36B
  8
0
 10
93.49199676513672
 20
10.44400024414062
 30
140.9819946289062
 70
   192
  0
VERTEX
  5
36C
  8
0
 10
67.61399841308594
 20
0.0
 30
140.6049957275391
 70
   192
  0
VERTEX
  5
36D
  8
0
 10
96.4729995727539
 20
5.980000019073486
 30
142.0950012207031
 70
   192
  0
VERTEX
  5
36E
  8
0
 10
97.875
 20
0.0
 30
142.6750030517578
 70
   192
  0
VERTEX
  5
36F
  8
0
 10
97.18199920654297
 20
4.60099983215332
 30
142.3789978027344
 70
   192
  0
VERTEX
  5
370
  8
0
 10
87.89299774169922
 20
14.02999973297119
 30
139.3999938964844
 70
   192
  0
VERTEX
  5
371
  8
0
 10
86.16100311279297
 20
14.78899955749512
 30
138.9799957275391
 70
   192
  0
VERTEX
  5
372
  8
0
 10
81.92900085449219
 20
15.42500019073486
 30
138.3650054931641
 70
   192
  0
VERTEX
  5
373
  8
0
 10
93.00599670410156
 20
10.89700031280518
 30
140.8170013427734
 70
   192
  0
VERTEX
  5
374
  8
0
 10
91.19999694824219
 20
12.57999992370605
 30
140.2039947509766
 70
   192
  0
VERTEX
  5
375
  8
0
 10
-28.12400054931641
 20
0.0
 30
94.56700134277344
 70
   192
  0
VERTEX
  5
376
  8
0
 62
     9
 10
0.0
 20
0.0
 30
0.0
 70
   128
 71
     3
 72
     2
 73
     1
  0
VERTEX
  5
377
  8
0
 62
     9
 10
0.0
 20
0.0
 30
0.0
 70
   128
 71
     5
 72
     4
 73
     1
  0
VERTEX
  5
378
  8
0
 62
     9
 10
0.0
 20
0.0
 30
0.0
 70
   128
 71
     1
 72
     2
 73
     5
  0
VERTEX
  5
379
  8
0
 62
     9
 10
0.0
 20
0.0
 30
0.0
 70
   128
 71
     8
 72
     7
 73
     6
  0
VERTEX
  5
37A
  8
0
 62
     9
 10
0.0
 20
0.0
 30
0.0
 70
   128
 71
     9
 72
     1
 73
     6
  0
VERTEX
  5
37B
  8
0
 62
     9
 10
0.0
 20
0.0
 30
0.0
 70
   128
 71
    12
 72
    11
 73
    10
  0
VERTEX
  5
37C
  8
0
 62
     9
 10
0.0
 20
0.0
 30
0.0
 70
   128
 71
    11
 72
     8
 73
    13
  0
VERTEX
  5
37D
  8
0
 62
     9
 10
0.0
 20
0.0
 30
0.0
 70
   128
 71
    14
 72
    13
 73
     6
  0
VERTEX
  5
37E
  8
0
 62
     9
 10
0.0
 20
0.0
 30
0.0
 70
   128
 71
    14
 72
    15
 73
    13
  0
VERTEX
  5
37F
  8
0
 62
     9
 10
0.0
 20
0.0
 30
0.0
 70
   128
 71
    16
 72
     6
 73
     1
  0
VERTEX
  5
380
  8
0
 62
     9
 10
0.0
 20
0.0
 30
0.0
 70
   128
 71
    16
 72
    17
 73
     6
  0
VERTEX
  5
381
  8
0
 62
     9
 10
0.0
 20
0.0
 30
0.0
 70
   128
 71
    20
 72
    19
 73
    18
  0
VERTEX
  5
382
  8
0
 62
     9
 10
0.0
 20
0.0
 30
0.0
 70
   128
 71
    18
 72
    10
 73
    20
  0
VERTEX
  5
383
  8
0
 62
     9
 10
0.0
 20
0.0
 30
0.0
 70
   128
 71
    15
 72
    21
 73
    10
  0
VERTEX
  5
384
  8
0
 62
     9
 10
0.0
 20
0.0
 30
0.0
 70
   128
 71
    23
 72
     2
 73
    22
  0
VERTEX
  5
385
  8
0
 62
     9
 10
0.0
 20
0.0
 30
0.0
 70
   128
 71
    23
 72
    24
 73
     2
  0
VERTEX
  5
386
  8
0
 62
     9
 10
0.0
 20
0.0
 30
0.0
 70
   128
 71
     2
 72
     3
 73
    22
  0
VERTEX
  5
387
  8
0
 62
     9
 10
0.0
 20
0.0
 30
0.0
 70
   128
 71
    25
 72
     3
 73
     9
  0
VERTEX
  5
388
  8
0
 62
     9
 10
0.0
 20
0.0
 30
0.0
 70
   128
 71
    26
 72
     9
 73
     7
  0
VERTEX
  5
389
  8
0
 62
     9
 10
0.0
 20
0.0
 30
0.0
 70
   128
 71
    28
 72
    27
 73
     7
  0
VERTEX
  5
38A
  8
0
 62
     9
 10
0.0
 20
0.0
 30
0.0
 70
   128
 71
    30
 72
    29
 73
    11
  0
VERTEX
  5
38B
  8
0
 62
     9
 10
0.0
 20
0.0
 30
0.0
 70
   128
 71
    29
 72
    28
 73
     8
  0
VERTEX
  5
38C
  8
0
 62
     9
 10
0.0
 20
0.0
 30
0.0
 70
   128
 71
    25
 72
    32
 73
    31
  0
VERTEX
  5
38D
  8
0
 62
     9
 10
0.0
 20
0.0
 30
0.0
 70
   128
 71
    33
 72
    22
 73
     3
  0
VERTEX
  5
38E
  8
0
 62
     9
 10
0.0
 20
0.0
 30
0.0
 70
   128
 71
    33
 72
    34
 73
    22
  0
VERTEX
  5
38F
  8
0
 62
     9
 10
0.0
 20
0.0
 30
0.0
 70
   128
 71
     3
 72
    31
 73
    33
  0
VERTEX
  5
390
  8
0
 62
     9
 10
0.0
 20
0.0
 30
0.0
 70
   128
 71
    35
 72
    25
 73
    26
  0
VERTEX
  5
391
  8
0
 62
     9
 10
0.0
 20
0.0
 30
0.0
 70
   128
 71
    35
 72
    32
 73
    25
  0
VERTEX
  5
392
  8
0
 62
     9
 10
0.0
 20
0.0
 30
0.0
 70
   128
 71
    26
 72
    36
 73
    35
  0
VERTEX
  5
393
  8
0
 62
     9
 10
0.0
 20
0.0
 30
0.0
 70
   128
 71
    38
 72
    37
 73
    26
  0
VERTEX
  5
394
  8
0
 62
     9
 10
0.0
 20
0.0
 30
0.0
 70
   128
 71
    26
 72
    27
 73
    38
  0
VERTEX
  5
395
  8
0
 62
     9
 10
0.0
 20
0.0
 30
0.0
 70
   128
 71
    39
 72
    27
 73
    28
  0
VERTEX
  5
396
  8
0
 62
     9
 10
0.0
 20
0.0
 30
0.0
 70
   128
 71
    40
 72
    28
 73
    29
  0
VERTEX
  5
397
  8
0
 62
     9
 10
0.0
 20
0.0
 30
0.0
 70
   128
 71
    29
 72
    41
 73
    40
  0
VERTEX
  5
398
  8
0
 62
     9
 10
0.0
 20
0.0
 30
0.0
 70
   128
 71
    40
 72
    42
 73
    28
  0
VERTEX
  5
399
  8
0
 62
     9
 10
0.0
 20
0.0
 30
0.0
 70
   128
 71
    44
 72
    43
 73
    30
  0
VERTEX
  5
39A
  8
0
 62
     9
 10
0.0
 20
0.0
 30
0.0
 70
   128
 71
    30
 72
    45
 73
    44
  0
VERTEX
  5
39B
  8
0
 62
     9
 10
0.0
 20
0.0
 30
0.0
 70
   128
 71
    44
 72
    46
 73
    43
  0
VERTEX
  5
39C
  8
0
 62
     9
 10
0.0
 20
0.0
 30
0.0
 70
   128
 71
    43
 72
    47
 73
    29
  0
VERTEX
  5
39D
  8
0
 62
     9
 10
0.0
 20
0.0
 30
0.0
 70
   128
 71
    29
 72
    30
 73
    43
  0
VERTEX
  5
39E
  8
0
 62
     9
 10
0.0
 20
0.0
 30
0.0
 70
   128
 71
    48
 72
    30
 73
    12
  0
VERTEX
  5
39F
  8
0
 62
     9
 10
0.0
 20
0.0
 30
0.0
 70
   128
 71
    48
 72
    49
 73
    30
  0
VERTEX
  5
3A0
  8
0
 62
     9
 10
0.0
 20
0.0
 30
0.0
 70
   128
 71
    12
 72
    50
 73
    48
  0
VERTEX
  5
3A1
  8
0
 62
     9
 10
0.0
 20
0.0
 30
0.0
 70
   128
 71
    52
 72
    51
 73
    18
  0
VERTEX
  5
3A2
  8
0
 62
     9
 10
0.0
 20
0.0
 30
0.0
 70
   128
 71
    51
 72
    53
 73
    12
  0
VERTEX
  5
3A3
  8
0
 62
     9
 10
0.0
 20
0.0
 30
0.0
 70
   128
 71
    12
 72
    18
 73
    51
  0
VERTEX
  5
3A4
  8
0
 62
     9
 10
0.0
 20
0.0
 30
0.0
 70
   128
 71
    53
 72
    54
 73
    12
  0
VERTEX
  5
3A5
  8
0
 62
     9
 10
0.0
 20
0.0
 30
0.0
 70
   128
 71
    56
 72
    55
 73
    18
  0
VERTEX
  5
3A6
  8
0
 62
     9
 10
0.0
 20
0.0
 30
0.0
 70
   128
 71
    18
 72
    19
 73
    56
  0
VERTEX
  5
3A7
  8
0
 62
     9
 10
0.0
 20
0.0
 30
0.0
 70
   128
 71
    19
 72
    57
 73
    56
  0
VERTEX
  5
3A8
  8
0
 62
     9
 10
0.0
 20
0.0
 30
0.0
 70
   128
 71
    60
 72
    59
 73
    58
  0
VERTEX
  5
3A9
  8
0
 62
     9
 10
0.0
 20
0.0
 30
0.0
 70
   128
 71
    58
 72
    61
 73
    22
  0
VERTEX
  5
3AA
  8
0
 62
     9
 10
0.0
 20
0.0
 30
0.0
 70
   128
 71
    59
 72
    62
 73
    58
  0
VERTEX
  5
3AB
  8
0
 62
     9
 10
0.0
 20
0.0
 30
0.0
 70
   128
 71
    64
 72
    63
 73
    58
  0
VERTEX
  5
3AC
  8
0
 62
     9
 10
0.0
 20
0.0
 30
0.0
 70
   128
 71
    58
 72
    62
 73
    64
  0
VERTEX
  5
3AD
  8
0
 62
     9
 10
0.0
 20
0.0
 30
0.0
 70
   128
 71
    66
 72
    65
 73
    22
  0
VERTEX
  5
3AE
  8
0
 62
     9
 10
0.0
 20
0.0
 30
0.0
 70
   128
 71
    22
 72
    67
 73
    66
  0
VERTEX
  5
3AF
  8
0
 62
     9
 10
0.0
 20
0.0
 30
0.0
 70
   128
 71
    69
 72
    68
 73
    22
  0
VERTEX
  5
3B0
  8
0
 62
     9
 10
0.0
 20
0.0
 30
0.0
 70
   128
 71
    68
 72
    60
 73
    22
  0
VERTEX
  5
3B1
  8
0
 62
     9
 10
0.0
 20
0.0
 30
0.0
 70
   128
 71
    22
 72
    65
 73
    69
  0
VERTEX
  5
3B2
  8
0
 62
     9
 10
0.0
 20
0.0
 30
0.0
 70
   128
 71
    22
 72
    34
 73
    67
  0
VERTEX
  5
3B3
  8
0
 62
     9
 10
0.0
 20
0.0
 30
0.0
 70
   128
 71
    58
 72
    22
 73
    60
  0
VERTEX
  5
3B4
  8
0
 62
     9
 10
0.0
 20
0.0
 30
0.0
 70
   128
 71
    19
 72
    70
 73
    57
  0
VERTEX
  5
3B5
  8
0
 62
     9
 10
0.0
 20
0.0
 30
0.0
 70
   128
 71
    18
 72
    55
 73
    52
  0
VERTEX
  5
3B6
  8
0
 62
     9
 10
0.0
 20
0.0
 30
0.0
 70
   128
 71
    12
 72
    54
 73
    50
  0
VERTEX
  5
3B7
  8
0
 62
     9
 10
0.0
 20
0.0
 30
0.0
 70
   128
 71
    30
 72
    49
 73
    45
  0
VERTEX
  5
3B8
  8
0
 62
     9
 10
0.0
 20
0.0
 30
0.0
 70
   128
 71
    29
 72
    47
 73
    41
  0
VERTEX
  5
3B9
  8
0
 62
     9
 10
0.0
 20
0.0
 30
0.0
 70
   128
 71
    28
 72
    42
 73
    39
  0
VERTEX
  5
3BA
  8
0
 62
     9
 10
0.0
 20
0.0
 30
0.0
 70
   128
 71
    27
 72
    39
 73
    38
  0
VERTEX
  5
3BB
  8
0
 62
     9
 10
0.0
 20
0.0
 30
0.0
 70
   128
 71
    26
 72
    37
 73
    36
  0
VERTEX
  5
3BC
  8
0
 62
     9
 10
0.0
 20
0.0
 30
0.0
 70
   128
 71
    31
 72
     3
 73
    25
  0
VERTEX
  5
3BD
  8
0
 62
     9
 10
0.0
 20
0.0
 30
0.0
 70
   128
 71
     8
 72
    11
 73
    29
  0
VERTEX
  5
3BE
  8
0
 62
     9
 10
0.0
 20
0.0
 30
0.0
 70
   128
 71
    11
 72
    12
 73
    30
  0
VERTEX
  5
3BF
  8
0
 62
     9
 10
0.0
 20
0.0
 30
0.0
 70
   128
 71
     7
 72
     8
 73
    28
  0
VERTEX
  5
3C0
  8
0
 62
     9
 10
0.0
 20
0.0
 30
0.0
 70
   128
 71
     7
 72
    27
 73
    26
  0
VERTEX
  5
3C1
  8
0
 62
     9
 10
0.0
 20
0.0
 30
0.0
 70
   128
 71
     9
 72
    26
 73
    25
  0
VERTEX
  5
3C2
  8
0
 62
     9
 10
0.0
 20
0.0
 30
0.0
 70
   128
 71
    22
 72
    61
 73
    23
  0
VERTEX
  5
3C3
  8
0
 62
     9
 10
0.0
 20
0.0
 30
0.0
 70
   128
 71
    10
 72
    13
 73
    15
  0
VERTEX
  5
3C4
  8
0
 62
     9
 10
0.0
 20
0.0
 30
0.0
 70
   128
 71
    10
 72
    21
 73
    20
  0
VERTEX
  5
3C5
  8
0
 62
     9
 10
0.0
 20
0.0
 30
0.0
 70
   128
 71
     1
 72
     4
 73
    16
  0
VERTEX
  5
3C6
  8
0
 62
     9
 10
0.0
 20
0.0
 30
0.0
 70
   128
 71
     6
 72
    17
 73
    14
  0
VERTEX
  5
3C7
  8
0
 62
     9
 10
0.0
 20
0.0
 30
0.0
 70
   128
 71
    13
 72
    10
 73
    11
  0
VERTEX
  5
3C8
  8
0
 62
     9
 10
0.0
 20
0.0
 30
0.0
 70
   128
 71
    10
 72
    18
 73
    12
  0
VERTEX
  5
3C9
  8
0
 62
     9
 10
0.0
 20
0.0
 30
0.0
 70
   128
 71
     6
 72
     7
 73
     9
  0
VERTEX
  5
3CA
  8
0
 62
     9
 10
0.0
 20
0.0
 30
0.0
 70
   128
 71
     6
 72
    13
 73
     8
  0
VERTEX
  5
3CB
  8
0
 62
     9
 10
0.0
 20
0.0
 30
0.0
 70
   128
 71
     2
 72
    24
 73
     5
  0
VERTEX
  5
3CC
  8
0
 62
     9
 10
0.0
 20
0.0
 30
0.0
 70
   128
 71
     1
 72
     9
 73
     3
  0
SEQEND
  5
3CD
  8
0
 62
     9
  0
ENDBLK
  5
3D0
  8
0
  0
BLOCK
  8
0
  2
E3_NODE_10_
 70
     0
 10
0.0
 20
0.0
 30
0.0
  3
E3_NODE_10_
  1

  0
POLYLINE
  5
3D2
  8
0
 62
     9
 66
     1
 10
0.0
 20
0.0
 30
0.0
 70
    64
 71
    53
 72
    51
  0
VERTEX
  5
3D3
  8
0
 10
10.65999984741211
 20
-25.43099975585938
 30
94.56700134277344
 70
   192
  0
VERTEX
  5
3D4
  8
0
 10
-0.3529999852180481
 20
-27.71199989318848
 30
94.56700134277344
 70
   192
  0
VERTEX
  5
3D5
  8
0
 10
-6.829999923706055
 20
-26.625
 30
94.56700134277344
 70
   192
  0
VERTEX
  5
3D6
  8
0
 10
8.694999694824219
 20
-26.18499946594238
 30
94.56700134277344
 70
   192
  0
VERTEX
  5
3D7
  8
0
 10
1.83299994468689
 20
-27.61599922180176
 30
94.56700134277344
 70
   192
  0
VERTEX
  5
3D8
  8
0
 10
-10.5290002822876
 20
-25.16900062561035
 30
94.56700134277344
 70
   192
  0
VERTEX
  5
3D9
  8
0
 10
19.4379997253418
 20
-19.34199905395508
 30
94.56700134277344
 70
   192
  0
VERTEX
  5
3DA
  8
0
 10
18.65200042724609
 20
-20.27000045776367
 30
94.56700134277344
 70
   192
  0
VERTEX
  5
3DB
  8
0
 10
27.55400085449219
 20
0.0
 30
94.56700134277344
 70
   192
  0
VERTEX
  5
3DC
  8
0
 10
26.80500030517578
 20
-6.413000106811523
 30
94.56700134277344
 70
   192
  0
VERTEX
  5
3DD
  8
0
 10
10.52200031280518
 20
25.29800033569336
 30
94.56700134277344
 70
   192
  0
VERTEX
  5
3DE
  8
0
 10
-10.59899997711182
 20
25.34900093078613
 30
94.56700134277344
 70
   192
  0
VERTEX
  5
3DF
  8
0
 10
-10.34099960327148
 20
25.46599960327148
 30
94.56700134277344
 70
   192
  0
VERTEX
  5
3E0
  8
0
 10
-25.54100036621094
 20
11.39099979400635
 30
94.56700134277344
 70
   192
  0
VERTEX
  5
3E1
  8
0
 10
-24.44599914550781
 20
13.47399997711182
 30
94.56700134277344
 70
   192
  0
VERTEX
  5
3E2
  8
0
 10
-0.2849999964237213
 20
-27.7140007019043
 30
94.56700134277344
 70
   192
  0
VERTEX
  5
3E3
  8
0
 10
-0.2160000056028366
 20
-27.71599960327148
 30
94.56700134277344
 70
   192
  0
VERTEX
  5
3E4
  8
0
 10
16.67799949645996
 20
-21.92600059509277
 30
94.56700134277344
 70
   192
  0
VERTEX
  5
3E5
  8
0
 10
25.27000045776367
 20
-10.49300003051758
 30
94.56700134277344
 70
   192
  0
VERTEX
  5
3E6
  8
0
 10
24.39299964904785
 20
-12.82499980926514
 30
94.56700134277344
 70
   192
  0
VERTEX
  5
3E7
  8
0
 10
26.70700073242188
 20
6.809999942779541
 30
94.56700134277344
 70
   192
  0
VERTEX
  5
3E8
  8
0
 10
25.22500038146973
 20
10.66499996185303
 30
94.56700134277344
 70
   192
  0
VERTEX
  5
3E9
  8
0
 10
26.07500076293945
 20
8.930999755859375
 30
94.56700134277344
 70
   192
  0
VERTEX
  5
3EA
  8
0
 10
-0.2849999964237213
 20
27.7140007019043
 30
94.56700134277344
 70
   192
  0
VERTEX
  5
3EB
  8
0
 10
-0.2160000056028366
 20
27.71599960327148
 30
94.56700134277344
 70
   192
  0
VERTEX
  5
3EC
  8
0
 10
-3.273000001907349
 20
27.37400054931641
 30
94.56700134277344
 70
   192
  0
VERTEX
  5
3ED
  8
0
 10
-18.72800064086914
 20
20.38699913024902
 30
94.56700134277344
 70
   192
  0
VERTEX
  5
3EE
  8
0
 10
-12.9689998626709
 20
24.27599906921387
 30
94.56700134277344
 70
   192
  0
VERTEX
  5
3EF
  8
0
 10
-25.81100082397461
 20
10.56700038909912
 30
94.56700134277344
 70
   192
  0
VERTEX
  5
3F0
  8
0
 10
-28.0
 20
2.523000001907349
 30
94.56700134277344
 70
   192
  0
VERTEX
  5
3F1
  8
0
 10
-27.64900016784668
 20
4.948999881744385
 30
94.56700134277344
 70
   192
  0
VERTEX
  5
3F2
  8
0
 10
-26.58399963378906
 20
-8.862000465393066
 30
94.56700134277344
 70
   192
  0
VERTEX
  5
3F3
  8
0
 10
-28.02099990844727
 20
-2.296000003814697
 30
94.56700134277344
 70
   192
  0
VERTEX
  5
3F4
  8
0
 10
-20.72699928283691
 20
-18.46199989318848
 30
94.56700134277344
 70
   192
  0
VERTEX
  5
3F5
  8
0
 10
-22.22900009155273
 20
-16.72100067138672
 30
94.56700134277344
 70
   192
  0
VERTEX
  5
3F6
  8
0
 10
10.67300033569336
 20
-25.42600059509277
 30
94.56700134277344
 70
   192
  0
VERTEX
  5
3F7
  8
0
 10
23.11499977111816
 20
-14.99899959564209
 30
94.56700134277344
 70
   192
  0
VERTEX
  5
3F8
  8
0
 10
6.39300012588501
 20
26.86300086975098
 30
94.56700134277344
 70
   192
  0
VERTEX
  5
3F9
  8
0
 10
-0.3529999852180481
 20
27.71199989318848
 30
94.56700134277344
 70
   192
  0
VERTEX
  5
3FA
  8
0
 10
-19.70000076293945
 20
19.47299957275391
 30
94.56700134277344
 70
   192
  0
VERTEX
  5
3FB
  8
0
 10
-20.27499961853027
 20
18.93199920654297
 30
94.56700134277344
 70
   192
  0
VERTEX
  5
3FC
  8
0
 10
-28.12400054931641
 20
0.0
 30
94.56700134277344
 70
   192
  0
VERTEX
  5
3FD
  8
0
 10
-25.89200019836426
 20
-10.5930004119873
 30
94.56700134277344
 70
   192
  0
VERTEX
  5
3FE
  8
0
 10
-19.62199974060059
 20
-19.37800025939941
 30
94.56700134277344
 70
   192
  0
VERTEX
  5
3FF
  8
0
 10
-13.48600006103516
 20
-24.00399971008301
 30
94.56700134277344
 70
   192
  0
VERTEX
  5
400
  8
0
 10
-15.40999984741211
 20
-22.87400054931641
 30
94.56700134277344
 70
   192
  0
VERTEX
  5
401
  8
0
 10
-25.78400039672852
 20
-10.86400032043457
 30
94.56700134277344
 70
   192
  0
VERTEX
  5
402
  8
0
 10
21.76199913024902
 20
16.89399909973145
 30
94.56700134277344
 70
   192
  0
VERTEX
  5
403
  8
0
 10
23.05699920654297
 20
15.08699989318848
 30
94.56700134277344
 70
   192
  0
VERTEX
  5
404
  8
0
 10
14.98499965667725
 20
23.12100028991699
 30
94.56700134277344
 70
   192
  0
VERTEX
  5
405
  8
0
 10
16.86400032043457
 20
21.7819995880127
 30
94.56700134277344
 70
   192
  0
VERTEX
  5
406
  8
0
 10
19.29100036621094
 20
19.36100006103516
 30
94.56700134277344
 70
   192
  0
VERTEX
  5
407
  8
0
 10
8.729999542236328
 20
26.17300033569336
 30
94.56700134277344
 70
   192
  0
VERTEX
  5
408
  8
0
 62
     9
 10
0.0
 20
0.0
 30
0.0
 70
   128
 71
     3
 72
     2
 73
     1
  0
VERTEX
  5
409
  8
0
 62
     9
 10
0.0
 20
0.0
 30
0.0
 70
   128
 71
     5
 72
     4
 73
     1
  0
VERTEX
  5
40A
  8
0
 62
     9
 10
0.0
 20
0.0
 30
0.0
 70
   128
 71
     8
 72
     7
 73
     6
  0
VERTEX
  5
40B
  8
0
 62
     9
 10
0.0
 20
0.0
 30
0.0
 70
   128
 71
    10
 72
     9
 73
     6
  0
VERTEX
  5
40C
  8
0
 62
     9
 10
0.0
 20
0.0
 30
0.0
 70
   128
 71
    13
 72
    12
 73
    11
  0
VERTEX
  5
40D
  8
0
 62
     9
 10
0.0
 20
0.0
 30
0.0
 70
   128
 71
    15
 72
    14
 73
    11
  0
VERTEX
  5
40E
  8
0
 62
     9
 10
0.0
 20
0.0
 30
0.0
 70
   128
 71
     2
 72
    16
 73
     1
  0
VERTEX
  5
40F
  8
0
 62
     9
 10
0.0
 20
0.0
 30
0.0
 70
   128
 71
     1
 72
    17
 73
     5
  0
VERTEX
  5
410
  8
0
 62
     9
 10
0.0
 20
0.0
 30
0.0
 70
   128
 71
     6
 72
    18
 73
     8
  0
VERTEX
  5
411
  8
0
 62
     9
 10
0.0
 20
0.0
 30
0.0
 70
   128
 71
    20
 72
    19
 73
     6
  0
VERTEX
  5
412
  8
0
 62
     9
 10
0.0
 20
0.0
 30
0.0
 70
   128
 71
     9
 72
    21
 73
     6
  0
VERTEX
  5
413
  8
0
 62
     9
 10
0.0
 20
0.0
 30
0.0
 70
   128
 71
    23
 72
    22
 73
     6
  0
VERTEX
  5
414
  8
0
 62
     9
 10
0.0
 20
0.0
 30
0.0
 70
   128
 71
    25
 72
    24
 73
    11
  0
VERTEX
  5
415
  8
0
 62
     9
 10
0.0
 20
0.0
 30
0.0
 70
   128
 71
    11
 72
    26
 73
    13
  0
VERTEX
  5
416
  8
0
 62
     9
 10
0.0
 20
0.0
 30
0.0
 70
   128
 71
    28
 72
    27
 73
    11
  0
VERTEX
  5
417
  8
0
 62
     9
 10
0.0
 20
0.0
 30
0.0
 70
   128
 71
    14
 72
    29
 73
    11
  0
VERTEX
  5
418
  8
0
 62
     9
 10
0.0
 20
0.0
 30
0.0
 70
   128
 71
    31
 72
    30
 73
    11
  0
VERTEX
  5
419
  8
0
 62
     9
 10
0.0
 20
0.0
 30
0.0
 70
   128
 71
    33
 72
    32
 73
    11
  0
VERTEX
  5
41A
  8
0
 62
     9
 10
0.0
 20
0.0
 30
0.0
 70
   128
 71
    35
 72
    34
 73
    11
  0
VERTEX
  5
41B
  8
0
 62
     9
 10
0.0
 20
0.0
 30
0.0
 70
   128
 71
     1
 72
    16
 73
    17
  0
VERTEX
  5
41C
  8
0
 62
     9
 10
0.0
 20
0.0
 30
0.0
 70
   128
 71
     6
 72
    36
 73
    18
  0
VERTEX
  5
41D
  8
0
 62
     9
 10
0.0
 20
0.0
 30
0.0
 70
   128
 71
     6
 72
    37
 73
    20
  0
VERTEX
  5
41E
  8
0
 62
     9
 10
0.0
 20
0.0
 30
0.0
 70
   128
 71
     6
 72
    21
 73
    23
  0
VERTEX
  5
41F
  8
0
 62
     9
 10
0.0
 20
0.0
 30
0.0
 70
   128
 71
    11
 72
    38
 73
    25
  0
VERTEX
  5
420
  8
0
 62
     9
 10
0.0
 20
0.0
 30
0.0
 70
   128
 71
    11
 72
    39
 73
    26
  0
VERTEX
  5
421
  8
0
 62
     9
 10
0.0
 20
0.0
 30
0.0
 70
   128
 71
    27
 72
    40
 73
    11
  0
VERTEX
  5
422
  8
0
 62
     9
 10
0.0
 20
0.0
 30
0.0
 70
   128
 71
    11
 72
    41
 73
    15
  0
VERTEX
  5
423
  8
0
 62
     9
 10
0.0
 20
0.0
 30
0.0
 70
   128
 71
    30
 72
    42
 73
    11
  0
VERTEX
  5
424
  8
0
 62
     9
 10
0.0
 20
0.0
 30
0.0
 70
   128
 71
    32
 72
    43
 73
    11
  0
VERTEX
  5
425
  8
0
 62
     9
 10
0.0
 20
0.0
 30
0.0
 70
   128
 71
    34
 72
    44
 73
    11
  0
VERTEX
  5
426
  8
0
 62
     9
 10
0.0
 20
0.0
 30
0.0
 70
   128
 71
    46
 72
    45
 73
    22
  0
VERTEX
  5
427
  8
0
 62
     9
 10
0.0
 20
0.0
 30
0.0
 70
   128
 71
     6
 72
     1
 73
    36
  0
VERTEX
  5
428
  8
0
 62
     9
 10
0.0
 20
0.0
 30
0.0
 70
   128
 71
     6
 72
    19
 73
    10
  0
VERTEX
  5
429
  8
0
 62
     9
 10
0.0
 20
0.0
 30
0.0
 70
   128
 71
    11
 72
    24
 73
    39
  0
VERTEX
  5
42A
  8
0
 62
     9
 10
0.0
 20
0.0
 30
0.0
 70
   128
 71
    11
 72
    40
 73
    41
  0
VERTEX
  5
42B
  8
0
 62
     9
 10
0.0
 20
0.0
 30
0.0
 70
   128
 71
    11
 72
    42
 73
    33
  0
VERTEX
  5
42C
  8
0
 62
     9
 10
0.0
 20
0.0
 30
0.0
 70
   128
 71
    11
 72
    47
 73
    35
  0
VERTEX
  5
42D
  8
0
 62
     9
 10
0.0
 20
0.0
 30
0.0
 70
   128
 71
    45
 72
     6
 73
    22
  0
VERTEX
  5
42E
  8
0
 62
     9
 10
0.0
 20
0.0
 30
0.0
 70
   128
 71
     6
 72
     7
 73
    37
  0
VERTEX
  5
42F
  8
0
 62
     9
 10
0.0
 20
0.0
 30
0.0
 70
   128
 71
    49
 72
    48
 73
    44
  0
VERTEX
  5
430
  8
0
 62
     9
 10
0.0
 20
0.0
 30
0.0
 70
   128
 71
    51
 72
    50
 73
    44
  0
VERTEX
  5
431
  8
0
 62
     9
 10
0.0
 20
0.0
 30
0.0
 70
   128
 71
    11
 72
    12
 73
    28
  0
VERTEX
  5
432
  8
0
 62
     9
 10
0.0
 20
0.0
 30
0.0
 70
   128
 71
    11
 72
    43
 73
    47
  0
VERTEX
  5
433
  8
0
 62
     9
 10
0.0
 20
0.0
 30
0.0
 70
   128
 71
     1
 72
     6
 73
     3
  0
VERTEX
  5
434
  8
0
 62
     9
 10
0.0
 20
0.0
 30
0.0
 70
   128
 71
    48
 72
    52
 73
    44
  0
VERTEX
  5
435
  8
0
 62
     9
 10
0.0
 20
0.0
 30
0.0
 70
   128
 71
    50
 72
    11
 73
    44
  0
VERTEX
  5
436
  8
0
 62
     9
 10
0.0
 20
0.0
 30
0.0
 70
   128
 71
    11
 72
    29
 73
    31
  0
VERTEX
  5
437
  8
0
 62
     9
 10
0.0
 20
0.0
 30
0.0
 70
   128
 71
    44
 72
    22
 73
    49
  0
VERTEX
  5
438
  8
0
 62
     9
 10
0.0
 20
0.0
 30
0.0
 70
   128
 71
    11
 72
    53
 73
    38
  0
VERTEX
  5
439
  8
0
 62
     9
 10
0.0
 20
0.0
 30
0.0
 70
   128
 71
    44
 72
    52
 73
    51
  0
VERTEX
  5
43A
  8
0
 62
     9
 10
0.0
 20
0.0
 30
0.0
 70
   128
 71
    22
 72
    44
 73
    46
  0
SEQEND
  5
43B
  8
0
 62
     9
  0
ENDBLK
  5
43E
  8
0
  0
BLOCK
  8
0
  2
E3_NODE_11_
 70
     0
 10
0.0
 20
0.0
 30
0.0
  3
E3_NODE_11_
  1

  0
POLYLINE
  5
440
  8
0
 62
     9
 66
     1
 10
0.0
 20
0.0
 30
0.0
 70
    64
 71
    68
 72
    85
  0
VERTEX
  5
441
  8
0
 10
32.64099884033203
 20
-7.276000022888184
 30
123.7289962768555
 70
   192
  0
VERTEX
  5
442
  8
0
 10
39.69499969482422
 20
-7.465000152587891
 30
130.4400024414062
 70
   192
  0
VERTEX
  5
443
  8
0
 10
39.19100189208984
 20
-11.73400020599365
 30
128.7700042724609
 70
   192
  0
VERTEX
  5
444
  8
0
 10
26.28899955749512
 20
-8.586999893188477
 30
104.6289978027344
 70
   192
  0
VERTEX
  5
445
  8
0
 10
28.31900024414062
 20
-7.539000034332275
 30
114.3690032958984
 70
   192
  0
VERTEX
  5
446
  8
0
 10
25.1919994354248
 20
-13.86999988555908
 30
115.4629974365234
 70
   192
  0
VERTEX
  5
447
  8
0
 10
30.92300033569336
 20
-12.35099983215332
 30
123.1389999389648
 70
   192
  0
VERTEX
  5
448
  8
0
 10
21.4109992980957
 20
-16.38400077819824
 30
106.3470001220703
 70
   192
  0
VERTEX
  5
449
  8
0
 10
24.39299964904785
 20
-12.82499980926514
 30
94.56700134277344
 70
   192
  0
VERTEX
  5
44A
  8
0
 10
23.11499977111816
 20
-14.99899959564209
 30
94.56700134277344
 70
   192
  0
VERTEX
  5
44B
  8
0
 10
19.4379997253418
 20
-19.34199905395508
 30
94.56700134277344
 70
   192
  0
VERTEX
  5
44C
  8
0
 10
60.9109992980957
 20
-7.644000053405762
 30
135.9720001220703
 70
   192
  0
VERTEX
  5
44D
  8
0
 10
61.27500152587891
 20
-11.4980001449585
 30
134.2169952392578
 70
   192
  0
VERTEX
  5
44E
  8
0
 10
49.75699996948242
 20
-11.57600021362305
 30
132.3650054931641
 70
   192
  0
VERTEX
  5
44F
  8
0
 10
50.07300186157227
 20
-14.54399967193604
 30
131.0200042724609
 70
   192
  0
VERTEX
  5
450
  8
0
 10
38.21099853515625
 20
-15.02400016784668
 30
127.9219970703125
 70
   192
  0
VERTEX
  5
451
  8
0
 10
28.19599914550781
 20
-16.31999969482422
 30
123.5260009765625
 70
   192
  0
VERTEX
  5
452
  8
0
 10
20.39299964904785
 20
-18.8129997253418
 30
117.5210037231445
 70
   192
  0
VERTEX
  5
453
  8
0
 10
14.11499977111816
 20
-22.25
 30
108.7610015869141
 70
   192
  0
VERTEX
  5
454
  8
0
 10
18.65200042724609
 20
-20.27000045776367
 30
94.56700134277344
 70
   192
  0
VERTEX
  5
455
  8
0
 10
16.67799949645996
 20
-21.92600059509277
 30
94.56700134277344
 70
   192
  0
VERTEX
  5
456
  8
0
 10
11.92700004577637
 20
-23.80699920654297
 30
102.5999984741211
 70
   192
  0
VERTEX
  5
457
  8
0
 10
10.67300033569336
 20
-25.42600059509277
 30
94.56700134277344
 70
   192
  0
VERTEX
  5
458
  8
0
 10
10.65999984741211
 20
-25.43099975585938
 30
94.56700134277344
 70
   192
  0
VERTEX
  5
459
  8
0
 10
28.23299980163574
 20
0.0
 30
103.6839981079102
 70
   192
  0
VERTEX
  5
45A
  8
0
 10
26.80500030517578
 20
-6.413000106811523
 30
94.56700134277344
 70
   192
  0
VERTEX
  5
45B
  8
0
 10
27.55400085449219
 20
0.0
 30
94.56700134277344
 70
   192
  0
VERTEX
  5
45C
  8
0
 10
25.27000045776367
 20
-10.49300003051758
 30
94.56700134277344
 70
   192
  0
VERTEX
  5
45D
  8
0
 10
28.74200057983398
 20
0.0
 30
110.5080032348633
 70
   192
  0
VERTEX
  5
45E
  8
0
 10
29.74699974060059
 20
0.0
 30
113.6859970092773
 70
   192
  0
VERTEX
  5
45F
  8
0
 10
28.26199913024902
 20
0.0
 30
104.068000793457
 70
   192
  0
VERTEX
  5
460
  8
0
 10
32.85400009155273
 20
0.0
 30
123.5029983520508
 70
   192
  0
VERTEX
  5
461
  8
0
 10
33.40900039672852
 20
0.0
 30
124.1039962768555
 70
   192
  0
VERTEX
  5
462
  8
0
 10
29.87899971008301
 20
0.0
 30
114.1009979248047
 70
   192
  0
VERTEX
  5
463
  8
0
 10
33.61299896240234
 20
0.0
 30
124.3249969482422
 70
   192
  0
VERTEX
  5
464
  8
0
 10
40.01599884033203
 20
0.0
 30
131.2510070800781
 70
   192
  0
VERTEX
  5
465
  8
0
 10
49.26300048828125
 20
-7.688000202178955
 30
134.3820037841797
 70
   192
  0
VERTEX
  5
466
  8
0
 10
40.47900009155273
 20
0.0
 30
131.7519989013672
 70
   192
  0
VERTEX
  5
467
  8
0
 10
49.0260009765625
 20
0.0
 30
134.8670043945312
 70
   192
  0
VERTEX
  5
468
  8
0
 10
52.40000152587891
 20
0.0
 30
136.0959930419922
 70
   192
  0
VERTEX
  5
469
  8
0
 10
49.20700073242188
 20
0.0
 30
134.9329986572266
 70
   192
  0
VERTEX
  5
46A
  8
0
 10
60.66600036621094
 20
0.0
 30
136.2700042724609
 70
   192
  0
VERTEX
  5
46B
  8
0
 10
60.80799865722656
 20
0.0
 30
136.2729949951172
 70
   192
  0
VERTEX
  5
46C
  8
0
 10
82.00900268554688
 20
-0.0759999975562096
 30
135.6779937744141
 70
   192
  0
VERTEX
  5
46D
  8
0
 10
82.01200103759766
 20
-6.574999809265137
 30
135.6009979248047
 70
   192
  0
VERTEX
  5
46E
  8
0
 10
71.63600158691406
 20
0.0
 30
136.5010070800781
 70
   192
  0
VERTEX
  5
46F
  8
0
 10
82.00900268554688
 20
0.0
 30
135.6779937744141
 70
   192
  0
VERTEX
  5
470
  8
0
 10
82.01300048828125
 20
-10.99300003051758
 30
135.5489959716797
 70
   192
  0
VERTEX
  5
471
  8
0
 10
81.68699645996094
 20
-14.91300010681152
 30
135.4609985351562
 70
   192
  0
VERTEX
  5
472
  8
0
 10
61.57400131225586
 20
-14.49199962615967
 30
133.0059967041016
 70
   192
  0
VERTEX
  5
473
  8
0
 10
82.01499938964844
 20
-14.89700031280518
 30
135.5030059814453
 70
   192
  0
VERTEX
  5
474
  8
0
 10
39.00699996948242
 20
-17.37800025939941
 30
128.8350067138672
 70
   192
  0
VERTEX
  5
475
  8
0
 10
61.61999893188477
 20
-15.88500022888184
 30
132.8710021972656
 70
   192
  0
VERTEX
  5
476
  8
0
 10
57.00699996948242
 20
-16.10899925231934
 30
132.2760009765625
 70
   192
  0
VERTEX
  5
477
  8
0
 10
37.24200057983398
 20
-17.59600067138672
 30
128.3800048828125
 70
   192
  0
VERTEX
  5
478
  8
0
 10
32.06100082397461
 20
-18.23399925231934
 30
127.0449981689453
 70
   192
  0
VERTEX
  5
479
  8
0
 10
25.44599914550781
 20
-19.42700004577637
 30
124.8769989013672
 70
   192
  0
VERTEX
  5
47A
  8
0
 10
23.57099914550781
 20
-19.76600074768066
 30
124.2620010375977
 70
   192
  0
VERTEX
  5
47B
  8
0
 10
14.7519998550415
 20
-22.13500022888184
 30
120.0390014648438
 70
   192
  0
VERTEX
  5
47C
  8
0
 10
9.315999984741211
 20
-23.92900085449219
 30
115.8470001220703
 70
   192
  0
VERTEX
  5
47D
  8
0
 10
5.690999984741211
 20
-25.13299942016602
 30
111.1149978637695
 70
   192
  0
VERTEX
  5
47E
  8
0
 10
4.10099983215332
 20
-25.6609992980957
 30
109.0400009155273
 70
   192
  0
VERTEX
  5
47F
  8
0
 10
3.203999996185303
 20
-25.96299934387207
 30
107.2880020141602
 70
   192
  0
VERTEX
  5
480
  8
0
 10
2.135999917984009
 20
-26.4109992980957
 30
104.1510009765625
 70
   192
  0
VERTEX
  5
481
  8
0
 10
1.83299994468689
 20
-27.61599922180176
 30
94.56700134277344
 70
   192
  0
VERTEX
  5
482
  8
0
 10
8.694999694824219
 20
-26.18499946594238
 30
94.56700134277344
 70
   192
  0
VERTEX
  5
483
  8
0
 10
0.7519999742507935
 20
-26.99200057983398
 30
100.088996887207
 70
   192
  0
VERTEX
  5
484
  8
0
 10
-0.2160000056028366
 20
-27.71599960327148
 30
94.56700134277344
 70
   192
  0
VERTEX
  5
485
  8
0
 62
     9
 10
0.0
 20
0.0
 30
0.0
 70
   128
 71
     3
 72
     2
 73
     1
  0
VERTEX
  5
486
  8
0
 62
     9
 10
0.0
 20
0.0
 30
0.0
 70
   128
 71
     6
 72
     5
 73
     4
  0
VERTEX
  5
487
  8
0
 62
     9
 10
0.0
 20
0.0
 30
0.0
 70
   128
 71
     7
 72
     1
 73
     5
  0
VERTEX
  5
488
  8
0
 62
     9
 10
0.0
 20
0.0
 30
0.0
 70
   128
 71
     9
 72
     8
 73
     4
  0
VERTEX
  5
489
  8
0
 62
     9
 10
0.0
 20
0.0
 30
0.0
 70
   128
 71
     9
 72
    10
 73
     8
  0
VERTEX
  5
48A
  8
0
 62
     9
 10
0.0
 20
0.0
 30
0.0
 70
   128
 71
    10
 72
    11
 73
     8
  0
VERTEX
  5
48B
  8
0
 62
     9
 10
0.0
 20
0.0
 30
0.0
 70
   128
 71
    14
 72
    13
 73
    12
  0
VERTEX
  5
48C
  8
0
 62
     9
 10
0.0
 20
0.0
 30
0.0
 70
   128
 71
     2
 72
     3
 73
    14
  0
VERTEX
  5
48D
  8
0
 62
     9
 10
0.0
 20
0.0
 30
0.0
 70
   128
 71
    13
 72
    14
 73
    15
  0
VERTEX
  5
48E
  8
0
 62
     9
 10
0.0
 20
0.0
 30
0.0
 70
   128
 71
     3
 72
    16
 73
    15
  0
VERTEX
  5
48F
  8
0
 62
     9
 10
0.0
 20
0.0
 30
0.0
 70
   128
 71
    16
 72
     3
 73
     7
  0
VERTEX
  5
490
  8
0
 62
     9
 10
0.0
 20
0.0
 30
0.0
 70
   128
 71
    17
 72
     7
 73
     6
  0
VERTEX
  5
491
  8
0
 62
     9
 10
0.0
 20
0.0
 30
0.0
 70
   128
 71
    18
 72
     6
 73
     8
  0
VERTEX
  5
492
  8
0
 62
     9
 10
0.0
 20
0.0
 30
0.0
 70
   128
 71
    20
 72
    19
 73
     8
  0
VERTEX
  5
493
  8
0
 62
     9
 10
0.0
 20
0.0
 30
0.0
 70
   128
 71
    20
 72
    21
 73
    19
  0
VERTEX
  5
494
  8
0
 62
     9
 10
0.0
 20
0.0
 30
0.0
 70
   128
 71
    22
 72
    19
 73
    21
  0
VERTEX
  5
495
  8
0
 62
     9
 10
0.0
 20
0.0
 30
0.0
 70
   128
 71
    21
 72
    23
 73
    22
  0
VERTEX
  5
496
  8
0
 62
     9
 10
0.0
 20
0.0
 30
0.0
 70
   128
 71
    23
 72
    24
 73
    22
  0
VERTEX
  5
497
  8
0
 62
     9
 10
0.0
 20
0.0
 30
0.0
 70
   128
 71
    26
 72
     4
 73
    25
  0
VERTEX
  5
498
  8
0
 62
     9
 10
0.0
 20
0.0
 30
0.0
 70
   128
 71
    25
 72
    27
 73
    26
  0
VERTEX
  5
499
  8
0
 62
     9
 10
0.0
 20
0.0
 30
0.0
 70
   128
 71
    26
 72
    28
 73
     4
  0
VERTEX
  5
49A
  8
0
 62
     9
 10
0.0
 20
0.0
 30
0.0
 70
   128
 71
    30
 72
    29
 73
     5
  0
VERTEX
  5
49B
  8
0
 62
     9
 10
0.0
 20
0.0
 30
0.0
 70
   128
 71
    29
 72
    31
 73
     4
  0
VERTEX
  5
49C
  8
0
 62
     9
 10
0.0
 20
0.0
 30
0.0
 70
   128
 71
     4
 72
     5
 73
    29
  0
VERTEX
  5
49D
  8
0
 62
     9
 10
0.0
 20
0.0
 30
0.0
 70
   128
 71
    33
 72
    32
 73
     1
  0
VERTEX
  5
49E
  8
0
 62
     9
 10
0.0
 20
0.0
 30
0.0
 70
   128
 71
    34
 72
     5
 73
     1
  0
VERTEX
  5
49F
  8
0
 62
     9
 10
0.0
 20
0.0
 30
0.0
 70
   128
 71
     1
 72
    32
 73
    34
  0
VERTEX
  5
4A0
  8
0
 62
     9
 10
0.0
 20
0.0
 30
0.0
 70
   128
 71
    35
 72
     1
 73
     2
  0
VERTEX
  5
4A1
  8
0
 62
     9
 10
0.0
 20
0.0
 30
0.0
 70
   128
 71
     2
 72
    36
 73
    35
  0
VERTEX
  5
4A2
  8
0
 62
     9
 10
0.0
 20
0.0
 30
0.0
 70
   128
 71
    38
 72
     2
 73
    37
  0
VERTEX
  5
4A3
  8
0
 62
     9
 10
0.0
 20
0.0
 30
0.0
 70
   128
 71
    37
 72
    39
 73
    38
  0
VERTEX
  5
4A4
  8
0
 62
     9
 10
0.0
 20
0.0
 30
0.0
 70
   128
 71
    40
 72
    37
 73
    12
  0
VERTEX
  5
4A5
  8
0
 62
     9
 10
0.0
 20
0.0
 30
0.0
 70
   128
 71
    40
 72
    41
 73
    37
  0
VERTEX
  5
4A6
  8
0
 62
     9
 10
0.0
 20
0.0
 30
0.0
 70
   128
 71
    12
 72
    42
 73
    40
  0
VERTEX
  5
4A7
  8
0
 62
     9
 10
0.0
 20
0.0
 30
0.0
 70
   128
 71
    45
 72
    44
 73
    43
  0
VERTEX
  5
4A8
  8
0
 62
     9
 10
0.0
 20
0.0
 30
0.0
 70
   128
 71
    46
 72
    43
 73
    44
  0
VERTEX
  5
4A9
  8
0
 62
     9
 10
0.0
 20
0.0
 30
0.0
 70
   128
 71
    44
 72
    47
 73
    46
  0
VERTEX
  5
4AA
  8
0
 62
     9
 10
0.0
 20
0.0
 30
0.0
 70
   128
 71
    13
 72
    48
 73
    45
  0
VERTEX
  5
4AB
  8
0
 62
     9
 10
0.0
 20
0.0
 30
0.0
 70
   128
 71
    50
 72
    49
 73
    48
  0
VERTEX
  5
4AC
  8
0
 62
     9
 10
0.0
 20
0.0
 30
0.0
 70
   128
 71
    49
 72
    51
 73
    48
  0
VERTEX
  5
4AD
  8
0
 62
     9
 10
0.0
 20
0.0
 30
0.0
 70
   128
 71
    15
 72
    16
 73
    52
  0
VERTEX
  5
4AE
  8
0
 62
     9
 10
0.0
 20
0.0
 30
0.0
 70
   128
 71
    54
 72
    53
 73
    50
  0
VERTEX
  5
4AF
  8
0
 62
     9
 10
0.0
 20
0.0
 30
0.0
 70
   128
 71
    50
 72
    15
 73
    54
  0
VERTEX
  5
4B0
  8
0
 62
     9
 10
0.0
 20
0.0
 30
0.0
 70
   128
 71
    52
 72
    54
 73
    15
  0
VERTEX
  5
4B1
  8
0
 62
     9
 10
0.0
 20
0.0
 30
0.0
 70
   128
 71
    56
 72
    55
 73
    16
  0
VERTEX
  5
4B2
  8
0
 62
     9
 10
0.0
 20
0.0
 30
0.0
 70
   128
 71
    16
 72
    17
 73
    56
  0
VERTEX
  5
4B3
  8
0
 62
     9
 10
0.0
 20
0.0
 30
0.0
 70
   128
 71
    58
 72
    57
 73
    17
  0
VERTEX
  5
4B4
  8
0
 62
     9
 10
0.0
 20
0.0
 30
0.0
 70
   128
 71
    17
 72
    18
 73
    58
  0
VERTEX
  5
4B5
  8
0
 62
     9
 10
0.0
 20
0.0
 30
0.0
 70
   128
 71
    59
 72
    18
 73
    19
  0
VERTEX
  5
4B6
  8
0
 62
     9
 10
0.0
 20
0.0
 30
0.0
 70
   128
 71
    19
 72
    60
 73
    59
  0
VERTEX
  5
4B7
  8
0
 62
     9
 10
0.0
 20
0.0
 30
0.0
 70
   128
 71
    61
 72
    19
 73
    22
  0
VERTEX
  5
4B8
  8
0
 62
     9
 10
0.0
 20
0.0
 30
0.0
 70
   128
 71
    22
 72
    62
 73
    61
  0
VERTEX
  5
4B9
  8
0
 62
     9
 10
0.0
 20
0.0
 30
0.0
 70
   128
 71
    22
 72
    63
 73
    62
  0
VERTEX
  5
4BA
  8
0
 62
     9
 10
0.0
 20
0.0
 30
0.0
 70
   128
 71
    66
 72
    65
 73
    64
  0
VERTEX
  5
4BB
  8
0
 62
     9
 10
0.0
 20
0.0
 30
0.0
 70
   128
 71
    64
 72
    22
 73
    66
  0
VERTEX
  5
4BC
  8
0
 62
     9
 10
0.0
 20
0.0
 30
0.0
 70
   128
 71
    67
 72
    64
 73
    65
  0
VERTEX
  5
4BD
  8
0
 62
     9
 10
0.0
 20
0.0
 30
0.0
 70
   128
 71
    65
 72
    68
 73
    67
  0
VERTEX
  5
4BE
  8
0
 62
     9
 10
0.0
 20
0.0
 30
0.0
 70
   128
 71
    22
 72
    24
 73
    66
  0
VERTEX
  5
4BF
  8
0
 62
     9
 10
0.0
 20
0.0
 30
0.0
 70
   128
 71
    22
 72
    64
 73
    63
  0
VERTEX
  5
4C0
  8
0
 62
     9
 10
0.0
 20
0.0
 30
0.0
 70
   128
 71
    19
 72
    61
 73
    60
  0
VERTEX
  5
4C1
  8
0
 62
     9
 10
0.0
 20
0.0
 30
0.0
 70
   128
 71
    18
 72
    59
 73
    58
  0
VERTEX
  5
4C2
  8
0
 62
     9
 10
0.0
 20
0.0
 30
0.0
 70
   128
 71
    17
 72
    57
 73
    56
  0
VERTEX
  5
4C3
  8
0
 62
     9
 10
0.0
 20
0.0
 30
0.0
 70
   128
 71
    16
 72
    55
 73
    52
  0
VERTEX
  5
4C4
  8
0
 62
     9
 10
0.0
 20
0.0
 30
0.0
 70
   128
 71
    49
 72
    50
 73
    53
  0
VERTEX
  5
4C5
  8
0
 62
     9
 10
0.0
 20
0.0
 30
0.0
 70
   128
 71
    48
 72
    13
 73
    50
  0
VERTEX
  5
4C6
  8
0
 62
     9
 10
0.0
 20
0.0
 30
0.0
 70
   128
 71
    45
 72
    12
 73
    13
  0
VERTEX
  5
4C7
  8
0
 62
     9
 10
0.0
 20
0.0
 30
0.0
 70
   128
 71
    43
 72
    12
 73
    45
  0
VERTEX
  5
4C8
  8
0
 62
     9
 10
0.0
 20
0.0
 30
0.0
 70
   128
 71
    12
 72
    43
 73
    42
  0
VERTEX
  5
4C9
  8
0
 62
     9
 10
0.0
 20
0.0
 30
0.0
 70
   128
 71
    37
 72
    41
 73
    39
  0
VERTEX
  5
4CA
  8
0
 62
     9
 10
0.0
 20
0.0
 30
0.0
 70
   128
 71
     2
 72
    38
 73
    36
  0
VERTEX
  5
4CB
  8
0
 62
     9
 10
0.0
 20
0.0
 30
0.0
 70
   128
 71
     1
 72
    35
 73
    33
  0
VERTEX
  5
4CC
  8
0
 62
     9
 10
0.0
 20
0.0
 30
0.0
 70
   128
 71
     5
 72
    34
 73
    30
  0
VERTEX
  5
4CD
  8
0
 62
     9
 10
0.0
 20
0.0
 30
0.0
 70
   128
 71
     4
 72
    31
 73
    25
  0
VERTEX
  5
4CE
  8
0
 62
     9
 10
0.0
 20
0.0
 30
0.0
 70
   128
 71
     8
 72
    11
 73
    20
  0
VERTEX
  5
4CF
  8
0
 62
     9
 10
0.0
 20
0.0
 30
0.0
 70
   128
 71
     8
 72
    19
 73
    18
  0
VERTEX
  5
4D0
  8
0
 62
     9
 10
0.0
 20
0.0
 30
0.0
 70
   128
 71
     6
 72
    18
 73
    17
  0
VERTEX
  5
4D1
  8
0
 62
     9
 10
0.0
 20
0.0
 30
0.0
 70
   128
 71
     7
 72
    17
 73
    16
  0
VERTEX
  5
4D2
  8
0
 62
     9
 10
0.0
 20
0.0
 30
0.0
 70
   128
 71
    15
 72
    14
 73
     3
  0
VERTEX
  5
4D3
  8
0
 62
     9
 10
0.0
 20
0.0
 30
0.0
 70
   128
 71
    15
 72
    50
 73
    13
  0
VERTEX
  5
4D4
  8
0
 62
     9
 10
0.0
 20
0.0
 30
0.0
 70
   128
 71
    14
 72
    37
 73
     2
  0
VERTEX
  5
4D5
  8
0
 62
     9
 10
0.0
 20
0.0
 30
0.0
 70
   128
 71
    12
 72
    37
 73
    14
  0
VERTEX
  5
4D6
  8
0
 62
     9
 10
0.0
 20
0.0
 30
0.0
 70
   128
 71
     4
 72
    28
 73
     9
  0
VERTEX
  5
4D7
  8
0
 62
     9
 10
0.0
 20
0.0
 30
0.0
 70
   128
 71
     5
 72
     6
 73
     7
  0
VERTEX
  5
4D8
  8
0
 62
     9
 10
0.0
 20
0.0
 30
0.0
 70
   128
 71
     4
 72
     8
 73
     6
  0
VERTEX
  5
4D9
  8
0
 62
     9
 10
0.0
 20
0.0
 30
0.0
 70
   128
 71
     1
 72
     7
 73
     3
  0
SEQEND
  5
4DA
  8
0
 62
     9
  0
ENDBLK
  5
4DD
  8
0
  0
BLOCK
  8
0
  2
E3_NODE_12_
 70
     0
 10
0.0
 20
0.0
 30
0.0
  3
E3_NODE_12_
  1

  0
POLYLINE
  5
4DF
  8
0
 62
     9
 66
     1
 10
0.0
 20
0.0
 30
0.0
 70
    64
 71
    69
 72
    86
  0
VERTEX
  5
4E0
  8
0
 10
16.62599945068359
 20
-5.961999893188477
 30
131.8500061035156
 70
   192
  0
VERTEX
  5
4E1
  8
0
 10
17.23200035095215
 20
-11.69900035858154
 30
130.2259979248047
 70
   192
  0
VERTEX
  5
4E2
  8
0
 10
34.02399826049805
 20
-10.26700019836426
 30
134.6699981689453
 70
   192
  0
VERTEX
  5
4E3
  8
0
 10
34.33700180053711
 20
-5.122000217437744
 30
136.1580047607422
 70
   192
  0
VERTEX
  5
4E4
  8
0
 10
29.14500045776367
 20
0.0
 30
135.5169982910156
 70
   192
  0
VERTEX
  5
4E5
  8
0
 10
34.40999984741211
 20
0.0
 30
136.5079956054688
 70
   192
  0
VERTEX
  5
4E6
  8
0
 10
-1.328999996185303
 20
-7.479000091552734
 30
124.802001953125
 70
   192
  0
VERTEX
  5
4E7
  8
0
 10
-9.767000198364258
 20
-8.298999786376953
 30
119.306999206543
 70
   192
  0
VERTEX
  5
4E8
  8
0
 10
-6.370999813079834
 20
-15.72399997711182
 30
117.6989974975586
 70
   192
  0
VERTEX
  5
4E9
  8
0
 10
1.0
 20
-14.33500003814697
 30
123.0869979858398
 70
   192
  0
VERTEX
  5
4EA
  8
0
 10
-17.0629997253418
 20
-9.071999549865723
 30
112.0469970703125
 70
   192
  0
VERTEX
  5
4EB
  8
0
 10
-22.59900093078613
 20
-9.843999862670898
 30
103.286003112793
 70
   192
  0
VERTEX
  5
4EC
  8
0
 10
-17.13899993896484
 20
-18.26600074768066
 30
102.5650024414062
 70
   192
  0
VERTEX
  5
4ED
  8
0
 10
-12.58899974822998
 20
-17.00399971008301
 30
110.7539978027344
 70
   192
  0
VERTEX
  5
4EE
  8
0
 10
-1.940000057220459
 20
0.0
 30
124.9300003051758
 70
   192
  0
VERTEX
  5
4EF
  8
0
 10
-9.170999526977539
 20
0.0
 30
121.1309967041016
 70
   192
  0
VERTEX
  5
4F0
  8
0
 10
16.57299995422363
 20
0.0
 30
131.8919982910156
 70
   192
  0
VERTEX
  5
4F1
  8
0
 10
4.914000034332275
 20
0.0
 30
128.5299987792969
 70
   192
  0
VERTEX
  5
4F2
  8
0
 10
-20.78800010681152
 20
0.0
 30
109.6800003051758
 70
   192
  0
VERTEX
  5
4F3
  8
0
 10
-18.24699974060059
 20
0.0
 30
112.1849975585938
 70
   192
  0
VERTEX
  5
4F4
  8
0
 10
-10.72299957275391
 20
0.0
 30
119.6009979248047
 70
   192
  0
VERTEX
  5
4F5
  8
0
 10
67.03500366210938
 20
-9.71500015258789
 30
139.4010009765625
 70
   192
  0
VERTEX
  5
4F6
  8
0
 10
67.61399841308594
 20
0.0
 30
140.6049957275391
 70
   192
  0
VERTEX
  5
4F7
  8
0
 10
43.7859992980957
 20
0.0
 30
138.27099609375
 70
   192
  0
VERTEX
  5
4F8
  8
0
 10
18.29199981689453
 20
-16.89900016784668
 30
127.4219970703125
 70
   192
  0
VERTEX
  5
4F9
  8
0
 10
33.66699981689453
 20
-15.3100004196167
 30
132.0740051269531
 70
   192
  0
VERTEX
  5
4FA
  8
0
 10
4.598000049591064
 20
-19.99300003051758
 30
120.1389999389648
 70
   192
  0
VERTEX
  5
4FB
  8
0
 10
-1.167999982833862
 20
-21.54000091552734
 30
114.9599990844727
 70
   192
  0
VERTEX
  5
4FC
  8
0
 10
-8.9399995803833
 20
-24.15399932861328
 30
101.4300003051758
 70
   192
  0
VERTEX
  5
4FD
  8
0
 10
-5.770999908447266
 20
-22.8799991607666
 30
108.6190032958984
 70
   192
  0
VERTEX
  5
4FE
  8
0
 10
2.759999990463257
 20
-25.9109992980957
 30
107.4800033569336
 70
   192
  0
VERTEX
  5
4FF
  8
0
 10
3.607000112533569
 20
-25.59700012207031
 30
109.2890014648438
 70
   192
  0
VERTEX
  5
500
  8
0
 10
2.243000030517578
 20
-26.15399932861328
 30
105.802001953125
 70
   192
  0
VERTEX
  5
501
  8
0
 10
5.000999927520752
 20
-25.09499931335449
 30
111.2730026245117
 70
   192
  0
VERTEX
  5
502
  8
0
 10
8.644000053405762
 20
-23.78499984741211
 30
116.4530029296875
 70
   192
  0
VERTEX
  5
503
  8
0
 10
13.9680004119873
 20
-21.93899917602539
 30
121.0869979858398
 70
   192
  0
VERTEX
  5
504
  8
0
 10
22.7450008392334
 20
-19.67399978637695
 30
126.1019973754883
 70
   192
  0
VERTEX
  5
505
  8
0
 10
31.34600067138672
 20
-18.3799991607666
 30
129.3820037841797
 70
   192
  0
VERTEX
  5
506
  8
0
 10
19.5620002746582
 20
-20.4950008392334
 30
124.2829971313477
 70
   192
  0
VERTEX
  5
507
  8
0
 10
38.4010009765625
 20
-17.71100044250488
 30
131.3869934082031
 70
   192
  0
VERTEX
  5
508
  8
0
 10
56.59199905395508
 20
-16.71599960327148
 30
135.0359954833984
 70
   192
  0
VERTEX
  5
509
  8
0
 10
33.5369987487793
 20
-18.17200088500977
 30
130.0050048828125
 70
   192
  0
VERTEX
  5
50A
  8
0
 10
87.89199829101562
 20
-14.02799987792969
 30
139.4010009765625
 70
   192
  0
VERTEX
  5
50B
  8
0
 10
91.21399688720703
 20
-12.57100009918213
 30
140.2079925537109
 70
   192
  0
VERTEX
  5
50C
  8
0
 10
93.00800323486328
 20
-10.89900016784668
 30
140.8170013427734
 70
   192
  0
VERTEX
  5
50D
  8
0
 10
81.92900085449219
 20
-15.42500019073486
 30
138.3650054931641
 70
   192
  0
VERTEX
  5
50E
  8
0
 10
86.1520004272461
 20
-14.79100036621094
 30
138.9779968261719
 70
   192
  0
VERTEX
  5
50F
  8
0
 10
65.8479995727539
 20
-16.24399948120117
 30
136.2519989013672
 70
   192
  0
VERTEX
  5
510
  8
0
 10
81.82099914550781
 20
0.0
 30
141.9969940185547
 70
   192
  0
VERTEX
  5
511
  8
0
 10
96.4729995727539
 20
-5.980000019073486
 30
142.0950012207031
 70
   192
  0
VERTEX
  5
512
  8
0
 10
97.17500305175781
 20
-4.618000030517578
 30
142.3760070800781
 70
   192
  0
VERTEX
  5
513
  8
0
 10
93.49500274658203
 20
-10.44499969482422
 30
140.9830017089844
 70
   192
  0
VERTEX
  5
514
  8
0
 10
94.79900360107422
 20
-9.229999542236328
 30
141.4259948730469
 70
   192
  0
VERTEX
  5
515
  8
0
 10
-23.8799991607666
 20
0.0
 30
103.3109970092773
 70
   192
  0
VERTEX
  5
516
  8
0
 10
-28.02099990844727
 20
-2.296000003814697
 30
94.56700134277344
 70
   192
  0
VERTEX
  5
517
  8
0
 10
-26.58399963378906
 20
-8.862000465393066
 30
94.56700134277344
 70
   192
  0
VERTEX
  5
518
  8
0
 10
-28.12400054931641
 20
0.0
 30
94.56700134277344
 70
   192
  0
VERTEX
  5
519
  8
0
 10
-22.22900009155273
 20
-16.72100067138672
 30
94.56700134277344
 70
   192
  0
VERTEX
  5
51A
  8
0
 10
-20.72699928283691
 20
-18.46199989318848
 30
94.56700134277344
 70
   192
  0
VERTEX
  5
51B
  8
0
 10
-25.78400039672852
 20
-10.86400032043457
 30
94.56700134277344
 70
   192
  0
VERTEX
  5
51C
  8
0
 10
-25.89200019836426
 20
-10.5930004119873
 30
94.56700134277344
 70
   192
  0
VERTEX
  5
51D
  8
0
 10
-15.40999984741211
 20
-22.87400054931641
 30
94.56700134277344
 70
   192
  0
VERTEX
  5
51E
  8
0
 10
-13.48600006103516
 20
-24.00399971008301
 30
94.56700134277344
 70
   192
  0
VERTEX
  5
51F
  8
0
 10
-19.62199974060059
 20
-19.37800025939941
 30
94.56700134277344
 70
   192
  0
VERTEX
  5
520
  8
0
 10
0.4979999959468842
 20
-26.97299957275391
 30
100.1399993896484
 70
   192
  0
VERTEX
  5
521
  8
0
 10
-6.829999923706055
 20
-26.625
 30
94.56700134277344
 70
   192
  0
VERTEX
  5
522
  8
0
 10
-10.5290002822876
 20
-25.16900062561035
 30
94.56700134277344
 70
   192
  0
VERTEX
  5
523
  8
0
 10
-0.3529999852180481
 20
-27.71199989318848
 30
94.56700134277344
 70
   192
  0
VERTEX
  5
524
  8
0
 10
97.875
 20
0.0
 30
142.6750030517578
 70
   192
  0
VERTEX
  5
525
  8
0
 62
     9
 10
0.0
 20
0.0
 30
0.0
 70
   128
 71
     3
 72
     2
 73
     1
  0
VERTEX
  5
526
  8
0
 62
     9
 10
0.0
 20
0.0
 30
0.0
 70
   128
 71
     5
 72
     4
 73
     1
  0
VERTEX
  5
527
  8
0
 62
     9
 10
0.0
 20
0.0
 30
0.0
 70
   128
 71
     5
 72
     6
 73
     4
  0
VERTEX
  5
528
  8
0
 62
     9
 10
0.0
 20
0.0
 30
0.0
 70
   128
 71
     9
 72
     8
 73
     7
  0
VERTEX
  5
529
  8
0
 62
     9
 10
0.0
 20
0.0
 30
0.0
 70
   128
 71
     2
 72
    10
 73
     7
  0
VERTEX
  5
52A
  8
0
 62
     9
 10
0.0
 20
0.0
 30
0.0
 70
   128
 71
    13
 72
    12
 73
    11
  0
VERTEX
  5
52B
  8
0
 62
     9
 10
0.0
 20
0.0
 30
0.0
 70
   128
 71
    14
 72
    11
 73
     8
  0
VERTEX
  5
52C
  8
0
 62
     9
 10
0.0
 20
0.0
 30
0.0
 70
   128
 71
    16
 72
    15
 73
     7
  0
VERTEX
  5
52D
  8
0
 62
     9
 10
0.0
 20
0.0
 30
0.0
 70
   128
 71
     7
 72
     8
 73
    16
  0
VERTEX
  5
52E
  8
0
 62
     9
 10
0.0
 20
0.0
 30
0.0
 70
   128
 71
    18
 72
    17
 73
     1
  0
VERTEX
  5
52F
  8
0
 62
     9
 10
0.0
 20
0.0
 30
0.0
 70
   128
 71
     1
 72
     7
 73
    18
  0
VERTEX
  5
530
  8
0
 62
     9
 10
0.0
 20
0.0
 30
0.0
 70
   128
 71
    19
 72
    11
 73
    12
  0
VERTEX
  5
531
  8
0
 62
     9
 10
0.0
 20
0.0
 30
0.0
 70
   128
 71
    19
 72
    20
 73
    11
  0
VERTEX
  5
532
  8
0
 62
     9
 10
0.0
 20
0.0
 30
0.0
 70
   128
 71
    21
 72
     8
 73
    11
  0
VERTEX
  5
533
  8
0
 62
     9
 10
0.0
 20
0.0
 30
0.0
 70
   128
 71
    24
 72
    23
 73
    22
  0
VERTEX
  5
534
  8
0
 62
     9
 10
0.0
 20
0.0
 30
0.0
 70
   128
 71
    22
 72
     4
 73
    24
  0
VERTEX
  5
535
  8
0
 62
     9
 10
0.0
 20
0.0
 30
0.0
 70
   128
 71
     4
 72
     6
 73
    24
  0
VERTEX
  5
536
  8
0
 62
     9
 10
0.0
 20
0.0
 30
0.0
 70
   128
 71
    26
 72
    25
 73
     2
  0
VERTEX
  5
537
  8
0
 62
     9
 10
0.0
 20
0.0
 30
0.0
 70
   128
 71
    25
 72
    27
 73
    10
  0
VERTEX
  5
538
  8
0
 62
     9
 10
0.0
 20
0.0
 30
0.0
 70
   128
 71
    28
 72
     9
 73
    10
  0
VERTEX
  5
539
  8
0
 62
     9
 10
0.0
 20
0.0
 30
0.0
 70
   128
 71
    29
 72
    13
 73
    14
  0
VERTEX
  5
53A
  8
0
 62
     9
 10
0.0
 20
0.0
 30
0.0
 70
   128
 71
    30
 72
    14
 73
     9
  0
VERTEX
  5
53B
  8
0
 62
     9
 10
0.0
 20
0.0
 30
0.0
 70
   128
 71
    32
 72
    31
 73
    30
  0
VERTEX
  5
53C
  8
0
 62
     9
 10
0.0
 20
0.0
 30
0.0
 70
   128
 71
    31
 72
    33
 73
    30
  0
VERTEX
  5
53D
  8
0
 62
     9
 10
0.0
 20
0.0
 30
0.0
 70
   128
 71
    30
 72
    28
 73
    32
  0
VERTEX
  5
53E
  8
0
 62
     9
 10
0.0
 20
0.0
 30
0.0
 70
   128
 71
    35
 72
    34
 73
    28
  0
VERTEX
  5
53F
  8
0
 62
     9
 10
0.0
 20
0.0
 30
0.0
 70
   128
 71
    36
 72
    27
 73
    25
  0
VERTEX
  5
540
  8
0
 62
     9
 10
0.0
 20
0.0
 30
0.0
 70
   128
 71
    36
 72
    35
 73
    27
  0
VERTEX
  5
541
  8
0
 62
     9
 10
0.0
 20
0.0
 30
0.0
 70
   128
 71
    38
 72
    37
 73
    25
  0
VERTEX
  5
542
  8
0
 62
     9
 10
0.0
 20
0.0
 30
0.0
 70
   128
 71
    25
 72
    26
 73
    38
  0
VERTEX
  5
543
  8
0
 62
     9
 10
0.0
 20
0.0
 30
0.0
 70
   128
 71
    37
 72
    39
 73
    25
  0
VERTEX
  5
544
  8
0
 62
     9
 10
0.0
 20
0.0
 30
0.0
 70
   128
 71
    41
 72
    40
 73
     3
  0
VERTEX
  5
545
  8
0
 62
     9
 10
0.0
 20
0.0
 30
0.0
 70
   128
 71
     3
 72
    22
 73
    41
  0
VERTEX
  5
546
  8
0
 62
     9
 10
0.0
 20
0.0
 30
0.0
 70
   128
 71
    26
 72
     3
 73
    40
  0
VERTEX
  5
547
  8
0
 62
     9
 10
0.0
 20
0.0
 30
0.0
 70
   128
 71
    40
 72
    42
 73
    26
  0
VERTEX
  5
548
  8
0
 62
     9
 10
0.0
 20
0.0
 30
0.0
 70
   128
 71
    44
 72
    43
 73
    22
  0
VERTEX
  5
549
  8
0
 62
     9
 10
0.0
 20
0.0
 30
0.0
 70
   128
 71
    22
 72
    45
 73
    44
  0
VERTEX
  5
54A
  8
0
 62
     9
 10
0.0
 20
0.0
 30
0.0
 70
   128
 71
    47
 72
    46
 73
    22
  0
VERTEX
  5
54B
  8
0
 62
     9
 10
0.0
 20
0.0
 30
0.0
 70
   128
 71
    46
 72
    48
 73
    22
  0
VERTEX
  5
54C
  8
0
 62
     9
 10
0.0
 20
0.0
 30
0.0
 70
   128
 71
    22
 72
    43
 73
    47
  0
VERTEX
  5
54D
  8
0
 62
     9
 10
0.0
 20
0.0
 30
0.0
 70
   128
 71
    51
 72
    50
 73
    49
  0
VERTEX
  5
54E
  8
0
 62
     9
 10
0.0
 20
0.0
 30
0.0
 70
   128
 71
    52
 72
    22
 73
    49
  0
VERTEX
  5
54F
  8
0
 62
     9
 10
0.0
 20
0.0
 30
0.0
 70
   128
 71
    49
 72
    53
 73
    52
  0
VERTEX
  5
550
  8
0
 62
     9
 10
0.0
 20
0.0
 30
0.0
 70
   128
 71
    22
 72
    23
 73
    49
  0
VERTEX
  5
551
  8
0
 62
     9
 10
0.0
 20
0.0
 30
0.0
 70
   128
 71
    49
 72
    50
 73
    53
  0
VERTEX
  5
552
  8
0
 62
     9
 10
0.0
 20
0.0
 30
0.0
 70
   128
 71
    56
 72
    55
 73
    54
  0
VERTEX
  5
553
  8
0
 62
     9
 10
0.0
 20
0.0
 30
0.0
 70
   128
 71
    55
 72
    57
 73
    54
  0
VERTEX
  5
554
  8
0
 62
     9
 10
0.0
 20
0.0
 30
0.0
 70
   128
 71
    54
 72
    12
 73
    56
  0
VERTEX
  5
555
  8
0
 62
     9
 10
0.0
 20
0.0
 30
0.0
 70
   128
 71
    59
 72
    58
 73
    13
  0
VERTEX
  5
556
  8
0
 62
     9
 10
0.0
 20
0.0
 30
0.0
 70
   128
 71
    58
 72
    60
 73
    12
  0
VERTEX
  5
557
  8
0
 62
     9
 10
0.0
 20
0.0
 30
0.0
 70
   128
 71
    60
 72
    61
 73
    12
  0
VERTEX
  5
558
  8
0
 62
     9
 10
0.0
 20
0.0
 30
0.0
 70
   128
 71
    12
 72
    13
 73
    58
  0
VERTEX
  5
559
  8
0
 62
     9
 10
0.0
 20
0.0
 30
0.0
 70
   128
 71
    63
 72
    62
 73
    13
  0
VERTEX
  5
55A
  8
0
 62
     9
 10
0.0
 20
0.0
 30
0.0
 70
   128
 71
    62
 72
    64
 73
    13
  0
VERTEX
  5
55B
  8
0
 62
     9
 10
0.0
 20
0.0
 30
0.0
 70
   128
 71
    13
 72
    29
 73
    63
  0
VERTEX
  5
55C
  8
0
 62
     9
 10
0.0
 20
0.0
 30
0.0
 70
   128
 71
    65
 72
    29
 73
    30
  0
VERTEX
  5
55D
  8
0
 62
     9
 10
0.0
 20
0.0
 30
0.0
 70
   128
 71
    66
 72
    29
 73
    65
  0
VERTEX
  5
55E
  8
0
 62
     9
 10
0.0
 20
0.0
 30
0.0
 70
   128
 71
    66
 72
    67
 73
    29
  0
VERTEX
  5
55F
  8
0
 62
     9
 10
0.0
 20
0.0
 30
0.0
 70
   128
 71
    65
 72
    68
 73
    66
  0
VERTEX
  5
560
  8
0
 62
     9
 10
0.0
 20
0.0
 30
0.0
 70
   128
 71
    30
 72
    33
 73
    65
  0
VERTEX
  5
561
  8
0
 62
     9
 10
0.0
 20
0.0
 30
0.0
 70
   128
 71
    29
 72
    67
 73
    63
  0
VERTEX
  5
562
  8
0
 62
     9
 10
0.0
 20
0.0
 30
0.0
 70
   128
 71
    13
 72
    64
 73
    59
  0
VERTEX
  5
563
  8
0
 62
     9
 10
0.0
 20
0.0
 30
0.0
 70
   128
 71
    12
 72
    61
 73
    56
  0
VERTEX
  5
564
  8
0
 62
     9
 10
0.0
 20
0.0
 30
0.0
 70
   128
 71
    49
 72
    69
 73
    51
  0
VERTEX
  5
565
  8
0
 62
     9
 10
0.0
 20
0.0
 30
0.0
 70
   128
 71
    22
 72
    52
 73
    45
  0
VERTEX
  5
566
  8
0
 62
     9
 10
0.0
 20
0.0
 30
0.0
 70
   128
 71
    22
 72
    48
 73
    41
  0
VERTEX
  5
567
  8
0
 62
     9
 10
0.0
 20
0.0
 30
0.0
 70
   128
 71
    26
 72
    42
 73
    38
  0
VERTEX
  5
568
  8
0
 62
     9
 10
0.0
 20
0.0
 30
0.0
 70
   128
 71
    25
 72
    39
 73
    36
  0
VERTEX
  5
569
  8
0
 62
     9
 10
0.0
 20
0.0
 30
0.0
 70
   128
 71
    28
 72
    27
 73
    35
  0
VERTEX
  5
56A
  8
0
 62
     9
 10
0.0
 20
0.0
 30
0.0
 70
   128
 71
    28
 72
    34
 73
    32
  0
VERTEX
  5
56B
  8
0
 62
     9
 10
0.0
 20
0.0
 30
0.0
 70
   128
 71
     9
 72
    28
 73
    30
  0
VERTEX
  5
56C
  8
0
 62
     9
 10
0.0
 20
0.0
 30
0.0
 70
   128
 71
    14
 72
    30
 73
    29
  0
VERTEX
  5
56D
  8
0
 62
     9
 10
0.0
 20
0.0
 30
0.0
 70
   128
 71
    10
 72
    27
 73
    28
  0
VERTEX
  5
56E
  8
0
 62
     9
 10
0.0
 20
0.0
 30
0.0
 70
   128
 71
    10
 72
     2
 73
    25
  0
VERTEX
  5
56F
  8
0
 62
     9
 10
0.0
 20
0.0
 30
0.0
 70
   128
 71
     2
 72
     3
 73
    26
  0
VERTEX
  5
570
  8
0
 62
     9
 10
0.0
 20
0.0
 30
0.0
 70
   128
 71
    22
 72
     3
 73
     4
  0
VERTEX
  5
571
  8
0
 62
     9
 10
0.0
 20
0.0
 30
0.0
 70
   128
 71
    11
 72
    20
 73
    21
  0
VERTEX
  5
572
  8
0
 62
     9
 10
0.0
 20
0.0
 30
0.0
 70
   128
 71
    12
 72
    54
 73
    19
  0
VERTEX
  5
573
  8
0
 62
     9
 10
0.0
 20
0.0
 30
0.0
 70
   128
 71
     7
 72
    15
 73
    18
  0
VERTEX
  5
574
  8
0
 62
     9
 10
0.0
 20
0.0
 30
0.0
 70
   128
 71
     8
 72
    21
 73
    16
  0
VERTEX
  5
575
  8
0
 62
     9
 10
0.0
 20
0.0
 30
0.0
 70
   128
 71
     8
 72
     9
 73
    14
  0
VERTEX
  5
576
  8
0
 62
     9
 10
0.0
 20
0.0
 30
0.0
 70
   128
 71
    11
 72
    14
 73
    13
  0
VERTEX
  5
577
  8
0
 62
     9
 10
0.0
 20
0.0
 30
0.0
 70
   128
 71
     7
 72
     1
 73
     2
  0
VERTEX
  5
578
  8
0
 62
     9
 10
0.0
 20
0.0
 30
0.0
 70
   128
 71
     7
 72
    10
 73
     9
  0
VERTEX
  5
579
  8
0
 62
     9
 10
0.0
 20
0.0
 30
0.0
 70
   128
 71
     1
 72
    17
 73
     5
  0
VERTEX
  5
57A
  8
0
 62
     9
 10
0.0
 20
0.0
 30
0.0
 70
   128
 71
     1
 72
     4
 73
     3
  0
SEQEND
  5
57B
  8
0
 62
     9
  0
ENDBLK
  5
57E
  8
0
  0
BLOCK
  8
0
  2
E3_NODE_13_
 70
     0
 10
0.0
 20
0.0
 30
0.0
  3
E3_NODE_13_
  1

  0
POLYLINE
  5
580
  8
0
 62
     9
 66
     1
 10
0.0
 20
0.0
 30
0.0
 70
    64
 71
    47
 72
    54
  0
VERTEX
  5
581
  8
0
 10
56.59199905395508
 20
-16.71599960327148
 30
135.0359954833984
 70
   192
  0
VERTEX
  5
582
  8
0
 10
38.4010009765625
 20
-17.71100044250488
 30
131.3869934082031
 70
   192
  0
VERTEX
  5
583
  8
0
 10
38.77899932861328
 20
-18.32799911499023
 30
130.0269927978516
 70
   192
  0
VERTEX
  5
584
  8
0
 10
56.87400054931641
 20
-17.42900085449219
 30
133.4429931640625
 70
   192
  0
VERTEX
  5
585
  8
0
 10
39.00699996948242
 20
-17.37800025939941
 30
128.8350067138672
 70
   192
  0
VERTEX
  5
586
  8
0
 10
33.5369987487793
 20
-18.17200088500977
 30
130.0050048828125
 70
   192
  0
VERTEX
  5
587
  8
0
 10
31.77599906921387
 20
-18.93499946594238
 30
128.1959991455078
 70
   192
  0
VERTEX
  5
588
  8
0
 10
32.06100082397461
 20
-18.23399925231934
 30
127.0449981689453
 70
   192
  0
VERTEX
  5
589
  8
0
 10
37.24200057983398
 20
-17.59600067138672
 30
128.3800048828125
 70
   192
  0
VERTEX
  5
58A
  8
0
 10
31.34600067138672
 20
-18.3799991607666
 30
129.3820037841797
 70
   192
  0
VERTEX
  5
58B
  8
0
 10
22.7450008392334
 20
-19.67399978637695
 30
126.1019973754883
 70
   192
  0
VERTEX
  5
58C
  8
0
 10
23.20899963378906
 20
-20.10499954223633
 30
125.2239990234375
 70
   192
  0
VERTEX
  5
58D
  8
0
 10
25.44599914550781
 20
-19.42700004577637
 30
124.8769989013672
 70
   192
  0
VERTEX
  5
58E
  8
0
 10
23.57099914550781
 20
-19.76600074768066
 30
124.2620010375977
 70
   192
  0
VERTEX
  5
58F
  8
0
 10
14.3769998550415
 20
-22.18400001525879
 30
120.6029968261719
 70
   192
  0
VERTEX
  5
590
  8
0
 10
19.5620002746582
 20
-20.4950008392334
 30
124.2829971313477
 70
   192
  0
VERTEX
  5
591
  8
0
 10
14.7519998550415
 20
-22.13500022888184
 30
120.0390014648438
 70
   192
  0
VERTEX
  5
592
  8
0
 10
13.9680004119873
 20
-21.93899917602539
 30
121.0869979858398
 70
   192
  0
VERTEX
  5
593
  8
0
 10
8.644000053405762
 20
-23.78499984741211
 30
116.4530029296875
 70
   192
  0
VERTEX
  5
594
  8
0
 10
8.982999801635742
 20
-23.92600059509277
 30
116.1699981689453
 70
   192
  0
VERTEX
  5
595
  8
0
 10
9.315999984741211
 20
-23.92900085449219
 30
115.8470001220703
 70
   192
  0
VERTEX
  5
596
  8
0
 10
5.000999927520752
 20
-25.09499931335449
 30
111.2730026245117
 70
   192
  0
VERTEX
  5
597
  8
0
 10
3.852999925613403
 20
-25.65500068664551
 30
109.1689987182617
 70
   192
  0
VERTEX
  5
598
  8
0
 10
5.690999984741211
 20
-25.13299942016602
 30
111.1149978637695
 70
   192
  0
VERTEX
  5
599
  8
0
 10
4.10099983215332
 20
-25.6609992980957
 30
109.0400009155273
 70
   192
  0
VERTEX
  5
59A
  8
0
 10
2.759999990463257
 20
-25.9109992980957
 30
107.4800033569336
 70
   192
  0
VERTEX
  5
59B
  8
0
 10
2.980999946594238
 20
-25.95599937438965
 30
107.3870010375977
 70
   192
  0
VERTEX
  5
59C
  8
0
 10
3.203999996185303
 20
-25.96299934387207
 30
107.2880020141602
 70
   192
  0
VERTEX
  5
59D
  8
0
 10
0.625
 20
-26.98800086975098
 30
100.1149978637695
 70
   192
  0
VERTEX
  5
59E
  8
0
 10
2.243000030517578
 20
-26.15399932861328
 30
105.802001953125
 70
   192
  0
VERTEX
  5
59F
  8
0
 10
0.7519999742507935
 20
-26.99200057983398
 30
100.088996887207
 70
   192
  0
VERTEX
  5
5A0
  8
0
 10
2.135999917984009
 20
-26.4109992980957
 30
104.1510009765625
 70
   192
  0
VERTEX
  5
5A1
  8
0
 10
82.00299835205078
 20
-15.79599952697754
 30
135.8800048828125
 70
   192
  0
VERTEX
  5
5A2
  8
0
 10
61.61999893188477
 20
-15.88500022888184
 30
132.8710021972656
 70
   192
  0
VERTEX
  5
5A3
  8
0
 10
57.00699996948242
 20
-16.10899925231934
 30
132.2760009765625
 70
   192
  0
VERTEX
  5
5A4
  8
0
 10
81.68699645996094
 20
-14.91300010681152
 30
135.4609985351562
 70
   192
  0
VERTEX
  5
5A5
  8
0
 10
82.01499938964844
 20
-14.89700031280518
 30
135.5030059814453
 70
   192
  0
VERTEX
  5
5A6
  8
0
 10
81.97699737548828
 20
-16.1200008392334
 30
136.7799987792969
 70
   192
  0
VERTEX
  5
5A7
  8
0
 10
81.97699737548828
 20
-16.1200008392334
 30
136.7819976806641
 70
   192
  0
VERTEX
  5
5A8
  8
0
 10
65.8479995727539
 20
-16.24399948120117
 30
136.2519989013672
 70
   192
  0
VERTEX
  5
5A9
  8
0
 10
81.96299743652344
 20
-16.27799987792969
 30
137.2209930419922
 70
   192
  0
VERTEX
  5
5AA
  8
0
 10
0.4979999959468842
 20
-26.97299957275391
 30
100.1399993896484
 70
   192
  0
VERTEX
  5
5AB
  8
0
 10
-0.3529999852180481
 20
-27.71199989318848
 30
94.56700134277344
 70
   192
  0
VERTEX
  5
5AC
  8
0
 10
-0.2849999964237213
 20
-27.7140007019043
 30
94.56700134277344
 70
   192
  0
VERTEX
  5
5AD
  8
0
 10
-0.2160000056028366
 20
-27.71599960327148
 30
94.56700134277344
 70
   192
  0
VERTEX
  5
5AE
  8
0
 10
81.92900085449219
 20
-15.42500019073486
 30
138.3650054931641
 70
   192
  0
VERTEX
  5
5AF
  8
0
 10
3.607000112533569
 20
-25.59700012207031
 30
109.2890014648438
 70
   192
  0
VERTEX
  5
5B0
  8
0
 62
     9
 10
0.0
 20
0.0
 30
0.0
 70
   128
 71
     3
 72
     2
 73
     1
  0
VERTEX
  5
5B1
  8
0
 62
     9
 10
0.0
 20
0.0
 30
0.0
 70
   128
 71
     5
 72
     3
 73
     4
  0
VERTEX
  5
5B2
  8
0
 62
     9
 10
0.0
 20
0.0
 30
0.0
 70
   128
 71
     6
 72
     2
 73
     3
  0
VERTEX
  5
5B3
  8
0
 62
     9
 10
0.0
 20
0.0
 30
0.0
 70
   128
 71
     3
 72
     7
 73
     6
  0
VERTEX
  5
5B4
  8
0
 62
     9
 10
0.0
 20
0.0
 30
0.0
 70
   128
 71
     9
 72
     8
 73
     7
  0
VERTEX
  5
5B5
  8
0
 62
     9
 10
0.0
 20
0.0
 30
0.0
 70
   128
 71
     7
 72
     3
 73
     9
  0
VERTEX
  5
5B6
  8
0
 62
     9
 10
0.0
 20
0.0
 30
0.0
 70
   128
 71
    12
 72
    11
 73
    10
  0
VERTEX
  5
5B7
  8
0
 62
     9
 10
0.0
 20
0.0
 30
0.0
 70
   128
 71
    13
 72
    12
 73
     7
  0
VERTEX
  5
5B8
  8
0
 62
     9
 10
0.0
 20
0.0
 30
0.0
 70
   128
 71
    13
 72
    14
 73
    12
  0
VERTEX
  5
5B9
  8
0
 62
     9
 10
0.0
 20
0.0
 30
0.0
 70
   128
 71
    16
 72
    12
 73
    15
  0
VERTEX
  5
5BA
  8
0
 62
     9
 10
0.0
 20
0.0
 30
0.0
 70
   128
 71
    16
 72
    11
 73
    12
  0
VERTEX
  5
5BB
  8
0
 62
     9
 10
0.0
 20
0.0
 30
0.0
 70
   128
 71
    17
 72
    15
 73
    12
  0
VERTEX
  5
5BC
  8
0
 62
     9
 10
0.0
 20
0.0
 30
0.0
 70
   128
 71
    20
 72
    19
 73
    18
  0
VERTEX
  5
5BD
  8
0
 62
     9
 10
0.0
 20
0.0
 30
0.0
 70
   128
 71
    21
 72
    20
 73
    15
  0
VERTEX
  5
5BE
  8
0
 62
     9
 10
0.0
 20
0.0
 30
0.0
 70
   128
 71
    22
 72
    19
 73
    20
  0
VERTEX
  5
5BF
  8
0
 62
     9
 10
0.0
 20
0.0
 30
0.0
 70
   128
 71
    20
 72
    23
 73
    22
  0
VERTEX
  5
5C0
  8
0
 62
     9
 10
0.0
 20
0.0
 30
0.0
 70
   128
 71
    24
 72
    23
 73
    20
  0
VERTEX
  5
5C1
  8
0
 62
     9
 10
0.0
 20
0.0
 30
0.0
 70
   128
 71
    24
 72
    25
 73
    23
  0
VERTEX
  5
5C2
  8
0
 62
     9
 10
0.0
 20
0.0
 30
0.0
 70
   128
 71
    23
 72
    27
 73
    26
  0
VERTEX
  5
5C3
  8
0
 62
     9
 10
0.0
 20
0.0
 30
0.0
 70
   128
 71
    28
 72
    27
 73
    23
  0
VERTEX
  5
5C4
  8
0
 62
     9
 10
0.0
 20
0.0
 30
0.0
 70
   128
 71
    30
 72
    27
 73
    29
  0
VERTEX
  5
5C5
  8
0
 62
     9
 10
0.0
 20
0.0
 30
0.0
 70
   128
 71
    30
 72
    26
 73
    27
  0
VERTEX
  5
5C6
  8
0
 62
     9
 10
0.0
 20
0.0
 30
0.0
 70
   128
 71
    32
 72
    31
 73
    29
  0
VERTEX
  5
5C7
  8
0
 62
     9
 10
0.0
 20
0.0
 30
0.0
 70
   128
 71
    29
 72
    27
 73
    32
  0
VERTEX
  5
5C8
  8
0
 62
     9
 10
0.0
 20
0.0
 30
0.0
 70
   128
 71
    34
 72
     4
 73
    33
  0
VERTEX
  5
5C9
  8
0
 62
     9
 10
0.0
 20
0.0
 30
0.0
 70
   128
 71
    34
 72
    35
 73
     4
  0
VERTEX
  5
5CA
  8
0
 62
     9
 10
0.0
 20
0.0
 30
0.0
 70
   128
 71
    33
 72
    36
 73
    34
  0
VERTEX
  5
5CB
  8
0
 62
     9
 10
0.0
 20
0.0
 30
0.0
 70
   128
 71
    33
 72
    37
 73
    36
  0
VERTEX
  5
5CC
  8
0
 62
     9
 10
0.0
 20
0.0
 30
0.0
 70
   128
 71
    40
 72
    39
 73
    38
  0
VERTEX
  5
5CD
  8
0
 62
     9
 10
0.0
 20
0.0
 30
0.0
 70
   128
 71
    38
 72
     4
 73
    40
  0
VERTEX
  5
5CE
  8
0
 62
     9
 10
0.0
 20
0.0
 30
0.0
 70
   128
 71
     4
 72
     1
 73
    40
  0
VERTEX
  5
5CF
  8
0
 62
     9
 10
0.0
 20
0.0
 30
0.0
 70
   128
 71
    40
 72
    41
 73
    39
  0
VERTEX
  5
5D0
  8
0
 62
     9
 10
0.0
 20
0.0
 30
0.0
 70
   128
 71
    44
 72
    43
 73
    42
  0
VERTEX
  5
5D1
  8
0
 62
     9
 10
0.0
 20
0.0
 30
0.0
 70
   128
 71
    45
 72
    44
 73
    29
  0
VERTEX
  5
5D2
  8
0
 62
     9
 10
0.0
 20
0.0
 30
0.0
 70
   128
 71
    29
 72
    31
 73
    45
  0
VERTEX
  5
5D3
  8
0
 62
     9
 10
0.0
 20
0.0
 30
0.0
 70
   128
 71
    42
 72
    29
 73
    44
  0
VERTEX
  5
5D4
  8
0
 62
     9
 10
0.0
 20
0.0
 30
0.0
 70
   128
 71
    40
 72
    46
 73
    41
  0
VERTEX
  5
5D5
  8
0
 62
     9
 10
0.0
 20
0.0
 30
0.0
 70
   128
 71
     4
 72
    38
 73
    33
  0
VERTEX
  5
5D6
  8
0
 62
     9
 10
0.0
 20
0.0
 30
0.0
 70
   128
 71
    27
 72
    28
 73
    32
  0
VERTEX
  5
5D7
  8
0
 62
     9
 10
0.0
 20
0.0
 30
0.0
 70
   128
 71
    29
 72
    42
 73
    30
  0
VERTEX
  5
5D8
  8
0
 62
     9
 10
0.0
 20
0.0
 30
0.0
 70
   128
 71
    23
 72
    25
 73
    28
  0
VERTEX
  5
5D9
  8
0
 62
     9
 10
0.0
 20
0.0
 30
0.0
 70
   128
 71
    26
 72
    47
 73
    23
  0
VERTEX
  5
5DA
  8
0
 62
     9
 10
0.0
 20
0.0
 30
0.0
 70
   128
 71
    20
 72
    21
 73
    24
  0
VERTEX
  5
5DB
  8
0
 62
     9
 10
0.0
 20
0.0
 30
0.0
 70
   128
 71
    23
 72
    47
 73
    22
  0
VERTEX
  5
5DC
  8
0
 62
     9
 10
0.0
 20
0.0
 30
0.0
 70
   128
 71
    15
 72
    17
 73
    21
  0
VERTEX
  5
5DD
  8
0
 62
     9
 10
0.0
 20
0.0
 30
0.0
 70
   128
 71
    18
 72
    15
 73
    20
  0
VERTEX
  5
5DE
  8
0
 62
     9
 10
0.0
 20
0.0
 30
0.0
 70
   128
 71
    12
 72
    14
 73
    17
  0
VERTEX
  5
5DF
  8
0
 62
     9
 10
0.0
 20
0.0
 30
0.0
 70
   128
 71
    15
 72
    18
 73
    16
  0
VERTEX
  5
5E0
  8
0
 62
     9
 10
0.0
 20
0.0
 30
0.0
 70
   128
 71
     7
 72
     8
 73
    13
  0
VERTEX
  5
5E1
  8
0
 62
     9
 10
0.0
 20
0.0
 30
0.0
 70
   128
 71
    10
 72
     7
 73
    12
  0
VERTEX
  5
5E2
  8
0
 62
     9
 10
0.0
 20
0.0
 30
0.0
 70
   128
 71
     3
 72
     5
 73
     9
  0
VERTEX
  5
5E3
  8
0
 62
     9
 10
0.0
 20
0.0
 30
0.0
 70
   128
 71
     7
 72
    10
 73
     6
  0
VERTEX
  5
5E4
  8
0
 62
     9
 10
0.0
 20
0.0
 30
0.0
 70
   128
 71
     4
 72
    35
 73
     5
  0
VERTEX
  5
5E5
  8
0
 62
     9
 10
0.0
 20
0.0
 30
0.0
 70
   128
 71
     1
 72
     4
 73
     3
  0
SEQEND
  5
5E6
  8
0
 62
     9
  0
ENDBLK
  5
5E9
  8
0
  0
BLOCK
  8
0
  2
E3_NODE_14_
 70
     0
 10
0.0
 20
0.0
 30
0.0
  3
E3_NODE_14_
  1

  0
POLYLINE
  5
5EB
  8
0
 62
     9
 66
     1
 10
0.0
 20
0.0
 30
0.0
 70
    64
 71
    31
 72
    33
  0
VERTEX
  5
5EC
  8
0
 10
94.3010025024414
 20
-11.70600032806396
 30
139.3560028076172
 70
   192
  0
VERTEX
  5
5ED
  8
0
 10
94.79900360107422
 20
-9.229999542236328
 30
141.4259948730469
 70
   192
  0
VERTEX
  5
5EE
  8
0
 10
93.49500274658203
 20
-10.44499969482422
 30
140.9830017089844
 70
   192
  0
VERTEX
  5
5EF
  8
0
 10
98.08200073242188
 20
-6.451000213623047
 30
140.9049987792969
 70
   192
  0
VERTEX
  5
5F0
  8
0
 10
96.4729995727539
 20
-5.980000019073486
 30
142.0950012207031
 70
   192
  0
VERTEX
  5
5F1
  8
0
 10
81.96299743652344
 20
-16.27799987792969
 30
137.2209930419922
 70
   192
  0
VERTEX
  5
5F2
  8
0
 10
88.64399719238281
 20
-15.03400039672852
 30
137.8049926757812
 70
   192
  0
VERTEX
  5
5F3
  8
0
 10
86.1520004272461
 20
-14.79100036621094
 30
138.9779968261719
 70
   192
  0
VERTEX
  5
5F4
  8
0
 10
81.92900085449219
 20
-15.42500019073486
 30
138.3650054931641
 70
   192
  0
VERTEX
  5
5F5
  8
0
 10
87.89199829101562
 20
-14.02799987792969
 30
139.4010009765625
 70
   192
  0
VERTEX
  5
5F6
  8
0
 10
93.4010009765625
 20
-10.80700016021729
 30
137.531005859375
 70
   192
  0
VERTEX
  5
5F7
  8
0
 10
96.68099975585938
 20
-6.73199987411499
 30
138.8529968261719
 70
   192
  0
VERTEX
  5
5F8
  8
0
 10
82.00299835205078
 20
-15.79599952697754
 30
135.8800048828125
 70
   192
  0
VERTEX
  5
5F9
  8
0
 10
82.01499938964844
 20
-14.89700031280518
 30
135.5030059814453
 70
   192
  0
VERTEX
  5
5FA
  8
0
 10
82.00800323486328
 20
-15.80500030517578
 30
135.8890075683594
 70
   192
  0
VERTEX
  5
5FB
  8
0
 10
81.97699737548828
 20
-16.1200008392334
 30
136.7799987792969
 70
   192
  0
VERTEX
  5
5FC
  8
0
 10
88.08000183105469
 20
-13.74400043487549
 30
136.3000030517578
 70
   192
  0
VERTEX
  5
5FD
  8
0
 10
81.97699737548828
 20
-16.1200008392334
 30
136.7819976806641
 70
   192
  0
VERTEX
  5
5FE
  8
0
 10
91.21399688720703
 20
-12.57100009918213
 30
140.2079925537109
 70
   192
  0
VERTEX
  5
5FF
  8
0
 10
93.00800323486328
 20
-10.89900016784668
 30
140.8170013427734
 70
   192
  0
VERTEX
  5
600
  8
0
 10
90.40699768066406
 20
-12.54399967193604
 30
136.8150024414062
 70
   192
  0
VERTEX
  5
601
  8
0
 10
88.46199798583984
 20
-13.67199993133545
 30
136.3500061035156
 70
   192
  0
VERTEX
  5
602
  8
0
 10
98.18499755859375
 20
-2.279999971389771
 30
139.6569976806641
 70
   192
  0
VERTEX
  5
603
  8
0
 10
99.1989974975586
 20
-0.0010000000474975
 30
140.3950042724609
 70
   192
  0
VERTEX
  5
604
  8
0
 10
99.42900085449219
 20
0.0
 30
141.5549926757812
 70
   192
  0
VERTEX
  5
605
  8
0
 10
98.36699676513672
 20
0.0
 30
139.7590026855469
 70
   192
  0
VERTEX
  5
606
  8
0
 10
96.94000244140625
 20
-5.966000080108643
 30
138.9909973144531
 70
   192
  0
VERTEX
  5
607
  8
0
 10
99.4260025024414
 20
0.0
 30
141.5590057373047
 70
   192
  0
VERTEX
  5
608
  8
0
 10
98.72100067138672
 20
0.0
 30
142.4720001220703
 70
   192
  0
VERTEX
  5
609
  8
0
 10
97.875
 20
0.0
 30
142.6750030517578
 70
   192
  0
VERTEX
  5
60A
  8
0
 10
97.17500305175781
 20
-4.618000030517578
 30
142.3760070800781
 70
   192
  0
VERTEX
  5
60B
  8
0
 62
     9
 10
0.0
 20
0.0
 30
0.0
 70
   128
 71
     3
 72
     2
 73
     1
  0
VERTEX
  5
60C
  8
0
 62
     9
 10
0.0
 20
0.0
 30
0.0
 70
   128
 71
     2
 72
     5
 73
     4
  0
VERTEX
  5
60D
  8
0
 62
     9
 10
0.0
 20
0.0
 30
0.0
 70
   128
 71
     4
 72
     1
 73
     2
  0
VERTEX
  5
60E
  8
0
 62
     9
 10
0.0
 20
0.0
 30
0.0
 70
   128
 71
     8
 72
     7
 73
     6
  0
VERTEX
  5
60F
  8
0
 62
     9
 10
0.0
 20
0.0
 30
0.0
 70
   128
 71
     6
 72
     9
 73
     8
  0
VERTEX
  5
610
  8
0
 62
     9
 10
0.0
 20
0.0
 30
0.0
 70
   128
 71
     8
 72
    10
 73
     7
  0
VERTEX
  5
611
  8
0
 62
     9
 10
0.0
 20
0.0
 30
0.0
 70
   128
 71
    12
 72
    11
 73
     1
  0
VERTEX
  5
612
  8
0
 62
     9
 10
0.0
 20
0.0
 30
0.0
 70
   128
 71
     1
 72
     4
 73
    12
  0
VERTEX
  5
613
  8
0
 62
     9
 10
0.0
 20
0.0
 30
0.0
 70
   128
 71
    15
 72
    14
 73
    13
  0
VERTEX
  5
614
  8
0
 62
     9
 10
0.0
 20
0.0
 30
0.0
 70
   128
 71
    13
 72
    16
 73
    15
  0
VERTEX
  5
615
  8
0
 62
     9
 10
0.0
 20
0.0
 30
0.0
 70
   128
 71
    17
 72
    14
 73
    15
  0
VERTEX
  5
616
  8
0
 62
     9
 10
0.0
 20
0.0
 30
0.0
 70
   128
 71
    15
 72
    16
 73
     7
  0
VERTEX
  5
617
  8
0
 62
     9
 10
0.0
 20
0.0
 30
0.0
 70
   128
 71
    16
 72
    18
 73
     7
  0
VERTEX
  5
618
  8
0
 62
     9
 10
0.0
 20
0.0
 30
0.0
 70
   128
 71
    15
 72
     7
 73
    17
  0
VERTEX
  5
619
  8
0
 62
     9
 10
0.0
 20
0.0
 30
0.0
 70
   128
 71
    19
 72
     1
 73
     7
  0
VERTEX
  5
61A
  8
0
 62
     9
 10
0.0
 20
0.0
 30
0.0
 70
   128
 71
    19
 72
    20
 73
     1
  0
VERTEX
  5
61B
  8
0
 62
     9
 10
0.0
 20
0.0
 30
0.0
 70
   128
 71
    21
 72
     7
 73
     1
  0
VERTEX
  5
61C
  8
0
 62
     9
 10
0.0
 20
0.0
 30
0.0
 70
   128
 71
    21
 72
    22
 73
     7
  0
VERTEX
  5
61D
  8
0
 62
     9
 10
0.0
 20
0.0
 30
0.0
 70
   128
 71
    22
 72
    17
 73
     7
  0
VERTEX
  5
61E
  8
0
 62
     9
 10
0.0
 20
0.0
 30
0.0
 70
   128
 71
    25
 72
    24
 73
    23
  0
VERTEX
  5
61F
  8
0
 62
     9
 10
0.0
 20
0.0
 30
0.0
 70
   128
 71
    24
 72
    26
 73
    23
  0
VERTEX
  5
620
  8
0
 62
     9
 10
0.0
 20
0.0
 30
0.0
 70
   128
 71
    23
 72
    27
 73
     4
  0
VERTEX
  5
621
  8
0
 62
     9
 10
0.0
 20
0.0
 30
0.0
 70
   128
 71
     4
 72
    28
 73
    23
  0
VERTEX
  5
622
  8
0
 62
     9
 10
0.0
 20
0.0
 30
0.0
 70
   128
 71
    31
 72
    30
 73
    29
  0
VERTEX
  5
623
  8
0
 62
     9
 10
0.0
 20
0.0
 30
0.0
 70
   128
 71
    29
 72
    28
 73
     4
  0
VERTEX
  5
624
  8
0
 62
     9
 10
0.0
 20
0.0
 30
0.0
 70
   128
 71
    29
 72
     4
 73
    31
  0
VERTEX
  5
625
  8
0
 62
     9
 10
0.0
 20
0.0
 30
0.0
 70
   128
 71
     4
 72
     5
 73
    31
  0
VERTEX
  5
626
  8
0
 62
     9
 10
0.0
 20
0.0
 30
0.0
 70
   128
 71
    23
 72
    28
 73
    25
  0
VERTEX
  5
627
  8
0
 62
     9
 10
0.0
 20
0.0
 30
0.0
 70
   128
 71
     1
 72
    11
 73
    21
  0
VERTEX
  5
628
  8
0
 62
     9
 10
0.0
 20
0.0
 30
0.0
 70
   128
 71
     7
 72
    10
 73
    19
  0
VERTEX
  5
629
  8
0
 62
     9
 10
0.0
 20
0.0
 30
0.0
 70
   128
 71
     4
 72
    27
 73
    12
  0
VERTEX
  5
62A
  8
0
 62
     9
 10
0.0
 20
0.0
 30
0.0
 70
   128
 71
     7
 72
    18
 73
     6
  0
VERTEX
  5
62B
  8
0
 62
     9
 10
0.0
 20
0.0
 30
0.0
 70
   128
 71
     1
 72
    20
 73
     3
  0
SEQEND
  5
62C
  8
0
 62
     9
  0
ENDBLK
  5
62F
  8
0
  0
BLOCK
  8
0
  2
E3_NODE_15_
 70
     0
 10
0.0
 20
0.0
 30
0.0
  3
E3_NODE_15_
  1

  0
POLYLINE
  5
631
  8
0
 62
     9
 66
     1
 10
0.0
 20
0.0
 30
0.0
 70
    64
 71
    24
 72
    24
  0
VERTEX
  5
632
  8
0
 10
0.0
 20
-68.25
 30
78.11000061035156
 70
   192
  0
VERTEX
  5
633
  8
0
 10
8.196000099182129
 20
-65.26699829101562
 30
78.11000061035156
 70
   192
  0
VERTEX
  5
634
  8
0
 10
6.427999973297119
 20
-63.15999984741211
 30
81.0999984741211
 70
   192
  0
VERTEX
  5
635
  8
0
 10
9.847999572753906
 20
-57.23600006103516
 30
81.0999984741211
 70
   192
  0
VERTEX
  5
636
  8
0
 10
9.425999641418457
 20
-63.13600158691406
 30
78.11000061035156
 70
   192
  0
VERTEX
  5
637
  8
0
 10
12.55599975585938
 20
-57.7140007019043
 30
78.11000061035156
 70
   192
  0
VERTEX
  5
638
  8
0
 10
11.68900012969971
 20
-52.79399871826172
 30
78.11000061035156
 70
   192
  0
VERTEX
  5
639
  8
0
 10
8.65999984741211
 20
-50.5
 30
81.0999984741211
 70
   192
  0
VERTEX
  5
63A
  8
0
 10
5.290999889373779
 20
-44.29999923706055
 30
78.11000061035156
 70
   192
  0
VERTEX
  5
63B
  8
0
 10
3.420000076293945
 20
-46.10300064086914
 30
81.0999984741211
 70
   192
  0
VERTEX
  5
63C
  8
0
 10
11.04199981689453
 20
-49.125
 30
78.11000061035156
 70
   192
  0
VERTEX
  5
63D
  8
0
 10
-4.361000061035156
 20
-43.51900100708008
 30
78.11000061035156
 70
   192
  0
VERTEX
  5
63E
  8
0
 10
-3.420000076293945
 20
-46.10300064086914
 30
81.0999984741211
 70
   192
  0
VERTEX
  5
63F
  8
0
 10
-5.290999889373779
 20
-44.29999923706055
 30
78.11000061035156
 70
   192
  0
VERTEX
  5
640
  8
0
 10
-11.04199981689453
 20
-49.125
 30
78.11000061035156
 70
   192
  0
VERTEX
  5
641
  8
0
 10
-8.65999984741211
 20
-50.5
 30
81.0999984741211
 70
   192
  0
VERTEX
  5
642
  8
0
 10
-9.847999572753906
 20
-57.23600006103516
 30
81.0999984741211
 70
   192
  0
VERTEX
  5
643
  8
0
 10
-11.68900012969971
 20
-52.79399871826172
 30
78.11000061035156
 70
   192
  0
VERTEX
  5
644
  8
0
 10
-12.55599975585938
 20
-57.7140007019043
 30
78.11000061035156
 70
   192
  0
VERTEX
  5
645
  8
0
 10
-9.425999641418457
 20
-63.13600158691406
 30
78.11000061035156
 70
   192
  0
VERTEX
  5
646
  8
0
 10
-6.427999973297119
 20
-63.15999984741211
 30
81.0999984741211
 70
   192
  0
VERTEX
  5
647
  8
0
 10
-8.196000099182129
 20
-65.26699829101562
 30
78.11000061035156
 70
   192
  0
VERTEX
  5
648
  8
0
 10
0.0
 20
-65.5
 30
81.0999984741211
 70
   192
  0
VERTEX
  5
649
  8
0
 10
4.361000061035156
 20
-43.51900100708008
 30
78.11000061035156
 70
   192
  0
VERTEX
  5
64A
  8
0
 62
     9
 10
0.0
 20
0.0
 30
0.0
 70
   128
 71
     3
 72
     2
 73
     1
  0
VERTEX
  5
64B
  8
0
 62
     9
 10
0.0
 20
0.0
 30
0.0
 70
   128
 71
     5
 72
     3
 73
     4
  0
VERTEX
  5
64C
  8
0
 62
     9
 10
0.0
 20
0.0
 30
0.0
 70
   128
 71
     5
 72
     2
 73
     3
  0
VERTEX
  5
64D
  8
0
 62
     9
 10
0.0
 20
0.0
 30
0.0
 70
   128
 71
     7
 72
     6
 73
     4
  0
VERTEX
  5
64E
  8
0
 62
     9
 10
0.0
 20
0.0
 30
0.0
 70
   128
 71
     4
 72
     8
 73
     7
  0
VERTEX
  5
64F
  8
0
 62
     9
 10
0.0
 20
0.0
 30
0.0
 70
   128
 71
     8
 72
    10
 73
     9
  0
VERTEX
  5
650
  8
0
 62
     9
 10
0.0
 20
0.0
 30
0.0
 70
   128
 71
     9
 72
    11
 73
     8
  0
VERTEX
  5
651
  8
0
 62
     9
 10
0.0
 20
0.0
 30
0.0
 70
   128
 71
    10
 72
    13
 73
    12
  0
VERTEX
  5
652
  8
0
 62
     9
 10
0.0
 20
0.0
 30
0.0
 70
   128
 71
    16
 72
    15
 73
    14
  0
VERTEX
  5
653
  8
0
 62
     9
 10
0.0
 20
0.0
 30
0.0
 70
   128
 71
    14
 72
    12
 73
    13
  0
VERTEX
  5
654
  8
0
 62
     9
 10
0.0
 20
0.0
 30
0.0
 70
   128
 71
    18
 72
    16
 73
    17
  0
VERTEX
  5
655
  8
0
 62
     9
 10
0.0
 20
0.0
 30
0.0
 70
   128
 71
    18
 72
    15
 73
    16
  0
VERTEX
  5
656
  8
0
 62
     9
 10
0.0
 20
0.0
 30
0.0
 70
   128
 71
    20
 72
    19
 73
    17
  0
VERTEX
  5
657
  8
0
 62
     9
 10
0.0
 20
0.0
 30
0.0
 70
   128
 71
    17
 72
    21
 73
    20
  0
VERTEX
  5
658
  8
0
 62
     9
 10
0.0
 20
0.0
 30
0.0
 70
   128
 71
    23
 72
     1
 73
    22
  0
VERTEX
  5
659
  8
0
 62
     9
 10
0.0
 20
0.0
 30
0.0
 70
   128
 71
    22
 72
    21
 73
    23
  0
VERTEX
  5
65A
  8
0
 62
     9
 10
0.0
 20
0.0
 30
0.0
 70
   128
 71
    21
 72
    22
 73
    20
  0
VERTEX
  5
65B
  8
0
 62
     9
 10
0.0
 20
0.0
 30
0.0
 70
   128
 71
    17
 72
    19
 73
    18
  0
VERTEX
  5
65C
  8
0
 62
     9
 10
0.0
 20
0.0
 30
0.0
 70
   128
 71
    14
 72
    13
 73
    16
  0
VERTEX
  5
65D
  8
0
 62
     9
 10
0.0
 20
0.0
 30
0.0
 70
   128
 71
    12
 72
    24
 73
    10
  0
VERTEX
  5
65E
  8
0
 62
     9
 10
0.0
 20
0.0
 30
0.0
 70
   128
 71
    10
 72
    24
 73
     9
  0
VERTEX
  5
65F
  8
0
 62
     9
 10
0.0
 20
0.0
 30
0.0
 70
   128
 71
     8
 72
    11
 73
     7
  0
VERTEX
  5
660
  8
0
 62
     9
 10
0.0
 20
0.0
 30
0.0
 70
   128
 71
     4
 72
     6
 73
     5
  0
VERTEX
  5
661
  8
0
 62
     9
 10
0.0
 20
0.0
 30
0.0
 70
   128
 71
     1
 72
    23
 73
     3
  0
SEQEND
  5
662
  8
0
 62
     9
  0
ENDBLK
  5
665
  8
0
  0
BLOCK
  8
0
  2
E3_NODE_16_
 70
     0
 10
0.0
 20
0.0
 30
0.0
  3
E3_NODE_16_
  1

  0
POLYLINE
  5
667
  8
0
 62
     9
 66
     1
 10
0.0
 20
0.0
 30
0.0
 70
    64
 71
    22
 72
    22
  0
VERTEX
  5
668
  8
0
 10
0.0
 20
-68.25
 30
76.0
 70
   192
  0
VERTEX
  5
669
  8
0
 10
9.968000411987305
 20
-63.44900131225586
 30
76.0
 70
   192
  0
VERTEX
  5
66A
  8
0
 10
8.196000099182129
 20
-65.26699829101562
 30
78.11000061035156
 70
   192
  0
VERTEX
  5
66B
  8
0
 10
9.425999641418457
 20
-63.13600158691406
 30
78.11000061035156
 70
   192
  0
VERTEX
  5
66C
  8
0
 10
12.43000030517578
 20
-52.66299819946289
 30
76.0
 70
   192
  0
VERTEX
  5
66D
  8
0
 10
12.55599975585938
 20
-57.7140007019043
 30
78.11000061035156
 70
   192
  0
VERTEX
  5
66E
  8
0
 10
11.68900012969971
 20
-52.79399871826172
 30
78.11000061035156
 70
   192
  0
VERTEX
  5
66F
  8
0
 10
5.532000064849854
 20
-44.01300048828125
 30
76.0
 70
   192
  0
VERTEX
  5
670
  8
0
 10
5.290999889373779
 20
-44.29999923706055
 30
78.11000061035156
 70
   192
  0
VERTEX
  5
671
  8
0
 10
11.04199981689453
 20
-49.125
 30
78.11000061035156
 70
   192
  0
VERTEX
  5
672
  8
0
 10
-5.532000064849854
 20
-44.01300048828125
 30
76.0
 70
   192
  0
VERTEX
  5
673
  8
0
 10
-4.361000061035156
 20
-43.51900100708008
 30
78.11000061035156
 70
   192
  0
VERTEX
  5
674
  8
0
 10
4.361000061035156
 20
-43.51900100708008
 30
78.11000061035156
 70
   192
  0
VERTEX
  5
675
  8
0
 10
-5.290999889373779
 20
-44.29999923706055
 30
78.11000061035156
 70
   192
  0
VERTEX
  5
676
  8
0
 10
-12.43000030517578
 20
-52.66299819946289
 30
76.0
 70
   192
  0
VERTEX
  5
677
  8
0
 10
-11.04199981689453
 20
-49.125
 30
78.11000061035156
 70
   192
  0
VERTEX
  5
678
  8
0
 10
-11.68900012969971
 20
-52.79399871826172
 30
78.11000061035156
 70
   192
  0
VERTEX
  5
679
  8
0
 10
-9.968000411987305
 20
-63.44900131225586
 30
76.0
 70
   192
  0
VERTEX
  5
67A
  8
0
 10
-9.425999641418457
 20
-63.13600158691406
 30
78.11000061035156
 70
   192
  0
VERTEX
  5
67B
  8
0
 10
-12.55599975585938
 20
-57.7140007019043
 30
78.11000061035156
 70
   192
  0
VERTEX
  5
67C
  8
0
 10
0.0
 20
-68.25
 30
78.11000061035156
 70
   192
  0
VERTEX
  5
67D
  8
0
 10
-8.196000099182129
 20
-65.26699829101562
 30
78.11000061035156
 70
   192
  0
VERTEX
  5
67E
  8
0
 62
     9
 10
0.0
 20
0.0
 30
0.0
 70
   128
 71
     3
 72
     2
 73
     1
  0
VERTEX
  5
67F
  8
0
 62
     9
 10
0.0
 20
0.0
 30
0.0
 70
   128
 71
     3
 72
     4
 73
     2
  0
VERTEX
  5
680
  8
0
 62
     9
 10
0.0
 20
0.0
 30
0.0
 70
   128
 71
     6
 72
     5
 73
     2
  0
VERTEX
  5
681
  8
0
 62
     9
 10
0.0
 20
0.0
 30
0.0
 70
   128
 71
     6
 72
     7
 73
     5
  0
VERTEX
  5
682
  8
0
 62
     9
 10
0.0
 20
0.0
 30
0.0
 70
   128
 71
    10
 72
     9
 73
     8
  0
VERTEX
  5
683
  8
0
 62
     9
 10
0.0
 20
0.0
 30
0.0
 70
   128
 71
     8
 72
     5
 73
    10
  0
VERTEX
  5
684
  8
0
 62
     9
 10
0.0
 20
0.0
 30
0.0
 70
   128
 71
    12
 72
    11
 73
     8
  0
VERTEX
  5
685
  8
0
 62
     9
 10
0.0
 20
0.0
 30
0.0
 70
   128
 71
     8
 72
    13
 73
    12
  0
VERTEX
  5
686
  8
0
 62
     9
 10
0.0
 20
0.0
 30
0.0
 70
   128
 71
    12
 72
    14
 73
    11
  0
VERTEX
  5
687
  8
0
 62
     9
 10
0.0
 20
0.0
 30
0.0
 70
   128
 71
    16
 72
    15
 73
    11
  0
VERTEX
  5
688
  8
0
 62
     9
 10
0.0
 20
0.0
 30
0.0
 70
   128
 71
    16
 72
    17
 73
    15
  0
VERTEX
  5
689
  8
0
 62
     9
 10
0.0
 20
0.0
 30
0.0
 70
   128
 71
    20
 72
    19
 73
    18
  0
VERTEX
  5
68A
  8
0
 62
     9
 10
0.0
 20
0.0
 30
0.0
 70
   128
 71
    18
 72
    15
 73
    20
  0
VERTEX
  5
68B
  8
0
 62
     9
 10
0.0
 20
0.0
 30
0.0
 70
   128
 71
    22
 72
    21
 73
     1
  0
VERTEX
  5
68C
  8
0
 62
     9
 10
0.0
 20
0.0
 30
0.0
 70
   128
 71
     1
 72
    18
 73
    22
  0
VERTEX
  5
68D
  8
0
 62
     9
 10
0.0
 20
0.0
 30
0.0
 70
   128
 71
    18
 72
    19
 73
    22
  0
VERTEX
  5
68E
  8
0
 62
     9
 10
0.0
 20
0.0
 30
0.0
 70
   128
 71
    15
 72
    17
 73
    20
  0
VERTEX
  5
68F
  8
0
 62
     9
 10
0.0
 20
0.0
 30
0.0
 70
   128
 71
    11
 72
    14
 73
    16
  0
VERTEX
  5
690
  8
0
 62
     9
 10
0.0
 20
0.0
 30
0.0
 70
   128
 71
     8
 72
     9
 73
    13
  0
VERTEX
  5
691
  8
0
 62
     9
 10
0.0
 20
0.0
 30
0.0
 70
   128
 71
     5
 72
     7
 73
    10
  0
VERTEX
  5
692
  8
0
 62
     9
 10
0.0
 20
0.0
 30
0.0
 70
   128
 71
     2
 72
     4
 73
     6
  0
VERTEX
  5
693
  8
0
 62
     9
 10
0.0
 20
0.0
 30
0.0
 70
   128
 71
     1
 72
    21
 73
     3
  0
SEQEND
  5
694
  8
0
 62
     9
  0
ENDBLK
  5
697
  8
0
  0
BLOCK
  8
0
  2
E3_NODE_17_
 70
     0
 10
0.0
 20
0.0
 30
0.0
  3
E3_NODE_17_
  1

  0
POLYLINE
  5
699
  8
0
 62
     9
 66
     1
 10
0.0
 20
0.0
 30
0.0
 70
    64
 71
    18
 72
    18
  0
VERTEX
  5
69A
  8
0
 10
209.6179962158203
 20
-55.5
 30
214.9609985351562
 70
   192
  0
VERTEX
  5
69B
  8
0
 10
208.9810028076172
 20
-55.5
 30
218.5749969482422
 70
   192
  0
VERTEX
  5
69C
  8
0
 10
211.3999938964844
 20
-48.75099945068359
 30
219.0010070800781
 70
   192
  0
VERTEX
  5
69D
  8
0
 10
214.7879943847656
 20
-46.40700149536133
 30
215.8719940185547
 70
   192
  0
VERTEX
  5
69E
  8
0
 10
225.1289978027344
 20
-46.40700149536133
 30
217.6959991455078
 70
   192
  0
VERTEX
  5
69F
  8
0
 10
217.5260009765625
 20
-45.15999984741211
 30
220.0820007324219
 70
   192
  0
VERTEX
  5
6A0
  8
0
 10
214.4629974365234
 20
-46.95500183105469
 30
219.5410003662109
 70
   192
  0
VERTEX
  5
6A1
  8
0
 10
224.4909973144531
 20
-46.40700149536133
 30
221.3099975585938
 70
   192
  0
VERTEX
  5
6A2
  8
0
 10
229.0379943847656
 20
-51.90900039672852
 30
222.1109924316406
 70
   192
  0
VERTEX
  5
6A3
  8
0
 10
230.2989959716797
 20
-55.5
 30
218.6069946289062
 70
   192
  0
VERTEX
  5
6A4
  8
0
 10
225.1289978027344
 20
-64.59300231933594
 30
217.6959991455078
 70
   192
  0
VERTEX
  5
6A5
  8
0
 10
229.0379943847656
 20
-59.09099960327148
 30
222.1109924316406
 70
   192
  0
VERTEX
  5
6A6
  8
0
 10
229.0379943847656
 20
-55.5
 30
222.1109924316406
 70
   192
  0
VERTEX
  5
6A7
  8
0
 10
224.4909973144531
 20
-64.59300231933594
 30
221.3099975585938
 70
   192
  0
VERTEX
  5
6A8
  8
0
 10
217.5260009765625
 20
-65.83999633789062
 30
220.0820007324219
 70
   192
  0
VERTEX
  5
6A9
  8
0
 10
214.7879943847656
 20
-64.59300231933594
 30
215.8719940185547
 70
   192
  0
VERTEX
  5
6AA
  8
0
 10
211.3999938964844
 20
-62.24900054931641
 30
219.0010070800781
 70
   192
  0
VERTEX
  5
6AB
  8
0
 10
214.4629974365234
 20
-64.04499816894531
 30
219.5410003662109
 70
   192
  0
VERTEX
  5
6AC
  8
0
 62
     9
 10
0.0
 20
0.0
 30
0.0
 70
   128
 71
     3
 72
     2
 73
     1
  0
VERTEX
  5
6AD
  8
0
 62
     9
 10
0.0
 20
0.0
 30
0.0
 70
   128
 71
     1
 72
     4
 73
     3
  0
VERTEX
  5
6AE
  8
0
 62
     9
 10
0.0
 20
0.0
 30
0.0
 70
   128
 71
     6
 72
     4
 73
     5
  0
VERTEX
  5
6AF
  8
0
 62
     9
 10
0.0
 20
0.0
 30
0.0
 70
   128
 71
     6
 72
     7
 73
     4
  0
VERTEX
  5
6B0
  8
0
 62
     9
 10
0.0
 20
0.0
 30
0.0
 70
   128
 71
     9
 72
     8
 73
     5
  0
VERTEX
  5
6B1
  8
0
 62
     9
 10
0.0
 20
0.0
 30
0.0
 70
   128
 71
     5
 72
    10
 73
     9
  0
VERTEX
  5
6B2
  8
0
 62
     9
 10
0.0
 20
0.0
 30
0.0
 70
   128
 71
    12
 72
    10
 73
    11
  0
VERTEX
  5
6B3
  8
0
 62
     9
 10
0.0
 20
0.0
 30
0.0
 70
   128
 71
    12
 72
    13
 73
    10
  0
VERTEX
  5
6B4
  8
0
 62
     9
 10
0.0
 20
0.0
 30
0.0
 70
   128
 71
    15
 72
    14
 73
    11
  0
VERTEX
  5
6B5
  8
0
 62
     9
 10
0.0
 20
0.0
 30
0.0
 70
   128
 71
    11
 72
    16
 73
    15
  0
VERTEX
  5
6B6
  8
0
 62
     9
 10
0.0
 20
0.0
 30
0.0
 70
   128
 71
    17
 72
    16
 73
     1
  0
VERTEX
  5
6B7
  8
0
 62
     9
 10
0.0
 20
0.0
 30
0.0
 70
   128
 71
    17
 72
    18
 73
    16
  0
VERTEX
  5
6B8
  8
0
 62
     9
 10
0.0
 20
0.0
 30
0.0
 70
   128
 71
     1
 72
     2
 73
    17
  0
VERTEX
  5
6B9
  8
0
 62
     9
 10
0.0
 20
0.0
 30
0.0
 70
   128
 71
    16
 72
    18
 73
    15
  0
VERTEX
  5
6BA
  8
0
 62
     9
 10
0.0
 20
0.0
 30
0.0
 70
   128
 71
    11
 72
    14
 73
    12
  0
VERTEX
  5
6BB
  8
0
 62
     9
 10
0.0
 20
0.0
 30
0.0
 70
   128
 71
    10
 72
    13
 73
     9
  0
VERTEX
  5
6BC
  8
0
 62
     9
 10
0.0
 20
0.0
 30
0.0
 70
   128
 71
     5
 72
     8
 73
     6
  0
VERTEX
  5
6BD
  8
0
 62
     9
 10
0.0
 20
0.0
 30
0.0
 70
   128
 71
     4
 72
     7
 73
     3
  0
SEQEND
  5
6BE
  8
0
 62
     9
  0
ENDBLK
  5
6C1
  8
0
  0
BLOCK
  8
0
  2
E3_NODE_18_
 70
     0
 10
0.0
 20
0.0
 30
0.0
  3
E3_NODE_18_
  1

  0
POLYLINE
  5
6C3
  8
0
 62
     9
 66
     1
 10
0.0
 20
0.0
 30
0.0
 70
    64
 71
   132
 72
   240
  0
VERTEX
  5
6C4
  8
0
 10
10.69999980926514
 20
-62.24900054931641
 30
224.3919982910156
 70
   192
  0
VERTEX
  5
6C5
  8
0
 10
8.043000221252441
 20
-62.24900054931641
 30
201.2100067138672
 70
   192
  0
VERTEX
  5
6C6
  8
0
 10
10.5
 20
-55.5
 30
201.2100067138672
 70
   192
  0
VERTEX
  5
6C7
  8
0
 10
13.0930004119873
 20
-55.5
 30
223.8359985351562
 70
   192
  0
VERTEX
  5
6C8
  8
0
 10
20.73900032043457
 20
-55.5
 30
245.2879943847656
 70
   192
  0
VERTEX
  5
6C9
  8
0
 10
18.53400039672852
 20
-62.24900054931641
 30
246.3710021972656
 70
   192
  0
VERTEX
  5
6CA
  8
0
 10
33.04000091552734
 20
-55.5
 30
264.4549865722656
 70
   192
  0
VERTEX
  5
6CB
  8
0
 10
31.13699913024902
 20
-62.24900054931641
 30
266.0079956054688
 70
   192
  0
VERTEX
  5
6CC
  8
0
 10
49.35800170898438
 20
-55.5
 30
280.3410034179688
 70
   192
  0
VERTEX
  5
6CD
  8
0
 10
47.85599899291992
 20
-62.24900054931641
 30
282.2839965820312
 70
   192
  0
VERTEX
  5
6CE
  8
0
 10
68.8479995727539
 20
-55.5
 30
292.1220092773438
 70
   192
  0
VERTEX
  5
6CF
  8
0
 10
67.8239974975586
 20
-62.24900054931641
 30
294.3559875488281
 70
   192
  0
VERTEX
  5
6D0
  8
0
 10
90.49700164794922
 20
-55.5
 30
299.1889953613281
 70
   192
  0
VERTEX
  5
6D1
  8
0
 10
90.00599670410156
 20
-62.24900054931641
 30
301.5960083007812
 70
   192
  0
VERTEX
  5
6D2
  8
0
 10
113.1849975585938
 20
-55.5
 30
301.1740112304688
 70
   192
  0
VERTEX
  5
6D3
  8
0
 10
113.2509994506836
 20
-62.24900054931641
 30
303.6300048828125
 70
   192
  0
VERTEX
  5
6D4
  8
0
 10
135.7330017089844
 20
-55.5
 30
297.9739990234375
 70
   192
  0
VERTEX
  5
6D5
  8
0
 10
136.3529968261719
 20
-62.24900054931641
 30
300.3510131835938
 70
   192
  0
VERTEX
  5
6D6
  8
0
 10
156.9720001220703
 20
-55.5
 30
289.7560119628906
 70
   192
  0
VERTEX
  5
6D7
  8
0
 10
158.1139984130859
 20
-62.24900054931641
 30
291.9309997558594
 70
   192
  0
VERTEX
  5
6D8
  8
0
 10
175.8009948730469
 20
-55.5
 30
276.9450073242188
 70
   192
  0
VERTEX
  5
6D9
  8
0
 10
177.406005859375
 20
-62.24900054931641
 30
278.8049926757812
 70
   192
  0
VERTEX
  5
6DA
  8
0
 10
191.2440032958984
 20
-55.5
 30
260.2059936523438
 70
   192
  0
VERTEX
  5
6DB
  8
0
 10
193.2270050048828
 20
-62.24900054931641
 30
261.6549987792969
 70
   192
  0
VERTEX
  5
6DC
  8
0
 10
202.4980010986328
 20
-55.5
 30
240.4069976806641
 70
   192
  0
VERTEX
  5
6DD
  8
0
 10
204.7579956054688
 20
-62.24900054931641
 30
241.3699951171875
 70
   192
  0
VERTEX
  5
6DE
  8
0
 10
208.9810028076172
 20
-55.5
 30
218.5749969482422
 70
   192
  0
VERTEX
  5
6DF
  8
0
 10
4.642000198364258
 20
-65.83999633789062
 30
225.7989959716797
 70
   192
  0
VERTEX
  5
6E0
  8
0
 10
4.933000087738037
 20
-64.04499816894531
 30
201.2100067138672
 70
   192
  0
VERTEX
  5
6E1
  8
0
 10
1.822999954223633
 20
-65.83999633789062
 30
201.2100067138672
 70
   192
  0
VERTEX
  5
6E2
  8
0
 10
12.94999980926514
 20
-65.83999633789062
 30
249.1130065917969
 70
   192
  0
VERTEX
  5
6E3
  8
0
 10
26.31800079345703
 20
-65.83999633789062
 30
269.9419860839844
 70
   192
  0
VERTEX
  5
6E4
  8
0
 10
44.05300140380859
 20
-65.83999633789062
 30
287.2059936523438
 70
   192
  0
VERTEX
  5
6E5
  8
0
 10
65.23300170898438
 20
-65.83999633789062
 30
300.010986328125
 70
   192
  0
VERTEX
  5
6E6
  8
0
 10
88.76200103759766
 20
-65.83999633789062
 30
307.6900024414062
 70
   192
  0
VERTEX
  5
6E7
  8
0
 10
113.4179992675781
 20
-65.83999633789062
 30
309.8479919433594
 70
   192
  0
VERTEX
  5
6E8
  8
0
 10
137.9219970703125
 20
-65.83999633789062
 30
306.3699951171875
 70
   192
  0
VERTEX
  5
6E9
  8
0
 10
161.0050048828125
 20
-65.83999633789062
 30
297.43798828125
 70
   192
  0
VERTEX
  5
6EA
  8
0
 10
181.4669952392578
 20
-65.83999633789062
 30
283.5159912109375
 70
   192
  0
VERTEX
  5
6EB
  8
0
 10
198.2489929199219
 20
-65.83999633789062
 30
265.3240051269531
 70
   192
  0
VERTEX
  5
6EC
  8
0
 10
210.4799957275391
 20
-65.83999633789062
 30
243.8079986572266
 70
   192
  0
VERTEX
  5
6ED
  8
0
 10
214.4629974365234
 20
-64.04499816894531
 30
219.5410003662109
 70
   192
  0
VERTEX
  5
6EE
  8
0
 10
211.3999938964844
 20
-62.24900054931641
 30
219.0010070800781
 70
   192
  0
VERTEX
  5
6EF
  8
0
 10
-2.247999906539917
 20
-64.59300231933594
 30
227.3990020751953
 70
   192
  0
VERTEX
  5
6F0
  8
0
 10
-5.25
 20
-64.59300231933594
 30
201.2100067138672
 70
   192
  0
VERTEX
  5
6F1
  8
0
 10
6.60099983215332
 20
-64.59300231933594
 30
252.2310028076172
 70
   192
  0
VERTEX
  5
6F2
  8
0
 10
20.8390007019043
 20
-64.59300231933594
 30
274.4159851074219
 70
   192
  0
VERTEX
  5
6F3
  8
0
 10
39.72800064086914
 20
-64.59300231933594
 30
292.8039855957031
 70
   192
  0
VERTEX
  5
6F4
  8
0
 10
62.2869987487793
 20
-64.59300231933594
 30
306.4410095214844
 70
   192
  0
VERTEX
  5
6F5
  8
0
 10
87.34700012207031
 20
-64.59300231933594
 30
314.6210021972656
 70
   192
  0
VERTEX
  5
6F6
  8
0
 10
113.6080017089844
 20
-64.59300231933594
 30
316.9179992675781
 70
   192
  0
VERTEX
  5
6F7
  8
0
 10
139.7070007324219
 20
-64.59300231933594
 30
313.2139892578125
 70
   192
  0
VERTEX
  5
6F8
  8
0
 10
164.2920074462891
 20
-64.59300231933594
 30
303.7019958496094
 70
   192
  0
VERTEX
  5
6F9
  8
0
 10
186.0859985351562
 20
-64.59300231933594
 30
288.8729858398438
 70
   192
  0
VERTEX
  5
6FA
  8
0
 10
203.9609985351562
 20
-64.59300231933594
 30
269.4970092773438
 70
   192
  0
VERTEX
  5
6FB
  8
0
 10
216.9880065917969
 20
-64.59300231933594
 30
246.5800018310547
 70
   192
  0
VERTEX
  5
6FC
  8
0
 10
224.4909973144531
 20
-64.59300231933594
 30
221.3099975585938
 70
   192
  0
VERTEX
  5
6FD
  8
0
 10
-9.866999626159668
 20
-59.09099960327148
 30
201.2100067138672
 70
   192
  0
VERTEX
  5
6FE
  8
0
 10
2.457000017166138
 20
-59.09099960327148
 30
254.2660064697266
 70
   192
  0
VERTEX
  5
6FF
  8
0
 10
17.26300048828125
 20
-59.09099960327148
 30
277.3349914550781
 70
   192
  0
VERTEX
  5
700
  8
0
 10
36.90499877929688
 20
-59.09099960327148
 30
296.4570007324219
 70
   192
  0
VERTEX
  5
701
  8
0
 10
60.36399841308594
 20
-59.09099960327148
 30
310.6380004882812
 70
   192
  0
VERTEX
  5
702
  8
0
 10
86.42400360107422
 20
-59.09099960327148
 30
319.1440124511719
 70
   192
  0
VERTEX
  5
703
  8
0
 10
113.7320022583008
 20
-59.09099960327148
 30
321.5329895019531
 70
   192
  0
VERTEX
  5
704
  8
0
 10
140.8719940185547
 20
-59.09099960327148
 30
317.6820068359375
 70
   192
  0
VERTEX
  5
705
  8
0
 10
166.4369964599609
 20
-59.09099960327148
 30
307.7890014648438
 70
   192
  0
VERTEX
  5
706
  8
0
 10
189.1009979248047
 20
-59.09099960327148
 30
292.3689880371094
 70
   192
  0
VERTEX
  5
707
  8
0
 10
207.6880035400391
 20
-59.09099960327148
 30
272.2210083007812
 70
   192
  0
VERTEX
  5
708
  8
0
 10
221.2350006103516
 20
-59.09099960327148
 30
248.3899993896484
 70
   192
  0
VERTEX
  5
709
  8
0
 10
-6.744999885559082
 20
-59.09099960327148
 30
228.4440002441406
 70
   192
  0
VERTEX
  5
70A
  8
0
 10
-6.744999885559082
 20
-51.90900039672852
 30
228.4440002441406
 70
   192
  0
VERTEX
  5
70B
  8
0
 10
-9.866999626159668
 20
-55.5
 30
201.2100067138672
 70
   192
  0
VERTEX
  5
70C
  8
0
 10
-9.866999626159668
 20
-51.90900039672852
 30
201.2100067138672
 70
   192
  0
VERTEX
  5
70D
  8
0
 10
2.457000017166138
 20
-51.90900039672852
 30
254.2660064697266
 70
   192
  0
VERTEX
  5
70E
  8
0
 10
17.26300048828125
 20
-51.90900039672852
 30
277.3349914550781
 70
   192
  0
VERTEX
  5
70F
  8
0
 10
36.90499877929688
 20
-51.90900039672852
 30
296.4570007324219
 70
   192
  0
VERTEX
  5
710
  8
0
 10
60.36399841308594
 20
-51.90900039672852
 30
310.6380004882812
 70
   192
  0
VERTEX
  5
711
  8
0
 10
86.42400360107422
 20
-51.90900039672852
 30
319.1440124511719
 70
   192
  0
VERTEX
  5
712
  8
0
 10
113.7320022583008
 20
-51.90900039672852
 30
321.5329895019531
 70
   192
  0
VERTEX
  5
713
  8
0
 10
140.8719940185547
 20
-51.90900039672852
 30
317.6820068359375
 70
   192
  0
VERTEX
  5
714
  8
0
 10
166.4369964599609
 20
-51.90900039672852
 30
307.7890014648438
 70
   192
  0
VERTEX
  5
715
  8
0
 10
189.1009979248047
 20
-51.90900039672852
 30
292.3689880371094
 70
   192
  0
VERTEX
  5
716
  8
0
 10
207.6880035400391
 20
-51.90900039672852
 30
272.2210083007812
 70
   192
  0
VERTEX
  5
717
  8
0
 10
221.2350006103516
 20
-51.90900039672852
 30
248.3899993896484
 70
   192
  0
VERTEX
  5
718
  8
0
 10
229.0379943847656
 20
-59.09099960327148
 30
222.1109924316406
 70
   192
  0
VERTEX
  5
719
  8
0
 10
229.0379943847656
 20
-55.5
 30
222.1109924316406
 70
   192
  0
VERTEX
  5
71A
  8
0
 10
-2.247999906539917
 20
-46.40700149536133
 30
227.3990020751953
 70
   192
  0
VERTEX
  5
71B
  8
0
 10
6.60099983215332
 20
-46.40700149536133
 30
252.2310028076172
 70
   192
  0
VERTEX
  5
71C
  8
0
 10
20.8390007019043
 20
-46.40700149536133
 30
274.4159851074219
 70
   192
  0
VERTEX
  5
71D
  8
0
 10
39.72800064086914
 20
-46.40700149536133
 30
292.8039855957031
 70
   192
  0
VERTEX
  5
71E
  8
0
 10
62.2869987487793
 20
-46.40700149536133
 30
306.4410095214844
 70
   192
  0
VERTEX
  5
71F
  8
0
 10
87.34700012207031
 20
-46.40700149536133
 30
314.6210021972656
 70
   192
  0
VERTEX
  5
720
  8
0
 10
113.6080017089844
 20
-46.40700149536133
 30
316.9179992675781
 70
   192
  0
VERTEX
  5
721
  8
0
 10
139.7070007324219
 20
-46.40700149536133
 30
313.2139892578125
 70
   192
  0
VERTEX
  5
722
  8
0
 10
164.2920074462891
 20
-46.40700149536133
 30
303.7019958496094
 70
   192
  0
VERTEX
  5
723
  8
0
 10
186.0859985351562
 20
-46.40700149536133
 30
288.8729858398438
 70
   192
  0
VERTEX
  5
724
  8
0
 10
203.9609985351562
 20
-46.40700149536133
 30
269.4970092773438
 70
   192
  0
VERTEX
  5
725
  8
0
 10
216.9880065917969
 20
-46.40700149536133
 30
246.5800018310547
 70
   192
  0
VERTEX
  5
726
  8
0
 10
229.0379943847656
 20
-51.90900039672852
 30
222.1109924316406
 70
   192
  0
VERTEX
  5
727
  8
0
 10
224.4909973144531
 20
-46.40700149536133
 30
221.3099975585938
 70
   192
  0
VERTEX
  5
728
  8
0
 10
4.642000198364258
 20
-45.15999984741211
 30
225.7989959716797
 70
   192
  0
VERTEX
  5
729
  8
0
 10
1.822999954223633
 20
-45.15999984741211
 30
201.2100067138672
 70
   192
  0
VERTEX
  5
72A
  8
0
 10
12.94999980926514
 20
-45.15999984741211
 30
249.1130065917969
 70
   192
  0
VERTEX
  5
72B
  8
0
 10
26.31800079345703
 20
-45.15999984741211
 30
269.9419860839844
 70
   192
  0
VERTEX
  5
72C
  8
0
 10
44.05300140380859
 20
-45.15999984741211
 30
287.2059936523438
 70
   192
  0
VERTEX
  5
72D
  8
0
 10
65.23300170898438
 20
-45.15999984741211
 30
300.010986328125
 70
   192
  0
VERTEX
  5
72E
  8
0
 10
88.76200103759766
 20
-45.15999984741211
 30
307.6900024414062
 70
   192
  0
VERTEX
  5
72F
  8
0
 10
113.4179992675781
 20
-45.15999984741211
 30
309.8479919433594
 70
   192
  0
VERTEX
  5
730
  8
0
 10
137.9219970703125
 20
-45.15999984741211
 30
306.3699951171875
 70
   192
  0
VERTEX
  5
731
  8
0
 10
161.0050048828125
 20
-45.15999984741211
 30
297.43798828125
 70
   192
  0
VERTEX
  5
732
  8
0
 10
181.4669952392578
 20
-45.15999984741211
 30
283.5159912109375
 70
   192
  0
VERTEX
  5
733
  8
0
 10
198.2489929199219
 20
-45.15999984741211
 30
265.3240051269531
 70
   192
  0
VERTEX
  5
734
  8
0
 10
210.4799957275391
 20
-45.15999984741211
 30
243.8079986572266
 70
   192
  0
VERTEX
  5
735
  8
0
 10
217.5260009765625
 20
-45.15999984741211
 30
220.0820007324219
 70
   192
  0
VERTEX
  5
736
  8
0
 10
4.933000087738037
 20
-46.95500183105469
 30
201.2100067138672
 70
   192
  0
VERTEX
  5
737
  8
0
 10
10.69999980926514
 20
-48.75099945068359
 30
224.3919982910156
 70
   192
  0
VERTEX
  5
738
  8
0
 10
8.043000221252441
 20
-48.75099945068359
 30
201.2100067138672
 70
   192
  0
VERTEX
  5
739
  8
0
 10
18.53400039672852
 20
-48.75099945068359
 30
246.3710021972656
 70
   192
  0
VERTEX
  5
73A
  8
0
 10
31.13699913024902
 20
-48.75099945068359
 30
266.0079956054688
 70
   192
  0
VERTEX
  5
73B
  8
0
 10
47.85599899291992
 20
-48.75099945068359
 30
282.2839965820312
 70
   192
  0
VERTEX
  5
73C
  8
0
 10
67.8239974975586
 20
-48.75099945068359
 30
294.3559875488281
 70
   192
  0
VERTEX
  5
73D
  8
0
 10
90.00599670410156
 20
-48.75099945068359
 30
301.5960083007812
 70
   192
  0
VERTEX
  5
73E
  8
0
 10
113.2509994506836
 20
-48.75099945068359
 30
303.6300048828125
 70
   192
  0
VERTEX
  5
73F
  8
0
 10
136.3529968261719
 20
-48.75099945068359
 30
300.3510131835938
 70
   192
  0
VERTEX
  5
740
  8
0
 10
158.1139984130859
 20
-48.75099945068359
 30
291.9309997558594
 70
   192
  0
VERTEX
  5
741
  8
0
 10
177.406005859375
 20
-48.75099945068359
 30
278.8049926757812
 70
   192
  0
VERTEX
  5
742
  8
0
 10
193.2270050048828
 20
-48.75099945068359
 30
261.6549987792969
 70
   192
  0
VERTEX
  5
743
  8
0
 10
204.7579956054688
 20
-48.75099945068359
 30
241.3699951171875
 70
   192
  0
VERTEX
  5
744
  8
0
 10
214.4629974365234
 20
-46.95500183105469
 30
219.5410003662109
 70
   192
  0
VERTEX
  5
745
  8
0
 10
211.3999938964844
 20
-48.75099945068359
 30
219.0010070800781
 70
   192
  0
VERTEX
  5
746
  8
0
 10
-5.25
 20
-46.40700149536133
 30
201.2100067138672
 70
   192
  0
VERTEX
  5
747
  8
0
 10
217.5260009765625
 20
-65.83999633789062
 30
220.0820007324219
 70
   192
  0
VERTEX
  5
748
  8
0
 62
     9
 10
0.0
 20
0.0
 30
0.0
 70
   128
 71
     3
 72
     2
 73
     1
  0
VERTEX
  5
749
  8
0
 62
     9
 10
0.0
 20
0.0
 30
0.0
 70
   128
 71
     6
 72
     5
 73
     4
  0
VERTEX
  5
74A
  8
0
 62
     9
 10
0.0
 20
0.0
 30
0.0
 70
   128
 71
     8
 72
     7
 73
     5
  0
VERTEX
  5
74B
  8
0
 62
     9
 10
0.0
 20
0.0
 30
0.0
 70
   128
 71
    10
 72
     9
 73
     7
  0
VERTEX
  5
74C
  8
0
 62
     9
 10
0.0
 20
0.0
 30
0.0
 70
   128
 71
    12
 72
    11
 73
     9
  0
VERTEX
  5
74D
  8
0
 62
     9
 10
0.0
 20
0.0
 30
0.0
 70
   128
 71
    14
 72
    13
 73
    11
  0
VERTEX
  5
74E
  8
0
 62
     9
 10
0.0
 20
0.0
 30
0.0
 70
   128
 71
    16
 72
    15
 73
    13
  0
VERTEX
  5
74F
  8
0
 62
     9
 10
0.0
 20
0.0
 30
0.0
 70
   128
 71
    18
 72
    17
 73
    15
  0
VERTEX
  5
750
  8
0
 62
     9
 10
0.0
 20
0.0
 30
0.0
 70
   128
 71
    20
 72
    19
 73
    17
  0
VERTEX
  5
751
  8
0
 62
     9
 10
0.0
 20
0.0
 30
0.0
 70
   128
 71
    22
 72
    21
 73
    19
  0
VERTEX
  5
752
  8
0
 62
     9
 10
0.0
 20
0.0
 30
0.0
 70
   128
 71
    24
 72
    23
 73
    21
  0
VERTEX
  5
753
  8
0
 62
     9
 10
0.0
 20
0.0
 30
0.0
 70
   128
 71
    26
 72
    25
 73
    23
  0
VERTEX
  5
754
  8
0
 62
     9
 10
0.0
 20
0.0
 30
0.0
 70
   128
 71
    27
 72
    25
 73
    26
  0
VERTEX
  5
755
  8
0
 62
     9
 10
0.0
 20
0.0
 30
0.0
 70
   128
 71
     2
 72
    29
 73
    28
  0
VERTEX
  5
756
  8
0
 62
     9
 10
0.0
 20
0.0
 30
0.0
 70
   128
 71
    29
 72
    30
 73
    28
  0
VERTEX
  5
757
  8
0
 62
     9
 10
0.0
 20
0.0
 30
0.0
 70
   128
 71
    31
 72
     6
 73
     1
  0
VERTEX
  5
758
  8
0
 62
     9
 10
0.0
 20
0.0
 30
0.0
 70
   128
 71
    32
 72
     8
 73
     6
  0
VERTEX
  5
759
  8
0
 62
     9
 10
0.0
 20
0.0
 30
0.0
 70
   128
 71
    33
 72
    10
 73
     8
  0
VERTEX
  5
75A
  8
0
 62
     9
 10
0.0
 20
0.0
 30
0.0
 70
   128
 71
    34
 72
    12
 73
    10
  0
VERTEX
  5
75B
  8
0
 62
     9
 10
0.0
 20
0.0
 30
0.0
 70
   128
 71
    35
 72
    14
 73
    12
  0
VERTEX
  5
75C
  8
0
 62
     9
 10
0.0
 20
0.0
 30
0.0
 70
   128
 71
    36
 72
    16
 73
    14
  0
VERTEX
  5
75D
  8
0
 62
     9
 10
0.0
 20
0.0
 30
0.0
 70
   128
 71
    37
 72
    18
 73
    16
  0
VERTEX
  5
75E
  8
0
 62
     9
 10
0.0
 20
0.0
 30
0.0
 70
   128
 71
    38
 72
    20
 73
    18
  0
VERTEX
  5
75F
  8
0
 62
     9
 10
0.0
 20
0.0
 30
0.0
 70
   128
 71
    39
 72
    22
 73
    20
  0
VERTEX
  5
760
  8
0
 62
     9
 10
0.0
 20
0.0
 30
0.0
 70
   128
 71
    40
 72
    24
 73
    22
  0
VERTEX
  5
761
  8
0
 62
     9
 10
0.0
 20
0.0
 30
0.0
 70
   128
 71
    41
 72
    26
 73
    24
  0
VERTEX
  5
762
  8
0
 62
     9
 10
0.0
 20
0.0
 30
0.0
 70
   128
 71
    26
 72
    41
 73
    42
  0
VERTEX
  5
763
  8
0
 62
     9
 10
0.0
 20
0.0
 30
0.0
 70
   128
 71
    42
 72
    43
 73
    26
  0
VERTEX
  5
764
  8
0
 62
     9
 10
0.0
 20
0.0
 30
0.0
 70
   128
 71
    30
 72
    45
 73
    44
  0
VERTEX
  5
765
  8
0
 62
     9
 10
0.0
 20
0.0
 30
0.0
 70
   128
 71
    46
 72
    31
 73
    28
  0
VERTEX
  5
766
  8
0
 62
     9
 10
0.0
 20
0.0
 30
0.0
 70
   128
 71
    47
 72
    32
 73
    31
  0
VERTEX
  5
767
  8
0
 62
     9
 10
0.0
 20
0.0
 30
0.0
 70
   128
 71
    48
 72
    33
 73
    32
  0
VERTEX
  5
768
  8
0
 62
     9
 10
0.0
 20
0.0
 30
0.0
 70
   128
 71
    49
 72
    34
 73
    33
  0
VERTEX
  5
769
  8
0
 62
     9
 10
0.0
 20
0.0
 30
0.0
 70
   128
 71
    50
 72
    35
 73
    34
  0
VERTEX
  5
76A
  8
0
 62
     9
 10
0.0
 20
0.0
 30
0.0
 70
   128
 71
    51
 72
    36
 73
    35
  0
VERTEX
  5
76B
  8
0
 62
     9
 10
0.0
 20
0.0
 30
0.0
 70
   128
 71
    52
 72
    37
 73
    36
  0
VERTEX
  5
76C
  8
0
 62
     9
 10
0.0
 20
0.0
 30
0.0
 70
   128
 71
    53
 72
    38
 73
    37
  0
VERTEX
  5
76D
  8
0
 62
     9
 10
0.0
 20
0.0
 30
0.0
 70
   128
 71
    54
 72
    39
 73
    38
  0
VERTEX
  5
76E
  8
0
 62
     9
 10
0.0
 20
0.0
 30
0.0
 70
   128
 71
    55
 72
    40
 73
    39
  0
VERTEX
  5
76F
  8
0
 62
     9
 10
0.0
 20
0.0
 30
0.0
 70
   128
 71
    56
 72
    41
 73
    40
  0
VERTEX
  5
770
  8
0
 62
     9
 10
0.0
 20
0.0
 30
0.0
 70
   128
 71
    41
 72
    56
 73
    57
  0
VERTEX
  5
771
  8
0
 62
     9
 10
0.0
 20
0.0
 30
0.0
 70
   128
 71
    44
 72
    45
 73
    58
  0
VERTEX
  5
772
  8
0
 62
     9
 10
0.0
 20
0.0
 30
0.0
 70
   128
 71
    59
 72
    46
 73
    44
  0
VERTEX
  5
773
  8
0
 62
     9
 10
0.0
 20
0.0
 30
0.0
 70
   128
 71
    60
 72
    47
 73
    46
  0
VERTEX
  5
774
  8
0
 62
     9
 10
0.0
 20
0.0
 30
0.0
 70
   128
 71
    61
 72
    48
 73
    47
  0
VERTEX
  5
775
  8
0
 62
     9
 10
0.0
 20
0.0
 30
0.0
 70
   128
 71
    62
 72
    49
 73
    48
  0
VERTEX
  5
776
  8
0
 62
     9
 10
0.0
 20
0.0
 30
0.0
 70
   128
 71
    63
 72
    50
 73
    49
  0
VERTEX
  5
777
  8
0
 62
     9
 10
0.0
 20
0.0
 30
0.0
 70
   128
 71
    64
 72
    51
 73
    50
  0
VERTEX
  5
778
  8
0
 62
     9
 10
0.0
 20
0.0
 30
0.0
 70
   128
 71
    65
 72
    52
 73
    51
  0
VERTEX
  5
779
  8
0
 62
     9
 10
0.0
 20
0.0
 30
0.0
 70
   128
 71
    66
 72
    53
 73
    52
  0
VERTEX
  5
77A
  8
0
 62
     9
 10
0.0
 20
0.0
 30
0.0
 70
   128
 71
    67
 72
    54
 73
    53
  0
VERTEX
  5
77B
  8
0
 62
     9
 10
0.0
 20
0.0
 30
0.0
 70
   128
 71
    68
 72
    55
 73
    54
  0
VERTEX
  5
77C
  8
0
 62
     9
 10
0.0
 20
0.0
 30
0.0
 70
   128
 71
    69
 72
    56
 73
    55
  0
VERTEX
  5
77D
  8
0
 62
     9
 10
0.0
 20
0.0
 30
0.0
 70
   128
 71
    57
 72
    56
 73
    69
  0
VERTEX
  5
77E
  8
0
 62
     9
 10
0.0
 20
0.0
 30
0.0
 70
   128
 71
    72
 72
    71
 73
    70
  0
VERTEX
  5
77F
  8
0
 62
     9
 10
0.0
 20
0.0
 30
0.0
 70
   128
 71
    72
 72
    73
 73
    71
  0
VERTEX
  5
780
  8
0
 62
     9
 10
0.0
 20
0.0
 30
0.0
 70
   128
 71
    74
 72
    59
 73
    70
  0
VERTEX
  5
781
  8
0
 62
     9
 10
0.0
 20
0.0
 30
0.0
 70
   128
 71
    75
 72
    60
 73
    59
  0
VERTEX
  5
782
  8
0
 62
     9
 10
0.0
 20
0.0
 30
0.0
 70
   128
 71
    76
 72
    61
 73
    60
  0
VERTEX
  5
783
  8
0
 62
     9
 10
0.0
 20
0.0
 30
0.0
 70
   128
 71
    77
 72
    62
 73
    61
  0
VERTEX
  5
784
  8
0
 62
     9
 10
0.0
 20
0.0
 30
0.0
 70
   128
 71
    78
 72
    63
 73
    62
  0
VERTEX
  5
785
  8
0
 62
     9
 10
0.0
 20
0.0
 30
0.0
 70
   128
 71
    79
 72
    64
 73
    63
  0
VERTEX
  5
786
  8
0
 62
     9
 10
0.0
 20
0.0
 30
0.0
 70
   128
 71
    80
 72
    65
 73
    64
  0
VERTEX
  5
787
  8
0
 62
     9
 10
0.0
 20
0.0
 30
0.0
 70
   128
 71
    81
 72
    66
 73
    65
  0
VERTEX
  5
788
  8
0
 62
     9
 10
0.0
 20
0.0
 30
0.0
 70
   128
 71
    82
 72
    67
 73
    66
  0
VERTEX
  5
789
  8
0
 62
     9
 10
0.0
 20
0.0
 30
0.0
 70
   128
 71
    83
 72
    68
 73
    67
  0
VERTEX
  5
78A
  8
0
 62
     9
 10
0.0
 20
0.0
 30
0.0
 70
   128
 71
    84
 72
    69
 73
    68
  0
VERTEX
  5
78B
  8
0
 62
     9
 10
0.0
 20
0.0
 30
0.0
 70
   128
 71
    86
 72
    85
 73
    69
  0
VERTEX
  5
78C
  8
0
 62
     9
 10
0.0
 20
0.0
 30
0.0
 70
   128
 71
    69
 72
    84
 73
    86
  0
VERTEX
  5
78D
  8
0
 62
     9
 10
0.0
 20
0.0
 30
0.0
 70
   128
 71
    87
 72
    71
 73
    73
  0
VERTEX
  5
78E
  8
0
 62
     9
 10
0.0
 20
0.0
 30
0.0
 70
   128
 71
    88
 72
    74
 73
    71
  0
VERTEX
  5
78F
  8
0
 62
     9
 10
0.0
 20
0.0
 30
0.0
 70
   128
 71
    89
 72
    75
 73
    74
  0
VERTEX
  5
790
  8
0
 62
     9
 10
0.0
 20
0.0
 30
0.0
 70
   128
 71
    90
 72
    76
 73
    75
  0
VERTEX
  5
791
  8
0
 62
     9
 10
0.0
 20
0.0
 30
0.0
 70
   128
 71
    91
 72
    77
 73
    76
  0
VERTEX
  5
792
  8
0
 62
     9
 10
0.0
 20
0.0
 30
0.0
 70
   128
 71
    92
 72
    78
 73
    77
  0
VERTEX
  5
793
  8
0
 62
     9
 10
0.0
 20
0.0
 30
0.0
 70
   128
 71
    93
 72
    79
 73
    78
  0
VERTEX
  5
794
  8
0
 62
     9
 10
0.0
 20
0.0
 30
0.0
 70
   128
 71
    94
 72
    80
 73
    79
  0
VERTEX
  5
795
  8
0
 62
     9
 10
0.0
 20
0.0
 30
0.0
 70
   128
 71
    95
 72
    81
 73
    80
  0
VERTEX
  5
796
  8
0
 62
     9
 10
0.0
 20
0.0
 30
0.0
 70
   128
 71
    96
 72
    82
 73
    81
  0
VERTEX
  5
797
  8
0
 62
     9
 10
0.0
 20
0.0
 30
0.0
 70
   128
 71
    97
 72
    83
 73
    82
  0
VERTEX
  5
798
  8
0
 62
     9
 10
0.0
 20
0.0
 30
0.0
 70
   128
 71
    98
 72
    84
 73
    83
  0
VERTEX
  5
799
  8
0
 62
     9
 10
0.0
 20
0.0
 30
0.0
 70
   128
 71
    98
 72
   100
 73
    99
  0
VERTEX
  5
79A
  8
0
 62
     9
 10
0.0
 20
0.0
 30
0.0
 70
   128
 71
   102
 72
   101
 73
    87
  0
VERTEX
  5
79B
  8
0
 62
     9
 10
0.0
 20
0.0
 30
0.0
 70
   128
 71
   103
 72
    88
 73
    87
  0
VERTEX
  5
79C
  8
0
 62
     9
 10
0.0
 20
0.0
 30
0.0
 70
   128
 71
   104
 72
    89
 73
    88
  0
VERTEX
  5
79D
  8
0
 62
     9
 10
0.0
 20
0.0
 30
0.0
 70
   128
 71
   105
 72
    90
 73
    89
  0
VERTEX
  5
79E
  8
0
 62
     9
 10
0.0
 20
0.0
 30
0.0
 70
   128
 71
   106
 72
    91
 73
    90
  0
VERTEX
  5
79F
  8
0
 62
     9
 10
0.0
 20
0.0
 30
0.0
 70
   128
 71
   107
 72
    92
 73
    91
  0
VERTEX
  5
7A0
  8
0
 62
     9
 10
0.0
 20
0.0
 30
0.0
 70
   128
 71
   108
 72
    93
 73
    92
  0
VERTEX
  5
7A1
  8
0
 62
     9
 10
0.0
 20
0.0
 30
0.0
 70
   128
 71
   109
 72
    94
 73
    93
  0
VERTEX
  5
7A2
  8
0
 62
     9
 10
0.0
 20
0.0
 30
0.0
 70
   128
 71
   110
 72
    95
 73
    94
  0
VERTEX
  5
7A3
  8
0
 62
     9
 10
0.0
 20
0.0
 30
0.0
 70
   128
 71
   111
 72
    96
 73
    95
  0
VERTEX
  5
7A4
  8
0
 62
     9
 10
0.0
 20
0.0
 30
0.0
 70
   128
 71
   112
 72
    97
 73
    96
  0
VERTEX
  5
7A5
  8
0
 62
     9
 10
0.0
 20
0.0
 30
0.0
 70
   128
 71
   113
 72
    98
 73
    97
  0
VERTEX
  5
7A6
  8
0
 62
     9
 10
0.0
 20
0.0
 30
0.0
 70
   128
 71
   113
 72
   114
 73
   100
  0
VERTEX
  5
7A7
  8
0
 62
     9
 10
0.0
 20
0.0
 30
0.0
 70
   128
 71
   116
 72
   101
 73
   115
  0
VERTEX
  5
7A8
  8
0
 62
     9
 10
0.0
 20
0.0
 30
0.0
 70
   128
 71
   115
 72
   117
 73
   116
  0
VERTEX
  5
7A9
  8
0
 62
     9
 10
0.0
 20
0.0
 30
0.0
 70
   128
 71
   118
 72
   103
 73
   101
  0
VERTEX
  5
7AA
  8
0
 62
     9
 10
0.0
 20
0.0
 30
0.0
 70
   128
 71
   119
 72
   104
 73
   103
  0
VERTEX
  5
7AB
  8
0
 62
     9
 10
0.0
 20
0.0
 30
0.0
 70
   128
 71
   120
 72
   105
 73
   104
  0
VERTEX
  5
7AC
  8
0
 62
     9
 10
0.0
 20
0.0
 30
0.0
 70
   128
 71
   121
 72
   106
 73
   105
  0
VERTEX
  5
7AD
  8
0
 62
     9
 10
0.0
 20
0.0
 30
0.0
 70
   128
 71
   122
 72
   107
 73
   106
  0
VERTEX
  5
7AE
  8
0
 62
     9
 10
0.0
 20
0.0
 30
0.0
 70
   128
 71
   123
 72
   108
 73
   107
  0
VERTEX
  5
7AF
  8
0
 62
     9
 10
0.0
 20
0.0
 30
0.0
 70
   128
 71
   124
 72
   109
 73
   108
  0
VERTEX
  5
7B0
  8
0
 62
     9
 10
0.0
 20
0.0
 30
0.0
 70
   128
 71
   125
 72
   110
 73
   109
  0
VERTEX
  5
7B1
  8
0
 62
     9
 10
0.0
 20
0.0
 30
0.0
 70
   128
 71
   126
 72
   111
 73
   110
  0
VERTEX
  5
7B2
  8
0
 62
     9
 10
0.0
 20
0.0
 30
0.0
 70
   128
 71
   127
 72
   112
 73
   111
  0
VERTEX
  5
7B3
  8
0
 62
     9
 10
0.0
 20
0.0
 30
0.0
 70
   128
 71
   128
 72
   113
 73
   112
  0
VERTEX
  5
7B4
  8
0
 62
     9
 10
0.0
 20
0.0
 30
0.0
 70
   128
 71
   130
 72
   129
 73
   113
  0
VERTEX
  5
7B5
  8
0
 62
     9
 10
0.0
 20
0.0
 30
0.0
 70
   128
 71
   129
 72
   114
 73
   113
  0
VERTEX
  5
7B6
  8
0
 62
     9
 10
0.0
 20
0.0
 30
0.0
 70
   128
 71
     3
 72
     4
 73
   116
  0
VERTEX
  5
7B7
  8
0
 62
     9
 10
0.0
 20
0.0
 30
0.0
 70
   128
 71
     5
 72
   118
 73
   116
  0
VERTEX
  5
7B8
  8
0
 62
     9
 10
0.0
 20
0.0
 30
0.0
 70
   128
 71
     7
 72
   119
 73
   118
  0
VERTEX
  5
7B9
  8
0
 62
     9
 10
0.0
 20
0.0
 30
0.0
 70
   128
 71
     9
 72
   120
 73
   119
  0
VERTEX
  5
7BA
  8
0
 62
     9
 10
0.0
 20
0.0
 30
0.0
 70
   128
 71
    11
 72
   121
 73
   120
  0
VERTEX
  5
7BB
  8
0
 62
     9
 10
0.0
 20
0.0
 30
0.0
 70
   128
 71
    13
 72
   122
 73
   121
  0
VERTEX
  5
7BC
  8
0
 62
     9
 10
0.0
 20
0.0
 30
0.0
 70
   128
 71
    15
 72
   123
 73
   122
  0
VERTEX
  5
7BD
  8
0
 62
     9
 10
0.0
 20
0.0
 30
0.0
 70
   128
 71
    17
 72
   124
 73
   123
  0
VERTEX
  5
7BE
  8
0
 62
     9
 10
0.0
 20
0.0
 30
0.0
 70
   128
 71
    19
 72
   125
 73
   124
  0
VERTEX
  5
7BF
  8
0
 62
     9
 10
0.0
 20
0.0
 30
0.0
 70
   128
 71
    21
 72
   126
 73
   125
  0
VERTEX
  5
7C0
  8
0
 62
     9
 10
0.0
 20
0.0
 30
0.0
 70
   128
 71
    23
 72
   127
 73
   126
  0
VERTEX
  5
7C1
  8
0
 62
     9
 10
0.0
 20
0.0
 30
0.0
 70
   128
 71
    25
 72
   128
 73
   127
  0
VERTEX
  5
7C2
  8
0
 62
     9
 10
0.0
 20
0.0
 30
0.0
 70
   128
 71
    27
 72
   130
 73
   128
  0
VERTEX
  5
7C3
  8
0
 62
     9
 10
0.0
 20
0.0
 30
0.0
 70
   128
 71
   128
 72
    25
 73
    27
  0
VERTEX
  5
7C4
  8
0
 62
     9
 10
0.0
 20
0.0
 30
0.0
 70
   128
 71
   127
 72
    23
 73
    25
  0
VERTEX
  5
7C5
  8
0
 62
     9
 10
0.0
 20
0.0
 30
0.0
 70
   128
 71
   126
 72
    21
 73
    23
  0
VERTEX
  5
7C6
  8
0
 62
     9
 10
0.0
 20
0.0
 30
0.0
 70
   128
 71
   125
 72
    19
 73
    21
  0
VERTEX
  5
7C7
  8
0
 62
     9
 10
0.0
 20
0.0
 30
0.0
 70
   128
 71
   124
 72
    17
 73
    19
  0
VERTEX
  5
7C8
  8
0
 62
     9
 10
0.0
 20
0.0
 30
0.0
 70
   128
 71
   123
 72
    15
 73
    17
  0
VERTEX
  5
7C9
  8
0
 62
     9
 10
0.0
 20
0.0
 30
0.0
 70
   128
 71
   122
 72
    13
 73
    15
  0
VERTEX
  5
7CA
  8
0
 62
     9
 10
0.0
 20
0.0
 30
0.0
 70
   128
 71
   121
 72
    11
 73
    13
  0
VERTEX
  5
7CB
  8
0
 62
     9
 10
0.0
 20
0.0
 30
0.0
 70
   128
 71
   120
 72
     9
 73
    11
  0
VERTEX
  5
7CC
  8
0
 62
     9
 10
0.0
 20
0.0
 30
0.0
 70
   128
 71
   119
 72
     7
 73
     9
  0
VERTEX
  5
7CD
  8
0
 62
     9
 10
0.0
 20
0.0
 30
0.0
 70
   128
 71
   118
 72
     5
 73
     7
  0
VERTEX
  5
7CE
  8
0
 62
     9
 10
0.0
 20
0.0
 30
0.0
 70
   128
 71
   116
 72
     4
 73
     5
  0
VERTEX
  5
7CF
  8
0
 62
     9
 10
0.0
 20
0.0
 30
0.0
 70
   128
 71
   116
 72
   117
 73
     3
  0
VERTEX
  5
7D0
  8
0
 62
     9
 10
0.0
 20
0.0
 30
0.0
 70
   128
 71
   113
 72
   128
 73
   130
  0
VERTEX
  5
7D1
  8
0
 62
     9
 10
0.0
 20
0.0
 30
0.0
 70
   128
 71
   112
 72
   127
 73
   128
  0
VERTEX
  5
7D2
  8
0
 62
     9
 10
0.0
 20
0.0
 30
0.0
 70
   128
 71
   111
 72
   126
 73
   127
  0
VERTEX
  5
7D3
  8
0
 62
     9
 10
0.0
 20
0.0
 30
0.0
 70
   128
 71
   110
 72
   125
 73
   126
  0
VERTEX
  5
7D4
  8
0
 62
     9
 10
0.0
 20
0.0
 30
0.0
 70
   128
 71
   109
 72
   124
 73
   125
  0
VERTEX
  5
7D5
  8
0
 62
     9
 10
0.0
 20
0.0
 30
0.0
 70
   128
 71
   108
 72
   123
 73
   124
  0
VERTEX
  5
7D6
  8
0
 62
     9
 10
0.0
 20
0.0
 30
0.0
 70
   128
 71
   107
 72
   122
 73
   123
  0
VERTEX
  5
7D7
  8
0
 62
     9
 10
0.0
 20
0.0
 30
0.0
 70
   128
 71
   106
 72
   121
 73
   122
  0
VERTEX
  5
7D8
  8
0
 62
     9
 10
0.0
 20
0.0
 30
0.0
 70
   128
 71
   105
 72
   120
 73
   121
  0
VERTEX
  5
7D9
  8
0
 62
     9
 10
0.0
 20
0.0
 30
0.0
 70
   128
 71
   104
 72
   119
 73
   120
  0
VERTEX
  5
7DA
  8
0
 62
     9
 10
0.0
 20
0.0
 30
0.0
 70
   128
 71
   103
 72
   118
 73
   119
  0
VERTEX
  5
7DB
  8
0
 62
     9
 10
0.0
 20
0.0
 30
0.0
 70
   128
 71
   101
 72
   116
 73
   118
  0
VERTEX
  5
7DC
  8
0
 62
     9
 10
0.0
 20
0.0
 30
0.0
 70
   128
 71
   101
 72
   102
 73
   115
  0
VERTEX
  5
7DD
  8
0
 62
     9
 10
0.0
 20
0.0
 30
0.0
 70
   128
 71
   100
 72
    98
 73
   113
  0
VERTEX
  5
7DE
  8
0
 62
     9
 10
0.0
 20
0.0
 30
0.0
 70
   128
 71
    97
 72
   112
 73
   113
  0
VERTEX
  5
7DF
  8
0
 62
     9
 10
0.0
 20
0.0
 30
0.0
 70
   128
 71
    96
 72
   111
 73
   112
  0
VERTEX
  5
7E0
  8
0
 62
     9
 10
0.0
 20
0.0
 30
0.0
 70
   128
 71
    95
 72
   110
 73
   111
  0
VERTEX
  5
7E1
  8
0
 62
     9
 10
0.0
 20
0.0
 30
0.0
 70
   128
 71
    94
 72
   109
 73
   110
  0
VERTEX
  5
7E2
  8
0
 62
     9
 10
0.0
 20
0.0
 30
0.0
 70
   128
 71
    93
 72
   108
 73
   109
  0
VERTEX
  5
7E3
  8
0
 62
     9
 10
0.0
 20
0.0
 30
0.0
 70
   128
 71
    92
 72
   107
 73
   108
  0
VERTEX
  5
7E4
  8
0
 62
     9
 10
0.0
 20
0.0
 30
0.0
 70
   128
 71
    91
 72
   106
 73
   107
  0
VERTEX
  5
7E5
  8
0
 62
     9
 10
0.0
 20
0.0
 30
0.0
 70
   128
 71
    90
 72
   105
 73
   106
  0
VERTEX
  5
7E6
  8
0
 62
     9
 10
0.0
 20
0.0
 30
0.0
 70
   128
 71
    89
 72
   104
 73
   105
  0
VERTEX
  5
7E7
  8
0
 62
     9
 10
0.0
 20
0.0
 30
0.0
 70
   128
 71
    88
 72
   103
 73
   104
  0
VERTEX
  5
7E8
  8
0
 62
     9
 10
0.0
 20
0.0
 30
0.0
 70
   128
 71
    87
 72
   101
 73
   103
  0
VERTEX
  5
7E9
  8
0
 62
     9
 10
0.0
 20
0.0
 30
0.0
 70
   128
 71
    87
 72
   131
 73
   102
  0
VERTEX
  5
7EA
  8
0
 62
     9
 10
0.0
 20
0.0
 30
0.0
 70
   128
 71
    99
 72
    84
 73
    98
  0
VERTEX
  5
7EB
  8
0
 62
     9
 10
0.0
 20
0.0
 30
0.0
 70
   128
 71
    83
 72
    97
 73
    98
  0
VERTEX
  5
7EC
  8
0
 62
     9
 10
0.0
 20
0.0
 30
0.0
 70
   128
 71
    82
 72
    96
 73
    97
  0
VERTEX
  5
7ED
  8
0
 62
     9
 10
0.0
 20
0.0
 30
0.0
 70
   128
 71
    81
 72
    95
 73
    96
  0
VERTEX
  5
7EE
  8
0
 62
     9
 10
0.0
 20
0.0
 30
0.0
 70
   128
 71
    80
 72
    94
 73
    95
  0
VERTEX
  5
7EF
  8
0
 62
     9
 10
0.0
 20
0.0
 30
0.0
 70
   128
 71
    79
 72
    93
 73
    94
  0
VERTEX
  5
7F0
  8
0
 62
     9
 10
0.0
 20
0.0
 30
0.0
 70
   128
 71
    78
 72
    92
 73
    93
  0
VERTEX
  5
7F1
  8
0
 62
     9
 10
0.0
 20
0.0
 30
0.0
 70
   128
 71
    77
 72
    91
 73
    92
  0
VERTEX
  5
7F2
  8
0
 62
     9
 10
0.0
 20
0.0
 30
0.0
 70
   128
 71
    76
 72
    90
 73
    91
  0
VERTEX
  5
7F3
  8
0
 62
     9
 10
0.0
 20
0.0
 30
0.0
 70
   128
 71
    75
 72
    89
 73
    90
  0
VERTEX
  5
7F4
  8
0
 62
     9
 10
0.0
 20
0.0
 30
0.0
 70
   128
 71
    74
 72
    88
 73
    89
  0
VERTEX
  5
7F5
  8
0
 62
     9
 10
0.0
 20
0.0
 30
0.0
 70
   128
 71
    71
 72
    87
 73
    88
  0
VERTEX
  5
7F6
  8
0
 62
     9
 10
0.0
 20
0.0
 30
0.0
 70
   128
 71
    73
 72
   131
 73
    87
  0
VERTEX
  5
7F7
  8
0
 62
     9
 10
0.0
 20
0.0
 30
0.0
 70
   128
 71
    84
 72
    99
 73
    86
  0
VERTEX
  5
7F8
  8
0
 62
     9
 10
0.0
 20
0.0
 30
0.0
 70
   128
 71
    68
 72
    83
 73
    84
  0
VERTEX
  5
7F9
  8
0
 62
     9
 10
0.0
 20
0.0
 30
0.0
 70
   128
 71
    67
 72
    82
 73
    83
  0
VERTEX
  5
7FA
  8
0
 62
     9
 10
0.0
 20
0.0
 30
0.0
 70
   128
 71
    66
 72
    81
 73
    82
  0
VERTEX
  5
7FB
  8
0
 62
     9
 10
0.0
 20
0.0
 30
0.0
 70
   128
 71
    65
 72
    80
 73
    81
  0
VERTEX
  5
7FC
  8
0
 62
     9
 10
0.0
 20
0.0
 30
0.0
 70
   128
 71
    64
 72
    79
 73
    80
  0
VERTEX
  5
7FD
  8
0
 62
     9
 10
0.0
 20
0.0
 30
0.0
 70
   128
 71
    63
 72
    78
 73
    79
  0
VERTEX
  5
7FE
  8
0
 62
     9
 10
0.0
 20
0.0
 30
0.0
 70
   128
 71
    62
 72
    77
 73
    78
  0
VERTEX
  5
7FF
  8
0
 62
     9
 10
0.0
 20
0.0
 30
0.0
 70
   128
 71
    61
 72
    76
 73
    77
  0
VERTEX
  5
800
  8
0
 62
     9
 10
0.0
 20
0.0
 30
0.0
 70
   128
 71
    60
 72
    75
 73
    76
  0
VERTEX
  5
801
  8
0
 62
     9
 10
0.0
 20
0.0
 30
0.0
 70
   128
 71
    59
 72
    74
 73
    75
  0
VERTEX
  5
802
  8
0
 62
     9
 10
0.0
 20
0.0
 30
0.0
 70
   128
 71
    70
 72
    71
 73
    74
  0
VERTEX
  5
803
  8
0
 62
     9
 10
0.0
 20
0.0
 30
0.0
 70
   128
 71
    70
 72
    58
 73
    72
  0
VERTEX
  5
804
  8
0
 62
     9
 10
0.0
 20
0.0
 30
0.0
 70
   128
 71
    69
 72
    85
 73
    57
  0
VERTEX
  5
805
  8
0
 62
     9
 10
0.0
 20
0.0
 30
0.0
 70
   128
 71
    55
 72
    68
 73
    69
  0
VERTEX
  5
806
  8
0
 62
     9
 10
0.0
 20
0.0
 30
0.0
 70
   128
 71
    54
 72
    67
 73
    68
  0
VERTEX
  5
807
  8
0
 62
     9
 10
0.0
 20
0.0
 30
0.0
 70
   128
 71
    53
 72
    66
 73
    67
  0
VERTEX
  5
808
  8
0
 62
     9
 10
0.0
 20
0.0
 30
0.0
 70
   128
 71
    52
 72
    65
 73
    66
  0
VERTEX
  5
809
  8
0
 62
     9
 10
0.0
 20
0.0
 30
0.0
 70
   128
 71
    51
 72
    64
 73
    65
  0
VERTEX
  5
80A
  8
0
 62
     9
 10
0.0
 20
0.0
 30
0.0
 70
   128
 71
    50
 72
    63
 73
    64
  0
VERTEX
  5
80B
  8
0
 62
     9
 10
0.0
 20
0.0
 30
0.0
 70
   128
 71
    49
 72
    62
 73
    63
  0
VERTEX
  5
80C
  8
0
 62
     9
 10
0.0
 20
0.0
 30
0.0
 70
   128
 71
    48
 72
    61
 73
    62
  0
VERTEX
  5
80D
  8
0
 62
     9
 10
0.0
 20
0.0
 30
0.0
 70
   128
 71
    47
 72
    60
 73
    61
  0
VERTEX
  5
80E
  8
0
 62
     9
 10
0.0
 20
0.0
 30
0.0
 70
   128
 71
    46
 72
    59
 73
    60
  0
VERTEX
  5
80F
  8
0
 62
     9
 10
0.0
 20
0.0
 30
0.0
 70
   128
 71
    44
 72
    70
 73
    59
  0
VERTEX
  5
810
  8
0
 62
     9
 10
0.0
 20
0.0
 30
0.0
 70
   128
 71
    58
 72
    70
 73
    44
  0
VERTEX
  5
811
  8
0
 62
     9
 10
0.0
 20
0.0
 30
0.0
 70
   128
 71
    57
 72
   132
 73
    41
  0
VERTEX
  5
812
  8
0
 62
     9
 10
0.0
 20
0.0
 30
0.0
 70
   128
 71
    40
 72
    55
 73
    56
  0
VERTEX
  5
813
  8
0
 62
     9
 10
0.0
 20
0.0
 30
0.0
 70
   128
 71
    39
 72
    54
 73
    55
  0
VERTEX
  5
814
  8
0
 62
     9
 10
0.0
 20
0.0
 30
0.0
 70
   128
 71
    38
 72
    53
 73
    54
  0
VERTEX
  5
815
  8
0
 62
     9
 10
0.0
 20
0.0
 30
0.0
 70
   128
 71
    37
 72
    52
 73
    53
  0
VERTEX
  5
816
  8
0
 62
     9
 10
0.0
 20
0.0
 30
0.0
 70
   128
 71
    36
 72
    51
 73
    52
  0
VERTEX
  5
817
  8
0
 62
     9
 10
0.0
 20
0.0
 30
0.0
 70
   128
 71
    35
 72
    50
 73
    51
  0
VERTEX
  5
818
  8
0
 62
     9
 10
0.0
 20
0.0
 30
0.0
 70
   128
 71
    34
 72
    49
 73
    50
  0
VERTEX
  5
819
  8
0
 62
     9
 10
0.0
 20
0.0
 30
0.0
 70
   128
 71
    33
 72
    48
 73
    49
  0
VERTEX
  5
81A
  8
0
 62
     9
 10
0.0
 20
0.0
 30
0.0
 70
   128
 71
    32
 72
    47
 73
    48
  0
VERTEX
  5
81B
  8
0
 62
     9
 10
0.0
 20
0.0
 30
0.0
 70
   128
 71
    31
 72
    46
 73
    47
  0
VERTEX
  5
81C
  8
0
 62
     9
 10
0.0
 20
0.0
 30
0.0
 70
   128
 71
    28
 72
    44
 73
    46
  0
VERTEX
  5
81D
  8
0
 62
     9
 10
0.0
 20
0.0
 30
0.0
 70
   128
 71
    44
 72
    28
 73
    30
  0
VERTEX
  5
81E
  8
0
 62
     9
 10
0.0
 20
0.0
 30
0.0
 70
   128
 71
    41
 72
   132
 73
    42
  0
VERTEX
  5
81F
  8
0
 62
     9
 10
0.0
 20
0.0
 30
0.0
 70
   128
 71
    24
 72
    40
 73
    41
  0
VERTEX
  5
820
  8
0
 62
     9
 10
0.0
 20
0.0
 30
0.0
 70
   128
 71
    22
 72
    39
 73
    40
  0
VERTEX
  5
821
  8
0
 62
     9
 10
0.0
 20
0.0
 30
0.0
 70
   128
 71
    20
 72
    38
 73
    39
  0
VERTEX
  5
822
  8
0
 62
     9
 10
0.0
 20
0.0
 30
0.0
 70
   128
 71
    18
 72
    37
 73
    38
  0
VERTEX
  5
823
  8
0
 62
     9
 10
0.0
 20
0.0
 30
0.0
 70
   128
 71
    16
 72
    36
 73
    37
  0
VERTEX
  5
824
  8
0
 62
     9
 10
0.0
 20
0.0
 30
0.0
 70
   128
 71
    14
 72
    35
 73
    36
  0
VERTEX
  5
825
  8
0
 62
     9
 10
0.0
 20
0.0
 30
0.0
 70
   128
 71
    12
 72
    34
 73
    35
  0
VERTEX
  5
826
  8
0
 62
     9
 10
0.0
 20
0.0
 30
0.0
 70
   128
 71
    10
 72
    33
 73
    34
  0
VERTEX
  5
827
  8
0
 62
     9
 10
0.0
 20
0.0
 30
0.0
 70
   128
 71
     8
 72
    32
 73
    33
  0
VERTEX
  5
828
  8
0
 62
     9
 10
0.0
 20
0.0
 30
0.0
 70
   128
 71
     6
 72
    31
 73
    32
  0
VERTEX
  5
829
  8
0
 62
     9
 10
0.0
 20
0.0
 30
0.0
 70
   128
 71
     1
 72
    28
 73
    31
  0
VERTEX
  5
82A
  8
0
 62
     9
 10
0.0
 20
0.0
 30
0.0
 70
   128
 71
    28
 72
     1
 73
     2
  0
VERTEX
  5
82B
  8
0
 62
     9
 10
0.0
 20
0.0
 30
0.0
 70
   128
 71
    26
 72
    43
 73
    27
  0
VERTEX
  5
82C
  8
0
 62
     9
 10
0.0
 20
0.0
 30
0.0
 70
   128
 71
    23
 72
    24
 73
    26
  0
VERTEX
  5
82D
  8
0
 62
     9
 10
0.0
 20
0.0
 30
0.0
 70
   128
 71
    21
 72
    22
 73
    24
  0
VERTEX
  5
82E
  8
0
 62
     9
 10
0.0
 20
0.0
 30
0.0
 70
   128
 71
    19
 72
    20
 73
    22
  0
VERTEX
  5
82F
  8
0
 62
     9
 10
0.0
 20
0.0
 30
0.0
 70
   128
 71
    17
 72
    18
 73
    20
  0
VERTEX
  5
830
  8
0
 62
     9
 10
0.0
 20
0.0
 30
0.0
 70
   128
 71
    15
 72
    16
 73
    18
  0
VERTEX
  5
831
  8
0
 62
     9
 10
0.0
 20
0.0
 30
0.0
 70
   128
 71
    13
 72
    14
 73
    16
  0
VERTEX
  5
832
  8
0
 62
     9
 10
0.0
 20
0.0
 30
0.0
 70
   128
 71
    11
 72
    12
 73
    14
  0
VERTEX
  5
833
  8
0
 62
     9
 10
0.0
 20
0.0
 30
0.0
 70
   128
 71
     9
 72
    10
 73
    12
  0
VERTEX
  5
834
  8
0
 62
     9
 10
0.0
 20
0.0
 30
0.0
 70
   128
 71
     7
 72
     8
 73
    10
  0
VERTEX
  5
835
  8
0
 62
     9
 10
0.0
 20
0.0
 30
0.0
 70
   128
 71
     5
 72
     6
 73
     8
  0
VERTEX
  5
836
  8
0
 62
     9
 10
0.0
 20
0.0
 30
0.0
 70
   128
 71
     4
 72
     1
 73
     6
  0
VERTEX
  5
837
  8
0
 62
     9
 10
0.0
 20
0.0
 30
0.0
 70
   128
 71
     1
 72
     4
 73
     3
  0
SEQEND
  5
838
  8
0
 62
     9
  0
ENDBLK
  5
83B
  8
0
  0
BLOCK
  8
0
  2
E3_NODE_19_
 70
     0
 10
0.0
 20
0.0
 30
0.0
  3
E3_NODE_19_
  1

  0
POLYLINE
  5
83D
  8
0
 62
     9
 66
     1
 10
0.0
 20
0.0
 30
0.0
 70
    64
 71
    18
 72
    18
  0
VERTEX
  5
83E
  8
0
 10
10.5
 20
-55.5
 30
81.20999908447266
 70
   192
  0
VERTEX
  5
83F
  8
0
 10
5.25
 20
-46.40700149536133
 30
81.20999908447266
 70
   192
  0
VERTEX
  5
840
  8
0
 10
8.043000221252441
 20
-48.75099945068359
 30
201.2100067138672
 70
   192
  0
VERTEX
  5
841
  8
0
 10
4.933000087738037
 20
-46.95500183105469
 30
201.2100067138672
 70
   192
  0
VERTEX
  5
842
  8
0
 10
-5.25
 20
-46.40700149536133
 30
81.20999908447266
 70
   192
  0
VERTEX
  5
843
  8
0
 10
-5.25
 20
-46.40700149536133
 30
201.2100067138672
 70
   192
  0
VERTEX
  5
844
  8
0
 10
1.822999954223633
 20
-45.15999984741211
 30
201.2100067138672
 70
   192
  0
VERTEX
  5
845
  8
0
 10
-10.5
 20
-55.5
 30
81.20999908447266
 70
   192
  0
VERTEX
  5
846
  8
0
 10
-9.866999626159668
 20
-51.90900039672852
 30
201.2100067138672
 70
   192
  0
VERTEX
  5
847
  8
0
 10
-9.866999626159668
 20
-55.5
 30
201.2100067138672
 70
   192
  0
VERTEX
  5
848
  8
0
 10
-5.25
 20
-64.59300231933594
 30
81.20999908447266
 70
   192
  0
VERTEX
  5
849
  8
0
 10
-5.25
 20
-64.59300231933594
 30
201.2100067138672
 70
   192
  0
VERTEX
  5
84A
  8
0
 10
-9.866999626159668
 20
-59.09099960327148
 30
201.2100067138672
 70
   192
  0
VERTEX
  5
84B
  8
0
 10
5.25
 20
-64.59300231933594
 30
81.20999908447266
 70
   192
  0
VERTEX
  5
84C
  8
0
 10
1.822999954223633
 20
-65.83999633789062
 30
201.2100067138672
 70
   192
  0
VERTEX
  5
84D
  8
0
 10
4.933000087738037
 20
-64.04499816894531
 30
201.2100067138672
 70
   192
  0
VERTEX
  5
84E
  8
0
 10
10.5
 20
-55.5
 30
201.2100067138672
 70
   192
  0
VERTEX
  5
84F
  8
0
 10
8.043000221252441
 20
-62.24900054931641
 30
201.2100067138672
 70
   192
  0
VERTEX
  5
850
  8
0
 62
     9
 10
0.0
 20
0.0
 30
0.0
 70
   128
 71
     3
 72
     2
 73
     1
  0
VERTEX
  5
851
  8
0
 62
     9
 10
0.0
 20
0.0
 30
0.0
 70
   128
 71
     3
 72
     4
 73
     2
  0
VERTEX
  5
852
  8
0
 62
     9
 10
0.0
 20
0.0
 30
0.0
 70
   128
 71
     7
 72
     6
 73
     5
  0
VERTEX
  5
853
  8
0
 62
     9
 10
0.0
 20
0.0
 30
0.0
 70
   128
 71
     5
 72
     2
 73
     7
  0
VERTEX
  5
854
  8
0
 62
     9
 10
0.0
 20
0.0
 30
0.0
 70
   128
 71
     9
 72
     8
 73
     5
  0
VERTEX
  5
855
  8
0
 62
     9
 10
0.0
 20
0.0
 30
0.0
 70
   128
 71
     9
 72
    10
 73
     8
  0
VERTEX
  5
856
  8
0
 62
     9
 10
0.0
 20
0.0
 30
0.0
 70
   128
 71
    13
 72
    12
 73
    11
  0
VERTEX
  5
857
  8
0
 62
     9
 10
0.0
 20
0.0
 30
0.0
 70
   128
 71
    11
 72
     8
 73
    13
  0
VERTEX
  5
858
  8
0
 62
     9
 10
0.0
 20
0.0
 30
0.0
 70
   128
 71
    15
 72
    14
 73
    11
  0
VERTEX
  5
859
  8
0
 62
     9
 10
0.0
 20
0.0
 30
0.0
 70
   128
 71
    15
 72
    16
 73
    14
  0
VERTEX
  5
85A
  8
0
 62
     9
 10
0.0
 20
0.0
 30
0.0
 70
   128
 71
    18
 72
    17
 73
     1
  0
VERTEX
  5
85B
  8
0
 62
     9
 10
0.0
 20
0.0
 30
0.0
 70
   128
 71
     1
 72
    14
 73
    18
  0
VERTEX
  5
85C
  8
0
 62
     9
 10
0.0
 20
0.0
 30
0.0
 70
   128
 71
    14
 72
    16
 73
    18
  0
VERTEX
  5
85D
  8
0
 62
     9
 10
0.0
 20
0.0
 30
0.0
 70
   128
 71
    11
 72
    12
 73
    15
  0
VERTEX
  5
85E
  8
0
 62
     9
 10
0.0
 20
0.0
 30
0.0
 70
   128
 71
     8
 72
    10
 73
    13
  0
VERTEX
  5
85F
  8
0
 62
     9
 10
0.0
 20
0.0
 30
0.0
 70
   128
 71
     5
 72
     6
 73
     9
  0
VERTEX
  5
860
  8
0
 62
     9
 10
0.0
 20
0.0
 30
0.0
 70
   128
 71
     2
 72
     4
 73
     7
  0
VERTEX
  5
861
  8
0
 62
     9
 10
0.0
 20
0.0
 30
0.0
 70
   128
 71
     1
 72
    17
 73
     3
  0
SEQEND
  5
862
  8
0
 62
     9
  0
ENDBLK
  5
865
  8
0
  0
BLOCK
  8
0
  2
E3_NODE_20_
 70
     0
 10
0.0
 20
0.0
 30
0.0
  3
E3_NODE_20_
  1

  0
POLYLINE
  5
867
  8
0
 62
     9
 66
     1
 10
0.0
 20
0.0
 30
0.0
 70
    64
 71
    12
 72
    12
  0
VERTEX
  5
868
  8
0
 10
225.8690032958984
 20
-65.45899963378906
 30
216.3760070800781
 70
   192
  0
VERTEX
  5
869
  8
0
 10
231.5319976806641
 20
-55.5
 30
217.3739929199219
 70
   192
  0
VERTEX
  5
86A
  8
0
 10
230.2989959716797
 20
-55.5
 30
218.6069946289062
 70
   192
  0
VERTEX
  5
86B
  8
0
 10
214.5440063476562
 20
-65.45899963378906
 30
214.3789978027344
 70
   192
  0
VERTEX
  5
86C
  8
0
 10
225.1289978027344
 20
-64.59300231933594
 30
217.6959991455078
 70
   192
  0
VERTEX
  5
86D
  8
0
 10
208.8809967041016
 20
-55.5
 30
213.3800048828125
 70
   192
  0
VERTEX
  5
86E
  8
0
 10
214.7879943847656
 20
-64.59300231933594
 30
215.8719940185547
 70
   192
  0
VERTEX
  5
86F
  8
0
 10
209.6179962158203
 20
-55.5
 30
214.9609985351562
 70
   192
  0
VERTEX
  5
870
  8
0
 10
214.7879943847656
 20
-46.40700149536133
 30
215.8719940185547
 70
   192
  0
VERTEX
  5
871
  8
0
 10
225.8690032958984
 20
-45.54100036621094
 30
216.3760070800781
 70
   192
  0
VERTEX
  5
872
  8
0
 10
214.5440063476562
 20
-45.54100036621094
 30
214.3789978027344
 70
   192
  0
VERTEX
  5
873
  8
0
 10
225.1289978027344
 20
-46.40700149536133
 30
217.6959991455078
 70
   192
  0
VERTEX
  5
874
  8
0
 62
     9
 10
0.0
 20
0.0
 30
0.0
 70
   128
 71
     3
 72
     2
 73
     1
  0
VERTEX
  5
875
  8
0
 62
     9
 10
0.0
 20
0.0
 30
0.0
 70
   128
 71
     5
 72
     1
 73
     4
  0
VERTEX
  5
876
  8
0
 62
     9
 10
0.0
 20
0.0
 30
0.0
 70
   128
 71
     7
 72
     4
 73
     6
  0
VERTEX
  5
877
  8
0
 62
     9
 10
0.0
 20
0.0
 30
0.0
 70
   128
 71
     9
 72
     8
 73
     6
  0
VERTEX
  5
878
  8
0
 62
     9
 10
0.0
 20
0.0
 30
0.0
 70
   128
 71
     9
 72
    11
 73
    10
  0
VERTEX
  5
879
  8
0
 62
     9
 10
0.0
 20
0.0
 30
0.0
 70
   128
 71
    12
 72
    10
 73
     2
  0
VERTEX
  5
87A
  8
0
 62
     9
 10
0.0
 20
0.0
 30
0.0
 70
   128
 71
     2
 72
     3
 73
    12
  0
VERTEX
  5
87B
  8
0
 62
     9
 10
0.0
 20
0.0
 30
0.0
 70
   128
 71
    10
 72
    12
 73
     9
  0
VERTEX
  5
87C
  8
0
 62
     9
 10
0.0
 20
0.0
 30
0.0
 70
   128
 71
     6
 72
    11
 73
     9
  0
VERTEX
  5
87D
  8
0
 62
     9
 10
0.0
 20
0.0
 30
0.0
 70
   128
 71
     6
 72
     8
 73
     7
  0
VERTEX
  5
87E
  8
0
 62
     9
 10
0.0
 20
0.0
 30
0.0
 70
   128
 71
     4
 72
     7
 73
     5
  0
VERTEX
  5
87F
  8
0
 62
     9
 10
0.0
 20
0.0
 30
0.0
 70
   128
 71
     1
 72
     5
 73
     3
  0
SEQEND
  5
880
  8
0
 62
     9
  0
ENDBLK
  5
883
  8
0
  0
BLOCK
  8
0
  2
E3_NODE_21_
 70
     0
 10
0.0
 20
0.0
 30
0.0
  3
E3_NODE_21_
  1

  0
POLYLINE
  5
885
  8
0
 62
     9
 66
     1
 10
0.0
 20
0.0
 30
0.0
 70
    64
 71
    12
 72
    12
  0
VERTEX
  5
886
  8
0
 10
214.6430053710938
 20
-65.45899963378906
 30
213.8159942626953
 70
   192
  0
VERTEX
  5
887
  8
0
 10
214.5440063476562
 20
-65.45899963378906
 30
214.3789978027344
 70
   192
  0
VERTEX
  5
888
  8
0
 10
208.8809967041016
 20
-55.5
 30
213.3800048828125
 70
   192
  0
VERTEX
  5
889
  8
0
 10
225.9680023193359
 20
-65.45899963378906
 30
215.8130035400391
 70
   192
  0
VERTEX
  5
88A
  8
0
 10
225.8690032958984
 20
-65.45899963378906
 30
216.3760070800781
 70
   192
  0
VERTEX
  5
88B
  8
0
 10
231.6309967041016
 20
-55.5
 30
216.8110046386719
 70
   192
  0
VERTEX
  5
88C
  8
0
 10
231.5319976806641
 20
-55.5
 30
217.3739929199219
 70
   192
  0
VERTEX
  5
88D
  8
0
 10
225.8690032958984
 20
-45.54100036621094
 30
216.3760070800781
 70
   192
  0
VERTEX
  5
88E
  8
0
 10
214.5440063476562
 20
-45.54100036621094
 30
214.3789978027344
 70
   192
  0
VERTEX
  5
88F
  8
0
 10
225.9680023193359
 20
-45.54100036621094
 30
215.8130035400391
 70
   192
  0
VERTEX
  5
890
  8
0
 10
214.6430053710938
 20
-45.54100036621094
 30
213.8159942626953
 70
   192
  0
VERTEX
  5
891
  8
0
 10
208.9810028076172
 20
-55.5
 30
212.8170013427734
 70
   192
  0
VERTEX
  5
892
  8
0
 62
     9
 10
0.0
 20
0.0
 30
0.0
 70
   128
 71
     3
 72
     2
 73
     1
  0
VERTEX
  5
893
  8
0
 62
     9
 10
0.0
 20
0.0
 30
0.0
 70
   128
 71
     2
 72
     5
 73
     4
  0
VERTEX
  5
894
  8
0
 62
     9
 10
0.0
 20
0.0
 30
0.0
 70
   128
 71
     5
 72
     7
 73
     6
  0
VERTEX
  5
895
  8
0
 62
     9
 10
0.0
 20
0.0
 30
0.0
 70
   128
 71
     6
 72
     7
 73
     8
  0
VERTEX
  5
896
  8
0
 62
     9
 10
0.0
 20
0.0
 30
0.0
 70
   128
 71
    10
 72
     8
 73
     9
  0
VERTEX
  5
897
  8
0
 62
     9
 10
0.0
 20
0.0
 30
0.0
 70
   128
 71
    11
 72
     9
 73
     3
  0
VERTEX
  5
898
  8
0
 62
     9
 10
0.0
 20
0.0
 30
0.0
 70
   128
 71
     3
 72
    12
 73
    11
  0
VERTEX
  5
899
  8
0
 62
     9
 10
0.0
 20
0.0
 30
0.0
 70
   128
 71
     9
 72
    11
 73
    10
  0
VERTEX
  5
89A
  8
0
 62
     9
 10
0.0
 20
0.0
 30
0.0
 70
   128
 71
     8
 72
    10
 73
     6
  0
VERTEX
  5
89B
  8
0
 62
     9
 10
0.0
 20
0.0
 30
0.0
 70
   128
 71
     6
 72
     4
 73
     5
  0
VERTEX
  5
89C
  8
0
 62
     9
 10
0.0
 20
0.0
 30
0.0
 70
   128
 71
     4
 72
     1
 73
     2
  0
VERTEX
  5
89D
  8
0
 62
     9
 10
0.0
 20
0.0
 30
0.0
 70
   128
 71
     1
 72
    12
 73
     3
  0
SEQEND
  5
89E
  8
0
 62
     9
  0
ENDBLK
  5
8A1
  8
0
  0
BLOCK
  8
0
  2
E3_NODE_22_
 70
     0
 10
0.0
 20
0.0
 30
0.0
  3
E3_NODE_22_
  1

  0
POLYLINE
  5
8A3
  8
0
 62
     9
 66
     1
 10
0.0
 20
0.0
 30
0.0
 70
    64
 71
     6
 72
     4
  0
VERTEX
  5
8A4
  8
0
 10
215.6600036621094
 20
-51.0
 30
196.2760009765625
 70
   192
  0
VERTEX
  5
8A5
  8
0
 10
231.0119934082031
 20
-60.0
 30
198.9830017089844
 70
   192
  0
VERTEX
  5
8A6
  8
0
 10
223.3359985351562
 20
-64.5
 30
197.6289978027344
 70
   192
  0
VERTEX
  5
8A7
  8
0
 10
223.3359985351562
 20
-46.5
 30
197.6289978027344
 70
   192
  0
VERTEX
  5
8A8
  8
0
 10
231.0119934082031
 20
-51.0
 30
198.9830017089844
 70
   192
  0
VERTEX
  5
8A9
  8
0
 10
215.6600036621094
 20
-60.0
 30
196.2760009765625
 70
   192
  0
VERTEX
  5
8AA
  8
0
 62
     9
 10
0.0
 20
0.0
 30
0.0
 70
   128
 71
     3
 72
     2
 73
     1
  0
VERTEX
  5
8AB
  8
0
 62
     9
 10
0.0
 20
0.0
 30
0.0
 70
   128
 71
     5
 72
     4
 73
     1
  0
VERTEX
  5
8AC
  8
0
 62
     9
 10
0.0
 20
0.0
 30
0.0
 70
   128
 71
     1
 72
     2
 73
     5
  0
VERTEX
  5
8AD
  8
0
 62
     9
 10
0.0
 20
0.0
 30
0.0
 70
   128
 71
     1
 72
     6
 73
     3
  0
SEQEND
  5
8AE
  8
0
 62
     9
  0
ENDBLK
  5
8B1
  8
0
  0
BLOCK
  8
0
  2
E3_NODE_23_
 70
     0
 10
0.0
 20
0.0
 30
0.0
  3
E3_NODE_23_
  1

  0
POLYLINE
  5
8B3
  8
0
 62
     9
 66
     1
 10
0.0
 20
0.0
 30
0.0
 70
    64
 71
    12
 72
    12
  0
VERTEX
  5
8B4
  8
0
 10
231.0119934082031
 20
-60.0
 30
198.9830017089844
 70
   192
  0
VERTEX
  5
8B5
  8
0
 10
230.5429992675781
 20
-60.0
 30
201.6419982910156
 70
   192
  0
VERTEX
  5
8B6
  8
0
 10
222.8670043945312
 20
-64.5
 30
200.2879943847656
 70
   192
  0
VERTEX
  5
8B7
  8
0
 10
230.5429992675781
 20
-51.0
 30
201.6419982910156
 70
   192
  0
VERTEX
  5
8B8
  8
0
 10
223.3359985351562
 20
-46.5
 30
197.6289978027344
 70
   192
  0
VERTEX
  5
8B9
  8
0
 10
222.8670043945312
 20
-46.5
 30
200.2879943847656
 70
   192
  0
VERTEX
  5
8BA
  8
0
 10
215.6600036621094
 20
-51.0
 30
196.2760009765625
 70
   192
  0
VERTEX
  5
8BB
  8
0
 10
215.1909942626953
 20
-51.0
 30
198.9349975585938
 70
   192
  0
VERTEX
  5
8BC
  8
0
 10
215.6600036621094
 20
-60.0
 30
196.2760009765625
 70
   192
  0
VERTEX
  5
8BD
  8
0
 10
215.1909942626953
 20
-60.0
 30
198.9349975585938
 70
   192
  0
VERTEX
  5
8BE
  8
0
 10
223.3359985351562
 20
-64.5
 30
197.6289978027344
 70
   192
  0
VERTEX
  5
8BF
  8
0
 10
231.0119934082031
 20
-51.0
 30
198.9830017089844
 70
   192
  0
VERTEX
  5
8C0
  8
0
 62
     9
 10
0.0
 20
0.0
 30
0.0
 70
   128
 71
     3
 72
     2
 73
     1
  0
VERTEX
  5
8C1
  8
0
 62
     9
 10
0.0
 20
0.0
 30
0.0
 70
   128
 71
     1
 72
     2
 73
     4
  0
VERTEX
  5
8C2
  8
0
 62
     9
 10
0.0
 20
0.0
 30
0.0
 70
   128
 71
     4
 72
     6
 73
     5
  0
VERTEX
  5
8C3
  8
0
 62
     9
 10
0.0
 20
0.0
 30
0.0
 70
   128
 71
     6
 72
     8
 73
     7
  0
VERTEX
  5
8C4
  8
0
 62
     9
 10
0.0
 20
0.0
 30
0.0
 70
   128
 71
     8
 72
    10
 73
     9
  0
VERTEX
  5
8C5
  8
0
 62
     9
 10
0.0
 20
0.0
 30
0.0
 70
   128
 71
     9
 72
    10
 73
     3
  0
VERTEX
  5
8C6
  8
0
 62
     9
 10
0.0
 20
0.0
 30
0.0
 70
   128
 71
     3
 72
    11
 73
     9
  0
VERTEX
  5
8C7
  8
0
 62
     9
 10
0.0
 20
0.0
 30
0.0
 70
   128
 71
     9
 72
     7
 73
     8
  0
VERTEX
  5
8C8
  8
0
 62
     9
 10
0.0
 20
0.0
 30
0.0
 70
   128
 71
     7
 72
     5
 73
     6
  0
VERTEX
  5
8C9
  8
0
 62
     9
 10
0.0
 20
0.0
 30
0.0
 70
   128
 71
     5
 72
    12
 73
     4
  0
VERTEX
  5
8CA
  8
0
 62
     9
 10
0.0
 20
0.0
 30
0.0
 70
   128
 71
     4
 72
    12
 73
     1
  0
VERTEX
  5
8CB
  8
0
 62
     9
 10
0.0
 20
0.0
 30
0.0
 70
   128
 71
     1
 72
    11
 73
     3
  0
SEQEND
  5
8CC
  8
0
 62
     9
  0
ENDBLK
  5
8CF
  8
0
  0
BLOCK
  8
0
  2
E3_NODE_24_
 70
     0
 10
0.0
 20
0.0
 30
0.0
  3
E3_NODE_24_
  1

  0
POLYLINE
  5
8D1
  8
0
 62
     9
 66
     1
 10
0.0
 20
0.0
 30
0.0
 70
    64
 71
    18
 72
    18
  0
VERTEX
  5
8D2
  8
0
 10
220.3059997558594
 20
-44.0
 30
214.8139953613281
 70
   192
  0
VERTEX
  5
8D3
  8
0
 10
230.1139984130859
 20
-49.75
 30
216.5440063476562
 70
   192
  0
VERTEX
  5
8D4
  8
0
 10
229.5399932861328
 20
-46.68999862670898
 30
205.0130004882812
 70
   192
  0
VERTEX
  5
8D5
  8
0
 10
231.4770050048828
 20
-50.09700012207031
 30
205.3549957275391
 70
   192
  0
VERTEX
  5
8D6
  8
0
 10
230.1139984130859
 20
-61.25
 30
216.5440063476562
 70
   192
  0
VERTEX
  5
8D7
  8
0
 10
232.0679931640625
 20
-61.25
 30
205.4589996337891
 70
   192
  0
VERTEX
  5
8D8
  8
0
 10
233.4140014648438
 20
-53.50299835205078
 30
205.6959991455078
 70
   192
  0
VERTEX
  5
8D9
  8
0
 10
220.3059997558594
 20
-67.0
 30
214.8139953613281
 70
   192
  0
VERTEX
  5
8DA
  8
0
 10
226.1340026855469
 20
-66.30599975585938
 30
204.4129943847656
 70
   192
  0
VERTEX
  5
8DB
  8
0
 10
222.2599945068359
 20
-66.30599975585938
 30
203.7299957275391
 70
   192
  0
VERTEX
  5
8DC
  8
0
 10
210.4980010986328
 20
-61.25
 30
213.0850067138672
 70
   192
  0
VERTEX
  5
8DD
  8
0
 10
212.4519958496094
 20
-61.25
 30
202.0
 70
   192
  0
VERTEX
  5
8DE
  8
0
 10
218.3869934082031
 20
-66.30599975585938
 30
203.0469970703125
 70
   192
  0
VERTEX
  5
8DF
  8
0
 10
210.4980010986328
 20
-49.75
 30
213.0850067138672
 70
   192
  0
VERTEX
  5
8E0
  8
0
 10
211.1069946289062
 20
-53.50299835205078
 30
201.7630004882812
 70
   192
  0
VERTEX
  5
8E1
  8
0
 10
213.0440063476562
 20
-50.09700012207031
 30
202.1049957275391
 70
   192
  0
VERTEX
  5
8E2
  8
0
 10
222.2599945068359
 20
-44.0
 30
203.7299957275391
 70
   192
  0
VERTEX
  5
8E3
  8
0
 10
214.9810028076172
 20
-46.68999862670898
 30
202.4459991455078
 70
   192
  0
VERTEX
  5
8E4
  8
0
 62
     9
 10
0.0
 20
0.0
 30
0.0
 70
   128
 71
     3
 72
     2
 73
     1
  0
VERTEX
  5
8E5
  8
0
 62
     9
 10
0.0
 20
0.0
 30
0.0
 70
   128
 71
     3
 72
     4
 73
     2
  0
VERTEX
  5
8E6
  8
0
 62
     9
 10
0.0
 20
0.0
 30
0.0
 70
   128
 71
     7
 72
     6
 73
     5
  0
VERTEX
  5
8E7
  8
0
 62
     9
 10
0.0
 20
0.0
 30
0.0
 70
   128
 71
     5
 72
     2
 73
     7
  0
VERTEX
  5
8E8
  8
0
 62
     9
 10
0.0
 20
0.0
 30
0.0
 70
   128
 71
     9
 72
     8
 73
     5
  0
VERTEX
  5
8E9
  8
0
 62
     9
 10
0.0
 20
0.0
 30
0.0
 70
   128
 71
     9
 72
    10
 73
     8
  0
VERTEX
  5
8EA
  8
0
 62
     9
 10
0.0
 20
0.0
 30
0.0
 70
   128
 71
    13
 72
    12
 73
    11
  0
VERTEX
  5
8EB
  8
0
 62
     9
 10
0.0
 20
0.0
 30
0.0
 70
   128
 71
    11
 72
     8
 73
    13
  0
VERTEX
  5
8EC
  8
0
 62
     9
 10
0.0
 20
0.0
 30
0.0
 70
   128
 71
    15
 72
    14
 73
    11
  0
VERTEX
  5
8ED
  8
0
 62
     9
 10
0.0
 20
0.0
 30
0.0
 70
   128
 71
    15
 72
    16
 73
    14
  0
VERTEX
  5
8EE
  8
0
 62
     9
 10
0.0
 20
0.0
 30
0.0
 70
   128
 71
    18
 72
    17
 73
     1
  0
VERTEX
  5
8EF
  8
0
 62
     9
 10
0.0
 20
0.0
 30
0.0
 70
   128
 71
     1
 72
    14
 73
    18
  0
VERTEX
  5
8F0
  8
0
 62
     9
 10
0.0
 20
0.0
 30
0.0
 70
   128
 71
    14
 72
    16
 73
    18
  0
VERTEX
  5
8F1
  8
0
 62
     9
 10
0.0
 20
0.0
 30
0.0
 70
   128
 71
    11
 72
    12
 73
    15
  0
VERTEX
  5
8F2
  8
0
 62
     9
 10
0.0
 20
0.0
 30
0.0
 70
   128
 71
     8
 72
    10
 73
    13
  0
VERTEX
  5
8F3
  8
0
 62
     9
 10
0.0
 20
0.0
 30
0.0
 70
   128
 71
     5
 72
     6
 73
     9
  0
VERTEX
  5
8F4
  8
0
 62
     9
 10
0.0
 20
0.0
 30
0.0
 70
   128
 71
     2
 72
     4
 73
     7
  0
VERTEX
  5
8F5
  8
0
 62
     9
 10
0.0
 20
0.0
 30
0.0
 70
   128
 71
     1
 72
    17
 73
     3
  0
SEQEND
  5
8F6
  8
0
 62
     9
  0
ENDBLK
  5
8F9
  8
0
  0
BLOCK
  8
0
  2
E3_NODE_25_
 70
     0
 10
0.0
 20
0.0
 30
0.0
  3
E3_NODE_25_
  1

  0
POLYLINE
  5
8FB
  8
0
 62
     9
 66
     1
 10
0.0
 20
0.0
 30
0.0
 70
    64
 71
    21
 72
    21
  0
VERTEX
  5
8FC
  8
0
 10
229.5399932861328
 20
-46.68999862670898
 30
205.0130004882812
 70
   192
  0
VERTEX
  5
8FD
  8
0
 10
229.9049987792969
 20
-47.45700073242188
 30
199.2449951171875
 70
   192
  0
VERTEX
  5
8FE
  8
0
 10
223.2579956054688
 20
-45.0
 30
198.072998046875
 70
   192
  0
VERTEX
  5
8FF
  8
0
 10
233.4409942626953
 20
-53.67699813842773
 30
199.8679962158203
 70
   192
  0
VERTEX
  5
900
  8
0
 10
231.4770050048828
 20
-50.09700012207031
 30
205.3549957275391
 70
   192
  0
VERTEX
  5
901
  8
0
 10
232.0679931640625
 20
-61.25
 30
205.4589996337891
 70
   192
  0
VERTEX
  5
902
  8
0
 10
232.2129974365234
 20
-60.75
 30
199.6519927978516
 70
   192
  0
VERTEX
  5
903
  8
0
 10
226.1340026855469
 20
-66.30599975585938
 30
204.4129943847656
 70
   192
  0
VERTEX
  5
904
  8
0
 10
226.7949981689453
 20
-65.36699676513672
 30
198.6959991455078
 70
   192
  0
VERTEX
  5
905
  8
0
 10
222.2599945068359
 20
-66.30599975585938
 30
203.7299957275391
 70
   192
  0
VERTEX
  5
906
  8
0
 10
219.7209930419922
 20
-65.36699676513672
 30
197.4490051269531
 70
   192
  0
VERTEX
  5
907
  8
0
 10
218.3869934082031
 20
-66.30599975585938
 30
203.0469970703125
 70
   192
  0
VERTEX
  5
908
  8
0
 10
212.4519958496094
 20
-61.25
 30
202.0
 70
   192
  0
VERTEX
  5
909
  8
0
 10
214.3029937744141
 20
-60.75
 30
196.4940032958984
 70
   192
  0
VERTEX
  5
90A
  8
0
 10
211.1069946289062
 20
-53.50299835205078
 30
201.7630004882812
 70
   192
  0
VERTEX
  5
90B
  8
0
 10
213.0740051269531
 20
-53.67699813842773
 30
196.2769927978516
 70
   192
  0
VERTEX
  5
90C
  8
0
 10
213.0440063476562
 20
-50.09700012207031
 30
202.1049957275391
 70
   192
  0
VERTEX
  5
90D
  8
0
 10
216.6109924316406
 20
-47.45700073242188
 30
196.9010009765625
 70
   192
  0
VERTEX
  5
90E
  8
0
 10
214.9810028076172
 20
-46.68999862670898
 30
202.4459991455078
 70
   192
  0
VERTEX
  5
90F
  8
0
 10
222.2599945068359
 20
-44.0
 30
203.7299957275391
 70
   192
  0
VERTEX
  5
910
  8
0
 10
233.4140014648438
 20
-53.50299835205078
 30
205.6959991455078
 70
   192
  0
VERTEX
  5
911
  8
0
 62
     9
 10
0.0
 20
0.0
 30
0.0
 70
   128
 71
     3
 72
     2
 73
     1
  0
VERTEX
  5
912
  8
0
 62
     9
 10
0.0
 20
0.0
 30
0.0
 70
   128
 71
     5
 72
     2
 73
     4
  0
VERTEX
  5
913
  8
0
 62
     9
 10
0.0
 20
0.0
 30
0.0
 70
   128
 71
     5
 72
     1
 73
     2
  0
VERTEX
  5
914
  8
0
 62
     9
 10
0.0
 20
0.0
 30
0.0
 70
   128
 71
     4
 72
     7
 73
     6
  0
VERTEX
  5
915
  8
0
 62
     9
 10
0.0
 20
0.0
 30
0.0
 70
   128
 71
     9
 72
     8
 73
     6
  0
VERTEX
  5
916
  8
0
 62
     9
 10
0.0
 20
0.0
 30
0.0
 70
   128
 71
    10
 72
     8
 73
     9
  0
VERTEX
  5
917
  8
0
 62
     9
 10
0.0
 20
0.0
 30
0.0
 70
   128
 71
     9
 72
    11
 73
    10
  0
VERTEX
  5
918
  8
0
 62
     9
 10
0.0
 20
0.0
 30
0.0
 70
   128
 71
    14
 72
    13
 73
    12
  0
VERTEX
  5
919
  8
0
 62
     9
 10
0.0
 20
0.0
 30
0.0
 70
   128
 71
    14
 72
    16
 73
    15
  0
VERTEX
  5
91A
  8
0
 62
     9
 10
0.0
 20
0.0
 30
0.0
 70
   128
 71
    17
 72
    15
 73
    16
  0
VERTEX
  5
91B
  8
0
 62
     9
 10
0.0
 20
0.0
 30
0.0
 70
   128
 71
    16
 72
    18
 73
    17
  0
VERTEX
  5
91C
  8
0
 62
     9
 10
0.0
 20
0.0
 30
0.0
 70
   128
 71
     3
 72
    20
 73
    19
  0
VERTEX
  5
91D
  8
0
 62
     9
 10
0.0
 20
0.0
 30
0.0
 70
   128
 71
    19
 72
    18
 73
     3
  0
VERTEX
  5
91E
  8
0
 62
     9
 10
0.0
 20
0.0
 30
0.0
 70
   128
 71
    18
 72
    19
 73
    17
  0
VERTEX
  5
91F
  8
0
 62
     9
 10
0.0
 20
0.0
 30
0.0
 70
   128
 71
    15
 72
    13
 73
    14
  0
VERTEX
  5
920
  8
0
 62
     9
 10
0.0
 20
0.0
 30
0.0
 70
   128
 71
    12
 72
    11
 73
    14
  0
VERTEX
  5
921
  8
0
 62
     9
 10
0.0
 20
0.0
 30
0.0
 70
   128
 71
    11
 72
    12
 73
    10
  0
VERTEX
  5
922
  8
0
 62
     9
 10
0.0
 20
0.0
 30
0.0
 70
   128
 71
     6
 72
     7
 73
     9
  0
VERTEX
  5
923
  8
0
 62
     9
 10
0.0
 20
0.0
 30
0.0
 70
   128
 71
     6
 72
    21
 73
     4
  0
VERTEX
  5
924
  8
0
 62
     9
 10
0.0
 20
0.0
 30
0.0
 70
   128
 71
     4
 72
    21
 73
     5
  0
VERTEX
  5
925
  8
0
 62
     9
 10
0.0
 20
0.0
 30
0.0
 70
   128
 71
     1
 72
    20
 73
     3
  0
SEQEND
  5
926
  8
0
 62
     9
  0
ENDBLK
  5
929
  8
0
  0
BLOCK
  8
0
  2
E3_NODE_26_
 70
     0
 10
0.0
 20
0.0
 30
0.0
  3
E3_NODE_26_
  1

  0
POLYLINE
  5
92B
  8
0
 62
     9
 66
     1
 10
0.0
 20
0.0
 30
0.0
 70
    64
 71
     9
 72
     7
  0
VERTEX
  5
92C
  8
0
 10
223.2579956054688
 20
-45.0
 30
198.072998046875
 70
   192
  0
VERTEX
  5
92D
  8
0
 10
229.9049987792969
 20
-47.45700073242188
 30
199.2449951171875
 70
   192
  0
VERTEX
  5
92E
  8
0
 10
233.4409942626953
 20
-53.67699813842773
 30
199.8679962158203
 70
   192
  0
VERTEX
  5
92F
  8
0
 10
219.7209930419922
 20
-65.36699676513672
 30
197.4490051269531
 70
   192
  0
VERTEX
  5
930
  8
0
 10
214.3029937744141
 20
-60.75
 30
196.4940032958984
 70
   192
  0
VERTEX
  5
931
  8
0
 10
213.0740051269531
 20
-53.67699813842773
 30
196.2769927978516
 70
   192
  0
VERTEX
  5
932
  8
0
 10
216.6109924316406
 20
-47.45700073242188
 30
196.9010009765625
 70
   192
  0
VERTEX
  5
933
  8
0
 10
232.2129974365234
 20
-60.75
 30
199.6519927978516
 70
   192
  0
VERTEX
  5
934
  8
0
 10
226.7949981689453
 20
-65.36699676513672
 30
198.6959991455078
 70
   192
  0
VERTEX
  5
935
  8
0
 62
     9
 10
0.0
 20
0.0
 30
0.0
 70
   128
 71
     3
 72
     2
 73
     1
  0
VERTEX
  5
936
  8
0
 62
     9
 10
0.0
 20
0.0
 30
0.0
 70
   128
 71
     6
 72
     5
 73
     4
  0
VERTEX
  5
937
  8
0
 62
     9
 10
0.0
 20
0.0
 30
0.0
 70
   128
 71
     9
 72
     8
 73
     7
  0
VERTEX
  5
938
  8
0
 62
     9
 10
0.0
 20
0.0
 30
0.0
 70
   128
 71
     1
 72
     7
 73
     8
  0
VERTEX
  5
939
  8
0
 62
     9
 10
0.0
 20
0.0
 30
0.0
 70
   128
 71
     7
 72
     4
 73
     9
  0
VERTEX
  5
93A
  8
0
 62
     9
 10
0.0
 20
0.0
 30
0.0
 70
   128
 71
     4
 72
     7
 73
     6
  0
VERTEX
  5
93B
  8
0
 62
     9
 10
0.0
 20
0.0
 30
0.0
 70
   128
 71
     1
 72
     8
 73
     3
  0
SEQEND
  5
93C
  8
0
 62
     9
  0
ENDBLK
  5
93F
  8
0
  0
BLOCK
  8
0
  2
E3_NODE_27_
 70
     0
 10
0.0
 20
0.0
 30
0.0
  3
E3_NODE_27_
  1

  0
POLYLINE
  5
941
  8
0
 62
     9
 66
     1
 10
0.0
 20
0.0
 30
0.0
 70
    64
 71
     9
 72
     7
  0
VERTEX
  5
942
  8
0
 10
22.08399963378906
 20
12.75
 30
50.0
 70
   192
  0
VERTEX
  5
943
  8
0
 10
16.39100074768066
 20
-19.53400039672852
 30
50.0
 70
   192
  0
VERTEX
  5
944
  8
0
 10
0.0
 20
-25.5
 30
50.0
 70
   192
  0
VERTEX
  5
945
  8
0
 10
-22.08399963378906
 20
12.75
 30
50.0
 70
   192
  0
VERTEX
  5
946
  8
0
 10
-8.722000122070312
 20
23.96199989318848
 30
50.0
 70
   192
  0
VERTEX
  5
947
  8
0
 10
-16.39100074768066
 20
-19.53400039672852
 30
50.0
 70
   192
  0
VERTEX
  5
948
  8
0
 10
-25.11300086975098
 20
-4.427999973297119
 30
50.0
 70
   192
  0
VERTEX
  5
949
  8
0
 10
25.11300086975098
 20
-4.427999973297119
 30
50.0
 70
   192
  0
VERTEX
  5
94A
  8
0
 10
8.722000122070312
 20
23.96199989318848
 30
50.0
 70
   192
  0
VERTEX
  5
94B
  8
0
 62
     9
 10
0.0
 20
0.0
 30
0.0
 70
   128
 71
     3
 72
     2
 73
     1
  0
VERTEX
  5
94C
  8
0
 62
     9
 10
0.0
 20
0.0
 30
0.0
 70
   128
 71
     5
 72
     4
 73
     1
  0
VERTEX
  5
94D
  8
0
 62
     9
 10
0.0
 20
0.0
 30
0.0
 70
   128
 71
     7
 72
     6
 73
     1
  0
VERTEX
  5
94E
  8
0
 62
     9
 10
0.0
 20
0.0
 30
0.0
 70
   128
 71
     2
 72
     8
 73
     1
  0
VERTEX
  5
94F
  8
0
 62
     9
 10
0.0
 20
0.0
 30
0.0
 70
   128
 71
     1
 72
     4
 73
     7
  0
VERTEX
  5
950
  8
0
 62
     9
 10
0.0
 20
0.0
 30
0.0
 70
   128
 71
     1
 72
     9
 73
     5
  0
VERTEX
  5
951
  8
0
 62
     9
 10
0.0
 20
0.0
 30
0.0
 70
   128
 71
     1
 72
     6
 73
     3
  0
SEQEND
  5
952
  8
0
 62
     9
  0
ENDBLK
  5
955
  8
0
  0
BLOCK
  8
0
  2
E3_NODE_28_
 70
     0
 10
0.0
 20
0.0
 30
0.0
  3
E3_NODE_28_
  1

  0
POLYLINE
  5
957
  8
0
 62
     9
 66
     1
 10
0.0
 20
0.0
 30
0.0
 70
    64
 71
    18
 72
    18
  0
VERTEX
  5
958
  8
0
 10
0.0
 20
-26.0
 30
50.5
 70
   192
  0
VERTEX
  5
959
  8
0
 10
0.0
 20
-25.5
 30
50.0
 70
   192
  0
VERTEX
  5
95A
  8
0
 10
16.39100074768066
 20
-19.53400039672852
 30
50.0
 70
   192
  0
VERTEX
  5
95B
  8
0
 10
25.60499954223633
 20
-4.514999866485596
 30
50.5
 70
   192
  0
VERTEX
  5
95C
  8
0
 10
16.71199989318848
 20
-19.91699981689453
 30
50.5
 70
   192
  0
VERTEX
  5
95D
  8
0
 10
22.51700019836426
 20
13.0
 30
50.5
 70
   192
  0
VERTEX
  5
95E
  8
0
 10
25.11300086975098
 20
-4.427999973297119
 30
50.0
 70
   192
  0
VERTEX
  5
95F
  8
0
 10
22.08399963378906
 20
12.75
 30
50.0
 70
   192
  0
VERTEX
  5
960
  8
0
 10
8.722000122070312
 20
23.96199989318848
 30
50.0
 70
   192
  0
VERTEX
  5
961
  8
0
 10
-8.892999649047852
 20
24.43199920654297
 30
50.5
 70
   192
  0
VERTEX
  5
962
  8
0
 10
8.892999649047852
 20
24.43199920654297
 30
50.5
 70
   192
  0
VERTEX
  5
963
  8
0
 10
-8.722000122070312
 20
23.96199989318848
 30
50.0
 70
   192
  0
VERTEX
  5
964
  8
0
 10
-22.08399963378906
 20
12.75
 30
50.0
 70
   192
  0
VERTEX
  5
965
  8
0
 10
-22.51700019836426
 20
13.0
 30
50.5
 70
   192
  0
VERTEX
  5
966
  8
0
 10
-25.11300086975098
 20
-4.427999973297119
 30
50.0
 70
   192
  0
VERTEX
  5
967
  8
0
 10
-16.71199989318848
 20
-19.91699981689453
 30
50.5
 70
   192
  0
VERTEX
  5
968
  8
0
 10
-25.60499954223633
 20
-4.514999866485596
 30
50.5
 70
   192
  0
VERTEX
  5
969
  8
0
 10
-16.39100074768066
 20
-19.53400039672852
 30
50.0
 70
   192
  0
VERTEX
  5
96A
  8
0
 62
     9
 10
0.0
 20
0.0
 30
0.0
 70
   128
 71
     3
 72
     2
 73
     1
  0
VERTEX
  5
96B
  8
0
 62
     9
 10
0.0
 20
0.0
 30
0.0
 70
   128
 71
     3
 72
     5
 73
     4
  0
VERTEX
  5
96C
  8
0
 62
     9
 10
0.0
 20
0.0
 30
0.0
 70
   128
 71
     7
 72
     4
 73
     6
  0
VERTEX
  5
96D
  8
0
 62
     9
 10
0.0
 20
0.0
 30
0.0
 70
   128
 71
     9
 72
     8
 73
     6
  0
VERTEX
  5
96E
  8
0
 62
     9
 10
0.0
 20
0.0
 30
0.0
 70
   128
 71
     9
 72
    11
 73
    10
  0
VERTEX
  5
96F
  8
0
 62
     9
 10
0.0
 20
0.0
 30
0.0
 70
   128
 71
    13
 72
    12
 73
    10
  0
VERTEX
  5
970
  8
0
 62
     9
 10
0.0
 20
0.0
 30
0.0
 70
   128
 71
    15
 72
    13
 73
    14
  0
VERTEX
  5
971
  8
0
 62
     9
 10
0.0
 20
0.0
 30
0.0
 70
   128
 71
    15
 72
    17
 73
    16
  0
VERTEX
  5
972
  8
0
 62
     9
 10
0.0
 20
0.0
 30
0.0
 70
   128
 71
    18
 72
    16
 73
     1
  0
VERTEX
  5
973
  8
0
 62
     9
 10
0.0
 20
0.0
 30
0.0
 70
   128
 71
     1
 72
     2
 73
    18
  0
VERTEX
  5
974
  8
0
 62
     9
 10
0.0
 20
0.0
 30
0.0
 70
   128
 71
    16
 72
    18
 73
    15
  0
VERTEX
  5
975
  8
0
 62
     9
 10
0.0
 20
0.0
 30
0.0
 70
   128
 71
    14
 72
    17
 73
    15
  0
VERTEX
  5
976
  8
0
 62
     9
 10
0.0
 20
0.0
 30
0.0
 70
   128
 71
    10
 72
    14
 73
    13
  0
VERTEX
  5
977
  8
0
 62
     9
 10
0.0
 20
0.0
 30
0.0
 70
   128
 71
    10
 72
    12
 73
     9
  0
VERTEX
  5
978
  8
0
 62
     9
 10
0.0
 20
0.0
 30
0.0
 70
   128
 71
     6
 72
    11
 73
     9
  0
VERTEX
  5
979
  8
0
 62
     9
 10
0.0
 20
0.0
 30
0.0
 70
   128
 71
     6
 72
     8
 73
     7
  0
VERTEX
  5
97A
  8
0
 62
     9
 10
0.0
 20
0.0
 30
0.0
 70
   128
 71
     4
 72
     7
 73
     3
  0
VERTEX
  5
97B
  8
0
 62
     9
 10
0.0
 20
0.0
 30
0.0
 70
   128
 71
     1
 72
     5
 73
     3
  0
SEQEND
  5
97C
  8
0
 62
     9
  0
ENDBLK
  5
97F
  8
0
  0
BLOCK
  8
0
  2
E3_NODE_29_
 70
     0
 10
0.0
 20
0.0
 30
0.0
  3
E3_NODE_29_
  1

  0
POLYLINE
  5
981
  8
0
 62
     9
 66
     1
 10
0.0
 20
0.0
 30
0.0
 70
    64
 71
    30
 72
    30
  0
VERTEX
  5
982
  8
0
 10
0.0
 20
-26.0
 30
50.5
 70
   192
  0
VERTEX
  5
983
  8
0
 10
16.71199989318848
 20
-19.91699981689453
 30
50.5
 70
   192
  0
VERTEX
  5
984
  8
0
 10
12.08300018310547
 20
-23.02199935913086
 30
84.0999984741211
 70
   192
  0
VERTEX
  5
985
  8
0
 10
16.2180004119873
 20
-19.35899925231934
 30
84.0999984741211
 70
   192
  0
VERTEX
  5
986
  8
0
 10
25.60499954223633
 20
-4.514999866485596
 30
50.5
 70
   192
  0
VERTEX
  5
987
  8
0
 10
25.32699966430664
 20
-4.408999919891357
 30
84.0999984741211
 70
   192
  0
VERTEX
  5
988
  8
0
 10
21.39800071716309
 20
-14.77000045776367
 30
84.0999984741211
 70
   192
  0
VERTEX
  5
989
  8
0
 10
22.51700019836426
 20
13.0
 30
50.5
 70
   192
  0
VERTEX
  5
98A
  8
0
 10
24.30999946594238
 20
9.220000267028809
 30
84.0999984741211
 70
   192
  0
VERTEX
  5
98B
  8
0
 10
25.80999946594238
 20
-3.134000062942505
 30
84.0999984741211
 70
   192
  0
VERTEX
  5
98C
  8
0
 10
21.9640007019043
 20
12.61900043487549
 30
84.0999984741211
 70
   192
  0
VERTEX
  5
98D
  8
0
 10
8.892999649047852
 20
24.43199920654297
 30
50.5
 70
   192
  0
VERTEX
  5
98E
  8
0
 10
8.649999618530273
 20
23.96999931335449
 30
84.0999984741211
 70
   192
  0
VERTEX
  5
98F
  8
0
 10
17.24099922180176
 20
19.46100044250488
 30
84.0999984741211
 70
   192
  0
VERTEX
  5
990
  8
0
 10
-8.892999649047852
 20
24.43199920654297
 30
50.5
 70
   192
  0
VERTEX
  5
991
  8
0
 10
-6.222000122070312
 20
25.24399948120117
 30
84.0999984741211
 70
   192
  0
VERTEX
  5
992
  8
0
 10
6.222000122070312
 20
25.24399948120117
 30
84.0999984741211
 70
   192
  0
VERTEX
  5
993
  8
0
 10
-8.649999618530273
 20
23.96999931335449
 30
84.0999984741211
 70
   192
  0
VERTEX
  5
994
  8
0
 10
-22.51700019836426
 20
13.0
 30
50.5
 70
   192
  0
VERTEX
  5
995
  8
0
 10
-17.24099922180176
 20
19.46100044250488
 30
84.0999984741211
 70
   192
  0
VERTEX
  5
996
  8
0
 10
-21.9640007019043
 20
12.61900043487549
 30
84.0999984741211
 70
   192
  0
VERTEX
  5
997
  8
0
 10
-25.60499954223633
 20
-4.514999866485596
 30
50.5
 70
   192
  0
VERTEX
  5
998
  8
0
 10
-25.80999946594238
 20
-3.134000062942505
 30
84.0999984741211
 70
   192
  0
VERTEX
  5
999
  8
0
 10
-24.30999946594238
 20
9.220000267028809
 30
84.0999984741211
 70
   192
  0
VERTEX
  5
99A
  8
0
 10
-25.32699966430664
 20
-4.408999919891357
 30
84.0999984741211
 70
   192
  0
VERTEX
  5
99B
  8
0
 10
-16.71199989318848
 20
-19.91699981689453
 30
50.5
 70
   192
  0
VERTEX
  5
99C
  8
0
 10
-21.39800071716309
 20
-14.77000045776367
 30
84.0999984741211
 70
   192
  0
VERTEX
  5
99D
  8
0
 10
-16.2180004119873
 20
-19.35899925231934
 30
84.0999984741211
 70
   192
  0
VERTEX
  5
99E
  8
0
 10
0.0
 20
-26.0
 30
84.0999984741211
 70
   192
  0
VERTEX
  5
99F
  8
0
 10
-12.08300018310547
 20
-23.02199935913086
 30
84.0999984741211
 70
   192
  0
VERTEX
  5
9A0
  8
0
 62
     9
 10
0.0
 20
0.0
 30
0.0
 70
   128
 71
     3
 72
     2
 73
     1
  0
VERTEX
  5
9A1
  8
0
 62
     9
 10
0.0
 20
0.0
 30
0.0
 70
   128
 71
     3
 72
     4
 73
     2
  0
VERTEX
  5
9A2
  8
0
 62
     9
 10
0.0
 20
0.0
 30
0.0
 70
   128
 71
     7
 72
     6
 73
     5
  0
VERTEX
  5
9A3
  8
0
 62
     9
 10
0.0
 20
0.0
 30
0.0
 70
   128
 71
     5
 72
     2
 73
     7
  0
VERTEX
  5
9A4
  8
0
 62
     9
 10
0.0
 20
0.0
 30
0.0
 70
   128
 71
     9
 72
     8
 73
     5
  0
VERTEX
  5
9A5
  8
0
 62
     9
 10
0.0
 20
0.0
 30
0.0
 70
   128
 71
     5
 72
    10
 73
     9
  0
VERTEX
  5
9A6
  8
0
 62
     9
 10
0.0
 20
0.0
 30
0.0
 70
   128
 71
     9
 72
    11
 73
     8
  0
VERTEX
  5
9A7
  8
0
 62
     9
 10
0.0
 20
0.0
 30
0.0
 70
   128
 71
    14
 72
    13
 73
    12
  0
VERTEX
  5
9A8
  8
0
 62
     9
 10
0.0
 20
0.0
 30
0.0
 70
   128
 71
    12
 72
     8
 73
    14
  0
VERTEX
  5
9A9
  8
0
 62
     9
 10
0.0
 20
0.0
 30
0.0
 70
   128
 71
    16
 72
    15
 73
    12
  0
VERTEX
  5
9AA
  8
0
 62
     9
 10
0.0
 20
0.0
 30
0.0
 70
   128
 71
    12
 72
    17
 73
    16
  0
VERTEX
  5
9AB
  8
0
 62
     9
 10
0.0
 20
0.0
 30
0.0
 70
   128
 71
    16
 72
    18
 73
    15
  0
VERTEX
  5
9AC
  8
0
 62
     9
 10
0.0
 20
0.0
 30
0.0
 70
   128
 71
    20
 72
    19
 73
    15
  0
VERTEX
  5
9AD
  8
0
 62
     9
 10
0.0
 20
0.0
 30
0.0
 70
   128
 71
    20
 72
    21
 73
    19
  0
VERTEX
  5
9AE
  8
0
 62
     9
 10
0.0
 20
0.0
 30
0.0
 70
   128
 71
    24
 72
    23
 73
    22
  0
VERTEX
  5
9AF
  8
0
 62
     9
 10
0.0
 20
0.0
 30
0.0
 70
   128
 71
    22
 72
    19
 73
    24
  0
VERTEX
  5
9B0
  8
0
 62
     9
 10
0.0
 20
0.0
 30
0.0
 70
   128
 71
    23
 72
    25
 73
    22
  0
VERTEX
  5
9B1
  8
0
 62
     9
 10
0.0
 20
0.0
 30
0.0
 70
   128
 71
    27
 72
    26
 73
    22
  0
VERTEX
  5
9B2
  8
0
 62
     9
 10
0.0
 20
0.0
 30
0.0
 70
   128
 71
    27
 72
    28
 73
    26
  0
VERTEX
  5
9B3
  8
0
 62
     9
 10
0.0
 20
0.0
 30
0.0
 70
   128
 71
    30
 72
    29
 73
     1
  0
VERTEX
  5
9B4
  8
0
 62
     9
 10
0.0
 20
0.0
 30
0.0
 70
   128
 71
     1
 72
    26
 73
    30
  0
VERTEX
  5
9B5
  8
0
 62
     9
 10
0.0
 20
0.0
 30
0.0
 70
   128
 71
    26
 72
    28
 73
    30
  0
VERTEX
  5
9B6
  8
0
 62
     9
 10
0.0
 20
0.0
 30
0.0
 70
   128
 71
    22
 72
    25
 73
    27
  0
VERTEX
  5
9B7
  8
0
 62
     9
 10
0.0
 20
0.0
 30
0.0
 70
   128
 71
    19
 72
    21
 73
    24
  0
VERTEX
  5
9B8
  8
0
 62
     9
 10
0.0
 20
0.0
 30
0.0
 70
   128
 71
    15
 72
    18
 73
    20
  0
VERTEX
  5
9B9
  8
0
 62
     9
 10
0.0
 20
0.0
 30
0.0
 70
   128
 71
    12
 72
    13
 73
    17
  0
VERTEX
  5
9BA
  8
0
 62
     9
 10
0.0
 20
0.0
 30
0.0
 70
   128
 71
     8
 72
    11
 73
    14
  0
VERTEX
  5
9BB
  8
0
 62
     9
 10
0.0
 20
0.0
 30
0.0
 70
   128
 71
     5
 72
     6
 73
    10
  0
VERTEX
  5
9BC
  8
0
 62
     9
 10
0.0
 20
0.0
 30
0.0
 70
   128
 71
     2
 72
     4
 73
     7
  0
VERTEX
  5
9BD
  8
0
 62
     9
 10
0.0
 20
0.0
 30
0.0
 70
   128
 71
     1
 72
    29
 73
     3
  0
SEQEND
  5
9BE
  8
0
 62
     9
  0
ENDBLK
  5
9C1
  8
0
  0
BLOCK
  8
0
  2
E3_NODE_30_
 70
     0
 10
0.0
 20
0.0
 30
0.0
  3
E3_NODE_30_
  1

  0
POLYLINE
  5
9C3
  8
0
 62
     9
 66
     1
 10
0.0
 20
0.0
 30
0.0
 70
    64
 71
    47
 72
    60
  0
VERTEX
  5
9C4
  8
0
 10
0.0
 20
-26.0
 30
84.0999984741211
 70
   192
  0
VERTEX
  5
9C5
  8
0
 10
12.08300018310547
 20
-23.02199935913086
 30
84.0999984741211
 70
   192
  0
VERTEX
  5
9C6
  8
0
 10
10.92199993133545
 20
-20.81100082397461
 30
95.21800231933594
 70
   192
  0
VERTEX
  5
9C7
  8
0
 10
19.3430004119873
 20
-13.35099983215332
 30
95.21800231933594
 70
   192
  0
VERTEX
  5
9C8
  8
0
 10
16.2180004119873
 20
-19.35899925231934
 30
84.0999984741211
 70
   192
  0
VERTEX
  5
9C9
  8
0
 10
21.39800071716309
 20
-14.77000045776367
 30
84.0999984741211
 70
   192
  0
VERTEX
  5
9CA
  8
0
 10
25.32699966430664
 20
-4.408999919891357
 30
84.0999984741211
 70
   192
  0
VERTEX
  5
9CB
  8
0
 10
23.33200073242188
 20
-2.83299994468689
 30
95.21800231933594
 70
   192
  0
VERTEX
  5
9CC
  8
0
 10
24.30999946594238
 20
9.220000267028809
 30
84.0999984741211
 70
   192
  0
VERTEX
  5
9CD
  8
0
 10
21.97599983215332
 20
8.333999633789062
 30
95.21800231933594
 70
   192
  0
VERTEX
  5
9CE
  8
0
 10
15.58500003814697
 20
17.59199905395508
 30
95.21800231933594
 70
   192
  0
VERTEX
  5
9CF
  8
0
 10
21.9640007019043
 20
12.61900043487549
 30
84.0999984741211
 70
   192
  0
VERTEX
  5
9D0
  8
0
 10
17.24099922180176
 20
19.46100044250488
 30
84.0999984741211
 70
   192
  0
VERTEX
  5
9D1
  8
0
 10
8.649999618530273
 20
23.96999931335449
 30
84.0999984741211
 70
   192
  0
VERTEX
  5
9D2
  8
0
 10
5.625
 20
22.81999969482422
 30
95.21800231933594
 70
   192
  0
VERTEX
  5
9D3
  8
0
 10
6.222000122070312
 20
25.24399948120117
 30
84.0999984741211
 70
   192
  0
VERTEX
  5
9D4
  8
0
 10
-6.222000122070312
 20
25.24399948120117
 30
84.0999984741211
 70
   192
  0
VERTEX
  5
9D5
  8
0
 10
-5.625
 20
22.81999969482422
 30
95.21800231933594
 70
   192
  0
VERTEX
  5
9D6
  8
0
 10
-15.58500003814697
 20
17.59199905395508
 30
95.21800231933594
 70
   192
  0
VERTEX
  5
9D7
  8
0
 10
-8.649999618530273
 20
23.96999931335449
 30
84.0999984741211
 70
   192
  0
VERTEX
  5
9D8
  8
0
 10
-17.24099922180176
 20
19.46100044250488
 30
84.0999984741211
 70
   192
  0
VERTEX
  5
9D9
  8
0
 10
-21.9640007019043
 20
12.61900043487549
 30
84.0999984741211
 70
   192
  0
VERTEX
  5
9DA
  8
0
 10
-21.97599983215332
 20
8.333999633789062
 30
95.21800231933594
 70
   192
  0
VERTEX
  5
9DB
  8
0
 10
-24.30999946594238
 20
9.220000267028809
 30
84.0999984741211
 70
   192
  0
VERTEX
  5
9DC
  8
0
 10
-25.80999946594238
 20
-3.134000062942505
 30
84.0999984741211
 70
   192
  0
VERTEX
  5
9DD
  8
0
 10
-23.33200073242188
 20
-2.83299994468689
 30
95.21800231933594
 70
   192
  0
VERTEX
  5
9DE
  8
0
 10
-19.3430004119873
 20
-13.35099983215332
 30
95.21800231933594
 70
   192
  0
VERTEX
  5
9DF
  8
0
 10
-25.32699966430664
 20
-4.408999919891357
 30
84.0999984741211
 70
   192
  0
VERTEX
  5
9E0
  8
0
 10
-21.39800071716309
 20
-14.77000045776367
 30
84.0999984741211
 70
   192
  0
VERTEX
  5
9E1
  8
0
 10
-16.2180004119873
 20
-19.35899925231934
 30
84.0999984741211
 70
   192
  0
VERTEX
  5
9E2
  8
0
 10
-10.92199993133545
 20
-20.81100082397461
 30
95.21800231933594
 70
   192
  0
VERTEX
  5
9E3
  8
0
 10
0.0
 20
-23.50300025939941
 30
95.21800231933594
 70
   192
  0
VERTEX
  5
9E4
  8
0
 10
7.664000034332275
 20
-14.60299968719482
 30
104.1999969482422
 70
   192
  0
VERTEX
  5
9E5
  8
0
 10
13.57299995422363
 20
-9.369000434875488
 30
104.1999969482422
 70
   192
  0
VERTEX
  5
9E6
  8
0
 10
16.37199974060059
 20
-1.98800003528595
 30
104.1999969482422
 70
   192
  0
VERTEX
  5
9E7
  8
0
 10
15.42000007629395
 20
5.848000049591064
 30
104.1999969482422
 70
   192
  0
VERTEX
  5
9E8
  8
0
 10
10.93599987030029
 20
12.34500026702881
 30
104.1999969482422
 70
   192
  0
VERTEX
  5
9E9
  8
0
 10
3.947000026702881
 20
16.01300048828125
 30
104.1999969482422
 70
   192
  0
VERTEX
  5
9EA
  8
0
 10
-3.947000026702881
 20
16.01300048828125
 30
104.1999969482422
 70
   192
  0
VERTEX
  5
9EB
  8
0
 10
-10.93599987030029
 20
12.34500026702881
 30
104.1999969482422
 70
   192
  0
VERTEX
  5
9EC
  8
0
 10
-15.42000007629395
 20
5.848000049591064
 30
104.1999969482422
 70
   192
  0
VERTEX
  5
9ED
  8
0
 10
-16.37199974060059
 20
-1.98800003528595
 30
104.1999969482422
 70
   192
  0
VERTEX
  5
9EE
  8
0
 10
-13.57299995422363
 20
-9.369000434875488
 30
104.1999969482422
 70
   192
  0
VERTEX
  5
9EF
  8
0
 10
-7.664000034332275
 20
-14.60299968719482
 30
104.1999969482422
 70
   192
  0
VERTEX
  5
9F0
  8
0
 10
0.0
 20
-16.49200057983398
 30
104.1999969482422
 70
   192
  0
VERTEX
  5
9F1
  8
0
 10
-12.08300018310547
 20
-23.02199935913086
 30
84.0999984741211
 70
   192
  0
VERTEX
  5
9F2
  8
0
 10
25.80999946594238
 20
-3.134000062942505
 30
84.0999984741211
 70
   192
  0
VERTEX
  5
9F3
  8
0
 62
     9
 10
0.0
 20
0.0
 30
0.0
 70
   128
 71
     3
 72
     2
 73
     1
  0
VERTEX
  5
9F4
  8
0
 62
     9
 10
0.0
 20
0.0
 30
0.0
 70
   128
 71
     5
 72
     3
 73
     4
  0
VERTEX
  5
9F5
  8
0
 62
     9
 10
0.0
 20
0.0
 30
0.0
 70
   128
 71
     5
 72
     2
 73
     3
  0
VERTEX
  5
9F6
  8
0
 62
     9
 10
0.0
 20
0.0
 30
0.0
 70
   128
 71
     7
 72
     6
 73
     4
  0
VERTEX
  5
9F7
  8
0
 62
     9
 10
0.0
 20
0.0
 30
0.0
 70
   128
 71
     4
 72
     8
 73
     7
  0
VERTEX
  5
9F8
  8
0
 62
     9
 10
0.0
 20
0.0
 30
0.0
 70
   128
 71
     8
 72
    10
 73
     9
  0
VERTEX
  5
9F9
  8
0
 62
     9
 10
0.0
 20
0.0
 30
0.0
 70
   128
 71
    12
 72
    10
 73
    11
  0
VERTEX
  5
9FA
  8
0
 62
     9
 10
0.0
 20
0.0
 30
0.0
 70
   128
 71
    12
 72
     9
 73
    10
  0
VERTEX
  5
9FB
  8
0
 62
     9
 10
0.0
 20
0.0
 30
0.0
 70
   128
 71
    14
 72
    13
 73
    11
  0
VERTEX
  5
9FC
  8
0
 62
     9
 10
0.0
 20
0.0
 30
0.0
 70
   128
 71
    11
 72
    15
 73
    14
  0
VERTEX
  5
9FD
  8
0
 62
     9
 10
0.0
 20
0.0
 30
0.0
 70
   128
 71
    18
 72
    17
 73
    16
  0
VERTEX
  5
9FE
  8
0
 62
     9
 10
0.0
 20
0.0
 30
0.0
 70
   128
 71
    20
 72
    18
 73
    19
  0
VERTEX
  5
9FF
  8
0
 62
     9
 10
0.0
 20
0.0
 30
0.0
 70
   128
 71
    20
 72
    17
 73
    18
  0
VERTEX
  5
A00
  8
0
 62
     9
 10
0.0
 20
0.0
 30
0.0
 70
   128
 71
    22
 72
    21
 73
    19
  0
VERTEX
  5
A01
  8
0
 62
     9
 10
0.0
 20
0.0
 30
0.0
 70
   128
 71
    19
 72
    23
 73
    22
  0
VERTEX
  5
A02
  8
0
 62
     9
 10
0.0
 20
0.0
 30
0.0
 70
   128
 71
    26
 72
    25
 73
    24
  0
VERTEX
  5
A03
  8
0
 62
     9
 10
0.0
 20
0.0
 30
0.0
 70
   128
 71
    28
 72
    26
 73
    27
  0
VERTEX
  5
A04
  8
0
 62
     9
 10
0.0
 20
0.0
 30
0.0
 70
   128
 71
    28
 72
    25
 73
    26
  0
VERTEX
  5
A05
  8
0
 62
     9
 10
0.0
 20
0.0
 30
0.0
 70
   128
 71
    30
 72
    29
 73
    27
  0
VERTEX
  5
A06
  8
0
 62
     9
 10
0.0
 20
0.0
 30
0.0
 70
   128
 71
    27
 72
    31
 73
    30
  0
VERTEX
  5
A07
  8
0
 62
     9
 10
0.0
 20
0.0
 30
0.0
 70
   128
 71
    31
 72
    32
 73
     1
  0
VERTEX
  5
A08
  8
0
 62
     9
 10
0.0
 20
0.0
 30
0.0
 70
   128
 71
    33
 72
     3
 73
    32
  0
VERTEX
  5
A09
  8
0
 62
     9
 10
0.0
 20
0.0
 30
0.0
 70
   128
 71
    34
 72
     4
 73
     3
  0
VERTEX
  5
A0A
  8
0
 62
     9
 10
0.0
 20
0.0
 30
0.0
 70
   128
 71
    35
 72
     8
 73
     4
  0
VERTEX
  5
A0B
  8
0
 62
     9
 10
0.0
 20
0.0
 30
0.0
 70
   128
 71
    36
 72
    10
 73
     8
  0
VERTEX
  5
A0C
  8
0
 62
     9
 10
0.0
 20
0.0
 30
0.0
 70
   128
 71
    37
 72
    11
 73
    10
  0
VERTEX
  5
A0D
  8
0
 62
     9
 10
0.0
 20
0.0
 30
0.0
 70
   128
 71
    38
 72
    15
 73
    11
  0
VERTEX
  5
A0E
  8
0
 62
     9
 10
0.0
 20
0.0
 30
0.0
 70
   128
 71
    39
 72
    18
 73
    15
  0
VERTEX
  5
A0F
  8
0
 62
     9
 10
0.0
 20
0.0
 30
0.0
 70
   128
 71
    40
 72
    19
 73
    18
  0
VERTEX
  5
A10
  8
0
 62
     9
 10
0.0
 20
0.0
 30
0.0
 70
   128
 71
    41
 72
    23
 73
    19
  0
VERTEX
  5
A11
  8
0
 62
     9
 10
0.0
 20
0.0
 30
0.0
 70
   128
 71
    42
 72
    26
 73
    23
  0
VERTEX
  5
A12
  8
0
 62
     9
 10
0.0
 20
0.0
 30
0.0
 70
   128
 71
    43
 72
    27
 73
    26
  0
VERTEX
  5
A13
  8
0
 62
     9
 10
0.0
 20
0.0
 30
0.0
 70
   128
 71
    44
 72
    31
 73
    27
  0
VERTEX
  5
A14
  8
0
 62
     9
 10
0.0
 20
0.0
 30
0.0
 70
   128
 71
    44
 72
    45
 73
    32
  0
VERTEX
  5
A15
  8
0
 62
     9
 10
0.0
 20
0.0
 30
0.0
 70
   128
 71
    32
 72
    31
 73
    44
  0
VERTEX
  5
A16
  8
0
 62
     9
 10
0.0
 20
0.0
 30
0.0
 70
   128
 71
    27
 72
    43
 73
    44
  0
VERTEX
  5
A17
  8
0
 62
     9
 10
0.0
 20
0.0
 30
0.0
 70
   128
 71
    26
 72
    42
 73
    43
  0
VERTEX
  5
A18
  8
0
 62
     9
 10
0.0
 20
0.0
 30
0.0
 70
   128
 71
    23
 72
    41
 73
    42
  0
VERTEX
  5
A19
  8
0
 62
     9
 10
0.0
 20
0.0
 30
0.0
 70
   128
 71
    19
 72
    40
 73
    41
  0
VERTEX
  5
A1A
  8
0
 62
     9
 10
0.0
 20
0.0
 30
0.0
 70
   128
 71
    18
 72
    39
 73
    40
  0
VERTEX
  5
A1B
  8
0
 62
     9
 10
0.0
 20
0.0
 30
0.0
 70
   128
 71
    15
 72
    38
 73
    39
  0
VERTEX
  5
A1C
  8
0
 62
     9
 10
0.0
 20
0.0
 30
0.0
 70
   128
 71
    11
 72
    37
 73
    38
  0
VERTEX
  5
A1D
  8
0
 62
     9
 10
0.0
 20
0.0
 30
0.0
 70
   128
 71
    10
 72
    36
 73
    37
  0
VERTEX
  5
A1E
  8
0
 62
     9
 10
0.0
 20
0.0
 30
0.0
 70
   128
 71
     8
 72
    35
 73
    36
  0
VERTEX
  5
A1F
  8
0
 62
     9
 10
0.0
 20
0.0
 30
0.0
 70
   128
 71
     4
 72
    34
 73
    35
  0
VERTEX
  5
A20
  8
0
 62
     9
 10
0.0
 20
0.0
 30
0.0
 70
   128
 71
     3
 72
    33
 73
    34
  0
VERTEX
  5
A21
  8
0
 62
     9
 10
0.0
 20
0.0
 30
0.0
 70
   128
 71
    32
 72
    45
 73
    33
  0
VERTEX
  5
A22
  8
0
 62
     9
 10
0.0
 20
0.0
 30
0.0
 70
   128
 71
     1
 72
    46
 73
    31
  0
VERTEX
  5
A23
  8
0
 62
     9
 10
0.0
 20
0.0
 30
0.0
 70
   128
 71
    31
 72
    46
 73
    30
  0
VERTEX
  5
A24
  8
0
 62
     9
 10
0.0
 20
0.0
 30
0.0
 70
   128
 71
    27
 72
    29
 73
    28
  0
VERTEX
  5
A25
  8
0
 62
     9
 10
0.0
 20
0.0
 30
0.0
 70
   128
 71
    24
 72
    23
 73
    26
  0
VERTEX
  5
A26
  8
0
 62
     9
 10
0.0
 20
0.0
 30
0.0
 70
   128
 71
    23
 72
    24
 73
    22
  0
VERTEX
  5
A27
  8
0
 62
     9
 10
0.0
 20
0.0
 30
0.0
 70
   128
 71
    19
 72
    21
 73
    20
  0
VERTEX
  5
A28
  8
0
 62
     9
 10
0.0
 20
0.0
 30
0.0
 70
   128
 71
    16
 72
    15
 73
    18
  0
VERTEX
  5
A29
  8
0
 62
     9
 10
0.0
 20
0.0
 30
0.0
 70
   128
 71
    15
 72
    16
 73
    14
  0
VERTEX
  5
A2A
  8
0
 62
     9
 10
0.0
 20
0.0
 30
0.0
 70
   128
 71
    11
 72
    13
 73
    12
  0
VERTEX
  5
A2B
  8
0
 62
     9
 10
0.0
 20
0.0
 30
0.0
 70
   128
 71
     9
 72
    47
 73
     8
  0
VERTEX
  5
A2C
  8
0
 62
     9
 10
0.0
 20
0.0
 30
0.0
 70
   128
 71
     8
 72
    47
 73
     7
  0
VERTEX
  5
A2D
  8
0
 62
     9
 10
0.0
 20
0.0
 30
0.0
 70
   128
 71
     4
 72
     6
 73
     5
  0
VERTEX
  5
A2E
  8
0
 62
     9
 10
0.0
 20
0.0
 30
0.0
 70
   128
 71
     1
 72
    32
 73
     3
  0
SEQEND
  5
A2F
  8
0
 62
     9
  0
ENDBLK
  5
A32
  8
0
  0
BLOCK
  8
0
  2
E3_NODE_31_
 70
     0
 10
0.0
 20
0.0
 30
0.0
  3
E3_NODE_31_
  1

  0
POLYLINE
  5
A34
  8
0
 62
     9
 66
     1
 10
0.0
 20
0.0
 30
0.0
 70
    64
 71
    34
 72
    34
  0
VERTEX
  5
A35
  8
0
 10
12.08300018310547
 20
23.02199935913086
 30
49.0
 70
   192
  0
VERTEX
  5
A36
  8
0
 10
0.0
 20
26.0
 30
49.0
 70
   192
  0
VERTEX
  5
A37
  8
0
 10
0.0
 20
25.0
 30
50.0
 70
   192
  0
VERTEX
  5
A38
  8
0
 10
20.57500076293945
 20
14.20199966430664
 30
50.0
 70
   192
  0
VERTEX
  5
A39
  8
0
 10
21.39800071716309
 20
14.77000045776367
 30
49.0
 70
   192
  0
VERTEX
  5
A3A
  8
0
 10
16.2180004119873
 20
19.35899925231934
 30
49.0
 70
   192
  0
VERTEX
  5
A3B
  8
0
 10
11.61800003051758
 20
22.13599967956543
 30
50.0
 70
   192
  0
VERTEX
  5
A3C
  8
0
 10
24.81800079345703
 20
3.013000011444092
 30
50.0
 70
   192
  0
VERTEX
  5
A3D
  8
0
 10
25.32699966430664
 20
4.408999919891357
 30
49.0
 70
   192
  0
VERTEX
  5
A3E
  8
0
 10
25.80999946594238
 20
3.134000062942505
 30
49.0
 70
   192
  0
VERTEX
  5
A3F
  8
0
 10
23.375
 20
-8.864999771118164
 30
50.0
 70
   192
  0
VERTEX
  5
A40
  8
0
 10
16.57799911499023
 20
-18.71299934387207
 30
50.0
 70
   192
  0
VERTEX
  5
A41
  8
0
 10
17.24099922180176
 20
-19.46100044250488
 30
49.0
 70
   192
  0
VERTEX
  5
A42
  8
0
 10
21.9640007019043
 20
-12.61900043487549
 30
49.0
 70
   192
  0
VERTEX
  5
A43
  8
0
 10
5.982999801635742
 20
-24.27400016784668
 30
50.0
 70
   192
  0
VERTEX
  5
A44
  8
0
 10
8.649999618530273
 20
-23.96999931335449
 30
49.0
 70
   192
  0
VERTEX
  5
A45
  8
0
 10
6.222000122070312
 20
-25.24399948120117
 30
49.0
 70
   192
  0
VERTEX
  5
A46
  8
0
 10
-6.222000122070312
 20
-25.24399948120117
 30
49.0
 70
   192
  0
VERTEX
  5
A47
  8
0
 10
-16.57799911499023
 20
-18.71299934387207
 30
50.0
 70
   192
  0
VERTEX
  5
A48
  8
0
 10
-17.24099922180176
 20
-19.46100044250488
 30
49.0
 70
   192
  0
VERTEX
  5
A49
  8
0
 10
-8.649999618530273
 20
-23.96999931335449
 30
49.0
 70
   192
  0
VERTEX
  5
A4A
  8
0
 10
-5.982999801635742
 20
-24.27400016784668
 30
50.0
 70
   192
  0
VERTEX
  5
A4B
  8
0
 10
-23.375
 20
-8.864999771118164
 30
50.0
 70
   192
  0
VERTEX
  5
A4C
  8
0
 10
-21.9640007019043
 20
-12.61900043487549
 30
49.0
 70
   192
  0
VERTEX
  5
A4D
  8
0
 10
-24.30999946594238
 20
-9.220000267028809
 30
49.0
 70
   192
  0
VERTEX
  5
A4E
  8
0
 10
-24.81800079345703
 20
3.013000011444092
 30
50.0
 70
   192
  0
VERTEX
  5
A4F
  8
0
 10
-20.57500076293945
 20
14.20199966430664
 30
50.0
 70
   192
  0
VERTEX
  5
A50
  8
0
 10
-21.39800071716309
 20
14.77000045776367
 30
49.0
 70
   192
  0
VERTEX
  5
A51
  8
0
 10
-25.32699966430664
 20
4.408999919891357
 30
49.0
 70
   192
  0
VERTEX
  5
A52
  8
0
 10
-11.61800003051758
 20
22.13599967956543
 30
50.0
 70
   192
  0
VERTEX
  5
A53
  8
0
 10
-16.2180004119873
 20
19.35899925231934
 30
49.0
 70
   192
  0
VERTEX
  5
A54
  8
0
 10
-12.08300018310547
 20
23.02199935913086
 30
49.0
 70
   192
  0
VERTEX
  5
A55
  8
0
 10
-25.80999946594238
 20
3.134000062942505
 30
49.0
 70
   192
  0
VERTEX
  5
A56
  8
0
 10
24.30999946594238
 20
-9.220000267028809
 30
49.0
 70
   192
  0
VERTEX
  5
A57
  8
0
 62
     9
 10
0.0
 20
0.0
 30
0.0
 70
   128
 71
     3
 72
     2
 73
     1
  0
VERTEX
  5
A58
  8
0
 62
     9
 10
0.0
 20
0.0
 30
0.0
 70
   128
 71
     6
 72
     5
 73
     4
  0
VERTEX
  5
A59
  8
0
 62
     9
 10
0.0
 20
0.0
 30
0.0
 70
   128
 71
     4
 72
     7
 73
     6
  0
VERTEX
  5
A5A
  8
0
 62
     9
 10
0.0
 20
0.0
 30
0.0
 70
   128
 71
     9
 72
     8
 73
     4
  0
VERTEX
  5
A5B
  8
0
 62
     9
 10
0.0
 20
0.0
 30
0.0
 70
   128
 71
     9
 72
    10
 73
     8
  0
VERTEX
  5
A5C
  8
0
 62
     9
 10
0.0
 20
0.0
 30
0.0
 70
   128
 71
    11
 72
     8
 73
    10
  0
VERTEX
  5
A5D
  8
0
 62
     9
 10
0.0
 20
0.0
 30
0.0
 70
   128
 71
    14
 72
    13
 73
    12
  0
VERTEX
  5
A5E
  8
0
 62
     9
 10
0.0
 20
0.0
 30
0.0
 70
   128
 71
    12
 72
    11
 73
    14
  0
VERTEX
  5
A5F
  8
0
 62
     9
 10
0.0
 20
0.0
 30
0.0
 70
   128
 71
    16
 72
    15
 73
    12
  0
VERTEX
  5
A60
  8
0
 62
     9
 10
0.0
 20
0.0
 30
0.0
 70
   128
 71
    16
 72
    17
 73
    15
  0
VERTEX
  5
A61
  8
0
 62
     9
 10
0.0
 20
0.0
 30
0.0
 70
   128
 71
    15
 72
    17
 73
    18
  0
VERTEX
  5
A62
  8
0
 62
     9
 10
0.0
 20
0.0
 30
0.0
 70
   128
 71
    21
 72
    20
 73
    19
  0
VERTEX
  5
A63
  8
0
 62
     9
 10
0.0
 20
0.0
 30
0.0
 70
   128
 71
    19
 72
    22
 73
    21
  0
VERTEX
  5
A64
  8
0
 62
     9
 10
0.0
 20
0.0
 30
0.0
 70
   128
 71
    24
 72
    23
 73
    19
  0
VERTEX
  5
A65
  8
0
 62
     9
 10
0.0
 20
0.0
 30
0.0
 70
   128
 71
    24
 72
    25
 73
    23
  0
VERTEX
  5
A66
  8
0
 62
     9
 10
0.0
 20
0.0
 30
0.0
 70
   128
 71
    26
 72
    23
 73
    25
  0
VERTEX
  5
A67
  8
0
 62
     9
 10
0.0
 20
0.0
 30
0.0
 70
   128
 71
    29
 72
    28
 73
    27
  0
VERTEX
  5
A68
  8
0
 62
     9
 10
0.0
 20
0.0
 30
0.0
 70
   128
 71
    27
 72
    26
 73
    29
  0
VERTEX
  5
A69
  8
0
 62
     9
 10
0.0
 20
0.0
 30
0.0
 70
   128
 71
    31
 72
    30
 73
    27
  0
VERTEX
  5
A6A
  8
0
 62
     9
 10
0.0
 20
0.0
 30
0.0
 70
   128
 71
    31
 72
    32
 73
    30
  0
VERTEX
  5
A6B
  8
0
 62
     9
 10
0.0
 20
0.0
 30
0.0
 70
   128
 71
    30
 72
    32
 73
     2
  0
VERTEX
  5
A6C
  8
0
 62
     9
 10
0.0
 20
0.0
 30
0.0
 70
   128
 71
     2
 72
     3
 73
    30
  0
VERTEX
  5
A6D
  8
0
 62
     9
 10
0.0
 20
0.0
 30
0.0
 70
   128
 71
    27
 72
    28
 73
    31
  0
VERTEX
  5
A6E
  8
0
 62
     9
 10
0.0
 20
0.0
 30
0.0
 70
   128
 71
    26
 72
    33
 73
    29
  0
VERTEX
  5
A6F
  8
0
 62
     9
 10
0.0
 20
0.0
 30
0.0
 70
   128
 71
    25
 72
    33
 73
    26
  0
VERTEX
  5
A70
  8
0
 62
     9
 10
0.0
 20
0.0
 30
0.0
 70
   128
 71
    19
 72
    20
 73
    24
  0
VERTEX
  5
A71
  8
0
 62
     9
 10
0.0
 20
0.0
 30
0.0
 70
   128
 71
    22
 72
    18
 73
    21
  0
VERTEX
  5
A72
  8
0
 62
     9
 10
0.0
 20
0.0
 30
0.0
 70
   128
 71
    18
 72
    22
 73
    15
  0
VERTEX
  5
A73
  8
0
 62
     9
 10
0.0
 20
0.0
 30
0.0
 70
   128
 71
    12
 72
    13
 73
    16
  0
VERTEX
  5
A74
  8
0
 62
     9
 10
0.0
 20
0.0
 30
0.0
 70
   128
 71
    11
 72
    34
 73
    14
  0
VERTEX
  5
A75
  8
0
 62
     9
 10
0.0
 20
0.0
 30
0.0
 70
   128
 71
    10
 72
    34
 73
    11
  0
VERTEX
  5
A76
  8
0
 62
     9
 10
0.0
 20
0.0
 30
0.0
 70
   128
 71
     4
 72
     5
 73
     9
  0
VERTEX
  5
A77
  8
0
 62
     9
 10
0.0
 20
0.0
 30
0.0
 70
   128
 71
     7
 72
     1
 73
     6
  0
VERTEX
  5
A78
  8
0
 62
     9
 10
0.0
 20
0.0
 30
0.0
 70
   128
 71
     1
 72
     7
 73
     3
  0
SEQEND
  5
A79
  8
0
 62
     9
  0
ENDBLK
  5
A7C
  8
0
  0
BLOCK
  8
0
  2
E3_NODE_32_
 70
     0
 10
0.0
 20
0.0
 30
0.0
  3
E3_NODE_32_
  1

  0
POLYLINE
  5
A7E
  8
0
 62
     9
 66
     1
 10
0.0
 20
0.0
 30
0.0
 70
    64
 71
    31
 72
    31
  0
VERTEX
  5
A7F
  8
0
 10
0.0
 20
26.0
 30
0.0
 70
   192
  0
VERTEX
  5
A80
  8
0
 10
0.0
 20
26.0
 30
49.0
 70
   192
  0
VERTEX
  5
A81
  8
0
 10
12.08300018310547
 20
23.02199935913086
 30
49.0
 70
   192
  0
VERTEX
  5
A82
  8
0
 10
16.71199989318848
 20
19.91699981689453
 30
0.0
 70
   192
  0
VERTEX
  5
A83
  8
0
 10
25.60499954223633
 20
4.514999866485596
 30
0.0
 70
   192
  0
VERTEX
  5
A84
  8
0
 10
21.39800071716309
 20
14.77000045776367
 30
49.0
 70
   192
  0
VERTEX
  5
A85
  8
0
 10
16.2180004119873
 20
19.35899925231934
 30
49.0
 70
   192
  0
VERTEX
  5
A86
  8
0
 10
25.80999946594238
 20
3.134000062942505
 30
49.0
 70
   192
  0
VERTEX
  5
A87
  8
0
 10
24.30999946594238
 20
-9.220000267028809
 30
49.0
 70
   192
  0
VERTEX
  5
A88
  8
0
 10
22.51700019836426
 20
-13.0
 30
0.0
 70
   192
  0
VERTEX
  5
A89
  8
0
 10
25.32699966430664
 20
4.408999919891357
 30
49.0
 70
   192
  0
VERTEX
  5
A8A
  8
0
 10
8.892999649047852
 20
-24.43199920654297
 30
0.0
 70
   192
  0
VERTEX
  5
A8B
  8
0
 10
17.24099922180176
 20
-19.46100044250488
 30
49.0
 70
   192
  0
VERTEX
  5
A8C
  8
0
 10
21.9640007019043
 20
-12.61900043487549
 30
49.0
 70
   192
  0
VERTEX
  5
A8D
  8
0
 10
6.222000122070312
 20
-25.24399948120117
 30
49.0
 70
   192
  0
VERTEX
  5
A8E
  8
0
 10
-6.222000122070312
 20
-25.24399948120117
 30
49.0
 70
   192
  0
VERTEX
  5
A8F
  8
0
 10
0.0
 20
-26.0
 30
0.0
 70
   192
  0
VERTEX
  5
A90
  8
0
 10
-8.892999649047852
 20
-24.43199920654297
 30
0.0
 70
   192
  0
VERTEX
  5
A91
  8
0
 10
8.649999618530273
 20
-23.96999931335449
 30
49.0
 70
   192
  0
VERTEX
  5
A92
  8
0
 10
-8.649999618530273
 20
-23.96999931335449
 30
49.0
 70
   192
  0
VERTEX
  5
A93
  8
0
 10
-17.24099922180176
 20
-19.46100044250488
 30
49.0
 70
   192
  0
VERTEX
  5
A94
  8
0
 10
-22.51700019836426
 20
-13.0
 30
0.0
 70
   192
  0
VERTEX
  5
A95
  8
0
 10
-25.60499954223633
 20
4.514999866485596
 30
0.0
 70
   192
  0
VERTEX
  5
A96
  8
0
 10
-24.30999946594238
 20
-9.220000267028809
 30
49.0
 70
   192
  0
VERTEX
  5
A97
  8
0
 10
-25.80999946594238
 20
3.134000062942505
 30
49.0
 70
   192
  0
VERTEX
  5
A98
  8
0
 10
-21.9640007019043
 20
-12.61900043487549
 30
49.0
 70
   192
  0
VERTEX
  5
A99
  8
0
 10
-25.32699966430664
 20
4.408999919891357
 30
49.0
 70
   192
  0
VERTEX
  5
A9A
  8
0
 10
-21.39800071716309
 20
14.77000045776367
 30
49.0
 70
   192
  0
VERTEX
  5
A9B
  8
0
 10
-16.71199989318848
 20
19.91699981689453
 30
0.0
 70
   192
  0
VERTEX
  5
A9C
  8
0
 10
-12.08300018310547
 20
23.02199935913086
 30
49.0
 70
   192
  0
VERTEX
  5
A9D
  8
0
 10
-16.2180004119873
 20
19.35899925231934
 30
49.0
 70
   192
  0
VERTEX
  5
A9E
  8
0
 62
     9
 10
0.0
 20
0.0
 30
0.0
 70
   128
 71
     3
 72
     2
 73
     1
  0
VERTEX
  5
A9F
  8
0
 62
     9
 10
0.0
 20
0.0
 30
0.0
 70
   128
 71
     1
 72
     4
 73
     3
  0
VERTEX
  5
AA0
  8
0
 62
     9
 10
0.0
 20
0.0
 30
0.0
 70
   128
 71
     6
 72
     4
 73
     5
  0
VERTEX
  5
AA1
  8
0
 62
     9
 10
0.0
 20
0.0
 30
0.0
 70
   128
 71
     6
 72
     7
 73
     4
  0
VERTEX
  5
AA2
  8
0
 62
     9
 10
0.0
 20
0.0
 30
0.0
 70
   128
 71
     9
 72
     8
 73
     5
  0
VERTEX
  5
AA3
  8
0
 62
     9
 10
0.0
 20
0.0
 30
0.0
 70
   128
 71
     5
 72
    10
 73
     9
  0
VERTEX
  5
AA4
  8
0
 62
     9
 10
0.0
 20
0.0
 30
0.0
 70
   128
 71
     8
 72
    11
 73
     5
  0
VERTEX
  5
AA5
  8
0
 62
     9
 10
0.0
 20
0.0
 30
0.0
 70
   128
 71
    13
 72
    10
 73
    12
  0
VERTEX
  5
AA6
  8
0
 62
     9
 10
0.0
 20
0.0
 30
0.0
 70
   128
 71
    13
 72
    14
 73
    10
  0
VERTEX
  5
AA7
  8
0
 62
     9
 10
0.0
 20
0.0
 30
0.0
 70
   128
 71
    17
 72
    16
 73
    15
  0
VERTEX
  5
AA8
  8
0
 62
     9
 10
0.0
 20
0.0
 30
0.0
 70
   128
 71
    17
 72
    18
 73
    16
  0
VERTEX
  5
AA9
  8
0
 62
     9
 10
0.0
 20
0.0
 30
0.0
 70
   128
 71
    15
 72
    12
 73
    17
  0
VERTEX
  5
AAA
  8
0
 62
     9
 10
0.0
 20
0.0
 30
0.0
 70
   128
 71
    15
 72
    19
 73
    12
  0
VERTEX
  5
AAB
  8
0
 62
     9
 10
0.0
 20
0.0
 30
0.0
 70
   128
 71
    21
 72
    20
 73
    18
  0
VERTEX
  5
AAC
  8
0
 62
     9
 10
0.0
 20
0.0
 30
0.0
 70
   128
 71
    18
 72
    22
 73
    21
  0
VERTEX
  5
AAD
  8
0
 62
     9
 10
0.0
 20
0.0
 30
0.0
 70
   128
 71
    24
 72
    22
 73
    23
  0
VERTEX
  5
AAE
  8
0
 62
     9
 10
0.0
 20
0.0
 30
0.0
 70
   128
 71
    23
 72
    25
 73
    24
  0
VERTEX
  5
AAF
  8
0
 62
     9
 10
0.0
 20
0.0
 30
0.0
 70
   128
 71
    24
 72
    26
 73
    22
  0
VERTEX
  5
AB0
  8
0
 62
     9
 10
0.0
 20
0.0
 30
0.0
 70
   128
 71
    28
 72
    27
 73
    23
  0
VERTEX
  5
AB1
  8
0
 62
     9
 10
0.0
 20
0.0
 30
0.0
 70
   128
 71
    23
 72
    29
 73
    28
  0
VERTEX
  5
AB2
  8
0
 62
     9
 10
0.0
 20
0.0
 30
0.0
 70
   128
 71
    30
 72
    29
 73
     1
  0
VERTEX
  5
AB3
  8
0
 62
     9
 10
0.0
 20
0.0
 30
0.0
 70
   128
 71
    30
 72
    31
 73
    29
  0
VERTEX
  5
AB4
  8
0
 62
     9
 10
0.0
 20
0.0
 30
0.0
 70
   128
 71
     1
 72
     2
 73
    30
  0
VERTEX
  5
AB5
  8
0
 62
     9
 10
0.0
 20
0.0
 30
0.0
 70
   128
 71
    29
 72
    31
 73
    28
  0
VERTEX
  5
AB6
  8
0
 62
     9
 10
0.0
 20
0.0
 30
0.0
 70
   128
 71
    23
 72
    27
 73
    25
  0
VERTEX
  5
AB7
  8
0
 62
     9
 10
0.0
 20
0.0
 30
0.0
 70
   128
 71
    22
 72
    26
 73
    21
  0
VERTEX
  5
AB8
  8
0
 62
     9
 10
0.0
 20
0.0
 30
0.0
 70
   128
 71
    18
 72
    20
 73
    16
  0
VERTEX
  5
AB9
  8
0
 62
     9
 10
0.0
 20
0.0
 30
0.0
 70
   128
 71
    12
 72
    19
 73
    13
  0
VERTEX
  5
ABA
  8
0
 62
     9
 10
0.0
 20
0.0
 30
0.0
 70
   128
 71
    10
 72
    14
 73
     9
  0
VERTEX
  5
ABB
  8
0
 62
     9
 10
0.0
 20
0.0
 30
0.0
 70
   128
 71
     5
 72
    11
 73
     6
  0
VERTEX
  5
ABC
  8
0
 62
     9
 10
0.0
 20
0.0
 30
0.0
 70
   128
 71
     4
 72
     7
 73
     3
  0
SEQEND
  5
ABD
  8
0
 62
     9
  0
ENDBLK
  5
AC0
  8
0
  0
BLOCK
  8
0
  2
E3_NODE_33_
 70
     0
 10
0.0
 20
0.0
 30
0.0
  3
E3_NODE_33_
  1

  0
POLYLINE
  5
AC2
  8
0
 62
     9
 66
     1
 10
0.0
 20
0.0
 30
0.0
 70
    64
 71
    10
 72
     8
  0
VERTEX
  5
AC3
  8
0
 10
0.0
 20
26.0
 30
0.0
 70
   192
  0
VERTEX
  5
AC4
  8
0
 10
-22.51700019836426
 20
-13.0
 30
0.0
 70
   192
  0
VERTEX
  5
AC5
  8
0
 10
-25.60499954223633
 20
4.514999866485596
 30
0.0
 70
   192
  0
VERTEX
  5
AC6
  8
0
 10
22.51700019836426
 20
-13.0
 30
0.0
 70
   192
  0
VERTEX
  5
AC7
  8
0
 10
16.71199989318848
 20
19.91699981689453
 30
0.0
 70
   192
  0
VERTEX
  5
AC8
  8
0
 10
-8.892999649047852
 20
-24.43199920654297
 30
0.0
 70
   192
  0
VERTEX
  5
AC9
  8
0
 10
25.60499954223633
 20
4.514999866485596
 30
0.0
 70
   192
  0
VERTEX
  5
ACA
  8
0
 10
0.0
 20
-26.0
 30
0.0
 70
   192
  0
VERTEX
  5
ACB
  8
0
 10
8.892999649047852
 20
-24.43199920654297
 30
0.0
 70
   192
  0
VERTEX
  5
ACC
  8
0
 10
-16.71199989318848
 20
19.91699981689453
 30
0.0
 70
   192
  0
VERTEX
  5
ACD
  8
0
 62
     9
 10
0.0
 20
0.0
 30
0.0
 70
   128
 71
     3
 72
     2
 73
     1
  0
VERTEX
  5
ACE
  8
0
 62
     9
 10
0.0
 20
0.0
 30
0.0
 70
   128
 71
     5
 72
     1
 73
     4
  0
VERTEX
  5
ACF
  8
0
 62
     9
 10
0.0
 20
0.0
 30
0.0
 70
   128
 71
     2
 72
     6
 73
     1
  0
VERTEX
  5
AD0
  8
0
 62
     9
 10
0.0
 20
0.0
 30
0.0
 70
   128
 71
     4
 72
     7
 73
     5
  0
VERTEX
  5
AD1
  8
0
 62
     9
 10
0.0
 20
0.0
 30
0.0
 70
   128
 71
     6
 72
     8
 73
     1
  0
VERTEX
  5
AD2
  8
0
 62
     9
 10
0.0
 20
0.0
 30
0.0
 70
   128
 71
     1
 72
     9
 73
     4
  0
VERTEX
  5
AD3
  8
0
 62
     9
 10
0.0
 20
0.0
 30
0.0
 70
   128
 71
     1
 72
     8
 73
     9
  0
VERTEX
  5
AD4
  8
0
 62
     9
 10
0.0
 20
0.0
 30
0.0
 70
   128
 71
     1
 72
    10
 73
     3
  0
SEQEND
  5
AD5
  8
0
 62
     9
  0
ENDBLK
  5
AD8
  8
0
  0
ENDSEC
  0
SECTION
  2
ENTITIES
  0
INSERT
  5
4C
  8
LAYER_1
  2
E3_NODE
 10
0.0
 20
0.0
 30
0.0
  0
INSERT
  5
83
  8
LAYER_1
  2
E3_NODE_1_
 10
0.0
 20
0.0
 30
0.0
  0
INSERT
  5
159
  8
LAYER_1
  2
E3_NODE_2_
 10
0.0
 20
0.0
 30
0.0
  0
INSERT
  5
18F
  8
LAYER_1
  2
E3_NODE_3_
 10
0.0
 20
0.0
 30
0.0
  0
INSERT
  5
1B5
  8
LAYER_1
  2
E3_NODE_4_
 10
0.0
 20
0.0
 30
0.0
  0
INSERT
  5
1D9
  8
LAYER_1
  2
E3_NODE_5_
 10
0.0
 20
0.0
 30
0.0
  0
INSERT
  5
27B
  8
LAYER_1
  2
E3_NODE_6_
 10
0.0
 20
0.0
 30
0.0
  0
INSERT
  5
2E6
  8
LAYER_1
  2
E3_NODE_7_
 10
0.0
 20
0.0
 30
0.0
  0
INSERT
  5
32B
  8
LAYER_1
  2
E3_NODE_8_
 10
0.0
 20
0.0
 30
0.0
  0
INSERT
  5
3CE
  8
LAYER_1
  2
E3_NODE_9_
 10
0.0
 20
0.0
 30
0.0
  0
INSERT
  5
43C
  8
LAYER_1
  2
E3_NODE_10_
 10
0.0
 20
0.0
 30
0.0
  0
INSERT
  5
4DB
  8
LAYER_1
  2
E3_NODE_11_
 10
0.0
 20
0.0
 30
0.0
  0
INSERT
  5
57C
  8
LAYER_1
  2
E3_NODE_12_
 10
0.0
 20
0.0
 30
0.0
  0
INSERT
  5
5E7
  8
LAYER_1
  2
E3_NODE_13_
 10
0.0
 20
0.0
 30
0.0
  0
INSERT
  5
62D
  8
LAYER_1
  2
E3_NODE_14_
 10
0.0
 20
0.0
 30
0.0
  0
INSERT
  5
663
  8
LAYER_1
  2
E3_NODE_15_
 10
0.0
 20
0.0
 30
0.0
  0
INSERT
  5
695
  8
LAYER_1
  2
E3_NODE_16_
 10
0.0
 20
0.0
 30
0.0
  0
INSERT
  5
6BF
  8
LAYER_1
  2
E3_NODE_17_
 10
0.0
 20
0.0
 30
0.0
  0
INSERT
  5
839
  8
LAYER_1
  2
E3_NODE_18_
 10
0.0
 20
0.0
 30
0.0
  0
INSERT
  5
863
  8
LAYER_1
  2
E3_NODE_19_
 10
0.0
 20
0.0
 30
0.0
  0
INSERT
  5
881
  8
LAYER_1
  2
E3_NODE_20_
 10
0.0
 20
0.0
 30
0.0
  0
INSERT
  5
89F
  8
LAYER_1
  2
E3_NODE_21_
 10
0.0
 20
0.0
 30
0.0
  0
INSERT
  5
8AF
  8
LAYER_1
  2
E3_NODE_22_
 10
0.0
 20
0.0
 30
0.0
  0
INSERT
  5
8CD
  8
LAYER_1
  2
E3_NODE_23_
 10
0.0
 20
0.0
 30
0.0
  0
INSERT
  5
8F7
  8
LAYER_1
  2
E3_NODE_24_
 10
0.0
 20
0.0
 30
0.0
  0
INSERT
  5
927
  8
LAYER_1
  2
E3_NODE_25_
 10
0.0
 20
0.0
 30
0.0
  0
INSERT
  5
93D
  8
LAYER_1
  2
E3_NODE_26_
 10
0.0
 20
0.0
 30
0.0
  0
INSERT
  5
953
  8
LAYER_1
  2
E3_NODE_27_
 10
0.0
 20
0.0
 30
0.0
  0
INSERT
  5
97D
  8
LAYER_1
  2
E3_NODE_28_
 10
0.0
 20
0.0
 30
0.0
  0
INSERT
  5
9BF
  8
LAYER_1
  2
E3_NODE_29_
 10
0.0
 20
0.0
 30
0.0
  0
INSERT
  5
A30
  8
LAYER_1
  2
E3_NODE_30_
 10
0.0
 20
0.0
 30
0.0
  0
INSERT
  5
A7A
  8
LAYER_1
  2
E3_NODE_31_
 10
0.0
 20
0.0
 30
0.0
  0
INSERT
  5
ABE
  8
LAYER_1
  2
E3_NODE_32_
 10
0.0
 20
0.0
 30
0.0
  0
INSERT
  5
AD6
  8
LAYER_1
  2
E3_NODE_33_
 10
0.0
 20
0.0
 30
0.0
  0
ENDSEC
  0
EOF
