  0
SECTION
  2
HEADER
  9
$ACADVER
  1
AC1021
  9
$ACADMAINTVER
 70
    25
  9
$DWGCODEPAGE
  3
UNDEFINED
  9
$INSBASE
 10
0.0
 20
0.0
 30
0.0
  9
$EXTMIN
 10
1.000000000000000E+20
 20
1.000000000000000E+20
 30
1.000000000000000E+20
  9
$EXTMAX
 10
-1.000000000000000E+20
 20
-1.000000000000000E+20
 30
-1.000000000000000E+20
  9
$LIMMIN
 10
0.0
 20
0.0
  9
$LIMMAX
 10
12.0
 20
9.0
  9
$ORTHOMODE
 70
     0
  9
$REGENMODE
 70
     1
  9
$FILLMODE
 70
     1
  9
$QTEXTMODE
 70
     0
  9
$MIRRTEXT
 70
     1
  9
$LTSCALE
 40
1.0
  9
$ATTMODE
 70
     1
  9
$TEXTSIZE
 40
0.2
  9
$TRACEWID
 40
0.05
  9
$TEXTSTYLE
  7
Standard
  9
$CLAYER
  8
0
  9
$CELTYPE
  6
ByLayer
  9
$CECOLOR
 62
   256
  9
$CELTSCALE
 40
1.0
  9
$DISPSILH
 70
     0
  9
$DIMSCALE
 40
1.0
  9
$DIMASZ
 40
0.18
  9
$DIMEXO
 40
0.0625
  9
$DIMDLI
 40
0.38
  9
$DIMRND
 40
0.0
  9
$DIMDLE
 40
0.0
  9
$DIMEXE
 40
0.18
  9
$DIMTP
 40
0.0
  9
$DIMTM
 40
0.0
  9
$DIMTXT
 40
0.18
  9
$DIMCEN
 40
0.09
  9
$DIMTSZ
 40
0.0
  9
$DIMTOL
 70
     0
  9
$DIMLIM
 70
     0
  9
$DIMTIH
 70
     1
  9
$DIMTOH
 70
     1
  9
$DIMSE1
 70
     0
  9
$DIMSE2
 70
     0
  9
$DIMTAD
 70
     0
  9
$DIMZIN
 70
     0
  9
$DIMBLK
  1

  9
$DIMASO
 70
     1
  9
$DIMSHO
 70
     1
  9
$DIMPOST
  1

  9
$DIMAPOST
  1

  9
$DIMALT
 70
     0
  9
$DIMALTD
 70
     2
  9
$DIMALTF
 40
25.4
  9
$DIMLFAC
 40
1.0
  9
$DIMTOFL
 70
     0
  9
$DIMTVP
 40
0.0
  9
$DIMTIX
 70
     0
  9
$DIMSOXD
 70
     0
  9
$DIMSAH
 70
     0
  9
$DIMBLK1
  1

  9
$DIMBLK2
  1

  9
$DIMSTYLE
  2
Standard
  9
$DIMCLRD
 70
     0
  9
$DIMCLRE
 70
     0
  9
$DIMCLRT
 70
     0
  9
$DIMTFAC
 40
1.0
  9
$DIMGAP
 40
0.09
  9
$DIMJUST
 70
     0
  9
$DIMSD1
 70
     0
  9
$DIMSD2
 70
     0
  9
$DIMTOLJ
 70
     1
  9
$DIMTZIN
 70
     0
  9
$DIMALTZ
 70
     0
  9
$DIMALTTZ
 70
     0
  9
$DIMUPT
 70
     0
  9
$DIMDEC
 70
     4
  9
$DIMTDEC
 70
     4
  9
$DIMALTU
 70
     2
  9
$DIMALTTD
 70
     2
  9
$DIMTXSTY
  7
Standard
  9
$DIMAUNIT
 70
     0
  9
$DIMADEC
 70
     0
  9
$DIMALTRND
 40
0.0
  9
$DIMAZIN
 70
     0
  9
$DIMDSEP
 70
    46
  9
$DIMATFIT
 70
     3
  9
$DIMFRAC
 70
     0
  9
$DIMLDRBLK
  1

  9
$DIMLUNIT
 70
     2
  9
$DIMLWD
 70
    -2
  9
$DIMLWE
 70
    -2
  9
$DIMTMOVE
 70
     0
  9
$DIMFXL
 40
1.0
  9
$DIMFXLON
 70
     0
  9
$DIMJOGANG
 40
0.7853981633974483
  9
$DIMTFILL
 70
     0
  9
$DIMTFILLCLR
 70
     0
  9
$DIMARCSYM
 70
     0
  9
$DIMLTYPE
  6

  9
$DIMLTEX1
  6

  9
$DIMLTEX2
  6

  9
$LUNITS
 70
     2
  9
$LUPREC
 70
     4
  9
$SKETCHINC
 40
0.1
  9
$FILLETRAD
 40
0.5
  9
$AUNITS
 70
     0
  9
$AUPREC
 70
     0
  9
$MENU
  1
.
  9
$ELEVATION
 40
0.0
  9
$PELEVATION
 40
0.0
  9
$THICKNESS
 40
0.0
  9
$LIMCHECK
 70
     0
  9
$CHAMFERA
 40
0.5
  9
$CHAMFERB
 40
0.5
  9
$CHAMFERC
 40
1.0
  9
$CHAMFERD
 40
0.0
  9
$SKPOLY
 70
     0
  9
$TDCREATE
 40
2459906.467372685
  9
$TDUCREATE
 40
2459906.425706019
  9
$TDUPDATE
 40
2459906.467372685
  9
$TDUUPDATE
 40
2459906.425706019
  9
$TDINDWG
 40
0.0000000116
  9
$TDUSRTIMER
 40
0.0000000116
  9
$USRTIMER
 70
     1
  9
$ANGBASE
 50
0.0
  9
$ANGDIR
 70
     0
  9
$PDMODE
 70
     0
  9
$PDSIZE
 40
0.0
  9
$PLINEWID
 40
0.0
  9
$SPLFRAME
 70
     0
  9
$SPLINETYPE
 70
     6
  9
$SPLINESEGS
 70
     8
  9
$HANDSEED
  5
2CE
  9
$SURFTAB1
 70
     6
  9
$SURFTAB2
 70
     6
  9
$SURFTYPE
 70
     6
  9
$SURFU
 70
     6
  9
$SURFV
 70
     6
  9
$UCSBASE
  2

  9
$UCSNAME
  2

  9
$UCSORG
 10
0.0
 20
0.0
 30
0.0
  9
$UCSXDIR
 10
1.0
 20
0.0
 30
0.0
  9
$UCSYDIR
 10
0.0
 20
1.0
 30
0.0
  9
$UCSORTHOREF
  2

  9
$UCSORTHOVIEW
 70
     0
  9
$UCSORGTOP
 10
0.0
 20
0.0
 30
0.0
  9
$UCSORGBOTTOM
 10
0.0
 20
0.0
 30
0.0
  9
$UCSORGLEFT
 10
0.0
 20
0.0
 30
0.0
  9
$UCSORGRIGHT
 10
0.0
 20
0.0
 30
0.0
  9
$UCSORGFRONT
 10
0.0
 20
0.0
 30
0.0
  9
$UCSORGBACK
 10
0.0
 20
0.0
 30
0.0
  9
$PUCSBASE
  2

  9
$PUCSNAME
  2

  9
$PUCSORG
 10
0.0
 20
0.0
 30
0.0
  9
$PUCSXDIR
 10
1.0
 20
0.0
 30
0.0
  9
$PUCSYDIR
 10
0.0
 20
1.0
 30
0.0
  9
$PUCSORTHOREF
  2

  9
$PUCSORTHOVIEW
 70
     0
  9
$PUCSORGTOP
 10
0.0
 20
0.0
 30
0.0
  9
$PUCSORGBOTTOM
 10
0.0
 20
0.0
 30
0.0
  9
$PUCSORGLEFT
 10
0.0
 20
0.0
 30
0.0
  9
$PUCSORGRIGHT
 10
0.0
 20
0.0
 30
0.0
  9
$PUCSORGFRONT
 10
0.0
 20
0.0
 30
0.0
  9
$PUCSORGBACK
 10
0.0
 20
0.0
 30
0.0
  9
$USERI1
 70
     0
  9
$USERI2
 70
     0
  9
$USERI3
 70
     0
  9
$USERI4
 70
     0
  9
$USERI5
 70
     0
  9
$USERR1
 40
0.0
  9
$USERR2
 40
0.0
  9
$USERR3
 40
0.0
  9
$USERR4
 40
0.0
  9
$USERR5
 40
0.0
  9
$WORLDVIEW
 70
     1
  9
$SHADEDGE
 70
     3
  9
$SHADEDIF
 70
    70
  9
$TILEMODE
 70
     1
  9
$MAXACTVP
 70
    64
  9
$PINSBASE
 10
0.0
 20
0.0
 30
0.0
  9
$PLIMCHECK
 70
     0
  9
$PEXTMIN
 10
1.000000000000000E+20
 20
1.000000000000000E+20
 30
1.000000000000000E+20
  9
$PEXTMAX
 10
-1.000000000000000E+20
 20
-1.000000000000000E+20
 30
-1.000000000000000E+20
  9
$PLIMMIN
 10
0.0
 20
0.0
  9
$PLIMMAX
 10
12.0
 20
9.0
  9
$UNITMODE
 70
     0
  9
$VISRETAIN
 70
     1
  9
$PLINEGEN
 70
     0
  9
$PSLTSCALE
 70
     1
  9
$TREEDEPTH
 70
  3020
  9
$CMLSTYLE
  2
Standard
  9
$CMLJUST
 70
     0
  9
$CMLSCALE
 40
1.0
  9
$PROXYGRAPHICS
 70
     1
  9
$MEASUREMENT
 70
     0
  9
$CELWEIGHT
370
    -1
  9
$ENDCAPS
280
     0
  9
$JOINSTYLE
280
     0
  9
$LWDISPLAY
290
     1
  9
$INSUNITS
 70
     1
  9
$HYPERLINKBASE
  1

  9
$STYLESHEET
  1

  9
$XEDIT
290
     1
  9
$CEPSNTYPE
380
     0
  9
$PSTYLEMODE
290
     1
  9
$FINGERPRINTGUID
  2
{1BDCDB80-4CF2-DB85-5B34-C31387BDFBB5}
  9
$VERSIONGUID
  2
{FAEB1C32-E019-11D5-929B-00C0DF256EC4}
  9
$EXTNAMES
290
     1
  9
$PSVPSCALE
 40
0.0
  9
$OLESTARTUP
290
     0
  9
$SORTENTS
280
   127
  9
$INDEXCTL
280
     0
  9
$HIDETEXT
280
     1
  9
$XCLIPFRAME
290
     0
  9
$HALOGAP
280
     0
  9
$OBSCOLOR
 70
   257
  9
$OBSLTYPE
280
     0
  9
$INTERSECTIONDISPLAY
280
     0
  9
$INTERSECTIONCOLOR
 70
   257
  9
$DIMASSOC
280
     2
  9
$PROJECTNAME
  1

  9
$CAMERADISPLAY
290
     0
  9
$LENSLENGTH
 40
50.0
  9
$CAMERAHEIGHT
 40
0.0
  9
$STEPSPERSEC
 40
2.0
  9
$STEPSIZE
 40
6.0
  9
$3DDWFPREC
 40
2.0
  9
$PSOLWIDTH
 40
0.25
  9
$PSOLHEIGHT
 40
4.0
  9
$LOFTANG1
 40
1.570796326794897
  9
$LOFTANG2
 40
1.570796326794897
  9
$LOFTMAG1
 40
0.0
  9
$LOFTMAG2
 40
0.0
  9
$LOFTPARAM
 70
     7
  9
$LOFTNORMALS
280
     1
  9
$LATITUDE
 40
37.795
  9
$LONGITUDE
 40
-122.394
  9
$NORTHDIRECTION
 40
0.0
  9
$TIMEZONE
 70
 -8000
  9
$LIGHTGLYPHDISPLAY
280
     1
  9
$TILEMODELIGHTSYNCH
280
     1
  9
$CMATERIAL
347
3C
  9
$SOLIDHIST
280
     1
  9
$SHOWHIST
280
     1
  9
$DWFFRAME
280
     2
  9
$DGNFRAME
280
     2
  9
$REALWORLDSCALE
290
     1
  9
$INTERFERECOLOR
 62
   256
  9
$CSHADOW
280
     0
  9
$SHADOWPLANELOCATION
 40
0.0
  0
ENDSEC
  0
SECTION
  2
CLASSES
  0
CLASS
  1
ACDBDICTIONARYWDFLT
  2
AcDbDictionaryWithDefault
  3
ObjectDBX Classes
 90
        0
 91
        4
280
     0
281
     0
  0
CLASS
  1
VISUALSTYLE
  2
AcDbVisualStyle
  3
ObjectDBX Classes
 90
     4095
 91
        4
280
     0
281
     0
  0
CLASS
  1
MATERIAL
  2
AcDbMaterial
  3
ObjectDBX Classes
 90
     1153
 91
        4
280
     0
281
     0
  0
CLASS
  1
SUN
  2
AcDbSun
  3
SCENEOE
 90
     1024
 91
        4
280
     0
281
     0
  0
ENDSEC
  0
SECTION
  2
TABLES
  0
TABLE
  2
VPORT
  5
8
330
0
100
AcDbSymbolTable
 70
     1
  0
VPORT
  5
29
330
8
100
AcDbSymbolTableRecord
100
AcDbViewportTableRecord
  2
*Active
 70
     0
 10
0.0
 20
0.0
 11
1.0
 21
1.0
 12
0.0
 22
0.0
 13
0.0
 23
0.0
 14
0.5
 24
0.5
 15
0.5
 25
0.5
 16
0.0
 26
0.0
 36
1.0
 17
105.0007777515277
 27
148.5000416295417
 37
0.0
 40
297.0000832590835
 41
0.7070757462376325
 42
50.0
 43
0.0
 44
0.0
 50
0.0
 51
0.0
 71
     0
 72
   100
 73
     1
 74
     3
 75
     0
 76
     0
 77
     0
 78
     0
281
     0
 65
     1
110
0.0
120
0.0
130
0.0
111
1.0
121
0.0
131
0.0
112
0.0
122
1.0
132
0.0
 79
     0
146
0.0
 60
     3
 61
     5
292
     1
282
     1
141
0.0
142
0.0
 63
   250
361
3F
  0
ENDTAB
  0
TABLE
  2
LTYPE
  5
5
330
0
100
AcDbSymbolTable
 70
    30
  0
LTYPE
  5
14
330
5
100
AcDbSymbolTableRecord
100
AcDbLinetypeTableRecord
  2
ByBlock
 70
     0
  3

 72
    65
 73
     0
 40
0.0
  0
LTYPE
  5
15
330
5
100
AcDbSymbolTableRecord
100
AcDbLinetypeTableRecord
  2
ByLayer
 70
     0
  3

 72
    65
 73
     0
 40
0.0
  0
LTYPE
  5
16
330
5
100
AcDbSymbolTableRecord
100
AcDbLinetypeTableRecord
  2
Continuous
 70
     0
  3
Solid line
 72
    65
 73
     0
 40
0.0
  0
LTYPE
  5
133
330
5
100
AcDbSymbolTableRecord
100
AcDbLinetypeTableRecord
  2
AI-Linetype-1
 70
     0
  3
Adobe Illustrator Linetype No. 1
 72
    65
 73
     2
 40
7.270862246391072
 49
3.635375106750391
 74
     0
 49
-3.635487139640682
 74
     0
  0
LTYPE
  5
139
330
5
100
AcDbSymbolTableRecord
100
AcDbLinetypeTableRecord
  2
AI-Linetype-2
 70
     0
  3
Adobe Illustrator Linetype No. 2
 72
    65
 73
     2
 40
7.270862246391072
 49
3.635375106750391
 74
     0
 49
-3.635487139640682
 74
     0
  0
LTYPE
  5
13F
330
5
100
AcDbSymbolTableRecord
100
AcDbLinetypeTableRecord
  2
AI-Linetype-3
 70
     0
  3
Adobe Illustrator Linetype No. 3
 72
    65
 73
     2
 40
7.270862246391072
 49
3.635375106750391
 74
     0
 49
-3.635487139640682
 74
     0
  0
LTYPE
  5
145
330
5
100
AcDbSymbolTableRecord
100
AcDbLinetypeTableRecord
  2
AI-Linetype-4
 70
     0
  3
Adobe Illustrator Linetype No. 4
 72
    65
 73
     2
 40
7.270862246391072
 49
3.635375106750391
 74
     0
 49
-3.635487139640682
 74
     0
  0
LTYPE
  5
14B
330
5
100
AcDbSymbolTableRecord
100
AcDbLinetypeTableRecord
  2
AI-Linetype-5
 70
     0
  3
Adobe Illustrator Linetype No. 5
 72
    65
 73
     2
 40
7.270862246391072
 49
3.635375106750391
 74
     0
 49
-3.635487139640682
 74
     0
  0
LTYPE
  5
151
330
5
100
AcDbSymbolTableRecord
100
AcDbLinetypeTableRecord
  2
AI-Linetype-6
 70
     0
  3
Adobe Illustrator Linetype No. 6
 72
    65
 73
     2
 40
7.270862246391072
 49
3.635375106750391
 74
     0
 49
-3.635487139640682
 74
     0
  0
LTYPE
  5
157
330
5
100
AcDbSymbolTableRecord
100
AcDbLinetypeTableRecord
  2
AI-Linetype-7
 70
     0
  3
Adobe Illustrator Linetype No. 7
 72
    65
 73
     2
 40
7.270862246391072
 49
3.635375106750391
 74
     0
 49
-3.635487139640682
 74
     0
  0
LTYPE
  5
15D
330
5
100
AcDbSymbolTableRecord
100
AcDbLinetypeTableRecord
  2
AI-Linetype-8
 70
     0
  3
Adobe Illustrator Linetype No. 8
 72
    65
 73
     2
 40
7.270862246391072
 49
3.635375106750391
 74
     0
 49
-3.635487139640682
 74
     0
  0
LTYPE
  5
163
330
5
100
AcDbSymbolTableRecord
100
AcDbLinetypeTableRecord
  2
AI-Linetype-9
 70
     0
  3
Adobe Illustrator Linetype No. 9
 72
    65
 73
     2
 40
7.270862246391072
 49
3.635375106750391
 74
     0
 49
-3.635487139640682
 74
     0
  0
LTYPE
  5
169
330
5
100
AcDbSymbolTableRecord
100
AcDbLinetypeTableRecord
  2
AI-Linetype-10
 70
     0
  3
Adobe Illustrator Linetype No. 10
 72
    65
 73
     2
 40
7.270862246391072
 49
3.635375106750391
 74
     0
 49
-3.635487139640682
 74
     0
  0
LTYPE
  5
16F
330
5
100
AcDbSymbolTableRecord
100
AcDbLinetypeTableRecord
  2
AI-Linetype-11
 70
     0
  3
Adobe Illustrator Linetype No. 11
 72
    65
 73
     2
 40
7.270862246391072
 49
3.635375106750391
 74
     0
 49
-3.635487139640682
 74
     0
  0
LTYPE
  5
175
330
5
100
AcDbSymbolTableRecord
100
AcDbLinetypeTableRecord
  2
AI-Linetype-12
 70
     0
  3
Adobe Illustrator Linetype No. 12
 72
    65
 73
     2
 40
7.270862246391072
 49
3.635375106750391
 74
     0
 49
-3.635487139640682
 74
     0
  0
LTYPE
  5
17B
330
5
100
AcDbSymbolTableRecord
100
AcDbLinetypeTableRecord
  2
AI-Linetype-13
 70
     0
  3
Adobe Illustrator Linetype No. 13
 72
    65
 73
     2
 40
7.270862246391072
 49
3.635375106750391
 74
     0
 49
-3.635487139640682
 74
     0
  0
LTYPE
  5
181
330
5
100
AcDbSymbolTableRecord
100
AcDbLinetypeTableRecord
  2
AI-Linetype-14
 70
     0
  3
Adobe Illustrator Linetype No. 14
 72
    65
 73
     2
 40
7.270862246391072
 49
3.635375106750391
 74
     0
 49
-3.635487139640682
 74
     0
  0
LTYPE
  5
187
330
5
100
AcDbSymbolTableRecord
100
AcDbLinetypeTableRecord
  2
AI-Linetype-15
 70
     0
  3
Adobe Illustrator Linetype No. 15
 72
    65
 73
     2
 40
7.270862246391072
 49
3.635375106750391
 74
     0
 49
-3.635487139640682
 74
     0
  0
LTYPE
  5
18D
330
5
100
AcDbSymbolTableRecord
100
AcDbLinetypeTableRecord
  2
AI-Linetype-16
 70
     0
  3
Adobe Illustrator Linetype No. 16
 72
    65
 73
     2
 40
7.270862246391072
 49
3.635375106750391
 74
     0
 49
-3.635487139640682
 74
     0
  0
LTYPE
  5
193
330
5
100
AcDbSymbolTableRecord
100
AcDbLinetypeTableRecord
  2
AI-Linetype-17
 70
     0
  3
Adobe Illustrator Linetype No. 17
 72
    65
 73
     2
 40
7.270862246391072
 49
3.635375106750391
 74
     0
 49
-3.635487139640682
 74
     0
  0
LTYPE
  5
199
330
5
100
AcDbSymbolTableRecord
100
AcDbLinetypeTableRecord
  2
AI-Linetype-18
 70
     0
  3
Adobe Illustrator Linetype No. 18
 72
    65
 73
     2
 40
7.270862246391072
 49
3.635375106750391
 74
     0
 49
-3.635487139640682
 74
     0
  0
LTYPE
  5
19F
330
5
100
AcDbSymbolTableRecord
100
AcDbLinetypeTableRecord
  2
AI-Linetype-19
 70
     0
  3
Adobe Illustrator Linetype No. 19
 72
    65
 73
     2
 40
7.270862246391072
 49
3.635375106750391
 74
     0
 49
-3.635487139640682
 74
     0
  0
LTYPE
  5
1A5
330
5
100
AcDbSymbolTableRecord
100
AcDbLinetypeTableRecord
  2
AI-Linetype-20
 70
     0
  3
Adobe Illustrator Linetype No. 20
 72
    65
 73
     2
 40
7.270862246391072
 49
3.635375106750391
 74
     0
 49
-3.635487139640682
 74
     0
  0
LTYPE
  5
1AB
330
5
100
AcDbSymbolTableRecord
100
AcDbLinetypeTableRecord
  2
AI-Linetype-21
 70
     0
  3
Adobe Illustrator Linetype No. 21
 72
    65
 73
     2
 40
7.270862246391072
 49
3.635375106750391
 74
     0
 49
-3.635487139640682
 74
     0
  0
LTYPE
  5
221
330
5
100
AcDbSymbolTableRecord
100
AcDbLinetypeTableRecord
  2
AI-Linetype-22
 70
     0
  3
Adobe Illustrator Linetype No. 22
 72
    65
 73
     2
 40
7.270862246391072
 49
3.635375106750391
 74
     0
 49
-3.635487139640682
 74
     0
  0
LTYPE
  5
227
330
5
100
AcDbSymbolTableRecord
100
AcDbLinetypeTableRecord
  2
AI-Linetype-23
 70
     0
  3
Adobe Illustrator Linetype No. 23
 72
    65
 73
     2
 40
7.270862246391072
 49
3.635375106750391
 74
     0
 49
-3.635487139640682
 74
     0
  0
LTYPE
  5
22D
330
5
100
AcDbSymbolTableRecord
100
AcDbLinetypeTableRecord
  2
AI-Linetype-24
 70
     0
  3
Adobe Illustrator Linetype No. 24
 72
    65
 73
     2
 40
7.270862246391072
 49
3.635375106750391
 74
     0
 49
-3.635487139640682
 74
     0
  0
LTYPE
  5
233
330
5
100
AcDbSymbolTableRecord
100
AcDbLinetypeTableRecord
  2
AI-Linetype-25
 70
     0
  3
Adobe Illustrator Linetype No. 25
 72
    65
 73
     2
 40
7.270862246391072
 49
3.635375106750391
 74
     0
 49
-3.635487139640682
 74
     0
  0
LTYPE
  5
257
330
5
100
AcDbSymbolTableRecord
100
AcDbLinetypeTableRecord
  2
AI-Linetype-26
 70
     0
  3
Adobe Illustrator Linetype No. 26
 72
    65
 73
     2
 40
7.148192960223653
 49
3.574096480111827
 74
     0
 49
-3.574096480111827
 74
     0
  0
LTYPE
  5
260
330
5
100
AcDbSymbolTableRecord
100
AcDbLinetypeTableRecord
  2
AI-Linetype-27
 70
     0
  3
Adobe Illustrator Linetype No. 27
 72
    65
 73
     4
 40
32.16702644550625
 49
21.44473700517077
 74
     0
 49
-3.574096480111827
 74
     0
 49
3.574096480111827
 74
     0
 49
-3.574096480111827
 74
     0
  0
LTYPE
  5
279
330
5
100
AcDbSymbolTableRecord
100
AcDbLinetypeTableRecord
  2
AI-Linetype-28
 70
     0
  3
Adobe Illustrator Linetype No. 28
 72
    65
 73
     2
 40
7.14817815707899
 49
3.574089078539495
 74
     0
 49
-3.574089078539495
 74
     0
  0
LTYPE
  5
282
330
5
100
AcDbSymbolTableRecord
100
AcDbLinetypeTableRecord
  2
AI-Linetype-29
 70
     0
  3
Adobe Illustrator Linetype No. 29
 72
    65
 73
     4
 40
32.16696117709569
 49
21.4446939414772
 74
     0
 49
-3.574089078539495
 74
     0
 49
3.574089078539495
 74
     0
 49
-3.574089078539495
 74
     0
  0
ENDTAB
  0
TABLE
  2
LAYER
  5
2
330
0
100
AcDbSymbolTable
 70
     1
  0
LAYER
  5
10
330
2
100
AcDbSymbolTableRecord
100
AcDbLayerTableRecord
  2
0
 70
     0
 62
     7
  6
Continuous
370
    -3
390
F
347
3E
  0
ENDTAB
  0
TABLE
  2
STYLE
  5
3
330
0
100
AcDbSymbolTable
 70
     1
  0
STYLE
  5
11
330
3
100
AcDbSymbolTableRecord
100
AcDbTextStyleTableRecord
  2
Standard
 70
     0
 40
0.0
 41
1.0
 50
0.0
 71
     0
 42
0.2
  3
txt
  4

  0
ENDTAB
  0
TABLE
  2
VIEW
  5
6
330
0
100
AcDbSymbolTable
 70
     0
  0
ENDTAB
  0
TABLE
  2
UCS
  5
7
330
0
100
AcDbSymbolTable
 70
     0
  0
ENDTAB
  0
TABLE
  2
APPID
  5
9
330
0
100
AcDbSymbolTable
 70
     1
  0
APPID
  5
12
330
9
100
AcDbSymbolTableRecord
100
AcDbRegAppTableRecord
  2
ACAD
 70
     0
  0
ENDTAB
  0
TABLE
  2
DIMSTYLE
  5
A
330
0
100
AcDbSymbolTable
 70
     1
100
AcDbDimStyleTable
  0
DIMSTYLE
105
27
330
A
100
AcDbSymbolTableRecord
100
AcDbDimStyleTableRecord
  2
Standard
 70
     0
178
     0
340
11
  0
ENDTAB
  0
TABLE
  2
BLOCK_RECORD
  5
1
330
0
100
AcDbSymbolTable
 70
   109
  0
BLOCK_RECORD
  5
1F
330
1
100
AcDbSymbolTableRecord
100
AcDbBlockTableRecord
  2
*Model_Space
340
22
 70
     0
280
     1
281
     0
  0
BLOCK_RECORD
  5
1B
330
1
100
AcDbSymbolTableRecord
100
AcDbBlockTableRecord
  2
*Paper_Space
340
1E
 70
     0
280
     1
281
     0
  0
BLOCK_RECORD
  5
23
330
1
100
AcDbSymbolTableRecord
100
AcDbBlockTableRecord
  2
*Paper_Space0
340
26
 70
     0
280
     1
281
     0
  0
BLOCK_RECORD
  5
40
330
1
100
AcDbSymbolTableRecord
100
AcDbBlockTableRecord
  2
block 2
340
0
102
{BLKREFS
331
41
102
}
 70
     0
280
     1
281
     0
  0
BLOCK_RECORD
  5
45
330
1
100
AcDbSymbolTableRecord
100
AcDbBlockTableRecord
  2
block 3
340
0
102
{BLKREFS
331
46
102
}
 70
     0
280
     1
281
     0
  0
BLOCK_RECORD
  5
4A
330
1
100
AcDbSymbolTableRecord
100
AcDbBlockTableRecord
  2
block 4
340
0
102
{BLKREFS
331
4B
102
}
 70
     0
280
     1
281
     0
  0
BLOCK_RECORD
  5
4F
330
1
100
AcDbSymbolTableRecord
100
AcDbBlockTableRecord
  2
block 5
340
0
102
{BLKREFS
331
50
102
}
 70
     0
280
     1
281
     0
  0
BLOCK_RECORD
  5
54
330
1
100
AcDbSymbolTableRecord
100
AcDbBlockTableRecord
  2
block 6
340
0
102
{BLKREFS
331
55
102
}
 70
     0
280
     1
281
     0
  0
BLOCK_RECORD
  5
5C
330
1
100
AcDbSymbolTableRecord
100
AcDbBlockTableRecord
  2
block 7
340
0
102
{BLKREFS
331
5D
102
}
 70
     0
280
     1
281
     0
  0
BLOCK_RECORD
  5
61
330
1
100
AcDbSymbolTableRecord
100
AcDbBlockTableRecord
  2
block 8
340
0
102
{BLKREFS
331
62
102
}
 70
     0
280
     1
281
     0
  0
BLOCK_RECORD
  5
66
330
1
100
AcDbSymbolTableRecord
100
AcDbBlockTableRecord
  2
block 9
340
0
102
{BLKREFS
331
67
102
}
 70
     0
280
     1
281
     0
  0
BLOCK_RECORD
  5
6B
330
1
100
AcDbSymbolTableRecord
100
AcDbBlockTableRecord
  2
block 10
340
0
102
{BLKREFS
331
6C
102
}
 70
     0
280
     1
281
     0
  0
BLOCK_RECORD
  5
70
330
1
100
AcDbSymbolTableRecord
100
AcDbBlockTableRecord
  2
block 11
340
0
102
{BLKREFS
331
71
102
}
 70
     0
280
     1
281
     0
  0
BLOCK_RECORD
  5
75
330
1
100
AcDbSymbolTableRecord
100
AcDbBlockTableRecord
  2
block 12
340
0
102
{BLKREFS
331
76
102
}
 70
     0
280
     1
281
     0
  0
BLOCK_RECORD
  5
7A
330
1
100
AcDbSymbolTableRecord
100
AcDbBlockTableRecord
  2
block 13
340
0
102
{BLKREFS
331
7B
102
}
 70
     0
280
     1
281
     0
  0
BLOCK_RECORD
  5
7F
330
1
100
AcDbSymbolTableRecord
100
AcDbBlockTableRecord
  2
block 14
340
0
102
{BLKREFS
331
80
102
}
 70
     0
280
     1
281
     0
  0
BLOCK_RECORD
  5
84
330
1
100
AcDbSymbolTableRecord
100
AcDbBlockTableRecord
  2
block 15
340
0
102
{BLKREFS
331
85
102
}
 70
     0
280
     1
281
     0
  0
BLOCK_RECORD
  5
89
330
1
100
AcDbSymbolTableRecord
100
AcDbBlockTableRecord
  2
block 16
340
0
102
{BLKREFS
331
8A
102
}
 70
     0
280
     1
281
     0
  0
BLOCK_RECORD
  5
8E
330
1
100
AcDbSymbolTableRecord
100
AcDbBlockTableRecord
  2
block 17
340
0
102
{BLKREFS
331
8F
102
}
 70
     0
280
     1
281
     0
  0
BLOCK_RECORD
  5
93
330
1
100
AcDbSymbolTableRecord
100
AcDbBlockTableRecord
  2
block 18
340
0
102
{BLKREFS
331
94
102
}
 70
     0
280
     1
281
     0
  0
BLOCK_RECORD
  5
98
330
1
100
AcDbSymbolTableRecord
100
AcDbBlockTableRecord
  2
block 19
340
0
102
{BLKREFS
331
99
102
}
 70
     0
280
     1
281
     0
  0
BLOCK_RECORD
  5
9D
330
1
100
AcDbSymbolTableRecord
100
AcDbBlockTableRecord
  2
block 20
340
0
102
{BLKREFS
331
9E
102
}
 70
     0
280
     1
281
     0
  0
BLOCK_RECORD
  5
A2
330
1
100
AcDbSymbolTableRecord
100
AcDbBlockTableRecord
  2
block 21
340
0
102
{BLKREFS
331
A3
102
}
 70
     0
280
     1
281
     0
  0
BLOCK_RECORD
  5
A7
330
1
100
AcDbSymbolTableRecord
100
AcDbBlockTableRecord
  2
block 22
340
0
102
{BLKREFS
331
A8
102
}
 70
     0
280
     1
281
     0
  0
BLOCK_RECORD
  5
AC
330
1
100
AcDbSymbolTableRecord
100
AcDbBlockTableRecord
  2
block 23
340
0
102
{BLKREFS
331
AD
102
}
 70
     0
280
     1
281
     0
  0
BLOCK_RECORD
  5
B1
330
1
100
AcDbSymbolTableRecord
100
AcDbBlockTableRecord
  2
block 24
340
0
102
{BLKREFS
331
B2
102
}
 70
     0
280
     1
281
     0
  0
BLOCK_RECORD
  5
B6
330
1
100
AcDbSymbolTableRecord
100
AcDbBlockTableRecord
  2
block 25
340
0
102
{BLKREFS
331
B7
102
}
 70
     0
280
     1
281
     0
  0
BLOCK_RECORD
  5
BB
330
1
100
AcDbSymbolTableRecord
100
AcDbBlockTableRecord
  2
block 26
340
0
102
{BLKREFS
331
BC
102
}
 70
     0
280
     1
281
     0
  0
BLOCK_RECORD
  5
C0
330
1
100
AcDbSymbolTableRecord
100
AcDbBlockTableRecord
  2
block 27
340
0
102
{BLKREFS
331
C1
102
}
 70
     0
280
     1
281
     0
  0
BLOCK_RECORD
  5
C5
330
1
100
AcDbSymbolTableRecord
100
AcDbBlockTableRecord
  2
block 28
340
0
102
{BLKREFS
331
C6
102
}
 70
     0
280
     1
281
     0
  0
BLOCK_RECORD
  5
CA
330
1
100
AcDbSymbolTableRecord
100
AcDbBlockTableRecord
  2
block 29
340
0
102
{BLKREFS
331
CB
102
}
 70
     0
280
     1
281
     0
  0
BLOCK_RECORD
  5
CF
330
1
100
AcDbSymbolTableRecord
100
AcDbBlockTableRecord
  2
block 30
340
0
102
{BLKREFS
331
D0
102
}
 70
     0
280
     1
281
     0
  0
BLOCK_RECORD
  5
D4
330
1
100
AcDbSymbolTableRecord
100
AcDbBlockTableRecord
  2
block 31
340
0
102
{BLKREFS
331
D5
102
}
 70
     0
280
     1
281
     0
  0
BLOCK_RECORD
  5
D9
330
1
100
AcDbSymbolTableRecord
100
AcDbBlockTableRecord
  2
block 32
340
0
102
{BLKREFS
331
DA
102
}
 70
     0
280
     1
281
     0
  0
BLOCK_RECORD
  5
DE
330
1
100
AcDbSymbolTableRecord
100
AcDbBlockTableRecord
  2
block 33
340
0
102
{BLKREFS
331
DF
102
}
 70
     0
280
     1
281
     0
  0
BLOCK_RECORD
  5
E3
330
1
100
AcDbSymbolTableRecord
100
AcDbBlockTableRecord
  2
block 34
340
0
102
{BLKREFS
331
E4
102
}
 70
     0
280
     1
281
     0
  0
BLOCK_RECORD
  5
E8
330
1
100
AcDbSymbolTableRecord
100
AcDbBlockTableRecord
  2
block 35
340
0
102
{BLKREFS
331
E9
102
}
 70
     0
280
     1
281
     0
  0
BLOCK_RECORD
  5
ED
330
1
100
AcDbSymbolTableRecord
100
AcDbBlockTableRecord
  2
block 36
340
0
102
{BLKREFS
331
EE
102
}
 70
     0
280
     1
281
     0
  0
BLOCK_RECORD
  5
F2
330
1
100
AcDbSymbolTableRecord
100
AcDbBlockTableRecord
  2
block 37
340
0
102
{BLKREFS
331
F3
102
}
 70
     0
280
     1
281
     0
  0
BLOCK_RECORD
  5
F7
330
1
100
AcDbSymbolTableRecord
100
AcDbBlockTableRecord
  2
block 38
340
0
102
{BLKREFS
331
F8
102
}
 70
     0
280
     1
281
     0
  0
BLOCK_RECORD
  5
FC
330
1
100
AcDbSymbolTableRecord
100
AcDbBlockTableRecord
  2
block 39
340
0
102
{BLKREFS
331
FD
102
}
 70
     0
280
     1
281
     0
  0
BLOCK_RECORD
  5
101
330
1
100
AcDbSymbolTableRecord
100
AcDbBlockTableRecord
  2
block 40
340
0
102
{BLKREFS
331
102
102
}
 70
     0
280
     1
281
     0
  0
BLOCK_RECORD
  5
106
330
1
100
AcDbSymbolTableRecord
100
AcDbBlockTableRecord
  2
block 41
340
0
102
{BLKREFS
331
107
102
}
 70
     0
280
     1
281
     0
  0
BLOCK_RECORD
  5
10B
330
1
100
AcDbSymbolTableRecord
100
AcDbBlockTableRecord
  2
block 42
340
0
102
{BLKREFS
331
10C
102
}
 70
     0
280
     1
281
     0
  0
BLOCK_RECORD
  5
110
330
1
100
AcDbSymbolTableRecord
100
AcDbBlockTableRecord
  2
block 43
340
0
102
{BLKREFS
331
111
102
}
 70
     0
280
     1
281
     0
  0
BLOCK_RECORD
  5
115
330
1
100
AcDbSymbolTableRecord
100
AcDbBlockTableRecord
  2
block 44
340
0
102
{BLKREFS
331
116
102
}
 70
     0
280
     1
281
     0
  0
BLOCK_RECORD
  5
11A
330
1
100
AcDbSymbolTableRecord
100
AcDbBlockTableRecord
  2
block 45
340
0
102
{BLKREFS
331
11B
102
}
 70
     0
280
     1
281
     0
  0
BLOCK_RECORD
  5
11F
330
1
100
AcDbSymbolTableRecord
100
AcDbBlockTableRecord
  2
block 46
340
0
102
{BLKREFS
331
120
102
}
 70
     0
280
     1
281
     0
  0
BLOCK_RECORD
  5
124
330
1
100
AcDbSymbolTableRecord
100
AcDbBlockTableRecord
  2
block 47
340
0
102
{BLKREFS
331
125
102
}
 70
     0
280
     1
281
     0
  0
BLOCK_RECORD
  5
129
330
1
100
AcDbSymbolTableRecord
100
AcDbBlockTableRecord
  2
block 48
340
0
102
{BLKREFS
331
12A
102
}
 70
     0
280
     1
281
     0
  0
BLOCK_RECORD
  5
12E
330
1
100
AcDbSymbolTableRecord
100
AcDbBlockTableRecord
  2
block 49
340
0
102
{BLKREFS
331
12F
102
}
 70
     0
280
     1
281
     0
  0
BLOCK_RECORD
  5
134
330
1
100
AcDbSymbolTableRecord
100
AcDbBlockTableRecord
  2
block 50
340
0
102
{BLKREFS
331
135
102
}
 70
     0
280
     1
281
     0
  0
BLOCK_RECORD
  5
13A
330
1
100
AcDbSymbolTableRecord
100
AcDbBlockTableRecord
  2
block 51
340
0
102
{BLKREFS
331
13B
102
}
 70
     0
280
     1
281
     0
  0
BLOCK_RECORD
  5
140
330
1
100
AcDbSymbolTableRecord
100
AcDbBlockTableRecord
  2
block 52
340
0
102
{BLKREFS
331
141
102
}
 70
     0
280
     1
281
     0
  0
BLOCK_RECORD
  5
146
330
1
100
AcDbSymbolTableRecord
100
AcDbBlockTableRecord
  2
block 53
340
0
102
{BLKREFS
331
147
102
}
 70
     0
280
     1
281
     0
  0
BLOCK_RECORD
  5
14C
330
1
100
AcDbSymbolTableRecord
100
AcDbBlockTableRecord
  2
block 54
340
0
102
{BLKREFS
331
14D
102
}
 70
     0
280
     1
281
     0
  0
BLOCK_RECORD
  5
152
330
1
100
AcDbSymbolTableRecord
100
AcDbBlockTableRecord
  2
block 55
340
0
102
{BLKREFS
331
153
102
}
 70
     0
280
     1
281
     0
  0
BLOCK_RECORD
  5
158
330
1
100
AcDbSymbolTableRecord
100
AcDbBlockTableRecord
  2
block 56
340
0
102
{BLKREFS
331
159
102
}
 70
     0
280
     1
281
     0
  0
BLOCK_RECORD
  5
15E
330
1
100
AcDbSymbolTableRecord
100
AcDbBlockTableRecord
  2
block 57
340
0
102
{BLKREFS
331
15F
102
}
 70
     0
280
     1
281
     0
  0
BLOCK_RECORD
  5
164
330
1
100
AcDbSymbolTableRecord
100
AcDbBlockTableRecord
  2
block 58
340
0
102
{BLKREFS
331
165
102
}
 70
     0
280
     1
281
     0
  0
BLOCK_RECORD
  5
16A
330
1
100
AcDbSymbolTableRecord
100
AcDbBlockTableRecord
  2
block 59
340
0
102
{BLKREFS
331
16B
102
}
 70
     0
280
     1
281
     0
  0
BLOCK_RECORD
  5
170
330
1
100
AcDbSymbolTableRecord
100
AcDbBlockTableRecord
  2
block 60
340
0
102
{BLKREFS
331
171
102
}
 70
     0
280
     1
281
     0
  0
BLOCK_RECORD
  5
176
330
1
100
AcDbSymbolTableRecord
100
AcDbBlockTableRecord
  2
block 61
340
0
102
{BLKREFS
331
177
102
}
 70
     0
280
     1
281
     0
  0
BLOCK_RECORD
  5
17C
330
1
100
AcDbSymbolTableRecord
100
AcDbBlockTableRecord
  2
block 62
340
0
102
{BLKREFS
331
17D
102
}
 70
     0
280
     1
281
     0
  0
BLOCK_RECORD
  5
182
330
1
100
AcDbSymbolTableRecord
100
AcDbBlockTableRecord
  2
block 63
340
0
102
{BLKREFS
331
183
102
}
 70
     0
280
     1
281
     0
  0
BLOCK_RECORD
  5
188
330
1
100
AcDbSymbolTableRecord
100
AcDbBlockTableRecord
  2
block 64
340
0
102
{BLKREFS
331
189
102
}
 70
     0
280
     1
281
     0
  0
BLOCK_RECORD
  5
18E
330
1
100
AcDbSymbolTableRecord
100
AcDbBlockTableRecord
  2
block 65
340
0
102
{BLKREFS
331
18F
102
}
 70
     0
280
     1
281
     0
  0
BLOCK_RECORD
  5
194
330
1
100
AcDbSymbolTableRecord
100
AcDbBlockTableRecord
  2
block 66
340
0
102
{BLKREFS
331
195
102
}
 70
     0
280
     1
281
     0
  0
BLOCK_RECORD
  5
19A
330
1
100
AcDbSymbolTableRecord
100
AcDbBlockTableRecord
  2
block 67
340
0
102
{BLKREFS
331
19B
102
}
 70
     0
280
     1
281
     0
  0
BLOCK_RECORD
  5
1A0
330
1
100
AcDbSymbolTableRecord
100
AcDbBlockTableRecord
  2
block 68
340
0
102
{BLKREFS
331
1A1
102
}
 70
     0
280
     1
281
     0
  0
BLOCK_RECORD
  5
1A6
330
1
100
AcDbSymbolTableRecord
100
AcDbBlockTableRecord
  2
block 69
340
0
102
{BLKREFS
331
1A7
102
}
 70
     0
280
     1
281
     0
  0
BLOCK_RECORD
  5
1AC
330
1
100
AcDbSymbolTableRecord
100
AcDbBlockTableRecord
  2
block 70
340
0
102
{BLKREFS
331
1AD
102
}
 70
     0
280
     1
281
     0
  0
BLOCK_RECORD
  5
1B1
330
1
100
AcDbSymbolTableRecord
100
AcDbBlockTableRecord
  2
block 71
340
0
102
{BLKREFS
331
1B2
102
}
 70
     0
280
     1
281
     0
  0
BLOCK_RECORD
  5
1B6
330
1
100
AcDbSymbolTableRecord
100
AcDbBlockTableRecord
  2
block 72
340
0
102
{BLKREFS
331
1B7
102
}
 70
     0
280
     1
281
     0
  0
BLOCK_RECORD
  5
1BB
330
1
100
AcDbSymbolTableRecord
100
AcDbBlockTableRecord
  2
block 73
340
0
102
{BLKREFS
331
1BC
102
}
 70
     0
280
     1
281
     0
  0
BLOCK_RECORD
  5
1C0
330
1
100
AcDbSymbolTableRecord
100
AcDbBlockTableRecord
  2
block 74
340
0
102
{BLKREFS
331
1C1
102
}
 70
     0
280
     1
281
     0
  0
BLOCK_RECORD
  5
1C5
330
1
100
AcDbSymbolTableRecord
100
AcDbBlockTableRecord
  2
block 75
340
0
102
{BLKREFS
331
1C6
102
}
 70
     0
280
     1
281
     0
  0
BLOCK_RECORD
  5
1CA
330
1
100
AcDbSymbolTableRecord
100
AcDbBlockTableRecord
  2
block 76
340
0
102
{BLKREFS
331
1CB
102
}
 70
     0
280
     1
281
     0
  0
BLOCK_RECORD
  5
1CF
330
1
100
AcDbSymbolTableRecord
100
AcDbBlockTableRecord
  2
block 77
340
0
102
{BLKREFS
331
1D0
102
}
 70
     0
280
     1
281
     0
  0
BLOCK_RECORD
  5
1D4
330
1
100
AcDbSymbolTableRecord
100
AcDbBlockTableRecord
  2
block 78
340
0
102
{BLKREFS
331
1D5
102
}
 70
     0
280
     1
281
     0
  0
BLOCK_RECORD
  5
1DC
330
1
100
AcDbSymbolTableRecord
100
AcDbBlockTableRecord
  2
block 79
340
0
102
{BLKREFS
331
1DD
102
}
 70
     0
280
     1
281
     0
  0
BLOCK_RECORD
  5
1E1
330
1
100
AcDbSymbolTableRecord
100
AcDbBlockTableRecord
  2
block 80
340
0
102
{BLKREFS
331
1E2
102
}
 70
     0
280
     1
281
     0
  0
BLOCK_RECORD
  5
1E9
330
1
100
AcDbSymbolTableRecord
100
AcDbBlockTableRecord
  2
block 81
340
0
102
{BLKREFS
331
1EA
102
}
 70
     0
280
     1
281
     0
  0
BLOCK_RECORD
  5
1EE
330
1
100
AcDbSymbolTableRecord
100
AcDbBlockTableRecord
  2
block 82
340
0
102
{BLKREFS
331
1EF
102
}
 70
     0
280
     1
281
     0
  0
BLOCK_RECORD
  5
1F3
330
1
100
AcDbSymbolTableRecord
100
AcDbBlockTableRecord
  2
block 83
340
0
102
{BLKREFS
331
1F4
102
}
 70
     0
280
     1
281
     0
  0
BLOCK_RECORD
  5
1F8
330
1
100
AcDbSymbolTableRecord
100
AcDbBlockTableRecord
  2
block 84
340
0
102
{BLKREFS
331
1F9
102
}
 70
     0
280
     1
281
     0
  0
BLOCK_RECORD
  5
200
330
1
100
AcDbSymbolTableRecord
100
AcDbBlockTableRecord
  2
block 85
340
0
102
{BLKREFS
331
201
102
}
 70
     0
280
     1
281
     0
  0
BLOCK_RECORD
  5
205
330
1
100
AcDbSymbolTableRecord
100
AcDbBlockTableRecord
  2
block 86
340
0
102
{BLKREFS
331
206
102
}
 70
     0
280
     1
281
     0
  0
BLOCK_RECORD
  5
20D
330
1
100
AcDbSymbolTableRecord
100
AcDbBlockTableRecord
  2
block 87
340
0
102
{BLKREFS
331
20E
102
}
 70
     0
280
     1
281
     0
  0
BLOCK_RECORD
  5
212
330
1
100
AcDbSymbolTableRecord
100
AcDbBlockTableRecord
  2
block 88
340
0
102
{BLKREFS
331
213
102
}
 70
     0
280
     1
281
     0
  0
BLOCK_RECORD
  5
217
330
1
100
AcDbSymbolTableRecord
100
AcDbBlockTableRecord
  2
block 89
340
0
102
{BLKREFS
331
218
102
}
 70
     0
280
     1
281
     0
  0
BLOCK_RECORD
  5
21C
330
1
100
AcDbSymbolTableRecord
100
AcDbBlockTableRecord
  2
block 90
340
0
102
{BLKREFS
331
21D
102
}
 70
     0
280
     1
281
     0
  0
BLOCK_RECORD
  5
222
330
1
100
AcDbSymbolTableRecord
100
AcDbBlockTableRecord
  2
block 91
340
0
102
{BLKREFS
331
223
102
}
 70
     0
280
     1
281
     0
  0
BLOCK_RECORD
  5
228
330
1
100
AcDbSymbolTableRecord
100
AcDbBlockTableRecord
  2
block 92
340
0
102
{BLKREFS
331
229
102
}
 70
     0
280
     1
281
     0
  0
BLOCK_RECORD
  5
22E
330
1
100
AcDbSymbolTableRecord
100
AcDbBlockTableRecord
  2
block 93
340
0
102
{BLKREFS
331
22F
102
}
 70
     0
280
     1
281
     0
  0
BLOCK_RECORD
  5
234
330
1
100
AcDbSymbolTableRecord
100
AcDbBlockTableRecord
  2
block 94
340
0
102
{BLKREFS
331
235
102
}
 70
     0
280
     1
281
     0
  0
BLOCK_RECORD
  5
239
330
1
100
AcDbSymbolTableRecord
100
AcDbBlockTableRecord
  2
block 95
340
0
102
{BLKREFS
331
23A
102
}
 70
     0
280
     1
281
     0
  0
BLOCK_RECORD
  5
23E
330
1
100
AcDbSymbolTableRecord
100
AcDbBlockTableRecord
  2
block 96
340
0
102
{BLKREFS
331
23F
102
}
 70
     0
280
     1
281
     0
  0
BLOCK_RECORD
  5
243
330
1
100
AcDbSymbolTableRecord
100
AcDbBlockTableRecord
  2
block 97
340
0
102
{BLKREFS
331
244
102
}
 70
     0
280
     1
281
     0
  0
BLOCK_RECORD
  5
248
330
1
100
AcDbSymbolTableRecord
100
AcDbBlockTableRecord
  2
block 98
340
0
102
{BLKREFS
331
249
102
}
 70
     0
280
     1
281
     0
  0
BLOCK_RECORD
  5
250
330
1
100
AcDbSymbolTableRecord
100
AcDbBlockTableRecord
  2
block 99
340
0
102
{BLKREFS
331
251
102
}
 70
     0
280
     1
281
     0
  0
BLOCK_RECORD
  5
259
330
1
100
AcDbSymbolTableRecord
100
AcDbBlockTableRecord
  2
block 100
340
0
102
{BLKREFS
331
25A
102
}
 70
     0
280
     1
281
     0
  0
BLOCK_RECORD
  5
262
330
1
100
AcDbSymbolTableRecord
100
AcDbBlockTableRecord
  2
block 101
340
0
102
{BLKREFS
331
263
102
}
 70
     0
280
     1
281
     0
  0
BLOCK_RECORD
  5
26A
330
1
100
AcDbSymbolTableRecord
100
AcDbBlockTableRecord
  2
block 102
340
0
102
{BLKREFS
331
26B
102
}
 70
     0
280
     1
281
     0
  0
BLOCK_RECORD
  5
272
330
1
100
AcDbSymbolTableRecord
100
AcDbBlockTableRecord
  2
block 103
340
0
102
{BLKREFS
331
273
102
}
 70
     0
280
     1
281
     0
  0
BLOCK_RECORD
  5
27B
330
1
100
AcDbSymbolTableRecord
100
AcDbBlockTableRecord
  2
block 104
340
0
102
{BLKREFS
331
27C
102
}
 70
     0
280
     1
281
     0
  0
BLOCK_RECORD
  5
284
330
1
100
AcDbSymbolTableRecord
100
AcDbBlockTableRecord
  2
block 105
340
0
102
{BLKREFS
331
285
102
}
 70
     0
280
     1
281
     0
  0
BLOCK_RECORD
  5
28C
330
1
100
AcDbSymbolTableRecord
100
AcDbBlockTableRecord
  2
block 106
340
0
102
{BLKREFS
331
28D
102
}
 70
     0
280
     1
281
     0
  0
BLOCK_RECORD
  5
294
330
1
100
AcDbSymbolTableRecord
100
AcDbBlockTableRecord
  2
block 107
340
0
102
{BLKREFS
331
295
102
}
 70
     0
280
     1
281
     0
  0
BLOCK_RECORD
  5
29C
330
1
100
AcDbSymbolTableRecord
100
AcDbBlockTableRecord
  2
block 108
340
0
102
{BLKREFS
331
29D
102
}
 70
     0
280
     1
281
     0
  0
BLOCK_RECORD
  5
2A4
330
1
100
AcDbSymbolTableRecord
100
AcDbBlockTableRecord
  2
block 109
340
0
102
{BLKREFS
331
2A5
102
}
 70
     0
280
     1
281
     0
  0
ENDTAB
  0
ENDSEC
  0
SECTION
  2
BLOCKS
  0
BLOCK
  5
20
330
1F
100
AcDbEntity
  8
0
100
AcDbBlockBegin
  2
*Model_Space
 70
     0
 10
0.0
 20
0.0
 30
0.0
  3
*Model_Space
  1

  0
ENDBLK
  5
21
330
1F
100
AcDbEntity
  8
0
100
AcDbBlockEnd
  0
BLOCK
  5
1C
330
1B
100
AcDbEntity
 67
     1
  8
0
100
AcDbBlockBegin
  2
*Paper_Space
 70
     0
 10
0.0
 20
0.0
 30
0.0
  3
*Paper_Space
  1

  0
ENDBLK
  5
1D
330
1B
100
AcDbEntity
 67
     1
  8
0
100
AcDbBlockEnd
  0
BLOCK
  5
24
330
23
100
AcDbEntity
  8
0
100
AcDbBlockBegin
  2
*Paper_Space0
 70
     0
 10
0.0
 20
0.0
 30
0.0
  3
*Paper_Space0
  1

  0
ENDBLK
  5
25
330
23
100
AcDbEntity
  8
0
100
AcDbBlockEnd
  0
BLOCK
  5
42
330
40
100
AcDbEntity
  8
0
100
AcDbBlockBegin
  2
block 2
 70
     0
 10
0.0
 20
0.0
 30
0.0
  3
block 2
  1

  0
SPLINE
  5
44
330
40
100
AcDbEntity
  8
0
 62
   250
370
    25
100
AcDbSpline
210
0.0
220
0.0
230
1.0
 70
     8
 71
     3
 72
    38
 73
    34
 74
     0
 42
0.0000000001
 43
0.0000000001
 12
1.0
 22
0.0
 32
0.0
 13
1.0
 23
0.0
 33
0.0
 40
0.0
 40
0.0
 40
0.0
 40
0.0
 40
1.0
 40
1.0
 40
1.0
 40
2.0
 40
2.0
 40
2.0
 40
3.0
 40
3.0
 40
3.0
 40
4.0
 40
4.0
 40
4.0
 40
5.0
 40
5.0
 40
5.0
 40
6.0
 40
6.0
 40
6.0
 40
7.0
 40
7.0
 40
7.0
 40
8.0
 40
8.0
 40
8.0
 40
9.0
 40
9.0
 40
9.0
 40
10.0
 40
10.0
 40
10.0
 40
11.0
 40
11.0
 40
11.0
 40
11.0
 10
105.127601362606
 20
471.6494302593151
 30
0.0
 10
106.8255913904322
 20
471.6495008148791
 30
0.0
 10
108.5234755849389
 20
471.6309799812348
 30
0.0
 10
110.2210070016525
 20
471.5930210917197
 30
0.0
 10
111.8188786944935
 20
471.5573199800284
 30
0.0
 10
113.4164328873478
 20
471.5043680347065
 30
0.0
 10
115.0130345801943
 20
471.430954977954
 30
0.0
 10
116.4507804370955
 20
471.3648091435389
 30
0.0
 10
117.8877854606541
 20
471.2820474755221
 30
0.0
 10
119.3233088175004
 20
471.1776958071361
 30
0.0
 10
120.6714138396186
 20
471.0797294166487
 30
0.0
 10
122.0182135839082
 20
470.9627483036143
 30
0.0
 10
123.3616972170315
 20
470.8154283012076
 30
0.0
 10
124.432801123483
 20
470.6979885770597
 30
0.0
 10
125.5017530854436
 20
470.5612519081495
 30
0.0
 10
126.5657661584494
 20
470.389837183114
 30
0.0
 10
127.4192767279984
 20
470.2523596808538
 30
0.0
 10
128.2696122974834
 20
470.0925513449071
 30
0.0
 10
129.105589811192
 20
469.8724180079693
 30
0.0
 10
129.3801920379193
 20
469.8000985623347
 30
0.0
 10
129.653242042396
 20
469.7212880054824
 30
0.0
 10
129.9213531578916
 20
469.6276960595088
 30
0.0
 10
130.1620534396123
 20
469.5436643914585
 30
0.0
 10
130.3988026101699
 20
469.447673556559
 30
0.0
 10
130.6226753916114
 20
469.3249421656635
 30
0.0
 10
130.7509101159338
 20
469.254668831174
 30
0.0
 10
130.8749115068627
 20
469.1755760520978
 30
0.0
 10
130.977252341853
 20
469.0708716059315
 30
0.0
 10
131.0219140092649
 20
469.0251868829728
 30
0.0
 10
131.0624128988211
 20
468.9746338265842
 30
0.0
 10
131.0902117881469
 20
468.9173779923052
 30
0.0
 10
131.1134245663104
 20
468.8696118804125
 30
0.0
 10
131.1277473443305
 20
468.8171538240065
 30
0.0
 10
131.1276062332287
 20
468.763743267565
 30
0.0
  0
ENDBLK
  5
43
330
40
100
AcDbEntity
  8
0
100
AcDbBlockEnd
  0
BLOCK
  5
47
330
45
100
AcDbEntity
  8
0
100
AcDbBlockBegin
  2
block 3
 70
     0
 10
0.0
 20
0.0
 30
0.0
  3
block 3
  1

  0
SPLINE
  5
49
330
45
100
AcDbEntity
  8
0
 62
   250
370
    25
100
AcDbSpline
210
0.0
220
0.0
230
1.0
 70
     8
 71
     3
 72
    35
 73
    31
 74
     0
 42
0.0000000001
 43
0.0000000001
 12
1.0
 22
0.0
 32
0.0
 13
1.0
 23
0.0
 33
0.0
 40
0.0
 40
0.0
 40
0.0
 40
0.0
 40
1.0
 40
1.0
 40
1.0
 40
2.0
 40
2.0
 40
2.0
 40
3.0
 40
3.0
 40
3.0
 40
4.0
 40
4.0
 40
4.0
 40
5.0
 40
5.0
 40
5.0
 40
6.0
 40
6.0
 40
6.0
 40
7.0
 40
7.0
 40
7.0
 40
8.0
 40
8.0
 40
8.0
 40
9.0
 40
9.0
 40
9.0
 40
10.0
 40
10.0
 40
10.0
 40
10.0
 10
131.1276062332287
 20
468.763743267565
 30
0.0
 10
131.1276767887671
 20
468.7102974333547
 30
0.0
 10
131.11331873299
 20
468.6575924325008
 30
0.0
 10
131.0900001214805
 20
468.6096852094863
 30
0.0
 10
131.0619895654639
 20
468.5522529863309
 30
0.0
 10
131.0210673425762
 20
468.5018057632745
 30
0.0
 10
130.9760528973962
 20
468.456191595867
 30
0.0
 10
130.8726537290257
 20
468.3513813163743
 30
0.0
 10
130.7477351158698
 20
468.2722532595228
 30
0.0
 10
130.6184773359743
 20
468.2021563139168
 30
0.0
 10
130.4356678885485
 20
468.102990478966
 30
0.0
 10
130.2441448298374
 20
468.0219221443019
 30
0.0
 10
130.0493056599848
 20
467.9502024208946
 30
0.0
 10
129.7927656557755
 20
467.8557638082455
 30
0.0
 10
129.5304753737047
 20
467.7775176958525
 30
0.0
 10
129.2665623138205
 20
467.7058685280093
 30
0.0
 10
128.4530920227141
 20
467.4849238021718
 30
0.0
 10
127.6244522868997
 20
467.3266324106925
 30
0.0
 10
126.7925669954816
 20
467.1908482417917
 30
0.0
 10
125.7461575339065
 20
467.0200332389975
 30
0.0
 10
124.6945975166583
 20
466.8848487923306
 30
0.0
 10
123.6409208327268
 20
466.7687849015364
 30
0.0
 10
122.3168752554749
 20
466.6229112880218
 30
0.0
 10
120.9895135670438
 20
466.5071648972449
 30
0.0
 10
119.6608818786047
 20
466.4102921178875
 30
0.0
 10
118.2491004665739
 20
466.307351560644
 30
0.0
 10
116.835872665639
 20
466.2257187815196
 30
0.0
 10
115.4219393091166
 20
466.1597140582188
 30
0.0
 10
111.9931156418121
 20
465.9996587778183
 30
0.0
 10
108.5600586410884
 20
465.9314668322567
 30
0.0
 10
105.127601362606
 20
465.9298087766726
 30
0.0
  0
ENDBLK
  5
48
330
45
100
AcDbEntity
  8
0
100
AcDbBlockEnd
  0
BLOCK
  5
4C
330
4A
100
AcDbEntity
  8
0
100
AcDbBlockBegin
  2
block 4
 70
     0
 10
0.0
 20
0.0
 30
0.0
  3
block 4
  1

  0
SPLINE
  5
4E
330
4A
100
AcDbEntity
  8
0
 62
   250
370
    25
100
AcDbSpline
210
0.0
220
0.0
230
1.0
 70
     8
 71
     3
 72
    38
 73
    34
 74
     0
 42
0.0000000001
 43
0.0000000001
 12
1.0
 22
0.0
 32
0.0
 13
1.0
 23
0.0
 33
0.0
 40
0.0
 40
0.0
 40
0.0
 40
0.0
 40
1.0
 40
1.0
 40
1.0
 40
2.0
 40
2.0
 40
2.0
 40
3.0
 40
3.0
 40
3.0
 40
4.0
 40
4.0
 40
4.0
 40
5.0
 40
5.0
 40
5.0
 40
6.0
 40
6.0
 40
6.0
 40
7.0
 40
7.0
 40
7.0
 40
8.0
 40
8.0
 40
8.0
 40
9.0
 40
9.0
 40
9.0
 40
10.0
 40
10.0
 40
10.0
 40
11.0
 40
11.0
 40
11.0
 40
11.0
 10
105.127601362606
 20
465.9298087766726
 30
0.0
 10
103.4494374462133
 20
465.929667665558
 30
0.0
 10
101.7713440853582
 20
465.9473771102956
 30
0.0
 10
100.0935682245406
 20
465.983184055332
 30
0.0
 10
98.33952180689909
 20
466.0205785003882
 30
0.0
 10
96.58582816705066
 20
466.077728501334
 30
0.0
 10
94.8333339716591
 20
466.1595376693222
 30
0.0
 10
93.41851867069161
 20
466.2255776704179
 30
0.0
 10
92.00447948082379
 20
466.3076690606426
 30
0.0
 10
90.59181612434756
 20
466.410750729001
 30
0.0
 10
89.26329026924164
 20
466.5076940639224
 30
0.0
 10
87.93599913637424
 20
466.6231935102574
 30
0.0
 10
86.61198883689156
 20
466.7689965682025
 30
0.0
 10
85.55968798630067
 20
466.8848487923306
 30
0.0
 10
84.509468524663
 20
467.0198215723189
 30
0.0
 10
83.46450545196623
 20
467.1904954640107
 30
0.0
 10
82.66310016104266
 20
467.3213760217074
 30
0.0
 10
81.86476403685056
 20
467.4732821353074
 30
0.0
 10
81.07969235734942
 20
467.6809976942619
 30
0.0
 10
80.78491124136951
 20
467.7589968622206
 30
0.0
 10
80.49199984767739
 20
467.8448629747256
 30
0.0
 10
80.20600289854721
 20
467.9502729764587
 30
0.0
 10
80.01116372869498
 20
468.0220985331987
 30
0.0
 10
79.81957011444547
 20
468.102990478966
 30
0.0
 10
79.63672538923767
 20
468.2021210361357
 30
0.0
 10
79.50746760934223
 20
468.2722179817411
 30
0.0
 10
79.38258427395515
 20
468.3514165941431
 30
0.0
 10
79.27918510559783
 20
468.456191595867
 30
0.0
 10
79.23417066041809
 20
468.5018057632745
 30
0.0
 10
79.19321315972208
 20
468.5522529863309
 30
0.0
 10
79.16523788148754
 20
468.6096852094863
 30
0.0
 10
79.14191927000334
 20
468.6575571547185
 30
0.0
 10
79.12756121420158
 20
468.7103327111364
 30
0.0
 10
79.12763176976529
 20
468.763743267565
 30
0.0
  0
ENDBLK
  5
4D
330
4A
100
AcDbEntity
  8
0
100
AcDbBlockEnd
  0
BLOCK
  5
51
330
4F
100
AcDbEntity
  8
0
100
AcDbBlockBegin
  2
block 5
 70
     0
 10
0.0
 20
0.0
 30
0.0
  3
block 5
  1

  0
SPLINE
  5
53
330
4F
100
AcDbEntity
  8
0
 62
   250
370
    25
100
AcDbSpline
210
0.0
220
0.0
230
1.0
 70
     8
 71
     3
 72
    35
 73
    31
 74
     0
 42
0.0000000001
 43
0.0000000001
 12
1.0
 22
0.0
 32
0.0
 13
1.0
 23
0.0
 33
0.0
 40
0.0
 40
0.0
 40
0.0
 40
0.0
 40
1.0
 40
1.0
 40
1.0
 40
2.0
 40
2.0
 40
2.0
 40
3.0
 40
3.0
 40
3.0
 40
4.0
 40
4.0
 40
4.0
 40
5.0
 40
5.0
 40
5.0
 40
6.0
 40
6.0
 40
6.0
 40
7.0
 40
7.0
 40
7.0
 40
8.0
 40
8.0
 40
8.0
 40
9.0
 40
9.0
 40
9.0
 40
10.0
 40
10.0
 40
10.0
 40
10.0
 10
79.12763176976529
 20
468.763743267565
 30
0.0
 10
79.12749065866355
 20
468.8171538240065
 30
0.0
 10
79.14181343667046
 20
468.8696118804125
 30
0.0
 10
79.16502621482147
 20
468.9173779923052
 30
0.0
 10
79.19278982639055
 20
468.9746338265842
 30
0.0
 10
79.23332399372906
 20
469.0251868829728
 30
0.0
 10
79.2779503833333
 20
469.0708716059315
 30
0.0
 10
79.38029121834867
 20
469.1755760520978
 30
0.0
 10
79.50429260927788
 20
469.254668831174
 30
0.0
 10
79.63252733360055
 20
469.3249421656635
 30
0.0
 10
79.8564001150424
 20
469.447673556559
 30
0.0
 10
80.09311400784304
 20
469.5436643914585
 30
0.0
 10
80.33384956732004
 20
469.6276960595088
 30
0.0
 10
80.60196068281631
 20
469.7213232832638
 30
0.0
 10
80.87501068729301
 20
469.8000985623347
 30
0.0
 10
81.1496129140197
 20
469.8724180079693
 30
0.0
 10
81.98559042772858
 20
470.0925160671316
 30
0.0
 10
82.83592599721324
 20
470.2523949586361
 30
0.0
 10
83.68947184454456
 20
470.389872460896
 30
0.0
 10
84.75348491755007
 20
470.5612871859122
 30
0.0
 10
85.82247215729235
 20
470.6979180214896
 30
0.0
 10
86.89354078596251
 20
470.8153930234188
 30
0.0
 10
88.23705969686746
 20
470.9627130258323
 30
0.0
 10
89.58382416337511
 20
471.0798705277504
 30
0.0
 10
90.93189390771131
 20
471.177801640476
 30
0.0
 10
92.36745254235242
 20
471.2820827532915
 30
0.0
 10
93.80445756589815
 20
471.3645974768722
 30
0.0
 10
95.24223870058138
 20
471.4307785890581
 30
0.0
 10
98.53492542121054
 20
471.5823672026592
 30
0.0
 10
101.831527975247
 20
471.6482308148586
 30
0.0
 10
105.127601362606
 20
471.6494302593151
 30
0.0
  0
ENDBLK
  5
52
330
4F
100
AcDbEntity
  8
0
100
AcDbBlockEnd
  0
BLOCK
  5
56
330
54
100
AcDbEntity
  8
0
100
AcDbBlockBegin
  2
block 6
 70
     0
 10
0.0
 20
0.0
 30
0.0
  3
block 6
  1

  0
POLYLINE
  5
58
330
54
100
AcDbEntity
  8
0
 62
   250
370
    25
100
AcDb2dPolyline
 66
     1
 10
0.0
 20
0.0
 30
0.0
  0
VERTEX
  5
59
330
58
100
AcDbEntity
  8
0
 62
   250
370
    25
100
AcDbVertex
100
AcDb2dVertex
 10
-794.7199419979627
 20
582.5194442988144
 30
0.0
  0
VERTEX
  5
5A
330
58
100
AcDbEntity
  8
0
 62
   250
370
    25
100
AcDbVertex
100
AcDb2dVertex
 10
1004.975180000963
 20
582.5194442988144
 30
0.0
  0
SEQEND
  5
5B
330
58
100
AcDbEntity
  8
0
 62
   250
370
    25
  0
ENDBLK
  5
57
330
54
100
AcDbEntity
  8
0
100
AcDbBlockEnd
  0
BLOCK
  5
5E
330
5C
100
AcDbEntity
  8
0
100
AcDbBlockBegin
  2
block 7
 70
     0
 10
0.0
 20
0.0
 30
0.0
  3
block 7
  1

  0
SPLINE
  5
60
330
5C
100
AcDbEntity
  8
0
 62
   250
370
    25
100
AcDbSpline
210
0.0
220
0.0
230
1.0
 70
     8
 71
     3
 72
     8
 73
     4
 74
     0
 42
0.0000000001
 43
0.0000000001
 12
1.0
 22
0.0
 32
0.0
 13
1.0
 23
0.0
 33
0.0
 40
0.0
 40
0.0
 40
0.0
 40
0.0
 40
1.0
 40
1.0
 40
1.0
 40
1.0
 10
-794.7199419979627
 20
582.5194442988144
 30
0.0
 10
-797.2078720387462
 20
419.8337821877711
 30
0.0
 10
-797.2067078720646
 20
257.2051289665654
 30
0.0
 10
-794.7199419979627
 20
94.51946685553585
 30
0.0
  0
ENDBLK
  5
5F
330
5C
100
AcDbEntity
  8
0
100
AcDbBlockEnd
  0
BLOCK
  5
63
330
61
100
AcDbEntity
  8
0
100
AcDbBlockBegin
  2
block 8
 70
     0
 10
0.0
 20
0.0
 30
0.0
  3
block 8
  1

  0
SPLINE
  5
65
330
61
100
AcDbEntity
  8
0
 62
   250
370
    25
100
AcDbSpline
210
0.0
220
0.0
230
1.0
 70
     8
 71
     3
 72
     8
 73
     4
 74
     0
 42
0.0000000001
 43
0.0000000001
 12
1.0
 22
0.0
 32
0.0
 13
1.0
 23
0.0
 33
0.0
 40
0.0
 40
0.0
 40
0.0
 40
0.0
 40
1.0
 40
1.0
 40
1.0
 40
1.0
 10
-794.7199419979627
 20
94.51946685553585
 30
0.0
 10
-793.7400664263529
 20
30.24800338163824
 30
0.0
 10
-788.1247613343086
 20
-33.10150105638372
 30
0.0
 10
-777.7841742203661
 20
-96.54318632692735
 30
0.0
  0
ENDBLK
  5
64
330
61
100
AcDbEntity
  8
0
100
AcDbBlockEnd
  0
BLOCK
  5
68
330
66
100
AcDbEntity
  8
0
100
AcDbBlockBegin
  2
block 9
 70
     0
 10
0.0
 20
0.0
 30
0.0
  3
block 9
  1

  0
SPLINE
  5
6A
330
66
100
AcDbEntity
  8
0
 62
   250
370
    25
100
AcDbSpline
210
0.0
220
0.0
230
1.0
 70
     8
 71
     3
 72
     8
 73
     4
 74
     0
 42
0.0000000001
 43
0.0000000001
 12
1.0
 22
0.0
 32
0.0
 13
1.0
 23
0.0
 33
0.0
 40
0.0
 40
0.0
 40
0.0
 40
0.0
 40
1.0
 40
1.0
 40
1.0
 40
1.0
 10
1004.975180000963
 20
94.51946685553585
 30
0.0
 10
1003.995304429327
 20
30.24800338163824
 30
0.0
 10
998.379999337309
 20
-33.10150105638372
 30
0.0
 10
988.0394122233535
 20
-96.54318632692735
 30
0.0
  0
ENDBLK
  5
69
330
66
100
AcDbEntity
  8
0
100
AcDbBlockEnd
  0
BLOCK
  5
6D
330
6B
100
AcDbEntity
  8
0
100
AcDbBlockBegin
  2
block 10
 70
     0
 10
0.0
 20
0.0
 30
0.0
  3
block 10
  1

  0
SPLINE
  5
6F
330
6B
100
AcDbEntity
  8
0
 62
   250
370
    25
100
AcDbSpline
210
0.0
220
0.0
230
1.0
 70
     8
 71
     3
 72
     8
 73
     4
 74
     0
 42
0.0000000001
 43
0.0000000001
 12
1.0
 22
0.0
 32
0.0
 13
1.0
 23
0.0
 33
0.0
 40
0.0
 40
0.0
 40
0.0
 40
0.0
 40
1.0
 40
1.0
 40
1.0
 40
1.0
 10
789.6738050830506
 20
-280.7954195740509
 30
0.0
 10
808.4399603906389
 20
-280.538526792074
 30
0.0
 10
827.2059745871261
 20
-280.2710859543577
 30
0.0
 10
845.9718123947282
 20
-279.9930617831314
 30
0.0
  0
ENDBLK
  5
6E
330
6B
100
AcDbEntity
  8
0
100
AcDbBlockEnd
  0
BLOCK
  5
72
330
70
100
AcDbEntity
  8
0
100
AcDbBlockBegin
  2
block 11
 70
     0
 10
0.0
 20
0.0
 30
0.0
  3
block 11
  1

  0
SPLINE
  5
74
330
70
100
AcDbEntity
  8
0
 62
   250
370
    25
100
AcDbSpline
210
0.0
220
0.0
230
1.0
 70
     8
 71
     3
 72
     8
 73
     4
 74
     0
 42
0.0000000001
 43
0.0000000001
 12
1.0
 22
0.0
 32
0.0
 13
1.0
 23
0.0
 33
0.0
 40
0.0
 40
0.0
 40
0.0
 40
0.0
 40
1.0
 40
1.0
 40
1.0
 40
1.0
 10
972.5850641922668
 20
-175.8814614564518
 30
0.0
 10
978.5543465123368
 20
-149.5816666897459
 30
0.0
 10
983.7009157633645
 20
-123.1606574796923
 30
0.0
 10
988.0394122233535
 20
-96.54318632692735
 30
0.0
  0
ENDBLK
  5
73
330
70
100
AcDbEntity
  8
0
100
AcDbBlockEnd
  0
BLOCK
  5
77
330
75
100
AcDbEntity
  8
0
100
AcDbBlockBegin
  2
block 12
 70
     0
 10
0.0
 20
0.0
 30
0.0
  3
block 12
  1

  0
SPLINE
  5
79
330
75
100
AcDbEntity
  8
0
 62
   250
370
    25
100
AcDbSpline
210
0.0
220
0.0
230
1.0
 70
     8
 71
     3
 72
     8
 73
     4
 74
     0
 42
0.0000000001
 43
0.0000000001
 12
1.0
 22
0.0
 32
0.0
 13
1.0
 23
0.0
 33
0.0
 40
0.0
 40
0.0
 40
0.0
 40
0.0
 40
1.0
 40
1.0
 40
1.0
 40
1.0
 10
789.6738050830506
 20
-280.7954195740509
 30
0.0
 10
561.4970641207656
 20
-283.9189140697009
 30
0.0
 10
333.3257206585751
 20
-285.4805554841856
 30
0.0
 10
105.127601362606
 20
-285.4805554841856
 30
0.0
  0
ENDBLK
  5
78
330
75
100
AcDbEntity
  8
0
100
AcDbBlockEnd
  0
BLOCK
  5
7C
330
7A
100
AcDbEntity
  8
0
100
AcDbBlockBegin
  2
block 13
 70
     0
 10
0.0
 20
0.0
 30
0.0
  3
block 13
  1

  0
SPLINE
  5
7E
330
7A
100
AcDbEntity
  8
0
 62
   250
370
    25
100
AcDbSpline
210
0.0
220
0.0
230
1.0
 70
     8
 71
     3
 72
     8
 73
     4
 74
     0
 42
0.0000000001
 43
0.0000000001
 12
1.0
 22
0.0
 32
0.0
 13
1.0
 23
0.0
 33
0.0
 40
0.0
 40
0.0
 40
0.0
 40
0.0
 40
1.0
 40
1.0
 40
1.0
 40
1.0
 10
-579.4185670800503
 20
-280.7954195740509
 30
0.0
 10
-351.241826117778
 20
-283.9189140697009
 30
0.0
 10
-123.070482655574
 20
-285.4805554841856
 30
0.0
 10
105.127601362606
 20
-285.4805554841856
 30
0.0
  0
ENDBLK
  5
7D
330
7A
100
AcDbEntity
  8
0
100
AcDbBlockEnd
  0
BLOCK
  5
81
330
7F
100
AcDbEntity
  8
0
100
AcDbBlockBegin
  2
block 14
 70
     0
 10
0.0
 20
0.0
 30
0.0
  3
block 14
  1

  0
SPLINE
  5
83
330
7F
100
AcDbEntity
  8
0
 62
   250
370
    25
100
AcDbSpline
210
0.0
220
0.0
230
1.0
 70
     8
 71
     3
 72
     8
 73
     4
 74
     0
 42
0.0000000001
 43
0.0000000001
 12
1.0
 22
0.0
 32
0.0
 13
1.0
 23
0.0
 33
0.0
 40
0.0
 40
0.0
 40
0.0
 40
0.0
 40
1.0
 40
1.0
 40
1.0
 40
1.0
 10
-777.7841742203661
 20
-96.54318632692735
 30
0.0
 10
-773.4456777603641
 20
-123.1606574796923
 30
0.0
 10
-768.2991085093366
 20
-149.5816666897459
 30
0.0
 10
-762.3298261892788
 20
-175.8814614564518
 30
0.0
  0
ENDBLK
  5
82
330
7F
100
AcDbEntity
  8
0
100
AcDbBlockEnd
  0
BLOCK
  5
86
330
84
100
AcDbEntity
  8
0
100
AcDbBlockBegin
  2
block 15
 70
     0
 10
0.0
 20
0.0
 30
0.0
  3
block 15
  1

  0
SPLINE
  5
88
330
84
100
AcDbEntity
  8
0
 62
   250
370
    25
100
AcDbSpline
210
0.0
220
0.0
230
1.0
 70
     8
 71
     3
 72
     8
 73
     4
 74
     0
 42
0.0000000001
 43
0.0000000001
 12
1.0
 22
0.0
 32
0.0
 13
1.0
 23
0.0
 33
0.0
 40
0.0
 40
0.0
 40
0.0
 40
0.0
 40
1.0
 40
1.0
 40
1.0
 40
1.0
 10
-762.2742636883721
 20
-176.1261128431636
 30
0.0
 10
-761.847437848034
 20
-178.0049367153865
 30
0.0
 10
-761.4165197854162
 20
-179.8827728098318
 30
0.0
 10
-760.9814389449572
 20
-181.7596564042943
 30
0.0
  0
ENDBLK
  5
87
330
84
100
AcDbEntity
  8
0
100
AcDbBlockEnd
  0
BLOCK
  5
8B
330
89
100
AcDbEntity
  8
0
100
AcDbBlockBegin
  2
block 16
 70
     0
 10
0.0
 20
0.0
 30
0.0
  3
block 16
  1

  0
SPLINE
  5
8D
330
89
100
AcDbEntity
  8
0
 62
   250
370
    25
100
AcDbSpline
210
0.0
220
0.0
230
1.0
 70
     8
 71
     3
 72
     8
 73
     4
 74
     0
 42
0.0000000001
 43
0.0000000001
 12
1.0
 22
0.0
 32
0.0
 13
1.0
 23
0.0
 33
0.0
 40
0.0
 40
0.0
 40
0.0
 40
0.0
 40
1.0
 40
1.0
 40
1.0
 40
1.0
 10
-635.7165743917275
 20
-279.9930617831314
 30
0.0
 10
-616.9507365841379
 20
-280.2710859543577
 30
0.0
 10
-598.1847223876509
 20
-280.538526792074
 30
0.0
 10
-579.4185670800503
 20
-280.7954195740509
 30
0.0
  0
ENDBLK
  5
8C
330
89
100
AcDbEntity
  8
0
100
AcDbBlockEnd
  0
BLOCK
  5
90
330
8E
100
AcDbEntity
  8
0
100
AcDbBlockBegin
  2
block 17
 70
     0
 10
0.0
 20
0.0
 30
0.0
  3
block 17
  1

  0
SPLINE
  5
92
330
8E
100
AcDbEntity
  8
0
 62
   250
370
    25
100
AcDbSpline
210
0.0
220
0.0
230
1.0
 70
     8
 71
     3
 72
     8
 73
     4
 74
     0
 42
0.0000000001
 43
0.0000000001
 12
1.0
 22
0.0
 32
0.0
 13
1.0
 23
0.0
 33
0.0
 40
0.0
 40
0.0
 40
0.0
 40
0.0
 40
1.0
 40
1.0
 40
1.0
 40
1.0
 10
1004.975180000963
 20
94.51946685553585
 30
0.0
 10
1007.462369208378
 20
257.2051289665654
 30
0.0
 10
1007.463533375078
 20
419.8337821877711
 30
0.0
 10
1004.975180000963
 20
582.5194442988144
 30
0.0
  0
ENDBLK
  5
91
330
8E
100
AcDbEntity
  8
0
100
AcDbBlockEnd
  0
BLOCK
  5
95
330
93
100
AcDbEntity
  8
0
100
AcDbBlockBegin
  2
block 18
 70
     0
 10
0.0
 20
0.0
 30
0.0
  3
block 18
  1

  0
SPLINE
  5
97
330
93
100
AcDbEntity
  8
0
 62
   250
370
    25
100
AcDbSpline
210
0.0
220
0.0
230
1.0
 70
     8
 71
     3
 72
    32
 73
    28
 74
     0
 42
0.0000000001
 43
0.0000000001
 12
1.0
 22
0.0
 32
0.0
 13
1.0
 23
0.0
 33
0.0
 40
0.0
 40
0.0
 40
0.0
 40
0.0
 40
1.0
 40
1.0
 40
1.0
 40
2.0
 40
2.0
 40
2.0
 40
3.0
 40
3.0
 40
3.0
 40
4.0
 40
4.0
 40
4.0
 40
5.0
 40
5.0
 40
5.0
 40
6.0
 40
6.0
 40
6.0
 40
7.0
 40
7.0
 40
7.0
 40
8.0
 40
8.0
 40
8.0
 40
9.0
 40
9.0
 40
9.0
 40
9.0
 10
-402.3045052880771
 20
485.4311529852047
 30
0.0
 10
-413.3571038025808
 20
485.3605268729481
 30
0.0
 10
-424.4097023170713
 20
485.2901124273437
 30
0.0
 10
-435.462230276011
 20
485.208550203784
 30
0.0
 10
-443.1341945684283
 20
485.1519646473109
 30
0.0
 10
-450.8061235830767
 20
485.0900168685125
 30
0.0
 10
-458.4779114865971
 20
485.0159688117434
 30
0.0
 10
-469.6955394482512
 20
484.9077013099694
 30
0.0
 10
-480.9129557432264
 20
484.7736104744267
 30
0.0
 10
-492.1293489826292
 20
484.5753493600752
 30
0.0
 10
-501.6896621948846
 20
484.4063688017483
 30
0.0
 10
-511.2492345738088
 20
484.1907157426587
 30
0.0
 10
-520.8062669526666
 20
483.8883146265941
 30
0.0
 10
-528.2866729086161
 20
483.6516360116005
 30
0.0
 10
-535.7655266423152
 20
483.361758506845
 30
0.0
 10
-543.2404645426202
 20
482.9904951674257
 30
0.0
 10
-550.1785099341141
 20
482.6458665506708
 30
0.0
 10
-557.1131686588911
 20
482.2311409883227
 30
0.0
 10
-564.0405954391073
 20
481.7153093132039
 30
0.0
 10
-571.0421055538616
 20
481.1940095824278
 30
0.0
 10
-578.036242612953
 20
480.5694870721967
 30
0.0
 10
-585.0145399495564
 20
479.7974328928816
 30
0.0
 10
-590.7833033774514
 20
479.1592226046345
 30
0.0
 10
-596.5412365273764
 20
478.4202237036296
 30
0.0
 10
-602.2791671769841
 20
477.5473103559903
 30
0.0
 10
-607.9695081035956
 20
476.6816642306823
 30
0.0
 10
-613.6401640298748
 20
475.6843261587829
 30
0.0
 10
-619.2763182889198
 20
474.5159614174107
 30
0.0
  0
ENDBLK
  5
96
330
93
100
AcDbEntity
  8
0
100
AcDbBlockEnd
  0
BLOCK
  5
9A
330
98
100
AcDbEntity
  8
0
100
AcDbBlockBegin
  2
block 19
 70
     0
 10
0.0
 20
0.0
 30
0.0
  3
block 19
  1

  0
SPLINE
  5
9C
330
98
100
AcDbEntity
  8
0
 62
   250
370
    25
100
AcDbSpline
210
0.0
220
0.0
230
1.0
 70
     8
 71
     3
 72
    29
 73
    25
 74
     0
 42
0.0000000001
 43
0.0000000001
 12
1.0
 22
0.0
 32
0.0
 13
1.0
 23
0.0
 33
0.0
 40
0.0
 40
0.0
 40
0.0
 40
0.0
 40
1.0
 40
1.0
 40
1.0
 40
2.0
 40
2.0
 40
2.0
 40
3.0
 40
3.0
 40
3.0
 40
4.0
 40
4.0
 40
4.0
 40
5.0
 40
5.0
 40
5.0
 40
6.0
 40
6.0
 40
6.0
 40
7.0
 40
7.0
 40
7.0
 40
8.0
 40
8.0
 40
8.0
 40
8.0
 10
-619.2763182889198
 20
474.5159614174107
 30
0.0
 10
-625.446930890067
 20
473.2361894519827
 30
0.0
 10
-631.5765154349866
 20
471.7512419276593
 30
0.0
 10
-637.6300058119784
 20
469.9981127322515
 30
0.0
 10
-643.5411503533196
 20
468.286223259749
 30
0.0
 10
-649.3797637823462
 20
466.3186051719259
 30
0.0
 10
-655.0940230426761
 20
464.0342631900434
 30
0.0
 10
-660.3433564620503
 20
461.9357998223242
 30
0.0
 10
-665.4877737685989
 20
459.5700367279908
 30
0.0
 10
-670.4709716280652
 20
456.9004966842396
 30
0.0
 10
-674.7143944753882
 20
454.6272319247417
 30
0.0
 10
-678.8408714874654
 20
452.1336927172123
 30
0.0
 10
-682.8116676636756
 20
449.4119768392579
 30
0.0
 10
-686.8616271745004
 20
446.6360390159807
 30
0.0
 10
-690.7496264048921
 20
443.6227522999309
 30
0.0
 10
-694.4393292431452
 20
440.3834761357185
 30
0.0
 10
-698.3481423627687
 20
436.9518655239114
 30
0.0
 10
-702.0344232565353
 20
433.2666076857242
 30
0.0
 10
-705.4739713684637
 20
429.3647442884388
 30
0.0
 10
-708.8204919788784
 20
425.5683967262129
 30
0.0
 10
-711.9334736965568
 20
421.5669794384065
 30
0.0
 10
-714.8143276326721
 20
417.4061065924279
 30
0.0
 10
-718.0726890749631
 20
412.7000156819673
 30
0.0
 10
-721.0341527346166
 20
407.789913379254
 30
0.0
 10
-723.7266233343028
 20
402.7392996853583
 30
0.0
  0
ENDBLK
  5
9B
330
98
100
AcDbEntity
  8
0
100
AcDbBlockEnd
  0
BLOCK
  5
9F
330
9D
100
AcDbEntity
  8
0
100
AcDbBlockBegin
  2
block 20
 70
     0
 10
0.0
 20
0.0
 30
0.0
  3
block 20
  1

  0
SPLINE
  5
A1
330
9D
100
AcDbEntity
  8
0
 62
   250
370
    25
100
AcDbSpline
210
0.0
220
0.0
230
1.0
 70
     8
 71
     3
 72
    23
 73
    19
 74
     0
 42
0.0000000001
 43
0.0000000001
 12
1.0
 22
0.0
 32
0.0
 13
1.0
 23
0.0
 33
0.0
 40
0.0
 40
0.0
 40
0.0
 40
0.0
 40
1.0
 40
1.0
 40
1.0
 40
2.0
 40
2.0
 40
2.0
 40
3.0
 40
3.0
 40
3.0
 40
4.0
 40
4.0
 40
4.0
 40
5.0
 40
5.0
 40
5.0
 40
6.0
 40
6.0
 40
6.0
 40
6.0
 10
-723.7266233343028
 20
402.7392996853583
 30
0.0
 10
-725.5545061420479
 20
399.3100174069264
 30
0.0
 10
-727.2597281144488
 20
395.8171292941209
 30
0.0
 10
-728.8548481405827
 20
392.2742878471552
 30
0.0
 10
-730.6382103920437
 20
388.3134047266876
 30
0.0
 10
-732.2840245856808
 20
384.2901504940713
 30
0.0
 10
-733.8124696107338
 20
380.2239984829843
 30
0.0
 10
-736.9949485517891
 20
371.7575786219749
 30
0.0
 10
-739.6686513733968
 20
363.1053859801675
 30
0.0
 10
-741.9942683559543
 20
354.3643286146551
 30
0.0
 10
-744.6264492324316
 20
344.4710637302839
 30
0.0
 10
-746.8127542682755
 20
334.4640280106929
 30
0.0
 10
-748.7226931884628
 20
324.406474512521
 30
0.0
 10
-749.9385418195046
 20
318.0038399631247
 30
0.0
 10
-751.0424187820444
 20
311.5807443022846
 30
0.0
 10
-752.0650510210216
 20
305.1445958634578
 30
0.0
 10
-753.0898352044919
 20
298.694830202186
 30
0.0
 10
-754.0329866088376
 20
292.2319764851446
 30
0.0
 10
-754.9252674567966
 20
285.7628080457703
 30
0.0
  0
ENDBLK
  5
A0
330
9D
100
AcDbEntity
  8
0
100
AcDbBlockEnd
  0
BLOCK
  5
A4
330
A2
100
AcDbEntity
  8
0
100
AcDbBlockBegin
  2
block 21
 70
     0
 10
0.0
 20
0.0
 30
0.0
  3
block 21
  1

  0
SPLINE
  5
A6
330
A2
100
AcDbEntity
  8
0
 62
   250
370
    25
100
AcDbSpline
210
0.0
220
0.0
230
1.0
 70
     8
 71
     3
 72
     8
 73
     4
 74
     0
 42
0.0000000001
 43
0.0000000001
 12
1.0
 22
0.0
 32
0.0
 13
1.0
 23
0.0
 33
0.0
 40
0.0
 40
0.0
 40
0.0
 40
0.0
 40
1.0
 40
1.0
 40
1.0
 40
1.0
 10
-754.9252674567966
 20
285.7628080457703
 30
0.0
 10
-755.0020319024972
 20
285.2058424810779
 30
0.0
 10
-755.0783730148663
 20
284.6488416386175
 30
0.0
 10
-755.1543613494483
 20
284.0918055183745
 30
0.0
  0
ENDBLK
  5
A5
330
A2
100
AcDbEntity
  8
0
100
AcDbBlockEnd
  0
BLOCK
  5
A9
330
A7
100
AcDbEntity
  8
0
100
AcDbBlockBegin
  2
block 22
 70
     0
 10
0.0
 20
0.0
 30
0.0
  3
block 22
  1

  0
SPLINE
  5
AB
330
A7
100
AcDbEntity
  8
0
 62
   250
370
    25
100
AcDbSpline
210
0.0
220
0.0
230
1.0
 70
     8
 71
     3
 72
     8
 73
     4
 74
     0
 42
0.0000000001
 43
0.0000000001
 12
1.0
 22
0.0
 32
0.0
 13
1.0
 23
0.0
 33
0.0
 40
0.0
 40
0.0
 40
0.0
 40
0.0
 40
1.0
 40
1.0
 40
1.0
 40
1.0
 10
-755.1543613494483
 20
284.0918055183745
 30
0.0
 10
-762.8468925866423
 20
227.6998887607243
 30
0.0
 10
-766.6668762603632
 20
171.433631449574
 30
0.0
 10
-766.6668409825951
 20
114.5194624611328
 30
0.0
  0
ENDBLK
  5
AA
330
A7
100
AcDbEntity
  8
0
100
AcDbBlockEnd
  0
BLOCK
  5
AE
330
AC
100
AcDbEntity
  8
0
100
AcDbBlockBegin
  2
block 23
 70
     0
 10
0.0
 20
0.0
 30
0.0
  3
block 23
  1

  0
SPLINE
  5
B0
330
AC
100
AcDbEntity
  8
0
 62
   250
370
    25
100
AcDbSpline
210
0.0
220
0.0
230
1.0
 70
     8
 71
     3
 72
     8
 73
     4
 74
     0
 42
0.0000000001
 43
0.0000000001
 12
1.0
 22
0.0
 32
0.0
 13
1.0
 23
0.0
 33
0.0
 40
0.0
 40
0.0
 40
0.0
 40
0.0
 40
1.0
 40
1.0
 40
1.0
 40
1.0
 10
-755.1543613494483
 20
-55.05288641721665
 30
0.0
 10
-762.8468925866423
 20
1.339028915861054
 30
0.0
 10
-766.6668762603632
 20
57.60528480561077
 30
0.0
 10
-766.6668409825951
 20
114.5194624611328
 30
0.0
  0
ENDBLK
  5
AF
330
AC
100
AcDbEntity
  8
0
100
AcDbBlockEnd
  0
BLOCK
  5
B3
330
B1
100
AcDbEntity
  8
0
100
AcDbBlockBegin
  2
block 24
 70
     0
 10
0.0
 20
0.0
 30
0.0
  3
block 24
  1

  0
SPLINE
  5
B5
330
B1
100
AcDbEntity
  8
0
 62
   250
370
    25
100
AcDbSpline
210
0.0
220
0.0
230
1.0
 70
     8
 71
     3
 72
     8
 73
     4
 74
     0
 42
0.0000000001
 43
0.0000000001
 12
1.0
 22
0.0
 32
0.0
 13
1.0
 23
0.0
 33
0.0
 40
0.0
 40
0.0
 40
0.0
 40
0.0
 40
1.0
 40
1.0
 40
1.0
 40
1.0
 10
-754.9252674567966
 20
-56.72388890238872
 30
0.0
 10
-755.0020319024972
 20
-56.16695862954494
 30
0.0
 10
-755.0783730148663
 20
-55.6099578011628
 30
0.0
 10
-755.1543613494483
 20
-55.05288641721665
 30
0.0
  0
ENDBLK
  5
B4
330
B1
100
AcDbEntity
  8
0
100
AcDbBlockEnd
  0
BLOCK
  5
B8
330
B6
100
AcDbEntity
  8
0
100
AcDbBlockBegin
  2
block 25
 70
     0
 10
0.0
 20
0.0
 30
0.0
  3
block 25
  1

  0
SPLINE
  5
BA
330
B6
100
AcDbEntity
  8
0
 62
   250
370
    25
100
AcDbSpline
210
0.0
220
0.0
230
1.0
 70
     8
 71
     3
 72
     8
 73
     4
 74
     0
 42
0.0000000001
 43
0.0000000001
 12
1.0
 22
0.0
 32
0.0
 13
1.0
 23
0.0
 33
0.0
 40
0.0
 40
0.0
 40
0.0
 40
0.0
 40
1.0
 40
1.0
 40
1.0
 40
1.0
 10
-723.7266233343028
 20
-173.7003775869016
 30
0.0
 10
-742.0511008568943
 20
-139.330932336243
 30
0.0
 10
-749.7918568171016
 20
-93.97334134971776
 30
0.0
 10
-754.9252674567966
 20
-56.72388890238872
 30
0.0
  0
ENDBLK
  5
B9
330
B6
100
AcDbEntity
  8
0
100
AcDbBlockEnd
  0
BLOCK
  5
BD
330
BB
100
AcDbEntity
  8
0
100
AcDbBlockBegin
  2
block 26
 70
     0
 10
0.0
 20
0.0
 30
0.0
  3
block 26
  1

  0
SPLINE
  5
BF
330
BB
100
AcDbEntity
  8
0
 62
   250
370
    25
100
AcDbSpline
210
0.0
220
0.0
230
1.0
 70
     8
 71
     3
 72
    29
 73
    25
 74
     0
 42
0.0000000001
 43
0.0000000001
 12
1.0
 22
0.0
 32
0.0
 13
1.0
 23
0.0
 33
0.0
 40
0.0
 40
0.0
 40
0.0
 40
0.0
 40
1.0
 40
1.0
 40
1.0
 40
2.0
 40
2.0
 40
2.0
 40
3.0
 40
3.0
 40
3.0
 40
4.0
 40
4.0
 40
4.0
 40
5.0
 40
5.0
 40
5.0
 40
6.0
 40
6.0
 40
6.0
 40
7.0
 40
7.0
 40
7.0
 40
8.0
 40
8.0
 40
8.0
 40
8.0
 10
-619.2763182889198
 20
-245.4770727835008
 30
0.0
 10
-625.366074222075
 20
-244.2140225169362
 30
0.0
 10
-631.4155782101147
 20
-242.7513353076855
 30
0.0
 10
-637.391669141402
 20
-241.0281569896334
 30
0.0
 10
-643.3078936828185
 20
-239.3221942269857
 30
0.0
 10
-649.1521515563938
 20
-237.3609614666185
 30
0.0
 10
-654.8726197057119
 20
-235.0836398201467
 30
0.0
 10
-659.9103922883005
 20
-233.0780981712779
 30
0.0
 10
-664.8521387581817
 20
-230.8274112468024
 30
0.0
 10
-669.6486466145775
 20
-228.2985237692371
 30
0.0
 10
-674.2716230792412
 20
-225.8611468464065
 30
0.0
 10
-678.7596973194687
 20
-223.1653249258686
 30
0.0
 10
-683.063198223347
 20
-220.2001218966305
 30
0.0
 10
-687.2502824586506
 20
-217.3151758111073
 30
0.0
 10
-691.2626005799651
 20
-214.1752066722988
 30
0.0
 10
-695.0607473088885
 20
-210.7945019800723
 30
0.0
 10
-698.8546959821936
 20
-207.4175014544577
 30
0.0
 10
-702.434931874209
 20
-203.800294542102
 30
0.0
 10
-705.7795122067986
 20
-199.9778062426851
 30
0.0
 10
-709.1463880953238
 20
-196.1298121101513
 30
0.0
 10
-712.2744687021469
 20
-192.0737496461445
 30
0.0
 10
-715.1660823606557
 20
-187.8568205168864
 30
0.0
 10
-718.2862960229199
 20
-183.3064458350154
 30
0.0
 10
-721.131166625102
 20
-178.5687461548318
 30
0.0
 10
-723.7266233343028
 20
-173.7003775869016
 30
0.0
  0
ENDBLK
  5
BE
330
BB
100
AcDbEntity
  8
0
100
AcDbBlockEnd
  0
BLOCK
  5
C2
330
C0
100
AcDbEntity
  8
0
100
AcDbBlockBegin
  2
block 27
 70
     0
 10
0.0
 20
0.0
 30
0.0
  3
block 27
  1

  0
SPLINE
  5
C4
330
C0
100
AcDbEntity
  8
0
 62
   250
370
    25
100
AcDbSpline
210
0.0
220
0.0
230
1.0
 70
     8
 71
     3
 72
    32
 73
    28
 74
     0
 42
0.0000000001
 43
0.0000000001
 12
1.0
 22
0.0
 32
0.0
 13
1.0
 23
0.0
 33
0.0
 40
0.0
 40
0.0
 40
0.0
 40
0.0
 40
1.0
 40
1.0
 40
1.0
 40
2.0
 40
2.0
 40
2.0
 40
3.0
 40
3.0
 40
3.0
 40
4.0
 40
4.0
 40
4.0
 40
5.0
 40
5.0
 40
5.0
 40
6.0
 40
6.0
 40
6.0
 40
7.0
 40
7.0
 40
7.0
 40
8.0
 40
8.0
 40
8.0
 40
9.0
 40
9.0
 40
9.0
 40
9.0
 10
-402.3045052880771
 20
-256.3922280629529
 30
0.0
 10
-413.2662282455259
 20
-256.3223075062442
 30
0.0
 10
-424.2279864807631
 20
-256.2522105606645
 30
0.0
 10
-435.189638882661
 20
-256.1714597259986
 30
0.0
 10
-443.0057128996582
 20
-256.1139216694975
 30
0.0
 10
-450.8217163610977
 20
-256.0509508351327
 30
0.0
 10
-458.6376139892176
 20
-255.9753505561265
 30
0.0
 10
-469.5457852791299
 20
-255.8698699988291
 30
0.0
 10
-480.4537096245813
 20
-255.7397655522565
 30
0.0
 10
-491.360716747806
 20
-255.5499358269234
 30
0.0
 10
-501.16755107522
 20
-255.3792619352312
 30
0.0
 10
-510.973609291509
 20
-255.1603280427566
 30
0.0
 10
-520.7770216744112
 20
-254.8503069265688
 30
0.0
 10
-528.8257879174561
 20
-254.5957777557236
 30
0.0
 10
-536.8727549938027
 20
-254.2798652505584
 30
0.0
 10
-544.9149242922838
 20
-253.8670094104468
 30
0.0
 10
-551.5483813454528
 20
-253.5264377382007
 30
0.0
 10
-558.1785928430196
 20
-253.1198966204222
 30
0.0
 10
-564.8019251738059
 20
-252.6195166122237
 30
0.0
 10
-571.378902503847
 20
-252.1226291040746
 30
0.0
 10
-577.9491065004153
 20
-251.5332432610878
 30
0.0
 10
-584.5055874412113
 20
-250.8147407493085
 30
0.0
 10
-591.0081639366837
 20
-250.1021657980335
 30
0.0
 10
-597.4972643208188
 20
-249.2625899721433
 30
0.0
 10
-603.9596947045344
 20
-248.2487419255797
 30
0.0
 10
-609.0859439552322
 20
-247.4445144327146
 30
0.0
 10
-614.1954009834197
 20
-246.5306083297128
 30
0.0
 10
-619.2763182889198
 20
-245.4770727835008
 30
0.0
  0
ENDBLK
  5
C3
330
C0
100
AcDbEntity
  8
0
100
AcDbBlockEnd
  0
BLOCK
  5
C7
330
C5
100
AcDbEntity
  8
0
100
AcDbBlockBegin
  2
block 28
 70
     0
 10
0.0
 20
0.0
 30
0.0
  3
block 28
  1

  0
SPLINE
  5
C9
330
C5
100
AcDbEntity
  8
0
 62
   250
370
    25
100
AcDbSpline
210
0.0
220
0.0
230
1.0
 70
     8
 71
     3
 72
     8
 73
     4
 74
     0
 42
0.0000000001
 43
0.0000000001
 12
1.0
 22
0.0
 32
0.0
 13
1.0
 23
0.0
 33
0.0
 40
0.0
 40
0.0
 40
0.0
 40
0.0
 40
1.0
 40
1.0
 40
1.0
 40
1.0
 10
-391.2438987179064
 20
-256.4615136196388
 30
0.0
 10
-394.9307793338819
 20
-256.4386888970504
 30
0.0
 10
-398.6176246720949
 20
-256.4155819522317
 30
0.0
 10
-402.3045052880771
 20
-256.3922280629529
 30
0.0
  0
ENDBLK
  5
C8
330
C5
100
AcDbEntity
  8
0
100
AcDbBlockEnd
  0
BLOCK
  5
CC
330
CA
100
AcDbEntity
  8
0
100
AcDbBlockBegin
  2
block 29
 70
     0
 10
0.0
 20
0.0
 30
0.0
  3
block 29
  1

  0
SPLINE
  5
CE
330
CA
100
AcDbEntity
  8
0
 62
   250
370
    25
100
AcDbSpline
210
0.0
220
0.0
230
1.0
 70
     8
 71
     3
 72
    17
 73
    13
 74
     0
 42
0.0000000001
 43
0.0000000001
 12
1.0
 22
0.0
 32
0.0
 13
1.0
 23
0.0
 33
0.0
 40
0.0
 40
0.0
 40
0.0
 40
0.0
 40
1.0
 40
1.0
 40
1.0
 40
2.0
 40
2.0
 40
2.0
 40
3.0
 40
3.0
 40
3.0
 40
4.0
 40
4.0
 40
4.0
 40
4.0
 10
105.127601362606
 20
-258.1845155923272
 30
0.0
 10
84.6897026942657
 20
-258.184445036776
 30
0.0
 10
64.25180402595109
 20
-258.1750964255056
 30
0.0
 10
43.81390535761081
 20
-258.1563286474263
 30
0.0
 10
23.63653308243134
 20
-258.1378078137954
 30
0.0
 10
3.459160807271446
 20
-258.1101500355592
 30
0.0
 10
-16.71821146791444
 20
-258.0739903127419
 30
0.0
 10
-57.95317186602352
 20
-258.00011864487
 30
0.0
 10
-99.18809698634418
 20
-257.8908280875094
 30
0.0
 10
-140.4228809955631
 20
-257.7480589185141
 30
0.0
 10
-224.0305454215318
 20
-257.4585694693213
 30
0.0
 10
-307.6376806808362
 20
-257.0314966845356
 30
0.0
 10
-391.2438987179064
 20
-256.4615136196388
 30
0.0
  0
ENDBLK
  5
CD
330
CA
100
AcDbEntity
  8
0
100
AcDbBlockEnd
  0
BLOCK
  5
D1
330
CF
100
AcDbEntity
  8
0
100
AcDbBlockBegin
  2
block 30
 70
     0
 10
0.0
 20
0.0
 30
0.0
  3
block 30
  1

  0
SPLINE
  5
D3
330
CF
100
AcDbEntity
  8
0
 62
   250
370
    25
100
AcDbSpline
210
0.0
220
0.0
230
1.0
 70
     8
 71
     3
 72
    17
 73
    13
 74
     0
 42
0.0000000001
 43
0.0000000001
 12
1.0
 22
0.0
 32
0.0
 13
1.0
 23
0.0
 33
0.0
 40
0.0
 40
0.0
 40
0.0
 40
0.0
 40
1.0
 40
1.0
 40
1.0
 40
2.0
 40
2.0
 40
2.0
 40
3.0
 40
3.0
 40
3.0
 40
4.0
 40
4.0
 40
4.0
 40
4.0
 10
105.127601362606
 20
-258.1845155923272
 30
0.0
 10
124.7122716836268
 20
-258.184409758994
 30
0.0
 10
144.2969067268652
 20
-258.1758725366315
 30
0.0
 10
163.8815417700786
 20
-258.1586569808016
 30
0.0
 10
184.5758393315002
 20
-258.1404536471562
 30
0.0
 10
205.2701016151654
 20
-258.1125842022677
 30
0.0
 10
225.9643638988056
 20
-258.0757894794403
 30
0.0
 10
267.6261148594709
 20
-258.0017414226706
 30
0.0
 10
309.2878305423291
 20
-257.8914983653022
 30
0.0
 10
350.9494051141107
 20
-257.7471064184929
 30
0.0
 10
434.4666173163759
 20
-257.4576169693122
 30
0.0
 10
517.9833356297456
 20
-257.0308969623063
 30
0.0
 10
601.4991367208876
 20
-256.4615136196388
 30
0.0
  0
ENDBLK
  5
D2
330
CF
100
AcDbEntity
  8
0
100
AcDbBlockEnd
  0
BLOCK
  5
D6
330
D4
100
AcDbEntity
  8
0
100
AcDbBlockBegin
  2
block 31
 70
     0
 10
0.0
 20
0.0
 30
0.0
  3
block 31
  1

  0
SPLINE
  5
D8
330
D4
100
AcDbEntity
  8
0
 62
   250
370
    25
100
AcDbSpline
210
0.0
220
0.0
230
1.0
 70
     8
 71
     3
 72
     8
 73
     4
 74
     0
 42
0.0000000001
 43
0.0000000001
 12
1.0
 22
0.0
 32
0.0
 13
1.0
 23
0.0
 33
0.0
 40
0.0
 40
0.0
 40
0.0
 40
0.0
 40
1.0
 40
1.0
 40
1.0
 40
1.0
 10
601.4991367208876
 20
-256.4615136196388
 30
0.0
 10
605.1859820590875
 20
-256.4386888970504
 30
0.0
 10
608.87286267507
 20
-256.4155819522317
 30
0.0
 10
612.5597432910776
 20
-256.3922280629529
 30
0.0
  0
ENDBLK
  5
D7
330
D4
100
AcDbEntity
  8
0
100
AcDbBlockEnd
  0
BLOCK
  5
DB
330
D9
100
AcDbEntity
  8
0
100
AcDbBlockBegin
  2
block 32
 70
     0
 10
0.0
 20
0.0
 30
0.0
  3
block 32
  1

  0
SPLINE
  5
DD
330
D9
100
AcDbEntity
  8
0
 62
   250
370
    25
100
AcDbSpline
210
0.0
220
0.0
230
1.0
 70
     8
 71
     3
 72
    32
 73
    28
 74
     0
 42
0.0000000001
 43
0.0000000001
 12
1.0
 22
0.0
 32
0.0
 13
1.0
 23
0.0
 33
0.0
 40
0.0
 40
0.0
 40
0.0
 40
0.0
 40
1.0
 40
1.0
 40
1.0
 40
2.0
 40
2.0
 40
2.0
 40
3.0
 40
3.0
 40
3.0
 40
4.0
 40
4.0
 40
4.0
 40
5.0
 40
5.0
 40
5.0
 40
6.0
 40
6.0
 40
6.0
 40
7.0
 40
7.0
 40
7.0
 40
8.0
 40
8.0
 40
8.0
 40
9.0
 40
9.0
 40
9.0
 40
9.0
 10
612.5597432910776
 20
-256.3922280629529
 30
0.0
 10
623.6123418055683
 20
-256.3216372284649
 30
0.0
 10
634.6649403200593
 20
-256.251187505092
 30
0.0
 10
645.7174682790118
 20
-256.1696605593008
 30
0.0
 10
653.3894325714159
 20
-256.113039725039
 30
0.0
 10
661.0613263082829
 20
-256.0510919462473
 30
0.0
 10
668.7331494895847
 20
-255.9770791672602
 30
0.0
 10
679.9507774512388
 20
-255.8688116654868
 30
0.0
 10
691.1681937462015
 20
-255.734720829957
 30
0.0
 10
702.3845869856168
 20
-255.536459715592
 30
0.0
 10
711.9449001978843
 20
-255.3674438794959
 30
0.0
 10
721.5044725767835
 20
-255.1518260981762
 30
0.0
 10
731.0615049556668
 20
-254.8494249821109
 30
0.0
 10
738.5419109116034
 20
-254.6127110893481
 30
0.0
 10
746.0207646453163
 20
-254.3228688623743
 30
0.0
 10
753.4957025455949
 20
-253.951570245174
 30
0.0
 10
760.4337479371023
 20
-253.6069769061873
 30
0.0
 10
767.3684066618787
 20
-253.1922160660582
 30
0.0
 10
774.2958334421077
 20
-252.6764196687146
 30
0.0
 10
781.2973435568621
 20
-252.1551199379446
 30
0.0
 10
788.2914806159409
 20
-251.5305621499321
 30
0.0
 10
795.2697779525568
 20
-250.7585432483923
 30
0.0
 10
801.0385413804261
 20
-250.120333853422
 30
0.0
 10
806.7964745303768
 20
-249.3813349710903
 30
0.0
 10
812.5344051799851
 20
-248.5084216455001
 30
0.0
 10
818.2247461065896
 20
-247.6427755420737
 30
0.0
 10
823.8954020328621
 20
-246.6454022175854
 30
0.0
 10
829.5315562919145
 20
-245.4770727835008
 30
0.0
  0
ENDBLK
  5
DC
330
D9
100
AcDbEntity
  8
0
100
AcDbBlockEnd
  0
BLOCK
  5
E0
330
DE
100
AcDbEntity
  8
0
100
AcDbBlockBegin
  2
block 33
 70
     0
 10
0.0
 20
0.0
 30
0.0
  3
block 33
  1

  0
SPLINE
  5
E2
330
DE
100
AcDbEntity
  8
0
 62
   250
370
    25
100
AcDbSpline
210
0.0
220
0.0
230
1.0
 70
     8
 71
     3
 72
    29
 73
    25
 74
     0
 42
0.0000000001
 43
0.0000000001
 12
1.0
 22
0.0
 32
0.0
 13
1.0
 23
0.0
 33
0.0
 40
0.0
 40
0.0
 40
0.0
 40
0.0
 40
1.0
 40
1.0
 40
1.0
 40
2.0
 40
2.0
 40
2.0
 40
3.0
 40
3.0
 40
3.0
 40
4.0
 40
4.0
 40
4.0
 40
5.0
 40
5.0
 40
5.0
 40
6.0
 40
6.0
 40
6.0
 40
7.0
 40
7.0
 40
7.0
 40
8.0
 40
8.0
 40
8.0
 40
8.0
 10
829.5315562919145
 20
-245.4770727835008
 30
0.0
 10
835.7021688930681
 20
-244.1973008504138
 30
0.0
 10
841.831753437961
 20
-242.7123180858035
 30
0.0
 10
847.8852438149663
 20
-240.9591889346919
 30
0.0
 10
853.7963883562943
 20
-239.2472995054274
 30
0.0
 10
859.635001785347
 20
-237.2797167451112
 30
0.0
 10
865.3492610456768
 20
-234.9953748209239
 30
0.0
 10
870.5985944650514
 20
-232.8969115062094
 30
0.0
 10
875.7430117715869
 20
-230.5311484716438
 30
0.0
 10
880.7262096310467
 20
-227.8616084953342
 30
0.0
 10
884.9696324783754
 20
-225.5883437932694
 30
0.0
 10
889.0961094904659
 20
-223.0947693709465
 30
0.0
 10
893.0669056666507
 20
-220.3730888395389
 30
0.0
 10
897.1168651774938
 20
-217.5971510863866
 30
0.0
 10
901.0048644078928
 20
-214.5838644464554
 30
0.0
 10
904.6945672461455
 20
-211.3445883640715
 30
0.0
 10
908.6033803657688
 20
-207.9129425611897
 30
0.0
 10
912.2896612595105
 20
-204.2277200938752
 30
0.0
 10
915.7292093714389
 20
-200.3258215173789
 30
0.0
 10
919.0757299818531
 20
-196.5294740510488
 30
0.0
 10
922.1887116995572
 20
-192.5280921421054
 30
0.0
 10
925.0695656356722
 20
-188.3672194012365
 30
0.0
 10
928.3279270779639
 20
-183.6611286096571
 30
0.0
 10
931.2893907376173
 20
-178.7510264309977
 30
0.0
 10
933.9818613373031
 20
-173.7003775869016
 30
0.0
  0
ENDBLK
  5
E1
330
DE
100
AcDbEntity
  8
0
100
AcDbBlockEnd
  0
BLOCK
  5
E5
330
E3
100
AcDbEntity
  8
0
100
AcDbBlockBegin
  2
block 34
 70
     0
 10
0.0
 20
0.0
 30
0.0
  3
block 34
  1

  0
SPLINE
  5
E7
330
E3
100
AcDbEntity
  8
0
 62
   250
370
    25
100
AcDbSpline
210
0.0
220
0.0
230
1.0
 70
     8
 71
     3
 72
    23
 73
    19
 74
     0
 42
0.0000000001
 43
0.0000000001
 12
1.0
 22
0.0
 32
0.0
 13
1.0
 23
0.0
 33
0.0
 40
0.0
 40
0.0
 40
0.0
 40
0.0
 40
1.0
 40
1.0
 40
1.0
 40
2.0
 40
2.0
 40
2.0
 40
3.0
 40
3.0
 40
3.0
 40
4.0
 40
4.0
 40
4.0
 40
5.0
 40
5.0
 40
5.0
 40
6.0
 40
6.0
 40
6.0
 40
6.0
 10
933.9818613373031
 20
-173.7003775869016
 30
0.0
 10
935.8097441450487
 20
-170.2710953951
 30
0.0
 10
937.5149661174232
 20
-166.7782073705285
 30
0.0
 10
939.1100861435831
 20
-163.2354012908605
 30
0.0
 10
940.8934483950184
 20
-159.2745182704338
 30
0.0
 10
942.5392625886808
 20
-155.2512288616803
 30
0.0
 10
944.0677076137221
 20
-151.1850769533042
 30
0.0
 10
947.2501865547899
 20
-142.7186925839677
 30
0.0
 10
949.9238893763708
 20
-134.0664648829409
 30
0.0
 10
952.2495063589412
 20
-125.3254430160516
 30
0.0
 10
954.8816872354198
 20
-115.4321783815773
 30
0.0
 10
957.0679922712502
 20
-105.4251429148028
 30
0.0
 10
958.9779311914632
 20
-95.36758967069174
 30
0.0
 10
960.193779822505
 20
-88.96495528304247
 30
0.0
 10
961.2976567850448
 20
-82.54185978447491
 30
0.0
 10
962.3202890240224
 20
-76.10567623044827
 30
0.0
 10
963.3450732074923
 20
-69.6559460098843
 30
0.0
 10
964.288224611825
 20
-63.1930571783351
 30
0.0
 10
965.1805054597976
 20
-56.72388890238872
 30
0.0
  0
ENDBLK
  5
E6
330
E3
100
AcDbEntity
  8
0
100
AcDbBlockEnd
  0
BLOCK
  5
EA
330
E8
100
AcDbEntity
  8
0
100
AcDbBlockBegin
  2
block 35
 70
     0
 10
0.0
 20
0.0
 30
0.0
  3
block 35
  1

  0
SPLINE
  5
EC
330
E8
100
AcDbEntity
  8
0
 62
   250
370
    25
100
AcDbSpline
210
0.0
220
0.0
230
1.0
 70
     8
 71
     3
 72
     8
 73
     4
 74
     0
 42
0.0000000001
 43
0.0000000001
 12
1.0
 22
0.0
 32
0.0
 13
1.0
 23
0.0
 33
0.0
 40
0.0
 40
0.0
 40
0.0
 40
0.0
 40
1.0
 40
1.0
 40
1.0
 40
1.0
 10
965.1805054597976
 20
-56.72388890238872
 30
0.0
 10
965.2572699054908
 20
-56.16695862954494
 30
0.0
 10
965.3336110178539
 20
-55.6099578011628
 30
0.0
 10
965.4095993524224
 20
-55.05288641721665
 30
0.0
  0
ENDBLK
  5
EB
330
E8
100
AcDbEntity
  8
0
100
AcDbBlockEnd
  0
BLOCK
  5
EF
330
ED
100
AcDbEntity
  8
0
100
AcDbBlockBegin
  2
block 36
 70
     0
 10
0.0
 20
0.0
 30
0.0
  3
block 36
  1

  0
SPLINE
  5
F1
330
ED
100
AcDbEntity
  8
0
 62
   250
370
    25
100
AcDbSpline
210
0.0
220
0.0
230
1.0
 70
     8
 71
     3
 72
     8
 73
     4
 74
     0
 42
0.0000000001
 43
0.0000000001
 12
1.0
 22
0.0
 32
0.0
 13
1.0
 23
0.0
 33
0.0
 40
0.0
 40
0.0
 40
0.0
 40
0.0
 40
1.0
 40
1.0
 40
1.0
 40
1.0
 10
965.4095993524224
 20
-55.05288641721665
 30
0.0
 10
973.1021305896305
 20
1.339028915861054
 30
0.0
 10
976.9221142633512
 20
57.60528480561077
 30
0.0
 10
976.9220789855691
 20
114.5194624611328
 30
0.0
  0
ENDBLK
  5
F0
330
ED
100
AcDbEntity
  8
0
100
AcDbBlockEnd
  0
BLOCK
  5
F4
330
F2
100
AcDbEntity
  8
0
100
AcDbBlockBegin
  2
block 37
 70
     0
 10
0.0
 20
0.0
 30
0.0
  3
block 37
  1

  0
SPLINE
  5
F6
330
F2
100
AcDbEntity
  8
0
 62
   250
370
    25
100
AcDbSpline
210
0.0
220
0.0
230
1.0
 70
     8
 71
     3
 72
     8
 73
     4
 74
     0
 42
0.0000000001
 43
0.0000000001
 12
1.0
 22
0.0
 32
0.0
 13
1.0
 23
0.0
 33
0.0
 40
0.0
 40
0.0
 40
0.0
 40
0.0
 40
1.0
 40
1.0
 40
1.0
 40
1.0
 10
965.4095993524224
 20
284.0918055183745
 30
0.0
 10
973.1021305896305
 20
227.6998887607243
 30
0.0
 10
976.9221142633512
 20
171.433631449574
 30
0.0
 10
976.9220789855691
 20
114.5194624611328
 30
0.0
  0
ENDBLK
  5
F5
330
F2
100
AcDbEntity
  8
0
100
AcDbBlockEnd
  0
BLOCK
  5
F9
330
F7
100
AcDbEntity
  8
0
100
AcDbBlockBegin
  2
block 38
 70
     0
 10
0.0
 20
0.0
 30
0.0
  3
block 38
  1

  0
SPLINE
  5
FB
330
F7
100
AcDbEntity
  8
0
 62
   250
370
    25
100
AcDbSpline
210
0.0
220
0.0
230
1.0
 70
     8
 71
     3
 72
     8
 73
     4
 74
     0
 42
0.0000000001
 43
0.0000000001
 12
1.0
 22
0.0
 32
0.0
 13
1.0
 23
0.0
 33
0.0
 40
0.0
 40
0.0
 40
0.0
 40
0.0
 40
1.0
 40
1.0
 40
1.0
 40
1.0
 10
965.1805054597976
 20
285.7628080457703
 30
0.0
 10
965.2572699054908
 20
285.2058424810779
 30
0.0
 10
965.3336110178539
 20
284.6488416386175
 30
0.0
 10
965.4095993524224
 20
284.0918055183745
 30
0.0
  0
ENDBLK
  5
FA
330
F7
100
AcDbEntity
  8
0
100
AcDbBlockEnd
  0
BLOCK
  5
FE
330
FC
100
AcDbEntity
  8
0
100
AcDbBlockBegin
  2
block 39
 70
     0
 10
0.0
 20
0.0
 30
0.0
  3
block 39
  1

  0
SPLINE
  5
100
330
FC
100
AcDbEntity
  8
0
 62
   250
370
    25
100
AcDbSpline
210
0.0
220
0.0
230
1.0
 70
     8
 71
     3
 72
     8
 73
     4
 74
     0
 42
0.0000000001
 43
0.0000000001
 12
1.0
 22
0.0
 32
0.0
 13
1.0
 23
0.0
 33
0.0
 40
0.0
 40
0.0
 40
0.0
 40
0.0
 40
1.0
 40
1.0
 40
1.0
 40
1.0
 10
933.9818613373031
 20
402.7392996853583
 30
0.0
 10
952.3063388598823
 20
368.3698182886733
 30
0.0
 10
960.0470948200896
 20
323.0122261563305
 30
0.0
 10
965.1805054597976
 20
285.7628080457703
 30
0.0
  0
ENDBLK
  5
FF
330
FC
100
AcDbEntity
  8
0
100
AcDbBlockEnd
  0
BLOCK
  5
103
330
101
100
AcDbEntity
  8
0
100
AcDbBlockBegin
  2
block 40
 70
     0
 10
0.0
 20
0.0
 30
0.0
  3
block 40
  1

  0
SPLINE
  5
105
330
101
100
AcDbEntity
  8
0
 62
   250
370
    25
100
AcDbSpline
210
0.0
220
0.0
230
1.0
 70
     8
 71
     3
 72
    29
 73
    25
 74
     0
 42
0.0000000001
 43
0.0000000001
 12
1.0
 22
0.0
 32
0.0
 13
1.0
 23
0.0
 33
0.0
 40
0.0
 40
0.0
 40
0.0
 40
0.0
 40
1.0
 40
1.0
 40
1.0
 40
2.0
 40
2.0
 40
2.0
 40
3.0
 40
3.0
 40
3.0
 40
4.0
 40
4.0
 40
4.0
 40
5.0
 40
5.0
 40
5.0
 40
6.0
 40
6.0
 40
6.0
 40
7.0
 40
7.0
 40
7.0
 40
8.0
 40
8.0
 40
8.0
 40
8.0
 10
829.5315562919145
 20
474.5159614174107
 30
0.0
 10
835.6213122250568
 20
473.2529463967107
 30
0.0
 10
841.6708162131158
 20
471.7902591505109
 30
0.0
 10
847.6469071444029
 20
470.0670455111561
 30
0.0
 10
853.5631316858131
 20
468.3611179831939
 30
0.0
 10
859.4073895593818
 20
466.3998498954934
 30
0.0
 10
865.127857708713
 20
464.1225281914996
 30
0.0
 10
870.1656302912756
 20
462.1169864919626
 30
0.0
 10
875.1073767611701
 20
459.8662995106185
 30
0.0
 10
879.9038846175782
 20
457.3374119691592
 30
0.0
 10
884.5268610822297
 20
454.9000349847771
 30
0.0
 10
889.0149353224691
 20
452.2042129961364
 30
0.0
 10
893.3184362263413
 20
449.239045169767
 30
0.0
 10
897.5054851838437
 20
446.3540637335782
 30
0.0
 10
901.5178385829655
 20
443.214129793225
 30
0.0
 10
905.3159853118889
 20
439.833425015588
 30
0.0
 10
909.1099339851751
 20
436.4564244046794
 30
0.0
 10
912.6901698771841
 20
432.8392174009454
 30
0.0
 10
916.0347502097983
 20
429.0166937271834
 30
0.0
 10
919.4016260983245
 20
425.1686994974459
 30
0.0
 10
922.5297067051471
 20
421.1126369309601
 30
0.0
 10
925.4213203636435
 20
416.8957076951787
 30
0.0
 10
928.541534025895
 20
412.3453328983669
 30
0.0
 10
931.3864046280764
 20
407.607633098493
 30
0.0
 10
933.9818613373031
 20
402.7392996853583
 30
0.0
  0
ENDBLK
  5
104
330
101
100
AcDbEntity
  8
0
100
AcDbBlockEnd
  0
BLOCK
  5
108
330
106
100
AcDbEntity
  8
0
100
AcDbBlockBegin
  2
block 41
 70
     0
 10
0.0
 20
0.0
 30
0.0
  3
block 41
  1

  0
SPLINE
  5
10A
330
106
100
AcDbEntity
  8
0
 62
   250
370
    25
100
AcDbSpline
210
0.0
220
0.0
230
1.0
 70
     8
 71
     3
 72
    32
 73
    28
 74
     0
 42
0.0000000001
 43
0.0000000001
 12
1.0
 22
0.0
 32
0.0
 13
1.0
 23
0.0
 33
0.0
 40
0.0
 40
0.0
 40
0.0
 40
0.0
 40
1.0
 40
1.0
 40
1.0
 40
2.0
 40
2.0
 40
2.0
 40
3.0
 40
3.0
 40
3.0
 40
4.0
 40
4.0
 40
4.0
 40
5.0
 40
5.0
 40
5.0
 40
6.0
 40
6.0
 40
6.0
 40
7.0
 40
7.0
 40
7.0
 40
8.0
 40
8.0
 40
8.0
 40
9.0
 40
9.0
 40
9.0
 40
9.0
 10
612.5597432910776
 20
485.4311529852047
 30
0.0
 10
623.5214662485196
 20
485.3612324285094
 30
0.0
 10
634.4832244837443
 20
485.2911002051351
 30
0.0
 10
645.4448768856486
 20
485.2103846482638
 30
0.0
 10
653.2609509026457
 20
485.152811313981
 30
0.0
 10
661.0769543641046
 20
485.0898757573982
 30
0.0
 10
668.892851992218
 20
485.0142754783782
 30
0.0
 10
679.8010232821047
 20
484.908759643312
 30
0.0
 10
690.7089476275693
 20
484.7786551967461
 30
0.0
 10
701.6159547508067
 20
484.5888254714059
 30
0.0
 10
711.4227890781948
 20
484.4181515797138
 30
0.0
 10
721.2288472944838
 20
484.1992176872405
 30
0.0
 10
731.0322596774121
 20
483.8891965710584
 30
0.0
 10
739.0810259204308
 20
483.6346674002061
 30
0.0
 10
747.1279929967775
 20
483.3187901728108
 30
0.0
 10
755.1701622952718
 20
482.9058990549294
 30
0.0
 10
761.8036193484531
 20
482.5653273826774
 30
0.0
 10
768.4338308460071
 20
482.1587862649054
 30
0.0
 10
775.0571631768063
 20
481.6584062567063
 30
0.0
 10
781.6341405068154
 20
481.1615540263392
 30
0.0
 10
788.2043445034157
 20
480.5721329055716
 30
0.0
 10
794.7608254442124
 20
479.8536303937923
 30
0.0
 10
801.2634019396844
 20
479.1410545487711
 30
0.0
 10
807.7525023238256
 20
478.3015139794615
 30
0.0
 10
814.2149327075351
 20
477.2876306295124
 30
0.0
 10
819.3411819582072
 20
476.4834031163308
 30
0.0
 10
824.450638986408
 20
475.5694969902398
 30
0.0
 10
829.5315562919145
 20
474.5159614174107
 30
0.0
  0
ENDBLK
  5
109
330
106
100
AcDbEntity
  8
0
100
AcDbBlockEnd
  0
BLOCK
  5
10D
330
10B
100
AcDbEntity
  8
0
100
AcDbBlockBegin
  2
block 42
 70
     0
 10
0.0
 20
0.0
 30
0.0
  3
block 42
  1

  0
SPLINE
  5
10F
330
10B
100
AcDbEntity
  8
0
 62
   250
370
    25
100
AcDbSpline
210
0.0
220
0.0
230
1.0
 70
     8
 71
     3
 72
     8
 73
     4
 74
     0
 42
0.0000000001
 43
0.0000000001
 12
1.0
 22
0.0
 32
0.0
 13
1.0
 23
0.0
 33
0.0
 40
0.0
 40
0.0
 40
0.0
 40
0.0
 40
1.0
 40
1.0
 40
1.0
 40
1.0
 10
601.4991367208876
 20
485.5004032641214
 30
0.0
 10
605.1859820590875
 20
485.4775785415333
 30
0.0
 10
608.87286267507
 20
485.4545068744844
 30
0.0
 10
612.5597432910776
 20
485.4311529852047
 30
0.0
  0
ENDBLK
  5
10E
330
10B
100
AcDbEntity
  8
0
100
AcDbBlockEnd
  0
BLOCK
  5
112
330
110
100
AcDbEntity
  8
0
100
AcDbBlockBegin
  2
block 43
 70
     0
 10
0.0
 20
0.0
 30
0.0
  3
block 43
  1

  0
SPLINE
  5
114
330
110
100
AcDbEntity
  8
0
 62
   250
370
    25
100
AcDbSpline
210
0.0
220
0.0
230
1.0
 70
     8
 71
     3
 72
    17
 73
    13
 74
     0
 42
0.0000000001
 43
0.0000000001
 12
1.0
 22
0.0
 32
0.0
 13
1.0
 23
0.0
 33
0.0
 40
0.0
 40
0.0
 40
0.0
 40
0.0
 40
1.0
 40
1.0
 40
1.0
 40
2.0
 40
2.0
 40
2.0
 40
3.0
 40
3.0
 40
3.0
 40
4.0
 40
4.0
 40
4.0
 40
4.0
 10
105.127601362606
 20
487.2234052368107
 30
0.0
 10
125.5655353087023
 20
487.2233346812595
 30
0.0
 10
146.0034339770432
 20
487.2139860699891
 30
0.0
 10
166.4413326453829
 20
487.1952182919101
 30
0.0
 10
186.6187049205431
 20
487.1767327360471
 30
0.0
 10
206.796077195729
 20
487.1490396800295
 30
0.0
 10
226.9734494708892
 20
487.1129152349943
 30
0.0
 10
268.2084098689979
 20
487.0390435671218
 30
0.0
 10
309.4433349893254
 20
486.9297177319933
 30
0.0
 10
350.678118998551
 20
486.7869485629845
 30
0.0
 10
434.2857834245323
 20
486.4974591138038
 30
0.0
 10
517.8929186838103
 20
486.0704216068002
 30
0.0
 10
601.4991367208876
 20
485.5004032641214
 30
0.0
  0
ENDBLK
  5
113
330
110
100
AcDbEntity
  8
0
100
AcDbBlockEnd
  0
BLOCK
  5
117
330
115
100
AcDbEntity
  8
0
100
AcDbBlockBegin
  2
block 44
 70
     0
 10
0.0
 20
0.0
 30
0.0
  3
block 44
  1

  0
SPLINE
  5
119
330
115
100
AcDbEntity
  8
0
 62
   250
370
    25
100
AcDbSpline
210
0.0
220
0.0
230
1.0
 70
     8
 71
     3
 72
    17
 73
    13
 74
     0
 42
0.0000000001
 43
0.0000000001
 12
1.0
 22
0.0
 32
0.0
 13
1.0
 23
0.0
 33
0.0
 40
0.0
 40
0.0
 40
0.0
 40
0.0
 40
1.0
 40
1.0
 40
1.0
 40
2.0
 40
2.0
 40
2.0
 40
3.0
 40
3.0
 40
3.0
 40
4.0
 40
4.0
 40
4.0
 40
4.0
 10
105.127601362606
 20
487.2234052368107
 30
0.0
 10
85.54296631936725
 20
487.2232994034708
 30
0.0
 10
65.95833127612852
 20
487.2147621811144
 30
0.0
 10
46.37369623288945
 20
487.1975466252726
 30
0.0
 10
25.67939867147427
 20
487.1793432916401
 30
0.0
 10
4.985136387834373
 20
487.1515091245195
 30
0.0
 10
-15.70912589581804
 20
487.1147144016984
 30
0.0
 10
-57.37087685646438
 20
487.040631067141
 30
0.0
 10
-99.03259253935438
 20
486.9303880097787
 30
0.0
 10
-140.6941671111301
 20
486.7859960629754
 30
0.0
 10
-224.2113793133883
 20
486.4965418915639
 30
0.0
 10
-307.728097626758
 20
486.0697866067898
 30
0.0
 10
-391.2438987179064
 20
485.5004032641214
 30
0.0
  0
ENDBLK
  5
118
330
115
100
AcDbEntity
  8
0
100
AcDbBlockEnd
  0
BLOCK
  5
11C
330
11A
100
AcDbEntity
  8
0
100
AcDbBlockBegin
  2
block 45
 70
     0
 10
0.0
 20
0.0
 30
0.0
  3
block 45
  1

  0
SPLINE
  5
11E
330
11A
100
AcDbEntity
  8
0
 62
   250
370
    25
100
AcDbSpline
210
0.0
220
0.0
230
1.0
 70
     8
 71
     3
 72
     8
 73
     4
 74
     0
 42
0.0000000001
 43
0.0000000001
 12
1.0
 22
0.0
 32
0.0
 13
1.0
 23
0.0
 33
0.0
 40
0.0
 40
0.0
 40
0.0
 40
0.0
 40
1.0
 40
1.0
 40
1.0
 40
1.0
 10
-391.2438987179064
 20
485.5004032641214
 30
0.0
 10
-394.9307793338819
 20
485.4775785415333
 30
0.0
 10
-398.6176246720949
 20
485.4545068744844
 30
0.0
 10
-402.3045052880771
 20
485.4311529852047
 30
0.0
  0
ENDBLK
  5
11D
330
11A
100
AcDbEntity
  8
0
100
AcDbBlockEnd
  0
BLOCK
  5
121
330
11F
100
AcDbEntity
  8
0
100
AcDbBlockBegin
  2
block 46
 70
     0
 10
0.0
 20
0.0
 30
0.0
  3
block 46
  1

  0
SPLINE
  5
123
330
11F
100
AcDbEntity
  8
0
 62
   250
370
    25
100
AcDbSpline
210
0.0
220
0.0
230
1.0
 70
     8
 71
     3
 72
     8
 73
     4
 74
     0
 42
0.0000000001
 43
0.0000000001
 12
1.0
 22
0.0
 32
0.0
 13
1.0
 23
0.0
 33
0.0
 40
0.0
 40
0.0
 40
0.0
 40
0.0
 40
1.0
 40
1.0
 40
1.0
 40
1.0
 10
-762.2742636883721
 20
-176.1261128431636
 30
0.0
 10
-762.292784522003
 20
-176.0445506216695
 30
0.0
 10
-762.3113053556349
 20
-175.9630236779459
 30
0.0
 10
-762.3298261892788
 20
-175.8814614564518
 30
0.0
  0
ENDBLK
  5
122
330
11F
100
AcDbEntity
  8
0
100
AcDbBlockEnd
  0
BLOCK
  5
126
330
124
100
AcDbEntity
  8
0
100
AcDbBlockBegin
  2
block 47
 70
     0
 10
0.0
 20
0.0
 30
0.0
  3
block 47
  1

  0
SPLINE
  5
128
330
124
100
AcDbEntity
  8
0
 62
   250
370
    25
100
AcDbSpline
210
0.0
220
0.0
230
1.0
 70
     8
 71
     3
 72
    23
 73
    19
 74
     0
 42
0.0000000001
 43
0.0000000001
 12
1.0
 22
0.0
 32
0.0
 13
1.0
 23
0.0
 33
0.0
 40
0.0
 40
0.0
 40
0.0
 40
0.0
 40
1.0
 40
1.0
 40
1.0
 40
2.0
 40
2.0
 40
2.0
 40
3.0
 40
3.0
 40
3.0
 40
4.0
 40
4.0
 40
4.0
 40
5.0
 40
5.0
 40
5.0
 40
6.0
 40
6.0
 40
6.0
 40
6.0
 10
-635.7165743917275
 20
-279.9930265053494
 30
0.0
 10
-640.9771967001849
 20
-279.9151331707492
 30
0.0
 10
-653.2750302350878
 20
-279.7853462241769
 30
0.0
 10
-658.5337475434957
 20
-279.4915528860131
 30
0.0
 10
-666.1744910020818
 20
-279.0646564901369
 30
0.0
 10
-673.6141864017958
 20
-278.0417067511468
 30
0.0
 10
-681.0334559678608
 20
-276.086612274652
 30
0.0
 10
-695.8242642658469
 20
-272.1890527663296
 30
0.0
 10
-709.4608189338152
 20
-264.9586604255899
 30
0.0
 10
-721.2044385707461
 20
-255.2387858218299
 30
0.0
 10
-732.9425195964809
 20
-245.5234983386478
 30
0.0
 10
-742.594166976898
 20
-233.46622427894
 30
0.0
 10
-749.2316104190257
 20
-219.7043632899124
 30
0.0
 10
-752.5627851958476
 20
-212.7976800178479
 30
0.0
 10
-755.0092991248405
 20
-205.6835281365128
 30
0.0
 10
-756.9795983238067
 20
-198.2958323687103
 30
0.0
 10
-758.94090168929
 20
-190.941862156183
 30
0.0
 10
-760.5737336604915
 20
-183.5150786109473
 30
0.0
 10
-762.2796259106838
 20
-176.1025472878217
 30
0.0
  0
ENDBLK
  5
127
330
124
100
AcDbEntity
  8
0
100
AcDbBlockEnd
  0
BLOCK
  5
12B
330
129
100
AcDbEntity
  8
0
100
AcDbBlockBegin
  2
block 48
 70
     0
 10
0.0
 20
0.0
 30
0.0
  3
block 48
  1

  0
SPLINE
  5
12D
330
129
100
AcDbEntity
  8
0
 62
   250
370
    25
100
AcDbSpline
210
0.0
220
0.0
230
1.0
 70
     8
 71
     3
 72
    23
 73
    19
 74
     0
 42
0.0000000001
 43
0.0000000001
 12
1.0
 22
0.0
 32
0.0
 13
1.0
 23
0.0
 33
0.0
 40
0.0
 40
0.0
 40
0.0
 40
0.0
 40
1.0
 40
1.0
 40
1.0
 40
2.0
 40
2.0
 40
2.0
 40
3.0
 40
3.0
 40
3.0
 40
4.0
 40
4.0
 40
4.0
 40
5.0
 40
5.0
 40
5.0
 40
6.0
 40
6.0
 40
6.0
 40
6.0
 10
972.5348639136586
 20
-176.1025472878217
 30
0.0
 10
970.8303827746266
 20
-183.5089755554467
 30
0.0
 10
969.1986091367545
 20
-190.9295854896165
 30
0.0
 10
967.2396693824421
 20
-198.2776995911044
 30
0.0
 10
965.2689821279058
 20
-205.6699109144134
 30
0.0
 10
962.8220095877937
 20
-212.788472517923
 30
0.0
 10
959.4892120331572
 20
-219.6994596788423
 30
0.0
 10
952.850886646585
 20
-233.4650248345089
 30
0.0
 10
943.1968403772421
 20
-245.5252622275122
 30
0.0
 10
931.455407962546
 20
-255.2423135996614
 30
0.0
 10
919.7116472145002
 20
-264.9613062589635
 30
0.0
 10
906.0753042132226
 20
-272.190781377464
 30
0.0
 10
891.2848134152356
 20
-276.0876353302251
 30
0.0
 10
883.8616280157639
 20
-278.0434353622812
 30
0.0
 10
876.418122615988
 20
-279.0660676012723
 30
0.0
 10
868.7734633240127
 20
-279.4924348304845
 30
0.0
 10
863.5225776823888
 20
-279.7852756686129
 30
0.0
 10
851.2245677585883
 20
-279.9152390040696
 30
0.0
 10
845.9718123947282
 20
-279.9930265053494
 30
0.0
  0
ENDBLK
  5
12C
330
129
100
AcDbEntity
  8
0
100
AcDbBlockEnd
  0
BLOCK
  5
130
330
12E
100
AcDbEntity
  8
0
100
AcDbBlockBegin
  2
block 49
 70
     0
 10
0.0
 20
0.0
 30
0.0
  3
block 49
  1

  0
SPLINE
  5
132
330
12E
100
AcDbEntity
  8
0
  6
AI-Linetype-1
 62
     6
370
    25
100
AcDbSpline
210
0.0
220
0.0
230
1.0
 70
     8
 71
     3
 72
    20
 73
    16
 74
     0
 42
0.0000000001
 43
0.0000000001
 12
1.0
 22
0.0
 32
0.0
 13
1.0
 23
0.0
 33
0.0
 40
0.0
 40
0.0
 40
0.0
 40
0.0
 40
1.0
 40
1.0
 40
1.0
 40
2.0
 40
2.0
 40
2.0
 40
3.0
 40
3.0
 40
3.0
 40
4.0
 40
4.0
 40
4.0
 40
5.0
 40
5.0
 40
5.0
 40
5.0
 10
593.9131796520896
 20
355.7465472484387
 30
0.0
 10
591.9673985090955
 20
356.2201161450903
 30
0.0
 10
589.9838348654706
 20
356.533700316893
 30
0.0
 10
587.9875006660758
 20
356.6866647638347
 30
0.0
 10
586.0900148016461
 20
356.832044488448
 30
0.0
 10
584.1809931036859
 20
356.8322914328961
 30
0.0
 10
582.2836836281399
 20
356.6848303193681
 30
0.0
 10
578.3057613407274
 20
356.3756205920737
 30
0.0
 10
574.3793446096997
 20
355.4169469652517
 30
0.0
 10
570.7011423271962
 20
353.8715686065856
 30
0.0
 10
566.9446233767225
 20
352.2933113585003
 30
0.0
 10
563.4470080416148
 20
350.1030904892619
 30
0.0
 10
560.3718793801062
 20
347.4289996120927
 30
0.0
 10
557.3725979420393
 20
344.8208429026859
 30
0.0
 10
554.77523623282
 20
341.7524170190484
 30
0.0
 10
552.7048186988741
 20
338.3589416856542
 30
0.0
  0
ENDBLK
  5
131
330
12E
100
AcDbEntity
  8
0
100
AcDbBlockEnd
  0
BLOCK
  5
136
330
134
100
AcDbEntity
  8
0
100
AcDbBlockBegin
  2
block 50
 70
     0
 10
0.0
 20
0.0
 30
0.0
  3
block 50
  1

  0
SPLINE
  5
138
330
134
100
AcDbEntity
  8
0
  6
AI-Linetype-2
 62
     6
370
    25
100
AcDbSpline
210
0.0
220
0.0
230
1.0
 70
     8
 71
     3
 72
    20
 73
    16
 74
     0
 42
0.0000000001
 43
0.0000000001
 12
1.0
 22
0.0
 32
0.0
 13
1.0
 23
0.0
 33
0.0
 40
0.0
 40
0.0
 40
0.0
 40
0.0
 40
1.0
 40
1.0
 40
1.0
 40
2.0
 40
2.0
 40
2.0
 40
3.0
 40
3.0
 40
3.0
 40
4.0
 40
4.0
 40
4.0
 40
5.0
 40
5.0
 40
5.0
 40
5.0
 10
593.9131796520896
 20
355.7465472484387
 30
0.0
 10
595.6816899588536
 20
355.3173930747251
 30
0.0
 10
597.4185913762299
 20
354.7598630655856
 30
0.0
 10
599.1074091816831
 20
354.0822474989262
 30
0.0
 10
600.7952039315633
 20
353.4050552656107
 30
0.0
 10
602.4350209028908
 20
352.6078480303117
 30
0.0
 10
604.0093975953636
 20
351.6975755153982
 30
0.0
 10
607.1553640358209
 20
349.8786179855788
 30
0.0
 10
610.0400632497799
 20
347.6081401705836
 30
0.0
 10
612.5481016242009
 20
344.9785345719294
 30
0.0
 10
615.0535294430682
 20
342.3516453622128
 30
0.0
 10
617.1830725335216
 20
339.3663339243851
 30
0.0
 10
618.8538281164568
 20
336.143426649337
 30
0.0
 10
620.5232431438335
 20
332.9230240965489
 30
0.0
 10
621.734576219227
 20
329.4654137621022
 30
0.0
 10
622.4371684529671
 20
325.9064150926488
 30
0.0
  0
ENDBLK
  5
137
330
134
100
AcDbEntity
  8
0
100
AcDbBlockEnd
  0
BLOCK
  5
13C
330
13A
100
AcDbEntity
  8
0
100
AcDbBlockBegin
  2
block 51
 70
     0
 10
0.0
 20
0.0
 30
0.0
  3
block 51
  1

  0
SPLINE
  5
13E
330
13A
100
AcDbEntity
  8
0
  6
AI-Linetype-3
 62
     6
370
    25
100
AcDbSpline
210
0.0
220
0.0
230
1.0
 70
     8
 71
     3
 72
    29
 73
    25
 74
     0
 42
0.0000000001
 43
0.0000000001
 12
1.0
 22
0.0
 32
0.0
 13
1.0
 23
0.0
 33
0.0
 40
0.0
 40
0.0
 40
0.0
 40
0.0
 40
1.0
 40
1.0
 40
1.0
 40
2.0
 40
2.0
 40
2.0
 40
3.0
 40
3.0
 40
3.0
 40
4.0
 40
4.0
 40
4.0
 40
5.0
 40
5.0
 40
5.0
 40
6.0
 40
6.0
 40
6.0
 40
7.0
 40
7.0
 40
7.0
 40
8.0
 40
8.0
 40
8.0
 40
8.0
 10
623.158281520338
 20
318.5170258048628
 30
0.0
 10
623.1557767980789
 20
313.5408482232984
 30
0.0
 10
622.1628484484702
 20
308.5653409195256
 30
0.0
 10
620.2552025838755
 20
303.9694577886449
 30
0.0
 10
618.3493558859793
 20
299.3779491022663
 30
0.0
 10
615.53059083977
 20
295.1653237554359
 30
0.0
 10
612.0130435598832
 20
291.6523978645302
 30
0.0
 10
608.4976129467053
 20
288.1415533625393
 30
0.0
 10
604.284246766538
 20
285.3295616497779
 30
0.0
 10
599.6933730801697
 20
283.4299943964207
 30
0.0
 10
595.1032402271699
 20
281.5307446430621
 30
0.0
 10
590.1357762568526
 20
280.5436018491097
 30
0.0
 10
585.1682770087535
 20
280.5434960157768
 30
0.0
 10
580.1994724828771
 20
280.5433901824436
 30
0.0
 10
575.2306326791931
 20
281.5308504763956
 30
0.0
 10
570.6392298261729
 20
283.4303471742011
 30
0.0
 10
566.0454280842134
 20
285.3308669275805
 30
0.0
 10
561.8294160706597
 20
288.1444108625726
 30
0.0
 10
558.311127957429
 20
291.6568428646087
 30
0.0
 10
554.7913228997309
 20
295.1707918110935
 30
0.0
 10
551.9698767423787
 20
299.3842638245933
 30
0.0
 10
550.0612078222116
 20
303.9770072332109
 30
0.0
 10
548.1524683464805
 20
308.56982119738
 30
0.0
 10
547.1565413857165
 20
313.5419771122102
 30
0.0
 10
547.1492388855794
 20
318.5157205270538
 30
0.0
  0
ENDBLK
  5
13D
330
13A
100
AcDbEntity
  8
0
100
AcDbBlockEnd
  0
BLOCK
  5
142
330
140
100
AcDbEntity
  8
0
100
AcDbBlockBegin
  2
block 52
 70
     0
 10
0.0
 20
0.0
 30
0.0
  3
block 52
  1

  0
SPLINE
  5
144
330
140
100
AcDbEntity
  8
0
  6
AI-Linetype-4
 62
     6
370
    25
100
AcDbSpline
210
0.0
220
0.0
230
1.0
 70
     8
 71
     3
 72
    44
 73
    40
 74
     0
 42
0.0000000001
 43
0.0000000001
 12
1.0
 22
0.0
 32
0.0
 13
1.0
 23
0.0
 33
0.0
 40
0.0
 40
0.0
 40
0.0
 40
0.0
 40
1.0
 40
1.0
 40
1.0
 40
2.0
 40
2.0
 40
2.0
 40
3.0
 40
3.0
 40
3.0
 40
4.0
 40
4.0
 40
4.0
 40
5.0
 40
5.0
 40
5.0
 40
6.0
 40
6.0
 40
6.0
 40
7.0
 40
7.0
 40
7.0
 40
8.0
 40
8.0
 40
8.0
 40
9.0
 40
9.0
 40
9.0
 40
10.0
 40
10.0
 40
10.0
 40
11.0
 40
11.0
 40
11.0
 40
12.0
 40
12.0
 40
12.0
 40
13.0
 40
13.0
 40
13.0
 40
13.0
 10
610.8197727069819
 20
318.501821082398
 30
0.0
 10
610.8185027069611
 20
321.7988469697657
 30
0.0
 10
610.1705557519142
 20
325.0929448015431
 30
0.0
 10
608.9307182315835
 20
328.1474359627229
 30
0.0
 10
608.3429551663984
 20
329.5954476531232
 30
0.0
 10
607.622159599013
 20
330.989590175967
 30
0.0
 10
606.7812784741317
 20
332.3070035308992
 30
0.0
 10
605.7722634575858
 20
333.8877302234757
 30
0.0
 10
604.5902814937687
 20
335.3579316364725
 30
0.0
 10
603.2625317497874
 20
336.6820477692817
 30
0.0
 10
601.9349231169085
 20
338.0060227909827
 30
0.0
 10
600.4615819816489
 20
339.1839478102911
 30
0.0
 10
598.8781036223656
 20
340.1884119934189
 30
0.0
 10
597.5581855451741
 20
341.0256947849165
 30
0.0
 10
596.1617499667364
 20
341.7424686855492
 30
0.0
 10
594.7119743874077
 20
342.326351195134
 30
0.0
 10
593.2617754747482
 20
342.9104100935899
 30
0.0
 10
591.7582365612242
 20
343.3615070454342
 30
0.0
 10
590.2260873694413
 20
343.6731862172056
 30
0.0
 10
588.3882209504159
 20
344.0470248344535
 30
0.0
 10
586.5091853640794
 20
344.2202387261675
 30
0.0
 10
584.6341361666629
 20
344.1862662256102
 30
0.0
 10
581.3920377801915
 20
344.1275640024215
 30
0.0
 10
578.1618632828008
 20
343.4494898246475
 30
0.0
 10
575.1697432337693
 20
342.1997039708308
 30
0.0
 10
573.5469654293867
 20
341.5218767374924
 30
0.0
 10
571.9942492928275
 20
340.675880334746
 30
0.0
 10
570.543380102388
 20
339.6817172628849
 30
0.0
 10
569.0921581341561
 20
338.6873072465895
 30
0.0
 10
567.742818389799
 20
337.5446600056412
 30
0.0
 10
566.5243239253964
 20
336.2761416515137
 30
0.0
 10
565.3051239054062
 20
335.0068824640442
 30
0.0
 10
564.2169455542277
 20
333.6115757744986
 30
0.0
 10
563.28155526112
 20
332.1205251945142
 30
0.0
 10
562.473447192325
 20
330.8323923956194
 30
0.0
 10
561.7794274587179
 20
329.472751539996
 30
0.0
 10
561.2113141160828
 20
328.0624517946646
 30
0.0
 10
559.9896799293975
 20
325.0299034116271
 30
0.0
 10
559.3502349189189
 20
321.7630400247422
 30
0.0
 10
559.3468835299711
 20
318.4931074711383
 30
0.0
  0
ENDBLK
  5
143
330
140
100
AcDbEntity
  8
0
100
AcDbBlockEnd
  0
BLOCK
  5
148
330
146
100
AcDbEntity
  8
0
100
AcDbBlockBegin
  2
block 53
 70
     0
 10
0.0
 20
0.0
 30
0.0
  3
block 53
  1

  0
SPLINE
  5
14A
330
146
100
AcDbEntity
  8
0
  6
AI-Linetype-5
 62
     6
370
    25
100
AcDbSpline
210
0.0
220
0.0
230
1.0
 70
     8
 71
     3
 72
    47
 73
    43
 74
     0
 42
0.0000000001
 43
0.0000000001
 12
1.0
 22
0.0
 32
0.0
 13
1.0
 23
0.0
 33
0.0
 40
0.0
 40
0.0
 40
0.0
 40
0.0
 40
1.0
 40
1.0
 40
1.0
 40
2.0
 40
2.0
 40
2.0
 40
3.0
 40
3.0
 40
3.0
 40
4.0
 40
4.0
 40
4.0
 40
5.0
 40
5.0
 40
5.0
 40
6.0
 40
6.0
 40
6.0
 40
7.0
 40
7.0
 40
7.0
 40
8.0
 40
8.0
 40
8.0
 40
9.0
 40
9.0
 40
9.0
 40
10.0
 40
10.0
 40
10.0
 40
11.0
 40
11.0
 40
11.0
 40
12.0
 40
12.0
 40
12.0
 40
13.0
 40
13.0
 40
13.0
 40
14.0
 40
14.0
 40
14.0
 40
14.0
 10
559.3468835299711
 20
318.4931074711383
 30
0.0
 10
559.3377818631607
 20
315.1406249161955
 30
0.0
 10
559.9976879850709
 20
311.789059583481
 30
0.0
 10
561.2692049503527
 20
308.6876842548716
 30
0.0
 10
561.9724321841156
 20
306.9723728378579
 30
0.0
 10
562.8627727542619
 20
305.333543644334
 30
0.0
 10
563.9178605493416
 20
303.8091555637896
 30
0.0
 10
564.7621283409534
 20
302.5893205437899
 30
0.0
 10
565.7119119676195
 20
301.4427221916637
 30
0.0
 10
566.7535589291498
 20
300.3865055076912
 30
0.0
 10
567.7687475568887
 20
299.3570999352527
 30
0.0
 10
568.8712134083045
 20
298.413525197575
 30
0.0
 10
570.0449050941942
 20
297.5691868504003
 30
0.0
 10
571.4733023398384
 20
296.5416157224479
 30
0.0
 10
573.0072154205369
 20
295.6610470968976
 30
0.0
 10
574.6148590579921
 20
294.9460018073989
 30
0.0
 10
576.2217618621047
 20
294.2313445734636
 30
0.0
 10
577.9023599452188
 20
293.6820695644591
 30
0.0
 10
579.6211638622701
 20
293.3096067805839
 30
0.0
 10
581.3392622237865
 20
292.9372498300214
 30
0.0
 10
583.095531141458
 20
292.7415639934872
 30
0.0
 10
584.8533875591614
 20
292.7266062154695
 30
0.0
 10
586.61212592131
 20
292.711613159677
 30
0.0
 10
588.3724870612732
 20
292.8775951068297
 30
0.0
 10
590.0974998673258
 20
293.2208478902321
 30
0.0
 10
591.4786601677607
 20
293.4956617836249
 30
0.0
 10
592.8371721344653
 20
293.884140678885
 30
0.0
 10
594.154761878281
 20
294.3810634648032
 30
0.0
 10
595.8009641274934
 20
295.0019170860937
 30
0.0
 10
597.3832430423199
 20
295.7919982101579
 30
0.0
 10
598.8691077888756
 20
296.7345851700445
 30
0.0
 10
600.3545139243446
 20
297.6768193521635
 30
0.0
 10
601.7435764471062
 20
298.7714535367779
 30
0.0
 10
603.0054625789012
 20
299.9966507790777
 30
0.0
 10
605.3888998402024
 20
302.3108377614501
 30
0.0
 10
607.3185590385037
 20
305.0909030848068
 30
0.0
 10
608.6534348937133
 20
308.1328000790941
 30
0.0
 10
609.4228079618666
 20
309.8861409411754
 30
0.0
 10
609.9945901934612
 20
311.7264768046792
 30
0.0
 10
610.3563285327382
 20
313.606888224381
 30
0.0
 10
610.6663849266959
 20
315.2188357508071
 30
0.0
 10
610.8221010403572
 20
316.8602402221547
 30
0.0
 10
610.8197727069819
 20
318.501821082398
 30
0.0
  0
ENDBLK
  5
149
330
146
100
AcDbEntity
  8
0
100
AcDbBlockEnd
  0
BLOCK
  5
14E
330
14C
100
AcDbEntity
  8
0
100
AcDbBlockBegin
  2
block 54
 70
     0
 10
0.0
 20
0.0
 30
0.0
  3
block 54
  1

  0
SPLINE
  5
150
330
14C
100
AcDbEntity
  8
0
  6
AI-Linetype-6
 62
     6
370
    25
100
AcDbSpline
210
0.0
220
0.0
230
1.0
 70
     8
 71
     3
 72
     8
 73
     4
 74
     0
 42
0.0000000001
 43
0.0000000001
 12
1.0
 22
0.0
 32
0.0
 13
1.0
 23
0.0
 33
0.0
 40
0.0
 40
0.0
 40
0.0
 40
0.0
 40
1.0
 40
1.0
 40
1.0
 40
1.0
 10
-336.894000882604
 20
318.5157205270538
 30
0.0
 10
-336.8832411601981
 20
325.5154314751358
 30
0.0
 10
-338.8057389694897
 20
332.3821804765739
 30
0.0
 10
-342.449439584772
 20
338.3587300189881
 30
0.0
  0
ENDBLK
  5
14F
330
14C
100
AcDbEntity
  8
0
100
AcDbBlockEnd
  0
BLOCK
  5
154
330
152
100
AcDbEntity
  8
0
100
AcDbBlockBegin
  2
block 55
 70
     0
 10
0.0
 20
0.0
 30
0.0
  3
block 55
  1

  0
SPLINE
  5
156
330
152
100
AcDbEntity
  8
0
  6
AI-Linetype-7
 62
     6
370
    25
100
AcDbSpline
210
0.0
220
0.0
230
1.0
 70
     8
 71
     3
 72
    20
 73
    16
 74
     0
 42
0.0000000001
 43
0.0000000001
 12
1.0
 22
0.0
 32
0.0
 13
1.0
 23
0.0
 33
0.0
 40
0.0
 40
0.0
 40
0.0
 40
0.0
 40
1.0
 40
1.0
 40
1.0
 40
2.0
 40
2.0
 40
2.0
 40
3.0
 40
3.0
 40
3.0
 40
4.0
 40
4.0
 40
4.0
 40
5.0
 40
5.0
 40
5.0
 40
5.0
 10
-383.6579063713328
 20
355.7465119706567
 30
0.0
 10
-381.7121605061085
 20
356.220080867309
 30
0.0
 10
-379.7285615846947
 20
356.533665039111
 30
0.0
 10
-377.7322626630882
 20
356.6866294860662
 30
0.0
 10
-375.8347415208765
 20
356.8320092106666
 30
0.0
 10
-373.9257551006983
 20
356.8322561551137
 30
0.0
 10
-372.0284456251524
 20
356.6847950415857
 30
0.0
 10
-368.0504880599578
 20
356.3755853143049
 30
0.0
 10
-364.1240713289301
 20
355.4169469652517
 30
0.0
 10
-360.4458337686318
 20
353.8715333288045
 30
0.0
 10
-356.6893148181901
 20
352.2932760807186
 30
0.0
 10
-353.191664205294
 20
350.1029846559223
 30
0.0
 10
-350.1165355437725
 20
347.4288585009907
 30
0.0
 10
-347.117254105712
 20
344.8207017915707
 30
0.0
 10
-344.5198923964871
 20
341.7522406301644
 30
0.0
 10
-342.449439584772
 20
338.3587300189881
 30
0.0
  0
ENDBLK
  5
155
330
152
100
AcDbEntity
  8
0
100
AcDbBlockEnd
  0
BLOCK
  5
15A
330
158
100
AcDbEntity
  8
0
100
AcDbBlockBegin
  2
block 56
 70
     0
 10
0.0
 20
0.0
 30
0.0
  3
block 56
  1

  0
SPLINE
  5
15C
330
158
100
AcDbEntity
  8
0
  6
AI-Linetype-8
 62
     6
370
    25
100
AcDbSpline
210
0.0
220
0.0
230
1.0
 70
     8
 71
     3
 72
    29
 73
    25
 74
     0
 42
0.0000000001
 43
0.0000000001
 12
1.0
 22
0.0
 32
0.0
 13
1.0
 23
0.0
 33
0.0
 40
0.0
 40
0.0
 40
0.0
 40
0.0
 40
1.0
 40
1.0
 40
1.0
 40
2.0
 40
2.0
 40
2.0
 40
3.0
 40
3.0
 40
3.0
 40
4.0
 40
4.0
 40
4.0
 40
5.0
 40
5.0
 40
5.0
 40
6.0
 40
6.0
 40
6.0
 40
7.0
 40
7.0
 40
7.0
 40
8.0
 40
8.0
 40
8.0
 40
8.0
 10
-412.9030435173632
 20
318.5170258048628
 30
0.0
 10
-412.9005740728734
 20
313.5408482232984
 30
0.0
 10
-411.9077162788087
 20
308.5653409195256
 30
0.0
 10
-410.0000704142205
 20
303.9694577886449
 30
0.0
 10
-408.0942589940935
 20
299.3779138244903
 30
0.0
 10
-405.2753528367702
 20
295.1652884776664
 30
0.0
 10
-401.7577702791264
 20
291.6523273089729
 30
0.0
 10
-398.2422691103852
 20
288.1415180847573
 30
0.0
 10
-394.028938207987
 20
285.3294910942146
 30
0.0
 10
-389.438064521631
 20
283.4299591186387
 30
0.0
 10
-384.8479669463874
 20
281.5307093652933
 30
0.0
 10
-379.8804676983011
 20
280.543637126891
 30
0.0
 10
-374.9129684502147
 20
280.5435312935456
 30
0.0
 10
-369.9441639243256
 20
280.543425460206
 30
0.0
 10
-364.975324120655
 20
281.5308504763956
 30
0.0
 10
-360.3838859898528
 20
283.4303471742011
 30
0.0
 10
-355.7900842478805
 20
285.3308316498052
 30
0.0
 10
-351.5741075121081
 20
288.1444108625726
 30
0.0
 10
-348.05585467666
 20
291.6568428646087
 30
0.0
 10
-344.5360848967561
 20
295.1708270888624
 30
0.0
 10
-341.7146740171731
 20
299.3842991023757
 30
0.0
 10
-339.8060050969932
 20
303.9770425109926
 30
0.0
 10
-337.8972656212621
 20
308.5698564751613
 30
0.0
 10
-336.9013033827161
 20
313.5419771122102
 30
0.0
 10
-336.894000882604
 20
318.5157205270538
 30
0.0
  0
ENDBLK
  5
15B
330
158
100
AcDbEntity
  8
0
100
AcDbBlockEnd
  0
BLOCK
  5
160
330
15E
100
AcDbEntity
  8
0
100
AcDbBlockBegin
  2
block 57
 70
     0
 10
0.0
 20
0.0
 30
0.0
  3
block 57
  1

  0
SPLINE
  5
162
330
15E
100
AcDbEntity
  8
0
  6
AI-Linetype-9
 62
     6
370
    25
100
AcDbSpline
210
0.0
220
0.0
230
1.0
 70
     8
 71
     3
 72
    23
 73
    19
 74
     0
 42
0.0000000001
 43
0.0000000001
 12
1.0
 22
0.0
 32
0.0
 13
1.0
 23
0.0
 33
0.0
 40
0.0
 40
0.0
 40
0.0
 40
0.0
 40
1.0
 40
1.0
 40
1.0
 40
2.0
 40
2.0
 40
2.0
 40
3.0
 40
3.0
 40
3.0
 40
4.0
 40
4.0
 40
4.0
 40
5.0
 40
5.0
 40
5.0
 40
6.0
 40
6.0
 40
6.0
 40
6.0
 10
-412.183941283343
 20
325.8959023147042
 30
0.0
 10
-411.8297171108821
 20
327.6949278997432
 30
0.0
 10
-411.3454943251568
 20
329.4679184843612
 30
0.0
 10
-410.7375523707577
 20
331.1975526793825
 30
0.0
 10
-410.1379712498123
 20
332.90340965178
 30
0.0
 10
-409.4180223491162
 20
334.5671449568329
 30
0.0
 10
-408.5843731687888
 20
336.1716841498016
 30
0.0
 10
-406.9335495306269
 20
339.3489772574284
 30
0.0
 10
-404.8368500518116
 20
342.2942131390446
 30
0.0
 10
-402.3742141781073
 20
344.8934092927619
 30
0.0
 10
-401.1454891579756
 20
346.190326258468
 30
0.0
 10
-399.8256416363346
 20
347.4010596116395
 30
0.0
 10
-398.4276538356469
 20
348.5134737965424
 30
0.0
 10
-396.9434471446482
 20
349.6944679825752
 30
0.0
 10
-395.3711518411023
 20
350.7646546667811
 30
0.0
 10
-393.728230425287
 20
351.712427460083
 30
0.0
 10
-390.5854037071001
 20
353.5254583231309
 30
0.0
 10
-387.1840261513526
 20
354.8905672343992
 30
0.0
 10
-383.6579063713328
 20
355.7465119706567
 30
0.0
  0
ENDBLK
  5
161
330
15E
100
AcDbEntity
  8
0
100
AcDbBlockEnd
  0
BLOCK
  5
166
330
164
100
AcDbEntity
  8
0
100
AcDbBlockBegin
  2
block 58
 70
     0
 10
0.0
 20
0.0
 30
0.0
  3
block 58
  1

  0
SPLINE
  5
168
330
164
100
AcDbEntity
  8
0
  6
AI-Linetype-10
 62
     6
370
    25
100
AcDbSpline
210
0.0
220
0.0
230
1.0
 70
     8
 71
     3
 72
    53
 73
    49
 74
     0
 42
0.0000000001
 43
0.0000000001
 12
1.0
 22
0.0
 32
0.0
 13
1.0
 23
0.0
 33
0.0
 40
0.0
 40
0.0
 40
0.0
 40
0.0
 40
1.0
 40
1.0
 40
1.0
 40
2.0
 40
2.0
 40
2.0
 40
3.0
 40
3.0
 40
3.0
 40
4.0
 40
4.0
 40
4.0
 40
5.0
 40
5.0
 40
5.0
 40
6.0
 40
6.0
 40
6.0
 40
7.0
 40
7.0
 40
7.0
 40
8.0
 40
8.0
 40
8.0
 40
9.0
 40
9.0
 40
9.0
 40
10.0
 40
10.0
 40
10.0
 40
11.0
 40
11.0
 40
11.0
 40
12.0
 40
12.0
 40
12.0
 40
13.0
 40
13.0
 40
13.0
 40
14.0
 40
14.0
 40
14.0
 40
15.0
 40
15.0
 40
15.0
 40
16.0
 40
16.0
 40
16.0
 40
16.0
 10
-400.5645699817892
 20
318.5017858046157
 30
0.0
 10
-400.5664749818073
 20
316.9621930016068
 30
0.0
 10
-400.4298794240178
 20
315.4223885319258
 30
0.0
 10
-400.1568646973231
 20
313.9071726737498
 30
0.0
 10
-399.8415166365861
 20
312.1569715339515
 30
0.0
 10
-399.3441705173421
 20
310.4395434502473
 30
0.0
 10
-398.6754096730447
 20
308.79171842324
 30
0.0
 10
-398.0066488287467
 20
307.143752285111
 30
0.0
 10
-397.1664732594132
 20
305.5653539259102
 30
0.0
 10
-396.1729099097937
 20
304.0902489017345
 30
0.0
 10
-395.1907060048082
 20
302.6320066556068
 30
0.0
 10
-394.0586068195868
 20
301.274729411141
 30
0.0
 10
-392.8002837434066
 20
300.0467452243399
 30
0.0
 10
-391.541784278342
 20
298.8186199264363
 30
0.0
 10
-390.157096200075
 20
297.7198935195306
 30
0.0
 10
-388.6751120091191
 20
296.7733907262486
 30
0.0
 10
-387.4891789341369
 20
296.0159768249326
 30
0.0
 10
-386.2409453025576
 20
295.3561059807915
 30
0.0
 10
-384.9472738924668
 20
294.8024918050475
 30
0.0
 10
-383.329399699282
 20
294.1101654048178
 30
0.0
 10
-381.6404407827013
 20
293.5840678961896
 30
0.0
 10
-379.9155338099948
 20
293.2355587238139
 30
0.0
 10
-378.1930610039839
 20
292.8875434403292
 30
0.0
 10
-376.4347812529354
 20
292.716587326407
 30
0.0
 10
-374.6775245574536
 20
292.7261476043624
 30
0.0
 10
-372.9203736953306
 20
292.7357431600614
 30
0.0
 10
-371.1642811665429
 20
292.9258198298433
 30
0.0
 10
-369.4457947494905
 20
293.292497058075
 30
0.0
 10
-368.0704552825068
 20
293.5859376184446
 30
0.0
 10
-366.7192458159207
 20
293.9925140139919
 30
0.0
 10
-365.4102638500058
 20
294.5065818002004
 30
0.0
 10
-363.7733396565197
 20
295.1494840329607
 30
0.0
 10
-362.2025260196604
 20
295.9605554351405
 30
0.0
 10
-360.730807662202
 20
296.9232507287034
 30
0.0
 10
-359.3573379174672
 20
297.8216346323176
 30
0.0
 10
-358.0701928963631
 20
298.8520985380981
 30
0.0
 10
-356.8927617659499
 20
299.995451334608
 30
0.0
 10
-355.7717750809147
 20
301.0839824635671
 30
0.0
 10
-354.7502011752723
 20
302.274889705311
 30
0.0
 10
-353.8451497715629
 20
303.5486291706227
 30
0.0
 10
-352.7591939204266
 20
305.0768625290098
 30
0.0
 10
-351.840983905379
 20
306.7242995004609
 30
0.0
 10
-351.1124977823185
 20
308.4517817510039
 30
0.0
 10
-350.3841527703861
 20
310.1789112237526
 30
0.0
 10
-349.845531650442
 20
311.9859801422601
 30
0.0
 10
-349.5091227560382
 20
313.829914339147
 30
0.0
 10
-349.2286644181168
 20
315.3673199199079
 30
0.0
 10
-349.08878802693
 20
316.9303371677473
 30
0.0
 10
-349.0917513603161
 20
318.4930721933563
 30
0.0
  0
ENDBLK
  5
167
330
164
100
AcDbEntity
  8
0
100
AcDbBlockEnd
  0
BLOCK
  5
16C
330
16A
100
AcDbEntity
  8
0
100
AcDbBlockBegin
  2
block 59
 70
     0
 10
0.0
 20
0.0
 30
0.0
  3
block 59
  1

  0
SPLINE
  5
16E
330
16A
100
AcDbEntity
  8
0
  6
AI-Linetype-11
 62
     6
370
    25
100
AcDbSpline
210
0.0
220
0.0
230
1.0
 70
     8
 71
     3
 72
    44
 73
    40
 74
     0
 42
0.0000000001
 43
0.0000000001
 12
1.0
 22
0.0
 32
0.0
 13
1.0
 23
0.0
 33
0.0
 40
0.0
 40
0.0
 40
0.0
 40
0.0
 40
1.0
 40
1.0
 40
1.0
 40
2.0
 40
2.0
 40
2.0
 40
3.0
 40
3.0
 40
3.0
 40
4.0
 40
4.0
 40
4.0
 40
5.0
 40
5.0
 40
5.0
 40
6.0
 40
6.0
 40
6.0
 40
7.0
 40
7.0
 40
7.0
 40
8.0
 40
8.0
 40
8.0
 40
9.0
 40
9.0
 40
9.0
 40
10.0
 40
10.0
 40
10.0
 40
11.0
 40
11.0
 40
11.0
 40
12.0
 40
12.0
 40
12.0
 40
13.0
 40
13.0
 40
13.0
 40
13.0
 10
-349.0917513603161
 20
318.4930721933563
 30
0.0
 10
-349.0955260825961
 20
321.641120022747
 30
0.0
 10
-349.6871344256238
 20
324.7866631298529
 30
0.0
 10
-350.8219499997834
 20
327.7227620668638
 30
0.0
 10
-351.3861122312612
 20
329.1824507019083
 30
0.0
 10
-352.0845064093705
 20
330.5903515583138
 30
0.0
 10
-352.9042208672467
 20
331.9235693579524
 30
0.0
 10
-353.8871656055749
 20
333.5223582730455
 30
0.0
 10
-355.0445589578751
 20
335.0137263530421
 30
0.0
 10
-356.3508245348523
 20
336.361055264009
 30
0.0
 10
-358.6083201274117
 20
338.6894944688503
 30
0.0
 10
-361.310492116149
 20
340.58761533329
 30
0.0
 10
-364.2675460534996
 20
341.919175077339
 30
0.0
 10
-367.4735199949485
 20
343.362847601006
 30
0.0
 10
-370.9790375523963
 20
344.1405462248567
 30
0.0
 10
-374.4950678878023
 20
344.1883476145451
 30
0.0
 10
-376.2537004166312
 20
344.2122306704819
 30
0.0
 10
-378.0149787788279
 20
344.0535512234338
 30
0.0
 10
-379.7417554738155
 20
343.7184476068392
 30
0.0
 10
-381.3529621668912
 20
343.4057806572707
 30
0.0
 10
-382.9341121928056
 20
342.9395495385121
 30
0.0
 10
-384.4563836066398
 20
342.3265628618
 30
0.0
 10
-386.1956133573728
 20
341.6261578503207
 30
0.0
 10
-387.8580081068345
 20
340.7341945023601
 30
0.0
 10
-389.4038450766267
 20
339.6728978183048
 30
0.0
 10
-390.6922953755201
 20
338.788307526021
 30
0.0
 10
-391.8997831730954
 20
337.7861011207048
 30
0.0
 10
-393.0064470801233
 20
336.6826122137281
 30
0.0
 10
-394.1133226538176
 20
335.5789116400856
 30
0.0
 10
-395.1193743369774
 20
334.3738932869944
 30
0.0
 10
-396.0077040737595
 20
333.087665488136
 30
0.0
 10
-396.9995388122452
 20
331.6516129645997
 30
0.0
 10
-397.8446532705329
 20
330.1143484949665
 30
0.0
 10
-398.5256555039227
 20
328.5075162464045
 30
0.0
 10
-399.1777652368254
 20
326.968805387841
 30
0.0
 10
-399.6793446894943
 20
325.3662770282496
 30
0.0
 10
-400.0210805284281
 20
323.7303758903163
 30
0.0
 10
-400.3799966454284
 20
322.0121364177118
 30
0.0
 10
-400.5625591484128
 20
320.2571375000541
 30
0.0
 10
-400.5645699817892
 20
318.5017858046157
 30
0.0
  0
ENDBLK
  5
16D
330
16A
100
AcDbEntity
  8
0
100
AcDbBlockEnd
  0
BLOCK
  5
172
330
170
100
AcDbEntity
  8
0
100
AcDbBlockBegin
  2
block 60
 70
     0
 10
0.0
 20
0.0
 30
0.0
  3
block 60
  1

  0
SPLINE
  5
174
330
170
100
AcDbEntity
  8
0
  6
AI-Linetype-12
 62
     6
370
    25
100
AcDbSpline
210
0.0
220
0.0
230
1.0
 70
     8
 71
     3
 72
     8
 73
     4
 74
     0
 42
0.0000000001
 43
0.0000000001
 12
1.0
 22
0.0
 32
0.0
 13
1.0
 23
0.0
 33
0.0
 40
0.0
 40
0.0
 40
0.0
 40
0.0
 40
1.0
 40
1.0
 40
1.0
 40
1.0
 10
547.1492388855794
 20
-89.47680055627221
 30
0.0
 10
547.1384791631992
 20
-96.47651132751503
 30
0.0
 10
549.0609064169262
 20
-103.3432601554955
 30
0.0
 10
552.704607032209
 20
-109.3198448246993
 30
0.0
  0
ENDBLK
  5
173
330
170
100
AcDbEntity
  8
0
100
AcDbBlockEnd
  0
BLOCK
  5
178
330
176
100
AcDbEntity
  8
0
100
AcDbBlockBegin
  2
block 61
 70
     0
 10
0.0
 20
0.0
 30
0.0
  3
block 61
  1

  0
SPLINE
  5
17A
330
176
100
AcDbEntity
  8
0
  6
AI-Linetype-13
 62
     6
370
    25
100
AcDbSpline
210
0.0
220
0.0
230
1.0
 70
     8
 71
     3
 72
    23
 73
    19
 74
     0
 42
0.0000000001
 43
0.0000000001
 12
1.0
 22
0.0
 32
0.0
 13
1.0
 23
0.0
 33
0.0
 40
0.0
 40
0.0
 40
0.0
 40
0.0
 40
1.0
 40
1.0
 40
1.0
 40
2.0
 40
2.0
 40
2.0
 40
3.0
 40
3.0
 40
3.0
 40
4.0
 40
4.0
 40
4.0
 40
5.0
 40
5.0
 40
5.0
 40
6.0
 40
6.0
 40
6.0
 40
6.0
 10
552.704607032209
 20
-109.3198448246993
 30
0.0
 10
553.739092604704
 20
-111.016882309639
 30
0.0
 10
554.907210401641
 20
-112.6328161841982
 30
0.0
 10
556.1908982004512
 20
-114.1504661707293
 30
0.0
 10
557.4739509992636
 20
-115.6674458794927
 30
0.0
 10
558.8724679666294
 20
-117.0862122557913
 30
0.0
 10
560.3715971578763
 20
-118.3899730775646
 30
0.0
 10
563.4464083193732
 20
-121.0640991649575
 30
0.0
 10
566.9444822656201
 20
-123.2544258122011
 30
0.0
 10
570.7011070494142
 20
-124.8327182981938
 30
0.0
 10
574.3794151652631
 20
-126.3780966178186
 30
0.0
 10
578.3056202296
 20
-127.3367349426413
 30
0.0
 10
582.2836130726022
 20
-127.6459446621322
 30
0.0
 10
584.1809225481219
 20
-127.7934410497076
 30
0.0
 10
586.0900148016461
 20
-127.7931941052604
 30
0.0
 10
587.9875359438578
 20
-127.6477791065613
 30
0.0
 10
589.9838348654706
 20
-127.4948146634692
 30
0.0
 10
591.967327953532
 20
-127.1812304995723
 30
0.0
 10
593.9131796520896
 20
-126.707661614894
 30
0.0
  0
ENDBLK
  5
179
330
176
100
AcDbEntity
  8
0
100
AcDbBlockEnd
  0
BLOCK
  5
17E
330
17C
100
AcDbEntity
  8
0
100
AcDbBlockBegin
  2
block 62
 70
     0
 10
0.0
 20
0.0
 30
0.0
  3
block 62
  1

  0
SPLINE
  5
180
330
17C
100
AcDbEntity
  8
0
  6
AI-Linetype-14
 62
     6
370
    25
100
AcDbSpline
210
0.0
220
0.0
230
1.0
 70
     8
 71
     3
 72
    29
 73
    25
 74
     0
 42
0.0000000001
 43
0.0000000001
 12
1.0
 22
0.0
 32
0.0
 13
1.0
 23
0.0
 33
0.0
 40
0.0
 40
0.0
 40
0.0
 40
0.0
 40
1.0
 40
1.0
 40
1.0
 40
2.0
 40
2.0
 40
2.0
 40
3.0
 40
3.0
 40
3.0
 40
4.0
 40
4.0
 40
4.0
 40
5.0
 40
5.0
 40
5.0
 40
6.0
 40
6.0
 40
6.0
 40
7.0
 40
7.0
 40
7.0
 40
8.0
 40
8.0
 40
8.0
 40
8.0
 10
623.158281520338
 20
-89.47810583404876
 30
0.0
 10
623.1557767980789
 20
-84.50196365597495
 30
0.0
 10
622.1628837262516
 20
-79.52645647788556
 30
0.0
 10
620.2552378616575
 20
-74.93053818532555
 30
0.0
 10
618.349426441517
 20
-70.33906489270923
 30
0.0
 10
615.5306261175521
 20
-66.12643965230527
 30
0.0
 10
612.0130435598832
 20
-62.61351385014626
 30
0.0
 10
608.4976129467053
 20
-59.10266943683845
 30
0.0
 10
604.284246766538
 20
-56.29064251734337
 30
0.0
 10
599.6933378023878
 20
-54.39107531197241
 30
0.0
 10
595.1032755049519
 20
-52.49186088438306
 30
0.0
 10
590.1357762568526
 20
-51.50475339313493
 30
0.0
 10
585.1682770087535
 20
-51.50464755980236
 30
0.0
 10
580.1994724828771
 20
-51.50450644868715
 30
0.0
 10
575.2306326791931
 20
-52.49193143993425
 30
0.0
 10
570.639194548391
 20
-54.39142808974054
 30
0.0
 10
566.0453575286494
 20
-56.29191251732637
 30
0.0
 10
561.8293807928777
 20
-59.1054916590323
 30
0.0
 10
558.311127957429
 20
-62.61792357232079
 30
0.0
 10
554.7913581775128
 20
-66.13190770782143
 30
0.0
 10
551.9699472979421
 20
-70.34541489265824
 30
0.0
 10
550.061243099993
 20
-74.93815818525691
 30
0.0
 10
548.1525036242625
 20
-79.5309720333933
 30
0.0
 10
547.1565413857165
 20
-84.50305726707356
 30
0.0
 10
547.1492388855794
 20
-89.47680055627221
 30
0.0
  0
ENDBLK
  5
17F
330
17C
100
AcDbEntity
  8
0
100
AcDbBlockEnd
  0
BLOCK
  5
184
330
182
100
AcDbEntity
  8
0
100
AcDbBlockBegin
  2
block 63
 70
     0
 10
0.0
 20
0.0
 30
0.0
  3
block 63
  1

  0
SPLINE
  5
186
330
182
100
AcDbEntity
  8
0
  6
AI-Linetype-15
 62
     6
370
    25
100
AcDbSpline
210
0.0
220
0.0
230
1.0
 70
     8
 71
     3
 72
    23
 73
    19
 74
     0
 42
0.0000000001
 43
0.0000000001
 12
1.0
 22
0.0
 32
0.0
 13
1.0
 23
0.0
 33
0.0
 40
0.0
 40
0.0
 40
0.0
 40
0.0
 40
1.0
 40
1.0
 40
1.0
 40
2.0
 40
2.0
 40
2.0
 40
3.0
 40
3.0
 40
3.0
 40
4.0
 40
4.0
 40
4.0
 40
5.0
 40
5.0
 40
5.0
 40
6.0
 40
6.0
 40
6.0
 40
6.0
 10
622.4371331751851
 20
-96.86756549071639
 30
0.0
 10
622.0824856693795
 20
-98.66599130809497
 30
0.0
 10
621.5979453836555
 20
-100.4383468479258
 30
0.0
 10
620.9897564847959
 20
-102.1673812770314
 30
0.0
 10
620.3898931416463
 20
-103.8726737619113
 30
0.0
 10
619.6697678520665
 20
-105.5358093027049
 30
0.0
 10
618.8360128383872
 20
-107.139748732928
 30
0.0
 10
617.1849422557576
 20
-110.3159481491931
 30
0.0
 10
615.0882427769552
 20
-113.2600903452996
 30
0.0
 10
612.6259244032756
 20
-115.8582986555739
 30
0.0
 10
611.3972699386816
 20
-117.1547569774141
 30
0.0
 10
610.0776340837198
 20
-118.3650316888949
 30
0.0
 10
608.6798579496972
 20
-119.477057790154
 30
0.0
 10
607.1958629253777
 20
-120.6576286130109
 30
0.0
 10
605.6238498440623
 20
-121.7274272146312
 30
0.0
 10
603.9812459282452
 20
-122.6748472062302
 30
0.0
 10
600.8390189322859
 20
-124.4872430234764
 30
0.0
 10
597.4384527654463
 20
-125.8519285669275
 30
0.0
 10
593.9131796520896
 20
-126.707661614894
 30
0.0
  0
ENDBLK
  5
185
330
182
100
AcDbEntity
  8
0
100
AcDbBlockEnd
  0
BLOCK
  5
18A
330
188
100
AcDbEntity
  8
0
100
AcDbBlockBegin
  2
block 64
 70
     0
 10
0.0
 20
0.0
 30
0.0
  3
block 64
  1

  0
SPLINE
  5
18C
330
188
100
AcDbEntity
  8
0
  6
AI-Linetype-16
 62
     6
370
    25
100
AcDbSpline
210
0.0
220
0.0
230
1.0
 70
     8
 71
     3
 72
    53
 73
    49
 74
     0
 42
0.0000000001
 43
0.0000000001
 12
1.0
 22
0.0
 32
0.0
 13
1.0
 23
0.0
 33
0.0
 40
0.0
 40
0.0
 40
0.0
 40
0.0
 40
1.0
 40
1.0
 40
1.0
 40
2.0
 40
2.0
 40
2.0
 40
3.0
 40
3.0
 40
3.0
 40
4.0
 40
4.0
 40
4.0
 40
5.0
 40
5.0
 40
5.0
 40
6.0
 40
6.0
 40
6.0
 40
7.0
 40
7.0
 40
7.0
 40
8.0
 40
8.0
 40
8.0
 40
9.0
 40
9.0
 40
9.0
 40
10.0
 40
10.0
 40
10.0
 40
11.0
 40
11.0
 40
11.0
 40
12.0
 40
12.0
 40
12.0
 40
13.0
 40
13.0
 40
13.0
 40
14.0
 40
14.0
 40
14.0
 40
15.0
 40
15.0
 40
15.0
 40
16.0
 40
16.0
 40
16.0
 40
16.0
 10
610.819843262546
 20
-89.4628305564053
 30
0.0
 10
610.8221715959213
 20
-87.69932973871964
 30
0.0
 10
610.64236075965
 20
-85.93558197658686
 30
0.0
 10
610.2845029759991
 20
-84.20877004745857
 30
0.0
 10
609.9266451923468
 20
-82.48209922944548
 30
0.0
 10
609.3907757391224
 20
-80.792399522208
 30
0.0
 10
608.6881129498183
 20
-79.17512509211465
 30
0.0
 10
607.9853796049766
 20
-77.55763899534399
 30
0.0
 10
607.1158176462732
 20
-76.01261345350079
 30
0.0
 10
606.0978067962641
 20
-74.57250402182528
 30
0.0
 10
605.1495753918224
 20
-73.23110181151128
 30
0.0
 10
604.0725095408429
 20
-71.98075154481909
 30
0.0
 10
602.8864000769521
 20
-70.84420738823529
 30
0.0
 10
601.6169292228159
 20
-69.62782962125327
 30
0.0
 10
600.2225044777416
 20
-68.54187379755665
 30
0.0
 10
598.7321594533184
 20
-67.6090940836038
 30
0.0
 10
597.2413910955381
 20
-66.67606742521663
 30
0.0
 10
595.6547024584095
 20
-65.89635798768909
 30
0.0
 10
594.0052899313766
 20
-65.28612299309809
 30
0.0
 10
592.6851601875193
 20
-64.79770216410664
 30
0.0
 10
591.3248490541168
 20
-64.41786633413015
 30
0.0
 10
589.9426656981345
 20
-64.15166022538922
 30
0.0
 10
588.2157478920388
 20
-63.81902606167154
 30
0.0
 10
586.4546811965142
 20
-63.66373328526892
 30
0.0
 10
584.6962250565698
 20
-63.68941550726844
 30
0.0
 10
582.9396386388859
 20
-63.71509772925512
 30
0.0
 10
581.1856274990263
 20
-63.92133161631307
 30
0.0
 10
579.4709158042662
 20
-64.30370744625426
 30
0.0
 10
577.755569109483
 20
-64.68622438731069
 30
0.0
 10
576.0795218597741
 20
-65.24502438235145
 30
0.0
 10
574.4778754446538
 20
-65.96857159815656
 30
0.0
 10
572.8754881961638
 20
-66.69243631395871
 30
0.0
 10
571.3475723377751
 20
-67.58118936162631
 30
0.0
 10
569.9261248144754
 20
-68.61616879689971
 30
0.0
 10
568.7886634069415
 20
-69.4443499006556
 30
0.0
 10
567.719393944969
 20
-70.36619350358768
 30
0.0
 10
566.732568651015
 20
-71.36910543914337
 30
0.0
 10
565.7458844681888
 20
-72.37187626357229
 30
0.0
 10
564.8416091755727
 20
-73.4557154206235
 30
0.0
 10
564.0320547178737
 20
-74.60619429930568
 30
0.0
 10
563.0203233124037
 20
-76.04397539766939
 30
0.0
 10
562.1565116315617
 20
-77.58586121732043
 30
0.0
 10
561.4587524534824
 20
-79.19953731411962
 30
0.0
 10
560.7612402198245
 20
-80.81275479980528
 30
0.0
 10
560.2297099333132
 20
-82.49772728485709
 30
0.0
 10
559.875238816392
 20
-84.21917699181398
 30
0.0
 10
559.5209088105976
 20
-85.94002697654277
 30
0.0
 10
559.3434968632407
 20
-87.69731890540746
 30
0.0
 10
559.3468835299711
 20
-89.45425805647834
 30
0.0
  0
ENDBLK
  5
18B
330
188
100
AcDbEntity
  8
0
100
AcDbBlockEnd
  0
BLOCK
  5
190
330
18E
100
AcDbEntity
  8
0
100
AcDbBlockBegin
  2
block 65
 70
     0
 10
0.0
 20
0.0
 30
0.0
  3
block 65
  1

  0
SPLINE
  5
192
330
18E
100
AcDbEntity
  8
0
  6
AI-Linetype-17
 62
     6
370
    25
100
AcDbSpline
210
0.0
220
0.0
230
1.0
 70
     8
 71
     3
 72
    44
 73
    40
 74
     0
 42
0.0000000001
 43
0.0000000001
 12
1.0
 22
0.0
 32
0.0
 13
1.0
 23
0.0
 33
0.0
 40
0.0
 40
0.0
 40
0.0
 40
0.0
 40
1.0
 40
1.0
 40
1.0
 40
2.0
 40
2.0
 40
2.0
 40
3.0
 40
3.0
 40
3.0
 40
4.0
 40
4.0
 40
4.0
 40
5.0
 40
5.0
 40
5.0
 40
6.0
 40
6.0
 40
6.0
 40
7.0
 40
7.0
 40
7.0
 40
8.0
 40
8.0
 40
8.0
 40
9.0
 40
9.0
 40
9.0
 40
10.0
 40
10.0
 40
10.0
 40
11.0
 40
11.0
 40
11.0
 40
12.0
 40
12.0
 40
12.0
 40
13.0
 40
13.0
 40
13.0
 40
13.0
 10
559.3468835299711
 20
-89.45425805647834
 30
0.0
 10
559.3502349189189
 20
-92.72415524970103
 30
0.0
 10
559.9896799293975
 20
-95.99101855405127
 30
0.0
 10
561.2113141160828
 20
-99.02360213825152
 30
0.0
 10
561.7794274587179
 20
-100.4339018479686
 30
0.0
 10
562.473447192325
 20
-101.7935073914666
 30
0.0
 10
563.28155526112
 20
-103.0816754355962
 30
0.0
 10
564.2169102764457
 20
-104.5727259779251
 30
0.0
 10
565.3051239054062
 20
-105.9679973544343
 30
0.0
 10
566.5243239253964
 20
-107.2372565098314
 30
0.0
 10
567.742818389799
 20
-108.5057748319255
 30
0.0
 10
569.0921581341561
 20
-109.6484220440106
 30
0.0
 10
570.543344824606
 20
-110.642832035177
 30
0.0
 10
571.9942492928275
 20
-111.636995081922
 30
0.0
 10
573.5469654293867
 20
-112.4829914632989
 30
0.0
 10
575.1697432337693
 20
-113.1608186795171
 30
0.0
 10
578.1618632828008
 20
-114.4106045017497
 30
0.0
 10
581.3920377801915
 20
-115.0886433846337
 30
0.0
 10
584.6341008889066
 20
-115.1473456063343
 30
0.0
 10
586.5091853640794
 20
-115.1813181060323
 30
0.0
 10
588.3882209504159
 20
-115.0081042186748
 30
0.0
 10
590.2260873694413
 20
-114.6342656108792
 30
0.0
 10
591.7582365612242
 20
-114.3225864469875
 30
0.0
 10
593.2617754747482
 20
-113.8714895065404
 30
0.0
 10
594.7119743874077
 20
-113.2874306228304
 30
0.0
 10
596.1617499667364
 20
-112.7035481280176
 30
0.0
 10
597.5581855451741
 20
-111.9867742454808
 30
0.0
 10
598.8781036223656
 20
-111.1494561973519
 30
0.0
 10
600.4615819816489
 20
-110.1450273173782
 30
0.0
 10
601.9349231169085
 20
-108.9671023278321
 30
0.0
 10
603.2625670275694
 20
-107.6430920617941
 30
0.0
 10
604.5902814937687
 20
-106.3189759624371
 30
0.0
 10
605.7722634575858
 20
-104.8487745865753
 30
0.0
 10
606.7812784741317
 20
-103.2680479339382
 30
0.0
 10
607.622159599013
 20
-101.9506698900662
 30
0.0
 10
608.3429551663984
 20
-100.5564921246569
 30
0.0
 10
608.9307182315835
 20
-99.10848047083374
 30
0.0
 10
610.1705557519142
 20
-96.05398938682406
 30
0.0
 10
610.8185027069611
 20
-92.75989163826279
 30
0.0
 10
610.819843262546
 20
-89.4628305564053
 30
0.0
  0
ENDBLK
  5
191
330
18E
100
AcDbEntity
  8
0
100
AcDbBlockEnd
  0
BLOCK
  5
196
330
194
100
AcDbEntity
  8
0
100
AcDbBlockBegin
  2
block 66
 70
     0
 10
0.0
 20
0.0
 30
0.0
  3
block 66
  1

  0
SPLINE
  5
198
330
194
100
AcDbEntity
  8
0
  6
AI-Linetype-18
 62
     6
370
    25
100
AcDbSpline
210
0.0
220
0.0
230
1.0
 70
     8
 71
     3
 72
    20
 73
    16
 74
     0
 42
0.0000000001
 43
0.0000000001
 12
1.0
 22
0.0
 32
0.0
 13
1.0
 23
0.0
 33
0.0
 40
0.0
 40
0.0
 40
0.0
 40
0.0
 40
1.0
 40
1.0
 40
1.0
 40
2.0
 40
2.0
 40
2.0
 40
3.0
 40
3.0
 40
3.0
 40
4.0
 40
4.0
 40
4.0
 40
5.0
 40
5.0
 40
5.0
 40
5.0
 10
-383.6579416491148
 20
-126.7075910593429
 30
0.0
 10
-381.7121605061085
 20
-127.1811952218037
 30
0.0
 10
-379.7285615846947
 20
-127.4947793856866
 30
0.0
 10
-377.7322626630882
 20
-127.6477085509973
 30
0.0
 10
-375.8347415208765
 20
-127.7930882719266
 30
0.0
 10
-373.9257198229291
 20
-127.7933704941435
 30
0.0
 10
-372.0284103473832
 20
-127.6458741065689
 30
0.0
 10
-368.0504527821758
 20
-127.3366643870901
 30
0.0
 10
-364.1240360511481
 20
-126.378026062254
 30
0.0
 10
-360.4457984908626
 20
-124.8326124648478
 30
0.0
 10
-356.6892795404017
 20
-123.2543552566377
 30
0.0
 10
-353.191664205294
 20
-121.0640638871754
 30
0.0
 10
-350.116500266004
 20
-118.3899377997948
 30
0.0
 10
-347.117254105712
 20
-115.7817811562523
 30
0.0
 10
-344.5198571187051
 20
-112.7133553501449
 30
0.0
 10
-342.449439584772
 20
-109.3198448246993
 30
0.0
  0
ENDBLK
  5
197
330
194
100
AcDbEntity
  8
0
100
AcDbBlockEnd
  0
BLOCK
  5
19C
330
19A
100
AcDbEntity
  8
0
100
AcDbBlockBegin
  2
block 67
 70
     0
 10
0.0
 20
0.0
 30
0.0
  3
block 67
  1

  0
SPLINE
  5
19E
330
19A
100
AcDbEntity
  8
0
  6
AI-Linetype-19
 62
     6
370
    25
100
AcDbSpline
210
0.0
220
0.0
230
1.0
 70
     8
 71
     3
 72
    20
 73
    16
 74
     0
 42
0.0000000001
 43
0.0000000001
 12
1.0
 22
0.0
 32
0.0
 13
1.0
 23
0.0
 33
0.0
 40
0.0
 40
0.0
 40
0.0
 40
0.0
 40
1.0
 40
1.0
 40
1.0
 40
2.0
 40
2.0
 40
2.0
 40
3.0
 40
3.0
 40
3.0
 40
4.0
 40
4.0
 40
4.0
 40
5.0
 40
5.0
 40
5.0
 40
5.0
 10
-412.1835179500112
 20
-96.85931049078839
 30
0.0
 10
-411.8322571109232
 20
-98.63858047500085
 30
0.0
 10
-411.3544901586338
 20
-100.3930854594396
 30
0.0
 10
-410.7556145932754
 20
-102.1051159998065
 30
0.0
 10
-410.1565273612194
 20
-103.817816817952
 30
0.0
 10
-409.4362256827552
 20
-105.487972636461
 30
0.0
 10
-408.6014123357401
 20
-107.0988970666169
 30
0.0
 10
-406.930762586138
 20
-110.3225803713584
 30
0.0
 10
-404.8013958845677
 20
-113.3089500670903
 30
0.0
 10
-402.2957563990475
 20
-115.9366153215549
 30
0.0
 10
-399.7875416357171
 20
-118.5669969648929
 30
0.0
 10
-396.9022779773121
 20
-120.8379333336209
 30
0.0
 10
-393.7559234812924
 20
-122.6575258174926
 30
0.0
 10
-390.6058295407748
 20
-124.4792702457775
 30
0.0
 10
-387.1940450404023
 20
-125.8486477336202
 30
0.0
 10
-383.6579416491148
 20
-126.7075910593429
 30
0.0
  0
ENDBLK
  5
19D
330
19A
100
AcDbEntity
  8
0
100
AcDbBlockEnd
  0
BLOCK
  5
1A2
330
1A0
100
AcDbEntity
  8
0
100
AcDbBlockBegin
  2
block 68
 70
     0
 10
0.0
 20
0.0
 30
0.0
  3
block 68
  1

  0
SPLINE
  5
1A4
330
1A0
100
AcDbEntity
  8
0
  6
AI-Linetype-20
 62
     6
370
    25
100
AcDbSpline
210
0.0
220
0.0
230
1.0
 70
     8
 71
     3
 72
    44
 73
    40
 74
     0
 42
0.0000000001
 43
0.0000000001
 12
1.0
 22
0.0
 32
0.0
 13
1.0
 23
0.0
 33
0.0
 40
0.0
 40
0.0
 40
0.0
 40
0.0
 40
1.0
 40
1.0
 40
1.0
 40
2.0
 40
2.0
 40
2.0
 40
3.0
 40
3.0
 40
3.0
 40
4.0
 40
4.0
 40
4.0
 40
5.0
 40
5.0
 40
5.0
 40
6.0
 40
6.0
 40
6.0
 40
7.0
 40
7.0
 40
7.0
 40
8.0
 40
8.0
 40
8.0
 40
9.0
 40
9.0
 40
9.0
 40
10.0
 40
10.0
 40
10.0
 40
11.0
 40
11.0
 40
11.0
 40
12.0
 40
12.0
 40
12.0
 40
13.0
 40
13.0
 40
13.0
 40
13.0
 10
-400.5644994262252
 20
-89.46290111195648
 30
0.0
 10
-400.5632294262049
 20
-92.75996219382681
 30
0.0
 10
-399.9152471933626
 20
-96.05402466460606
 30
0.0
 10
-398.6754096730447
 20
-99.10851574861574
 30
0.0
 10
-398.0876818856289
 20
-100.5565274024383
 30
0.0
 10
-397.3668863182498
 20
-101.9506698900662
 30
0.0
 10
-396.526005193355
 20
-103.2680479339382
 30
0.0
 10
-395.5169901768291
 20
-104.8488098643567
 30
0.0
 10
-394.3350082130113
 20
-106.3190112402063
 30
0.0
 10
-393.0072937467999
 20
-107.6430920617941
 30
0.0
 10
-391.6796851139338
 20
-108.9671023278321
 30
0.0
 10
-390.2063087008915
 20
-110.1449920395962
 30
0.0
 10
-388.6228656193781
 20
-111.1494561973519
 30
0.0
 10
-387.3029122644108
 20
-111.9867389676988
 30
0.0
 10
-385.9064766859668
 20
-112.7035128502356
 30
0.0
 10
-384.4567363844201
 20
-113.2873953450612
 30
0.0
 10
-383.0065374717735
 20
-113.8714542287706
 30
0.0
 10
-381.5029985582359
 20
-114.3225864469875
 30
0.0
 10
-379.9708140886723
 20
-114.63423033311
 30
0.0
 10
-378.1329476696591
 20
-115.0080689409056
 30
0.0
 10
-376.2539473610789
 20
-115.1812828282496
 30
0.0
 10
-374.3788981636881
 20
-115.1473103285523
 30
0.0
 10
-371.1367997772039
 20
-115.0886081068523
 30
0.0
 10
-367.9066252798132
 20
-114.4105339461992
 30
0.0
 10
-364.9145052307689
 20
-113.1607481239537
 30
0.0
 10
-363.2917627041683
 20
-112.4829209077484
 30
0.0
 10
-361.739046567609
 20
-111.6369245263586
 30
0.0
 10
-360.288142099394
 20
-110.6427614796258
 30
0.0
 10
-358.836920131155
 20
-109.6483514884472
 30
0.0
 10
-357.4876156645935
 20
-108.5057042763615
 30
0.0
 10
-356.2691212001773
 20
-107.2371859542808
 30
0.0
 10
-355.0499564579691
 20
-105.9679267988831
 30
0.0
 10
-353.9617428290215
 20
-104.5726201445803
 30
0.0
 10
-353.0263525359138
 20
-103.0815696022501
 30
0.0
 10
-352.2182797448885
 20
-101.7934368359026
 30
0.0
 10
-351.5242600112943
 20
-100.4337960146354
 30
0.0
 10
-350.9561466686529
 20
-99.02349630493116
 30
0.0
 10
-349.7345477597431
 20
-95.99094799850008
 30
0.0
 10
-349.0950674714825
 20
-92.72411997191901
 30
0.0
 10
-349.0917160825341
 20
-89.45422277869696
 30
0.0
  0
ENDBLK
  5
1A3
330
1A0
100
AcDbEntity
  8
0
100
AcDbBlockEnd
  0
BLOCK
  5
1A8
330
1A6
100
AcDbEntity
  8
0
100
AcDbBlockBegin
  2
block 69
 70
     0
 10
0.0
 20
0.0
 30
0.0
  3
block 69
  1

  0
SPLINE
  5
1AA
330
1A6
100
AcDbEntity
  8
0
  6
AI-Linetype-21
 62
     6
370
    25
100
AcDbSpline
210
0.0
220
0.0
230
1.0
 70
     8
 71
     3
 72
    47
 73
    43
 74
     0
 42
0.0000000001
 43
0.0000000001
 12
1.0
 22
0.0
 32
0.0
 13
1.0
 23
0.0
 33
0.0
 40
0.0
 40
0.0
 40
0.0
 40
0.0
 40
1.0
 40
1.0
 40
1.0
 40
2.0
 40
2.0
 40
2.0
 40
3.0
 40
3.0
 40
3.0
 40
4.0
 40
4.0
 40
4.0
 40
5.0
 40
5.0
 40
5.0
 40
6.0
 40
6.0
 40
6.0
 40
7.0
 40
7.0
 40
7.0
 40
8.0
 40
8.0
 40
8.0
 40
9.0
 40
9.0
 40
9.0
 40
10.0
 40
10.0
 40
10.0
 40
11.0
 40
11.0
 40
11.0
 40
12.0
 40
12.0
 40
12.0
 40
13.0
 40
13.0
 40
13.0
 40
14.0
 40
14.0
 40
14.0
 40
14.0
 10
-349.0917160825341
 20
-89.45422277869696
 30
0.0
 10
-349.0826144157243
 20
-86.10177558621476
 30
0.0
 10
-349.7425205376474
 20
-82.75028089372944
 30
0.0
 10
-351.0140022251599
 20
-79.64894092124064
 30
0.0
 10
-351.7172294588972
 20
-77.93362954756701
 30
0.0
 10
-352.6075347512743
 20
-76.29480039544585
 30
0.0
 10
-353.6626225463412
 20
-74.7704123534034
 30
0.0
 10
-354.5068903379529
 20
-73.55057736423025
 30
0.0
 10
-355.4566739646441
 20
-72.40397904105853
 30
0.0
 10
-356.4982856483803
 20
-71.34776238376847
 30
0.0
 10
-357.5135095539133
 20
-70.3183568373438
 30
0.0
 10
-358.6159754053047
 20
-69.37478212349886
 30
0.0
 10
-359.7896670912194
 20
-68.53040851987117
 30
0.0
 10
-361.2180290590688
 20
-67.5028726956576
 30
0.0
 10
-362.7519421397795
 20
-66.62226881458608
 30
0.0
 10
-364.3595857772354
 20
-65.9072588209272
 30
0.0
 10
-365.966488581348
 20
-65.19256632726727
 30
0.0
 10
-367.6470866644492
 20
-64.64329133213623
 30
0.0
 10
-369.365890581514
 20
-64.27079327988572
 30
0.0
 10
-371.0839536652348
 20
-63.8984716165196
 30
0.0
 10
-372.8402225829063
 20
-63.70275050713871
 30
0.0
 10
-374.598114278379
 20
-63.68779272950575
 30
0.0
 10
-376.3568526405539
 20
-63.67279967407858
 30
0.0
 10
-378.1171785027281
 20
-63.83878161705484
 30
0.0
 10
-379.8421913087871
 20
-64.1819991139982
 30
0.0
 10
-381.2233516092091
 20
-64.45684827822949
 30
0.0
 10
-382.5818988536957
 20
-64.84532716367193
 30
0.0
 10
-383.8994533197428
 20
-65.34224993705135
 30
0.0
 10
-385.5456555689419
 20
-65.96306826486995
 30
0.0
 10
-387.1279344837683
 20
-66.75318464675355
 30
0.0
 10
-388.6137992303374
 20
-67.6957363050639
 30
0.0
 10
-390.0992053658058
 20
-68.6379704633631
 30
0.0
 10
-391.4882678885616
 20
-69.73260462032117
 30
0.0
 10
-392.7501892981508
 20
-70.95780183167727
 30
0.0
 10
-395.1335912816451
 20
-73.27195347780888
 30
0.0
 10
-397.0632857577219
 20
-76.05201873093164
 30
0.0
 10
-398.3981263351617
 20
-79.09391564838933
 30
0.0
 10
-399.1675346811099
 20
-80.8472564661667
 30
0.0
 10
-399.7392816349289
 20
-82.68759228316013
 30
0.0
 10
-400.1010199741866
 20
-84.56800365537717
 30
0.0
 10
-400.4110763681571
 20
-86.1799511410811
 30
0.0
 10
-400.5667924818191
 20
-87.82135557096119
 30
0.0
 10
-400.5644994262252
 20
-89.46290111195648
 30
0.0
  0
ENDBLK
  5
1A9
330
1A6
100
AcDbEntity
  8
0
100
AcDbBlockEnd
  0
BLOCK
  5
1AE
330
1AC
100
AcDbEntity
  8
0
100
AcDbBlockBegin
  2
block 70
 70
     0
 10
0.0
 20
0.0
 30
0.0
  3
block 70
  1

  0
SPLINE
  5
1B0
330
1AC
100
AcDbEntity
  8
0
 62
   250
370
    25
100
AcDbSpline
210
0.0
220
0.0
230
1.0
 70
     8
 71
     3
 72
    17
 73
    13
 74
     0
 42
0.0000000001
 43
0.0000000001
 12
1.0
 22
0.0
 32
0.0
 13
1.0
 23
0.0
 33
0.0
 40
0.0
 40
0.0
 40
0.0
 40
0.0
 40
1.0
 40
1.0
 40
1.0
 40
2.0
 40
2.0
 40
2.0
 40
3.0
 40
3.0
 40
3.0
 40
4.0
 40
4.0
 40
4.0
 40
4.0
 10
105.127601362606
 20
353.0707630379103
 30
0.0
 10
126.1320258735483
 20
353.0701985934636
 30
0.0
 10
147.1364503845173
 20
353.0474091486374
 30
0.0
 10
168.1408396176786
 20
353.0010894256557
 30
0.0
 10
187.2288340972286
 20
352.9589677582977
 30
0.0
 10
206.3167580212146
 20
352.8974080350619
 30
0.0
 10
225.4046466673941
 20
352.8183152559862
 30
0.0
 10
266.9327301258867
 20
352.646300808723
 30
0.0
 10
308.4604255287786
 20
352.3913835823274
 30
0.0
 10
349.9875212094551
 20
352.0579027435205
 30
0.0
 10
432.9563050693916
 20
351.3916466215014
 30
0.0
 10
515.9225842070941
 20
350.4118416054296
 30
0.0
 10
598.8840302891365
 20
349.1227563065254
 30
0.0
  0
ENDBLK
  5
1AF
330
1AC
100
AcDbEntity
  8
0
100
AcDbBlockEnd
  0
BLOCK
  5
1B3
330
1B1
100
AcDbEntity
  8
0
100
AcDbBlockBegin
  2
block 71
 70
     0
 10
0.0
 20
0.0
 30
0.0
  3
block 71
  1

  0
SPLINE
  5
1B5
330
1B1
100
AcDbEntity
  8
0
 62
   250
370
    25
100
AcDbSpline
210
0.0
220
0.0
230
1.0
 70
     8
 71
     3
 72
    53
 73
    49
 74
     0
 42
0.0000000001
 43
0.0000000001
 12
1.0
 22
0.0
 32
0.0
 13
1.0
 23
0.0
 33
0.0
 40
0.0
 40
0.0
 40
0.0
 40
0.0
 40
1.0
 40
1.0
 40
1.0
 40
2.0
 40
2.0
 40
2.0
 40
3.0
 40
3.0
 40
3.0
 40
4.0
 40
4.0
 40
4.0
 40
5.0
 40
5.0
 40
5.0
 40
6.0
 40
6.0
 40
6.0
 40
7.0
 40
7.0
 40
7.0
 40
8.0
 40
8.0
 40
8.0
 40
9.0
 40
9.0
 40
9.0
 40
10.0
 40
10.0
 40
10.0
 40
11.0
 40
11.0
 40
11.0
 40
12.0
 40
12.0
 40
12.0
 40
13.0
 40
13.0
 40
13.0
 40
14.0
 40
14.0
 40
14.0
 40
15.0
 40
15.0
 40
15.0
 40
16.0
 40
16.0
 40
16.0
 40
16.0
 10
598.9557852903129
 20
349.1219801954007
 30
0.0
 10
600.325762534984
 20
349.0965801949886
 30
0.0
 10
601.6955986685541
 20
349.0477204719659
 30
0.0
 10
603.0633886909781
 20
348.9649235261674
 30
0.0
 10
604.4127284353087
 20
348.8832554692616
 30
0.0
 10
605.7600926240574
 20
348.768532134052
 30
0.0
 10
607.1037526460907
 20
348.6197304649519
 30
0.0
 10
609.7329701891698
 20
348.3285829601759
 30
0.0
 10
612.3480766209202
 20
347.9069076754836
 30
0.0
 10
614.9309038854792
 20
347.3361484994621
 30
0.0
 10
617.3063683688641
 20
346.8112151575208
 30
0.0
 10
619.6545278517937
 20
346.1601990357489
 30
0.0
 10
621.9574259450955
 20
345.3757976340011
 30
0.0
 10
624.4937570977885
 20
344.5118801198396
 30
0.0
 10
626.9751960273406
 20
343.4861787141427
 30
0.0
 10
629.377824400079
 20
342.3002809169176
 30
0.0
 10
631.4884938791083
 20
341.258457566515
 30
0.0
 10
633.5383444682516
 20
340.0930208807471
 30
0.0
 10
635.5130886672963
 20
338.8121553041949
 30
0.0
 10
637.7233473146341
 20
337.3785369473662
 30
0.0
 10
639.8394848493208
 20
335.8002796992681
 30
0.0
 10
641.8526112712135
 20
334.1008785603065
 30
0.0
 10
643.8719113042985
 20
332.3962563101337
 30
0.0
 10
645.7875652245915
 20
330.5697493357551
 30
0.0
 10
647.5976327542668
 20
328.6445351375384
 30
0.0
 10
649.4248100064503
 20
326.7011528834518
 30
0.0
 10
651.1444253124096
 20
324.6572289610605
 30
0.0
 10
652.7639222833815
 20
322.5375989263237
 30
0.0
 10
654.4056442547528
 20
320.3888294466506
 30
0.0
 10
655.9444962244062
 20
318.1622371879427
 30
0.0
 10
657.3903206925448
 20
315.8771543727111
 30
0.0
 10
659.0222354415199
 20
313.2979959970987
 30
0.0
 10
660.5356168552222
 20
310.6442956758224
 30
0.0
 10
661.9472924339077
 20
307.93820785369
 30
0.0
 10
663.5290421820565
 20
304.9061533595491
 30
0.0
 10
664.9831216503413
 20
301.8083058087718
 30
0.0
 10
666.3309091724477
 20
298.6653027017006
 30
0.0
 10
667.7031441949309
 20
295.4654318159197
 30
0.0
 10
668.9652067156096
 20
292.2187120404797
 30
0.0
 10
670.1357234014603
 20
288.9396425422836
 30
0.0
 10
671.4346864783247
 20
285.3008102604181
 30
0.0
 10
672.620937053318
 20
281.6221140890062
 30
0.0
 10
673.7130665156601
 20
277.915971806037
 30
0.0
 10
674.8232229227388
 20
274.1486931331827
 30
0.0
 10
675.83611849491
 20
270.3530511265181
 30
0.0
 10
676.7677340657377
 20
266.537724119542
 30
0.0
 10
678.8340240996099
 20
258.0757492586108
 30
0.0
 10
680.500546349126
 20
249.5168310627649
 30
0.0
 10
681.7965813703743
 20
240.9034792549169
 30
0.0
  0
ENDBLK
  5
1B4
330
1B1
100
AcDbEntity
  8
0
100
AcDbBlockEnd
  0
BLOCK
  5
1B8
330
1B6
100
AcDbEntity
  8
0
100
AcDbBlockBegin
  2
block 72
 70
     0
 10
0.0
 20
0.0
 30
0.0
  3
block 72
  1

  0
SPLINE
  5
1BA
330
1B6
100
AcDbEntity
  8
0
 62
   250
370
    25
100
AcDbSpline
210
0.0
220
0.0
230
1.0
 70
     8
 71
     3
 72
    17
 73
    13
 74
     0
 42
0.0000000001
 43
0.0000000001
 12
1.0
 22
0.0
 32
0.0
 13
1.0
 23
0.0
 33
0.0
 40
0.0
 40
0.0
 40
0.0
 40
0.0
 40
1.0
 40
1.0
 40
1.0
 40
2.0
 40
2.0
 40
2.0
 40
3.0
 40
3.0
 40
3.0
 40
4.0
 40
4.0
 40
4.0
 40
4.0
 10
105.127601362606
 20
-124.0318774719558
 30
0.0
 10
84.12321212941967
 20
-124.0313130275219
 30
0.0
 10
63.11878761847668
 20
-124.0085235832809
 30
0.0
 10
42.1143983853157
 20
-123.9621685836967
 30
0.0
 10
23.02640390577182
 20
-123.9200469174046
 30
0.0
 10
3.938479981785217
 20
-123.8584871957153
 30
0.0
 10
-15.14940866441937
 20
-123.7794296964295
 30
0.0
 10
-56.67749212288665
 20
-123.6073799757218
 30
0.0
 10
-98.20518752579095
 20
-123.3524627557698
 30
0.0
 10
-139.7322832064611
 20
-123.0190172031705
 30
0.0
 10
-222.7010670664233
 20
-122.352725820189
 30
0.0
 10
-305.6673462040937
 20
-121.3729208288861
 30
0.0
 10
-388.6287922861364
 20
-120.0838355625417
 30
0.0
  0
ENDBLK
  5
1B9
330
1B6
100
AcDbEntity
  8
0
100
AcDbBlockEnd
  0
BLOCK
  5
1BD
330
1BB
100
AcDbEntity
  8
0
100
AcDbBlockBegin
  2
block 73
 70
     0
 10
0.0
 20
0.0
 30
0.0
  3
block 73
  1

  0
SPLINE
  5
1BF
330
1BB
100
AcDbEntity
  8
0
 62
   250
370
    25
100
AcDbSpline
210
0.0
220
0.0
230
1.0
 70
     8
 71
     3
 72
    53
 73
    49
 74
     0
 42
0.0000000001
 43
0.0000000001
 12
1.0
 22
0.0
 32
0.0
 13
1.0
 23
0.0
 33
0.0
 40
0.0
 40
0.0
 40
0.0
 40
0.0
 40
1.0
 40
1.0
 40
1.0
 40
2.0
 40
2.0
 40
2.0
 40
3.0
 40
3.0
 40
3.0
 40
4.0
 40
4.0
 40
4.0
 40
5.0
 40
5.0
 40
5.0
 40
6.0
 40
6.0
 40
6.0
 40
7.0
 40
7.0
 40
7.0
 40
8.0
 40
8.0
 40
8.0
 40
9.0
 40
9.0
 40
9.0
 40
10.0
 40
10.0
 40
10.0
 40
11.0
 40
11.0
 40
11.0
 40
12.0
 40
12.0
 40
12.0
 40
13.0
 40
13.0
 40
13.0
 40
14.0
 40
14.0
 40
14.0
 40
15.0
 40
15.0
 40
15.0
 40
16.0
 40
16.0
 40
16.0
 40
16.0
 10
-388.7005472873122
 20
-120.0830947292112
 30
0.0
 10
-390.0704892542151
 20
-120.056953896111
 30
0.0
 10
-391.4403253877846
 20
-120.0085527854332
 30
0.0
 10
-392.8080801324264
 20
-119.925932230611
 30
0.0
 10
-394.1574551545392
 20
-119.844440564668
 30
0.0
 10
-395.5047840655189
 20
-119.7296819545647
 30
0.0
 10
-396.8484793653211
 20
-119.5808450114558
 30
0.0
 10
-399.4776616306245
 20
-119.2896269584825
 30
0.0
 10
-402.0928033401638
 20
-118.8680222399936
 30
0.0
 10
-404.6756306047289
 20
-118.2972983561666
 30
0.0
 10
-407.0511303658893
 20
-117.7723650274887
 30
0.0
 10
-409.399289848819
 20
-117.1212783665995
 30
0.0
 10
-411.7022232199027
 20
-116.3368417068984
 30
0.0
 10
-414.2385543725827
 20
-115.4729242145545
 30
0.0
 10
-416.7199933021479
 20
-114.4472581125392
 30
0.0
 10
-419.1226216748542
 20
-113.2613603452936
 30
0.0
 10
-421.2332558761144
 20
-112.2195722989705
 30
0.0
 10
-423.2831064652768
 20
-111.0541356426431
 30
0.0
 10
-425.2578153865267
 20
-109.7732700984454
 30
0.0
 10
-427.4680740338774
 20
-108.3396165000527
 30
0.0
 10
-429.5842115685641
 20
-106.7613945696112
 30
0.0
 10
-431.5973732682252
 20
-105.0619934735796
 30
0.0
 10
-433.6166380235417
 20
-103.3573712664777
 30
0.0
 10
-435.5323272216103
 20
-101.5308290604687
 30
0.0
 10
-437.3423947512788
 20
-99.60561491086672
 30
0.0
 10
-439.1695720034442
 20
-97.6622327058891
 30
0.0
 10
-440.8891520316272
 20
-95.61834411291701
 30
0.0
 10
-442.5086490026254
 20
-93.49867885394221
 30
0.0
 10
-444.1504062517531
 20
-91.34994470633885
 30
0.0
 10
-445.6892934992003
 20
-89.1233525038559
 30
0.0
 10
-447.1351179673521
 20
-86.83826974635156
 30
0.0
 10
-448.7669974385445
 20
-84.25911143589735
 30
0.0
 10
-450.2803788522346
 20
-81.6054111816658
 30
0.0
 10
-451.6920544309326
 20
-78.89932342788714
 30
0.0
 10
-453.2738394568632
 20
-75.86726901035289
 30
0.0
 10
-454.727954202905
 20
-72.76942153782376
 30
0.0
 10
-456.0756358916653
 20
-69.62638323237432
 30
0.0
 10
-457.4475534141627
 20
-66.42682992742085
 30
0.0
 10
-458.7091573237336
 20
-63.1804277340011
 30
0.0
 10
-459.8796034540206
 20
-59.9017816519677
 30
0.0
 10
-461.1789898642043
 20
-56.26189112871506
 30
0.0
 10
-462.365981272547
 20
-52.58231310578896
 30
0.0
 10
-463.4585693460158
 20
-48.87514786090938
 30
0.0
 10
-464.568725753107
 20
-45.10846900543466
 30
0.0
 10
-465.5814096585862
 20
-41.31332098353575
 30
0.0
 10
-466.5128135627484
 20
-37.49852323960022
 30
0.0
 10
-468.5788566521539
 20
-29.03658387022082
 30
0.0
 10
-470.2451319572544
 20
-20.47773644615203
 30
0.0
 10
-471.541343367393
 20
-11.86459652255779
 30
0.0
  0
ENDBLK
  5
1BE
330
1BB
100
AcDbEntity
  8
0
100
AcDbBlockEnd
  0
BLOCK
  5
1C2
330
1C0
100
AcDbEntity
  8
0
100
AcDbBlockBegin
  2
block 74
 70
     0
 10
0.0
 20
0.0
 30
0.0
  3
block 74
  1

  0
SPLINE
  5
1C4
330
1C0
100
AcDbEntity
  8
0
 62
   250
370
    25
100
AcDbSpline
210
0.0
220
0.0
230
1.0
 70
     8
 71
     3
 72
    53
 73
    49
 74
     0
 42
0.0000000001
 43
0.0000000001
 12
1.0
 22
0.0
 32
0.0
 13
1.0
 23
0.0
 33
0.0
 40
0.0
 40
0.0
 40
0.0
 40
0.0
 40
1.0
 40
1.0
 40
1.0
 40
2.0
 40
2.0
 40
2.0
 40
3.0
 40
3.0
 40
3.0
 40
4.0
 40
4.0
 40
4.0
 40
5.0
 40
5.0
 40
5.0
 40
6.0
 40
6.0
 40
6.0
 40
7.0
 40
7.0
 40
7.0
 40
8.0
 40
8.0
 40
8.0
 40
9.0
 40
9.0
 40
9.0
 40
10.0
 40
10.0
 40
10.0
 40
11.0
 40
11.0
 40
11.0
 40
12.0
 40
12.0
 40
12.0
 40
13.0
 40
13.0
 40
13.0
 40
14.0
 40
14.0
 40
14.0
 40
15.0
 40
15.0
 40
15.0
 40
16.0
 40
16.0
 40
16.0
 40
16.0
 10
681.7965813703743
 20
-11.86459652255779
 30
0.0
 10
680.5006169046901
 20
-20.47794811281779
 30
0.0
 10
678.8339535440465
 20
-29.03683081466795
 30
0.0
 10
676.7678046212754
 20
-37.49884073959917
 30
0.0
 10
675.8362243282297
 20
-41.3142029279808
 30
0.0
 10
674.8234345894045
 20
-45.10984483874958
 30
0.0
 10
673.7132076267625
 20
-48.87708813867038
 30
0.0
 10
672.6210076088813
 20
-52.58323032801602
 30
0.0
 10
671.4345100894153
 20
-56.26189112871506
 30
0.0
 10
670.1355822903579
 20
-59.9007233186511
 30
0.0
 10
668.9650656045072
 20
-63.17975745622181
 30
0.0
 10
667.7032853060326
 20
-66.42647714965335
 30
0.0
 10
666.3311561168955
 20
-69.62641851015698
 30
0.0
 10
664.9834038725711
 20
-72.76949209337494
 30
0.0
 10
663.5292538487473
 20
-75.86744539923599
 30
0.0
 10
661.947362989471
 20
-78.89939398345116
 30
0.0
 10
660.5355462996588
 20
-81.6054111816658
 30
0.0
 10
659.0220237748536
 20
-84.2588292136804
 30
0.0
 10
657.3902148592251
 20
-86.83812863524918
 30
0.0
 10
655.9444609466242
 20
-89.12328194830535
 30
0.0
 10
654.4058911992013
 20
-91.35022692854295
 30
0.0
 10
652.7641339500735
 20
-93.49892579837649
 30
0.0
 10
651.1445664235114
 20
-95.6185205018014
 30
0.0
 10
649.4245983397595
 20
-97.66195048367214
 30
0.0
 10
647.5974563653824
 20
-99.60536796643115
 30
0.0
 10
645.7873888357077
 20
-101.5306526715708
 30
0.0
 10
643.8721229709898
 20
-103.3577240442451
 30
0.0
 10
641.8528582156606
 20
-105.0623109735779
 30
0.0
 10
639.8396965159873
 20
-106.7617120696101
 30
0.0
 10
637.7231356479678
 20
-108.3393342778364
 30
0.0
 10
635.5128770006305
 20
-109.7729525984599
 30
0.0
 10
633.5381328015858
 20
-111.0538534204268
 30
0.0
 10
631.48863499021
 20
-112.2197839656362
 30
0.0
 10
629.3780007889627
 20
-113.2616778452797
 30
0.0
 10
626.9754076940327
 20
-114.4476814458707
 30
0.0
 10
624.4936512644688
 20
-115.4729242145545
 30
0.0
 10
621.9572848339938
 20
-116.3367358735531
 30
0.0
 10
619.65435146291
 20
-117.1210666999337
 30
0.0
 10
617.3063683688641
 20
-117.7722944719382
 30
0.0
 10
614.9309744410433
 20
-118.2972983561666
 30
0.0
 10
612.3481824542662
 20
-118.8681280733268
 30
0.0
 10
609.7329349114134
 20
-119.2896975140337
 30
0.0
 10
607.1037173683087
 20
-119.5808450114558
 30
0.0
 10
605.7600220684933
 20
-119.7296113990135
 30
0.0
 10
604.4126931575267
 20
-119.8443347313355
 30
0.0
 10
603.0633886909781
 20
-119.9260027861615
 30
0.0
 10
601.6955986685541
 20
-120.0088350076508
 30
0.0
 10
600.325762534984
 20
-120.0576947294415
 30
0.0
 10
598.9557852903129
 20
-120.0830947292112
 30
0.0
  0
ENDBLK
  5
1C3
330
1C0
100
AcDbEntity
  8
0
100
AcDbBlockEnd
  0
BLOCK
  5
1C7
330
1C5
100
AcDbEntity
  8
0
100
AcDbBlockBegin
  2
block 75
 70
     0
 10
0.0
 20
0.0
 30
0.0
  3
block 75
  1

  0
SPLINE
  5
1C9
330
1C5
100
AcDbEntity
  8
0
 62
   250
370
    25
100
AcDbSpline
210
0.0
220
0.0
230
1.0
 70
     8
 71
     3
 72
     8
 73
     4
 74
     0
 42
0.0000000001
 43
0.0000000001
 12
1.0
 22
0.0
 32
0.0
 13
1.0
 23
0.0
 33
0.0
 40
0.0
 40
0.0
 40
0.0
 40
0.0
 40
1.0
 40
1.0
 40
1.0
 40
1.0
 10
691.1875259687397
 20
114.5194624611328
 30
0.0
 10
691.1875965243037
 20
72.06057482073128
 30
0.0
 10
688.0768020288733
 20
30.17885893780661
 30
0.0
 10
681.8039897038317
 20
-11.81407874523461
 30
0.0
  0
ENDBLK
  5
1C8
330
1C5
100
AcDbEntity
  8
0
100
AcDbBlockEnd
  0
BLOCK
  5
1CC
330
1CA
100
AcDbEntity
  8
0
100
AcDbBlockBegin
  2
block 76
 70
     0
 10
0.0
 20
0.0
 30
0.0
  3
block 76
  1

  0
SPLINE
  5
1CE
330
1CA
100
AcDbEntity
  8
0
 62
   250
370
    25
100
AcDbSpline
210
0.0
220
0.0
230
1.0
 70
     8
 71
     3
 72
     8
 73
     4
 74
     0
 42
0.0000000001
 43
0.0000000001
 12
1.0
 22
0.0
 32
0.0
 13
1.0
 23
0.0
 33
0.0
 40
0.0
 40
0.0
 40
0.0
 40
0.0
 40
1.0
 40
1.0
 40
1.0
 40
1.0
 10
-480.9322879657649
 20
114.5194624611328
 30
0.0
 10
-480.9323585213158
 20
156.9783148237385
 30
0.0
 10
-477.8215640258857
 20
198.8600227324514
 30
0.0
 10
-471.5487517008377
 20
240.8529614763103
 30
0.0
  0
ENDBLK
  5
1CD
330
1CA
100
AcDbEntity
  8
0
100
AcDbBlockEnd
  0
BLOCK
  5
1D1
330
1CF
100
AcDbEntity
  8
0
100
AcDbBlockBegin
  2
block 77
 70
     0
 10
0.0
 20
0.0
 30
0.0
  3
block 77
  1

  0
SPLINE
  5
1D3
330
1CF
100
AcDbEntity
  8
0
 62
   250
370
    25
100
AcDbSpline
210
0.0
220
0.0
230
1.0
 70
     8
 71
     3
 72
     8
 73
     4
 74
     0
 42
0.0000000001
 43
0.0000000001
 12
1.0
 22
0.0
 32
0.0
 13
1.0
 23
0.0
 33
0.0
 40
0.0
 40
0.0
 40
0.0
 40
0.0
 40
1.0
 40
1.0
 40
1.0
 40
1.0
 10
-471.541343367393
 20
-11.86459652255779
 30
0.0
 10
-471.5438833674277
 20
-11.84783957826684
 30
0.0
 10
-471.5464233674752
 20
-11.83108263396114
 30
0.0
 10
-471.5489280897414
 20
-11.81432568966955
 30
0.0
  0
ENDBLK
  5
1D2
330
1CF
100
AcDbEntity
  8
0
100
AcDbBlockEnd
  0
BLOCK
  5
1D6
330
1D4
100
AcDbEntity
  8
0
100
AcDbBlockBegin
  2
block 78
 70
     0
 10
0.0
 20
0.0
 30
0.0
  3
block 78
  1

  0
POLYLINE
  5
1D8
330
1D4
100
AcDbEntity
  8
0
 62
   250
370
    25
100
AcDb2dPolyline
 66
     1
 10
0.0
 20
0.0
 30
0.0
  0
VERTEX
  5
1D9
330
1D8
100
AcDbEntity
  8
0
 62
   250
370
    25
100
AcDbVertex
100
AcDb2dVertex
 10
-388.6287922861364
 20
-120.0838355625417
 30
0.0
  0
VERTEX
  5
1DA
330
1D8
100
AcDbEntity
  8
0
 62
   250
370
    25
100
AcDbVertex
100
AcDb2dVertex
 10
-388.7005472873122
 20
-120.0830947292112
 30
0.0
  0
SEQEND
  5
1DB
330
1D8
100
AcDbEntity
  8
0
 62
   250
370
    25
  0
ENDBLK
  5
1D7
330
1D4
100
AcDbEntity
  8
0
100
AcDbBlockEnd
  0
BLOCK
  5
1DE
330
1DC
100
AcDbEntity
  8
0
100
AcDbBlockBegin
  2
block 79
 70
     0
 10
0.0
 20
0.0
 30
0.0
  3
block 79
  1

  0
SPLINE
  5
1E0
330
1DC
100
AcDbEntity
  8
0
 62
   250
370
    25
100
AcDbSpline
210
0.0
220
0.0
230
1.0
 70
     8
 71
     3
 72
    23
 73
    19
 74
     0
 42
0.0000000001
 43
0.0000000001
 12
1.0
 22
0.0
 32
0.0
 13
1.0
 23
0.0
 33
0.0
 40
0.0
 40
0.0
 40
0.0
 40
0.0
 40
1.0
 40
1.0
 40
1.0
 40
2.0
 40
2.0
 40
2.0
 40
3.0
 40
3.0
 40
3.0
 40
4.0
 40
4.0
 40
4.0
 40
5.0
 40
5.0
 40
5.0
 40
6.0
 40
6.0
 40
6.0
 40
6.0
 10
598.8844536224686
 20
-120.0844000069756
 30
0.0
 10
597.7268486034899
 20
-120.1049316734572
 30
0.0
 10
596.569208306754
 20
-120.1224294510793
 30
0.0
 10
595.4115680099932
 20
-120.1398919509322
 30
0.0
 10
586.2789625825092
 20
-120.2778986163791
 30
0.0
 10
577.1463571550502
 20
-120.4161875040424
 30
0.0
 10
568.0136811720284
 20
-120.5499961139549
 30
0.0
 10
557.7233648922452
 20
-120.7007733348505
 30
0.0
 10
547.4329780568979
 20
-120.8458708335506
 30
0.0
 10
537.1424853882304
 20
-120.9864174989873
 30
0.0
 10
516.5644281064864
 20
-121.2675108298215
 30
0.0
 10
495.9861238802953
 20
-121.5305772163819
 30
0.0
 10
475.4075727096557
 20
-121.7740997142137
 30
0.0
 10
434.2795039799676
 20
-122.26082720989
 30
0.0
 10
393.1505180280511
 20
-122.6696260951612
 30
0.0
 10
352.0208970761123
 20
-123.0025424810965
 30
0.0
 10
269.7248957272015
 20
-123.6687280307461
 30
0.0
 10
187.4263543782233
 20
-124.0313483053046
 30
0.0
 10
105.127601362606
 20
-124.0318774719558
 30
0.0
  0
ENDBLK
  5
1DF
330
1DC
100
AcDbEntity
  8
0
100
AcDbBlockEnd
  0
BLOCK
  5
1E3
330
1E1
100
AcDbEntity
  8
0
100
AcDbBlockBegin
  2
block 80
 70
     0
 10
0.0
 20
0.0
 30
0.0
  3
block 80
  1

  0
POLYLINE
  5
1E5
330
1E1
100
AcDbEntity
  8
0
 62
   250
370
    25
100
AcDb2dPolyline
 66
     1
 10
0.0
 20
0.0
 30
0.0
  0
VERTEX
  5
1E6
330
1E5
100
AcDbEntity
  8
0
 62
   250
370
    25
100
AcDbVertex
100
AcDb2dVertex
 10
598.9557852903129
 20
-120.0830947292112
 30
0.0
  0
VERTEX
  5
1E7
330
1E5
100
AcDbEntity
  8
0
 62
   250
370
    25
100
AcDbVertex
100
AcDb2dVertex
 10
598.8844536224686
 20
-120.0844000069756
 30
0.0
  0
SEQEND
  5
1E8
330
1E5
100
AcDbEntity
  8
0
 62
   250
370
    25
  0
ENDBLK
  5
1E4
330
1E1
100
AcDbEntity
  8
0
100
AcDbBlockEnd
  0
BLOCK
  5
1EB
330
1E9
100
AcDbEntity
  8
0
100
AcDbBlockBegin
  2
block 81
 70
     0
 10
0.0
 20
0.0
 30
0.0
  3
block 81
  1

  0
SPLINE
  5
1ED
330
1E9
100
AcDbEntity
  8
0
 62
   250
370
    25
100
AcDbSpline
210
0.0
220
0.0
230
1.0
 70
     8
 71
     3
 72
     8
 73
     4
 74
     0
 42
0.0000000001
 43
0.0000000001
 12
1.0
 22
0.0
 32
0.0
 13
1.0
 23
0.0
 33
0.0
 40
0.0
 40
0.0
 40
0.0
 40
0.0
 40
1.0
 40
1.0
 40
1.0
 40
1.0
 10
681.8039897038317
 20
-11.81407874523461
 30
0.0
 10
681.8015202593547
 20
-11.83090624507739
 30
0.0
 10
681.799050814852
 20
-11.84776902270218
 30
0.0
 10
681.7965813703743
 20
-11.86459652255779
 30
0.0
  0
ENDBLK
  5
1EC
330
1E9
100
AcDbEntity
  8
0
100
AcDbBlockEnd
  0
BLOCK
  5
1F0
330
1EE
100
AcDbEntity
  8
0
100
AcDbBlockBegin
  2
block 82
 70
     0
 10
0.0
 20
0.0
 30
0.0
  3
block 82
  1

  0
SPLINE
  5
1F2
330
1EE
100
AcDbEntity
  8
0
 62
   250
370
    25
100
AcDbSpline
210
0.0
220
0.0
230
1.0
 70
     8
 71
     3
 72
    17
 73
    13
 74
     0
 42
0.0000000001
 43
0.0000000001
 12
1.0
 22
0.0
 32
0.0
 13
1.0
 23
0.0
 33
0.0
 40
0.0
 40
0.0
 40
0.0
 40
0.0
 40
1.0
 40
1.0
 40
1.0
 40
2.0
 40
2.0
 40
2.0
 40
3.0
 40
3.0
 40
3.0
 40
4.0
 40
4.0
 40
4.0
 40
4.0
 10
681.8041660927161
 20
240.8532436985408
 30
0.0
 10
682.5888849944876
 20
235.6285694462343
 30
0.0
 10
683.3182883397624
 20
230.3956754715765
 30
0.0
 10
684.0007369620569
 20
225.1566784412641
 30
0.0
 10
684.6831855843513
 20
219.9176814109389
 30
0.0
 10
685.3186442058849
 20
214.672546047189
 30
0.0
 10
685.9052078266125
 20
209.4219779055762
 30
0.0
 10
687.0783703458495
 20
198.9208416223375
 30
0.0
 10
688.0559881396484
 20
188.3977978387372
 30
0.0
 10
688.8385903746854
 20
177.8603254437971
 30
0.0
 10
690.4038301225663
 20
156.7853806539169
 30
0.0
 10
691.1890429132084
 20
135.6525097519608
 30
0.0
 10
691.1875259687397
 20
114.5194624611328
 30
0.0
  0
ENDBLK
  5
1F1
330
1EE
100
AcDbEntity
  8
0
100
AcDbBlockEnd
  0
BLOCK
  5
1F5
330
1F3
100
AcDbEntity
  8
0
100
AcDbBlockBegin
  2
block 83
 70
     0
 10
0.0
 20
0.0
 30
0.0
  3
block 83
  1

  0
SPLINE
  5
1F7
330
1F3
100
AcDbEntity
  8
0
 62
   250
370
    25
100
AcDbSpline
210
0.0
220
0.0
230
1.0
 70
     8
 71
     3
 72
     8
 73
     4
 74
     0
 42
0.0000000001
 43
0.0000000001
 12
1.0
 22
0.0
 32
0.0
 13
1.0
 23
0.0
 33
0.0
 40
0.0
 40
0.0
 40
0.0
 40
0.0
 40
1.0
 40
1.0
 40
1.0
 40
1.0
 10
681.7965813703743
 20
240.9034792549169
 30
0.0
 10
681.799121370416
 20
240.8867223102021
 30
0.0
 10
681.8016613704564
 20
240.8699653654867
 30
0.0
 10
681.8041660927161
 20
240.8532436985408
 30
0.0
  0
ENDBLK
  5
1F6
330
1F3
100
AcDbEntity
  8
0
100
AcDbBlockEnd
  0
BLOCK
  5
1FA
330
1F8
100
AcDbEntity
  8
0
100
AcDbBlockBegin
  2
block 84
 70
     0
 10
0.0
 20
0.0
 30
0.0
  3
block 84
  1

  0
POLYLINE
  5
1FC
330
1F8
100
AcDbEntity
  8
0
 62
   250
370
    25
100
AcDb2dPolyline
 66
     1
 10
0.0
 20
0.0
 30
0.0
  0
VERTEX
  5
1FD
330
1FC
100
AcDbEntity
  8
0
 62
   250
370
    25
100
AcDbVertex
100
AcDb2dVertex
 10
598.8840302891365
 20
349.1227563065254
 30
0.0
  0
VERTEX
  5
1FE
330
1FC
100
AcDbEntity
  8
0
 62
   250
370
    25
100
AcDbVertex
100
AcDb2dVertex
 10
598.9557852903129
 20
349.1219801954007
 30
0.0
  0
SEQEND
  5
1FF
330
1FC
100
AcDbEntity
  8
0
 62
   250
370
    25
  0
ENDBLK
  5
1FB
330
1F8
100
AcDbEntity
  8
0
100
AcDbBlockEnd
  0
BLOCK
  5
202
330
200
100
AcDbEntity
  8
0
100
AcDbBlockBegin
  2
block 85
 70
     0
 10
0.0
 20
0.0
 30
0.0
  3
block 85
  1

  0
SPLINE
  5
204
330
200
100
AcDbEntity
  8
0
 62
   250
370
    25
100
AcDbSpline
210
0.0
220
0.0
230
1.0
 70
     8
 71
     3
 72
    23
 73
    19
 74
     0
 42
0.0000000001
 43
0.0000000001
 12
1.0
 22
0.0
 32
0.0
 13
1.0
 23
0.0
 33
0.0
 40
0.0
 40
0.0
 40
0.0
 40
0.0
 40
1.0
 40
1.0
 40
1.0
 40
2.0
 40
2.0
 40
2.0
 40
3.0
 40
3.0
 40
3.0
 40
4.0
 40
4.0
 40
4.0
 40
5.0
 40
5.0
 40
5.0
 40
6.0
 40
6.0
 40
6.0
 40
6.0
 10
-388.6292156194743
 20
349.1232854732029
 30
0.0
 10
-387.4715047671687
 20
349.143817140198
 30
0.0
 10
-386.3137233593058
 20
349.1613149182699
 30
0.0
 10
-385.1559419514433
 20
349.1788126963341
 30
0.0
 10
-376.0224193017315
 20
349.3168193652655
 30
0.0
 10
-366.8888613742513
 20
349.4551435342016
 30
0.0
 10
-357.755268168989
 20
349.5889521475023
 30
0.0
 10
-347.4638935558507
 20
349.739729372196
 30
0.0
 10
-337.1724131093798
 20
349.8848268745673
 30
0.0
 10
-326.8808973851397
 20
350.0254088213279
 30
0.0
 10
-306.3196676036756
 20
350.3062552148119
 30
0.0
 10
-285.7581908777629
 20
350.5691099413416
 30
0.0
 10
-265.1964672074031
 20
350.8124913342314
 30
0.0
 10
-224.0512534774363
 20
351.2994657866514
 30
0.0
 10
-182.9050872474482
 20
351.7084410711373
 30
0.0
 10
-141.7583212952313
 20
352.0414985765992
 30
0.0
 10
-59.46475411301584
 20
352.7076488652857
 30
0.0
 10
22.83131779145899
 20
353.0702338712267
 30
0.0
 10
105.127601362606
 20
353.0707630379103
 30
0.0
  0
ENDBLK
  5
203
330
200
100
AcDbEntity
  8
0
100
AcDbBlockEnd
  0
BLOCK
  5
207
330
205
100
AcDbEntity
  8
0
100
AcDbBlockBegin
  2
block 86
 70
     0
 10
0.0
 20
0.0
 30
0.0
  3
block 86
  1

  0
POLYLINE
  5
209
330
205
100
AcDbEntity
  8
0
 62
   250
370
    25
100
AcDb2dPolyline
 66
     1
 10
0.0
 20
0.0
 30
0.0
  0
VERTEX
  5
20A
330
209
100
AcDbEntity
  8
0
 62
   250
370
    25
100
AcDbVertex
100
AcDb2dVertex
 10
-388.7005472873122
 20
349.1219801954007
 30
0.0
  0
VERTEX
  5
20B
330
209
100
AcDbEntity
  8
0
 62
   250
370
    25
100
AcDbVertex
100
AcDb2dVertex
 10
-388.6292156194743
 20
349.1232854732029
 30
0.0
  0
SEQEND
  5
20C
330
209
100
AcDbEntity
  8
0
 62
   250
370
    25
  0
ENDBLK
  5
208
330
205
100
AcDbEntity
  8
0
100
AcDbBlockEnd
  0
BLOCK
  5
20F
330
20D
100
AcDbEntity
  8
0
100
AcDbBlockBegin
  2
block 87
 70
     0
 10
0.0
 20
0.0
 30
0.0
  3
block 87
  1

  0
SPLINE
  5
211
330
20D
100
AcDbEntity
  8
0
 62
   250
370
    25
100
AcDbSpline
210
0.0
220
0.0
230
1.0
 70
     8
 71
     3
 72
    53
 73
    49
 74
     0
 42
0.0000000001
 43
0.0000000001
 12
1.0
 22
0.0
 32
0.0
 13
1.0
 23
0.0
 33
0.0
 40
0.0
 40
0.0
 40
0.0
 40
0.0
 40
1.0
 40
1.0
 40
1.0
 40
2.0
 40
2.0
 40
2.0
 40
3.0
 40
3.0
 40
3.0
 40
4.0
 40
4.0
 40
4.0
 40
5.0
 40
5.0
 40
5.0
 40
6.0
 40
6.0
 40
6.0
 40
7.0
 40
7.0
 40
7.0
 40
8.0
 40
8.0
 40
8.0
 40
9.0
 40
9.0
 40
9.0
 40
10.0
 40
10.0
 40
10.0
 40
11.0
 40
11.0
 40
11.0
 40
12.0
 40
12.0
 40
12.0
 40
13.0
 40
13.0
 40
13.0
 40
14.0
 40
14.0
 40
14.0
 40
15.0
 40
15.0
 40
15.0
 40
16.0
 40
16.0
 40
16.0
 40
16.0
 10
-471.541343367393
 20
240.9034792549169
 30
0.0
 10
-470.2375119571308
 20
249.5448768965634
 30
0.0
 10
-468.5685908186629
 20
258.1330756484467
 30
0.0
 10
-466.4927052290849
 20
266.6226024542611
 30
0.0
 10
-465.528845768834
 20
270.5642591855356
 30
0.0
 10
-464.4772857515993
 20
274.4846786942419
 30
0.0
 10
-463.3219385104446
 20
278.3745476468899
 30
0.0
 10
-462.2559498818569
 20
281.9637440946135
 30
0.0
 10
-461.1015904184933
 20
285.5269055419021
 30
0.0
 10
-459.8406215089452
 20
289.0523197663477
 30
0.0
 10
-458.6832634344074
 20
292.2881034304981
 30
0.0
 10
-457.4360881361958
 20
295.492031260788
 30
0.0
 10
-456.0824797806636
 20
298.6508035347968
 30
0.0
 10
-454.7320464251967
 20
301.8022027531165
 30
0.0
 10
-453.2756386235484
 20
304.9086933595895
 30
0.0
 10
-451.6890558197655
 20
307.9480503538563
 30
0.0
 10
-450.2440074627515
 20
310.716297621446
 30
0.0
 10
-448.6909032706232
 20
313.4288765547954
 30
0.0
 10
-447.0152793542779
 20
316.0640207646591
 30
0.0
 10
-445.5075071073351
 20
318.4351813590861
 30
0.0
 10
-443.9004984698761
 20
320.7436886191476
 30
0.0
 10
-442.1803892750223
 20
322.9656242111184
 30
0.0
 10
-440.4589042468019
 20
325.189323692005
 30
0.0
 10
-438.6241422722893
 20
327.3263456714811
 30
0.0
 10
-436.6703530735967
 20
329.3489970935274
 30
0.0
 10
-434.9374027674091
 20
331.1430485118109
 30
0.0
 10
-433.1108252374793
 20
332.8471063175306
 30
0.0
 10
-431.1918904838019
 20
334.440674121427
 30
0.0
 10
-429.2716151745403
 20
336.035335536447
 30
0.0
 10
-427.2588768082231
 20
337.519365838562
 30
0.0
 10
-425.1622831627404
 20
338.8738208607569
 30
0.0
 10
-423.0605389616243
 20
340.2315919941313
 30
0.0
 10
-420.8745161480113
 20
341.4591175698058
 30
0.0
 10
-418.6208305555256
 20
342.54616703206
 30
0.0
 10
-416.3796332965611
 20
343.6272192720037
 30
0.0
 10
-414.0715140920684
 20
344.5692770652198
 30
0.0
 10
-411.7161226645657
 20
345.3718465228242
 30
0.0
 10
-409.349089570211
 20
346.1783670915995
 30
0.0
 10
-406.9343609195211
 20
346.8439882136151
 30
0.0
 10
-404.491163101701
 20
347.3767885001334
 30
0.0
 10
-401.9794911160892
 20
347.9245465646694
 30
0.0
 10
-399.4377977410978
 20
348.3318990713426
 30
0.0
 10
-396.8826988103319
 20
348.6160262982232
 30
0.0
 10
-395.5630629553636
 20
348.7627818561899
 30
0.0
 10
-394.239864044794
 20
348.8766232469422
 30
0.0
 10
-392.9146895786237
 20
348.9585029705003
 30
0.0
 10
-391.5115159445007
 20
349.0452157497065
 30
0.0
 10
-390.1061198103549
 20
349.0960863060931
 30
0.0
 10
-388.7005472873122
 20
349.1219801954007
 30
0.0
  0
ENDBLK
  5
210
330
20D
100
AcDbEntity
  8
0
100
AcDbBlockEnd
  0
BLOCK
  5
214
330
212
100
AcDbEntity
  8
0
100
AcDbBlockBegin
  2
block 88
 70
     0
 10
0.0
 20
0.0
 30
0.0
  3
block 88
  1

  0
SPLINE
  5
216
330
212
100
AcDbEntity
  8
0
 62
   250
370
    25
100
AcDbSpline
210
0.0
220
0.0
230
1.0
 70
     8
 71
     3
 72
     8
 73
     4
 74
     0
 42
0.0000000001
 43
0.0000000001
 12
1.0
 22
0.0
 32
0.0
 13
1.0
 23
0.0
 33
0.0
 40
0.0
 40
0.0
 40
0.0
 40
0.0
 40
1.0
 40
1.0
 40
1.0
 40
1.0
 10
-471.5487517008377
 20
240.8529614763103
 30
0.0
 10
-471.5462822563542
 20
240.8698242543715
 30
0.0
 10
-471.5438128118705
 20
240.8866517546509
 30
0.0
 10
-471.541343367393
 20
240.9034792549169
 30
0.0
  0
ENDBLK
  5
215
330
212
100
AcDbEntity
  8
0
100
AcDbBlockEnd
  0
BLOCK
  5
219
330
217
100
AcDbEntity
  8
0
100
AcDbBlockBegin
  2
block 89
 70
     0
 10
0.0
 20
0.0
 30
0.0
  3
block 89
  1

  0
SPLINE
  5
21B
330
217
100
AcDbEntity
  8
0
 62
   250
370
    25
100
AcDbSpline
210
0.0
220
0.0
230
1.0
 70
     8
 71
     3
 72
    17
 73
    13
 74
     0
 42
0.0000000001
 43
0.0000000001
 12
1.0
 22
0.0
 32
0.0
 13
1.0
 23
0.0
 33
0.0
 40
0.0
 40
0.0
 40
0.0
 40
0.0
 40
1.0
 40
1.0
 40
1.0
 40
2.0
 40
2.0
 40
2.0
 40
3.0
 40
3.0
 40
3.0
 40
4.0
 40
4.0
 40
4.0
 40
4.0
 10
-471.5489280897414
 20
-11.81432568966955
 30
0.0
 10
-472.3335058803723
 20
-6.589651569361246
 30
0.0
 10
-473.0630150590056
 20
-1.35675772688128
 30
0.0
 10
-473.7454989590818
 20
3.882239171074902
 30
0.0
 10
-474.4279475813766
 20
9.121236069063167
 30
0.0
 10
-475.0634062028967
 20
14.36633602251417
 30
0.0
 10
-475.6499698236245
 20
19.61690403150059
 30
0.0
 10
-476.8231323428498
 20
30.11807532722977
 30
0.0
 10
-477.800750136648
 20
40.64108356722424
 30
0.0
 10
-478.5833876494795
 20
51.1785556959555
 30
0.0
 10
-480.1485921195787
 20
72.2535442683477
 30
0.0
 10
-480.9338049102332
 20
93.38637989250992
 30
0.0
 10
-480.9322879657649
 20
114.5194624611328
 30
0.0
  0
ENDBLK
  5
21A
330
217
100
AcDbEntity
  8
0
100
AcDbBlockEnd
  0
BLOCK
  5
21E
330
21C
100
AcDbEntity
  8
0
100
AcDbBlockBegin
  2
block 90
 70
     0
 10
0.0
 20
0.0
 30
0.0
  3
block 90
  1

  0
SPLINE
  5
220
330
21C
100
AcDbEntity
  8
0
  6
AI-Linetype-22
 62
     6
370
    25
100
AcDbSpline
210
0.0
220
0.0
230
1.0
 70
     8
 71
     3
 72
     8
 73
     4
 74
     0
 42
0.0000000001
 43
0.0000000001
 12
1.0
 22
0.0
 32
0.0
 13
1.0
 23
0.0
 33
0.0
 40
0.0
 40
0.0
 40
0.0
 40
0.0
 40
1.0
 40
1.0
 40
1.0
 40
1.0
 10
547.1492388855794
 20
318.5157205270538
 30
0.0
 10
547.1385144409549
 20
325.5155020306937
 30
0.0
 10
549.0610475280286
 20
332.3823215876891
 30
0.0
 10
552.7048186988741
 20
338.3589416856542
 30
0.0
  0
ENDBLK
  5
21F
330
21C
100
AcDbEntity
  8
0
100
AcDbBlockEnd
  0
BLOCK
  5
224
330
222
100
AcDbEntity
  8
0
100
AcDbBlockBegin
  2
block 91
 70
     0
 10
0.0
 20
0.0
 30
0.0
  3
block 91
  1

  0
SPLINE
  5
226
330
222
100
AcDbEntity
  8
0
  6
AI-Linetype-23
 62
     6
370
    25
100
AcDbSpline
210
0.0
220
0.0
230
1.0
 70
     8
 71
     3
 72
     8
 73
     4
 74
     0
 42
0.0000000001
 43
0.0000000001
 12
1.0
 22
0.0
 32
0.0
 13
1.0
 23
0.0
 33
0.0
 40
0.0
 40
0.0
 40
0.0
 40
0.0
 40
1.0
 40
1.0
 40
1.0
 40
1.0
 10
622.4371684529671
 20
325.9064150926488
 30
0.0
 10
622.921285405359
 20
323.4553856080273
 30
0.0
 10
623.1594104092571
 20
321.0154333458221
 30
0.0
 10
623.158281520338
 20
318.5170258048628
 30
0.0
  0
ENDBLK
  5
225
330
222
100
AcDbEntity
  8
0
100
AcDbBlockEnd
  0
BLOCK
  5
22A
330
228
100
AcDbEntity
  8
0
100
AcDbBlockBegin
  2
block 92
 70
     0
 10
0.0
 20
0.0
 30
0.0
  3
block 92
  1

  0
SPLINE
  5
22C
330
228
100
AcDbEntity
  8
0
  6
AI-Linetype-24
 62
     6
370
    25
100
AcDbSpline
210
0.0
220
0.0
230
1.0
 70
     8
 71
     3
 72
     8
 73
     4
 74
     0
 42
0.0000000001
 43
0.0000000001
 12
1.0
 22
0.0
 32
0.0
 13
1.0
 23
0.0
 33
0.0
 40
0.0
 40
0.0
 40
0.0
 40
0.0
 40
1.0
 40
1.0
 40
1.0
 40
1.0
 10
-336.894000882604
 20
-89.47680055627221
 30
0.0
 10
-336.8832764379802
 20
-96.47654660529768
 30
0.0
 10
-338.8057742472718
 20
-103.3432601554955
 30
0.0
 10
-342.449439584772
 20
-109.3198448246993
 30
0.0
  0
ENDBLK
  5
22B
330
228
100
AcDbEntity
  8
0
100
AcDbBlockEnd
  0
BLOCK
  5
230
330
22E
100
AcDbEntity
  8
0
100
AcDbBlockBegin
  2
block 93
 70
     0
 10
0.0
 20
0.0
 30
0.0
  3
block 93
  1

  0
SPLINE
  5
232
330
22E
100
AcDbEntity
  8
0
  6
AI-Linetype-25
 62
     6
370
    25
100
AcDbSpline
210
0.0
220
0.0
230
1.0
 70
     8
 71
     3
 72
    29
 73
    25
 74
     0
 42
0.0000000001
 43
0.0000000001
 12
1.0
 22
0.0
 32
0.0
 13
1.0
 23
0.0
 33
0.0
 40
0.0
 40
0.0
 40
0.0
 40
0.0
 40
1.0
 40
1.0
 40
1.0
 40
2.0
 40
2.0
 40
2.0
 40
3.0
 40
3.0
 40
3.0
 40
4.0
 40
4.0
 40
4.0
 40
5.0
 40
5.0
 40
5.0
 40
6.0
 40
6.0
 40
6.0
 40
7.0
 40
7.0
 40
7.0
 40
8.0
 40
8.0
 40
8.0
 40
8.0
 10
-412.9030435173632
 20
-89.47810583404876
 30
0.0
 10
-412.9005387950913
 20
-84.50192837819293
 30
0.0
 10
-411.9075751677128
 20
-79.52645647788556
 30
0.0
 10
-409.9999293031059
 20
-74.93057346309472
 30
0.0
 10
-408.0941178829789
 20
-70.33906489270923
 30
0.0
 10
-405.2753528367702
 20
-66.12643965230527
 30
0.0
 10
-401.7578055568956
 20
-62.61347857236489
 30
0.0
 10
-398.2423749437177
 20
-59.10263415906927
 30
0.0
 10
-394.0290087635447
 20
-56.29067779511255
 30
0.0
 10
-389.4381350771758
 20
-54.39111058975442
 30
0.0
 10
-384.8480022241694
 20
-52.49186088438306
 30
0.0
 10
-379.8805382538651
 20
-51.50468283758374
 30
0.0
 10
-374.9130390057788
 20
-51.50457700423834
 30
0.0
 10
-369.9442344798767
 20
-51.50447117091862
 30
0.0
 10
-364.975394676219
 20
-52.49193143993425
 30
0.0
 10
-360.3839918231726
 20
-54.39146336752255
 30
0.0
 10
-355.7901548034381
 20
-56.29198307288976
 30
0.0
 10
-351.5741427898901
 20
-59.10552693681431
 30
0.0
 10
-348.055889954442
 20
-62.6179588501028
 30
0.0
 10
-344.5360848967561
 20
-66.13190770782143
 30
0.0
 10
-341.7146387393911
 20
-70.34534433710705
 30
0.0
 10
-339.805934541442
 20
-74.9381229074749
 30
0.0
 10
-337.8972303434801
 20
-79.53093675562413
 30
0.0
 10
-336.9013033827161
 20
-84.50309254484209
 30
0.0
 10
-336.894000882604
 20
-89.47680055627221
 30
0.0
  0
ENDBLK
  5
231
330
22E
100
AcDbEntity
  8
0
100
AcDbBlockEnd
  0
BLOCK
  5
236
330
234
100
AcDbEntity
  8
0
100
AcDbBlockBegin
  2
block 94
 70
     0
 10
0.0
 20
0.0
 30
0.0
  3
block 94
  1

  0
SPLINE
  5
238
330
234
100
AcDbEntity
  8
0
 62
   250
370
    25
100
AcDbSpline
210
0.0
220
0.0
230
1.0
 70
     8
 71
     3
 72
    11
 73
     7
 74
     0
 42
0.0000000001
 43
0.0000000001
 12
1.0
 22
0.0
 32
0.0
 13
1.0
 23
0.0
 33
0.0
 40
0.0
 40
0.0
 40
0.0
 40
0.0
 40
1.0
 40
1.0
 40
1.0
 40
2.0
 40
2.0
 40
2.0
 40
2.0
 10
117.9321439981829
 20
91.39498665564837
 30
0.0
 10
105.3305719866111
 20
84.51070651770443
 30
0.0
 10
89.53417462157593
 20
89.14549974593334
 30
0.0
 10
82.64992958749335
 20
101.7470361614026
 30
0.0
 10
75.76564927562907
 20
114.3486078546333
 30
0.0
 10
80.4004426209488
 20
130.1450140648596
 30
0.0
 10
93.00201463252063
 20
137.0292590989482
 30
0.0
  0
ENDBLK
  5
237
330
234
100
AcDbEntity
  8
0
100
AcDbBlockEnd
  0
BLOCK
  5
23B
330
239
100
AcDbEntity
  8
0
100
AcDbBlockBegin
  2
block 95
 70
     0
 10
0.0
 20
0.0
 30
0.0
  3
block 95
  1

  0
SPLINE
  5
23D
330
239
100
AcDbEntity
  8
0
 62
   250
370
    25
100
AcDbSpline
210
0.0
220
0.0
230
1.0
 70
     8
 71
     3
 72
    11
 73
     7
 74
     0
 42
0.0000000001
 43
0.0000000001
 12
1.0
 22
0.0
 32
0.0
 13
1.0
 23
0.0
 33
0.0
 40
0.0
 40
0.0
 40
0.0
 40
0.0
 40
1.0
 40
1.0
 40
1.0
 40
2.0
 40
2.0
 40
2.0
 40
2.0
 10
93.00201463252063
 20
137.0292590989482
 30
0.0
 10
105.603551366323
 20
143.9135394108061
 30
0.0
 10
121.3999487313588
 20
139.2787460654864
 30
0.0
 10
128.2841937654539
 20
126.6771740539146
 30
0.0
 10
135.1684740773053
 20
114.0756284818197
 30
0.0
 10
130.5336807319856
 20
98.27923151583148
 30
0.0
 10
117.9321439981829
 20
91.39498665564837
 30
0.0
  0
ENDBLK
  5
23C
330
239
100
AcDbEntity
  8
0
100
AcDbBlockEnd
  0
BLOCK
  5
240
330
23E
100
AcDbEntity
  8
0
100
AcDbBlockBegin
  2
block 96
 70
     0
 10
0.0
 20
0.0
 30
0.0
  3
block 96
  1

  0
SPLINE
  5
242
330
23E
100
AcDbEntity
  8
0
 62
   250
370
    25
100
AcDbSpline
210
0.0
220
0.0
230
1.0
 70
     8
 71
     3
 72
    11
 73
     7
 74
     0
 42
0.0000000001
 43
0.0000000001
 12
1.0
 22
0.0
 32
0.0
 13
1.0
 23
0.0
 33
0.0
 40
0.0
 40
0.0
 40
0.0
 40
0.0
 40
1.0
 40
1.0
 40
1.0
 40
2.0
 40
2.0
 40
2.0
 40
2.0
 10
84.23548893369222
 20
153.0762697379062
 30
0.0
 10
105.6995774546584
 20
164.8021416793524
 30
0.0
 10
132.6053324629269
 20
156.9077529959278
 30
0.0
 10
144.3312044043859
 20
135.4436997527362
 30
0.0
 10
156.0570763458577
 20
113.9796023959034
 30
0.0
 10
148.1627229402087
 20
87.07384806733543
 30
0.0
 10
126.6986344192418
 20
75.34797642210397
 30
0.0
  0
ENDBLK
  5
241
330
23E
100
AcDbEntity
  8
0
100
AcDbBlockEnd
  0
BLOCK
  5
245
330
243
100
AcDbEntity
  8
0
100
AcDbBlockBegin
  2
block 97
 70
     0
 10
0.0
 20
0.0
 30
0.0
  3
block 97
  1

  0
SPLINE
  5
247
330
243
100
AcDbEntity
  8
0
 62
   250
370
    25
100
AcDbSpline
210
0.0
220
0.0
230
1.0
 70
     8
 71
     3
 72
    11
 73
     7
 74
     0
 42
0.0000000001
 43
0.0000000001
 12
1.0
 22
0.0
 32
0.0
 13
1.0
 23
0.0
 33
0.0
 40
0.0
 40
0.0
 40
0.0
 40
0.0
 40
1.0
 40
1.0
 40
1.0
 40
2.0
 40
2.0
 40
2.0
 40
2.0
 10
126.6986344192418
 20
75.34797642210397
 30
0.0
 10
105.2345811760448
 20
63.62210477685197
 30
0.0
 10
78.32882616777668
 20
71.5164579830744
 30
0.0
 10
66.6029189485482
 20
92.9805459618062
 30
0.0
 10
54.87704700707636
 20
114.4445986627739
 30
0.0
 10
62.77143569050772
 20
141.3503977964277
 30
0.0
 10
84.23548893369222
 20
153.0762697379062
 30
0.0
  0
ENDBLK
  5
246
330
243
100
AcDbEntity
  8
0
100
AcDbBlockEnd
  0
BLOCK
  5
24A
330
248
100
AcDbEntity
  8
0
100
AcDbBlockBegin
  2
block 98
 70
     0
 10
0.0
 20
0.0
 30
0.0
  3
block 98
  1

  0
POLYLINE
  5
24C
330
248
100
AcDbEntity
  8
0
 62
     4
370
    25
100
AcDb2dPolyline
 66
     1
 10
0.0
 20
0.0
 30
0.0
  0
VERTEX
  5
24D
330
24C
100
AcDbEntity
  8
0
 62
     4
370
    25
100
AcDbVertex
100
AcDb2dVertex
 10
171.2202167119966
 20
114.5856748344715
 30
0.0
  0
VERTEX
  5
24E
330
24C
100
AcDbEntity
  8
0
 62
     4
370
    25
100
AcDbVertex
100
AcDb2dVertex
 10
159.9701389797559
 20
114.5856748344715
 30
0.0
  0
SEQEND
  5
24F
330
24C
100
AcDbEntity
  8
0
 62
     4
370
    25
  0
ENDBLK
  5
24B
330
248
100
AcDbEntity
  8
0
100
AcDbBlockEnd
  0
BLOCK
  5
252
330
250
100
AcDbEntity
  8
0
100
AcDbBlockBegin
  2
block 99
 70
     0
 10
0.0
 20
0.0
 30
0.0
  3
block 99
  1

  0
POLYLINE
  5
254
330
250
100
AcDbEntity
  8
0
  6
AI-Linetype-26
 62
     4
370
    25
100
AcDb2dPolyline
 66
     1
 10
0.0
 20
0.0
 30
0.0
  0
VERTEX
  5
255
330
254
100
AcDbEntity
  8
0
  6
AI-Linetype-26
 62
     4
370
    25
100
AcDbVertex
100
AcDb2dVertex
 10
156.3960354345068
 20
114.5856748344715
 30
0.0
  0
VERTEX
  5
256
330
254
100
AcDbEntity
  8
0
  6
AI-Linetype-26
 62
     4
370
    25
100
AcDbVertex
100
AcDb2dVertex
 10
151.0348962655184
 20
114.5856748344715
 30
0.0
  0
SEQEND
  5
258
330
254
100
AcDbEntity
  8
0
  6
AI-Linetype-26
 62
     4
370
    25
  0
ENDBLK
  5
253
330
250
100
AcDbEntity
  8
0
100
AcDbBlockEnd
  0
BLOCK
  5
25B
330
259
100
AcDbEntity
  8
0
100
AcDbBlockBegin
  2
block 100
 70
     0
 10
0.0
 20
0.0
 30
0.0
  3
block 100
  1

  0
POLYLINE
  5
25D
330
259
100
AcDbEntity
  8
0
  6
AI-Linetype-27
 62
     4
370
    25
100
AcDb2dPolyline
 66
     1
 10
0.0
 20
0.0
 30
0.0
  0
VERTEX
  5
25E
330
25D
100
AcDbEntity
  8
0
  6
AI-Linetype-27
 62
     4
370
    25
100
AcDbVertex
100
AcDb2dVertex
 10
149.2478498758555
 20
114.5856748344715
 30
0.0
  0
VERTEX
  5
25F
330
25D
100
AcDbEntity
  8
0
  6
AI-Linetype-27
 62
     4
370
    25
100
AcDbVertex
100
AcDb2dVertex
 10
54.5338152468244
 20
114.5856748344715
 30
0.0
  0
SEQEND
  5
261
330
25D
100
AcDbEntity
  8
0
  6
AI-Linetype-27
 62
     4
370
    25
  0
ENDBLK
  5
25C
330
259
100
AcDbEntity
  8
0
100
AcDbBlockEnd
  0
BLOCK
  5
264
330
262
100
AcDbEntity
  8
0
100
AcDbBlockBegin
  2
block 101
 70
     0
 10
0.0
 20
0.0
 30
0.0
  3
block 101
  1

  0
POLYLINE
  5
266
330
262
100
AcDbEntity
  8
0
 62
     4
370
    25
100
AcDb2dPolyline
 66
     1
 10
0.0
 20
0.0
 30
0.0
  0
VERTEX
  5
267
330
266
100
AcDbEntity
  8
0
 62
     4
370
    25
100
AcDbVertex
100
AcDb2dVertex
 10
52.74676885716156
 20
114.5856748344715
 30
0.0
  0
VERTEX
  5
268
330
266
100
AcDbEntity
  8
0
 62
     4
370
    25
100
AcDbVertex
100
AcDb2dVertex
 10
41.49668574195922
 20
114.5856748344715
 30
0.0
  0
SEQEND
  5
269
330
266
100
AcDbEntity
  8
0
 62
     4
370
    25
  0
ENDBLK
  5
265
330
262
100
AcDbEntity
  8
0
100
AcDbBlockEnd
  0
BLOCK
  5
26C
330
26A
100
AcDbEntity
  8
0
100
AcDbBlockBegin
  2
block 102
 70
     0
 10
0.0
 20
0.0
 30
0.0
  3
block 102
  1

  0
POLYLINE
  5
26E
330
26A
100
AcDbEntity
  8
0
 62
     4
370
    25
100
AcDb2dPolyline
 66
     1
 10
0.0
 20
0.0
 30
0.0
  0
VERTEX
  5
26F
330
26E
100
AcDbEntity
  8
0
 62
     4
370
    25
100
AcDbVertex
100
AcDb2dVertex
 10
105.1290958178748
 20
179.3887714199685
 30
0.0
  0
VERTEX
  5
270
330
26E
100
AcDbEntity
  8
0
 62
     4
370
    25
100
AcDbVertex
100
AcDb2dVertex
 10
105.1290958178748
 20
168.1386829218045
 30
0.0
  0
SEQEND
  5
271
330
26E
100
AcDbEntity
  8
0
 62
     4
370
    25
  0
ENDBLK
  5
26D
330
26A
100
AcDbEntity
  8
0
100
AcDbBlockEnd
  0
BLOCK
  5
274
330
272
100
AcDbEntity
  8
0
100
AcDbBlockBegin
  2
block 103
 70
     0
 10
0.0
 20
0.0
 30
0.0
  3
block 103
  1

  0
POLYLINE
  5
276
330
272
100
AcDbEntity
  8
0
  6
AI-Linetype-28
 62
     4
370
    25
100
AcDb2dPolyline
 66
     1
 10
0.0
 20
0.0
 30
0.0
  0
VERTEX
  5
277
330
276
100
AcDbEntity
  8
0
  6
AI-Linetype-28
 62
     4
370
    25
100
AcDbVertex
100
AcDb2dVertex
 10
105.1290958178748
 20
164.5646009084022
 30
0.0
  0
VERTEX
  5
278
330
276
100
AcDbEntity
  8
0
  6
AI-Linetype-28
 62
     4
370
    25
100
AcDbVertex
100
AcDb2dVertex
 10
105.1290958178748
 20
159.2034617394137
 30
0.0
  0
SEQEND
  5
27A
330
276
100
AcDbEntity
  8
0
  6
AI-Linetype-28
 62
     4
370
    25
  0
ENDBLK
  5
275
330
272
100
AcDbEntity
  8
0
100
AcDbBlockEnd
  0
BLOCK
  5
27D
330
27B
100
AcDbEntity
  8
0
100
AcDbBlockBegin
  2
block 104
 70
     0
 10
0.0
 20
0.0
 30
0.0
  3
block 104
  1

  0
POLYLINE
  5
27F
330
27B
100
AcDbEntity
  8
0
  6
AI-Linetype-29
 62
     4
370
    25
100
AcDb2dPolyline
 66
     1
 10
0.0
 20
0.0
 30
0.0
  0
VERTEX
  5
280
330
27F
100
AcDbEntity
  8
0
  6
AI-Linetype-29
 62
     4
370
    25
100
AcDbVertex
100
AcDb2dVertex
 10
105.1290958178748
 20
157.4164153497509
 30
0.0
  0
VERTEX
  5
281
330
27F
100
AcDbEntity
  8
0
  6
AI-Linetype-29
 62
     4
370
    25
100
AcDbVertex
100
AcDb2dVertex
 10
105.1290958178748
 20
62.7025691243791
 30
0.0
  0
SEQEND
  5
283
330
27F
100
AcDbEntity
  8
0
  6
AI-Linetype-29
 62
     4
370
    25
  0
ENDBLK
  5
27E
330
27B
100
AcDbEntity
  8
0
100
AcDbBlockEnd
  0
BLOCK
  5
286
330
284
100
AcDbEntity
  8
0
100
AcDbBlockBegin
  2
block 105
 70
     0
 10
0.0
 20
0.0
 30
0.0
  3
block 105
  1

  0
POLYLINE
  5
288
330
284
100
AcDbEntity
  8
0
 62
     4
370
    25
100
AcDb2dPolyline
 66
     1
 10
0.0
 20
0.0
 30
0.0
  0
VERTEX
  5
289
330
288
100
AcDbEntity
  8
0
 62
     4
370
    25
100
AcDbVertex
100
AcDb2dVertex
 10
105.1290958178748
 20
60.91553350063966
 30
0.0
  0
VERTEX
  5
28A
330
288
100
AcDbEntity
  8
0
 62
     4
370
    25
100
AcDbVertex
100
AcDb2dVertex
 10
105.1290958178748
 20
49.66544500247562
 30
0.0
  0
SEQEND
  5
28B
330
288
100
AcDbEntity
  8
0
 62
     4
370
    25
  0
ENDBLK
  5
287
330
284
100
AcDbEntity
  8
0
100
AcDbBlockEnd
  0
BLOCK
  5
28E
330
28C
100
AcDbEntity
  8
0
100
AcDbBlockBegin
  2
block 106
 70
     0
 10
0.0
 20
0.0
 30
0.0
  3
block 106
  1

  0
POLYLINE
  5
290
330
28C
100
AcDbEntity
  8
0
 62
   250
370
    25
100
AcDb2dPolyline
 66
     1
 10
0.0
 20
0.0
 30
0.0
  0
VERTEX
  5
291
330
290
100
AcDbEntity
  8
0
 62
   250
370
    25
100
AcDbVertex
100
AcDb2dVertex
 10
-434.5744260630844
 20
331.3418824185785
 30
0.0
  0
VERTEX
  5
292
330
290
100
AcDbEntity
  8
0
 62
   250
370
    25
100
AcDbVertex
100
AcDb2dVertex
 10
-682.811667663676
 20
449.4119768392579
 30
0.0
  0
SEQEND
  5
293
330
290
100
AcDbEntity
  8
0
 62
   250
370
    25
  0
ENDBLK
  5
28F
330
28C
100
AcDbEntity
  8
0
100
AcDbBlockEnd
  0
BLOCK
  5
296
330
294
100
AcDbEntity
  8
0
100
AcDbBlockBegin
  2
block 107
 70
     0
 10
0.0
 20
0.0
 30
0.0
  3
block 107
  1

  0
POLYLINE
  5
298
330
294
100
AcDbEntity
  8
0
 62
   250
370
    25
100
AcDb2dPolyline
 66
     1
 10
0.0
 20
0.0
 30
0.0
  0
VERTEX
  5
299
330
298
100
AcDbEntity
  8
0
 62
   250
370
    25
100
AcDbVertex
100
AcDb2dVertex
 10
-431.5973732682252
 20
-105.0619934735796
 30
0.0
  0
VERTEX
  5
29A
330
298
100
AcDbEntity
  8
0
 62
   250
370
    25
100
AcDbVertex
100
AcDb2dVertex
 10
-669.6486466145775
 20
-228.2985237692371
 30
0.0
  0
SEQEND
  5
29B
330
298
100
AcDbEntity
  8
0
 62
   250
370
    25
  0
ENDBLK
  5
297
330
294
100
AcDbEntity
  8
0
100
AcDbBlockEnd
  0
BLOCK
  5
29E
330
29C
100
AcDbEntity
  8
0
100
AcDbBlockBegin
  2
block 108
 70
     0
 10
0.0
 20
0.0
 30
0.0
  3
block 108
  1

  0
POLYLINE
  5
2A0
330
29C
100
AcDbEntity
  8
0
 62
   250
370
    25
100
AcDb2dPolyline
 66
     1
 10
0.0
 20
0.0
 30
0.0
  0
VERTEX
  5
2A1
330
2A0
100
AcDbEntity
  8
0
 62
   250
370
    25
100
AcDbVertex
100
AcDb2dVertex
 10
635.5128770006305
 20
-109.7729525984599
 30
0.0
  0
VERTEX
  5
2A2
330
2A0
100
AcDbEntity
  8
0
 62
   250
370
    25
100
AcDbVertex
100
AcDb2dVertex
 10
901.8753885110314
 20
-213.7344201434782
 30
0.0
  0
SEQEND
  5
2A3
330
2A0
100
AcDbEntity
  8
0
 62
   250
370
    25
  0
ENDBLK
  5
29F
330
29C
100
AcDbEntity
  8
0
100
AcDbBlockEnd
  0
BLOCK
  5
2A6
330
2A4
100
AcDbEntity
  8
0
100
AcDbBlockBegin
  2
block 109
 70
     0
 10
0.0
 20
0.0
 30
0.0
  3
block 109
  1

  0
POLYLINE
  5
2A8
330
2A4
100
AcDbEntity
  8
0
 62
   250
370
    25
100
AcDb2dPolyline
 66
     1
 10
0.0
 20
0.0
 30
0.0
  0
VERTEX
  5
2A9
330
2A8
100
AcDbEntity
  8
0
 62
   250
370
    25
100
AcDbVertex
100
AcDb2dVertex
 10
629.377824400079
 20
342.3002809169176
 30
0.0
  0
VERTEX
  5
2AA
330
2A8
100
AcDbEntity
  8
0
 62
   250
370
    25
100
AcDbVertex
100
AcDb2dVertex
 10
867.8973901862672
 20
462.9857623764846
 30
0.0
  0
SEQEND
  5
2AB
330
2A8
100
AcDbEntity
  8
0
 62
   250
370
    25
  0
ENDBLK
  5
2A7
330
2A4
100
AcDbEntity
  8
0
100
AcDbBlockEnd
  0
ENDSEC
  0
SECTION
  2
ENTITIES
  0
INSERT
  5
41
330
1F
100
AcDbEntity
  8
0
100
AcDbBlockReference
  2
block 2
 10
0.0
 20
0.0
 30
0.0
  0
INSERT
  5
46
330
1F
100
AcDbEntity
  8
0
100
AcDbBlockReference
  2
block 3
 10
0.0
 20
0.0
 30
0.0
  0
INSERT
  5
4B
330
1F
100
AcDbEntity
  8
0
100
AcDbBlockReference
  2
block 4
 10
0.0
 20
0.0
 30
0.0
  0
INSERT
  5
50
330
1F
100
AcDbEntity
  8
0
100
AcDbBlockReference
  2
block 5
 10
0.0
 20
0.0
 30
0.0
  0
INSERT
  5
55
330
1F
100
AcDbEntity
  8
0
100
AcDbBlockReference
  2
block 6
 10
0.0
 20
0.0
 30
0.0
  0
INSERT
  5
5D
330
1F
100
AcDbEntity
  8
0
100
AcDbBlockReference
  2
block 7
 10
0.0
 20
0.0
 30
0.0
  0
INSERT
  5
62
330
1F
100
AcDbEntity
  8
0
100
AcDbBlockReference
  2
block 8
 10
0.0
 20
0.0
 30
0.0
  0
INSERT
  5
67
330
1F
100
AcDbEntity
  8
0
100
AcDbBlockReference
  2
block 9
 10
0.0
 20
0.0
 30
0.0
  0
INSERT
  5
6C
330
1F
100
AcDbEntity
  8
0
100
AcDbBlockReference
  2
block 10
 10
0.0
 20
0.0
 30
0.0
  0
INSERT
  5
71
330
1F
100
AcDbEntity
  8
0
100
AcDbBlockReference
  2
block 11
 10
0.0
 20
0.0
 30
0.0
  0
INSERT
  5
76
330
1F
100
AcDbEntity
  8
0
100
AcDbBlockReference
  2
block 12
 10
0.0
 20
0.0
 30
0.0
  0
INSERT
  5
7B
330
1F
100
AcDbEntity
  8
0
100
AcDbBlockReference
  2
block 13
 10
0.0
 20
0.0
 30
0.0
  0
INSERT
  5
80
330
1F
100
AcDbEntity
  8
0
100
AcDbBlockReference
  2
block 14
 10
0.0
 20
0.0
 30
0.0
  0
INSERT
  5
85
330
1F
100
AcDbEntity
  8
0
100
AcDbBlockReference
  2
block 15
 10
0.0
 20
0.0
 30
0.0
  0
INSERT
  5
8A
330
1F
100
AcDbEntity
  8
0
100
AcDbBlockReference
  2
block 16
 10
0.0
 20
0.0
 30
0.0
  0
INSERT
  5
8F
330
1F
100
AcDbEntity
  8
0
100
AcDbBlockReference
  2
block 17
 10
0.0
 20
0.0
 30
0.0
  0
INSERT
  5
94
330
1F
100
AcDbEntity
  8
0
100
AcDbBlockReference
  2
block 18
 10
0.0
 20
0.0
 30
0.0
  0
INSERT
  5
99
330
1F
100
AcDbEntity
  8
0
100
AcDbBlockReference
  2
block 19
 10
0.0
 20
0.0
 30
0.0
  0
INSERT
  5
9E
330
1F
100
AcDbEntity
  8
0
100
AcDbBlockReference
  2
block 20
 10
0.0
 20
0.0
 30
0.0
  0
INSERT
  5
A3
330
1F
100
AcDbEntity
  8
0
100
AcDbBlockReference
  2
block 21
 10
0.0
 20
0.0
 30
0.0
  0
INSERT
  5
A8
330
1F
100
AcDbEntity
  8
0
100
AcDbBlockReference
  2
block 22
 10
0.0
 20
0.0
 30
0.0
  0
INSERT
  5
AD
330
1F
100
AcDbEntity
  8
0
100
AcDbBlockReference
  2
block 23
 10
0.0
 20
0.0
 30
0.0
  0
INSERT
  5
B2
330
1F
100
AcDbEntity
  8
0
100
AcDbBlockReference
  2
block 24
 10
0.0
 20
0.0
 30
0.0
  0
INSERT
  5
B7
330
1F
100
AcDbEntity
  8
0
100
AcDbBlockReference
  2
block 25
 10
0.0
 20
0.0
 30
0.0
  0
INSERT
  5
BC
330
1F
100
AcDbEntity
  8
0
100
AcDbBlockReference
  2
block 26
 10
0.0
 20
0.0
 30
0.0
  0
INSERT
  5
C1
330
1F
100
AcDbEntity
  8
0
100
AcDbBlockReference
  2
block 27
 10
0.0
 20
0.0
 30
0.0
  0
INSERT
  5
C6
330
1F
100
AcDbEntity
  8
0
100
AcDbBlockReference
  2
block 28
 10
0.0
 20
0.0
 30
0.0
  0
INSERT
  5
CB
330
1F
100
AcDbEntity
  8
0
100
AcDbBlockReference
  2
block 29
 10
0.0
 20
0.0
 30
0.0
  0
INSERT
  5
D0
330
1F
100
AcDbEntity
  8
0
100
AcDbBlockReference
  2
block 30
 10
0.0
 20
0.0
 30
0.0
  0
INSERT
  5
D5
330
1F
100
AcDbEntity
  8
0
100
AcDbBlockReference
  2
block 31
 10
0.0
 20
0.0
 30
0.0
  0
INSERT
  5
DA
330
1F
100
AcDbEntity
  8
0
100
AcDbBlockReference
  2
block 32
 10
0.0
 20
0.0
 30
0.0
  0
INSERT
  5
DF
330
1F
100
AcDbEntity
  8
0
100
AcDbBlockReference
  2
block 33
 10
0.0
 20
0.0
 30
0.0
  0
INSERT
  5
E4
330
1F
100
AcDbEntity
  8
0
100
AcDbBlockReference
  2
block 34
 10
0.0
 20
0.0
 30
0.0
  0
INSERT
  5
E9
330
1F
100
AcDbEntity
  8
0
100
AcDbBlockReference
  2
block 35
 10
0.0
 20
0.0
 30
0.0
  0
INSERT
  5
EE
330
1F
100
AcDbEntity
  8
0
100
AcDbBlockReference
  2
block 36
 10
0.0
 20
0.0
 30
0.0
  0
INSERT
  5
F3
330
1F
100
AcDbEntity
  8
0
100
AcDbBlockReference
  2
block 37
 10
0.0
 20
0.0
 30
0.0
  0
INSERT
  5
F8
330
1F
100
AcDbEntity
  8
0
100
AcDbBlockReference
  2
block 38
 10
0.0
 20
0.0
 30
0.0
  0
INSERT
  5
FD
330
1F
100
AcDbEntity
  8
0
100
AcDbBlockReference
  2
block 39
 10
0.0
 20
0.0
 30
0.0
  0
INSERT
  5
102
330
1F
100
AcDbEntity
  8
0
100
AcDbBlockReference
  2
block 40
 10
0.0
 20
0.0
 30
0.0
  0
INSERT
  5
107
330
1F
100
AcDbEntity
  8
0
100
AcDbBlockReference
  2
block 41
 10
0.0
 20
0.0
 30
0.0
  0
INSERT
  5
10C
330
1F
100
AcDbEntity
  8
0
100
AcDbBlockReference
  2
block 42
 10
0.0
 20
0.0
 30
0.0
  0
INSERT
  5
111
330
1F
100
AcDbEntity
  8
0
100
AcDbBlockReference
  2
block 43
 10
0.0
 20
0.0
 30
0.0
  0
INSERT
  5
116
330
1F
100
AcDbEntity
  8
0
100
AcDbBlockReference
  2
block 44
 10
0.0
 20
0.0
 30
0.0
  0
INSERT
  5
11B
330
1F
100
AcDbEntity
  8
0
100
AcDbBlockReference
  2
block 45
 10
0.0
 20
0.0
 30
0.0
  0
INSERT
  5
120
330
1F
100
AcDbEntity
  8
0
100
AcDbBlockReference
  2
block 46
 10
0.0
 20
0.0
 30
0.0
  0
INSERT
  5
125
330
1F
100
AcDbEntity
  8
0
100
AcDbBlockReference
  2
block 47
 10
0.0
 20
0.0
 30
0.0
  0
INSERT
  5
12A
330
1F
100
AcDbEntity
  8
0
100
AcDbBlockReference
  2
block 48
 10
0.0
 20
0.0
 30
0.0
  0
INSERT
  5
12F
330
1F
100
AcDbEntity
  8
0
100
AcDbBlockReference
  2
block 49
 10
0.0
 20
0.0
 30
0.0
  0
INSERT
  5
135
330
1F
100
AcDbEntity
  8
0
100
AcDbBlockReference
  2
block 50
 10
0.0
 20
0.0
 30
0.0
  0
INSERT
  5
13B
330
1F
100
AcDbEntity
  8
0
100
AcDbBlockReference
  2
block 51
 10
0.0
 20
0.0
 30
0.0
  0
INSERT
  5
141
330
1F
100
AcDbEntity
  8
0
100
AcDbBlockReference
  2
block 52
 10
0.0
 20
0.0
 30
0.0
  0
INSERT
  5
147
330
1F
100
AcDbEntity
  8
0
100
AcDbBlockReference
  2
block 53
 10
0.0
 20
0.0
 30
0.0
  0
INSERT
  5
14D
330
1F
100
AcDbEntity
  8
0
100
AcDbBlockReference
  2
block 54
 10
0.0
 20
0.0
 30
0.0
  0
INSERT
  5
153
330
1F
100
AcDbEntity
  8
0
100
AcDbBlockReference
  2
block 55
 10
0.0
 20
0.0
 30
0.0
  0
INSERT
  5
159
330
1F
100
AcDbEntity
  8
0
100
AcDbBlockReference
  2
block 56
 10
0.0
 20
0.0
 30
0.0
  0
INSERT
  5
15F
330
1F
100
AcDbEntity
  8
0
100
AcDbBlockReference
  2
block 57
 10
0.0
 20
0.0
 30
0.0
  0
INSERT
  5
165
330
1F
100
AcDbEntity
  8
0
100
AcDbBlockReference
  2
block 58
 10
0.0
 20
0.0
 30
0.0
  0
INSERT
  5
16B
330
1F
100
AcDbEntity
  8
0
100
AcDbBlockReference
  2
block 59
 10
0.0
 20
0.0
 30
0.0
  0
INSERT
  5
171
330
1F
100
AcDbEntity
  8
0
100
AcDbBlockReference
  2
block 60
 10
0.0
 20
0.0
 30
0.0
  0
INSERT
  5
177
330
1F
100
AcDbEntity
  8
0
100
AcDbBlockReference
  2
block 61
 10
0.0
 20
0.0
 30
0.0
  0
INSERT
  5
17D
330
1F
100
AcDbEntity
  8
0
100
AcDbBlockReference
  2
block 62
 10
0.0
 20
0.0
 30
0.0
  0
INSERT
  5
183
330
1F
100
AcDbEntity
  8
0
100
AcDbBlockReference
  2
block 63
 10
0.0
 20
0.0
 30
0.0
  0
INSERT
  5
189
330
1F
100
AcDbEntity
  8
0
100
AcDbBlockReference
  2
block 64
 10
0.0
 20
0.0
 30
0.0
  0
INSERT
  5
18F
330
1F
100
AcDbEntity
  8
0
100
AcDbBlockReference
  2
block 65
 10
0.0
 20
0.0
 30
0.0
  0
INSERT
  5
195
330
1F
100
AcDbEntity
  8
0
100
AcDbBlockReference
  2
block 66
 10
0.0
 20
0.0
 30
0.0
  0
INSERT
  5
19B
330
1F
100
AcDbEntity
  8
0
100
AcDbBlockReference
  2
block 67
 10
0.0
 20
0.0
 30
0.0
  0
INSERT
  5
1A1
330
1F
100
AcDbEntity
  8
0
100
AcDbBlockReference
  2
block 68
 10
0.0
 20
0.0
 30
0.0
  0
INSERT
  5
1A7
330
1F
100
AcDbEntity
  8
0
100
AcDbBlockReference
  2
block 69
 10
0.0
 20
0.0
 30
0.0
  0
INSERT
  5
1AD
330
1F
100
AcDbEntity
  8
0
100
AcDbBlockReference
  2
block 70
 10
0.0
 20
0.0
 30
0.0
  0
INSERT
  5
1B2
330
1F
100
AcDbEntity
  8
0
100
AcDbBlockReference
  2
block 71
 10
0.0
 20
0.0
 30
0.0
  0
INSERT
  5
1B7
330
1F
100
AcDbEntity
  8
0
100
AcDbBlockReference
  2
block 72
 10
0.0
 20
0.0
 30
0.0
  0
INSERT
  5
1BC
330
1F
100
AcDbEntity
  8
0
100
AcDbBlockReference
  2
block 73
 10
0.0
 20
0.0
 30
0.0
  0
INSERT
  5
1C1
330
1F
100
AcDbEntity
  8
0
100
AcDbBlockReference
  2
block 74
 10
0.0
 20
0.0
 30
0.0
  0
INSERT
  5
1C6
330
1F
100
AcDbEntity
  8
0
100
AcDbBlockReference
  2
block 75
 10
0.0
 20
0.0
 30
0.0
  0
INSERT
  5
1CB
330
1F
100
AcDbEntity
  8
0
100
AcDbBlockReference
  2
block 76
 10
0.0
 20
0.0
 30
0.0
  0
INSERT
  5
1D0
330
1F
100
AcDbEntity
  8
0
100
AcDbBlockReference
  2
block 77
 10
0.0
 20
0.0
 30
0.0
  0
INSERT
  5
1D5
330
1F
100
AcDbEntity
  8
0
100
AcDbBlockReference
  2
block 78
 10
0.0
 20
0.0
 30
0.0
  0
INSERT
  5
1DD
330
1F
100
AcDbEntity
  8
0
100
AcDbBlockReference
  2
block 79
 10
0.0
 20
0.0
 30
0.0
  0
INSERT
  5
1E2
330
1F
100
AcDbEntity
  8
0
100
AcDbBlockReference
  2
block 80
 10
0.0
 20
0.0
 30
0.0
  0
INSERT
  5
1EA
330
1F
100
AcDbEntity
  8
0
100
AcDbBlockReference
  2
block 81
 10
0.0
 20
0.0
 30
0.0
  0
INSERT
  5
1EF
330
1F
100
AcDbEntity
  8
0
100
AcDbBlockReference
  2
block 82
 10
0.0
 20
0.0
 30
0.0
  0
INSERT
  5
1F4
330
1F
100
AcDbEntity
  8
0
100
AcDbBlockReference
  2
block 83
 10
0.0
 20
0.0
 30
0.0
  0
INSERT
  5
1F9
330
1F
100
AcDbEntity
  8
0
100
AcDbBlockReference
  2
block 84
 10
0.0
 20
0.0
 30
0.0
  0
INSERT
  5
201
330
1F
100
AcDbEntity
  8
0
100
AcDbBlockReference
  2
block 85
 10
0.0
 20
0.0
 30
0.0
  0
INSERT
  5
206
330
1F
100
AcDbEntity
  8
0
100
AcDbBlockReference
  2
block 86
 10
0.0
 20
0.0
 30
0.0
  0
INSERT
  5
20E
330
1F
100
AcDbEntity
  8
0
100
AcDbBlockReference
  2
block 87
 10
0.0
 20
0.0
 30
0.0
  0
INSERT
  5
213
330
1F
100
AcDbEntity
  8
0
100
AcDbBlockReference
  2
block 88
 10
0.0
 20
0.0
 30
0.0
  0
INSERT
  5
218
330
1F
100
AcDbEntity
  8
0
100
AcDbBlockReference
  2
block 89
 10
0.0
 20
0.0
 30
0.0
  0
INSERT
  5
21D
330
1F
100
AcDbEntity
  8
0
100
AcDbBlockReference
  2
block 90
 10
0.0
 20
0.0
 30
0.0
  0
INSERT
  5
223
330
1F
100
AcDbEntity
  8
0
100
AcDbBlockReference
  2
block 91
 10
0.0
 20
0.0
 30
0.0
  0
INSERT
  5
229
330
1F
100
AcDbEntity
  8
0
100
AcDbBlockReference
  2
block 92
 10
0.0
 20
0.0
 30
0.0
  0
INSERT
  5
22F
330
1F
100
AcDbEntity
  8
0
100
AcDbBlockReference
  2
block 93
 10
0.0
 20
0.0
 30
0.0
  0
INSERT
  5
235
330
1F
100
AcDbEntity
  8
0
100
AcDbBlockReference
  2
block 94
 10
0.0
 20
0.0
 30
0.0
  0
INSERT
  5
23A
330
1F
100
AcDbEntity
  8
0
100
AcDbBlockReference
  2
block 95
 10
0.0
 20
0.0
 30
0.0
  0
INSERT
  5
23F
330
1F
100
AcDbEntity
  8
0
100
AcDbBlockReference
  2
block 96
 10
0.0
 20
0.0
 30
0.0
  0
INSERT
  5
244
330
1F
100
AcDbEntity
  8
0
100
AcDbBlockReference
  2
block 97
 10
0.0
 20
0.0
 30
0.0
  0
INSERT
  5
249
330
1F
100
AcDbEntity
  8
0
100
AcDbBlockReference
  2
block 98
 10
0.0
 20
0.0
 30
0.0
  0
INSERT
  5
251
330
1F
100
AcDbEntity
  8
0
100
AcDbBlockReference
  2
block 99
 10
0.0
 20
0.0
 30
0.0
  0
INSERT
  5
25A
330
1F
100
AcDbEntity
  8
0
100
AcDbBlockReference
  2
block 100
 10
0.0
 20
0.0
 30
0.0
  0
INSERT
  5
263
330
1F
100
AcDbEntity
  8
0
100
AcDbBlockReference
  2
block 101
 10
0.0
 20
0.0
 30
0.0
  0
INSERT
  5
26B
330
1F
100
AcDbEntity
  8
0
100
AcDbBlockReference
  2
block 102
 10
0.0
 20
0.0
 30
0.0
  0
INSERT
  5
273
330
1F
100
AcDbEntity
  8
0
100
AcDbBlockReference
  2
block 103
 10
0.0
 20
0.0
 30
0.0
  0
INSERT
  5
27C
330
1F
100
AcDbEntity
  8
0
100
AcDbBlockReference
  2
block 104
 10
0.0
 20
0.0
 30
0.0
  0
INSERT
  5
285
330
1F
100
AcDbEntity
  8
0
100
AcDbBlockReference
  2
block 105
 10
0.0
 20
0.0
 30
0.0
  0
INSERT
  5
28D
330
1F
100
AcDbEntity
  8
0
100
AcDbBlockReference
  2
block 106
 10
0.0
 20
0.0
 30
0.0
  0
INSERT
  5
295
330
1F
100
AcDbEntity
  8
0
100
AcDbBlockReference
  2
block 107
 10
0.0
 20
0.0
 30
0.0
  0
INSERT
  5
29D
330
1F
100
AcDbEntity
  8
0
100
AcDbBlockReference
  2
block 108
 10
0.0
 20
0.0
 30
0.0
  0
INSERT
  5
2A5
330
1F
100
AcDbEntity
  8
0
100
AcDbBlockReference
  2
block 109
 10
0.0
 20
0.0
 30
0.0
  0
ENDSEC
  0
SECTION
  2
OBJECTS
  0
DICTIONARY
  5
C
330
0
100
AcDbDictionary
281
     1
  3
ACAD_GROUP
350
D
  3
ACAD_LAYOUT
350
1A
  3
ACAD_MATERIAL
350
3B
  3
ACAD_MLEADERSTYLE
350
2CD
  3
ACAD_MLINESTYLE
350
17
  3
ACAD_PLOTSETTINGS
350
19
  3
ACAD_PLOTSTYLENAME
350
E
  3
ACAD_TABLESTYLE
350
2CC
  3
ACAD_VISUALSTYLE
350
2A
  0
SUN
  5
3F
330
29
100
AcDbSun
 90
        1
290
     0
 63
     7
421
 16777215
 40
1.0
291
     1
 91
  2455826
 92
 54000000
292
     0
 70
     2
 71
   256
280
     1
  0
DICTIONARY
  5
D
102
{ACAD_REACTORS
330
C
102
}
330
C
100
AcDbDictionary
281
     1
  0
DICTIONARY
  5
1A
102
{ACAD_REACTORS
330
C
102
}
330
C
100
AcDbDictionary
281
     1
  3
Layout1
350
1E
  3
Layout2
350
26
  3
Model
350
22
  0
DICTIONARY
  5
3B
102
{ACAD_REACTORS
330
C
102
}
330
C
100
AcDbDictionary
281
     1
  3
ByBlock
350
3D
  3
ByLayer
350
3C
  3
Global
350
3E
  0
DICTIONARY
  5
2CD
102
{ACAD_REACTORS
330
C
102
}
330
C
100
AcDbDictionary
281
     1
  0
DICTIONARY
  5
17
102
{ACAD_REACTORS
330
C
102
}
330
C
100
AcDbDictionary
281
     1
  3
Standard
350
18
  0
DICTIONARY
  5
19
102
{ACAD_REACTORS
330
C
102
}
330
C
100
AcDbDictionary
281
     1
  0
ACDBDICTIONARYWDFLT
  5
E
102
{ACAD_REACTORS
330
C
102
}
330
C
100
AcDbDictionary
281
     1
  3
Normal
350
F
100
AcDbDictionaryWithDefault
340
F
  0
DICTIONARY
  5
2CC
102
{ACAD_REACTORS
330
C
102
}
330
C
100
AcDbDictionary
281
     1
  0
DICTIONARY
  5
2A
102
{ACAD_REACTORS
330
C
102
}
330
C
100
AcDbDictionary
281
     1
  3
2dWireframe
350
2F
  3
3D Hidden
350
31
  3
3dWireframe
350
30
  3
Basic
350
32
  3
Brighten
350
36
  3
ColorChange
350
3A
  3
Conceptual
350
34
  3
Dim
350
35
  3
Facepattern
350
39
  3
Flat
350
2B
  3
FlatWithEdges
350
2C
  3
Gouraud
350
2D
  3
GouraudWithEdges
350
2E
  3
Linepattern
350
38
  3
Realistic
350
33
  3
Thicken
350
37
  0
LAYOUT
  5
1E
102
{ACAD_REACTORS
330
1A
102
}
330
1A
100
AcDbPlotSettings
  1

  2
none_device
  4

  6

 40
0.0
 41
0.0
 42
0.0
 43
0.0
 44
0.0
 45
0.0
 46
0.0
 47
0.0
 48
0.0
 49
0.0
140
0.0
141
0.0
142
1.0
143
1.0
 70
   688
 72
     0
 73
     0
 74
     5
  7

 75
    16
 76
     0
 77
     2
 78
   300
147
1.0
148
0.0
149
0.0
100
AcDbLayout
  1
Layout1
 70
     1
 71
     1
 10
0.0
 20
0.0
 11
12.0
 21
9.0
 12
0.0
 22
0.0
 32
0.0
 14
1.000000000000000E+20
 24
1.000000000000000E+20
 34
1.000000000000000E+20
 15
-1.000000000000000E+20
 25
-1.000000000000000E+20
 35
-1.000000000000000E+20
146
0.0
 13
0.0
 23
0.0
 33
0.0
 16
1.0
 26
0.0
 36
0.0
 17
0.0
 27
1.0
 37
0.0
 76
     0
330
1B
  0
LAYOUT
  5
26
102
{ACAD_REACTORS
330
1A
102
}
330
1A
100
AcDbPlotSettings
  1

  2
none_device
  4

  6

 40
0.0
 41
0.0
 42
0.0
 43
0.0
 44
0.0
 45
0.0
 46
0.0
 47
0.0
 48
0.0
 49
0.0
140
0.0
141
0.0
142
1.0
143
1.0
 70
   688
 72
     0
 73
     0
 74
     5
  7

 75
    16
 76
     0
 77
     2
 78
   300
147
1.0
148
0.0
149
0.0
100
AcDbLayout
  1
Layout2
 70
     1
 71
     2
 10
0.0
 20
0.0
 11
0.0
 21
0.0
 12
0.0
 22
0.0
 32
0.0
 14
0.0
 24
0.0
 34
0.0
 15
0.0
 25
0.0
 35
0.0
146
0.0
 13
0.0
 23
0.0
 33
0.0
 16
1.0
 26
0.0
 36
0.0
 17
0.0
 27
1.0
 37
0.0
 76
     0
330
23
  0
LAYOUT
  5
22
102
{ACAD_REACTORS
330
1A
102
}
330
1A
100
AcDbPlotSettings
  1

  2
none_device
  4

  6

 40
0.0
 41
0.0
 42
0.0
 43
0.0
 44
0.0
 45
0.0
 46
0.0
 47
0.0
 48
0.0
 49
0.0
140
0.0
141
0.0
142
1.0
143
1.0
 70
  1712
 72
     0
 73
     0
 74
     0
  7

 75
     0
 76
     0
 77
     2
 78
   300
147
1.0
148
0.0
149
0.0
100
AcDbLayout
  1
Model
 70
     1
 71
     0
 10
0.0
 20
0.0
 11
12.0
 21
9.0
 12
0.0
 22
0.0
 32
0.0
 14
1.000000000000000E+20
 24
1.000000000000000E+20
 34
1.000000000000000E+20
 15
-1.000000000000000E+20
 25
-1.000000000000000E+20
 35
-1.000000000000000E+20
146
0.0
 13
0.0
 23
0.0
 33
0.0
 16
1.0
 26
0.0
 36
0.0
 17
0.0
 27
1.0
 37
0.0
 76
     0
330
1F
331
29
  0
MATERIAL
  5
3D
102
{ACAD_REACTORS
330
3B
102
}
330
3B
100
AcDbMaterial
  1
ByBlock
 72
     1
 94
      127
  0
MATERIAL
  5
3C
102
{ACAD_REACTORS
330
3B
102
}
330
3B
100
AcDbMaterial
  1
ByLayer
 72
     1
 94
      127
  0
MATERIAL
  5
3E
102
{ACAD_REACTORS
330
3B
102
}
330
3B
100
AcDbMaterial
  1
Global
 72
     1
 94
      127
  0
MLINESTYLE
  5
18
102
{ACAD_REACTORS
330
17
102
}
330
17
100
AcDbMlineStyle
  2
Standard
 70
     0
  3

 62
   256
 51
90.0
 52
90.0
 71
     2
 49
0.5
 62
   256
  6
BYLAYER
 49
-0.5
 62
   256
  6
BYLAYER
  0
ACDBPLACEHOLDER
  5
F
102
{ACAD_REACTORS
330
E
102
}
330
E
  0
VISUALSTYLE
  5
2F
102
{ACAD_REACTORS
330
2A
102
}
102
{ACAD_XDICTIONARY
360
2B4
102
}
330
2A
100
AcDbVisualStyle
  2
2dWireframe
 70
     4
 71
     0
 72
     2
 73
     0
 90
        0
 40
-0.6
 41
-30.0
 62
     5
 63
     7
421
 16777215
 74
     1
 91
        4
 64
     7
 65
   257
 75
     1
175
     1
 42
1.0
 92
        0
 66
   257
 43
1.0
 76
     1
 77
     6
 78
     2
 67
     7
 79
     5
170
     0
171
     0
290
     0
174
     0
 93
        1
 44
0.0
173
     0
291
     0
 45
0.0
  0
VISUALSTYLE
  5
31
102
{ACAD_REACTORS
330
2A
102
}
102
{ACAD_XDICTIONARY
360
2B8
102
}
330
2A
100
AcDbVisualStyle
  2
3D Hidden
 70
     6
 71
     1
 72
     2
 73
     2
 90
        0
 40
-0.6
 41
-30.0
 62
     5
 63
     7
421
 16777215
 74
     2
 91
        2
 64
     7
 65
   257
 75
     2
175
     1
 42
40.0
 92
        0
 66
   257
 43
1.0
 76
     1
 77
     6
 78
     2
 67
     7
 79
     3
170
     0
171
     0
290
     0
174
     0
 93
        1
 44
0.0
173
     0
291
     0
 45
0.0
  0
VISUALSTYLE
  5
30
102
{ACAD_REACTORS
330
2A
102
}
102
{ACAD_XDICTIONARY
360
2B6
102
}
330
2A
100
AcDbVisualStyle
  2
3dWireframe
 70
     5
 71
     0
 72
     2
 73
     0
 90
        0
 40
-0.6
 41
-30.0
 62
     5
 63
     7
421
 16777215
 74
     1
 91
        4
 64
     7
 65
   257
 75
     1
175
     1
 42
1.0
 92
        0
 66
   257
 43
1.0
 76
     1
 77
     6
 78
     2
 67
     7
 79
     5
170
     0
171
     0
290
     0
174
     0
 93
        1
 44
0.0
173
     0
291
     0
 45
0.0
  0
VISUALSTYLE
  5
32
102
{ACAD_REACTORS
330
2A
102
}
102
{ACAD_XDICTIONARY
360
2BA
102
}
330
2A
100
AcDbVisualStyle
  2
Basic
 70
     7
 71
     1
 72
     0
 73
     1
 90
        0
 40
-0.6
 41
-30.0
 62
     5
 63
     7
421
 16777215
 74
     0
 91
        4
 64
     7
 65
   257
 75
     1
175
     1
 42
1.0
 92
        8
 66
     7
 43
1.0
 76
     1
 77
     6
 78
     2
 67
     7
 79
     5
170
     0
171
     0
290
     0
174
     0
 93
        1
 44
0.0
173
     0
291
     1
 45
0.0
  0
VISUALSTYLE
  5
36
102
{ACAD_REACTORS
330
2A
102
}
102
{ACAD_XDICTIONARY
360
2C2
102
}
330
2A
100
AcDbVisualStyle
  2
Brighten
 70
    12
 71
     2
 72
     2
 73
     0
 90
        0
 40
-0.6
 41
-30.0
 62
     5
 63
     7
421
 16777215
 74
     1
 91
        4
 64
     7
 65
   257
 75
     1
175
     1
 42
1.0
 92
        8
 66
     7
 43
1.0
 76
     1
 77
     6
 78
     2
 67
     7
 79
     5
170
     0
171
     0
290
     0
174
     0
 93
        1
 44
50.0
173
     0
291
     1
 45
0.0
  0
VISUALSTYLE
  5
3A
102
{ACAD_REACTORS
330
2A
102
}
102
{ACAD_XDICTIONARY
360
2CA
102
}
330
2A
100
AcDbVisualStyle
  2
ColorChange
 70
    16
 71
     2
 72
     2
 73
     3
 90
        0
 40
-0.6
 41
-30.0
 62
     5
 63
     8
421
  8421504
 74
     1
 91
        4
 64
     7
 65
   257
 75
     1
175
     1
 42
1.0
 92
        8
 66
     8
424
  8421504
 43
1.0
 76
     1
 77
     6
 78
     2
 67
     7
 79
     5
170
     0
171
     0
290
     0
174
     0
 93
        1
 44
0.0
173
     0
291
     1
 45
0.0
  0
VISUALSTYLE
  5
34
102
{ACAD_REACTORS
330
2A
102
}
102
{ACAD_XDICTIONARY
360
2BE
102
}
330
2A
100
AcDbVisualStyle
  2
Conceptual
 70
     9
 71
     3
 72
     2
 73
     0
 90
        0
 40
-0.6
 41
-30.0
 62
     5
 63
     7
421
 16777215
 74
     2
 91
        2
 64
     7
 65
   257
 75
     1
175
     1
 42
40.0
 92
        8
 66
     7
 43
1.0
 76
     1
 77
     6
 78
     2
 67
     7
 79
     3
170
     0
171
     0
290
     0
174
     0
 93
        1
 44
0.0
173
     0
291
     0
 45
0.0
  0
VISUALSTYLE
  5
35
102
{ACAD_REACTORS
330
2A
102
}
102
{ACAD_XDICTIONARY
360
2C0
102
}
330
2A
100
AcDbVisualStyle
  2
Dim
 70
    11
 71
     2
 72
     2
 73
     0
 90
        0
 40
-0.6
 41
-30.0
 62
     5
 63
     7
421
 16777215
 74
     1
 91
        4
 64
     7
 65
   257
 75
     1
175
     1
 42
1.0
 92
        8
 66
     7
 43
1.0
 76
     1
 77
     6
 78
     2
 67
     7
 79
     5
170
     0
171
     0
290
     0
174
     0
 93
        1
 44
-50.0
173
     0
291
     1
 45
0.0
  0
VISUALSTYLE
  5
39
102
{ACAD_REACTORS
330
2A
102
}
102
{ACAD_XDICTIONARY
360
2C8
102
}
330
2A
100
AcDbVisualStyle
  2
Facepattern
 70
    15
 71
     2
 72
     2
 73
     0
 90
        0
 40
-0.6
 41
-30.0
 62
     5
 63
     7
421
 16777215
 74
     1
 91
        4
 64
     7
 65
   257
 75
     1
175
     1
 42
1.0
 92
        8
 66
     7
 43
1.0
 76
     1
 77
     6
 78
     2
 67
     7
 79
     5
170
     0
171
     0
290
     0
174
     0
 93
        1
 44
0.0
173
     0
291
     1
 45
0.0
  0
VISUALSTYLE
  5
2B
102
{ACAD_REACTORS
330
2A
102
}
102
{ACAD_XDICTIONARY
360
2AC
102
}
330
2A
100
AcDbVisualStyle
  2
Flat
 70
     0
 71
     2
 72
     1
 73
     1
 90
        2
 40
-0.6
 41
30.0
 62
     5
 63
     7
421
 16777215
 74
     0
 91
        4
 64
     7
 65
   257
 75
     1
175
     1
 42
1.0
 92
        8
 66
     7
 43
1.0
 76
     1
 77
     6
 78
     2
 67
     7
 79
     5
170
     0
171
     0
290
     0
174
     0
 93
       13
 44
0.0
173
     0
291
     1
 45
0.0
  0
VISUALSTYLE
  5
2C
102
{ACAD_REACTORS
330
2A
102
}
102
{ACAD_XDICTIONARY
360
2AE
102
}
330
2A
100
AcDbVisualStyle
  2
FlatWithEdges
 70
     1
 71
     2
 72
     1
 73
     1
 90
        2
 40
-0.6
 41
30.0
 62
     5
 63
     7
421
 16777215
 74
     1
 91
        4
 64
     7
 65
   257
 75
     1
175
     1
 42
1.0
 92
        0
 66
   257
 43
1.0
 76
     1
 77
     6
 78
     2
 67
     7
 79
     5
170
     0
171
     0
290
     0
174
     0
 93
       13
 44
0.0
173
     0
291
     1
 45
0.0
  0
VISUALSTYLE
  5
2D
102
{ACAD_REACTORS
330
2A
102
}
102
{ACAD_XDICTIONARY
360
2B0
102
}
330
2A
100
AcDbVisualStyle
  2
Gouraud
 70
     2
 71
     2
 72
     2
 73
     1
 90
        2
 40
-0.6
 41
30.0
 62
     5
 63
     7
421
 16777215
 74
     0
 91
        4
 64
     7
 65
   257
 75
     1
175
     1
 42
1.0
 92
        0
 66
     7
 43
1.0
 76
     1
 77
     6
 78
     2
 67
     7
 79
     5
170
     0
171
     0
290
     0
174
     0
 93
       13
 44
0.0
173
     0
291
     1
 45
0.0
  0
VISUALSTYLE
  5
2E
102
{ACAD_REACTORS
330
2A
102
}
102
{ACAD_XDICTIONARY
360
2B2
102
}
330
2A
100
AcDbVisualStyle
  2
GouraudWithEdges
 70
     3
 71
     2
 72
     2
 73
     1
 90
        2
 40
-0.6
 41
30.0
 62
     5
 63
     7
421
 16777215
 74
     1
 91
        4
 64
     7
 65
   257
 75
     1
175
     1
 42
1.0
 92
        0
 66
   257
 43
1.0
 76
     1
 77
     6
 78
     2
 67
     7
 79
     5
170
     0
171
     0
290
     0
174
     0
 93
       13
 44
0.0
173
     0
291
     1
 45
0.0
  0
VISUALSTYLE
  5
38
102
{ACAD_REACTORS
330
2A
102
}
102
{ACAD_XDICTIONARY
360
2C6
102
}
330
2A
100
AcDbVisualStyle
  2
Linepattern
 70
    14
 71
     2
 72
     2
 73
     0
 90
        0
 40
-0.6
 41
-30.0
 62
     5
 63
     7
421
 16777215
 74
     1
 91
        4
 64
     7
 65
   257
 75
     7
175
     7
 42
1.0
 92
        8
 66
     7
 43
1.0
 76
     1
 77
     6
 78
     2
 67
     7
 79
     5
170
     0
171
     0
290
     0
174
     0
 93
        1
 44
0.0
173
     0
291
     1
 45
0.0
  0
VISUALSTYLE
  5
33
102
{ACAD_REACTORS
330
2A
102
}
102
{ACAD_XDICTIONARY
360
2BC
102
}
330
2A
100
AcDbVisualStyle
  2
Realistic
 70
     8
 71
     2
 72
     2
 73
     0
 90
        0
 40
-0.6
 41
-30.0
 62
     5
 63
     7
421
 16777215
 74
     1
 91
        0
 64
     7
 65
   257
 75
     1
175
     1
 42
1.0
 92
        8
 66
     8
424
  7895160
 43
1.0
 76
     1
 77
     6
 78
     2
 67
     7
 79
     5
170
     0
171
     0
290
     0
174
     0
 93
       13
 44
0.0
173
     0
291
     0
 45
0.0
  0
VISUALSTYLE
  5
37
102
{ACAD_REACTORS
330
2A
102
}
102
{ACAD_XDICTIONARY
360
2C4
102
}
330
2A
100
AcDbVisualStyle
  2
Thicken
 70
    13
 71
     2
 72
     2
 73
     0
 90
        0
 40
-0.6
 41
-30.0
 62
     5
 63
     7
421
 16777215
 74
     1
 91
        4
 64
     7
 65
   257
 75
     1
175
     1
 42
1.0
 92
       12
 66
     7
 43
1.0
 76
     1
 77
     6
 78
     2
 67
     7
 79
     5
170
     0
171
     0
290
     0
174
     0
 93
        1
 44
0.0
173
     0
291
     1
 45
0.0
  0
DICTIONARY
  5
2B4
330
2F
100
AcDbDictionary
280
     1
281
     1
  3
ACAD_XREC_ROUNDTRIP
360
2B5
  0
DICTIONARY
  5
2B8
330
31
100
AcDbDictionary
280
     1
281
     1
  3
ACAD_XREC_ROUNDTRIP
360
2B9
  0
DICTIONARY
  5
2B6
330
30
100
AcDbDictionary
280
     1
281
     1
  3
ACAD_XREC_ROUNDTRIP
360
2B7
  0
DICTIONARY
  5
2BA
330
32
100
AcDbDictionary
280
     1
281
     1
  3
ACAD_XREC_ROUNDTRIP
360
2BB
  0
DICTIONARY
  5
2C2
330
36
100
AcDbDictionary
280
     1
281
     1
  3
ACAD_XREC_ROUNDTRIP
360
2C3
  0
DICTIONARY
  5
2CA
330
3A
100
AcDbDictionary
280
     1
281
     1
  3
ACAD_XREC_ROUNDTRIP
360
2CB
  0
DICTIONARY
  5
2BE
330
34
100
AcDbDictionary
280
     1
281
     1
  3
ACAD_XREC_ROUNDTRIP
360
2BF
  0
DICTIONARY
  5
2C0
330
35
100
AcDbDictionary
280
     1
281
     1
  3
ACAD_XREC_ROUNDTRIP
360
2C1
  0
DICTIONARY
  5
2C8
330
39
100
AcDbDictionary
280
     1
281
     1
  3
ACAD_XREC_ROUNDTRIP
360
2C9
  0
DICTIONARY
  5
2AC
330
2B
100
AcDbDictionary
280
     1
281
     1
  3
ACAD_XREC_ROUNDTRIP
360
2AD
  0
DICTIONARY
  5
2AE
330
2C
100
AcDbDictionary
280
     1
281
     1
  3
ACAD_XREC_ROUNDTRIP
360
2AF
  0
DICTIONARY
  5
2B0
330
2D
100
AcDbDictionary
280
     1
281
     1
  3
ACAD_XREC_ROUNDTRIP
360
2B1
  0
DICTIONARY
  5
2B2
330
2E
100
AcDbDictionary
280
     1
281
     1
  3
ACAD_XREC_ROUNDTRIP
360
2B3
  0
DICTIONARY
  5
2C6
330
38
100
AcDbDictionary
280
     1
281
     1
  3
ACAD_XREC_ROUNDTRIP
360
2C7
  0
DICTIONARY
  5
2BC
330
33
100
AcDbDictionary
280
     1
281
     1
  3
ACAD_XREC_ROUNDTRIP
360
2BD
  0
DICTIONARY
  5
2C4
330
37
100
AcDbDictionary
280
     1
281
     1
  3
ACAD_XREC_ROUNDTRIP
360
2C5
  0
XRECORD
  5
2B5
102
{ACAD_REACTORS
330
2B4
102
}
330
2B4
100
AcDbXrecord
280
     1
102
RTVSPropertyOp0
 70
     1
102
RTVSPropertyOp1
 70
     1
102
RTVSPropertyOp2
 70
     1
102
RTVSPropertyOp3
 70
     1
102
RTVSPropertyOp4
 70
     1
102
RTVSPropertyOp5
 70
     1
102
RTVSPropertyOp6
 70
     1
102
RTVSPropertyOp7
 70
     1
102
RTVSPropertyOp8
 70
     1
102
RTVSPropertyOp9
 70
     1
102
RTVSPropertyOp10
 70
     1
102
RTVSPropertyOp11
 70
     1
102
RTVSPropertyOp12
 70
     1
102
RTVSPropertyOp13
 70
     1
102
RTVSPropertyOp14
 70
     1
102
RTVSPropertyOp15
 70
     1
102
RTVSPropertyOp16
 70
     1
102
RTVSPropertyOp17
 70
     1
102
RTVSPropertyOp18
 70
     1
102
RTVSPropertyOp19
 70
     1
102
RTVSPropertyOp20
 70
     1
102
RTVSPropertyOp21
 70
     1
102
RTVSPropertyOp22
 70
     1
102
RTVSPropertyOp23
 70
     1
102
RTVSPropertyOp24
 70
     1
102
RTVSPropertyOp25
 70
     1
102
RTVSPropertyOp26
 70
     1
102
RTVSPropertyOp27
 70
     1
102
RTVSPropertyOp28
 70
     1
102
RTVSPropertyOp29
 70
     1
102
RTVSPropertyOp30
 70
     1
102
RTVSPropertyOp31
 70
     1
102
RTVSPropertyOp32
 70
     1
  0
XRECORD
  5
2B9
102
{ACAD_REACTORS
330
2B8
102
}
330
2B8
100
AcDbXrecord
280
     1
102
RTVSPropertyOp0
 70
     1
102
RTVSPropertyOp1
 70
     1
102
RTVSPropertyOp2
 70
     1
102
RTVSPropertyOp3
 70
     1
102
RTVSPropertyOp4
 70
     1
102
RTVSPropertyOp5
 70
     1
102
RTVSPropertyOp6
 70
     1
102
RTVSPropertyOp7
 70
     1
102
RTVSPropertyOp8
 70
     1
102
RTVSPropertyOp9
 70
     1
102
RTVSPropertyOp10
 70
     1
102
RTVSPropertyOp11
 70
     1
102
RTVSPropertyOp12
 70
     1
102
RTVSPropertyOp13
 70
     1
102
RTVSPropertyOp14
 70
     1
102
RTVSPropertyOp15
 70
     1
102
RTVSPropertyOp16
 70
     1
102
RTVSPropertyOp17
 70
     1
102
RTVSPropertyOp18
 70
     1
102
RTVSPropertyOp19
 70
     1
102
RTVSPropertyOp20
 70
     1
102
RTVSPropertyOp21
 70
     1
102
RTVSPropertyOp22
 70
     1
102
RTVSPropertyOp23
 70
     1
102
RTVSPropertyOp24
 70
     1
102
RTVSPropertyOp25
 70
     1
102
RTVSPropertyOp26
 70
     1
102
RTVSPropertyOp27
 70
     1
102
RTVSPropertyOp28
 70
     1
102
RTVSPropertyOp29
 70
     1
102
RTVSPropertyOp30
 70
     1
102
RTVSPropertyOp31
 70
     1
102
RTVSPropertyOp32
 70
     1
  0
XRECORD
  5
2B7
102
{ACAD_REACTORS
330
2B6
102
}
330
2B6
100
AcDbXrecord
280
     1
102
RTVSPropertyOp0
 70
     1
102
RTVSPropertyOp1
 70
     1
102
RTVSPropertyOp2
 70
     1
102
RTVSPropertyOp3
 70
     1
102
RTVSPropertyOp4
 70
     1
102
RTVSPropertyOp5
 70
     1
102
RTVSPropertyOp6
 70
     1
102
RTVSPropertyOp7
 70
     1
102
RTVSPropertyOp8
 70
     1
102
RTVSPropertyOp9
 70
     1
102
RTVSPropertyOp10
 70
     1
102
RTVSPropertyOp11
 70
     1
102
RTVSPropertyOp12
 70
     1
102
RTVSPropertyOp13
 70
     1
102
RTVSPropertyOp14
 70
     1
102
RTVSPropertyOp15
 70
     1
102
RTVSPropertyOp16
 70
     1
102
RTVSPropertyOp17
 70
     1
102
RTVSPropertyOp18
 70
     1
102
RTVSPropertyOp19
 70
     1
102
RTVSPropertyOp20
 70
     1
102
RTVSPropertyOp21
 70
     1
102
RTVSPropertyOp22
 70
     1
102
RTVSPropertyOp23
 70
     1
102
RTVSPropertyOp24
 70
     1
102
RTVSPropertyOp25
 70
     1
102
RTVSPropertyOp26
 70
     1
102
RTVSPropertyOp27
 70
     1
102
RTVSPropertyOp28
 70
     1
102
RTVSPropertyOp29
 70
     1
102
RTVSPropertyOp30
 70
     1
102
RTVSPropertyOp31
 70
     1
102
RTVSPropertyOp32
 70
     1
  0
XRECORD
  5
2BB
102
{ACAD_REACTORS
330
2BA
102
}
330
2BA
100
AcDbXrecord
280
     1
102
RTVSPropertyOp0
 70
     1
102
RTVSPropertyOp1
 70
     1
102
RTVSPropertyOp2
 70
     1
102
RTVSPropertyOp3
 70
     1
102
RTVSPropertyOp4
 70
     1
102
RTVSPropertyOp5
 70
     1
102
RTVSPropertyOp6
 70
     1
102
RTVSPropertyOp7
 70
     1
102
RTVSPropertyOp8
 70
     1
102
RTVSPropertyOp9
 70
     1
102
RTVSPropertyOp10
 70
     1
102
RTVSPropertyOp11
 70
     1
102
RTVSPropertyOp12
 70
     1
102
RTVSPropertyOp13
 70
     1
102
RTVSPropertyOp14
 70
     1
102
RTVSPropertyOp15
 70
     1
102
RTVSPropertyOp16
 70
     1
102
RTVSPropertyOp17
 70
     1
102
RTVSPropertyOp18
 70
     1
102
RTVSPropertyOp19
 70
     1
102
RTVSPropertyOp20
 70
     1
102
RTVSPropertyOp21
 70
     1
102
RTVSPropertyOp22
 70
     1
102
RTVSPropertyOp23
 70
     1
102
RTVSPropertyOp24
 70
     1
102
RTVSPropertyOp25
 70
     1
102
RTVSPropertyOp26
 70
     1
102
RTVSPropertyOp27
 70
     1
102
RTVSPropertyOp28
 70
     1
102
RTVSPropertyOp29
 70
     1
102
RTVSPropertyOp30
 70
     1
102
RTVSPropertyOp31
 70
     1
102
RTVSPropertyOp32
 70
     1
  0
XRECORD
  5
2C3
102
{ACAD_REACTORS
330
2C2
102
}
330
2C2
100
AcDbXrecord
280
     1
102
RTVSPropertyOp0
 70
     1
102
RTVSPropertyOp1
 70
     1
102
RTVSPropertyOp2
 70
     1
102
RTVSPropertyOp3
 70
     1
102
RTVSPropertyOp4
 70
     1
102
RTVSPropertyOp5
 70
     1
102
RTVSPropertyOp6
 70
     1
102
RTVSPropertyOp7
 70
     1
102
RTVSPropertyOp8
 70
     1
102
RTVSPropertyOp9
 70
     1
102
RTVSPropertyOp10
 70
     1
102
RTVSPropertyOp11
 70
     1
102
RTVSPropertyOp12
 70
     1
102
RTVSPropertyOp13
 70
     1
102
RTVSPropertyOp14
 70
     1
102
RTVSPropertyOp15
 70
     1
102
RTVSPropertyOp16
 70
     1
102
RTVSPropertyOp17
 70
     1
102
RTVSPropertyOp18
 70
     1
102
RTVSPropertyOp19
 70
     1
102
RTVSPropertyOp20
 70
     1
102
RTVSPropertyOp21
 70
     1
102
RTVSPropertyOp22
 70
     1
102
RTVSPropertyOp23
 70
     1
102
RTVSPropertyOp24
 70
     1
102
RTVSPropertyOp25
 70
     1
102
RTVSPropertyOp26
 70
     1
102
RTVSPropertyOp27
 70
     1
102
RTVSPropertyOp28
 70
     1
102
RTVSPropertyOp29
 70
     1
102
RTVSPropertyOp30
 70
     1
102
RTVSPropertyOp31
 70
     1
102
RTVSPropertyOp32
 70
     1
  0
XRECORD
  5
2CB
102
{ACAD_REACTORS
330
2CA
102
}
330
2CA
100
AcDbXrecord
280
     1
102
RTVSPropertyOp0
 70
     1
102
RTVSPropertyOp1
 70
     1
102
RTVSPropertyOp2
 70
     1
102
RTVSPropertyOp3
 70
     1
102
RTVSPropertyOp4
 70
     1
102
RTVSPropertyOp5
 70
     1
102
RTVSPropertyOp6
 70
     1
102
RTVSPropertyOp7
 70
     1
102
RTVSPropertyOp8
 70
     1
102
RTVSPropertyOp9
 70
     1
102
RTVSPropertyOp10
 70
     1
102
RTVSPropertyOp11
 70
     1
102
RTVSPropertyOp12
 70
     1
102
RTVSPropertyOp13
 70
     1
102
RTVSPropertyOp14
 70
     1
102
RTVSPropertyOp15
 70
     1
102
RTVSPropertyOp16
 70
     1
102
RTVSPropertyOp17
 70
     1
102
RTVSPropertyOp18
 70
     1
102
RTVSPropertyOp19
 70
     1
102
RTVSPropertyOp20
 70
     1
102
RTVSPropertyOp21
 70
     1
102
RTVSPropertyOp22
 70
     1
102
RTVSPropertyOp23
 70
     1
102
RTVSPropertyOp24
 70
     1
102
RTVSPropertyOp25
 70
     1
102
RTVSPropertyOp26
 70
     1
102
RTVSPropertyOp27
 70
     1
102
RTVSPropertyOp28
 70
     1
102
RTVSPropertyOp29
 70
     1
102
RTVSPropertyOp30
 70
     1
102
RTVSPropertyOp31
 70
     1
102
RTVSPropertyOp32
 70
     1
  0
XRECORD
  5
2BF
102
{ACAD_REACTORS
330
2BE
102
}
330
2BE
100
AcDbXrecord
280
     1
102
RTVSPropertyOp0
 70
     1
102
RTVSPropertyOp1
 70
     1
102
RTVSPropertyOp2
 70
     1
102
RTVSPropertyOp3
 70
     1
102
RTVSPropertyOp4
 70
     1
102
RTVSPropertyOp5
 70
     1
102
RTVSPropertyOp6
 70
     1
102
RTVSPropertyOp7
 70
     1
102
RTVSPropertyOp8
 70
     1
102
RTVSPropertyOp9
 70
     1
102
RTVSPropertyOp10
 70
     1
102
RTVSPropertyOp11
 70
     1
102
RTVSPropertyOp12
 70
     1
102
RTVSPropertyOp13
 70
     1
102
RTVSPropertyOp14
 70
     1
102
RTVSPropertyOp15
 70
     1
102
RTVSPropertyOp16
 70
     1
102
RTVSPropertyOp17
 70
     1
102
RTVSPropertyOp18
 70
     1
102
RTVSPropertyOp19
 70
     1
102
RTVSPropertyOp20
 70
     1
102
RTVSPropertyOp21
 70
     1
102
RTVSPropertyOp22
 70
     1
102
RTVSPropertyOp23
 70
     1
102
RTVSPropertyOp24
 70
     1
102
RTVSPropertyOp25
 70
     1
102
RTVSPropertyOp26
 70
     1
102
RTVSPropertyOp27
 70
     1
102
RTVSPropertyOp28
 70
     1
102
RTVSPropertyOp29
 70
     1
102
RTVSPropertyOp30
 70
     1
102
RTVSPropertyOp31
 70
     1
102
RTVSPropertyOp32
 70
     1
  0
XRECORD
  5
2C1
102
{ACAD_REACTORS
330
2C0
102
}
330
2C0
100
AcDbXrecord
280
     1
102
RTVSPropertyOp0
 70
     1
102
RTVSPropertyOp1
 70
     1
102
RTVSPropertyOp2
 70
     1
102
RTVSPropertyOp3
 70
     1
102
RTVSPropertyOp4
 70
     1
102
RTVSPropertyOp5
 70
     1
102
RTVSPropertyOp6
 70
     1
102
RTVSPropertyOp7
 70
     1
102
RTVSPropertyOp8
 70
     1
102
RTVSPropertyOp9
 70
     1
102
RTVSPropertyOp10
 70
     1
102
RTVSPropertyOp11
 70
     1
102
RTVSPropertyOp12
 70
     1
102
RTVSPropertyOp13
 70
     1
102
RTVSPropertyOp14
 70
     1
102
RTVSPropertyOp15
 70
     1
102
RTVSPropertyOp16
 70
     1
102
RTVSPropertyOp17
 70
     1
102
RTVSPropertyOp18
 70
     1
102
RTVSPropertyOp19
 70
     1
102
RTVSPropertyOp20
 70
     1
102
RTVSPropertyOp21
 70
     1
102
RTVSPropertyOp22
 70
     1
102
RTVSPropertyOp23
 70
     1
102
RTVSPropertyOp24
 70
     1
102
RTVSPropertyOp25
 70
     1
102
RTVSPropertyOp26
 70
     1
102
RTVSPropertyOp27
 70
     1
102
RTVSPropertyOp28
 70
     1
102
RTVSPropertyOp29
 70
     1
102
RTVSPropertyOp30
 70
     1
102
RTVSPropertyOp31
 70
     1
102
RTVSPropertyOp32
 70
     1
  0
XRECORD
  5
2C9
102
{ACAD_REACTORS
330
2C8
102
}
330
2C8
100
AcDbXrecord
280
     1
102
RTVSPropertyOp0
 70
     1
102
RTVSPropertyOp1
 70
     1
102
RTVSPropertyOp2
 70
     1
102
RTVSPropertyOp3
 70
     1
102
RTVSPropertyOp4
 70
     1
102
RTVSPropertyOp5
 70
     1
102
RTVSPropertyOp6
 70
     1
102
RTVSPropertyOp7
 70
     1
102
RTVSPropertyOp8
 70
     1
102
RTVSPropertyOp9
 70
     1
102
RTVSPropertyOp10
 70
     1
102
RTVSPropertyOp11
 70
     1
102
RTVSPropertyOp12
 70
     1
102
RTVSPropertyOp13
 70
     1
102
RTVSPropertyOp14
 70
     1
102
RTVSPropertyOp15
 70
     1
102
RTVSPropertyOp16
 70
     1
102
RTVSPropertyOp17
 70
     1
102
RTVSPropertyOp18
 70
     1
102
RTVSPropertyOp19
 70
     1
102
RTVSPropertyOp20
 70
     1
102
RTVSPropertyOp21
 70
     1
102
RTVSPropertyOp22
 70
     1
102
RTVSPropertyOp23
 70
     1
102
RTVSPropertyOp24
 70
     1
102
RTVSPropertyOp25
 70
     1
102
RTVSPropertyOp26
 70
     1
102
RTVSPropertyOp27
 70
     1
102
RTVSPropertyOp28
 70
     1
102
RTVSPropertyOp29
 70
     1
102
RTVSPropertyOp30
 70
     1
102
RTVSPropertyOp31
 70
     1
102
RTVSPropertyOp32
 70
     1
  0
XRECORD
  5
2AD
102
{ACAD_REACTORS
330
2AC
102
}
330
2AC
100
AcDbXrecord
280
     1
102
RTVSPropertyOp0
 70
     1
102
RTVSPropertyOp1
 70
     1
102
RTVSPropertyOp2
 70
     1
102
RTVSPropertyOp3
 70
     1
102
RTVSPropertyOp4
 70
     1
102
RTVSPropertyOp5
 70
     1
102
RTVSPropertyOp6
 70
     1
102
RTVSPropertyOp7
 70
     1
102
RTVSPropertyOp8
 70
     1
102
RTVSPropertyOp9
 70
     1
102
RTVSPropertyOp10
 70
     1
102
RTVSPropertyOp11
 70
     1
102
RTVSPropertyOp12
 70
     1
102
RTVSPropertyOp13
 70
     1
102
RTVSPropertyOp14
 70
     1
102
RTVSPropertyOp15
 70
     1
102
RTVSPropertyOp16
 70
     1
102
RTVSPropertyOp17
 70
     1
102
RTVSPropertyOp18
 70
     1
102
RTVSPropertyOp19
 70
     1
102
RTVSPropertyOp20
 70
     1
102
RTVSPropertyOp21
 70
     1
102
RTVSPropertyOp22
 70
     1
102
RTVSPropertyOp23
 70
     1
102
RTVSPropertyOp24
 70
     1
102
RTVSPropertyOp25
 70
     1
102
RTVSPropertyOp26
 70
     1
102
RTVSPropertyOp27
 70
     1
102
RTVSPropertyOp28
 70
     1
102
RTVSPropertyOp29
 70
     1
102
RTVSPropertyOp30
 70
     1
102
RTVSPropertyOp31
 70
     1
102
RTVSPropertyOp32
 70
     1
  0
XRECORD
  5
2AF
102
{ACAD_REACTORS
330
2AE
102
}
330
2AE
100
AcDbXrecord
280
     1
102
RTVSPropertyOp0
 70
     1
102
RTVSPropertyOp1
 70
     1
102
RTVSPropertyOp2
 70
     1
102
RTVSPropertyOp3
 70
     1
102
RTVSPropertyOp4
 70
     1
102
RTVSPropertyOp5
 70
     1
102
RTVSPropertyOp6
 70
     1
102
RTVSPropertyOp7
 70
     1
102
RTVSPropertyOp8
 70
     1
102
RTVSPropertyOp9
 70
     1
102
RTVSPropertyOp10
 70
     1
102
RTVSPropertyOp11
 70
     1
102
RTVSPropertyOp12
 70
     1
102
RTVSPropertyOp13
 70
     1
102
RTVSPropertyOp14
 70
     1
102
RTVSPropertyOp15
 70
     1
102
RTVSPropertyOp16
 70
     1
102
RTVSPropertyOp17
 70
     1
102
RTVSPropertyOp18
 70
     1
102
RTVSPropertyOp19
 70
     1
102
RTVSPropertyOp20
 70
     1
102
RTVSPropertyOp21
 70
     1
102
RTVSPropertyOp22
 70
     1
102
RTVSPropertyOp23
 70
     1
102
RTVSPropertyOp24
 70
     1
102
RTVSPropertyOp25
 70
     1
102
RTVSPropertyOp26
 70
     1
102
RTVSPropertyOp27
 70
     1
102
RTVSPropertyOp28
 70
     1
102
RTVSPropertyOp29
 70
     1
102
RTVSPropertyOp30
 70
     1
102
RTVSPropertyOp31
 70
     1
102
RTVSPropertyOp32
 70
     1
  0
XRECORD
  5
2B1
102
{ACAD_REACTORS
330
2B0
102
}
330
2B0
100
AcDbXrecord
280
     1
102
RTVSPropertyOp0
 70
     1
102
RTVSPropertyOp1
 70
     1
102
RTVSPropertyOp2
 70
     1
102
RTVSPropertyOp3
 70
     1
102
RTVSPropertyOp4
 70
     1
102
RTVSPropertyOp5
 70
     1
102
RTVSPropertyOp6
 70
     1
102
RTVSPropertyOp7
 70
     1
102
RTVSPropertyOp8
 70
     1
102
RTVSPropertyOp9
 70
     1
102
RTVSPropertyOp10
 70
     1
102
RTVSPropertyOp11
 70
     1
102
RTVSPropertyOp12
 70
     1
102
RTVSPropertyOp13
 70
     1
102
RTVSPropertyOp14
 70
     1
102
RTVSPropertyOp15
 70
     1
102
RTVSPropertyOp16
 70
     1
102
RTVSPropertyOp17
 70
     1
102
RTVSPropertyOp18
 70
     1
102
RTVSPropertyOp19
 70
     1
102
RTVSPropertyOp20
 70
     1
102
RTVSPropertyOp21
 70
     1
102
RTVSPropertyOp22
 70
     1
102
RTVSPropertyOp23
 70
     1
102
RTVSPropertyOp24
 70
     1
102
RTVSPropertyOp25
 70
     1
102
RTVSPropertyOp26
 70
     1
102
RTVSPropertyOp27
 70
     1
102
RTVSPropertyOp28
 70
     1
102
RTVSPropertyOp29
 70
     1
102
RTVSPropertyOp30
 70
     1
102
RTVSPropertyOp31
 70
     1
102
RTVSPropertyOp32
 70
     1
  0
XRECORD
  5
2B3
102
{ACAD_REACTORS
330
2B2
102
}
330
2B2
100
AcDbXrecord
280
     1
102
RTVSPropertyOp0
 70
     1
102
RTVSPropertyOp1
 70
     1
102
RTVSPropertyOp2
 70
     1
102
RTVSPropertyOp3
 70
     1
102
RTVSPropertyOp4
 70
     1
102
RTVSPropertyOp5
 70
     1
102
RTVSPropertyOp6
 70
     1
102
RTVSPropertyOp7
 70
     1
102
RTVSPropertyOp8
 70
     1
102
RTVSPropertyOp9
 70
     1
102
RTVSPropertyOp10
 70
     1
102
RTVSPropertyOp11
 70
     1
102
RTVSPropertyOp12
 70
     1
102
RTVSPropertyOp13
 70
     1
102
RTVSPropertyOp14
 70
     1
102
RTVSPropertyOp15
 70
     1
102
RTVSPropertyOp16
 70
     1
102
RTVSPropertyOp17
 70
     1
102
RTVSPropertyOp18
 70
     1
102
RTVSPropertyOp19
 70
     1
102
RTVSPropertyOp20
 70
     1
102
RTVSPropertyOp21
 70
     1
102
RTVSPropertyOp22
 70
     1
102
RTVSPropertyOp23
 70
     1
102
RTVSPropertyOp24
 70
     1
102
RTVSPropertyOp25
 70
     1
102
RTVSPropertyOp26
 70
     1
102
RTVSPropertyOp27
 70
     1
102
RTVSPropertyOp28
 70
     1
102
RTVSPropertyOp29
 70
     1
102
RTVSPropertyOp30
 70
     1
102
RTVSPropertyOp31
 70
     1
102
RTVSPropertyOp32
 70
     1
  0
XRECORD
  5
2C7
102
{ACAD_REACTORS
330
2C6
102
}
330
2C6
100
AcDbXrecord
280
     1
102
RTVSPropertyOp0
 70
     1
102
RTVSPropertyOp1
 70
     1
102
RTVSPropertyOp2
 70
     1
102
RTVSPropertyOp3
 70
     1
102
RTVSPropertyOp4
 70
     1
102
RTVSPropertyOp5
 70
     1
102
RTVSPropertyOp6
 70
     1
102
RTVSPropertyOp7
 70
     1
102
RTVSPropertyOp8
 70
     1
102
RTVSPropertyOp9
 70
     1
102
RTVSPropertyOp10
 70
     1
102
RTVSPropertyOp11
 70
     1
102
RTVSPropertyOp12
 70
     1
102
RTVSPropertyOp13
 70
     1
102
RTVSPropertyOp14
 70
     1
102
RTVSPropertyOp15
 70
     1
102
RTVSPropertyOp16
 70
     1
102
RTVSPropertyOp17
 70
     1
102
RTVSPropertyOp18
 70
     1
102
RTVSPropertyOp19
 70
     1
102
RTVSPropertyOp20
 70
     1
102
RTVSPropertyOp21
 70
     1
102
RTVSPropertyOp22
 70
     1
102
RTVSPropertyOp23
 70
     1
102
RTVSPropertyOp24
 70
     1
102
RTVSPropertyOp25
 70
     1
102
RTVSPropertyOp26
 70
     1
102
RTVSPropertyOp27
 70
     1
102
RTVSPropertyOp28
 70
     1
102
RTVSPropertyOp29
 70
     1
102
RTVSPropertyOp30
 70
     1
102
RTVSPropertyOp31
 70
     1
102
RTVSPropertyOp32
 70
     1
  0
XRECORD
  5
2BD
102
{ACAD_REACTORS
330
2BC
102
}
330
2BC
100
AcDbXrecord
280
     1
102
RTVSPropertyOp0
 70
     1
102
RTVSPropertyOp1
 70
     1
102
RTVSPropertyOp2
 70
     1
102
RTVSPropertyOp3
 70
     1
102
RTVSPropertyOp4
 70
     1
102
RTVSPropertyOp5
 70
     1
102
RTVSPropertyOp6
 70
     1
102
RTVSPropertyOp7
 70
     1
102
RTVSPropertyOp8
 70
     1
102
RTVSPropertyOp9
 70
     1
102
RTVSPropertyOp10
 70
     1
102
RTVSPropertyOp11
 70
     1
102
RTVSPropertyOp12
 70
     1
102
RTVSPropertyOp13
 70
     1
102
RTVSPropertyOp14
 70
     1
102
RTVSPropertyOp15
 70
     1
102
RTVSPropertyOp16
 70
     1
102
RTVSPropertyOp17
 70
     1
102
RTVSPropertyOp18
 70
     1
102
RTVSPropertyOp19
 70
     1
102
RTVSPropertyOp20
 70
     1
102
RTVSPropertyOp21
 70
     1
102
RTVSPropertyOp22
 70
     1
102
RTVSPropertyOp23
 70
     1
102
RTVSPropertyOp24
 70
     1
102
RTVSPropertyOp25
 70
     1
102
RTVSPropertyOp26
 70
     1
102
RTVSPropertyOp27
 70
     1
102
RTVSPropertyOp28
 70
     1
102
RTVSPropertyOp29
 70
     1
102
RTVSPropertyOp30
 70
     1
102
RTVSPropertyOp31
 70
     1
102
RTVSPropertyOp32
 70
     1
  0
XRECORD
  5
2C5
102
{ACAD_REACTORS
330
2C4
102
}
330
2C4
100
AcDbXrecord
280
     1
102
RTVSPropertyOp0
 70
     1
102
RTVSPropertyOp1
 70
     1
102
RTVSPropertyOp2
 70
     1
102
RTVSPropertyOp3
 70
     1
102
RTVSPropertyOp4
 70
     1
102
RTVSPropertyOp5
 70
     1
102
RTVSPropertyOp6
 70
     1
102
RTVSPropertyOp7
 70
     1
102
RTVSPropertyOp8
 70
     1
102
RTVSPropertyOp9
 70
     1
102
RTVSPropertyOp10
 70
     1
102
RTVSPropertyOp11
 70
     1
102
RTVSPropertyOp12
 70
     1
102
RTVSPropertyOp13
 70
     1
102
RTVSPropertyOp14
 70
     1
102
RTVSPropertyOp15
 70
     1
102
RTVSPropertyOp16
 70
     1
102
RTVSPropertyOp17
 70
     1
102
RTVSPropertyOp18
 70
     1
102
RTVSPropertyOp19
 70
     1
102
RTVSPropertyOp20
 70
     1
102
RTVSPropertyOp21
 70
     1
102
RTVSPropertyOp22
 70
     1
102
RTVSPropertyOp23
 70
     1
102
RTVSPropertyOp24
 70
     1
102
RTVSPropertyOp25
 70
     1
102
RTVSPropertyOp26
 70
     1
102
RTVSPropertyOp27
 70
     1
102
RTVSPropertyOp28
 70
     1
102
RTVSPropertyOp29
 70
     1
102
RTVSPropertyOp30
 70
     1
102
RTVSPropertyOp31
 70
     1
102
RTVSPropertyOp32
 70
     1
  0
ENDSEC
  0
EOF
