  0
SECTION
  2
HEADER
  9
$ACADVER
  1
AC1021
  9
$ACADMAINTVER
 70
    25
  9
$DWGCODEPAGE
  3
UNDEFINED
  9
$INSBASE
 10
0.0
 20
0.0
 30
0.0
  9
$EXTMIN
 10
1.000000000000000E+20
 20
1.000000000000000E+20
 30
1.000000000000000E+20
  9
$EXTMAX
 10
-1.000000000000000E+20
 20
-1.000000000000000E+20
 30
-1.000000000000000E+20
  9
$LIMMIN
 10
0.0
 20
0.0
  9
$LIMMAX
 10
12.0
 20
9.0
  9
$ORTHOMODE
 70
     0
  9
$REGENMODE
 70
     1
  9
$FILLMODE
 70
     1
  9
$QTEXTMODE
 70
     0
  9
$MIRRTEXT
 70
     1
  9
$LTSCALE
 40
1.0
  9
$ATTMODE
 70
     1
  9
$TEXTSIZE
 40
0.2
  9
$TRACEWID
 40
0.05
  9
$TEXTSTYLE
  7
Standard
  9
$CLAYER
  8
0
  9
$CELTYPE
  6
ByLayer
  9
$CECOLOR
 62
   256
  9
$CELTSCALE
 40
1.0
  9
$DISPSILH
 70
     0
  9
$DIMSCALE
 40
1.0
  9
$DIMASZ
 40
0.18
  9
$DIMEXO
 40
0.0625
  9
$DIMDLI
 40
0.38
  9
$DIMRND
 40
0.0
  9
$DIMDLE
 40
0.0
  9
$DIMEXE
 40
0.18
  9
$DIMTP
 40
0.0
  9
$DIMTM
 40
0.0
  9
$DIMTXT
 40
0.18
  9
$DIMCEN
 40
0.09
  9
$DIMTSZ
 40
0.0
  9
$DIMTOL
 70
     0
  9
$DIMLIM
 70
     0
  9
$DIMTIH
 70
     1
  9
$DIMTOH
 70
     1
  9
$DIMSE1
 70
     0
  9
$DIMSE2
 70
     0
  9
$DIMTAD
 70
     0
  9
$DIMZIN
 70
     0
  9
$DIMBLK
  1

  9
$DIMASO
 70
     1
  9
$DIMSHO
 70
     1
  9
$DIMPOST
  1

  9
$DIMAPOST
  1

  9
$DIMALT
 70
     0
  9
$DIMALTD
 70
     2
  9
$DIMALTF
 40
25.4
  9
$DIMLFAC
 40
1.0
  9
$DIMTOFL
 70
     0
  9
$DIMTVP
 40
0.0
  9
$DIMTIX
 70
     0
  9
$DIMSOXD
 70
     0
  9
$DIMSAH
 70
     0
  9
$DIMBLK1
  1

  9
$DIMBLK2
  1

  9
$DIMSTYLE
  2
Standard
  9
$DIMCLRD
 70
     0
  9
$DIMCLRE
 70
     0
  9
$DIMCLRT
 70
     0
  9
$DIMTFAC
 40
1.0
  9
$DIMGAP
 40
0.09
  9
$DIMJUST
 70
     0
  9
$DIMSD1
 70
     0
  9
$DIMSD2
 70
     0
  9
$DIMTOLJ
 70
     1
  9
$DIMTZIN
 70
     0
  9
$DIMALTZ
 70
     0
  9
$DIMALTTZ
 70
     0
  9
$DIMUPT
 70
     0
  9
$DIMDEC
 70
     4
  9
$DIMTDEC
 70
     4
  9
$DIMALTU
 70
     2
  9
$DIMALTTD
 70
     2
  9
$DIMTXSTY
  7
Standard
  9
$DIMAUNIT
 70
     0
  9
$DIMADEC
 70
     0
  9
$DIMALTRND
 40
0.0
  9
$DIMAZIN
 70
     0
  9
$DIMDSEP
 70
    46
  9
$DIMATFIT
 70
     3
  9
$DIMFRAC
 70
     0
  9
$DIMLDRBLK
  1

  9
$DIMLUNIT
 70
     2
  9
$DIMLWD
 70
    -2
  9
$DIMLWE
 70
    -2
  9
$DIMTMOVE
 70
     0
  9
$DIMFXL
 40
1.0
  9
$DIMFXLON
 70
     0
  9
$DIMJOGANG
 40
0.7853981633974483
  9
$DIMTFILL
 70
     0
  9
$DIMTFILLCLR
 70
     0
  9
$DIMARCSYM
 70
     0
  9
$DIMLTYPE
  6

  9
$DIMLTEX1
  6

  9
$DIMLTEX2
  6

  9
$LUNITS
 70
     2
  9
$LUPREC
 70
     4
  9
$SKETCHINC
 40
0.1
  9
$FILLETRAD
 40
0.5
  9
$AUNITS
 70
     0
  9
$AUPREC
 70
     0
  9
$MENU
  1
.
  9
$ELEVATION
 40
0.0
  9
$PELEVATION
 40
0.0
  9
$THICKNESS
 40
0.0
  9
$LIMCHECK
 70
     0
  9
$CHAMFERA
 40
0.5
  9
$CHAMFERB
 40
0.5
  9
$CHAMFERC
 40
1.0
  9
$CHAMFERD
 40
0.0
  9
$SKPOLY
 70
     0
  9
$TDCREATE
 40
2459906.462650463
  9
$TDUCREATE
 40
2459906.420983796
  9
$TDUPDATE
 40
2459906.462650463
  9
$TDUUPDATE
 40
2459906.420983796
  9
$TDINDWG
 40
0.0000000116
  9
$TDUSRTIMER
 40
0.0000000116
  9
$USRTIMER
 70
     1
  9
$ANGBASE
 50
0.0
  9
$ANGDIR
 70
     0
  9
$PDMODE
 70
     0
  9
$PDSIZE
 40
0.0
  9
$PLINEWID
 40
0.0
  9
$SPLFRAME
 70
     0
  9
$SPLINETYPE
 70
     6
  9
$SPLINESEGS
 70
     8
  9
$HANDSEED
  5
160
  9
$SURFTAB1
 70
     6
  9
$SURFTAB2
 70
     6
  9
$SURFTYPE
 70
     6
  9
$SURFU
 70
     6
  9
$SURFV
 70
     6
  9
$UCSBASE
  2

  9
$UCSNAME
  2

  9
$UCSORG
 10
0.0
 20
0.0
 30
0.0
  9
$UCSXDIR
 10
1.0
 20
0.0
 30
0.0
  9
$UCSYDIR
 10
0.0
 20
1.0
 30
0.0
  9
$UCSORTHOREF
  2

  9
$UCSORTHOVIEW
 70
     0
  9
$UCSORGTOP
 10
0.0
 20
0.0
 30
0.0
  9
$UCSORGBOTTOM
 10
0.0
 20
0.0
 30
0.0
  9
$UCSORGLEFT
 10
0.0
 20
0.0
 30
0.0
  9
$UCSORGRIGHT
 10
0.0
 20
0.0
 30
0.0
  9
$UCSORGFRONT
 10
0.0
 20
0.0
 30
0.0
  9
$UCSORGBACK
 10
0.0
 20
0.0
 30
0.0
  9
$PUCSBASE
  2

  9
$PUCSNAME
  2

  9
$PUCSORG
 10
0.0
 20
0.0
 30
0.0
  9
$PUCSXDIR
 10
1.0
 20
0.0
 30
0.0
  9
$PUCSYDIR
 10
0.0
 20
1.0
 30
0.0
  9
$PUCSORTHOREF
  2

  9
$PUCSORTHOVIEW
 70
     0
  9
$PUCSORGTOP
 10
0.0
 20
0.0
 30
0.0
  9
$PUCSORGBOTTOM
 10
0.0
 20
0.0
 30
0.0
  9
$PUCSORGLEFT
 10
0.0
 20
0.0
 30
0.0
  9
$PUCSORGRIGHT
 10
0.0
 20
0.0
 30
0.0
  9
$PUCSORGFRONT
 10
0.0
 20
0.0
 30
0.0
  9
$PUCSORGBACK
 10
0.0
 20
0.0
 30
0.0
  9
$USERI1
 70
     0
  9
$USERI2
 70
     0
  9
$USERI3
 70
     0
  9
$USERI4
 70
     0
  9
$USERI5
 70
     0
  9
$USERR1
 40
0.0
  9
$USERR2
 40
0.0
  9
$USERR3
 40
0.0
  9
$USERR4
 40
0.0
  9
$USERR5
 40
0.0
  9
$WORLDVIEW
 70
     1
  9
$SHADEDGE
 70
     3
  9
$SHADEDIF
 70
    70
  9
$TILEMODE
 70
     1
  9
$MAXACTVP
 70
    64
  9
$PINSBASE
 10
0.0
 20
0.0
 30
0.0
  9
$PLIMCHECK
 70
     0
  9
$PEXTMIN
 10
1.000000000000000E+20
 20
1.000000000000000E+20
 30
1.000000000000000E+20
  9
$PEXTMAX
 10
-1.000000000000000E+20
 20
-1.000000000000000E+20
 30
-1.000000000000000E+20
  9
$PLIMMIN
 10
0.0
 20
0.0
  9
$PLIMMAX
 10
12.0
 20
9.0
  9
$UNITMODE
 70
     0
  9
$VISRETAIN
 70
     1
  9
$PLINEGEN
 70
     0
  9
$PSLTSCALE
 70
     1
  9
$TREEDEPTH
 70
  3020
  9
$CMLSTYLE
  2
Standard
  9
$CMLJUST
 70
     0
  9
$CMLSCALE
 40
1.0
  9
$PROXYGRAPHICS
 70
     1
  9
$MEASUREMENT
 70
     0
  9
$CELWEIGHT
370
    -1
  9
$ENDCAPS
280
     0
  9
$JOINSTYLE
280
     0
  9
$LWDISPLAY
290
     1
  9
$INSUNITS
 70
     1
  9
$HYPERLINKBASE
  1

  9
$STYLESHEET
  1

  9
$XEDIT
290
     1
  9
$CEPSNTYPE
380
     0
  9
$PSTYLEMODE
290
     1
  9
$FINGERPRINTGUID
  2
{CB925459-242A-590B-D5CB-56129BEAD179}
  9
$VERSIONGUID
  2
{FAEB1C32-E019-11D5-929B-00C0DF256EC4}
  9
$EXTNAMES
290
     1
  9
$PSVPSCALE
 40
0.0
  9
$OLESTARTUP
290
     0
  9
$SORTENTS
280
   127
  9
$INDEXCTL
280
     0
  9
$HIDETEXT
280
     1
  9
$XCLIPFRAME
290
     0
  9
$HALOGAP
280
     0
  9
$OBSCOLOR
 70
   257
  9
$OBSLTYPE
280
     0
  9
$INTERSECTIONDISPLAY
280
     0
  9
$INTERSECTIONCOLOR
 70
   257
  9
$DIMASSOC
280
     2
  9
$PROJECTNAME
  1

  9
$CAMERADISPLAY
290
     0
  9
$LENSLENGTH
 40
50.0
  9
$CAMERAHEIGHT
 40
0.0
  9
$STEPSPERSEC
 40
2.0
  9
$STEPSIZE
 40
6.0
  9
$3DDWFPREC
 40
2.0
  9
$PSOLWIDTH
 40
0.25
  9
$PSOLHEIGHT
 40
4.0
  9
$LOFTANG1
 40
1.570796326794897
  9
$LOFTANG2
 40
1.570796326794897
  9
$LOFTMAG1
 40
0.0
  9
$LOFTMAG2
 40
0.0
  9
$LOFTPARAM
 70
     7
  9
$LOFTNORMALS
280
     1
  9
$LATITUDE
 40
37.795
  9
$LONGITUDE
 40
-122.394
  9
$NORTHDIRECTION
 40
0.0
  9
$TIMEZONE
 70
 -8000
  9
$LIGHTGLYPHDISPLAY
280
     1
  9
$TILEMODELIGHTSYNCH
280
     1
  9
$CMATERIAL
347
3C
  9
$SOLIDHIST
280
     1
  9
$SHOWHIST
280
     1
  9
$DWFFRAME
280
     2
  9
$DGNFRAME
280
     2
  9
$REALWORLDSCALE
290
     1
  9
$INTERFERECOLOR
 62
   256
  9
$CSHADOW
280
     0
  9
$SHADOWPLANELOCATION
 40
0.0
  0
ENDSEC
  0
SECTION
  2
CLASSES
  0
CLASS
  1
ACDBDICTIONARYWDFLT
  2
AcDbDictionaryWithDefault
  3
ObjectDBX Classes
 90
        0
 91
        4
280
     0
281
     0
  0
CLASS
  1
VISUALSTYLE
  2
AcDbVisualStyle
  3
ObjectDBX Classes
 90
     4095
 91
        4
280
     0
281
     0
  0
CLASS
  1
MATERIAL
  2
AcDbMaterial
  3
ObjectDBX Classes
 90
     1153
 91
        4
280
     0
281
     0
  0
CLASS
  1
SUN
  2
AcDbSun
  3
SCENEOE
 90
     1024
 91
        4
280
     0
281
     0
  0
ENDSEC
  0
SECTION
  2
TABLES
  0
TABLE
  2
VPORT
  5
8
330
0
100
AcDbSymbolTable
 70
     1
  0
VPORT
  5
29
330
8
100
AcDbSymbolTableRecord
100
AcDbViewportTableRecord
  2
*Active
 70
     0
 10
0.0
 20
0.0
 11
1.0
 21
1.0
 12
0.0
 22
0.0
 13
0.0
 23
0.0
 14
0.5
 24
0.5
 15
0.5
 25
0.5
 16
0.0
 26
0.0
 36
1.0
 17
105.0007777515277
 27
148.5000416295417
 37
0.0
 40
297.0000832590835
 41
0.7070757462376325
 42
50.0
 43
0.0
 44
0.0
 50
0.0
 51
0.0
 71
     0
 72
   100
 73
     1
 74
     3
 75
     0
 76
     0
 77
     0
 78
     0
281
     0
 65
     1
110
0.0
120
0.0
130
0.0
111
1.0
121
0.0
131
0.0
112
0.0
122
1.0
132
0.0
 79
     0
146
0.0
 60
     3
 61
     5
292
     1
282
     1
141
0.0
142
0.0
 63
   250
361
3F
  0
ENDTAB
  0
TABLE
  2
LTYPE
  5
5
330
0
100
AcDbSymbolTable
 70
     5
  0
LTYPE
  5
14
330
5
100
AcDbSymbolTableRecord
100
AcDbLinetypeTableRecord
  2
ByBlock
 70
     0
  3

 72
    65
 73
     0
 40
0.0
  0
LTYPE
  5
15
330
5
100
AcDbSymbolTableRecord
100
AcDbLinetypeTableRecord
  2
ByLayer
 70
     0
  3

 72
    65
 73
     0
 40
0.0
  0
LTYPE
  5
16
330
5
100
AcDbSymbolTableRecord
100
AcDbLinetypeTableRecord
  2
Continuous
 70
     0
  3
Solid line
 72
    65
 73
     0
 40
0.0
  0
LTYPE
  5
109
330
5
100
AcDbSymbolTableRecord
100
AcDbLinetypeTableRecord
  2
AI-Linetype-1
 70
     0
  3
Adobe Illustrator Linetype No. 1
 72
    65
 73
     2
 40
7.148195651704501
 49
3.574097825852251
 74
     0
 49
-3.574097825852251
 74
     0
  0
LTYPE
  5
112
330
5
100
AcDbSymbolTableRecord
100
AcDbLinetypeTableRecord
  2
AI-Linetype-2
 70
     0
  3
Adobe Illustrator Linetype No. 2
 72
    65
 73
     4
 40
32.16703990291049
 49
21.44474642535374
 74
     0
 49
-3.574097825852251
 74
     0
 49
3.574097825852251
 74
     0
 49
-3.574097825852251
 74
     0
  0
LTYPE
  5
12B
330
5
100
AcDbSymbolTableRecord
100
AcDbLinetypeTableRecord
  2
AI-Linetype-3
 70
     0
  3
Adobe Illustrator Linetype No. 3
 72
    65
 73
     2
 40
7.14818152143005
 49
3.574090760715025
 74
     0
 49
-3.574090760715025
 74
     0
  0
LTYPE
  5
134
330
5
100
AcDbSymbolTableRecord
100
AcDbLinetypeTableRecord
  2
AI-Linetype-4
 70
     0
  3
Adobe Illustrator Linetype No. 4
 72
    65
 73
     4
 40
32.16697564380524
 49
21.44470336166017
 74
     0
 49
-3.574090760715025
 74
     0
 49
3.574090760715025
 74
     0
 49
-3.574090760715025
 74
     0
  0
ENDTAB
  0
TABLE
  2
LAYER
  5
2
330
0
100
AcDbSymbolTable
 70
     1
  0
LAYER
  5
10
330
2
100
AcDbSymbolTableRecord
100
AcDbLayerTableRecord
  2
0
 70
     0
 62
     7
  6
Continuous
370
    -3
390
F
347
3E
  0
ENDTAB
  0
TABLE
  2
STYLE
  5
3
330
0
100
AcDbSymbolTable
 70
     1
  0
STYLE
  5
11
330
3
100
AcDbSymbolTableRecord
100
AcDbTextStyleTableRecord
  2
Standard
 70
     0
 40
0.0
 41
1.0
 50
0.0
 71
     0
 42
0.2
  3
txt
  4

  0
ENDTAB
  0
TABLE
  2
VIEW
  5
6
330
0
100
AcDbSymbolTable
 70
     0
  0
ENDTAB
  0
TABLE
  2
UCS
  5
7
330
0
100
AcDbSymbolTable
 70
     0
  0
ENDTAB
  0
TABLE
  2
APPID
  5
9
330
0
100
AcDbSymbolTable
 70
     1
  0
APPID
  5
12
330
9
100
AcDbSymbolTableRecord
100
AcDbRegAppTableRecord
  2
ACAD
 70
     0
  0
ENDTAB
  0
TABLE
  2
DIMSTYLE
  5
A
330
0
100
AcDbSymbolTable
 70
     1
100
AcDbDimStyleTable
  0
DIMSTYLE
105
27
330
A
100
AcDbSymbolTableRecord
100
AcDbDimStyleTableRecord
  2
Standard
 70
     0
178
     0
340
11
  0
ENDTAB
  0
TABLE
  2
BLOCK_RECORD
  5
1
330
0
100
AcDbSymbolTable
 70
    42
  0
BLOCK_RECORD
  5
1F
330
1
100
AcDbSymbolTableRecord
100
AcDbBlockTableRecord
  2
*Model_Space
340
22
 70
     0
280
     1
281
     0
  0
BLOCK_RECORD
  5
1B
330
1
100
AcDbSymbolTableRecord
100
AcDbBlockTableRecord
  2
*Paper_Space
340
1E
 70
     0
280
     1
281
     0
  0
BLOCK_RECORD
  5
23
330
1
100
AcDbSymbolTableRecord
100
AcDbBlockTableRecord
  2
*Paper_Space0
340
26
 70
     0
280
     1
281
     0
  0
BLOCK_RECORD
  5
40
330
1
100
AcDbSymbolTableRecord
100
AcDbBlockTableRecord
  2
block 2
340
0
102
{BLKREFS
331
41
102
}
 70
     0
280
     1
281
     0
  0
BLOCK_RECORD
  5
45
330
1
100
AcDbSymbolTableRecord
100
AcDbBlockTableRecord
  2
block 3
340
0
102
{BLKREFS
331
46
102
}
 70
     0
280
     1
281
     0
  0
BLOCK_RECORD
  5
4A
330
1
100
AcDbSymbolTableRecord
100
AcDbBlockTableRecord
  2
block 4
340
0
102
{BLKREFS
331
4B
102
}
 70
     0
280
     1
281
     0
  0
BLOCK_RECORD
  5
4F
330
1
100
AcDbSymbolTableRecord
100
AcDbBlockTableRecord
  2
block 5
340
0
102
{BLKREFS
331
50
102
}
 70
     0
280
     1
281
     0
  0
BLOCK_RECORD
  5
54
330
1
100
AcDbSymbolTableRecord
100
AcDbBlockTableRecord
  2
block 6
340
0
102
{BLKREFS
331
55
102
}
 70
     0
280
     1
281
     0
  0
BLOCK_RECORD
  5
59
330
1
100
AcDbSymbolTableRecord
100
AcDbBlockTableRecord
  2
block 7
340
0
102
{BLKREFS
331
5A
102
}
 70
     0
280
     1
281
     0
  0
BLOCK_RECORD
  5
61
330
1
100
AcDbSymbolTableRecord
100
AcDbBlockTableRecord
  2
block 8
340
0
102
{BLKREFS
331
62
102
}
 70
     0
280
     1
281
     0
  0
BLOCK_RECORD
  5
66
330
1
100
AcDbSymbolTableRecord
100
AcDbBlockTableRecord
  2
block 9
340
0
102
{BLKREFS
331
67
102
}
 70
     0
280
     1
281
     0
  0
BLOCK_RECORD
  5
6E
330
1
100
AcDbSymbolTableRecord
100
AcDbBlockTableRecord
  2
block 10
340
0
102
{BLKREFS
331
6F
102
}
 70
     0
280
     1
281
     0
  0
BLOCK_RECORD
  5
73
330
1
100
AcDbSymbolTableRecord
100
AcDbBlockTableRecord
  2
block 11
340
0
102
{BLKREFS
331
74
102
}
 70
     0
280
     1
281
     0
  0
BLOCK_RECORD
  5
7B
330
1
100
AcDbSymbolTableRecord
100
AcDbBlockTableRecord
  2
block 12
340
0
102
{BLKREFS
331
7C
102
}
 70
     0
280
     1
281
     0
  0
BLOCK_RECORD
  5
80
330
1
100
AcDbSymbolTableRecord
100
AcDbBlockTableRecord
  2
block 13
340
0
102
{BLKREFS
331
81
102
}
 70
     0
280
     1
281
     0
  0
BLOCK_RECORD
  5
88
330
1
100
AcDbSymbolTableRecord
100
AcDbBlockTableRecord
  2
block 14
340
0
102
{BLKREFS
331
89
102
}
 70
     0
280
     1
281
     0
  0
BLOCK_RECORD
  5
8D
330
1
100
AcDbSymbolTableRecord
100
AcDbBlockTableRecord
  2
block 15
340
0
102
{BLKREFS
331
8E
102
}
 70
     0
280
     1
281
     0
  0
BLOCK_RECORD
  5
92
330
1
100
AcDbSymbolTableRecord
100
AcDbBlockTableRecord
  2
block 16
340
0
102
{BLKREFS
331
93
102
}
 70
     0
280
     1
281
     0
  0
BLOCK_RECORD
  5
97
330
1
100
AcDbSymbolTableRecord
100
AcDbBlockTableRecord
  2
block 17
340
0
102
{BLKREFS
331
98
102
}
 70
     0
280
     1
281
     0
  0
BLOCK_RECORD
  5
9C
330
1
100
AcDbSymbolTableRecord
100
AcDbBlockTableRecord
  2
block 18
340
0
102
{BLKREFS
331
9D
102
}
 70
     0
280
     1
281
     0
  0
BLOCK_RECORD
  5
A1
330
1
100
AcDbSymbolTableRecord
100
AcDbBlockTableRecord
  2
block 19
340
0
102
{BLKREFS
331
A2
102
}
 70
     0
280
     1
281
     0
  0
BLOCK_RECORD
  5
A6
330
1
100
AcDbSymbolTableRecord
100
AcDbBlockTableRecord
  2
block 20
340
0
102
{BLKREFS
331
A7
102
}
 70
     0
280
     1
281
     0
  0
BLOCK_RECORD
  5
AB
330
1
100
AcDbSymbolTableRecord
100
AcDbBlockTableRecord
  2
block 21
340
0
102
{BLKREFS
331
AC
102
}
 70
     0
280
     1
281
     0
  0
BLOCK_RECORD
  5
B0
330
1
100
AcDbSymbolTableRecord
100
AcDbBlockTableRecord
  2
block 22
340
0
102
{BLKREFS
331
B1
102
}
 70
     0
280
     1
281
     0
  0
BLOCK_RECORD
  5
B5
330
1
100
AcDbSymbolTableRecord
100
AcDbBlockTableRecord
  2
block 23
340
0
102
{BLKREFS
331
B6
102
}
 70
     0
280
     1
281
     0
  0
BLOCK_RECORD
  5
BA
330
1
100
AcDbSymbolTableRecord
100
AcDbBlockTableRecord
  2
block 24
340
0
102
{BLKREFS
331
BB
102
}
 70
     0
280
     1
281
     0
  0
BLOCK_RECORD
  5
BF
330
1
100
AcDbSymbolTableRecord
100
AcDbBlockTableRecord
  2
block 25
340
0
102
{BLKREFS
331
C0
102
}
 70
     0
280
     1
281
     0
  0
BLOCK_RECORD
  5
C4
330
1
100
AcDbSymbolTableRecord
100
AcDbBlockTableRecord
  2
block 26
340
0
102
{BLKREFS
331
C5
102
}
 70
     0
280
     1
281
     0
  0
BLOCK_RECORD
  5
C9
330
1
100
AcDbSymbolTableRecord
100
AcDbBlockTableRecord
  2
block 27
340
0
102
{BLKREFS
331
CA
102
}
 70
     0
280
     1
281
     0
  0
BLOCK_RECORD
  5
D1
330
1
100
AcDbSymbolTableRecord
100
AcDbBlockTableRecord
  2
block 28
340
0
102
{BLKREFS
331
D2
102
}
 70
     0
280
     1
281
     0
  0
BLOCK_RECORD
  5
D6
330
1
100
AcDbSymbolTableRecord
100
AcDbBlockTableRecord
  2
block 29
340
0
102
{BLKREFS
331
D7
102
}
 70
     0
280
     1
281
     0
  0
BLOCK_RECORD
  5
DE
330
1
100
AcDbSymbolTableRecord
100
AcDbBlockTableRecord
  2
block 30
340
0
102
{BLKREFS
331
DF
102
}
 70
     0
280
     1
281
     0
  0
BLOCK_RECORD
  5
E6
330
1
100
AcDbSymbolTableRecord
100
AcDbBlockTableRecord
  2
block 31
340
0
102
{BLKREFS
331
E7
102
}
 70
     0
280
     1
281
     0
  0
BLOCK_RECORD
  5
EB
330
1
100
AcDbSymbolTableRecord
100
AcDbBlockTableRecord
  2
block 32
340
0
102
{BLKREFS
331
EC
102
}
 70
     0
280
     1
281
     0
  0
BLOCK_RECORD
  5
F0
330
1
100
AcDbSymbolTableRecord
100
AcDbBlockTableRecord
  2
block 33
340
0
102
{BLKREFS
331
F1
102
}
 70
     0
280
     1
281
     0
  0
BLOCK_RECORD
  5
F5
330
1
100
AcDbSymbolTableRecord
100
AcDbBlockTableRecord
  2
block 34
340
0
102
{BLKREFS
331
F6
102
}
 70
     0
280
     1
281
     0
  0
BLOCK_RECORD
  5
FA
330
1
100
AcDbSymbolTableRecord
100
AcDbBlockTableRecord
  2
block 35
340
0
102
{BLKREFS
331
FB
102
}
 70
     0
280
     1
281
     0
  0
BLOCK_RECORD
  5
102
330
1
100
AcDbSymbolTableRecord
100
AcDbBlockTableRecord
  2
block 36
340
0
102
{BLKREFS
331
103
102
}
 70
     0
280
     1
281
     0
  0
BLOCK_RECORD
  5
10B
330
1
100
AcDbSymbolTableRecord
100
AcDbBlockTableRecord
  2
block 37
340
0
102
{BLKREFS
331
10C
102
}
 70
     0
280
     1
281
     0
  0
BLOCK_RECORD
  5
114
330
1
100
AcDbSymbolTableRecord
100
AcDbBlockTableRecord
  2
block 38
340
0
102
{BLKREFS
331
115
102
}
 70
     0
280
     1
281
     0
  0
BLOCK_RECORD
  5
11C
330
1
100
AcDbSymbolTableRecord
100
AcDbBlockTableRecord
  2
block 39
340
0
102
{BLKREFS
331
11D
102
}
 70
     0
280
     1
281
     0
  0
BLOCK_RECORD
  5
124
330
1
100
AcDbSymbolTableRecord
100
AcDbBlockTableRecord
  2
block 40
340
0
102
{BLKREFS
331
125
102
}
 70
     0
280
     1
281
     0
  0
BLOCK_RECORD
  5
12D
330
1
100
AcDbSymbolTableRecord
100
AcDbBlockTableRecord
  2
block 41
340
0
102
{BLKREFS
331
12E
102
}
 70
     0
280
     1
281
     0
  0
BLOCK_RECORD
  5
136
330
1
100
AcDbSymbolTableRecord
100
AcDbBlockTableRecord
  2
block 42
340
0
102
{BLKREFS
331
137
102
}
 70
     0
280
     1
281
     0
  0
ENDTAB
  0
ENDSEC
  0
SECTION
  2
BLOCKS
  0
BLOCK
  5
20
330
1F
100
AcDbEntity
  8
0
100
AcDbBlockBegin
  2
*Model_Space
 70
     0
 10
0.0
 20
0.0
 30
0.0
  3
*Model_Space
  1

  0
ENDBLK
  5
21
330
1F
100
AcDbEntity
  8
0
100
AcDbBlockEnd
  0
BLOCK
  5
1C
330
1B
100
AcDbEntity
 67
     1
  8
0
100
AcDbBlockBegin
  2
*Paper_Space
 70
     0
 10
0.0
 20
0.0
 30
0.0
  3
*Paper_Space
  1

  0
ENDBLK
  5
1D
330
1B
100
AcDbEntity
 67
     1
  8
0
100
AcDbBlockEnd
  0
BLOCK
  5
24
330
23
100
AcDbEntity
  8
0
100
AcDbBlockBegin
  2
*Paper_Space0
 70
     0
 10
0.0
 20
0.0
 30
0.0
  3
*Paper_Space0
  1

  0
ENDBLK
  5
25
330
23
100
AcDbEntity
  8
0
100
AcDbBlockEnd
  0
BLOCK
  5
42
330
40
100
AcDbEntity
  8
0
100
AcDbBlockBegin
  2
block 2
 70
     0
 10
0.0
 20
0.0
 30
0.0
  3
block 2
  1

  0
SPLINE
  5
44
330
40
100
AcDbEntity
  8
0
 62
   250
370
    25
100
AcDbSpline
210
0.0
220
0.0
230
1.0
 70
     8
 71
     3
 72
    35
 73
    31
 74
     0
 42
0.0000000001
 43
0.0000000001
 12
1.0
 22
0.0
 32
0.0
 13
1.0
 23
0.0
 33
0.0
 40
0.0
 40
0.0
 40
0.0
 40
0.0
 40
1.0
 40
1.0
 40
1.0
 40
2.0
 40
2.0
 40
2.0
 40
3.0
 40
3.0
 40
3.0
 40
4.0
 40
4.0
 40
4.0
 40
5.0
 40
5.0
 40
5.0
 40
6.0
 40
6.0
 40
6.0
 40
7.0
 40
7.0
 40
7.0
 40
8.0
 40
8.0
 40
8.0
 40
9.0
 40
9.0
 40
9.0
 40
10.0
 40
10.0
 40
10.0
 40
10.0
 10
131.1277825956911
 20
470.9241011670819
 30
0.0
 10
131.12901731793
 20
470.8152339431927
 30
0.0
 10
131.0711970392672
 20
470.7229119973272
 30
0.0
 10
131.0009589826364
 20
470.6446306072327
 30
0.0
 10
130.8961839810165
 20
470.5278964387674
 30
0.0
 10
130.7637864789892
 20
470.4424536596773
 30
0.0
 10
130.6265206435423
 20
470.3674883807486
 30
0.0
 10
130.4280831404925
 20
470.2591150457498
 30
0.0
 10
130.2194503594964
 20
470.1726844888654
 30
0.0
 10
130.0073603562405
 20
470.0959200432434
 30
0.0
 10
129.7258436852399
 20
469.9940730972301
 30
0.0
 10
129.4382239586073
 20
469.9093358737135
 30
0.0
 10
129.1485933985931
 20
469.8328889280866
 30
0.0
 10
128.7873489485961
 20
469.7375330932896
 30
0.0
 10
128.4230000541042
 20
469.6550889253561
 30
0.0
 10
128.0570283818143
 20
469.5803000353156
 30
0.0
 10
127.6213830973353
 20
469.4912589228338
 30
0.0
 10
127.1835153128231
 20
469.4130833660841
 30
0.0
 10
126.7446244727488
 20
469.3412930871937
 30
0.0
 10
125.6718272340268
 20
469.165856695616
 30
0.0
 10
124.5932091618864
 20
469.0285203046128
 30
0.0
 10
123.5125802563908
 20
468.9106572472405
 30
0.0
 10
122.2013757917821
 20
468.7676411339386
 30
0.0
 10
120.8872432715738
 20
468.6533058543947
 30
0.0
 10
119.5717701957947
 20
468.5573502973625
 30
0.0
 10
118.0750751727875
 20
468.4482008512467
 30
0.0
 10
116.5767220941886
 20
468.362828627713
 30
0.0
 10
115.0775929044729
 20
468.2948130711154
 30
0.0
 10
111.7633161868451
 20
468.1444591799046
 30
0.0
 10
108.4453705802951
 20
468.0788072344528
 30
0.0
 10
105.1277777514958
 20
468.0758791788531
 30
0.0
  0
ENDBLK
  5
43
330
40
100
AcDbEntity
  8
0
100
AcDbBlockEnd
  0
BLOCK
  5
47
330
45
100
AcDbEntity
  8
0
100
AcDbBlockBegin
  2
block 3
 70
     0
 10
0.0
 20
0.0
 30
0.0
  3
block 3
  1

  0
SPLINE
  5
49
330
45
100
AcDbEntity
  8
0
 62
   250
370
    25
100
AcDbSpline
210
0.0
220
0.0
230
1.0
 70
     8
 71
     3
 72
    38
 73
    34
 74
     0
 42
0.0000000001
 43
0.0000000001
 12
1.0
 22
0.0
 32
0.0
 13
1.0
 23
0.0
 33
0.0
 40
0.0
 40
0.0
 40
0.0
 40
0.0
 40
1.0
 40
1.0
 40
1.0
 40
2.0
 40
2.0
 40
2.0
 40
3.0
 40
3.0
 40
3.0
 40
4.0
 40
4.0
 40
4.0
 40
5.0
 40
5.0
 40
5.0
 40
6.0
 40
6.0
 40
6.0
 40
7.0
 40
7.0
 40
7.0
 40
8.0
 40
8.0
 40
8.0
 40
9.0
 40
9.0
 40
9.0
 40
10.0
 40
10.0
 40
10.0
 40
11.0
 40
11.0
 40
11.0
 40
11.0
 10
105.1277777514958
 20
468.0758791788531
 30
0.0
 10
103.4369491143914
 20
468.0766200121952
 30
0.0
 10
101.746120477288
 20
468.0952114013708
 30
0.0
 10
100.055715173511
 20
468.1323589019388
 30
0.0
 10
98.42923320406867
 20
468.1680600136048
 30
0.0
 10
96.80313929017203
 20
468.2209766810807
 30
0.0
 10
95.1779625985185
 20
468.2946366822079
 30
0.0
 10
93.67883340880206
 20
468.3626169610363
 30
0.0
 10
92.18048033020325
 20
468.4482714067966
 30
0.0
 10
90.68378530719727
 20
468.5574561307008
 30
0.0
 10
89.36834750918676
 20
468.6534116877394
 30
0.0
 10
88.0541797112093
 20
468.7676058561636
 30
0.0
 10
86.74297524660123
 20
468.9105866916836
 30
0.0
 10
85.66234634110435
 20
469.0284497490558
 30
0.0
 10
84.58372826896459
 20
469.1659272511659
 30
0.0
 10
83.51093103024323
 20
469.3413283649815
 30
0.0
 10
83.07204019016824
 20
469.413118643859
 30
0.0
 10
82.63417240565607
 20
469.4912236450518
 30
0.0
 10
82.19852712117704
 20
469.58026475754
 30
0.0
 10
81.83255544888716
 20
469.6550536475747
 30
0.0
 10
81.46820655439525
 20
469.7375683710716
 30
0.0
 10
81.10696210439822
 20
469.8329242058686
 30
0.0
 10
80.81733154438342
 20
469.9093711514885
 30
0.0
 10
80.5297118177514
 20
469.9940730972301
 30
0.0
 10
80.24819514675154
 20
470.0959200432434
 30
0.0
 10
80.03610514349562
 20
470.1726492110905
 30
0.0
 10
79.82747236249885
 20
470.2591150457498
 30
0.0
 10
79.62903485944841
 20
470.3674883807486
 30
0.0
 10
79.49176902400215
 20
470.4424536596773
 30
0.0
 10
79.35937152197486
 20
470.5278964387674
 30
0.0
 10
79.2545965203543
 20
470.6446306072327
 30
0.0
 10
79.18435846372483
 20
470.7229119973272
 30
0.0
 10
79.12653818506072
 20
470.8152339431927
 30
0.0
 10
79.12777290730021
 20
470.9241011670819
 30
0.0
  0
ENDBLK
  5
48
330
45
100
AcDbEntity
  8
0
100
AcDbBlockEnd
  0
BLOCK
  5
4C
330
4A
100
AcDbEntity
  8
0
100
AcDbBlockBegin
  2
block 4
 70
     0
 10
0.0
 20
0.0
 30
0.0
  3
block 4
  1

  0
SPLINE
  5
4E
330
4A
100
AcDbEntity
  8
0
 62
   250
370
    25
100
AcDbSpline
210
0.0
220
0.0
230
1.0
 70
     8
 71
     3
 72
    35
 73
    31
 74
     0
 42
0.0000000001
 43
0.0000000001
 12
1.0
 22
0.0
 32
0.0
 13
1.0
 23
0.0
 33
0.0
 40
0.0
 40
0.0
 40
0.0
 40
0.0
 40
1.0
 40
1.0
 40
1.0
 40
2.0
 40
2.0
 40
2.0
 40
3.0
 40
3.0
 40
3.0
 40
4.0
 40
4.0
 40
4.0
 40
5.0
 40
5.0
 40
5.0
 40
6.0
 40
6.0
 40
6.0
 40
7.0
 40
7.0
 40
7.0
 40
8.0
 40
8.0
 40
8.0
 40
9.0
 40
9.0
 40
9.0
 40
10.0
 40
10.0
 40
10.0
 40
10.0
 10
79.12777290730021
 20
470.9241011670819
 30
0.0
 10
79.12657346284273
 20
471.0330389465479
 30
0.0
 10
79.1843937415062
 20
471.1254667257383
 30
0.0
 10
79.2545965203543
 20
471.2038539491647
 30
0.0
 10
79.3593362441935
 20
471.3208703398566
 30
0.0
 10
79.49173374623362
 20
471.4065953411733
 30
0.0
 10
79.62903485944841
 20
471.4818781201112
 30
0.0
 10
79.82743708473032
 20
471.5906747884441
 30
0.0
 10
80.03610514349562
 20
471.6775992342375
 30
0.0
 10
80.24819514675154
 20
471.7548222909685
 30
0.0
 10
80.5297118177514
 20
471.8572689592106
 30
0.0
 10
80.81733154438342
 20
471.9426411827508
 30
0.0
 10
81.10696210439822
 20
472.0196878506
 30
0.0
 10
81.46817127661389
 20
472.1158197965204
 30
0.0
 10
81.83255544888716
 20
472.1990400755709
 30
0.0
 10
82.19852712117704
 20
472.2745697989604
 30
0.0
 10
82.6341371278747
 20
472.3644575781226
 30
0.0
 10
83.07204019016824
 20
472.4434798015591
 30
0.0
 10
83.51093103024323
 20
472.5160814693421
 30
0.0
 10
84.58362243563268
 20
472.6935286942891
 30
0.0
 10
85.66227578555444
 20
472.8326642519913
 30
0.0
 10
86.74297524660123
 20
472.9521853649366
 30
0.0
 10
88.0541091556594
 20
473.0971417560508
 30
0.0
 10
89.36824167585485
 20
473.2131703689491
 30
0.0
 10
90.68375002941526
 20
473.3105370371154
 30
0.0
 10
92.18040977465336
 20
473.4212739832606
 30
0.0
 10
93.67879813102134
 20
473.5078103734768
 30
0.0
 10
95.1779625985185
 20
473.5766373189786
 30
0.0
 10
98.49216876058283
 20
473.7287198213206
 30
0.0
 10
101.8101849227226
 20
473.7940895445445
 30
0.0
 10
105.1277777514958
 20
473.7946187112227
 30
0.0
  0
ENDBLK
  5
4D
330
4A
100
AcDbEntity
  8
0
100
AcDbBlockEnd
  0
BLOCK
  5
51
330
4F
100
AcDbEntity
  8
0
100
AcDbBlockBegin
  2
block 5
 70
     0
 10
0.0
 20
0.0
 30
0.0
  3
block 5
  1

  0
SPLINE
  5
53
330
4F
100
AcDbEntity
  8
0
 62
   250
370
    25
100
AcDbSpline
210
0.0
220
0.0
230
1.0
 70
     8
 71
     3
 72
    38
 73
    34
 74
     0
 42
0.0000000001
 43
0.0000000001
 12
1.0
 22
0.0
 32
0.0
 13
1.0
 23
0.0
 33
0.0
 40
0.0
 40
0.0
 40
0.0
 40
0.0
 40
1.0
 40
1.0
 40
1.0
 40
2.0
 40
2.0
 40
2.0
 40
3.0
 40
3.0
 40
3.0
 40
4.0
 40
4.0
 40
4.0
 40
5.0
 40
5.0
 40
5.0
 40
6.0
 40
6.0
 40
6.0
 40
7.0
 40
7.0
 40
7.0
 40
8.0
 40
8.0
 40
8.0
 40
9.0
 40
9.0
 40
9.0
 40
10.0
 40
10.0
 40
10.0
 40
11.0
 40
11.0
 40
11.0
 40
11.0
 10
105.1277777514958
 20
473.7946187112227
 30
0.0
 10
106.8186063885993
 20
473.7950773223382
 30
0.0
 10
108.509435025704
 20
473.777191488736
 30
0.0
 10
110.1998403294804
 20
473.7401850992742
 30
0.0
 10
111.8263575767047
 20
473.7045898209466
 30
0.0
 10
113.4524514906013
 20
473.6513203756814
 30
0.0
 10
115.0776281822549
 20
473.576778430099
 30
0.0
 10
116.576792649752
 20
473.5080573179342
 30
0.0
 10
118.075145728338
 20
473.4212034277101
 30
0.0
 10
119.5718054735755
 20
473.310431203777
 30
0.0
 10
120.8872785493551
 20
473.2130645356107
 30
0.0
 10
122.201481625114
 20
473.0972123116007
 30
0.0
 10
123.5126155341587
 20
472.9522206427115
 30
0.0
 10
124.5932797174376
 20
472.8327348075419
 30
0.0
 10
125.6719330673587
 20
472.6934581387321
 30
0.0
 10
126.7446244727488
 20
472.5160461915607
 30
0.0
 10
127.1835153128231
 20
472.4434798015591
 30
0.0
 10
127.6214183751167
 20
472.3644928558911
 30
0.0
 10
128.0570636595963
 20
472.2746050767418
 30
0.0
 10
128.4230000541042
 20
472.1990400755709
 30
0.0
 10
128.7873842263781
 20
472.1158197965204
 30
0.0
 10
129.1485933985931
 20
472.0196878506
 30
0.0
 10
129.4382239586073
 20
471.9426059049623
 30
0.0
 10
129.7258436852399
 20
471.8573042369926
 30
0.0
 10
130.0073603562405
 20
471.7548222909685
 30
0.0
 10
130.2194503594964
 20
471.6775992342375
 30
0.0
 10
130.4281184182617
 20
471.5906747884441
 30
0.0
 10
130.6265206435423
 20
471.4818781201112
 30
0.0
 10
130.7638217567577
 20
471.4065953411733
 30
0.0
 10
130.8962192587985
 20
471.3208703398566
 30
0.0
 10
131.0009589826364
 20
471.2038539491647
 30
0.0
 10
131.0711617614851
 20
471.1254667257383
 30
0.0
 10
131.1289820401486
 20
471.0330389465479
 30
0.0
 10
131.1277825956911
 20
470.9241011670819
 30
0.0
  0
ENDBLK
  5
52
330
4F
100
AcDbEntity
  8
0
100
AcDbBlockEnd
  0
BLOCK
  5
56
330
54
100
AcDbEntity
  8
0
100
AcDbBlockBegin
  2
block 6
 70
     0
 10
0.0
 20
0.0
 30
0.0
  3
block 6
  1

  0
SPLINE
  5
58
330
54
100
AcDbEntity
  8
0
 62
   250
370
    25
100
AcDbSpline
210
0.0
220
0.0
230
1.0
 70
     8
 71
     3
 72
     8
 73
     4
 74
     0
 42
0.0000000001
 43
0.0000000001
 12
1.0
 22
0.0
 32
0.0
 13
1.0
 23
0.0
 33
0.0
 40
0.0
 40
0.0
 40
0.0
 40
0.0
 40
1.0
 40
1.0
 40
1.0
 40
1.0
 10
-784.8722198211515
 20
-251.3041666038408
 30
0.0
 10
-790.3950971282871
 20
-251.3041666038408
 30
0.0
 10
-794.8722352526809
 20
-246.8270284794593
 30
0.0
 10
-794.8722352526809
 20
-241.3041511723107
 30
0.0
  0
ENDBLK
  5
57
330
54
100
AcDbEntity
  8
0
100
AcDbBlockEnd
  0
BLOCK
  5
5B
330
59
100
AcDbEntity
  8
0
100
AcDbBlockBegin
  2
block 7
 70
     0
 10
0.0
 20
0.0
 30
0.0
  3
block 7
  1

  0
POLYLINE
  5
5D
330
59
100
AcDbEntity
  8
0
 62
   250
370
    25
100
AcDb2dPolyline
 66
     1
 10
0.0
 20
0.0
 30
0.0
  0
VERTEX
  5
5E
330
5D
100
AcDbEntity
  8
0
 62
   250
370
    25
100
AcDbVertex
100
AcDb2dVertex
 10
995.1277753241428
 20
-251.3041666038408
 30
0.0
  0
VERTEX
  5
5F
330
5D
100
AcDbEntity
  8
0
 62
   250
370
    25
100
AcDbVertex
100
AcDb2dVertex
 10
-784.8722198211517
 20
-251.3041666038408
 30
0.0
  0
SEQEND
  5
60
330
5D
100
AcDbEntity
  8
0
 62
   250
370
    25
  0
ENDBLK
  5
5C
330
59
100
AcDbEntity
  8
0
100
AcDbBlockEnd
  0
BLOCK
  5
63
330
61
100
AcDbEntity
  8
0
100
AcDbBlockBegin
  2
block 8
 70
     0
 10
0.0
 20
0.0
 30
0.0
  3
block 8
  1

  0
SPLINE
  5
65
330
61
100
AcDbEntity
  8
0
 62
   250
370
    25
100
AcDbSpline
210
0.0
220
0.0
230
1.0
 70
     8
 71
     3
 72
     8
 73
     4
 74
     0
 42
0.0000000001
 43
0.0000000001
 12
1.0
 22
0.0
 32
0.0
 13
1.0
 23
0.0
 33
0.0
 40
0.0
 40
0.0
 40
0.0
 40
0.0
 40
1.0
 40
1.0
 40
1.0
 40
1.0
 10
1005.127790755673
 20
-241.3041511723107
 30
0.0
 10
1005.127790755673
 20
-246.8270284794593
 30
0.0
 10
1000.650652631279
 20
-251.3041666038408
 30
0.0
 10
995.1277753241428
 20
-251.3041666038408
 30
0.0
  0
ENDBLK
  5
64
330
61
100
AcDbEntity
  8
0
100
AcDbBlockEnd
  0
BLOCK
  5
68
330
66
100
AcDbEntity
  8
0
100
AcDbBlockBegin
  2
block 9
 70
     0
 10
0.0
 20
0.0
 30
0.0
  3
block 9
  1

  0
POLYLINE
  5
6A
330
66
100
AcDbEntity
  8
0
 62
   250
370
    25
100
AcDb2dPolyline
 66
     1
 10
0.0
 20
0.0
 30
0.0
  0
VERTEX
  5
6B
330
6A
100
AcDbEntity
  8
0
 62
   250
370
    25
100
AcDbVertex
100
AcDb2dVertex
 10
1005.127790755673
 20
538.6958530424048
 30
0.0
  0
VERTEX
  5
6C
330
6A
100
AcDbEntity
  8
0
 62
   250
370
    25
100
AcDbVertex
100
AcDb2dVertex
 10
1005.127790755673
 20
-241.3041511723107
 30
0.0
  0
SEQEND
  5
6D
330
6A
100
AcDbEntity
  8
0
 62
   250
370
    25
  0
ENDBLK
  5
69
330
66
100
AcDbEntity
  8
0
100
AcDbBlockEnd
  0
BLOCK
  5
70
330
6E
100
AcDbEntity
  8
0
100
AcDbBlockBegin
  2
block 10
 70
     0
 10
0.0
 20
0.0
 30
0.0
  3
block 10
  1

  0
SPLINE
  5
72
330
6E
100
AcDbEntity
  8
0
 62
   250
370
    25
100
AcDbSpline
210
0.0
220
0.0
230
1.0
 70
     8
 71
     3
 72
     8
 73
     4
 74
     0
 42
0.0000000001
 43
0.0000000001
 12
1.0
 22
0.0
 32
0.0
 13
1.0
 23
0.0
 33
0.0
 40
0.0
 40
0.0
 40
0.0
 40
0.0
 40
1.0
 40
1.0
 40
1.0
 40
1.0
 10
995.1277753241428
 20
548.6958331961592
 30
0.0
 10
1000.650652631279
 20
548.6958331961592
 30
0.0
 10
1005.127790755673
 20
544.2186950717656
 30
0.0
 10
1005.127790755673
 20
538.6958530424048
 30
0.0
  0
ENDBLK
  5
71
330
6E
100
AcDbEntity
  8
0
100
AcDbBlockEnd
  0
BLOCK
  5
75
330
73
100
AcDbEntity
  8
0
100
AcDbBlockBegin
  2
block 11
 70
     0
 10
0.0
 20
0.0
 30
0.0
  3
block 11
  1

  0
POLYLINE
  5
77
330
73
100
AcDbEntity
  8
0
 62
   250
370
    25
100
AcDb2dPolyline
 66
     1
 10
0.0
 20
0.0
 30
0.0
  0
VERTEX
  5
78
330
77
100
AcDbEntity
  8
0
 62
   250
370
    25
100
AcDbVertex
100
AcDb2dVertex
 10
-784.8722198211515
 20
548.6958331961592
 30
0.0
  0
VERTEX
  5
79
330
77
100
AcDbEntity
  8
0
 62
   250
370
    25
100
AcDbVertex
100
AcDb2dVertex
 10
995.1277753241434
 20
548.6958331961592
 30
0.0
  0
SEQEND
  5
7A
330
77
100
AcDbEntity
  8
0
 62
   250
370
    25
  0
ENDBLK
  5
76
330
73
100
AcDbEntity
  8
0
100
AcDbBlockEnd
  0
BLOCK
  5
7D
330
7B
100
AcDbEntity
  8
0
100
AcDbBlockBegin
  2
block 12
 70
     0
 10
0.0
 20
0.0
 30
0.0
  3
block 12
  1

  0
SPLINE
  5
7F
330
7B
100
AcDbEntity
  8
0
 62
   250
370
    25
100
AcDbSpline
210
0.0
220
0.0
230
1.0
 70
     8
 71
     3
 72
     8
 73
     4
 74
     0
 42
0.0000000001
 43
0.0000000001
 12
1.0
 22
0.0
 32
0.0
 13
1.0
 23
0.0
 33
0.0
 40
0.0
 40
0.0
 40
0.0
 40
0.0
 40
1.0
 40
1.0
 40
1.0
 40
1.0
 10
-794.8722352526809
 20
538.6958530424048
 30
0.0
 10
-794.8722352526809
 20
544.2186950717656
 30
0.0
 10
-790.3950971282871
 20
548.6958331961592
 30
0.0
 10
-784.8722198211515
 20
548.6958331961592
 30
0.0
  0
ENDBLK
  5
7E
330
7B
100
AcDbEntity
  8
0
100
AcDbBlockEnd
  0
BLOCK
  5
82
330
80
100
AcDbEntity
  8
0
100
AcDbBlockBegin
  2
block 13
 70
     0
 10
0.0
 20
0.0
 30
0.0
  3
block 13
  1

  0
POLYLINE
  5
84
330
80
100
AcDbEntity
  8
0
 62
   250
370
    25
100
AcDb2dPolyline
 66
     1
 10
0.0
 20
0.0
 30
0.0
  0
VERTEX
  5
85
330
84
100
AcDbEntity
  8
0
 62
   250
370
    25
100
AcDbVertex
100
AcDb2dVertex
 10
-794.8722352526809
 20
-241.3041511723107
 30
0.0
  0
VERTEX
  5
86
330
84
100
AcDbEntity
  8
0
 62
   250
370
    25
100
AcDbVertex
100
AcDb2dVertex
 10
-794.8722352526809
 20
538.6958530424048
 30
0.0
  0
SEQEND
  5
87
330
84
100
AcDbEntity
  8
0
 62
   250
370
    25
  0
ENDBLK
  5
83
330
80
100
AcDbEntity
  8
0
100
AcDbBlockEnd
  0
BLOCK
  5
8A
330
88
100
AcDbEntity
  8
0
100
AcDbBlockBegin
  2
block 14
 70
     0
 10
0.0
 20
0.0
 30
0.0
  3
block 14
  1

  0
SPLINE
  5
8C
330
88
100
AcDbEntity
  8
0
 62
   250
370
    25
100
AcDbSpline
210
0.0
220
0.0
230
1.0
 70
     8
 71
     3
 72
    41
 73
    37
 74
     0
 42
0.0000000001
 43
0.0000000001
 12
1.0
 22
0.0
 32
0.0
 13
1.0
 23
0.0
 33
0.0
 40
0.0
 40
0.0
 40
0.0
 40
0.0
 40
1.0
 40
1.0
 40
1.0
 40
2.0
 40
2.0
 40
2.0
 40
3.0
 40
3.0
 40
3.0
 40
4.0
 40
4.0
 40
4.0
 40
5.0
 40
5.0
 40
5.0
 40
6.0
 40
6.0
 40
6.0
 40
7.0
 40
7.0
 40
7.0
 40
8.0
 40
8.0
 40
8.0
 40
9.0
 40
9.0
 40
9.0
 40
10.0
 40
10.0
 40
10.0
 40
11.0
 40
11.0
 40
11.0
 40
12.0
 40
12.0
 40
12.0
 40
12.0
 10
652.6141322802182
 20
-43.73265226724268
 30
0.0
 10
653.5226056275134
 20
-42.87730727569904
 30
0.0
 10
654.3703659183276
 20
-41.95810950701458
 30
0.0
 10
655.1546262081604
 20
-40.98758257216571
 30
0.0
 10
655.5288176028087
 20
-40.5245617434028
 30
0.0
 10
655.8885803861223
 20
-40.04979341475479
 30
0.0
 10
656.2279526135535
 20
-39.56077286403769
 30
0.0
 10
656.5205112291685
 20
-39.1392387015504
 30
0.0
 10
656.7979709556483
 20
-38.70705065026507
 30
0.0
 10
657.0490429039597
 20
-38.2593403769161
 30
0.0
 10
657.2190817954602
 20
-37.95616315768898
 30
0.0
 10
657.377055686782
 20
-37.64585982742219
 30
0.0
 10
657.5143215222155
 20
-37.32673705279093
 30
0.0
 10
657.6560323577409
 20
-36.99738372272779
 30
0.0
 10
657.7757298595756
 20
-36.65868178162776
 30
0.0
 10
657.8815279167583
 20
-36.31599345168794
 30
0.0
 10
658.0256729189665
 20
-35.84916262296576
 30
0.0
 10
658.1439593096786
 20
-35.37495873875807
 30
0.0
 10
658.2545551447183
 20
-34.89902624347181
 30
0.0
 10
658.4034979247821
 20
-34.25799374981412
 30
0.0
 10
658.5384354268517
 20
-33.61385681173729
 30
0.0
 10
658.6657882065911
 20
-32.96830876255326
 30
0.0
 10
659.0941662687362
 20
-30.79671461735296
 30
0.0
 10
659.4367134962263
 20
-28.60906908342944
 30
0.0
 10
659.7438418342771
 20
-26.41687271622322
 30
0.0
 10
659.9413621150959
 20
-25.00713745237998
 30
0.0
 10
660.1241715623523
 20
-23.59549718856351
 30
0.0
 10
660.3014071206361
 20
-22.18315136919409
 30
0.0
 10
660.5532551800517
 20
-20.17623388903755
 30
0.0
 10
660.793814350421
 20
-18.16787002000465
 30
0.0
 10
661.0301401873892
 20
-16.15901226208133
 30
0.0
 10
662.3015160402736
 20
-5.351735702264304
 30
0.0
 10
663.4512188357245
 20
5.469793079621819
 30
0.0
 10
664.4752269070275
 20
16.30324575029027
 30
0.0
 10
668.6341594709618
 20
60.30331253746925
 30
0.0
 10
670.7190761696913
 20
104.4995680333062
 30
0.0
 10
670.71861755857
 20
148.6958509350465
 30
0.0
  0
ENDBLK
  5
8B
330
88
100
AcDbEntity
  8
0
100
AcDbBlockEnd
  0
BLOCK
  5
8F
330
8D
100
AcDbEntity
  8
0
100
AcDbBlockBegin
  2
block 15
 70
     0
 10
0.0
 20
0.0
 30
0.0
  3
block 15
  1

  0
SPLINE
  5
91
330
8D
100
AcDbEntity
  8
0
 62
   250
370
    25
100
AcDbSpline
210
0.0
220
0.0
230
1.0
 70
     8
 71
     3
 72
    35
 73
    31
 74
     0
 42
0.0000000001
 43
0.0000000001
 12
1.0
 22
0.0
 32
0.0
 13
1.0
 23
0.0
 33
0.0
 40
0.0
 40
0.0
 40
0.0
 40
0.0
 40
1.0
 40
1.0
 40
1.0
 40
2.0
 40
2.0
 40
2.0
 40
3.0
 40
3.0
 40
3.0
 40
4.0
 40
4.0
 40
4.0
 40
5.0
 40
5.0
 40
5.0
 40
6.0
 40
6.0
 40
6.0
 40
7.0
 40
7.0
 40
7.0
 40
8.0
 40
8.0
 40
8.0
 40
9.0
 40
9.0
 40
9.0
 40
10.0
 40
10.0
 40
10.0
 40
10.0
 10
105.1296827515204
 20
343.0005622558178
 30
0.0
 10
117.3559376617213
 20
342.9999272558077
 30
0.0
 10
129.5821925719215
 20
342.9878975333996
 30
0.0
 10
141.8084122043538
 20
342.9673305886495
 30
0.0
 10
154.5779096229091
 20
342.9458464216435
 30
0.0
 10
167.3473717636696
 20
342.9151194767214
 30
0.0
 10
180.1168339044563
 20
342.8780425317097
 30
0.0
 10
191.7084768604566
 20
342.8443875311951
 30
0.0
 10
203.3000845386742
 20
342.8055114194831
 30
0.0
 10
214.8917274946739
 20
342.7653300299766
 30
0.0
 10
247.2549616033719
 20
342.6531114171402
 30
0.0
 10
279.6181957120572
 20
342.5305564152565
 30
0.0
 10
311.9814298207559
 20
342.4198547468862
 30
0.0
 10
331.1468942820983
 20
342.354273356992
 30
0.0
 10
350.3123234656593
 20
342.2928547449375
 30
0.0
 10
369.4777879269883
 20
342.2334116884632
 30
0.0
 10
389.9175210190334
 20
342.1700527986015
 30
0.0
 10
410.3572541110668
 20
342.1089164087735
 30
0.0
 10
430.7969872031119
 20
342.0497202967509
 30
0.0
 10
500.0325904898255
 20
341.8491661269998
 30
0.0
 10
569.2681232209877
 20
341.6707664020341
 30
0.0
 10
638.5037970632641
 20
341.4554661209585
 30
0.0
 10
641.3550882182191
 20
341.4465761208137
 30
0.0
 10
644.2063793731613
 20
341.4376508428941
 30
0.0
 10
647.0570002503314
 20
341.3677655640475
 30
0.0
 10
648.1134991554608
 20
341.3418716747565
 30
0.0
 10
649.1698569494775
 20
341.3076169520132
 30
0.0
 10
650.2255444657079
 20
341.2620733401967
 30
0.0
 10
651.0223636446341
 20
341.2277127841214
 30
0.0
 10
651.818794767989
 20
341.1868963945977
 30
0.0
 10
652.6141322802182
 20
341.12431361586
 30
0.0
  0
ENDBLK
  5
90
330
8D
100
AcDbEntity
  8
0
100
AcDbBlockEnd
  0
BLOCK
  5
94
330
92
100
AcDbEntity
  8
0
100
AcDbBlockBegin
  2
block 16
 70
     0
 10
0.0
 20
0.0
 30
0.0
  3
block 16
  1

  0
SPLINE
  5
96
330
92
100
AcDbEntity
  8
0
 62
   250
370
    25
100
AcDbSpline
210
0.0
220
0.0
230
1.0
 70
     8
 71
     3
 72
    41
 73
    37
 74
     0
 42
0.0000000001
 43
0.0000000001
 12
1.0
 22
0.0
 32
0.0
 13
1.0
 23
0.0
 33
0.0
 40
0.0
 40
0.0
 40
0.0
 40
0.0
 40
1.0
 40
1.0
 40
1.0
 40
2.0
 40
2.0
 40
2.0
 40
3.0
 40
3.0
 40
3.0
 40
4.0
 40
4.0
 40
4.0
 40
5.0
 40
5.0
 40
5.0
 40
6.0
 40
6.0
 40
6.0
 40
7.0
 40
7.0
 40
7.0
 40
8.0
 40
8.0
 40
8.0
 40
9.0
 40
9.0
 40
9.0
 40
10.0
 40
10.0
 40
10.0
 40
11.0
 40
11.0
 40
11.0
 40
12.0
 40
12.0
 40
12.0
 40
12.0
 10
652.6141322802182
 20
341.12431361586
 30
0.0
 10
653.5226056275134
 20
340.2689686027097
 30
0.0
 10
654.3703659183276
 20
339.3498060885707
 30
0.0
 10
655.1546262081604
 20
338.3792791292089
 30
0.0
 10
655.5288176028087
 20
337.9162230109864
 30
0.0
 10
655.8885803861223
 20
337.4414899481257
 30
0.0
 10
656.2279526135535
 20
336.9524693850431
 30
0.0
 10
656.5205112291685
 20
336.5308999341229
 30
0.0
 10
656.7979709556483
 20
336.0987118719286
 30
0.0
 10
657.0490429039597
 20
335.6510015872717
 30
0.0
 10
657.2190817954602
 20
335.3478243603711
 30
0.0
 10
657.377055686782
 20
335.0375210222743
 30
0.0
 10
657.5143215222155
 20
334.7183982395903
 30
0.0
 10
657.6560323577409
 20
334.3890801789729
 30
0.0
 10
657.7757298595756
 20
334.0503429515447
 30
0.0
 10
657.8815279167583
 20
333.7076546129343
 30
0.0
 10
658.0256729189665
 20
333.2408237724312
 30
0.0
 10
658.1439593096786
 20
332.7666198762487
 30
0.0
 10
658.2545551447183
 20
332.2906873689312
 30
0.0
 10
658.4034979247821
 20
331.64965485907
 30
0.0
 10
658.5384354268517
 20
331.0055531825145
 30
0.0
 10
658.6657882065911
 20
330.3600051170249
 30
0.0
 10
659.0941662687362
 20
328.1883756391902
 30
0.0
 10
659.4367134962263
 20
326.0007300500035
 30
0.0
 10
659.7438418342771
 20
323.8085689051879
 30
0.0
 10
659.9413621150959
 20
322.3987983279618
 30
0.0
 10
660.1241715623523
 20
320.9871580284803
 30
0.0
 10
660.3014071206361
 20
319.5748121734183
 30
0.0
 10
660.5532551800517
 20
317.5678946425688
 30
0.0
 10
660.793814350421
 20
315.5595307227968
 30
0.0
 10
661.0301401873892
 20
313.5506729141343
 30
0.0
 10
662.3015160402736
 20
302.7434313590936
 30
0.0
 10
663.4512188357245
 20
291.921867026036
 30
0.0
 10
664.4752269070275
 20
281.0884493594784
 30
0.0
 10
668.6341594709618
 20
237.0883461829856
 30
0.0
 10
670.7190761696913
 20
192.8920985589997
 30
0.0
 10
670.71861755857
 20
148.6958509350465
 30
0.0
  0
ENDBLK
  5
95
330
92
100
AcDbEntity
  8
0
100
AcDbBlockEnd
  0
BLOCK
  5
99
330
97
100
AcDbEntity
  8
0
100
AcDbBlockBegin
  2
block 17
 70
     0
 10
0.0
 20
0.0
 30
0.0
  3
block 17
  1

  0
SPLINE
  5
9B
330
97
100
AcDbEntity
  8
0
 62
   250
370
    25
100
AcDbSpline
210
0.0
220
0.0
230
1.0
 70
     8
 71
     3
 72
    41
 73
    37
 74
     0
 42
0.0000000001
 43
0.0000000001
 12
1.0
 22
0.0
 32
0.0
 13
1.0
 23
0.0
 33
0.0
 40
0.0
 40
0.0
 40
0.0
 40
0.0
 40
1.0
 40
1.0
 40
1.0
 40
2.0
 40
2.0
 40
2.0
 40
3.0
 40
3.0
 40
3.0
 40
4.0
 40
4.0
 40
4.0
 40
5.0
 40
5.0
 40
5.0
 40
6.0
 40
6.0
 40
6.0
 40
7.0
 40
7.0
 40
7.0
 40
8.0
 40
8.0
 40
8.0
 40
9.0
 40
9.0
 40
9.0
 40
10.0
 40
10.0
 40
10.0
 40
11.0
 40
11.0
 40
11.0
 40
12.0
 40
12.0
 40
12.0
 40
12.0
 10
-442.3585767772262
 20
341.12431361586
 30
0.0
 10
-443.2519159576316
 20
340.283150269594
 30
0.0
 10
-444.0867645815759
 20
339.3802860890469
 30
0.0
 10
-444.8600182045755
 20
338.4275391299618
 30
0.0
 10
-445.2312462658429
 20
337.9701274562489
 30
0.0
 10
-445.5882926602195
 20
337.5011799490388
 30
0.0
 10
-445.9261832209673
 20
337.0185799416219
 30
0.0
 10
-446.2375448924141
 20
336.5738329903407
 30
0.0
 10
-446.5326082302817
 20
336.1174796499983
 30
0.0
 10
-446.7978265677025
 20
335.6436285315936
 30
0.0
 10
-446.970440737025
 20
335.335265471297
 30
0.0
 10
-447.1303901839229
 20
335.0194587997775
 30
0.0
 10
-447.2689965749335
 20
334.6946210170013
 30
0.0
 10
-447.4083085215372
 20
334.3680193453196
 30
0.0
 10
-447.5260304677834
 20
334.0322454512659
 30
0.0
 10
-447.6303821360631
 20
333.6926968349323
 30
0.0
 10
-447.7744213049403
 20
333.2238198832785
 30
0.0
 10
-447.8929899178605
 20
332.7477109870658
 30
0.0
 10
-448.0038326973507
 20
332.2698734797231
 30
0.0
 10
-448.1565501997086
 20
331.6114843029328
 30
0.0
 10
-448.2945921462725
 20
330.9498142927516
 30
0.0
 10
-448.4247318704852
 20
330.2866626158929
 30
0.0
 10
-448.858225210482
 20
328.0777445263827
 30
0.0
 10
-449.204053271362
 20
325.8524928254927
 30
0.0
 10
-449.5142507761262
 20
323.6227961245499
 30
0.0
 10
-449.714734390327
 20
322.1815577690603
 30
0.0
 10
-449.9003660598385
 20
320.7384144135333
 30
0.0
 10
-450.0806707848352
 20
319.2946360580149
 30
0.0
 10
-450.338727733254
 20
317.2282401928969
 30
0.0
 10
-450.5858485703776
 20
315.1604332166705
 30
0.0
 10
-450.8284891296664
 20
313.0921323515273
 30
0.0
 10
-452.0947497047002
 20
302.2991782967092
 30
0.0
 10
-453.239478333413
 20
291.4920425749882
 30
0.0
 10
-454.2588297379609
 20
280.6730887975351
 30
0.0
 10
-458.3915509126216
 20
236.8102514564699
 30
0.0
 10
-460.4635206667003
 20
192.7530335568736
 30
0.0
 10
-460.4630620555784
 20
148.6958509350465
 30
0.0
  0
ENDBLK
  5
9A
330
97
100
AcDbEntity
  8
0
100
AcDbBlockEnd
  0
BLOCK
  5
9E
330
9C
100
AcDbEntity
  8
0
100
AcDbBlockBegin
  2
block 18
 70
     0
 10
0.0
 20
0.0
 30
0.0
  3
block 18
  1

  0
SPLINE
  5
A0
330
9C
100
AcDbEntity
  8
0
 62
   250
370
    25
100
AcDbSpline
210
0.0
220
0.0
230
1.0
 70
     8
 71
     3
 72
    41
 73
    37
 74
     0
 42
0.0000000001
 43
0.0000000001
 12
1.0
 22
0.0
 32
0.0
 13
1.0
 23
0.0
 33
0.0
 40
0.0
 40
0.0
 40
0.0
 40
0.0
 40
1.0
 40
1.0
 40
1.0
 40
2.0
 40
2.0
 40
2.0
 40
3.0
 40
3.0
 40
3.0
 40
4.0
 40
4.0
 40
4.0
 40
5.0
 40
5.0
 40
5.0
 40
6.0
 40
6.0
 40
6.0
 40
7.0
 40
7.0
 40
7.0
 40
8.0
 40
8.0
 40
8.0
 40
9.0
 40
9.0
 40
9.0
 40
10.0
 40
10.0
 40
10.0
 40
11.0
 40
11.0
 40
11.0
 40
12.0
 40
12.0
 40
12.0
 40
12.0
 10
-442.2927131650986
 20
341.1011713932804
 30
0.0
 10
-443.185981789941
 20
340.2601491581412
 30
0.0
 10
-444.0208304138978
 20
339.357426088701
 30
0.0
 10
-444.7940134813347
 20
338.4047849629413
 30
0.0
 10
-445.165241542602
 20
337.9474085670169
 30
0.0
 10
-445.5222879369786
 20
337.4785316153631
 30
0.0
 10
-445.8601079421759
 20
336.9960021634897
 30
0.0
 10
-446.1714343358477
 20
336.5513257677719
 30
0.0
 10
-446.4664976737218
 20
336.0950077051916
 30
0.0
 10
-446.7317160111301
 20
335.6212271423753
 30
0.0
 10
-446.9042949026706
 20
335.3128993598414
 30
0.0
 10
-447.0642443495682
 20
334.9971632438731
 30
0.0
 10
-447.202815462817
 20
334.672325461102
 30
0.0
 10
-447.3421626871828
 20
334.3457943449702
 30
0.0
 10
-447.4598493556604
 20
334.0100557286992
 30
0.0
 10
-447.5641657461459
 20
333.670542390147
 30
0.0
 10
-447.7082049150229
 20
333.2017359940496
 30
0.0
 10
-447.8267735279622
 20
332.7256623756188
 30
0.0
 10
-447.9375810296644
 20
332.2478954238324
 30
0.0
 10
-448.0902632542409
 20
331.5895768025856
 30
0.0
 10
-448.228269923023
 20
330.9279773479749
 30
0.0
 10
-448.358409647249
 20
330.2648962266725
 30
0.0
 10
-448.7918324316952
 20
328.0562603593766
 30
0.0
 10
-449.1375546592304
 20
325.8312556029447
 30
0.0
 10
-449.4476463306631
 20
323.6018058464471
 30
0.0
 10
-449.6481299448639
 20
322.1607086020708
 30
0.0
 10
-449.8336910588252
 20
320.7177769132199
 30
0.0
 10
-450.0139252282588
 20
319.2741396688025
 30
0.0
 10
-450.2719116211144
 20
317.2079554703606
 30
0.0
 10
-450.5189619026812
 20
315.14039543858
 30
0.0
 10
-450.761567184195
 20
313.0723062401128
 30
0.0
 10
-452.0274397036571
 20
302.2806574630719
 30
0.0
 10
-453.1718508323614
 20
291.4747564636154
 30
0.0
 10
-454.190884736927
 20
280.6570726861697
 30
0.0
 10
-458.3223711893357
 20
236.799491734082
 30
0.0
 10
-460.3937059433975
 20
192.7476360567957
 30
0.0
 10
-460.3932473322885
 20
148.6958509350465
 30
0.0
  0
ENDBLK
  5
9F
330
9C
100
AcDbEntity
  8
0
100
AcDbBlockEnd
  0
BLOCK
  5
A3
330
A1
100
AcDbEntity
  8
0
100
AcDbBlockBegin
  2
block 19
 70
     0
 10
0.0
 20
0.0
 30
0.0
  3
block 19
  1

  0
SPLINE
  5
A5
330
A1
100
AcDbEntity
  8
0
 62
   250
370
    25
100
AcDbSpline
210
0.0
220
0.0
230
1.0
 70
     8
 71
     3
 72
    32
 73
    28
 74
     0
 42
0.0000000001
 43
0.0000000001
 12
1.0
 22
0.0
 32
0.0
 13
1.0
 23
0.0
 33
0.0
 40
0.0
 40
0.0
 40
0.0
 40
0.0
 40
1.0
 40
1.0
 40
1.0
 40
2.0
 40
2.0
 40
2.0
 40
3.0
 40
3.0
 40
3.0
 40
4.0
 40
4.0
 40
4.0
 40
5.0
 40
5.0
 40
5.0
 40
6.0
 40
6.0
 40
6.0
 40
7.0
 40
7.0
 40
7.0
 40
8.0
 40
8.0
 40
8.0
 40
9.0
 40
9.0
 40
9.0
 40
9.0
 10
652.5482686680897
 20
-43.70951004524766
 30
0.0
 10
651.7529311558617
 20
-43.77181060019303
 30
0.0
 10
650.9565353102889
 20
-43.81287393311531
 30
0.0
 10
650.1597161313628
 20
-43.84730504387549
 30
0.0
 10
649.1040286151323
 20
-43.89291921010613
 30
0.0
 10
648.0477060988962
 20
-43.92689170975663
 30
0.0
 10
646.991242471536
 20
-43.95260920951121
 30
0.0
 10
644.1406568721609
 20
-44.02196531993352
 30
0.0
 10
641.2894009949865
 20
-44.03099643096053
 30
0.0
 10
638.4381451178135
 20
-44.03988643086079
 30
0.0
 10
617.800221467176
 20
-44.10444476356997
 30
0.0
 10
597.1623683720885
 20
-44.16328809630688
 30
0.0
 10
576.5244799992201
 20
-44.22096726241966
 30
0.0
 10
507.4902069933747
 20
-44.41393670493778
 30
0.0
 10
438.4557575986358
 20
-44.59427670317323
 30
0.0
 10
369.4214845927903
 20
-44.80047531223741
 30
0.0
 10
351.503865706189
 20
-44.85399170060032
 30
0.0
 10
333.5862820973814
 20
-44.90923670005463
 30
0.0
 10
315.6686984885615
 20
-44.96804475502365
 30
0.0
 10
282.0649213052388
 20
-45.07828780949926
 30
0.0
 10
248.4611441219149
 20
-45.20091336382708
 30
0.0
 10
214.8573669385922
 20
-45.31288502938254
 30
0.0
 10
203.268793149306
 20
-45.35151419568614
 30
0.0
 10
191.6802546378006
 20
-45.38887336198108
 30
0.0
 10
180.0916808485145
 20
-45.42122308388493
 30
0.0
 10
155.103760186546
 20
-45.4910025276349
 30
0.0
 10
130.1157689690142
 20
-45.53756919383996
 30
0.0
 10
105.1277777514958
 20
-45.53908613826752
 30
0.0
  0
ENDBLK
  5
A4
330
A1
100
AcDbEntity
  8
0
100
AcDbBlockEnd
  0
BLOCK
  5
A8
330
A6
100
AcDbEntity
  8
0
100
AcDbBlockBegin
  2
block 20
 70
     0
 10
0.0
 20
0.0
 30
0.0
  3
block 20
  1

  0
SPLINE
  5
AA
330
A6
100
AcDbEntity
  8
0
 62
   250
370
    25
100
AcDbSpline
210
0.0
220
0.0
230
1.0
 70
     8
 71
     3
 72
    35
 73
    31
 74
     0
 42
0.0000000001
 43
0.0000000001
 12
1.0
 22
0.0
 32
0.0
 13
1.0
 23
0.0
 33
0.0
 40
0.0
 40
0.0
 40
0.0
 40
0.0
 40
1.0
 40
1.0
 40
1.0
 40
2.0
 40
2.0
 40
2.0
 40
3.0
 40
3.0
 40
3.0
 40
4.0
 40
4.0
 40
4.0
 40
5.0
 40
5.0
 40
5.0
 40
6.0
 40
6.0
 40
6.0
 40
7.0
 40
7.0
 40
7.0
 40
8.0
 40
8.0
 40
8.0
 40
9.0
 40
9.0
 40
9.0
 40
10.0
 40
10.0
 40
10.0
 40
10.0
 10
105.1277777514958
 20
-45.53908613826752
 30
0.0
 10
92.90543867468915
 20
-45.53845113827602
 30
0.0
 10
80.68309959788213
 20
-45.52680947172155
 30
0.0
 10
68.46076052107512
 20
-45.50705391637097
 30
0.0
 10
55.69514365813198
 20
-45.48641641655866
 30
0.0
 10
42.92949151742
 20
-45.45685363907692
 30
0.0
 10
30.16387465447687
 20
-45.42122308388493
 30
0.0
 10
18.57530086519074
 20
-45.38887336198108
 30
0.0
 10
6.986762353692395
 20
-45.35151419568614
 30
0.0
 10
-4.601811435600151
 20
-45.31288502938254
 30
0.0
 10
-38.2055886189235
 20
-45.20087808605919
 30
0.0
 10
-71.80933052446515
 20
-45.07828780949926
 30
0.0
 10
-105.4131429855702
 20
-44.96804475502365
 30
0.0
 10
-123.3307265943903
 20
-44.90927197782381
 30
0.0
 10
-141.2483102032102
 20
-44.85399170060032
 30
0.0
 10
-159.1659290897992
 20
-44.80047531223741
 30
0.0
 10
-228.2002020956438
 20
-44.59424142539122
 30
0.0
 10
-297.2346514903772
 20
-44.41393670493778
 30
0.0
 10
-366.2689244962282
 20
-44.22096726241966
 30
0.0
 10
-386.9068128690971
 20
-44.16328809630688
 30
0.0
 10
-407.5446659641843
 20
-44.10444476356997
 30
0.0
 10
-428.1825896148221
 20
-44.03988643086079
 30
0.0
 10
-431.0338454919955
 20
-44.03099643096053
 30
0.0
 10
-433.8851013691692
 20
-44.02196531993352
 30
0.0
 10
-436.7356869685444
 20
-43.95260920951121
 30
0.0
 10
-437.7921505959052
 20
-43.92689170975663
 30
0.0
 10
-438.84847311214
 20
-43.89291921010613
 30
0.0
 10
-439.9041606283839
 20
-43.84730504387549
 30
0.0
 10
-440.7009798072969
 20
-43.81287393311531
 30
0.0
 10
-441.49737565287
 20
-43.77181060019303
 30
0.0
 10
-442.2927131650986
 20
-43.70951004524766
 30
0.0
  0
ENDBLK
  5
A9
330
A6
100
AcDbEntity
  8
0
100
AcDbBlockEnd
  0
BLOCK
  5
AD
330
AB
100
AcDbEntity
  8
0
100
AcDbBlockBegin
  2
block 21
 70
     0
 10
0.0
 20
0.0
 30
0.0
  3
block 21
  1

  0
SPLINE
  5
AF
330
AB
100
AcDbEntity
  8
0
 62
   250
370
    25
100
AcDbSpline
210
0.0
220
0.0
230
1.0
 70
     8
 71
     3
 72
    41
 73
    37
 74
     0
 42
0.0000000001
 43
0.0000000001
 12
1.0
 22
0.0
 32
0.0
 13
1.0
 23
0.0
 33
0.0
 40
0.0
 40
0.0
 40
0.0
 40
0.0
 40
1.0
 40
1.0
 40
1.0
 40
2.0
 40
2.0
 40
2.0
 40
3.0
 40
3.0
 40
3.0
 40
4.0
 40
4.0
 40
4.0
 40
5.0
 40
5.0
 40
5.0
 40
6.0
 40
6.0
 40
6.0
 40
7.0
 40
7.0
 40
7.0
 40
8.0
 40
8.0
 40
8.0
 40
9.0
 40
9.0
 40
9.0
 40
10.0
 40
10.0
 40
10.0
 40
11.0
 40
11.0
 40
11.0
 40
12.0
 40
12.0
 40
12.0
 40
12.0
 10
-442.2927131650986
 20
-43.70951004524766
 30
0.0
 10
-443.2011512346257
 20
-42.85427088703594
 30
0.0
 10
-444.0488409698765
 20
-41.93524950723329
 30
0.0
 10
-444.8331012597096
 20
-40.96482840571634
 30
0.0
 10
-445.2072573765768
 20
-40.50184285473545
 30
0.0
 10
-445.5669848821081
 20
-40.02718035943091
 30
0.0
 10
-445.9063218317714
 20
-39.53823036427654
 30
0.0
 10
-446.198880447373
 20
-39.11673147953405
 30
0.0
 10
-446.4763048960843
 20
-38.68461398381147
 30
0.0
 10
-446.727376844396
 20
-38.23693898824322
 30
0.0
 10
-446.8974157358955
 20
-37.93379704679811
 30
0.0
 10
-447.0553543494366
 20
-37.62352899431205
 30
0.0
 10
-447.1926201848829
 20
-37.3044414974628
 30
0.0
 10
-447.3342957426137
 20
-36.97515872293673
 30
0.0
 10
-447.4539932444603
 20
-36.63649205961872
 30
0.0
 10
-447.559791301643
 20
-36.2938390074609
 30
0.0
 10
-447.7038657482888
 20
-35.8270434565079
 30
0.0
 10
-447.8221874167833
 20
-35.35291012786295
 30
0.0
 10
-447.9327479740403
 20
-34.87701291034586
 30
0.0
 10
-448.081655476323
 20
-34.23608625001881
 30
0.0
 10
-448.2165577006232
 20
-33.592019867506
 30
0.0
 10
-448.3439104803625
 20
-32.94654237388471
 30
0.0
 10
-448.7722179869446
 20
-30.77519517312897
 30
0.0
 10
-449.1146593811031
 20
-28.58779658365129
 30
0.0
 10
-449.4217171636036
 20
-26.39584716086397
 30
0.0
 10
-449.6191668888598
 20
-24.98625300813465
 30
0.0
 10
-449.8019763361161
 20
-23.5747891332013
 30
0.0
 10
-449.9791766166055
 20
-22.16261970273937
 30
0.0
 10
-450.2309541204836
 20
-20.15591388923383
 30
0.0
 10
-450.4714074575213
 20
-18.14779696464677
 30
0.0
 10
-450.7076274611441
 20
-16.13918615118084
 30
0.0
 10
-451.9786152584575
 20
-5.333144313576358
 30
0.0
 10
-453.1280711094757
 20
5.487149746108777
 30
0.0
 10
-454.1517616807704
 20
16.31929713901222
 30
0.0
 10
-458.3095653558103
 20
60.31410753736839
 30
0.0
 10
-460.3933178878387
 20
104.5049655333906
 30
0.0
 10
-460.3932473322885
 20
148.6958509350465
 30
0.0
  0
ENDBLK
  5
AE
330
AB
100
AcDbEntity
  8
0
100
AcDbBlockEnd
  0
BLOCK
  5
B2
330
B0
100
AcDbEntity
  8
0
100
AcDbBlockBegin
  2
block 22
 70
     0
 10
0.0
 20
0.0
 30
0.0
  3
block 22
  1

  0
SPLINE
  5
B4
330
B0
100
AcDbEntity
  8
0
 62
   250
370
    25
100
AcDbSpline
210
0.0
220
0.0
230
1.0
 70
     8
 71
     3
 72
    86
 73
    82
 74
     0
 42
0.0000000001
 43
0.0000000001
 12
1.0
 22
0.0
 32
0.0
 13
1.0
 23
0.0
 33
0.0
 40
0.0
 40
0.0
 40
0.0
 40
0.0
 40
1.0
 40
1.0
 40
1.0
 40
2.0
 40
2.0
 40
2.0
 40
3.0
 40
3.0
 40
3.0
 40
4.0
 40
4.0
 40
4.0
 40
5.0
 40
5.0
 40
5.0
 40
6.0
 40
6.0
 40
6.0
 40
7.0
 40
7.0
 40
7.0
 40
8.0
 40
8.0
 40
8.0
 40
9.0
 40
9.0
 40
9.0
 40
10.0
 40
10.0
 40
10.0
 40
11.0
 40
11.0
 40
11.0
 40
12.0
 40
12.0
 40
12.0
 40
13.0
 40
13.0
 40
13.0
 40
14.0
 40
14.0
 40
14.0
 40
15.0
 40
15.0
 40
15.0
 40
16.0
 40
16.0
 40
16.0
 40
17.0
 40
17.0
 40
17.0
 40
18.0
 40
18.0
 40
18.0
 40
19.0
 40
19.0
 40
19.0
 40
20.0
 40
20.0
 40
20.0
 40
21.0
 40
21.0
 40
21.0
 40
22.0
 40
22.0
 40
22.0
 40
23.0
 40
23.0
 40
23.0
 40
24.0
 40
24.0
 40
24.0
 40
25.0
 40
25.0
 40
25.0
 40
26.0
 40
26.0
 40
26.0
 40
27.0
 40
27.0
 40
27.0
 40
27.0
 10
105.1277777514958
 20
484.0469408132966
 30
0.0
 10
-8.594056496974632
 20
484.0518797022597
 30
0.0
 10
-122.3158907454454
 20
483.9281252559121
 30
0.0
 10
-236.0374427717022
 20
483.6757127520293
 30
0.0
 10
-302.3746237916339
 20
483.528463305332
 30
0.0
 10
-368.7117342560154
 20
483.3374341357165
 30
0.0
 10
-435.0487036092836
 20
483.1025899654401
 30
0.0
 10
-466.2086126994756
 20
482.9922763526348
 30
0.0
 10
-497.3684512341045
 20
482.8722966285677
 30
0.0
 10
-528.5282897687462
 20
482.7430035710218
 30
0.0
 10
-530.6778706351337
 20
482.7340782931086
 30
0.0
 10
-532.8274867793025
 20
482.725117737421
 30
0.0
 10
-534.9771029234588
 20
482.7148166261485
 30
0.0
 10
-537.0629368444196
 20
482.7048682926602
 30
0.0
 10
-539.148735487599
 20
482.6936146813754
 30
0.0
 10
-541.234498852997
 20
482.6739296810742
 30
0.0
 10
-543.6728988904872
 20
482.6509285696086
 30
0.0
 10
-546.1112283724142
 20
482.6163210690752
 30
0.0
 10
-548.5492403543454
 20
482.5637219016008
 30
0.0
 10
-552.4884981926944
 20
482.4787730114076
 30
0.0
 10
-556.4269093643624
 20
482.3469046760463
 30
0.0
 10
-560.3617574804139
 20
482.1425405062326
 30
0.0
 10
-563.7525164214303
 20
481.9664338368635
 30
0.0
 10
-567.1405942513048
 20
481.7364579999932
 30
0.0
 10
-570.5228159699795
 20
481.4386782731956
 30
0.0
 10
-573.3808804583522
 20
481.1870066026548
 30
0.0
 10
-576.2347468911306
 20
480.8868985424864
 30
0.0
 10
-579.0817694349016
 20
480.5315102036892
 30
0.0
 10
-582.5211058766724
 20
480.1021443637568
 30
0.0
 10
-585.9504939849553
 20
479.5920629670202
 30
0.0
 10
-589.3643951485445
 20
478.9932932355924
 30
0.0
 10
-592.340005194294
 20
478.4714290609057
 30
0.0
 10
-595.303867739875
 20
477.8821490518437
 30
0.0
 10
-598.2519611185237
 20
477.2223487639192
 30
0.0
 10
-601.3770783888045
 20
476.5229315309477
 30
0.0
 10
-604.4844862143595
 20
475.7442451300876
 30
0.0
 10
-607.5690693173375
 20
474.8835026168536
 30
0.0
 10
-613.4408791298353
 20
473.2449909249961
 30
0.0
 10
-619.2300683855052
 20
471.30915811745
 30
0.0
 10
-624.9000540282445
 20
469.070183360804
 30
0.0
 10
-630.1564429979516
 20
466.9945094400078
 30
0.0
 10
-635.3104205771979
 20
464.6582738485275
 30
0.0
 10
-640.3314009321683
 20
462.0643693642119
 30
0.0
 10
-645.5943515686428
 20
459.3455109890661
 30
0.0
 10
-650.7111816473205
 20
456.3435131651289
 30
0.0
 10
-655.6483772787863
 20
453.0701586703561
 30
0.0
 10
-660.4790340197216
 20
449.8674655655617
 30
0.0
 10
-665.1376763135693
 20
446.404951623436
 30
0.0
 10
-669.5973166599135
 20
442.702936844298
 30
0.0
 10
-674.1213389516887
 20
438.9474409532244
 30
0.0
 10
-678.4405737403226
 20
434.9454592250249
 30
0.0
 10
-682.5309263032054
 20
430.7218272156396
 30
0.0
 10
-686.581697198823
 20
426.5390468735465
 30
0.0
 10
-690.4080661465374
 20
422.1389201392328
 30
0.0
 10
-693.9907714794001
 20
417.5488931242242
 30
0.0
 10
-697.6345073687653
 20
412.8807258302273
 30
0.0
 10
-701.0262188097946
 20
408.0161318665442
 30
0.0
 10
-704.1537349689901
 20
402.9875667892377
 30
0.0
 10
-707.3549464071011
 20
397.8405036545353
 30
0.0
 10
-710.2793331187363
 20
392.5216024616476
 30
0.0
 10
-712.9263306594286
 20
387.0687515444774
 30
0.0
 10
-715.4907076433059
 20
381.7861159076966
 30
0.0
 10
-717.7947346231676
 20
376.3777502689924
 30
0.0
 10
-719.8534046548106
 20
370.8782974066634
 30
0.0
 10
-722.0218591326066
 20
365.0855803731517
 30
0.0
 10
-723.9181102728678
 20
359.1918277825321
 30
0.0
 10
-725.5738022427726
 20
353.2322468575732
 30
0.0
 10
-727.2999792137523
 20
347.0189481509349
 30
0.0
 10
-728.7647478473864
 20
340.7341061098649
 30
0.0
 10
-730.0218009222672
 20
334.4092943459517
 30
0.0
 10
-731.4320301106279
 20
327.3135925701787
 30
0.0
 10
-732.5808509616164
 20
320.1675141269768
 30
0.0
 10
-733.590042366025
 20
313.0035145723854
 30
0.0
 10
-733.9637045939887
 20
310.3508725871568
 30
0.0
 10
-734.3182462661057
 20
307.6957611574505
 30
0.0
 10
-734.6637215491957
 20
305.0394150055047
 30
0.0
 10
-735.7322854545152
 20
296.823114601391
 30
0.0
 10
-736.7141365807174
 20
288.5952078082237
 30
0.0
 10
-737.6117796500757
 20
280.3581287926966
 30
0.0
 10
-742.3757261122156
 20
236.6429995094564
 30
0.0
 10
-744.7682297601059
 20
192.6696368889156
 30
0.0
 10
-744.768159204556
 20
148.6958509350465
 30
0.0
  0
ENDBLK
  5
B3
330
B0
100
AcDbEntity
  8
0
100
AcDbBlockEnd
  0
BLOCK
  5
B7
330
B5
100
AcDbEntity
  8
0
100
AcDbBlockBegin
  2
block 23
 70
     0
 10
0.0
 20
0.0
 30
0.0
  3
block 23
  1

  0
SPLINE
  5
B9
330
B5
100
AcDbEntity
  8
0
 62
   250
370
    25
100
AcDbSpline
210
0.0
220
0.0
230
1.0
 70
     8
 71
     3
 72
    77
 73
    73
 74
     0
 42
0.0000000001
 43
0.0000000001
 12
1.0
 22
0.0
 32
0.0
 13
1.0
 23
0.0
 33
0.0
 40
0.0
 40
0.0
 40
0.0
 40
0.0
 40
1.0
 40
1.0
 40
1.0
 40
2.0
 40
2.0
 40
2.0
 40
3.0
 40
3.0
 40
3.0
 40
4.0
 40
4.0
 40
4.0
 40
5.0
 40
5.0
 40
5.0
 40
6.0
 40
6.0
 40
6.0
 40
7.0
 40
7.0
 40
7.0
 40
8.0
 40
8.0
 40
8.0
 40
9.0
 40
9.0
 40
9.0
 40
10.0
 40
10.0
 40
10.0
 40
11.0
 40
11.0
 40
11.0
 40
12.0
 40
12.0
 40
12.0
 40
13.0
 40
13.0
 40
13.0
 40
14.0
 40
14.0
 40
14.0
 40
15.0
 40
15.0
 40
15.0
 40
16.0
 40
16.0
 40
16.0
 40
17.0
 40
17.0
 40
17.0
 40
18.0
 40
18.0
 40
18.0
 40
19.0
 40
19.0
 40
19.0
 40
20.0
 40
20.0
 40
20.0
 40
21.0
 40
21.0
 40
21.0
 40
22.0
 40
22.0
 40
22.0
 40
23.0
 40
23.0
 40
23.0
 40
24.0
 40
24.0
 40
24.0
 40
24.0
 10
105.1277777514958
 20
484.0469408132966
 30
0.0
 10
221.319197593493
 20
484.0519855355917
 30
0.0
 10
337.5106527132722
 20
483.9226572002772
 30
0.0
 10
453.7017903330428
 20
483.6590263628852
 30
0.0
 10
522.0155147166995
 20
483.5040510827257
 30
0.0
 10
590.3290979892436
 20
483.3026149685194
 30
0.0
 10
658.6425401506725
 20
483.0547532980406
 30
0.0
 10
684.0607791525932
 20
482.9625371855134
 30
0.0
 10
709.4790181545128
 20
482.8638652395513
 30
0.0
 10
734.8972218786515
 20
482.7588432934925
 30
0.0
 10
737.786048589733
 20
482.7469194044157
 30
0.0
 10
740.6748753008159
 20
482.7349249597831
 30
0.0
 10
743.5637020118987
 20
482.7226482929356
 30
0.0
 10
744.3018189676861
 20
482.7195085706664
 30
0.0
 10
745.0399359234865
 20
482.7163688483895
 30
0.0
 10
745.7780176014933
 20
482.7128057927792
 30
0.0
 10
750.0022493331144
 20
482.6924857924615
 30
0.0
 10
754.2261635647255
 20
482.6591482919612
 30
0.0
 10
758.4496897407668
 20
482.5714830128258
 30
0.0
 10
765.8780962438676
 20
482.4172838437961
 30
0.0
 10
773.3053033025097
 20
482.0951977277242
 30
0.0
 10
780.7064048051863
 20
481.4450988288556
 30
0.0
 10
787.0474443471275
 20
480.8880979869503
 30
0.0
 10
793.3693633332097
 20
480.0903615857997
 30
0.0
 10
799.6391770407272
 20
478.9905415688868
 30
0.0
 10
805.8024871354833
 20
477.9094187744873
 30
0.0
 10
811.9154911183672
 20
476.5363723644836
 30
0.0
 10
817.9415353776769
 20
474.8504473385671
 30
0.0
 10
823.7609929671522
 20
473.222342591314
 30
0.0
 10
829.4993469442783
 20
471.3024200617885
 30
0.0
 10
835.1204375862549
 20
469.0841886388001
 30
0.0
 10
840.3771440559583
 20
467.0097494402364
 30
0.0
 10
845.5312980240993
 20
464.6744663487747
 30
0.0
 10
850.552736990191
 20
462.0817965866921
 30
0.0
 10
855.7037512360563
 20
459.4222048791446
 30
0.0
 10
860.7151360353283
 20
456.4918562229774
 30
0.0
 10
865.5550002764038
 20
453.3009811739138
 30
0.0
 10
870.7124350779208
 20
449.9007325105179
 30
0.0
 10
875.6751365431071
 20
446.2046796759179
 30
0.0
 10
880.4106138381461
 20
442.2376582260359
 30
0.0
 10
884.7058950152957
 20
438.6394306707242
 30
0.0
 10
888.8142039673504
 20
434.8182475564052
 30
0.0
 10
892.7147973606516
 20
430.7956636056748
 30
0.0
 10
896.8480829797651
 20
426.5330849290148
 30
0.0
 10
900.7481119286136
 20
422.0443051377843
 30
0.0
 10
904.3946347624526
 20
417.3584636768504
 30
0.0
 10
907.810193981634
 20
412.9694847204889
 30
0.0
 10
911.0033268084993
 20
408.4076093725594
 30
0.0
 10
913.9638026873586
 20
403.6997193001779
 30
0.0
 10
917.2490105156377
 20
398.4753978309567
 30
0.0
 10
920.2477627839726
 20
393.0712302478742
 30
0.0
 10
922.9585778256545
 20
387.5270451626328
 30
0.0
 10
925.638842311304
 20
382.0453723005792
 30
0.0
 10
928.0376606815157
 20
376.4267863808558
 30
0.0
 10
930.1717193254419
 20
370.7102340707445
 30
0.0
 10
932.3144563028357
 20
364.9705395380478
 30
0.0
 10
934.1902816094465
 20
359.1320672260628
 30
0.0
 10
935.8302749679951
 20
353.2290013019643
 30
0.0
 10
937.5354969386666
 20
347.0912323187035
 30
0.0
 10
938.98573112762
 20
340.8836838899337
 30
0.0
 10
940.2319186467806
 20
334.6366596272373
 30
0.0
 10
941.54139450026
 20
328.0723823040739
 30
0.0
 10
942.6255511835917
 20
321.4645369247069
 30
0.0
 10
943.5834134205403
 20
314.8394759895054
 30
0.0
 10
944.2277620415539
 20
310.3829048098747
 30
0.0
 10
944.8149253839205
 20
305.9185725190191
 30
0.0
 10
945.3792287259288
 20
301.451276894776
 30
0.0
 10
946.0265054025419
 20
296.3270384826575
 30
0.0
 10
946.6436901342564
 20
291.1989195149201
 30
0.0
 10
947.2280312543554
 20
286.0670963804661
 30
0.0
 10
952.419897167506
 20
240.4730726239008
 30
0.0
 10
955.0228680408667
 20
194.5844441405833
 30
0.0
 10
955.0237147075477
 20
148.6958509350465
 30
0.0
  0
ENDBLK
  5
B8
330
B5
100
AcDbEntity
  8
0
100
AcDbBlockEnd
  0
BLOCK
  5
BC
330
BA
100
AcDbEntity
  8
0
100
AcDbBlockBegin
  2
block 24
 70
     0
 10
0.0
 20
0.0
 30
0.0
  3
block 24
  1

  0
SPLINE
  5
BE
330
BA
100
AcDbEntity
  8
0
 62
   250
370
    25
100
AcDbSpline
210
0.0
220
0.0
230
1.0
 70
     8
 71
     3
 72
    95
 73
    91
 74
     0
 42
0.0000000001
 43
0.0000000001
 12
1.0
 22
0.0
 32
0.0
 13
1.0
 23
0.0
 33
0.0
 40
0.0
 40
0.0
 40
0.0
 40
0.0
 40
1.0
 40
1.0
 40
1.0
 40
2.0
 40
2.0
 40
2.0
 40
3.0
 40
3.0
 40
3.0
 40
4.0
 40
4.0
 40
4.0
 40
5.0
 40
5.0
 40
5.0
 40
6.0
 40
6.0
 40
6.0
 40
7.0
 40
7.0
 40
7.0
 40
8.0
 40
8.0
 40
8.0
 40
9.0
 40
9.0
 40
9.0
 40
10.0
 40
10.0
 40
10.0
 40
11.0
 40
11.0
 40
11.0
 40
12.0
 40
12.0
 40
12.0
 40
13.0
 40
13.0
 40
13.0
 40
14.0
 40
14.0
 40
14.0
 40
15.0
 40
15.0
 40
15.0
 40
16.0
 40
16.0
 40
16.0
 40
17.0
 40
17.0
 40
17.0
 40
18.0
 40
18.0
 40
18.0
 40
19.0
 40
19.0
 40
19.0
 40
20.0
 40
20.0
 40
20.0
 40
21.0
 40
21.0
 40
21.0
 40
22.0
 40
22.0
 40
22.0
 40
23.0
 40
23.0
 40
23.0
 40
24.0
 40
24.0
 40
24.0
 40
25.0
 40
25.0
 40
25.0
 40
26.0
 40
26.0
 40
26.0
 40
27.0
 40
27.0
 40
27.0
 40
28.0
 40
28.0
 40
28.0
 40
29.0
 40
29.0
 40
29.0
 40
30.0
 40
30.0
 40
30.0
 40
30.0
 10
105.1277777514958
 20
-186.6552758541468
 30
0.0
 10
223.9618206896828
 20
-186.6604264096518
 30
0.0
 10
342.7958636278703
 20
-186.5250655776568
 30
0.0
 10
461.6295890660493
 20
-186.2492286359425
 30
0.0
 10
528.6971964860954
 20
-186.0935125263745
 30
0.0
 10
595.7646980728211
 20
-185.893099472794
 30
0.0
 10
662.8320232706534
 20
-185.6478130863307
 30
0.0
 10
687.5618164286519
 20
-185.557360865012
 30
0.0
 10
712.2915743088697
 20
-185.4608055881896
 30
0.0
 10
737.0213321890875
 20
-185.3588880891855
 30
0.0
 10
739.9262455670863
 20
-185.3468936448674
 30
0.0
 10
742.8311942228529
 20
-185.3348639227544
 30
0.0
 10
745.7361076008505
 20
-185.3205058673406
 30
0.0
 10
747.6292895744103
 20
-185.3111572563178
 30
0.0
 10
749.5225068257407
 20
-185.3008561453091
 30
0.0
 10
751.415618243725
 20
-185.2832172566084
 30
0.0
 10
753.6655291116537
 20
-185.2622622568003
 30
0.0
 10
755.9153694240323
 20
-185.2310061460092
 30
0.0
 10
758.1648922363896
 20
-185.1852508686775
 30
0.0
 10
761.2017092275246
 20
-185.1235147581853
 30
0.0
 10
764.2380323297691
 20
-185.0353203146047
 30
0.0
 10
767.2728384875348
 20
-184.9078617047548
 30
0.0
 10
771.6851360553763
 20
-184.7225475399231
 30
0.0
 10
776.094223345391
 20
-184.4541542092468
 30
0.0
 10
780.4937856352573
 20
-184.0717783796842
 30
0.0
 10
783.6275459612116
 20
-183.7993986601527
 30
0.0
 10
786.7564732315425
 20
-183.4691633856522
 30
0.0
 10
789.8768985573
 20
-183.0718650562482
 30
0.0
 10
793.1350483296121
 20
-182.6570689492319
 30
0.0
 10
796.3839553240146
 20
-182.1691772873954
 30
0.0
 10
799.618998151524
 20
-181.6017695152149
 30
0.0
 10
802.5385165297521
 20
-181.0896772980655
 30
0.0
 10
805.4467812966774
 20
-180.5128503593251
 30
0.0
 10
808.3399118967254
 20
-179.8681489768092
 30
0.0
 10
811.5022472231251
 20
-179.1634048171105
 30
0.0
 10
814.6465203270216
 20
-178.3775923248839
 30
0.0
 10
817.7674748194507
 20
-177.5077834445945
 30
0.0
 10
823.7378154667977
 20
-175.8438365165928
 30
0.0
 10
829.6228897239563
 20
-173.8726201471922
 30
0.0
 10
835.3842448125287
 20
-171.5879960031186
 30
0.0
 10
840.9918593431938
 20
-169.3642965806626
 30
0.0
 10
846.4822458164917
 20
-166.8437346611484
 30
0.0
 10
851.8183272874261
 20
-164.0300849667404
 30
0.0
 10
857.0613812569234
 20
-161.2654361051818
 30
0.0
 10
862.1554218908057
 20
-158.21785946865
 30
0.0
 10
867.06711168854
 20
-154.9000197792249
 30
0.0
 10
871.8186403727128
 20
-151.6904123109703
 30
0.0
 10
876.3994951653573
 20
-148.2279337340902
 30
0.0
 10
880.7838880105519
 20
-144.5325159928426
 30
0.0
 10
885.1747366891688
 20
-140.8316654738762
 30
0.0
 10
889.3685589758699
 20
-136.897205512783
 30
0.0
 10
893.3430945925434
 20
-132.7525252759769
 30
0.0
 10
897.4283671553446
 20
-128.4923808736646
 30
0.0
 10
901.2819705479329
 20
-124.0101275846416
 30
0.0
 10
904.8843608810965
 20
-119.3345167975395
 30
0.0
 10
908.1685103760315
 20
-115.07193822857
 30
0.0
 10
911.2438154233187
 20
-110.6486693834222
 30
0.0
 10
914.1013154672506
 20
-106.0891224840498
 30
0.0
 10
917.2733874604626
 20
-101.0276080896537
 30
0.0
 10
920.1770308384398
 20
-95.79820675246268
 30
0.0
 10
922.8108344900483
 20
-90.43693708325301
 30
0.0
 10
925.5379125875268
 20
-84.88590824923651
 30
0.0
 10
927.9756776250131
 20
-79.19352136107746
 30
0.0
 10
930.1412746027535
 20
-73.4002753072463
 30
0.0
 10
932.2069296345102
 20
-67.87436425076078
 30
0.0
 10
934.0249699402402
 20
-62.25669569519416
 30
0.0
 10
935.623018020364
 20
-56.57796130689472
 30
0.0
 10
937.3307447132952
 20
-50.50944275579081
 30
0.0
 10
938.7872583467882
 20
-44.37121531648684
 30
0.0
 10
940.0411364216367
 20
-38.19294759979773
 30
0.0
 10
941.3925575535269
 20
-31.53416127673328
 30
0.0
 10
942.5085700706811
 20
-24.82887884303935
 30
0.0
 10
943.4881986968495
 20
-18.10546363172865
 30
0.0
 10
943.7723612012237
 20
-16.15520226212206
 30
0.0
 10
944.0450584276288
 20
-14.2034239480892
 30
0.0
 10
944.3097828761463
 20
-12.25034035629262
 30
0.0
 10
944.4547745450483
 20
-11.18057703353111
 30
0.0
 10
944.5974026027917
 20
-10.11039037744193
 30
0.0
 10
944.7379845493967
 20
-9.04006261025295
 30
0.0
 10
944.8089281616074
 20
-8.5000656711492
 30
0.0
 10
944.8793073293507
 20
-7.960033454263437
 30
0.0
 10
944.9492984415357
 20
-7.419930681814936
 30
0.0
 10
944.9842587198525
 20
-7.149949851148291
 30
0.0
 10
945.0191484426066
 20
-6.879933742711185
 30
0.0
 10
945.0539323320417
 20
-6.609917634275363
 30
0.0
 10
945.7514798427584
 20
-1.195202132265522
 30
0.0
 10
946.4129734640442
 20
4.224170036396139
 30
0.0
 10
947.0378487514197
 20
9.647775538306234
 30
0.0
 10
952.3547038331766
 20
55.79368369317587
 30
0.0
 10
955.0235030408711
 20
102.2446124430891
 30
0.0
 10
955.0237147075477
 20
148.6958509350465
 30
0.0
  0
ENDBLK
  5
BD
330
BA
100
AcDbEntity
  8
0
100
AcDbBlockEnd
  0
BLOCK
  5
C1
330
BF
100
AcDbEntity
  8
0
100
AcDbBlockBegin
  2
block 25
 70
     0
 10
0.0
 20
0.0
 30
0.0
  3
block 25
  1

  0
SPLINE
  5
C3
330
BF
100
AcDbEntity
  8
0
 62
   250
370
    25
100
AcDbSpline
210
0.0
220
0.0
230
1.0
 70
     8
 71
     3
 72
    77
 73
    73
 74
     0
 42
0.0000000001
 43
0.0000000001
 12
1.0
 22
0.0
 32
0.0
 13
1.0
 23
0.0
 33
0.0
 40
0.0
 40
0.0
 40
0.0
 40
0.0
 40
1.0
 40
1.0
 40
1.0
 40
2.0
 40
2.0
 40
2.0
 40
3.0
 40
3.0
 40
3.0
 40
4.0
 40
4.0
 40
4.0
 40
5.0
 40
5.0
 40
5.0
 40
6.0
 40
6.0
 40
6.0
 40
7.0
 40
7.0
 40
7.0
 40
8.0
 40
8.0
 40
8.0
 40
9.0
 40
9.0
 40
9.0
 40
10.0
 40
10.0
 40
10.0
 40
11.0
 40
11.0
 40
11.0
 40
12.0
 40
12.0
 40
12.0
 40
13.0
 40
13.0
 40
13.0
 40
14.0
 40
14.0
 40
14.0
 40
15.0
 40
15.0
 40
15.0
 40
16.0
 40
16.0
 40
16.0
 40
17.0
 40
17.0
 40
17.0
 40
18.0
 40
18.0
 40
18.0
 40
19.0
 40
19.0
 40
19.0
 40
20.0
 40
20.0
 40
20.0
 40
21.0
 40
21.0
 40
21.0
 40
22.0
 40
22.0
 40
22.0
 40
23.0
 40
23.0
 40
23.0
 40
24.0
 40
24.0
 40
24.0
 40
24.0
 10
105.1277777514958
 20
-186.6552758541468
 30
0.0
 10
-11.06364209050165
 20
-186.6603205763199
 30
0.0
 10
-127.2550972102808
 20
-186.5309922442659
 30
0.0
 10
-243.4462348300517
 20
-186.2673614135477
 30
0.0
 10
-311.7599592137085
 20
-186.1123508595199
 30
0.0
 10
-380.0735424862644
 20
-185.9109500281714
 30
0.0
 10
-448.3869846476815
 20
-185.6630883639626
 30
0.0
 10
-473.8052236496013
 20
-185.570836975977
 30
0.0
 10
-499.2234626515211
 20
-185.4722003102854
 30
0.0
 10
-524.6416663756595
 20
-185.3671783668904
 30
0.0
 10
-527.530493086742
 20
-185.3552544781081
 30
0.0
 10
-530.4193197978242
 20
-185.3432247560079
 30
0.0
 10
-533.3081465089067
 20
-185.3309833672452
 30
0.0
 10
-534.0462634646944
 20
-185.3278436450582
 30
0.0
 10
-534.7843804204952
 20
-185.3246686450763
 30
0.0
 10
-535.5224620985016
 20
-185.3211408673321
 30
0.0
 10
-539.746693830122
 20
-185.3008208675399
 30
0.0
 10
-543.9706080617345
 20
-185.267448090086
 30
0.0
 10
-548.1941342377879
 20
-185.1797828131895
 30
0.0
 10
-555.6225407408754
 20
-185.0256189258183
 30
0.0
 10
-563.0497477995187
 20
-184.7035328178831
 30
0.0
 10
-570.4508493021939
 20
-184.0534339354293
 30
0.0
 10
-576.7918888441361
 20
-183.4964331076022
 30
0.0
 10
-583.113807830218
 20
-182.6986967265958
 30
0.0
 10
-589.3836215377361
 20
-181.5988767374737
 30
0.0
 10
-595.5469316324916
 20
-180.5177186926035
 30
0.0
 10
-601.6599356153694
 20
-179.1447075950778
 30
0.0
 10
-607.6859798746847
 20
-177.4587826117451
 30
0.0
 10
-613.5054374641605
 20
-175.83064262783
 30
0.0
 10
-619.2437914412872
 20
-173.9107201468234
 30
0.0
 10
-624.8648820832632
 20
-171.6925240576502
 30
0.0
 10
-630.1215885529659
 20
-169.6180849114947
 30
0.0
 10
-635.2757425211073
 20
-167.2827666012353
 30
0.0
 10
-640.2971814871999
 20
-164.6900969046445
 30
0.0
 10
-645.4481957330646
 20
-162.0305405420707
 30
0.0
 10
-650.4595805323364
 20
-159.1001566821492
 30
0.0
 10
-655.2994447734114
 20
-155.9092817136952
 30
0.0
 10
-660.4568795749298
 20
-152.5090331362092
 30
0.0
 10
-665.4195810401152
 20
-148.8129803949714
 30
0.0
 10
-670.1550583351548
 20
-144.8459943230784
 30
0.0
 10
-674.4503395123046
 20
-141.2477315808756
 30
0.0
 10
-678.5586484643587
 20
-137.426583840881
 30
0.0
 10
-682.4592418576595
 20
-133.4039647139752
 30
0.0
 10
-686.592527476774
 20
-129.1413861450186
 30
0.0
 10
-690.4925564256216
 20
-124.652606467177
 30
0.0
 10
-694.1390792594606
 20
-119.966800402398
 30
0.0
 10
-697.554638478642
 20
-115.5778215568965
 30
0.0
 10
-700.747736027739
 20
-111.015946324236
 30
0.0
 10
-703.7082119065855
 20
-106.3080563707799
 30
0.0
 10
-706.9934550126588
 20
-101.083699755762
 30
0.0
 10
-709.9922072809815
 20
-95.6795675869631
 30
0.0
 10
-712.7030223226635
 20
-90.13538264178538
 30
0.0
 10
-715.3832868083123
 20
-84.65367464042329
 30
0.0
 10
-717.7821051785246
 20
-79.03512414043217
 30
0.0
 10
-719.9161638224499
 20
-73.31857197471528
 30
0.0
 10
-722.0589007998433
 20
-67.57884230924704
 30
0.0
 10
-723.9347261064555
 20
-61.74037014475785
 30
0.0
 10
-725.5747194650163
 20
-55.8373043697903
 30
0.0
 10
-727.2799414356749
 20
-49.69957081935105
 30
0.0
 10
-728.7301756246277
 20
-43.49198726961193
 30
0.0
 10
-729.9763631437893
 20
-37.24499844250356
 30
0.0
 10
-731.285838997262
 20
-30.68068600739368
 30
0.0
 10
-732.3699956805993
 20
-24.07284079494541
 30
0.0
 10
-733.3278579175486
 20
-17.4478153048933
 30
0.0
 10
-733.9721712607936
 20
-12.99124423785444
 30
0.0
 10
-734.5593698809284
 20
-8.526876781978006
 30
0.0
 10
-735.1236732229365
 20
-4.059616548383475
 30
0.0
 10
-735.7709498995499
 20
1.06462173428444
 30
0.0
 10
-736.3881346312647
 20
6.192740572475645
 30
0.0
 10
-736.9724757513634
 20
11.32456357728137
 30
0.0
 10
-742.1643416645139
 20
56.91858618205978
 30
0.0
 10
-744.767312537875
 20
102.807222451729
 30
0.0
 10
-744.768159204556
 20
148.6958509350465
 30
0.0
  0
ENDBLK
  5
C2
330
BF
100
AcDbEntity
  8
0
100
AcDbBlockEnd
  0
BLOCK
  5
C6
330
C4
100
AcDbEntity
  8
0
100
AcDbBlockBegin
  2
block 26
 70
     0
 10
0.0
 20
0.0
 30
0.0
  3
block 26
  1

  0
SPLINE
  5
C8
330
C4
100
AcDbEntity
  8
0
 62
   250
370
    25
100
AcDbSpline
210
0.0
220
0.0
230
1.0
 70
     8
 71
     3
 72
    41
 73
    37
 74
     0
 42
0.0000000001
 43
0.0000000001
 12
1.0
 22
0.0
 32
0.0
 13
1.0
 23
0.0
 33
0.0
 40
0.0
 40
0.0
 40
0.0
 40
0.0
 40
1.0
 40
1.0
 40
1.0
 40
2.0
 40
2.0
 40
2.0
 40
3.0
 40
3.0
 40
3.0
 40
4.0
 40
4.0
 40
4.0
 40
5.0
 40
5.0
 40
5.0
 40
6.0
 40
6.0
 40
6.0
 40
7.0
 40
7.0
 40
7.0
 40
8.0
 40
8.0
 40
8.0
 40
9.0
 40
9.0
 40
9.0
 40
10.0
 40
10.0
 40
10.0
 40
11.0
 40
11.0
 40
11.0
 40
12.0
 40
12.0
 40
12.0
 40
12.0
 10
-442.2927131650986
 20
341.1011713932804
 30
0.0
 10
-441.5055953752162
 20
341.1651652831458
 30
0.0
 10
-440.7173134186577
 20
341.2045705615353
 30
0.0
 10
-439.9286786843092
 20
341.238225562057
 30
0.0
 10
-438.8961686684327
 20
341.2823227849574
 30
0.0
 10
-437.8629883747708
 20
341.3166480632584
 30
0.0
 10
-436.829737525552
 20
341.3425772303236
 30
0.0
 10
-434.0334444269985
 20
341.4127800091916
 30
0.0
 10
-431.2364104951158
 20
341.4217052870985
 30
0.0
 10
-428.4393765632139
 20
341.4305247316734
 30
0.0
 10
-407.0634417901138
 20
341.4979758438237
 30
0.0
 10
-385.6876128503457
 20
341.5585830669798
 30
0.0
 10
-364.3117486328089
 20
341.618167234561
 30
0.0
 10
-318.8313193224324
 20
341.7449908476215
 30
0.0
 10
-273.3508194565053
 20
341.86729890506
 30
0.0
 10
-227.8703901461289
 20
341.9938755736689
 30
0.0
 10
-205.7794806398203
 20
342.0554000190695
 30
0.0
 10
-183.6886064112805
 20
342.1179122422431
 30
0.0
 10
-161.5977321827407
 20
342.1842697432742
 30
0.0
 10
-150.8936075737284
 20
342.216407799317
 30
0.0
 10
-140.1894829647029
 20
342.2494630776035
 30
0.0
 10
-129.4853583556777
 20
342.2831180781188
 30
0.0
 10
-118.1431292924104
 20
342.3188191897783
 30
0.0
 10
-106.8009002291303
 20
342.3551905792229
 30
0.0
 10
-95.45867116584414
 20
342.3927614131384
 30
0.0
 10
-90.03450108245825
 20
342.4107530800847
 30
0.0
 10
-84.61033099906597
 20
342.4289916914761
 30
0.0
 10
-79.18616091566084
 20
342.4474772473135
 30
0.0
 10
-54.92143470926635
 20
342.5302036374736
 30
0.0
 10
-30.65670850285904
 20
342.617621972151
 30
0.0
 10
-6.391982296451728
 20
342.6987961400636
 30
0.0
 10
5.209750104149798
 20
342.7376369739994
 30
0.0
 10
16.81148250473849
 20
342.7749961412517
 30
0.0
 10
28.41321490534034
 20
342.8077339195162
 30
0.0
 10
53.98530029851241
 20
342.8798416984023
 30
0.0
 10
79.55749152501672
 20
342.9292658658307
 30
0.0
 10
105.1296827515204
 20
342.9307475325218
 30
0.0
  0
ENDBLK
  5
C7
330
C4
100
AcDbEntity
  8
0
100
AcDbBlockEnd
  0
BLOCK
  5
CB
330
C9
100
AcDbEntity
  8
0
100
AcDbBlockBegin
  2
block 27
 70
     0
 10
0.0
 20
0.0
 30
0.0
  3
block 27
  1

  0
POLYLINE
  5
CD
330
C9
100
AcDbEntity
  8
0
 62
   250
370
    25
100
AcDb2dPolyline
 66
     1
 10
0.0
 20
0.0
 30
0.0
  0
VERTEX
  5
CE
330
CD
100
AcDbEntity
  8
0
 62
   250
370
    25
100
AcDbVertex
100
AcDb2dVertex
 10
-444.7939845026389
 20
338.4048438130139
 30
0.0
  0
VERTEX
  5
CF
330
CD
100
AcDbEntity
  8
0
 62
   250
370
    25
100
AcDbVertex
100
AcDb2dVertex
 10
-665.4924288591587
 20
445.9473893906303
 30
0.0
  0
SEQEND
  5
D0
330
CD
100
AcDbEntity
  8
0
 62
   250
370
    25
  0
ENDBLK
  5
CC
330
C9
100
AcDbEntity
  8
0
100
AcDbBlockEnd
  0
BLOCK
  5
D3
330
D1
100
AcDbEntity
  8
0
100
AcDbBlockBegin
  2
block 28
 70
     0
 10
0.0
 20
0.0
 30
0.0
  3
block 28
  1

  0
SPLINE
  5
D5
330
D1
100
AcDbEntity
  8
0
 62
   250
370
    25
100
AcDbSpline
210
0.0
220
0.0
230
1.0
 70
     8
 71
     3
 72
     8
 73
     4
 74
     0
 42
0.0000000001
 43
0.0000000001
 12
1.0
 22
0.0
 32
0.0
 13
1.0
 23
0.0
 33
0.0
 40
0.0
 40
0.0
 40
0.0
 40
0.0
 40
1.0
 40
1.0
 40
1.0
 40
1.0
 10
-444.8331012597096
 20
-40.96482840571634
 30
0.0
 10
-449.6491543820817
 20
-44.21608589634796
 30
0.0
 10
-640.2971814871999
 20
-164.6900969046445
 30
0.0
 10
-640.2971814871999
 20
-164.6900969046445
 30
0.0
  0
ENDBLK
  5
D4
330
D1
100
AcDbEntity
  8
0
100
AcDbBlockEnd
  0
BLOCK
  5
D8
330
D6
100
AcDbEntity
  8
0
100
AcDbBlockBegin
  2
block 29
 70
     0
 10
0.0
 20
0.0
 30
0.0
  3
block 29
  1

  0
POLYLINE
  5
DA
330
D6
100
AcDbEntity
  8
0
 62
   250
370
    25
100
AcDb2dPolyline
 66
     1
 10
0.0
 20
0.0
 30
0.0
  0
VERTEX
  5
DB
330
DA
100
AcDbEntity
  8
0
 62
   250
370
    25
100
AcDbVertex
100
AcDb2dVertex
 10
656.2279526135535
 20
336.9524693850431
 30
0.0
  0
VERTEX
  5
DC
330
DA
100
AcDbEntity
  8
0
 62
   250
370
    25
100
AcDbVertex
100
AcDb2dVertex
 10
872.6556076667172
 20
448.3343485327126
 30
0.0
  0
SEQEND
  5
DD
330
DA
100
AcDbEntity
  8
0
 62
   250
370
    25
  0
ENDBLK
  5
D9
330
D6
100
AcDbEntity
  8
0
100
AcDbBlockEnd
  0
BLOCK
  5
E0
330
DE
100
AcDbEntity
  8
0
100
AcDbBlockBegin
  2
block 30
 70
     0
 10
0.0
 20
0.0
 30
0.0
  3
block 30
  1

  0
POLYLINE
  5
E2
330
DE
100
AcDbEntity
  8
0
 62
   250
370
    25
100
AcDb2dPolyline
 66
     1
 10
0.0
 20
0.0
 30
0.0
  0
VERTEX
  5
E3
330
E2
100
AcDbEntity
  8
0
 62
   250
370
    25
100
AcDbVertex
100
AcDb2dVertex
 10
655.1546262081604
 20
-40.98758257216571
 30
0.0
  0
VERTEX
  5
E4
330
E2
100
AcDbEntity
  8
0
 62
   250
370
    25
100
AcDbVertex
100
AcDb2dVertex
 10
880.7838880105519
 20
-144.5325159928426
 30
0.0
  0
SEQEND
  5
E5
330
E2
100
AcDbEntity
  8
0
 62
   250
370
    25
  0
ENDBLK
  5
E1
330
DE
100
AcDbEntity
  8
0
100
AcDbBlockEnd
  0
BLOCK
  5
E8
330
E6
100
AcDbEntity
  8
0
100
AcDbBlockBegin
  2
block 31
 70
     0
 10
0.0
 20
0.0
 30
0.0
  3
block 31
  1

  0
SPLINE
  5
EA
330
E6
100
AcDbEntity
  8
0
 62
   250
370
    25
100
AcDbSpline
210
0.0
220
0.0
230
1.0
 70
     8
 71
     3
 72
    11
 73
     7
 74
     0
 42
0.0000000001
 43
0.0000000001
 12
1.0
 22
0.0
 32
0.0
 13
1.0
 23
0.0
 33
0.0
 40
0.0
 40
0.0
 40
0.0
 40
0.0
 40
1.0
 40
1.0
 40
1.0
 40
2.0
 40
2.0
 40
2.0
 40
2.0
 10
117.9308355489115
 20
125.4470384141864
 30
0.0
 10
105.3292590795983
 20
118.5627558409625
 30
0.0
 10
89.53285612666745
 20
123.1975507087267
 30
0.0
 10
82.64860865731873
 20
135.7990915819238
 30
0.0
 10
75.76432591017549
 20
148.4006677328973
 30
0.0
 10
80.39912089502951
 20
164.1970795310215
 30
0.0
 10
93.0006973643434
 20
171.0813270003766
 30
0.0
  0
ENDBLK
  5
E9
330
E6
100
AcDbEntity
  8
0
100
AcDbBlockEnd
  0
BLOCK
  5
ED
330
EB
100
AcDbEntity
  8
0
100
AcDbBlockBegin
  2
block 32
 70
     0
 10
0.0
 20
0.0
 30
0.0
  3
block 32
  1

  0
SPLINE
  5
EF
330
EB
100
AcDbEntity
  8
0
 62
   250
370
    25
100
AcDbSpline
210
0.0
220
0.0
230
1.0
 70
     8
 71
     3
 72
    11
 73
     7
 74
     0
 42
0.0000000001
 43
0.0000000001
 12
1.0
 22
0.0
 32
0.0
 13
1.0
 23
0.0
 33
0.0
 40
0.0
 40
0.0
 40
0.0
 40
0.0
 40
1.0
 40
1.0
 40
1.0
 40
2.0
 40
2.0
 40
2.0
 40
2.0
 10
93.0006973643434
 20
171.0813270003766
 30
0.0
 10
105.6022385558749
 20
177.9656097475138
 30
0.0
 10
121.3986415088055
 20
173.3308147626587
 30
0.0
 10
128.2828889781671
 20
160.7292382933455
 30
0.0
 10
135.1671717252978
 20
148.1276882635189
 30
0.0
 10
130.5323767404434
 20
132.3312857096347
 30
0.0
 10
117.9308355489115
 20
125.4470384141864
 30
0.0
  0
ENDBLK
  5
EE
330
EB
100
AcDbEntity
  8
0
100
AcDbBlockEnd
  0
BLOCK
  5
F2
330
F0
100
AcDbEntity
  8
0
100
AcDbBlockBegin
  2
block 33
 70
     0
 10
0.0
 20
0.0
 30
0.0
  3
block 33
  1

  0
SPLINE
  5
F4
330
F0
100
AcDbEntity
  8
0
 62
   250
370
    25
100
AcDbSpline
210
0.0
220
0.0
230
1.0
 70
     8
 71
     3
 72
    11
 73
     7
 74
     0
 42
0.0000000001
 43
0.0000000001
 12
1.0
 22
0.0
 32
0.0
 13
1.0
 23
0.0
 33
0.0
 40
0.0
 40
0.0
 40
0.0
 40
0.0
 40
1.0
 40
1.0
 40
1.0
 40
2.0
 40
2.0
 40
2.0
 40
2.0
 10
84.23416856440076
 20
187.1283433158823
 30
0.0
 10
105.6982646781794
 20
198.854219405296
 30
0.0
 10
132.6040292042204
 20
190.9598279292716
 30
0.0
 10
144.329905293647
 20
169.4957670932818
 30
0.0
 10
156.0557813830865
 20
148.031662143633
 30
0.0
 10
148.1614251848499
 20
121.1258982972924
 30
0.0
 10
126.6973290710722
 20
109.4000225040934
 30
0.0
  0
ENDBLK
  5
F3
330
F0
100
AcDbEntity
  8
0
100
AcDbBlockEnd
  0
BLOCK
  5
F7
330
F5
100
AcDbEntity
  8
0
100
AcDbBlockBegin
  2
block 34
 70
     0
 10
0.0
 20
0.0
 30
0.0
  3
block 34
  1

  0
SPLINE
  5
F9
330
F5
100
AcDbEntity
  8
0
 62
   250
370
    25
100
AcDbSpline
210
0.0
220
0.0
230
1.0
 70
     8
 71
     3
 72
    11
 73
     7
 74
     0
 42
0.0000000001
 43
0.0000000001
 12
1.0
 22
0.0
 32
0.0
 13
1.0
 23
0.0
 33
0.0
 40
0.0
 40
0.0
 40
0.0
 40
0.0
 40
1.0
 40
1.0
 40
1.0
 40
2.0
 40
2.0
 40
2.0
 40
2.0
 10
126.6973290710722
 20
109.4000225040934
 30
0.0
 10
105.2332682350752
 20
97.67414671087502
 30
0.0
 10
78.32750370903389
 20
105.5685027096844
 30
0.0
 10
66.6015923418256
 20
127.0325982812264
 30
0.0
 10
54.87571625238615
 20
148.4966585749941
 30
0.0
 10
62.77010772841729
 20
175.4024672264364
 30
0.0
 10
84.23416856440076
 20
187.1283433158823
 30
0.0
  0
ENDBLK
  5
F8
330
F5
100
AcDbEntity
  8
0
100
AcDbBlockEnd
  0
BLOCK
  5
FC
330
FA
100
AcDbEntity
  8
0
100
AcDbBlockBegin
  2
block 35
 70
     0
 10
0.0
 20
0.0
 30
0.0
  3
block 35
  1

  0
POLYLINE
  5
FE
330
FA
100
AcDbEntity
  8
0
 62
     4
370
    25
100
AcDb2dPolyline
 66
     1
 10
0.0
 20
0.0
 30
0.0
  0
VERTEX
  5
FF
330
FE
100
AcDbEntity
  8
0
 62
     4
370
    25
100
AcDbVertex
100
AcDb2dVertex
 10
171.2189388352464
 20
148.6377377897176
 30
0.0
  0
VERTEX
  5
100
330
FE
100
AcDbEntity
  8
0
 62
     4
370
    25
100
AcDbVertex
100
AcDb2dVertex
 10
159.9688503370824
 20
148.6377377897176
 30
0.0
  0
SEQEND
  5
101
330
FE
100
AcDbEntity
  8
0
 62
     4
370
    25
  0
ENDBLK
  5
FD
330
FA
100
AcDbEntity
  8
0
100
AcDbBlockEnd
  0
BLOCK
  5
104
330
102
100
AcDbEntity
  8
0
100
AcDbBlockBegin
  2
block 36
 70
     0
 10
0.0
 20
0.0
 30
0.0
  3
block 36
  1

  0
POLYLINE
  5
106
330
102
100
AcDbEntity
  8
0
  6
AI-Linetype-1
 62
     4
370
    25
100
AcDb2dPolyline
 66
     1
 10
0.0
 20
0.0
 30
0.0
  0
VERTEX
  5
107
330
106
100
AcDbEntity
  8
0
  6
AI-Linetype-1
 62
     4
370
    25
100
AcDbVertex
100
AcDb2dVertex
 10
156.3947575577567
 20
148.6377377897176
 30
0.0
  0
VERTEX
  5
108
330
106
100
AcDbEntity
  8
0
  6
AI-Linetype-1
 62
     4
370
    25
100
AcDbVertex
100
AcDb2dVertex
 10
151.0335968569214
 20
148.6377377897176
 30
0.0
  0
SEQEND
  5
10A
330
106
100
AcDbEntity
  8
0
  6
AI-Linetype-1
 62
     4
370
    25
  0
ENDBLK
  5
105
330
102
100
AcDbEntity
  8
0
100
AcDbBlockEnd
  0
BLOCK
  5
10D
330
10B
100
AcDbEntity
  8
0
100
AcDbBlockBegin
  2
block 37
 70
     0
 10
0.0
 20
0.0
 30
0.0
  3
block 37
  1

  0
POLYLINE
  5
10F
330
10B
100
AcDbEntity
  8
0
  6
AI-Linetype-2
 62
     4
370
    25
100
AcDb2dPolyline
 66
     1
 10
0.0
 20
0.0
 30
0.0
  0
VERTEX
  5
110
330
10F
100
AcDbEntity
  8
0
  6
AI-Linetype-2
 62
     4
370
    25
100
AcDbVertex
100
AcDb2dVertex
 10
149.2465504672586
 20
148.6377377897176
 30
0.0
  0
VERTEX
  5
111
330
10F
100
AcDbEntity
  8
0
  6
AI-Linetype-2
 62
     4
370
    25
100
AcDbVertex
100
AcDb2dVertex
 10
54.53247815749559
 20
148.6377377897176
 30
0.0
  0
SEQEND
  5
113
330
10F
100
AcDbEntity
  8
0
  6
AI-Linetype-2
 62
     4
370
    25
  0
ENDBLK
  5
10E
330
10B
100
AcDbEntity
  8
0
100
AcDbBlockEnd
  0
BLOCK
  5
116
330
114
100
AcDbEntity
  8
0
100
AcDbBlockBegin
  2
block 38
 70
     0
 10
0.0
 20
0.0
 30
0.0
  3
block 38
  1

  0
POLYLINE
  5
118
330
114
100
AcDbEntity
  8
0
 62
     4
370
    25
100
AcDb2dPolyline
 66
     1
 10
0.0
 20
0.0
 30
0.0
  0
VERTEX
  5
119
330
118
100
AcDbEntity
  8
0
 62
     4
370
    25
100
AcDbVertex
100
AcDb2dVertex
 10
52.74543176783276
 20
148.6377377897176
 30
0.0
  0
VERTEX
  5
11A
330
118
100
AcDbEntity
  8
0
 62
     4
370
    25
100
AcDbVertex
100
AcDb2dVertex
 10
41.49534865263041
 20
148.6377377897176
 30
0.0
  0
SEQEND
  5
11B
330
118
100
AcDbEntity
  8
0
 62
     4
370
    25
  0
ENDBLK
  5
117
330
114
100
AcDbEntity
  8
0
100
AcDbBlockEnd
  0
BLOCK
  5
11E
330
11C
100
AcDbEntity
  8
0
100
AcDbBlockBegin
  2
block 39
 70
     0
 10
0.0
 20
0.0
 30
0.0
  3
block 39
  1

  0
POLYLINE
  5
120
330
11C
100
AcDbEntity
  8
0
 62
     4
370
    25
100
AcDb2dPolyline
 66
     1
 10
0.0
 20
0.0
 30
0.0
  0
VERTEX
  5
121
330
120
100
AcDbEntity
  8
0
 62
     4
370
    25
100
AcDbVertex
100
AcDb2dVertex
 10
105.1277748774314
 20
213.4408505241001
 30
0.0
  0
VERTEX
  5
122
330
120
100
AcDbEntity
  8
0
 62
     4
370
    25
100
AcDbVertex
100
AcDb2dVertex
 10
105.1277748774314
 20
202.1907674088978
 30
0.0
  0
SEQEND
  5
123
330
120
100
AcDbEntity
  8
0
 62
     4
370
    25
  0
ENDBLK
  5
11F
330
11C
100
AcDbEntity
  8
0
100
AcDbBlockEnd
  0
BLOCK
  5
126
330
124
100
AcDbEntity
  8
0
100
AcDbBlockBegin
  2
block 40
 70
     0
 10
0.0
 20
0.0
 30
0.0
  3
block 40
  1

  0
POLYLINE
  5
128
330
124
100
AcDbEntity
  8
0
  6
AI-Linetype-3
 62
     4
370
    25
100
AcDb2dPolyline
 66
     1
 10
0.0
 20
0.0
 30
0.0
  0
VERTEX
  5
129
330
128
100
AcDbEntity
  8
0
  6
AI-Linetype-3
 62
     4
370
    25
100
AcDbVertex
100
AcDb2dVertex
 10
105.1277748774314
 20
198.6166746295721
 30
0.0
  0
VERTEX
  5
12A
330
128
100
AcDbEntity
  8
0
  6
AI-Linetype-3
 62
     4
370
    25
100
AcDbVertex
100
AcDb2dVertex
 10
105.1277748774314
 20
193.255546226507
 30
0.0
  0
SEQEND
  5
12C
330
128
100
AcDbEntity
  8
0
  6
AI-Linetype-3
 62
     4
370
    25
  0
ENDBLK
  5
127
330
124
100
AcDbEntity
  8
0
100
AcDbBlockEnd
  0
BLOCK
  5
12F
330
12D
100
AcDbEntity
  8
0
100
AcDbBlockBegin
  2
block 41
 70
     0
 10
0.0
 20
0.0
 30
0.0
  3
block 41
  1

  0
POLYLINE
  5
131
330
12D
100
AcDbEntity
  8
0
  6
AI-Linetype-4
 62
     4
370
    25
100
AcDb2dPolyline
 66
     1
 10
0.0
 20
0.0
 30
0.0
  0
VERTEX
  5
132
330
131
100
AcDbEntity
  8
0
  6
AI-Linetype-4
 62
     4
370
    25
100
AcDbVertex
100
AcDb2dVertex
 10
105.1277748774314
 20
191.4684998368442
 30
0.0
  0
VERTEX
  5
133
330
131
100
AcDbEntity
  8
0
  6
AI-Linetype-4
 62
     4
370
    25
100
AcDbVertex
100
AcDb2dVertex
 10
105.1277748774314
 20
96.75462131370188
 30
0.0
  0
SEQEND
  5
135
330
131
100
AcDbEntity
  8
0
  6
AI-Linetype-4
 62
     4
370
    25
  0
ENDBLK
  5
130
330
12D
100
AcDbEntity
  8
0
100
AcDbBlockEnd
  0
BLOCK
  5
138
330
136
100
AcDbEntity
  8
0
100
AcDbBlockBegin
  2
block 42
 70
     0
 10
0.0
 20
0.0
 30
0.0
  3
block 42
  1

  0
POLYLINE
  5
13A
330
136
100
AcDbEntity
  8
0
 62
     4
370
    25
100
AcDb2dPolyline
 66
     1
 10
0.0
 20
0.0
 30
0.0
  0
VERTEX
  5
13B
330
13A
100
AcDbEntity
  8
0
 62
     4
370
    25
100
AcDbVertex
100
AcDb2dVertex
 10
105.1277748774314
 20
94.96756415811565
 30
0.0
  0
VERTEX
  5
13C
330
13A
100
AcDbEntity
  8
0
 62
     4
370
    25
100
AcDbVertex
100
AcDb2dVertex
 10
105.1277748774314
 20
83.71749719179839
 30
0.0
  0
SEQEND
  5
13D
330
13A
100
AcDbEntity
  8
0
 62
     4
370
    25
  0
ENDBLK
  5
139
330
136
100
AcDbEntity
  8
0
100
AcDbBlockEnd
  0
ENDSEC
  0
SECTION
  2
ENTITIES
  0
INSERT
  5
41
330
1F
100
AcDbEntity
  8
0
100
AcDbBlockReference
  2
block 2
 10
0.0
 20
0.0
 30
0.0
  0
INSERT
  5
46
330
1F
100
AcDbEntity
  8
0
100
AcDbBlockReference
  2
block 3
 10
0.0
 20
0.0
 30
0.0
  0
INSERT
  5
4B
330
1F
100
AcDbEntity
  8
0
100
AcDbBlockReference
  2
block 4
 10
0.0
 20
0.0
 30
0.0
  0
INSERT
  5
50
330
1F
100
AcDbEntity
  8
0
100
AcDbBlockReference
  2
block 5
 10
0.0
 20
0.0
 30
0.0
  0
INSERT
  5
55
330
1F
100
AcDbEntity
  8
0
100
AcDbBlockReference
  2
block 6
 10
0.0
 20
0.0
 30
0.0
  0
INSERT
  5
5A
330
1F
100
AcDbEntity
  8
0
100
AcDbBlockReference
  2
block 7
 10
0.0
 20
0.0
 30
0.0
  0
INSERT
  5
62
330
1F
100
AcDbEntity
  8
0
100
AcDbBlockReference
  2
block 8
 10
0.0
 20
0.0
 30
0.0
  0
INSERT
  5
67
330
1F
100
AcDbEntity
  8
0
100
AcDbBlockReference
  2
block 9
 10
0.0
 20
0.0
 30
0.0
  0
INSERT
  5
6F
330
1F
100
AcDbEntity
  8
0
100
AcDbBlockReference
  2
block 10
 10
0.0
 20
0.0
 30
0.0
  0
INSERT
  5
74
330
1F
100
AcDbEntity
  8
0
100
AcDbBlockReference
  2
block 11
 10
0.0
 20
0.0
 30
0.0
  0
INSERT
  5
7C
330
1F
100
AcDbEntity
  8
0
100
AcDbBlockReference
  2
block 12
 10
0.0
 20
0.0
 30
0.0
  0
INSERT
  5
81
330
1F
100
AcDbEntity
  8
0
100
AcDbBlockReference
  2
block 13
 10
0.0
 20
0.0
 30
0.0
  0
INSERT
  5
89
330
1F
100
AcDbEntity
  8
0
100
AcDbBlockReference
  2
block 14
 10
0.0
 20
0.0
 30
0.0
  0
INSERT
  5
8E
330
1F
100
AcDbEntity
  8
0
100
AcDbBlockReference
  2
block 15
 10
0.0
 20
0.0
 30
0.0
  0
INSERT
  5
93
330
1F
100
AcDbEntity
  8
0
100
AcDbBlockReference
  2
block 16
 10
0.0
 20
0.0
 30
0.0
  0
INSERT
  5
98
330
1F
100
AcDbEntity
  8
0
100
AcDbBlockReference
  2
block 17
 10
0.0
 20
0.0
 30
0.0
  0
INSERT
  5
9D
330
1F
100
AcDbEntity
  8
0
100
AcDbBlockReference
  2
block 18
 10
0.0
 20
0.0
 30
0.0
  0
INSERT
  5
A2
330
1F
100
AcDbEntity
  8
0
100
AcDbBlockReference
  2
block 19
 10
0.0
 20
0.0
 30
0.0
  0
INSERT
  5
A7
330
1F
100
AcDbEntity
  8
0
100
AcDbBlockReference
  2
block 20
 10
0.0
 20
0.0
 30
0.0
  0
INSERT
  5
AC
330
1F
100
AcDbEntity
  8
0
100
AcDbBlockReference
  2
block 21
 10
0.0
 20
0.0
 30
0.0
  0
INSERT
  5
B1
330
1F
100
AcDbEntity
  8
0
100
AcDbBlockReference
  2
block 22
 10
0.0
 20
0.0
 30
0.0
  0
INSERT
  5
B6
330
1F
100
AcDbEntity
  8
0
100
AcDbBlockReference
  2
block 23
 10
0.0
 20
0.0
 30
0.0
  0
INSERT
  5
BB
330
1F
100
AcDbEntity
  8
0
100
AcDbBlockReference
  2
block 24
 10
0.0
 20
0.0
 30
0.0
  0
INSERT
  5
C0
330
1F
100
AcDbEntity
  8
0
100
AcDbBlockReference
  2
block 25
 10
0.0
 20
0.0
 30
0.0
  0
INSERT
  5
C5
330
1F
100
AcDbEntity
  8
0
100
AcDbBlockReference
  2
block 26
 10
0.0
 20
0.0
 30
0.0
  0
INSERT
  5
CA
330
1F
100
AcDbEntity
  8
0
100
AcDbBlockReference
  2
block 27
 10
0.0
 20
0.0
 30
0.0
  0
INSERT
  5
D2
330
1F
100
AcDbEntity
  8
0
100
AcDbBlockReference
  2
block 28
 10
0.0
 20
0.0
 30
0.0
  0
INSERT
  5
D7
330
1F
100
AcDbEntity
  8
0
100
AcDbBlockReference
  2
block 29
 10
0.0
 20
0.0
 30
0.0
  0
INSERT
  5
DF
330
1F
100
AcDbEntity
  8
0
100
AcDbBlockReference
  2
block 30
 10
0.0
 20
0.0
 30
0.0
  0
INSERT
  5
E7
330
1F
100
AcDbEntity
  8
0
100
AcDbBlockReference
  2
block 31
 10
0.0
 20
0.0
 30
0.0
  0
INSERT
  5
EC
330
1F
100
AcDbEntity
  8
0
100
AcDbBlockReference
  2
block 32
 10
0.0
 20
0.0
 30
0.0
  0
INSERT
  5
F1
330
1F
100
AcDbEntity
  8
0
100
AcDbBlockReference
  2
block 33
 10
0.0
 20
0.0
 30
0.0
  0
INSERT
  5
F6
330
1F
100
AcDbEntity
  8
0
100
AcDbBlockReference
  2
block 34
 10
0.0
 20
0.0
 30
0.0
  0
INSERT
  5
FB
330
1F
100
AcDbEntity
  8
0
100
AcDbBlockReference
  2
block 35
 10
0.0
 20
0.0
 30
0.0
  0
INSERT
  5
103
330
1F
100
AcDbEntity
  8
0
100
AcDbBlockReference
  2
block 36
 10
0.0
 20
0.0
 30
0.0
  0
INSERT
  5
10C
330
1F
100
AcDbEntity
  8
0
100
AcDbBlockReference
  2
block 37
 10
0.0
 20
0.0
 30
0.0
  0
INSERT
  5
115
330
1F
100
AcDbEntity
  8
0
100
AcDbBlockReference
  2
block 38
 10
0.0
 20
0.0
 30
0.0
  0
INSERT
  5
11D
330
1F
100
AcDbEntity
  8
0
100
AcDbBlockReference
  2
block 39
 10
0.0
 20
0.0
 30
0.0
  0
INSERT
  5
125
330
1F
100
AcDbEntity
  8
0
100
AcDbBlockReference
  2
block 40
 10
0.0
 20
0.0
 30
0.0
  0
INSERT
  5
12E
330
1F
100
AcDbEntity
  8
0
100
AcDbBlockReference
  2
block 41
 10
0.0
 20
0.0
 30
0.0
  0
INSERT
  5
137
330
1F
100
AcDbEntity
  8
0
100
AcDbBlockReference
  2
block 42
 10
0.0
 20
0.0
 30
0.0
  0
ENDSEC
  0
SECTION
  2
OBJECTS
  0
DICTIONARY
  5
C
330
0
100
AcDbDictionary
281
     1
  3
ACAD_GROUP
350
D
  3
ACAD_LAYOUT
350
1A
  3
ACAD_MATERIAL
350
3B
  3
ACAD_MLEADERSTYLE
350
15F
  3
ACAD_MLINESTYLE
350
17
  3
ACAD_PLOTSETTINGS
350
19
  3
ACAD_PLOTSTYLENAME
350
E
  3
ACAD_TABLESTYLE
350
15E
  3
ACAD_VISUALSTYLE
350
2A
  0
SUN
  5
3F
330
29
100
AcDbSun
 90
        1
290
     0
 63
     7
421
 16777215
 40
1.0
291
     1
 91
  2455826
 92
 54000000
292
     0
 70
     2
 71
   256
280
     1
  0
DICTIONARY
  5
D
102
{ACAD_REACTORS
330
C
102
}
330
C
100
AcDbDictionary
281
     1
  0
DICTIONARY
  5
1A
102
{ACAD_REACTORS
330
C
102
}
330
C
100
AcDbDictionary
281
     1
  3
Layout1
350
1E
  3
Layout2
350
26
  3
Model
350
22
  0
DICTIONARY
  5
3B
102
{ACAD_REACTORS
330
C
102
}
330
C
100
AcDbDictionary
281
     1
  3
ByBlock
350
3D
  3
ByLayer
350
3C
  3
Global
350
3E
  0
DICTIONARY
  5
15F
102
{ACAD_REACTORS
330
C
102
}
330
C
100
AcDbDictionary
281
     1
  0
DICTIONARY
  5
17
102
{ACAD_REACTORS
330
C
102
}
330
C
100
AcDbDictionary
281
     1
  3
Standard
350
18
  0
DICTIONARY
  5
19
102
{ACAD_REACTORS
330
C
102
}
330
C
100
AcDbDictionary
281
     1
  0
ACDBDICTIONARYWDFLT
  5
E
102
{ACAD_REACTORS
330
C
102
}
330
C
100
AcDbDictionary
281
     1
  3
Normal
350
F
100
AcDbDictionaryWithDefault
340
F
  0
DICTIONARY
  5
15E
102
{ACAD_REACTORS
330
C
102
}
330
C
100
AcDbDictionary
281
     1
  0
DICTIONARY
  5
2A
102
{ACAD_REACTORS
330
C
102
}
330
C
100
AcDbDictionary
281
     1
  3
2dWireframe
350
2F
  3
3D Hidden
350
31
  3
3dWireframe
350
30
  3
Basic
350
32
  3
Brighten
350
36
  3
ColorChange
350
3A
  3
Conceptual
350
34
  3
Dim
350
35
  3
Facepattern
350
39
  3
Flat
350
2B
  3
FlatWithEdges
350
2C
  3
Gouraud
350
2D
  3
GouraudWithEdges
350
2E
  3
Linepattern
350
38
  3
Realistic
350
33
  3
Thicken
350
37
  0
LAYOUT
  5
1E
102
{ACAD_REACTORS
330
1A
102
}
330
1A
100
AcDbPlotSettings
  1

  2
none_device
  4

  6

 40
0.0
 41
0.0
 42
0.0
 43
0.0
 44
0.0
 45
0.0
 46
0.0
 47
0.0
 48
0.0
 49
0.0
140
0.0
141
0.0
142
1.0
143
1.0
 70
   688
 72
     0
 73
     0
 74
     5
  7

 75
    16
 76
     0
 77
     2
 78
   300
147
1.0
148
0.0
149
0.0
100
AcDbLayout
  1
Layout1
 70
     1
 71
     1
 10
0.0
 20
0.0
 11
12.0
 21
9.0
 12
0.0
 22
0.0
 32
0.0
 14
1.000000000000000E+20
 24
1.000000000000000E+20
 34
1.000000000000000E+20
 15
-1.000000000000000E+20
 25
-1.000000000000000E+20
 35
-1.000000000000000E+20
146
0.0
 13
0.0
 23
0.0
 33
0.0
 16
1.0
 26
0.0
 36
0.0
 17
0.0
 27
1.0
 37
0.0
 76
     0
330
1B
  0
LAYOUT
  5
26
102
{ACAD_REACTORS
330
1A
102
}
330
1A
100
AcDbPlotSettings
  1

  2
none_device
  4

  6

 40
0.0
 41
0.0
 42
0.0
 43
0.0
 44
0.0
 45
0.0
 46
0.0
 47
0.0
 48
0.0
 49
0.0
140
0.0
141
0.0
142
1.0
143
1.0
 70
   688
 72
     0
 73
     0
 74
     5
  7

 75
    16
 76
     0
 77
     2
 78
   300
147
1.0
148
0.0
149
0.0
100
AcDbLayout
  1
Layout2
 70
     1
 71
     2
 10
0.0
 20
0.0
 11
0.0
 21
0.0
 12
0.0
 22
0.0
 32
0.0
 14
0.0
 24
0.0
 34
0.0
 15
0.0
 25
0.0
 35
0.0
146
0.0
 13
0.0
 23
0.0
 33
0.0
 16
1.0
 26
0.0
 36
0.0
 17
0.0
 27
1.0
 37
0.0
 76
     0
330
23
  0
LAYOUT
  5
22
102
{ACAD_REACTORS
330
1A
102
}
330
1A
100
AcDbPlotSettings
  1

  2
none_device
  4

  6

 40
0.0
 41
0.0
 42
0.0
 43
0.0
 44
0.0
 45
0.0
 46
0.0
 47
0.0
 48
0.0
 49
0.0
140
0.0
141
0.0
142
1.0
143
1.0
 70
  1712
 72
     0
 73
     0
 74
     0
  7

 75
     0
 76
     0
 77
     2
 78
   300
147
1.0
148
0.0
149
0.0
100
AcDbLayout
  1
Model
 70
     1
 71
     0
 10
0.0
 20
0.0
 11
12.0
 21
9.0
 12
0.0
 22
0.0
 32
0.0
 14
1.000000000000000E+20
 24
1.000000000000000E+20
 34
1.000000000000000E+20
 15
-1.000000000000000E+20
 25
-1.000000000000000E+20
 35
-1.000000000000000E+20
146
0.0
 13
0.0
 23
0.0
 33
0.0
 16
1.0
 26
0.0
 36
0.0
 17
0.0
 27
1.0
 37
0.0
 76
     0
330
1F
331
29
  0
MATERIAL
  5
3D
102
{ACAD_REACTORS
330
3B
102
}
330
3B
100
AcDbMaterial
  1
ByBlock
 72
     1
 94
      127
  0
MATERIAL
  5
3C
102
{ACAD_REACTORS
330
3B
102
}
330
3B
100
AcDbMaterial
  1
ByLayer
 72
     1
 94
      127
  0
MATERIAL
  5
3E
102
{ACAD_REACTORS
330
3B
102
}
330
3B
100
AcDbMaterial
  1
Global
 72
     1
 94
      127
  0
MLINESTYLE
  5
18
102
{ACAD_REACTORS
330
17
102
}
330
17
100
AcDbMlineStyle
  2
Standard
 70
     0
  3

 62
   256
 51
90.0
 52
90.0
 71
     2
 49
0.5
 62
   256
  6
BYLAYER
 49
-0.5
 62
   256
  6
BYLAYER
  0
ACDBPLACEHOLDER
  5
F
102
{ACAD_REACTORS
330
E
102
}
330
E
  0
VISUALSTYLE
  5
2F
102
{ACAD_REACTORS
330
2A
102
}
102
{ACAD_XDICTIONARY
360
146
102
}
330
2A
100
AcDbVisualStyle
  2
2dWireframe
 70
     4
 71
     0
 72
     2
 73
     0
 90
        0
 40
-0.6
 41
-30.0
 62
     5
 63
     7
421
 16777215
 74
     1
 91
        4
 64
     7
 65
   257
 75
     1
175
     1
 42
1.0
 92
        0
 66
   257
 43
1.0
 76
     1
 77
     6
 78
     2
 67
     7
 79
     5
170
     0
171
     0
290
     0
174
     0
 93
        1
 44
0.0
173
     0
291
     0
 45
0.0
  0
VISUALSTYLE
  5
31
102
{ACAD_REACTORS
330
2A
102
}
102
{ACAD_XDICTIONARY
360
14A
102
}
330
2A
100
AcDbVisualStyle
  2
3D Hidden
 70
     6
 71
     1
 72
     2
 73
     2
 90
        0
 40
-0.6
 41
-30.0
 62
     5
 63
     7
421
 16777215
 74
     2
 91
        2
 64
     7
 65
   257
 75
     2
175
     1
 42
40.0
 92
        0
 66
   257
 43
1.0
 76
     1
 77
     6
 78
     2
 67
     7
 79
     3
170
     0
171
     0
290
     0
174
     0
 93
        1
 44
0.0
173
     0
291
     0
 45
0.0
  0
VISUALSTYLE
  5
30
102
{ACAD_REACTORS
330
2A
102
}
102
{ACAD_XDICTIONARY
360
148
102
}
330
2A
100
AcDbVisualStyle
  2
3dWireframe
 70
     5
 71
     0
 72
     2
 73
     0
 90
        0
 40
-0.6
 41
-30.0
 62
     5
 63
     7
421
 16777215
 74
     1
 91
        4
 64
     7
 65
   257
 75
     1
175
     1
 42
1.0
 92
        0
 66
   257
 43
1.0
 76
     1
 77
     6
 78
     2
 67
     7
 79
     5
170
     0
171
     0
290
     0
174
     0
 93
        1
 44
0.0
173
     0
291
     0
 45
0.0
  0
VISUALSTYLE
  5
32
102
{ACAD_REACTORS
330
2A
102
}
102
{ACAD_XDICTIONARY
360
14C
102
}
330
2A
100
AcDbVisualStyle
  2
Basic
 70
     7
 71
     1
 72
     0
 73
     1
 90
        0
 40
-0.6
 41
-30.0
 62
     5
 63
     7
421
 16777215
 74
     0
 91
        4
 64
     7
 65
   257
 75
     1
175
     1
 42
1.0
 92
        8
 66
     7
 43
1.0
 76
     1
 77
     6
 78
     2
 67
     7
 79
     5
170
     0
171
     0
290
     0
174
     0
 93
        1
 44
0.0
173
     0
291
     1
 45
0.0
  0
VISUALSTYLE
  5
36
102
{ACAD_REACTORS
330
2A
102
}
102
{ACAD_XDICTIONARY
360
154
102
}
330
2A
100
AcDbVisualStyle
  2
Brighten
 70
    12
 71
     2
 72
     2
 73
     0
 90
        0
 40
-0.6
 41
-30.0
 62
     5
 63
     7
421
 16777215
 74
     1
 91
        4
 64
     7
 65
   257
 75
     1
175
     1
 42
1.0
 92
        8
 66
     7
 43
1.0
 76
     1
 77
     6
 78
     2
 67
     7
 79
     5
170
     0
171
     0
290
     0
174
     0
 93
        1
 44
50.0
173
     0
291
     1
 45
0.0
  0
VISUALSTYLE
  5
3A
102
{ACAD_REACTORS
330
2A
102
}
102
{ACAD_XDICTIONARY
360
15C
102
}
330
2A
100
AcDbVisualStyle
  2
ColorChange
 70
    16
 71
     2
 72
     2
 73
     3
 90
        0
 40
-0.6
 41
-30.0
 62
     5
 63
     8
421
  8421504
 74
     1
 91
        4
 64
     7
 65
   257
 75
     1
175
     1
 42
1.0
 92
        8
 66
     8
424
  8421504
 43
1.0
 76
     1
 77
     6
 78
     2
 67
     7
 79
     5
170
     0
171
     0
290
     0
174
     0
 93
        1
 44
0.0
173
     0
291
     1
 45
0.0
  0
VISUALSTYLE
  5
34
102
{ACAD_REACTORS
330
2A
102
}
102
{ACAD_XDICTIONARY
360
150
102
}
330
2A
100
AcDbVisualStyle
  2
Conceptual
 70
     9
 71
     3
 72
     2
 73
     0
 90
        0
 40
-0.6
 41
-30.0
 62
     5
 63
     7
421
 16777215
 74
     2
 91
        2
 64
     7
 65
   257
 75
     1
175
     1
 42
40.0
 92
        8
 66
     7
 43
1.0
 76
     1
 77
     6
 78
     2
 67
     7
 79
     3
170
     0
171
     0
290
     0
174
     0
 93
        1
 44
0.0
173
     0
291
     0
 45
0.0
  0
VISUALSTYLE
  5
35
102
{ACAD_REACTORS
330
2A
102
}
102
{ACAD_XDICTIONARY
360
152
102
}
330
2A
100
AcDbVisualStyle
  2
Dim
 70
    11
 71
     2
 72
     2
 73
     0
 90
        0
 40
-0.6
 41
-30.0
 62
     5
 63
     7
421
 16777215
 74
     1
 91
        4
 64
     7
 65
   257
 75
     1
175
     1
 42
1.0
 92
        8
 66
     7
 43
1.0
 76
     1
 77
     6
 78
     2
 67
     7
 79
     5
170
     0
171
     0
290
     0
174
     0
 93
        1
 44
-50.0
173
     0
291
     1
 45
0.0
  0
VISUALSTYLE
  5
39
102
{ACAD_REACTORS
330
2A
102
}
102
{ACAD_XDICTIONARY
360
15A
102
}
330
2A
100
AcDbVisualStyle
  2
Facepattern
 70
    15
 71
     2
 72
     2
 73
     0
 90
        0
 40
-0.6
 41
-30.0
 62
     5
 63
     7
421
 16777215
 74
     1
 91
        4
 64
     7
 65
   257
 75
     1
175
     1
 42
1.0
 92
        8
 66
     7
 43
1.0
 76
     1
 77
     6
 78
     2
 67
     7
 79
     5
170
     0
171
     0
290
     0
174
     0
 93
        1
 44
0.0
173
     0
291
     1
 45
0.0
  0
VISUALSTYLE
  5
2B
102
{ACAD_REACTORS
330
2A
102
}
102
{ACAD_XDICTIONARY
360
13E
102
}
330
2A
100
AcDbVisualStyle
  2
Flat
 70
     0
 71
     2
 72
     1
 73
     1
 90
        2
 40
-0.6
 41
30.0
 62
     5
 63
     7
421
 16777215
 74
     0
 91
        4
 64
     7
 65
   257
 75
     1
175
     1
 42
1.0
 92
        8
 66
     7
 43
1.0
 76
     1
 77
     6
 78
     2
 67
     7
 79
     5
170
     0
171
     0
290
     0
174
     0
 93
       13
 44
0.0
173
     0
291
     1
 45
0.0
  0
VISUALSTYLE
  5
2C
102
{ACAD_REACTORS
330
2A
102
}
102
{ACAD_XDICTIONARY
360
140
102
}
330
2A
100
AcDbVisualStyle
  2
FlatWithEdges
 70
     1
 71
     2
 72
     1
 73
     1
 90
        2
 40
-0.6
 41
30.0
 62
     5
 63
     7
421
 16777215
 74
     1
 91
        4
 64
     7
 65
   257
 75
     1
175
     1
 42
1.0
 92
        0
 66
   257
 43
1.0
 76
     1
 77
     6
 78
     2
 67
     7
 79
     5
170
     0
171
     0
290
     0
174
     0
 93
       13
 44
0.0
173
     0
291
     1
 45
0.0
  0
VISUALSTYLE
  5
2D
102
{ACAD_REACTORS
330
2A
102
}
102
{ACAD_XDICTIONARY
360
142
102
}
330
2A
100
AcDbVisualStyle
  2
Gouraud
 70
     2
 71
     2
 72
     2
 73
     1
 90
        2
 40
-0.6
 41
30.0
 62
     5
 63
     7
421
 16777215
 74
     0
 91
        4
 64
     7
 65
   257
 75
     1
175
     1
 42
1.0
 92
        0
 66
     7
 43
1.0
 76
     1
 77
     6
 78
     2
 67
     7
 79
     5
170
     0
171
     0
290
     0
174
     0
 93
       13
 44
0.0
173
     0
291
     1
 45
0.0
  0
VISUALSTYLE
  5
2E
102
{ACAD_REACTORS
330
2A
102
}
102
{ACAD_XDICTIONARY
360
144
102
}
330
2A
100
AcDbVisualStyle
  2
GouraudWithEdges
 70
     3
 71
     2
 72
     2
 73
     1
 90
        2
 40
-0.6
 41
30.0
 62
     5
 63
     7
421
 16777215
 74
     1
 91
        4
 64
     7
 65
   257
 75
     1
175
     1
 42
1.0
 92
        0
 66
   257
 43
1.0
 76
     1
 77
     6
 78
     2
 67
     7
 79
     5
170
     0
171
     0
290
     0
174
     0
 93
       13
 44
0.0
173
     0
291
     1
 45
0.0
  0
VISUALSTYLE
  5
38
102
{ACAD_REACTORS
330
2A
102
}
102
{ACAD_XDICTIONARY
360
158
102
}
330
2A
100
AcDbVisualStyle
  2
Linepattern
 70
    14
 71
     2
 72
     2
 73
     0
 90
        0
 40
-0.6
 41
-30.0
 62
     5
 63
     7
421
 16777215
 74
     1
 91
        4
 64
     7
 65
   257
 75
     7
175
     7
 42
1.0
 92
        8
 66
     7
 43
1.0
 76
     1
 77
     6
 78
     2
 67
     7
 79
     5
170
     0
171
     0
290
     0
174
     0
 93
        1
 44
0.0
173
     0
291
     1
 45
0.0
  0
VISUALSTYLE
  5
33
102
{ACAD_REACTORS
330
2A
102
}
102
{ACAD_XDICTIONARY
360
14E
102
}
330
2A
100
AcDbVisualStyle
  2
Realistic
 70
     8
 71
     2
 72
     2
 73
     0
 90
        0
 40
-0.6
 41
-30.0
 62
     5
 63
     7
421
 16777215
 74
     1
 91
        0
 64
     7
 65
   257
 75
     1
175
     1
 42
1.0
 92
        8
 66
     8
424
  7895160
 43
1.0
 76
     1
 77
     6
 78
     2
 67
     7
 79
     5
170
     0
171
     0
290
     0
174
     0
 93
       13
 44
0.0
173
     0
291
     0
 45
0.0
  0
VISUALSTYLE
  5
37
102
{ACAD_REACTORS
330
2A
102
}
102
{ACAD_XDICTIONARY
360
156
102
}
330
2A
100
AcDbVisualStyle
  2
Thicken
 70
    13
 71
     2
 72
     2
 73
     0
 90
        0
 40
-0.6
 41
-30.0
 62
     5
 63
     7
421
 16777215
 74
     1
 91
        4
 64
     7
 65
   257
 75
     1
175
     1
 42
1.0
 92
       12
 66
     7
 43
1.0
 76
     1
 77
     6
 78
     2
 67
     7
 79
     5
170
     0
171
     0
290
     0
174
     0
 93
        1
 44
0.0
173
     0
291
     1
 45
0.0
  0
DICTIONARY
  5
146
330
2F
100
AcDbDictionary
280
     1
281
     1
  3
ACAD_XREC_ROUNDTRIP
360
147
  0
DICTIONARY
  5
14A
330
31
100
AcDbDictionary
280
     1
281
     1
  3
ACAD_XREC_ROUNDTRIP
360
14B
  0
DICTIONARY
  5
148
330
30
100
AcDbDictionary
280
     1
281
     1
  3
ACAD_XREC_ROUNDTRIP
360
149
  0
DICTIONARY
  5
14C
330
32
100
AcDbDictionary
280
     1
281
     1
  3
ACAD_XREC_ROUNDTRIP
360
14D
  0
DICTIONARY
  5
154
330
36
100
AcDbDictionary
280
     1
281
     1
  3
ACAD_XREC_ROUNDTRIP
360
155
  0
DICTIONARY
  5
15C
330
3A
100
AcDbDictionary
280
     1
281
     1
  3
ACAD_XREC_ROUNDTRIP
360
15D
  0
DICTIONARY
  5
150
330
34
100
AcDbDictionary
280
     1
281
     1
  3
ACAD_XREC_ROUNDTRIP
360
151
  0
DICTIONARY
  5
152
330
35
100
AcDbDictionary
280
     1
281
     1
  3
ACAD_XREC_ROUNDTRIP
360
153
  0
DICTIONARY
  5
15A
330
39
100
AcDbDictionary
280
     1
281
     1
  3
ACAD_XREC_ROUNDTRIP
360
15B
  0
DICTIONARY
  5
13E
330
2B
100
AcDbDictionary
280
     1
281
     1
  3
ACAD_XREC_ROUNDTRIP
360
13F
  0
DICTIONARY
  5
140
330
2C
100
AcDbDictionary
280
     1
281
     1
  3
ACAD_XREC_ROUNDTRIP
360
141
  0
DICTIONARY
  5
142
330
2D
100
AcDbDictionary
280
     1
281
     1
  3
ACAD_XREC_ROUNDTRIP
360
143
  0
DICTIONARY
  5
144
330
2E
100
AcDbDictionary
280
     1
281
     1
  3
ACAD_XREC_ROUNDTRIP
360
145
  0
DICTIONARY
  5
158
330
38
100
AcDbDictionary
280
     1
281
     1
  3
ACAD_XREC_ROUNDTRIP
360
159
  0
DICTIONARY
  5
14E
330
33
100
AcDbDictionary
280
     1
281
     1
  3
ACAD_XREC_ROUNDTRIP
360
14F
  0
DICTIONARY
  5
156
330
37
100
AcDbDictionary
280
     1
281
     1
  3
ACAD_XREC_ROUNDTRIP
360
157
  0
XRECORD
  5
147
102
{ACAD_REACTORS
330
146
102
}
330
146
100
AcDbXrecord
280
     1
102
RTVSPropertyOp0
 70
     1
102
RTVSPropertyOp1
 70
     1
102
RTVSPropertyOp2
 70
     1
102
RTVSPropertyOp3
 70
     1
102
RTVSPropertyOp4
 70
     1
102
RTVSPropertyOp5
 70
     1
102
RTVSPropertyOp6
 70
     1
102
RTVSPropertyOp7
 70
     1
102
RTVSPropertyOp8
 70
     1
102
RTVSPropertyOp9
 70
     1
102
RTVSPropertyOp10
 70
     1
102
RTVSPropertyOp11
 70
     1
102
RTVSPropertyOp12
 70
     1
102
RTVSPropertyOp13
 70
     1
102
RTVSPropertyOp14
 70
     1
102
RTVSPropertyOp15
 70
     1
102
RTVSPropertyOp16
 70
     1
102
RTVSPropertyOp17
 70
     1
102
RTVSPropertyOp18
 70
     1
102
RTVSPropertyOp19
 70
     1
102
RTVSPropertyOp20
 70
     1
102
RTVSPropertyOp21
 70
     1
102
RTVSPropertyOp22
 70
     1
102
RTVSPropertyOp23
 70
     1
102
RTVSPropertyOp24
 70
     1
102
RTVSPropertyOp25
 70
     1
102
RTVSPropertyOp26
 70
     1
102
RTVSPropertyOp27
 70
     1
102
RTVSPropertyOp28
 70
     1
102
RTVSPropertyOp29
 70
     1
102
RTVSPropertyOp30
 70
     1
102
RTVSPropertyOp31
 70
     1
102
RTVSPropertyOp32
 70
     1
  0
XRECORD
  5
14B
102
{ACAD_REACTORS
330
14A
102
}
330
14A
100
AcDbXrecord
280
     1
102
RTVSPropertyOp0
 70
     1
102
RTVSPropertyOp1
 70
     1
102
RTVSPropertyOp2
 70
     1
102
RTVSPropertyOp3
 70
     1
102
RTVSPropertyOp4
 70
     1
102
RTVSPropertyOp5
 70
     1
102
RTVSPropertyOp6
 70
     1
102
RTVSPropertyOp7
 70
     1
102
RTVSPropertyOp8
 70
     1
102
RTVSPropertyOp9
 70
     1
102
RTVSPropertyOp10
 70
     1
102
RTVSPropertyOp11
 70
     1
102
RTVSPropertyOp12
 70
     1
102
RTVSPropertyOp13
 70
     1
102
RTVSPropertyOp14
 70
     1
102
RTVSPropertyOp15
 70
     1
102
RTVSPropertyOp16
 70
     1
102
RTVSPropertyOp17
 70
     1
102
RTVSPropertyOp18
 70
     1
102
RTVSPropertyOp19
 70
     1
102
RTVSPropertyOp20
 70
     1
102
RTVSPropertyOp21
 70
     1
102
RTVSPropertyOp22
 70
     1
102
RTVSPropertyOp23
 70
     1
102
RTVSPropertyOp24
 70
     1
102
RTVSPropertyOp25
 70
     1
102
RTVSPropertyOp26
 70
     1
102
RTVSPropertyOp27
 70
     1
102
RTVSPropertyOp28
 70
     1
102
RTVSPropertyOp29
 70
     1
102
RTVSPropertyOp30
 70
     1
102
RTVSPropertyOp31
 70
     1
102
RTVSPropertyOp32
 70
     1
  0
XRECORD
  5
149
102
{ACAD_REACTORS
330
148
102
}
330
148
100
AcDbXrecord
280
     1
102
RTVSPropertyOp0
 70
     1
102
RTVSPropertyOp1
 70
     1
102
RTVSPropertyOp2
 70
     1
102
RTVSPropertyOp3
 70
     1
102
RTVSPropertyOp4
 70
     1
102
RTVSPropertyOp5
 70
     1
102
RTVSPropertyOp6
 70
     1
102
RTVSPropertyOp7
 70
     1
102
RTVSPropertyOp8
 70
     1
102
RTVSPropertyOp9
 70
     1
102
RTVSPropertyOp10
 70
     1
102
RTVSPropertyOp11
 70
     1
102
RTVSPropertyOp12
 70
     1
102
RTVSPropertyOp13
 70
     1
102
RTVSPropertyOp14
 70
     1
102
RTVSPropertyOp15
 70
     1
102
RTVSPropertyOp16
 70
     1
102
RTVSPropertyOp17
 70
     1
102
RTVSPropertyOp18
 70
     1
102
RTVSPropertyOp19
 70
     1
102
RTVSPropertyOp20
 70
     1
102
RTVSPropertyOp21
 70
     1
102
RTVSPropertyOp22
 70
     1
102
RTVSPropertyOp23
 70
     1
102
RTVSPropertyOp24
 70
     1
102
RTVSPropertyOp25
 70
     1
102
RTVSPropertyOp26
 70
     1
102
RTVSPropertyOp27
 70
     1
102
RTVSPropertyOp28
 70
     1
102
RTVSPropertyOp29
 70
     1
102
RTVSPropertyOp30
 70
     1
102
RTVSPropertyOp31
 70
     1
102
RTVSPropertyOp32
 70
     1
  0
XRECORD
  5
14D
102
{ACAD_REACTORS
330
14C
102
}
330
14C
100
AcDbXrecord
280
     1
102
RTVSPropertyOp0
 70
     1
102
RTVSPropertyOp1
 70
     1
102
RTVSPropertyOp2
 70
     1
102
RTVSPropertyOp3
 70
     1
102
RTVSPropertyOp4
 70
     1
102
RTVSPropertyOp5
 70
     1
102
RTVSPropertyOp6
 70
     1
102
RTVSPropertyOp7
 70
     1
102
RTVSPropertyOp8
 70
     1
102
RTVSPropertyOp9
 70
     1
102
RTVSPropertyOp10
 70
     1
102
RTVSPropertyOp11
 70
     1
102
RTVSPropertyOp12
 70
     1
102
RTVSPropertyOp13
 70
     1
102
RTVSPropertyOp14
 70
     1
102
RTVSPropertyOp15
 70
     1
102
RTVSPropertyOp16
 70
     1
102
RTVSPropertyOp17
 70
     1
102
RTVSPropertyOp18
 70
     1
102
RTVSPropertyOp19
 70
     1
102
RTVSPropertyOp20
 70
     1
102
RTVSPropertyOp21
 70
     1
102
RTVSPropertyOp22
 70
     1
102
RTVSPropertyOp23
 70
     1
102
RTVSPropertyOp24
 70
     1
102
RTVSPropertyOp25
 70
     1
102
RTVSPropertyOp26
 70
     1
102
RTVSPropertyOp27
 70
     1
102
RTVSPropertyOp28
 70
     1
102
RTVSPropertyOp29
 70
     1
102
RTVSPropertyOp30
 70
     1
102
RTVSPropertyOp31
 70
     1
102
RTVSPropertyOp32
 70
     1
  0
XRECORD
  5
155
102
{ACAD_REACTORS
330
154
102
}
330
154
100
AcDbXrecord
280
     1
102
RTVSPropertyOp0
 70
     1
102
RTVSPropertyOp1
 70
     1
102
RTVSPropertyOp2
 70
     1
102
RTVSPropertyOp3
 70
     1
102
RTVSPropertyOp4
 70
     1
102
RTVSPropertyOp5
 70
     1
102
RTVSPropertyOp6
 70
     1
102
RTVSPropertyOp7
 70
     1
102
RTVSPropertyOp8
 70
     1
102
RTVSPropertyOp9
 70
     1
102
RTVSPropertyOp10
 70
     1
102
RTVSPropertyOp11
 70
     1
102
RTVSPropertyOp12
 70
     1
102
RTVSPropertyOp13
 70
     1
102
RTVSPropertyOp14
 70
     1
102
RTVSPropertyOp15
 70
     1
102
RTVSPropertyOp16
 70
     1
102
RTVSPropertyOp17
 70
     1
102
RTVSPropertyOp18
 70
     1
102
RTVSPropertyOp19
 70
     1
102
RTVSPropertyOp20
 70
     1
102
RTVSPropertyOp21
 70
     1
102
RTVSPropertyOp22
 70
     1
102
RTVSPropertyOp23
 70
     1
102
RTVSPropertyOp24
 70
     1
102
RTVSPropertyOp25
 70
     1
102
RTVSPropertyOp26
 70
     1
102
RTVSPropertyOp27
 70
     1
102
RTVSPropertyOp28
 70
     1
102
RTVSPropertyOp29
 70
     1
102
RTVSPropertyOp30
 70
     1
102
RTVSPropertyOp31
 70
     1
102
RTVSPropertyOp32
 70
     1
  0
XRECORD
  5
15D
102
{ACAD_REACTORS
330
15C
102
}
330
15C
100
AcDbXrecord
280
     1
102
RTVSPropertyOp0
 70
     1
102
RTVSPropertyOp1
 70
     1
102
RTVSPropertyOp2
 70
     1
102
RTVSPropertyOp3
 70
     1
102
RTVSPropertyOp4
 70
     1
102
RTVSPropertyOp5
 70
     1
102
RTVSPropertyOp6
 70
     1
102
RTVSPropertyOp7
 70
     1
102
RTVSPropertyOp8
 70
     1
102
RTVSPropertyOp9
 70
     1
102
RTVSPropertyOp10
 70
     1
102
RTVSPropertyOp11
 70
     1
102
RTVSPropertyOp12
 70
     1
102
RTVSPropertyOp13
 70
     1
102
RTVSPropertyOp14
 70
     1
102
RTVSPropertyOp15
 70
     1
102
RTVSPropertyOp16
 70
     1
102
RTVSPropertyOp17
 70
     1
102
RTVSPropertyOp18
 70
     1
102
RTVSPropertyOp19
 70
     1
102
RTVSPropertyOp20
 70
     1
102
RTVSPropertyOp21
 70
     1
102
RTVSPropertyOp22
 70
     1
102
RTVSPropertyOp23
 70
     1
102
RTVSPropertyOp24
 70
     1
102
RTVSPropertyOp25
 70
     1
102
RTVSPropertyOp26
 70
     1
102
RTVSPropertyOp27
 70
     1
102
RTVSPropertyOp28
 70
     1
102
RTVSPropertyOp29
 70
     1
102
RTVSPropertyOp30
 70
     1
102
RTVSPropertyOp31
 70
     1
102
RTVSPropertyOp32
 70
     1
  0
XRECORD
  5
151
102
{ACAD_REACTORS
330
150
102
}
330
150
100
AcDbXrecord
280
     1
102
RTVSPropertyOp0
 70
     1
102
RTVSPropertyOp1
 70
     1
102
RTVSPropertyOp2
 70
     1
102
RTVSPropertyOp3
 70
     1
102
RTVSPropertyOp4
 70
     1
102
RTVSPropertyOp5
 70
     1
102
RTVSPropertyOp6
 70
     1
102
RTVSPropertyOp7
 70
     1
102
RTVSPropertyOp8
 70
     1
102
RTVSPropertyOp9
 70
     1
102
RTVSPropertyOp10
 70
     1
102
RTVSPropertyOp11
 70
     1
102
RTVSPropertyOp12
 70
     1
102
RTVSPropertyOp13
 70
     1
102
RTVSPropertyOp14
 70
     1
102
RTVSPropertyOp15
 70
     1
102
RTVSPropertyOp16
 70
     1
102
RTVSPropertyOp17
 70
     1
102
RTVSPropertyOp18
 70
     1
102
RTVSPropertyOp19
 70
     1
102
RTVSPropertyOp20
 70
     1
102
RTVSPropertyOp21
 70
     1
102
RTVSPropertyOp22
 70
     1
102
RTVSPropertyOp23
 70
     1
102
RTVSPropertyOp24
 70
     1
102
RTVSPropertyOp25
 70
     1
102
RTVSPropertyOp26
 70
     1
102
RTVSPropertyOp27
 70
     1
102
RTVSPropertyOp28
 70
     1
102
RTVSPropertyOp29
 70
     1
102
RTVSPropertyOp30
 70
     1
102
RTVSPropertyOp31
 70
     1
102
RTVSPropertyOp32
 70
     1
  0
XRECORD
  5
153
102
{ACAD_REACTORS
330
152
102
}
330
152
100
AcDbXrecord
280
     1
102
RTVSPropertyOp0
 70
     1
102
RTVSPropertyOp1
 70
     1
102
RTVSPropertyOp2
 70
     1
102
RTVSPropertyOp3
 70
     1
102
RTVSPropertyOp4
 70
     1
102
RTVSPropertyOp5
 70
     1
102
RTVSPropertyOp6
 70
     1
102
RTVSPropertyOp7
 70
     1
102
RTVSPropertyOp8
 70
     1
102
RTVSPropertyOp9
 70
     1
102
RTVSPropertyOp10
 70
     1
102
RTVSPropertyOp11
 70
     1
102
RTVSPropertyOp12
 70
     1
102
RTVSPropertyOp13
 70
     1
102
RTVSPropertyOp14
 70
     1
102
RTVSPropertyOp15
 70
     1
102
RTVSPropertyOp16
 70
     1
102
RTVSPropertyOp17
 70
     1
102
RTVSPropertyOp18
 70
     1
102
RTVSPropertyOp19
 70
     1
102
RTVSPropertyOp20
 70
     1
102
RTVSPropertyOp21
 70
     1
102
RTVSPropertyOp22
 70
     1
102
RTVSPropertyOp23
 70
     1
102
RTVSPropertyOp24
 70
     1
102
RTVSPropertyOp25
 70
     1
102
RTVSPropertyOp26
 70
     1
102
RTVSPropertyOp27
 70
     1
102
RTVSPropertyOp28
 70
     1
102
RTVSPropertyOp29
 70
     1
102
RTVSPropertyOp30
 70
     1
102
RTVSPropertyOp31
 70
     1
102
RTVSPropertyOp32
 70
     1
  0
XRECORD
  5
15B
102
{ACAD_REACTORS
330
15A
102
}
330
15A
100
AcDbXrecord
280
     1
102
RTVSPropertyOp0
 70
     1
102
RTVSPropertyOp1
 70
     1
102
RTVSPropertyOp2
 70
     1
102
RTVSPropertyOp3
 70
     1
102
RTVSPropertyOp4
 70
     1
102
RTVSPropertyOp5
 70
     1
102
RTVSPropertyOp6
 70
     1
102
RTVSPropertyOp7
 70
     1
102
RTVSPropertyOp8
 70
     1
102
RTVSPropertyOp9
 70
     1
102
RTVSPropertyOp10
 70
     1
102
RTVSPropertyOp11
 70
     1
102
RTVSPropertyOp12
 70
     1
102
RTVSPropertyOp13
 70
     1
102
RTVSPropertyOp14
 70
     1
102
RTVSPropertyOp15
 70
     1
102
RTVSPropertyOp16
 70
     1
102
RTVSPropertyOp17
 70
     1
102
RTVSPropertyOp18
 70
     1
102
RTVSPropertyOp19
 70
     1
102
RTVSPropertyOp20
 70
     1
102
RTVSPropertyOp21
 70
     1
102
RTVSPropertyOp22
 70
     1
102
RTVSPropertyOp23
 70
     1
102
RTVSPropertyOp24
 70
     1
102
RTVSPropertyOp25
 70
     1
102
RTVSPropertyOp26
 70
     1
102
RTVSPropertyOp27
 70
     1
102
RTVSPropertyOp28
 70
     1
102
RTVSPropertyOp29
 70
     1
102
RTVSPropertyOp30
 70
     1
102
RTVSPropertyOp31
 70
     1
102
RTVSPropertyOp32
 70
     1
  0
XRECORD
  5
13F
102
{ACAD_REACTORS
330
13E
102
}
330
13E
100
AcDbXrecord
280
     1
102
RTVSPropertyOp0
 70
     1
102
RTVSPropertyOp1
 70
     1
102
RTVSPropertyOp2
 70
     1
102
RTVSPropertyOp3
 70
     1
102
RTVSPropertyOp4
 70
     1
102
RTVSPropertyOp5
 70
     1
102
RTVSPropertyOp6
 70
     1
102
RTVSPropertyOp7
 70
     1
102
RTVSPropertyOp8
 70
     1
102
RTVSPropertyOp9
 70
     1
102
RTVSPropertyOp10
 70
     1
102
RTVSPropertyOp11
 70
     1
102
RTVSPropertyOp12
 70
     1
102
RTVSPropertyOp13
 70
     1
102
RTVSPropertyOp14
 70
     1
102
RTVSPropertyOp15
 70
     1
102
RTVSPropertyOp16
 70
     1
102
RTVSPropertyOp17
 70
     1
102
RTVSPropertyOp18
 70
     1
102
RTVSPropertyOp19
 70
     1
102
RTVSPropertyOp20
 70
     1
102
RTVSPropertyOp21
 70
     1
102
RTVSPropertyOp22
 70
     1
102
RTVSPropertyOp23
 70
     1
102
RTVSPropertyOp24
 70
     1
102
RTVSPropertyOp25
 70
     1
102
RTVSPropertyOp26
 70
     1
102
RTVSPropertyOp27
 70
     1
102
RTVSPropertyOp28
 70
     1
102
RTVSPropertyOp29
 70
     1
102
RTVSPropertyOp30
 70
     1
102
RTVSPropertyOp31
 70
     1
102
RTVSPropertyOp32
 70
     1
  0
XRECORD
  5
141
102
{ACAD_REACTORS
330
140
102
}
330
140
100
AcDbXrecord
280
     1
102
RTVSPropertyOp0
 70
     1
102
RTVSPropertyOp1
 70
     1
102
RTVSPropertyOp2
 70
     1
102
RTVSPropertyOp3
 70
     1
102
RTVSPropertyOp4
 70
     1
102
RTVSPropertyOp5
 70
     1
102
RTVSPropertyOp6
 70
     1
102
RTVSPropertyOp7
 70
     1
102
RTVSPropertyOp8
 70
     1
102
RTVSPropertyOp9
 70
     1
102
RTVSPropertyOp10
 70
     1
102
RTVSPropertyOp11
 70
     1
102
RTVSPropertyOp12
 70
     1
102
RTVSPropertyOp13
 70
     1
102
RTVSPropertyOp14
 70
     1
102
RTVSPropertyOp15
 70
     1
102
RTVSPropertyOp16
 70
     1
102
RTVSPropertyOp17
 70
     1
102
RTVSPropertyOp18
 70
     1
102
RTVSPropertyOp19
 70
     1
102
RTVSPropertyOp20
 70
     1
102
RTVSPropertyOp21
 70
     1
102
RTVSPropertyOp22
 70
     1
102
RTVSPropertyOp23
 70
     1
102
RTVSPropertyOp24
 70
     1
102
RTVSPropertyOp25
 70
     1
102
RTVSPropertyOp26
 70
     1
102
RTVSPropertyOp27
 70
     1
102
RTVSPropertyOp28
 70
     1
102
RTVSPropertyOp29
 70
     1
102
RTVSPropertyOp30
 70
     1
102
RTVSPropertyOp31
 70
     1
102
RTVSPropertyOp32
 70
     1
  0
XRECORD
  5
143
102
{ACAD_REACTORS
330
142
102
}
330
142
100
AcDbXrecord
280
     1
102
RTVSPropertyOp0
 70
     1
102
RTVSPropertyOp1
 70
     1
102
RTVSPropertyOp2
 70
     1
102
RTVSPropertyOp3
 70
     1
102
RTVSPropertyOp4
 70
     1
102
RTVSPropertyOp5
 70
     1
102
RTVSPropertyOp6
 70
     1
102
RTVSPropertyOp7
 70
     1
102
RTVSPropertyOp8
 70
     1
102
RTVSPropertyOp9
 70
     1
102
RTVSPropertyOp10
 70
     1
102
RTVSPropertyOp11
 70
     1
102
RTVSPropertyOp12
 70
     1
102
RTVSPropertyOp13
 70
     1
102
RTVSPropertyOp14
 70
     1
102
RTVSPropertyOp15
 70
     1
102
RTVSPropertyOp16
 70
     1
102
RTVSPropertyOp17
 70
     1
102
RTVSPropertyOp18
 70
     1
102
RTVSPropertyOp19
 70
     1
102
RTVSPropertyOp20
 70
     1
102
RTVSPropertyOp21
 70
     1
102
RTVSPropertyOp22
 70
     1
102
RTVSPropertyOp23
 70
     1
102
RTVSPropertyOp24
 70
     1
102
RTVSPropertyOp25
 70
     1
102
RTVSPropertyOp26
 70
     1
102
RTVSPropertyOp27
 70
     1
102
RTVSPropertyOp28
 70
     1
102
RTVSPropertyOp29
 70
     1
102
RTVSPropertyOp30
 70
     1
102
RTVSPropertyOp31
 70
     1
102
RTVSPropertyOp32
 70
     1
  0
XRECORD
  5
145
102
{ACAD_REACTORS
330
144
102
}
330
144
100
AcDbXrecord
280
     1
102
RTVSPropertyOp0
 70
     1
102
RTVSPropertyOp1
 70
     1
102
RTVSPropertyOp2
 70
     1
102
RTVSPropertyOp3
 70
     1
102
RTVSPropertyOp4
 70
     1
102
RTVSPropertyOp5
 70
     1
102
RTVSPropertyOp6
 70
     1
102
RTVSPropertyOp7
 70
     1
102
RTVSPropertyOp8
 70
     1
102
RTVSPropertyOp9
 70
     1
102
RTVSPropertyOp10
 70
     1
102
RTVSPropertyOp11
 70
     1
102
RTVSPropertyOp12
 70
     1
102
RTVSPropertyOp13
 70
     1
102
RTVSPropertyOp14
 70
     1
102
RTVSPropertyOp15
 70
     1
102
RTVSPropertyOp16
 70
     1
102
RTVSPropertyOp17
 70
     1
102
RTVSPropertyOp18
 70
     1
102
RTVSPropertyOp19
 70
     1
102
RTVSPropertyOp20
 70
     1
102
RTVSPropertyOp21
 70
     1
102
RTVSPropertyOp22
 70
     1
102
RTVSPropertyOp23
 70
     1
102
RTVSPropertyOp24
 70
     1
102
RTVSPropertyOp25
 70
     1
102
RTVSPropertyOp26
 70
     1
102
RTVSPropertyOp27
 70
     1
102
RTVSPropertyOp28
 70
     1
102
RTVSPropertyOp29
 70
     1
102
RTVSPropertyOp30
 70
     1
102
RTVSPropertyOp31
 70
     1
102
RTVSPropertyOp32
 70
     1
  0
XRECORD
  5
159
102
{ACAD_REACTORS
330
158
102
}
330
158
100
AcDbXrecord
280
     1
102
RTVSPropertyOp0
 70
     1
102
RTVSPropertyOp1
 70
     1
102
RTVSPropertyOp2
 70
     1
102
RTVSPropertyOp3
 70
     1
102
RTVSPropertyOp4
 70
     1
102
RTVSPropertyOp5
 70
     1
102
RTVSPropertyOp6
 70
     1
102
RTVSPropertyOp7
 70
     1
102
RTVSPropertyOp8
 70
     1
102
RTVSPropertyOp9
 70
     1
102
RTVSPropertyOp10
 70
     1
102
RTVSPropertyOp11
 70
     1
102
RTVSPropertyOp12
 70
     1
102
RTVSPropertyOp13
 70
     1
102
RTVSPropertyOp14
 70
     1
102
RTVSPropertyOp15
 70
     1
102
RTVSPropertyOp16
 70
     1
102
RTVSPropertyOp17
 70
     1
102
RTVSPropertyOp18
 70
     1
102
RTVSPropertyOp19
 70
     1
102
RTVSPropertyOp20
 70
     1
102
RTVSPropertyOp21
 70
     1
102
RTVSPropertyOp22
 70
     1
102
RTVSPropertyOp23
 70
     1
102
RTVSPropertyOp24
 70
     1
102
RTVSPropertyOp25
 70
     1
102
RTVSPropertyOp26
 70
     1
102
RTVSPropertyOp27
 70
     1
102
RTVSPropertyOp28
 70
     1
102
RTVSPropertyOp29
 70
     1
102
RTVSPropertyOp30
 70
     1
102
RTVSPropertyOp31
 70
     1
102
RTVSPropertyOp32
 70
     1
  0
XRECORD
  5
14F
102
{ACAD_REACTORS
330
14E
102
}
330
14E
100
AcDbXrecord
280
     1
102
RTVSPropertyOp0
 70
     1
102
RTVSPropertyOp1
 70
     1
102
RTVSPropertyOp2
 70
     1
102
RTVSPropertyOp3
 70
     1
102
RTVSPropertyOp4
 70
     1
102
RTVSPropertyOp5
 70
     1
102
RTVSPropertyOp6
 70
     1
102
RTVSPropertyOp7
 70
     1
102
RTVSPropertyOp8
 70
     1
102
RTVSPropertyOp9
 70
     1
102
RTVSPropertyOp10
 70
     1
102
RTVSPropertyOp11
 70
     1
102
RTVSPropertyOp12
 70
     1
102
RTVSPropertyOp13
 70
     1
102
RTVSPropertyOp14
 70
     1
102
RTVSPropertyOp15
 70
     1
102
RTVSPropertyOp16
 70
     1
102
RTVSPropertyOp17
 70
     1
102
RTVSPropertyOp18
 70
     1
102
RTVSPropertyOp19
 70
     1
102
RTVSPropertyOp20
 70
     1
102
RTVSPropertyOp21
 70
     1
102
RTVSPropertyOp22
 70
     1
102
RTVSPropertyOp23
 70
     1
102
RTVSPropertyOp24
 70
     1
102
RTVSPropertyOp25
 70
     1
102
RTVSPropertyOp26
 70
     1
102
RTVSPropertyOp27
 70
     1
102
RTVSPropertyOp28
 70
     1
102
RTVSPropertyOp29
 70
     1
102
RTVSPropertyOp30
 70
     1
102
RTVSPropertyOp31
 70
     1
102
RTVSPropertyOp32
 70
     1
  0
XRECORD
  5
157
102
{ACAD_REACTORS
330
156
102
}
330
156
100
AcDbXrecord
280
     1
102
RTVSPropertyOp0
 70
     1
102
RTVSPropertyOp1
 70
     1
102
RTVSPropertyOp2
 70
     1
102
RTVSPropertyOp3
 70
     1
102
RTVSPropertyOp4
 70
     1
102
RTVSPropertyOp5
 70
     1
102
RTVSPropertyOp6
 70
     1
102
RTVSPropertyOp7
 70
     1
102
RTVSPropertyOp8
 70
     1
102
RTVSPropertyOp9
 70
     1
102
RTVSPropertyOp10
 70
     1
102
RTVSPropertyOp11
 70
     1
102
RTVSPropertyOp12
 70
     1
102
RTVSPropertyOp13
 70
     1
102
RTVSPropertyOp14
 70
     1
102
RTVSPropertyOp15
 70
     1
102
RTVSPropertyOp16
 70
     1
102
RTVSPropertyOp17
 70
     1
102
RTVSPropertyOp18
 70
     1
102
RTVSPropertyOp19
 70
     1
102
RTVSPropertyOp20
 70
     1
102
RTVSPropertyOp21
 70
     1
102
RTVSPropertyOp22
 70
     1
102
RTVSPropertyOp23
 70
     1
102
RTVSPropertyOp24
 70
     1
102
RTVSPropertyOp25
 70
     1
102
RTVSPropertyOp26
 70
     1
102
RTVSPropertyOp27
 70
     1
102
RTVSPropertyOp28
 70
     1
102
RTVSPropertyOp29
 70
     1
102
RTVSPropertyOp30
 70
     1
102
RTVSPropertyOp31
 70
     1
102
RTVSPropertyOp32
 70
     1
  0
ENDSEC
  0
EOF
