  0
SECTION
  2
HEADER
  9
$ACADVER
  1
AC1021
  9
$ACADMAINTVER
 70
    25
  9
$DWGCODEPAGE
  3
UNDEFINED
  9
$INSBASE
 10
0.0
 20
0.0
 30
0.0
  9
$EXTMIN
 10
1.000000000000000E+20
 20
1.000000000000000E+20
 30
1.000000000000000E+20
  9
$EXTMAX
 10
-1.000000000000000E+20
 20
-1.000000000000000E+20
 30
-1.000000000000000E+20
  9
$LIMMIN
 10
0.0
 20
0.0
  9
$LIMMAX
 10
12.0
 20
9.0
  9
$ORTHOMODE
 70
     0
  9
$REGENMODE
 70
     1
  9
$FILLMODE
 70
     1
  9
$QTEXTMODE
 70
     0
  9
$MIRRTEXT
 70
     1
  9
$LTSCALE
 40
1.0
  9
$ATTMODE
 70
     1
  9
$TEXTSIZE
 40
0.2
  9
$TRACEWID
 40
0.05
  9
$TEXTSTYLE
  7
Standard
  9
$CLAYER
  8
0
  9
$CELTYPE
  6
ByLayer
  9
$CECOLOR
 62
   256
  9
$CELTSCALE
 40
1.0
  9
$DISPSILH
 70
     0
  9
$DIMSCALE
 40
1.0
  9
$DIMASZ
 40
0.18
  9
$DIMEXO
 40
0.0625
  9
$DIMDLI
 40
0.38
  9
$DIMRND
 40
0.0
  9
$DIMDLE
 40
0.0
  9
$DIMEXE
 40
0.18
  9
$DIMTP
 40
0.0
  9
$DIMTM
 40
0.0
  9
$DIMTXT
 40
0.18
  9
$DIMCEN
 40
0.09
  9
$DIMTSZ
 40
0.0
  9
$DIMTOL
 70
     0
  9
$DIMLIM
 70
     0
  9
$DIMTIH
 70
     1
  9
$DIMTOH
 70
     1
  9
$DIMSE1
 70
     0
  9
$DIMSE2
 70
     0
  9
$DIMTAD
 70
     0
  9
$DIMZIN
 70
     0
  9
$DIMBLK
  1

  9
$DIMASO
 70
     1
  9
$DIMSHO
 70
     1
  9
$DIMPOST
  1

  9
$DIMAPOST
  1

  9
$DIMALT
 70
     0
  9
$DIMALTD
 70
     2
  9
$DIMALTF
 40
25.4
  9
$DIMLFAC
 40
1.0
  9
$DIMTOFL
 70
     0
  9
$DIMTVP
 40
0.0
  9
$DIMTIX
 70
     0
  9
$DIMSOXD
 70
     0
  9
$DIMSAH
 70
     0
  9
$DIMBLK1
  1

  9
$DIMBLK2
  1

  9
$DIMSTYLE
  2
Standard
  9
$DIMCLRD
 70
     0
  9
$DIMCLRE
 70
     0
  9
$DIMCLRT
 70
     0
  9
$DIMTFAC
 40
1.0
  9
$DIMGAP
 40
0.09
  9
$DIMJUST
 70
     0
  9
$DIMSD1
 70
     0
  9
$DIMSD2
 70
     0
  9
$DIMTOLJ
 70
     1
  9
$DIMTZIN
 70
     0
  9
$DIMALTZ
 70
     0
  9
$DIMALTTZ
 70
     0
  9
$DIMUPT
 70
     0
  9
$DIMDEC
 70
     4
  9
$DIMTDEC
 70
     4
  9
$DIMALTU
 70
     2
  9
$DIMALTTD
 70
     2
  9
$DIMTXSTY
  7
Standard
  9
$DIMAUNIT
 70
     0
  9
$DIMADEC
 70
     0
  9
$DIMALTRND
 40
0.0
  9
$DIMAZIN
 70
     0
  9
$DIMDSEP
 70
    46
  9
$DIMATFIT
 70
     3
  9
$DIMFRAC
 70
     0
  9
$DIMLDRBLK
  1

  9
$DIMLUNIT
 70
     2
  9
$DIMLWD
 70
    -2
  9
$DIMLWE
 70
    -2
  9
$DIMTMOVE
 70
     0
  9
$DIMFXL
 40
1.0
  9
$DIMFXLON
 70
     0
  9
$DIMJOGANG
 40
0.7853981633974483
  9
$DIMTFILL
 70
     0
  9
$DIMTFILLCLR
 70
     0
  9
$DIMARCSYM
 70
     0
  9
$DIMLTYPE
  6

  9
$DIMLTEX1
  6

  9
$DIMLTEX2
  6

  9
$LUNITS
 70
     2
  9
$LUPREC
 70
     4
  9
$SKETCHINC
 40
0.1
  9
$FILLETRAD
 40
0.5
  9
$AUNITS
 70
     0
  9
$AUPREC
 70
     0
  9
$MENU
  1
.
  9
$ELEVATION
 40
0.0
  9
$PELEVATION
 40
0.0
  9
$THICKNESS
 40
0.0
  9
$LIMCHECK
 70
     0
  9
$CHAMFERA
 40
0.5
  9
$CHAMFERB
 40
0.5
  9
$CHAMFERC
 40
1.0
  9
$CHAMFERD
 40
0.0
  9
$SKPOLY
 70
     0
  9
$TDCREATE
 40
2459376.469710636
  9
$TDUCREATE
 40
2459376.428043982
  9
$TDUPDATE
 40
2459376.469710636
  9
$TDUUPDATE
 40
2459376.428043982
  9
$TDINDWG
 40
0.0000000116
  9
$TDUSRTIMER
 40
0.0000000116
  9
$USRTIMER
 70
     1
  9
$ANGBASE
 50
0.0
  9
$ANGDIR
 70
     0
  9
$PDMODE
 70
     0
  9
$PDSIZE
 40
0.0
  9
$PLINEWID
 40
0.0
  9
$SPLFRAME
 70
     0
  9
$SPLINETYPE
 70
     6
  9
$SPLINESEGS
 70
     8
  9
$HANDSEED
  5
21E
  9
$SURFTAB1
 70
     6
  9
$SURFTAB2
 70
     6
  9
$SURFTYPE
 70
     6
  9
$SURFU
 70
     6
  9
$SURFV
 70
     6
  9
$UCSBASE
  2

  9
$UCSNAME
  2

  9
$UCSORG
 10
0.0
 20
0.0
 30
0.0
  9
$UCSXDIR
 10
1.0
 20
0.0
 30
0.0
  9
$UCSYDIR
 10
0.0
 20
1.0
 30
0.0
  9
$UCSORTHOREF
  2

  9
$UCSORTHOVIEW
 70
     0
  9
$UCSORGTOP
 10
0.0
 20
0.0
 30
0.0
  9
$UCSORGBOTTOM
 10
0.0
 20
0.0
 30
0.0
  9
$UCSORGLEFT
 10
0.0
 20
0.0
 30
0.0
  9
$UCSORGRIGHT
 10
0.0
 20
0.0
 30
0.0
  9
$UCSORGFRONT
 10
0.0
 20
0.0
 30
0.0
  9
$UCSORGBACK
 10
0.0
 20
0.0
 30
0.0
  9
$PUCSBASE
  2

  9
$PUCSNAME
  2

  9
$PUCSORG
 10
0.0
 20
0.0
 30
0.0
  9
$PUCSXDIR
 10
1.0
 20
0.0
 30
0.0
  9
$PUCSYDIR
 10
0.0
 20
1.0
 30
0.0
  9
$PUCSORTHOREF
  2

  9
$PUCSORTHOVIEW
 70
     0
  9
$PUCSORGTOP
 10
0.0
 20
0.0
 30
0.0
  9
$PUCSORGBOTTOM
 10
0.0
 20
0.0
 30
0.0
  9
$PUCSORGLEFT
 10
0.0
 20
0.0
 30
0.0
  9
$PUCSORGRIGHT
 10
0.0
 20
0.0
 30
0.0
  9
$PUCSORGFRONT
 10
0.0
 20
0.0
 30
0.0
  9
$PUCSORGBACK
 10
0.0
 20
0.0
 30
0.0
  9
$USERI1
 70
     0
  9
$USERI2
 70
     0
  9
$USERI3
 70
     0
  9
$USERI4
 70
     0
  9
$USERI5
 70
     0
  9
$USERR1
 40
0.0
  9
$USERR2
 40
0.0
  9
$USERR3
 40
0.0
  9
$USERR4
 40
0.0
  9
$USERR5
 40
0.0
  9
$WORLDVIEW
 70
     1
  9
$SHADEDGE
 70
     3
  9
$SHADEDIF
 70
    70
  9
$TILEMODE
 70
     1
  9
$MAXACTVP
 70
    64
  9
$PINSBASE
 10
0.0
 20
0.0
 30
0.0
  9
$PLIMCHECK
 70
     0
  9
$PEXTMIN
 10
1.000000000000000E+20
 20
1.000000000000000E+20
 30
1.000000000000000E+20
  9
$PEXTMAX
 10
-1.000000000000000E+20
 20
-1.000000000000000E+20
 30
-1.000000000000000E+20
  9
$PLIMMIN
 10
0.0
 20
0.0
  9
$PLIMMAX
 10
12.0
 20
9.0
  9
$UNITMODE
 70
     0
  9
$VISRETAIN
 70
     1
  9
$PLINEGEN
 70
     0
  9
$PSLTSCALE
 70
     1
  9
$TREEDEPTH
 70
  3020
  9
$CMLSTYLE
  2
Standard
  9
$CMLJUST
 70
     0
  9
$CMLSCALE
 40
1.0
  9
$PROXYGRAPHICS
 70
     1
  9
$MEASUREMENT
 70
     0
  9
$CELWEIGHT
370
    -1
  9
$ENDCAPS
280
     0
  9
$JOINSTYLE
280
     0
  9
$LWDISPLAY
290
     1
  9
$INSUNITS
 70
     1
  9
$HYPERLINKBASE
  1

  9
$STYLESHEET
  1

  9
$XEDIT
290
     1
  9
$CEPSNTYPE
380
     0
  9
$PSTYLEMODE
290
     1
  9
$FINGERPRINTGUID
  2
{981E0AB7-AA55-46B6-D07E-F07156836CAE}
  9
$VERSIONGUID
  2
{FAEB1C32-E019-11D5-929B-00C0DF256EC4}
  9
$EXTNAMES
290
     1
  9
$PSVPSCALE
 40
0.0
  9
$OLESTARTUP
290
     0
  9
$SORTENTS
280
   127
  9
$INDEXCTL
280
     0
  9
$HIDETEXT
280
     1
  9
$XCLIPFRAME
290
     0
  9
$HALOGAP
280
     0
  9
$OBSCOLOR
 70
   257
  9
$OBSLTYPE
280
     0
  9
$INTERSECTIONDISPLAY
280
     0
  9
$INTERSECTIONCOLOR
 70
   257
  9
$DIMASSOC
280
     2
  9
$PROJECTNAME
  1

  9
$CAMERADISPLAY
290
     0
  9
$LENSLENGTH
 40
50.0
  9
$CAMERAHEIGHT
 40
0.0
  9
$STEPSPERSEC
 40
2.0
  9
$STEPSIZE
 40
6.0
  9
$3DDWFPREC
 40
2.0
  9
$PSOLWIDTH
 40
0.25
  9
$PSOLHEIGHT
 40
4.0
  9
$LOFTANG1
 40
1.570796326794897
  9
$LOFTANG2
 40
1.570796326794897
  9
$LOFTMAG1
 40
0.0
  9
$LOFTMAG2
 40
0.0
  9
$LOFTPARAM
 70
     7
  9
$LOFTNORMALS
280
     1
  9
$LATITUDE
 40
37.795
  9
$LONGITUDE
 40
-122.394
  9
$NORTHDIRECTION
 40
0.0
  9
$TIMEZONE
 70
 -8000
  9
$LIGHTGLYPHDISPLAY
280
     1
  9
$TILEMODELIGHTSYNCH
280
     1
  9
$CMATERIAL
347
3C
  9
$SOLIDHIST
280
     1
  9
$SHOWHIST
280
     1
  9
$DWFFRAME
280
     2
  9
$DGNFRAME
280
     2
  9
$REALWORLDSCALE
290
     1
  9
$INTERFERECOLOR
 62
   256
  9
$CSHADOW
280
     0
  9
$SHADOWPLANELOCATION
 40
0.0
  0
ENDSEC
  0
SECTION
  2
CLASSES
  0
CLASS
  1
ACDBDICTIONARYWDFLT
  2
AcDbDictionaryWithDefault
  3
ObjectDBX Classes
 90
        0
 91
        4
280
     0
281
     0
  0
CLASS
  1
VISUALSTYLE
  2
AcDbVisualStyle
  3
ObjectDBX Classes
 90
     4095
 91
        4
280
     0
281
     0
  0
CLASS
  1
MATERIAL
  2
AcDbMaterial
  3
ObjectDBX Classes
 90
     1153
 91
        4
280
     0
281
     0
  0
CLASS
  1
SUN
  2
AcDbSun
  3
SCENEOE
 90
     1024
 91
        4
280
     0
281
     0
  0
ENDSEC
  0
SECTION
  2
TABLES
  0
TABLE
  2
VPORT
  5
8
330
0
100
AcDbSymbolTable
 70
     1
  0
VPORT
  5
29
330
8
100
AcDbSymbolTableRecord
100
AcDbViewportTableRecord
  2
*Active
 70
     0
 10
0.0
 20
0.0
 11
1.0
 21
1.0
 12
0.0
 22
0.0
 13
0.0
 23
0.0
 14
0.5
 24
0.5
 15
0.5
 25
0.5
 16
0.0
 26
0.0
 36
1.0
 17
105.0007777515277
 27
148.5000416295417
 37
0.0
 40
297.0000832590835
 41
0.7070757462376325
 42
50.0
 43
0.0
 44
0.0
 50
0.0
 51
0.0
 71
     0
 72
   100
 73
     1
 74
     3
 75
     0
 76
     0
 77
     0
 78
     0
281
     0
 65
     1
110
0.0
120
0.0
130
0.0
111
1.0
121
0.0
131
0.0
112
0.0
122
1.0
132
0.0
 79
     0
146
0.0
 60
     3
 61
     5
292
     1
282
     1
141
0.0
142
0.0
 63
   250
361
3F
  0
ENDTAB
  0
TABLE
  2
LTYPE
  5
5
330
0
100
AcDbSymbolTable
 70
    21
  0
LTYPE
  5
14
330
5
100
AcDbSymbolTableRecord
100
AcDbLinetypeTableRecord
  2
ByBlock
 70
     0
  3

 72
    65
 73
     0
 40
0.0
  0
LTYPE
  5
15
330
5
100
AcDbSymbolTableRecord
100
AcDbLinetypeTableRecord
  2
ByLayer
 70
     0
  3

 72
    65
 73
     0
 40
0.0
  0
LTYPE
  5
16
330
5
100
AcDbSymbolTableRecord
100
AcDbLinetypeTableRecord
  2
Continuous
 70
     0
  3
Solid line
 72
    65
 73
     0
 40
0.0
  0
LTYPE
  5
7A
330
5
100
AcDbSymbolTableRecord
100
AcDbLinetypeTableRecord
  2
AI-Linetype-1
 70
     0
  3
Adobe Illustrator Linetype No. 1
 72
    65
 73
     2
 40
13.33685415782234
 49
6.668427078911168
 74
     0
 49
-6.668427078911168
 74
     0
  0
LTYPE
  5
8A
330
5
100
AcDbSymbolTableRecord
100
AcDbLinetypeTableRecord
  2
AI-Linetype-2
 70
     0
  3
Adobe Illustrator Linetype No. 2
 72
    65
 73
     2
 40
13.37299939986856
 49
6.686499699934278
 74
     0
 49
-6.686499699934278
 74
     0
  0
LTYPE
  5
AF
330
5
100
AcDbSymbolTableRecord
100
AcDbLinetypeTableRecord
  2
AI-Linetype-3
 70
     0
  3
Adobe Illustrator Linetype No. 3
 72
    65
 73
     2
 40
13.37300478283025
 49
6.686502391415126
 74
     0
 49
-6.686502391415126
 74
     0
  0
LTYPE
  5
BF
330
5
100
AcDbSymbolTableRecord
100
AcDbLinetypeTableRecord
  2
AI-Linetype-4
 70
     0
  3
Adobe Illustrator Linetype No. 4
 72
    65
 73
     2
 40
13.33685684930318
 49
6.668428424651592
 74
     0
 49
-6.668428424651592
 74
     0
  0
LTYPE
  5
CF
330
5
100
AcDbSymbolTableRecord
100
AcDbLinetypeTableRecord
  2
AI-Linetype-5
 70
     0
  3
Adobe Illustrator Linetype No. 5
 72
    65
 73
     2
 40
13.33685550356276
 49
6.66842775178138
 74
     0
 49
-6.66842775178138
 74
     0
  0
LTYPE
  5
DF
330
5
100
AcDbSymbolTableRecord
100
AcDbLinetypeTableRecord
  2
AI-Linetype-6
 70
     0
  3
Adobe Illustrator Linetype No. 6
 72
    65
 73
     2
 40
13.37295229895372
 49
6.686476149476859
 74
     0
 49
-6.686476149476859
 74
     0
  0
LTYPE
  5
EF
330
5
100
AcDbSymbolTableRecord
100
AcDbLinetypeTableRecord
  2
AI-Linetype-7
 70
     0
  3
Adobe Illustrator Linetype No. 7
 72
    65
 73
     2
 40
13.37295364469414
 49
6.686476822347071
 74
     0
 49
-6.686476822347071
 74
     0
  0
LTYPE
  5
FF
330
5
100
AcDbSymbolTableRecord
100
AcDbLinetypeTableRecord
  2
AI-Linetype-8
 70
     0
  3
Adobe Illustrator Linetype No. 8
 72
    65
 73
     2
 40
13.33685819504361
 49
6.668429097521804
 74
     0
 49
-6.668429097521804
 74
     0
  0
LTYPE
  5
12B
330
5
100
AcDbSymbolTableRecord
100
AcDbLinetypeTableRecord
  2
AI-Linetype-9
 70
     0
  3
Adobe Illustrator Linetype No. 9
 72
    65
 73
     2
 40
13.6563275515006
 49
6.828163775750302
 74
     0
 49
-6.828163775750302
 74
     0
  0
LTYPE
  5
13B
330
5
100
AcDbSymbolTableRecord
100
AcDbLinetypeTableRecord
  2
AI-Linetype-10
 70
     0
  3
Adobe Illustrator Linetype No. 10
 72
    65
 73
     2
 40
13.65633562594315
 49
6.828167812971574
 74
     0
 49
-6.828167812971574
 74
     0
  0
LTYPE
  5
14B
330
5
100
AcDbSymbolTableRecord
100
AcDbLinetypeTableRecord
  2
AI-Linetype-11
 70
     0
  3
Adobe Illustrator Linetype No. 11
 72
    65
 73
     2
 40
13.6563275515006
 49
6.828163775750302
 74
     0
 49
-6.828163775750302
 74
     0
  0
LTYPE
  5
15B
330
5
100
AcDbSymbolTableRecord
100
AcDbLinetypeTableRecord
  2
AI-Linetype-12
 70
     0
  3
Adobe Illustrator Linetype No. 12
 72
    65
 73
     2
 40
13.6563275515006
 49
6.828163775750302
 74
     0
 49
-6.828163775750302
 74
     0
  0
LTYPE
  5
16B
330
5
100
AcDbSymbolTableRecord
100
AcDbLinetypeTableRecord
  2
AI-Linetype-13
 70
     0
  3
Adobe Illustrator Linetype No. 13
 72
    65
 73
     2
 40
13.65633697168357
 49
6.828168485841786
 74
     0
 49
-6.828168485841786
 74
     0
  0
LTYPE
  5
17B
330
5
100
AcDbSymbolTableRecord
100
AcDbLinetypeTableRecord
  2
AI-Linetype-14
 70
     0
  3
Adobe Illustrator Linetype No. 14
 72
    65
 73
     2
 40
13.65632216853891
 49
6.828161084269455
 74
     0
 49
-6.828161084269455
 74
     0
  0
LTYPE
  5
18B
330
5
100
AcDbSymbolTableRecord
100
AcDbLinetypeTableRecord
  2
AI-Linetype-15
 70
     0
  3
Adobe Illustrator Linetype No. 15
 72
    65
 73
     2
 40
13.65632351427933
 49
6.828161757139667
 74
     0
 49
-6.828161757139667
 74
     0
  0
LTYPE
  5
19B
330
5
100
AcDbSymbolTableRecord
100
AcDbLinetypeTableRecord
  2
AI-Linetype-16
 70
     0
  3
Adobe Illustrator Linetype No. 16
 72
    65
 73
     2
 40
13.6563275515006
 49
6.828163775750302
 74
     0
 49
-6.828163775750302
 74
     0
  0
LTYPE
  5
1CD
330
5
100
AcDbSymbolTableRecord
100
AcDbLinetypeTableRecord
  2
AI-Linetype-17
 70
     0
  3
Adobe Illustrator Linetype No. 17
 72
    65
 73
     2
 40
7.118798625014056
 49
3.559399312507028
 74
     0
 49
-3.559399312507028
 74
     0
  0
LTYPE
  5
1D2
330
5
100
AcDbSymbolTableRecord
100
AcDbLinetypeTableRecord
  2
AI-Linetype-18
 70
     0
  3
Adobe Illustrator Linetype No. 18
 72
    65
 73
     4
 40
32.03475126419286
 49
21.35655332667177
 74
     0
 49
-3.559399312507028
 74
     0
 49
3.559399312507028
 74
     0
 49
-3.559399312507028
 74
     0
  0
LTYPE
  5
1EB
330
5
100
AcDbSymbolTableRecord
100
AcDbLinetypeTableRecord
  2
AI-Linetype-19
 70
     0
  3
Adobe Illustrator Linetype No. 19
 72
    65
 73
     2
 40
7.147983697587733
 49
3.573991848793867
 74
     0
 49
-3.573991848793867
 74
     0
  0
LTYPE
  5
1F0
330
5
100
AcDbSymbolTableRecord
100
AcDbLinetypeTableRecord
  2
AI-Linetype-20
 70
     0
  3
Adobe Illustrator Linetype No. 20
 72
    65
 73
     4
 40
32.16608543651482
 49
21.44410989013322
 74
     0
 49
-3.573991848793867
 74
     0
 49
3.573991848793867
 74
     0
 49
-3.573991848793867
 74
     0
  0
ENDTAB
  0
TABLE
  2
LAYER
  5
2
330
0
100
AcDbSymbolTable
 70
     1
  0
LAYER
  5
10
330
2
100
AcDbSymbolTableRecord
100
AcDbLayerTableRecord
  2
0
 70
     0
 62
     7
  6
Continuous
370
    -3
390
F
347
3E
  0
ENDTAB
  0
TABLE
  2
STYLE
  5
3
330
0
100
AcDbSymbolTable
 70
     1
  0
STYLE
  5
11
330
3
100
AcDbSymbolTableRecord
100
AcDbTextStyleTableRecord
  2
Standard
 70
     0
 40
0.0
 41
1.0
 50
0.0
 71
     0
 42
0.2
  3
txt
  4

  0
ENDTAB
  0
TABLE
  2
VIEW
  5
6
330
0
100
AcDbSymbolTable
 70
     0
  0
ENDTAB
  0
TABLE
  2
UCS
  5
7
330
0
100
AcDbSymbolTable
 70
     0
  0
ENDTAB
  0
TABLE
  2
APPID
  5
9
330
0
100
AcDbSymbolTable
 70
     1
  0
APPID
  5
12
330
9
100
AcDbSymbolTableRecord
100
AcDbRegAppTableRecord
  2
ACAD
 70
     0
  0
ENDTAB
  0
TABLE
  2
DIMSTYLE
  5
A
330
0
100
AcDbSymbolTable
 70
     1
100
AcDbDimStyleTable
  0
DIMSTYLE
105
27
330
A
100
AcDbSymbolTableRecord
100
AcDbDimStyleTableRecord
  2
Standard
 70
     0
178
     0
340
11
  0
ENDTAB
  0
TABLE
  2
BLOCK_RECORD
  5
1
330
0
100
AcDbSymbolTable
 70
    79
  0
BLOCK_RECORD
  5
1F
330
1
100
AcDbSymbolTableRecord
100
AcDbBlockTableRecord
  2
*Model_Space
340
22
 70
     0
280
     1
281
     0
  0
BLOCK_RECORD
  5
1B
330
1
100
AcDbSymbolTableRecord
100
AcDbBlockTableRecord
  2
*Paper_Space
340
1E
 70
     0
280
     1
281
     0
  0
BLOCK_RECORD
  5
23
330
1
100
AcDbSymbolTableRecord
100
AcDbBlockTableRecord
  2
*Paper_Space0
340
26
 70
     0
280
     1
281
     0
  0
BLOCK_RECORD
  5
40
330
1
100
AcDbSymbolTableRecord
100
AcDbBlockTableRecord
  2
block 2
340
0
102
{BLKREFS
331
41
102
}
 70
     0
280
     1
281
     0
  0
BLOCK_RECORD
  5
45
330
1
100
AcDbSymbolTableRecord
100
AcDbBlockTableRecord
  2
block 3
340
0
102
{BLKREFS
331
46
102
}
 70
     0
280
     1
281
     0
  0
BLOCK_RECORD
  5
4A
330
1
100
AcDbSymbolTableRecord
100
AcDbBlockTableRecord
  2
block 4
340
0
102
{BLKREFS
331
4B
102
}
 70
     0
280
     1
281
     0
  0
BLOCK_RECORD
  5
4F
330
1
100
AcDbSymbolTableRecord
100
AcDbBlockTableRecord
  2
block 5
340
0
102
{BLKREFS
331
50
102
}
 70
     0
280
     1
281
     0
  0
BLOCK_RECORD
  5
54
330
1
100
AcDbSymbolTableRecord
100
AcDbBlockTableRecord
  2
block 6
340
0
102
{BLKREFS
331
55
102
}
 70
     0
280
     1
281
     0
  0
BLOCK_RECORD
  5
59
330
1
100
AcDbSymbolTableRecord
100
AcDbBlockTableRecord
  2
block 7
340
0
102
{BLKREFS
331
5A
102
}
 70
     0
280
     1
281
     0
  0
BLOCK_RECORD
  5
5E
330
1
100
AcDbSymbolTableRecord
100
AcDbBlockTableRecord
  2
block 8
340
0
102
{BLKREFS
331
5F
102
}
 70
     0
280
     1
281
     0
  0
BLOCK_RECORD
  5
63
330
1
100
AcDbSymbolTableRecord
100
AcDbBlockTableRecord
  2
block 9
340
0
102
{BLKREFS
331
64
102
}
 70
     0
280
     1
281
     0
  0
BLOCK_RECORD
  5
69
330
1
100
AcDbSymbolTableRecord
100
AcDbBlockTableRecord
  2
block 10
340
0
102
{BLKREFS
331
6A
102
}
 70
     0
280
     1
281
     0
  0
BLOCK_RECORD
  5
70
330
1
100
AcDbSymbolTableRecord
100
AcDbBlockTableRecord
  2
block 11
340
0
102
{BLKREFS
331
71
102
}
 70
     0
280
     1
281
     0
  0
BLOCK_RECORD
  5
75
330
1
100
AcDbSymbolTableRecord
100
AcDbBlockTableRecord
  2
block 12
340
0
102
{BLKREFS
331
76
102
}
 70
     0
280
     1
281
     0
  0
BLOCK_RECORD
  5
7B
330
1
100
AcDbSymbolTableRecord
100
AcDbBlockTableRecord
  2
block 13
340
0
102
{BLKREFS
331
7C
102
}
 70
     0
280
     1
281
     0
  0
BLOCK_RECORD
  5
80
330
1
100
AcDbSymbolTableRecord
100
AcDbBlockTableRecord
  2
block 14
340
0
102
{BLKREFS
331
81
102
}
 70
     0
280
     1
281
     0
  0
BLOCK_RECORD
  5
85
330
1
100
AcDbSymbolTableRecord
100
AcDbBlockTableRecord
  2
block 15
340
0
102
{BLKREFS
331
86
102
}
 70
     0
280
     1
281
     0
  0
BLOCK_RECORD
  5
8B
330
1
100
AcDbSymbolTableRecord
100
AcDbBlockTableRecord
  2
block 16
340
0
102
{BLKREFS
331
8C
102
}
 70
     0
280
     1
281
     0
  0
BLOCK_RECORD
  5
90
330
1
100
AcDbSymbolTableRecord
100
AcDbBlockTableRecord
  2
block 17
340
0
102
{BLKREFS
331
91
102
}
 70
     0
280
     1
281
     0
  0
BLOCK_RECORD
  5
95
330
1
100
AcDbSymbolTableRecord
100
AcDbBlockTableRecord
  2
block 18
340
0
102
{BLKREFS
331
96
102
}
 70
     0
280
     1
281
     0
  0
BLOCK_RECORD
  5
9B
330
1
100
AcDbSymbolTableRecord
100
AcDbBlockTableRecord
  2
block 19
340
0
102
{BLKREFS
331
9C
102
}
 70
     0
280
     1
281
     0
  0
BLOCK_RECORD
  5
A0
330
1
100
AcDbSymbolTableRecord
100
AcDbBlockTableRecord
  2
block 20
340
0
102
{BLKREFS
331
A1
102
}
 70
     0
280
     1
281
     0
  0
BLOCK_RECORD
  5
A5
330
1
100
AcDbSymbolTableRecord
100
AcDbBlockTableRecord
  2
block 21
340
0
102
{BLKREFS
331
A6
102
}
 70
     0
280
     1
281
     0
  0
BLOCK_RECORD
  5
AA
330
1
100
AcDbSymbolTableRecord
100
AcDbBlockTableRecord
  2
block 22
340
0
102
{BLKREFS
331
AB
102
}
 70
     0
280
     1
281
     0
  0
BLOCK_RECORD
  5
B0
330
1
100
AcDbSymbolTableRecord
100
AcDbBlockTableRecord
  2
block 23
340
0
102
{BLKREFS
331
B1
102
}
 70
     0
280
     1
281
     0
  0
BLOCK_RECORD
  5
B5
330
1
100
AcDbSymbolTableRecord
100
AcDbBlockTableRecord
  2
block 24
340
0
102
{BLKREFS
331
B6
102
}
 70
     0
280
     1
281
     0
  0
BLOCK_RECORD
  5
BA
330
1
100
AcDbSymbolTableRecord
100
AcDbBlockTableRecord
  2
block 25
340
0
102
{BLKREFS
331
BB
102
}
 70
     0
280
     1
281
     0
  0
BLOCK_RECORD
  5
C0
330
1
100
AcDbSymbolTableRecord
100
AcDbBlockTableRecord
  2
block 26
340
0
102
{BLKREFS
331
C1
102
}
 70
     0
280
     1
281
     0
  0
BLOCK_RECORD
  5
C5
330
1
100
AcDbSymbolTableRecord
100
AcDbBlockTableRecord
  2
block 27
340
0
102
{BLKREFS
331
C6
102
}
 70
     0
280
     1
281
     0
  0
BLOCK_RECORD
  5
CA
330
1
100
AcDbSymbolTableRecord
100
AcDbBlockTableRecord
  2
block 28
340
0
102
{BLKREFS
331
CB
102
}
 70
     0
280
     1
281
     0
  0
BLOCK_RECORD
  5
D0
330
1
100
AcDbSymbolTableRecord
100
AcDbBlockTableRecord
  2
block 29
340
0
102
{BLKREFS
331
D1
102
}
 70
     0
280
     1
281
     0
  0
BLOCK_RECORD
  5
D5
330
1
100
AcDbSymbolTableRecord
100
AcDbBlockTableRecord
  2
block 30
340
0
102
{BLKREFS
331
D6
102
}
 70
     0
280
     1
281
     0
  0
BLOCK_RECORD
  5
DA
330
1
100
AcDbSymbolTableRecord
100
AcDbBlockTableRecord
  2
block 31
340
0
102
{BLKREFS
331
DB
102
}
 70
     0
280
     1
281
     0
  0
BLOCK_RECORD
  5
E0
330
1
100
AcDbSymbolTableRecord
100
AcDbBlockTableRecord
  2
block 32
340
0
102
{BLKREFS
331
E1
102
}
 70
     0
280
     1
281
     0
  0
BLOCK_RECORD
  5
E5
330
1
100
AcDbSymbolTableRecord
100
AcDbBlockTableRecord
  2
block 33
340
0
102
{BLKREFS
331
E6
102
}
 70
     0
280
     1
281
     0
  0
BLOCK_RECORD
  5
EA
330
1
100
AcDbSymbolTableRecord
100
AcDbBlockTableRecord
  2
block 34
340
0
102
{BLKREFS
331
EB
102
}
 70
     0
280
     1
281
     0
  0
BLOCK_RECORD
  5
F0
330
1
100
AcDbSymbolTableRecord
100
AcDbBlockTableRecord
  2
block 35
340
0
102
{BLKREFS
331
F1
102
}
 70
     0
280
     1
281
     0
  0
BLOCK_RECORD
  5
F5
330
1
100
AcDbSymbolTableRecord
100
AcDbBlockTableRecord
  2
block 36
340
0
102
{BLKREFS
331
F6
102
}
 70
     0
280
     1
281
     0
  0
BLOCK_RECORD
  5
FA
330
1
100
AcDbSymbolTableRecord
100
AcDbBlockTableRecord
  2
block 37
340
0
102
{BLKREFS
331
FB
102
}
 70
     0
280
     1
281
     0
  0
BLOCK_RECORD
  5
100
330
1
100
AcDbSymbolTableRecord
100
AcDbBlockTableRecord
  2
block 38
340
0
102
{BLKREFS
331
101
102
}
 70
     0
280
     1
281
     0
  0
BLOCK_RECORD
  5
105
330
1
100
AcDbSymbolTableRecord
100
AcDbBlockTableRecord
  2
block 39
340
0
102
{BLKREFS
331
106
102
}
 70
     0
280
     1
281
     0
  0
BLOCK_RECORD
  5
10A
330
1
100
AcDbSymbolTableRecord
100
AcDbBlockTableRecord
  2
block 40
340
0
102
{BLKREFS
331
10B
102
}
 70
     0
280
     1
281
     0
  0
BLOCK_RECORD
  5
10F
330
1
100
AcDbSymbolTableRecord
100
AcDbBlockTableRecord
  2
block 41
340
0
102
{BLKREFS
331
110
102
}
 70
     0
280
     1
281
     0
  0
BLOCK_RECORD
  5
117
330
1
100
AcDbSymbolTableRecord
100
AcDbBlockTableRecord
  2
block 42
340
0
102
{BLKREFS
331
118
102
}
 70
     0
280
     1
281
     0
  0
BLOCK_RECORD
  5
11C
330
1
100
AcDbSymbolTableRecord
100
AcDbBlockTableRecord
  2
block 43
340
0
102
{BLKREFS
331
11D
102
}
 70
     0
280
     1
281
     0
  0
BLOCK_RECORD
  5
121
330
1
100
AcDbSymbolTableRecord
100
AcDbBlockTableRecord
  2
block 44
340
0
102
{BLKREFS
331
122
102
}
 70
     0
280
     1
281
     0
  0
BLOCK_RECORD
  5
126
330
1
100
AcDbSymbolTableRecord
100
AcDbBlockTableRecord
  2
block 45
340
0
102
{BLKREFS
331
127
102
}
 70
     0
280
     1
281
     0
  0
BLOCK_RECORD
  5
12C
330
1
100
AcDbSymbolTableRecord
100
AcDbBlockTableRecord
  2
block 46
340
0
102
{BLKREFS
331
12D
102
}
 70
     0
280
     1
281
     0
  0
BLOCK_RECORD
  5
131
330
1
100
AcDbSymbolTableRecord
100
AcDbBlockTableRecord
  2
block 47
340
0
102
{BLKREFS
331
132
102
}
 70
     0
280
     1
281
     0
  0
BLOCK_RECORD
  5
136
330
1
100
AcDbSymbolTableRecord
100
AcDbBlockTableRecord
  2
block 48
340
0
102
{BLKREFS
331
137
102
}
 70
     0
280
     1
281
     0
  0
BLOCK_RECORD
  5
13C
330
1
100
AcDbSymbolTableRecord
100
AcDbBlockTableRecord
  2
block 49
340
0
102
{BLKREFS
331
13D
102
}
 70
     0
280
     1
281
     0
  0
BLOCK_RECORD
  5
141
330
1
100
AcDbSymbolTableRecord
100
AcDbBlockTableRecord
  2
block 50
340
0
102
{BLKREFS
331
142
102
}
 70
     0
280
     1
281
     0
  0
BLOCK_RECORD
  5
146
330
1
100
AcDbSymbolTableRecord
100
AcDbBlockTableRecord
  2
block 51
340
0
102
{BLKREFS
331
147
102
}
 70
     0
280
     1
281
     0
  0
BLOCK_RECORD
  5
14C
330
1
100
AcDbSymbolTableRecord
100
AcDbBlockTableRecord
  2
block 52
340
0
102
{BLKREFS
331
14D
102
}
 70
     0
280
     1
281
     0
  0
BLOCK_RECORD
  5
151
330
1
100
AcDbSymbolTableRecord
100
AcDbBlockTableRecord
  2
block 53
340
0
102
{BLKREFS
331
152
102
}
 70
     0
280
     1
281
     0
  0
BLOCK_RECORD
  5
156
330
1
100
AcDbSymbolTableRecord
100
AcDbBlockTableRecord
  2
block 54
340
0
102
{BLKREFS
331
157
102
}
 70
     0
280
     1
281
     0
  0
BLOCK_RECORD
  5
15C
330
1
100
AcDbSymbolTableRecord
100
AcDbBlockTableRecord
  2
block 55
340
0
102
{BLKREFS
331
15D
102
}
 70
     0
280
     1
281
     0
  0
BLOCK_RECORD
  5
161
330
1
100
AcDbSymbolTableRecord
100
AcDbBlockTableRecord
  2
block 56
340
0
102
{BLKREFS
331
162
102
}
 70
     0
280
     1
281
     0
  0
BLOCK_RECORD
  5
166
330
1
100
AcDbSymbolTableRecord
100
AcDbBlockTableRecord
  2
block 57
340
0
102
{BLKREFS
331
167
102
}
 70
     0
280
     1
281
     0
  0
BLOCK_RECORD
  5
16C
330
1
100
AcDbSymbolTableRecord
100
AcDbBlockTableRecord
  2
block 58
340
0
102
{BLKREFS
331
16D
102
}
 70
     0
280
     1
281
     0
  0
BLOCK_RECORD
  5
171
330
1
100
AcDbSymbolTableRecord
100
AcDbBlockTableRecord
  2
block 59
340
0
102
{BLKREFS
331
172
102
}
 70
     0
280
     1
281
     0
  0
BLOCK_RECORD
  5
176
330
1
100
AcDbSymbolTableRecord
100
AcDbBlockTableRecord
  2
block 60
340
0
102
{BLKREFS
331
177
102
}
 70
     0
280
     1
281
     0
  0
BLOCK_RECORD
  5
17C
330
1
100
AcDbSymbolTableRecord
100
AcDbBlockTableRecord
  2
block 61
340
0
102
{BLKREFS
331
17D
102
}
 70
     0
280
     1
281
     0
  0
BLOCK_RECORD
  5
181
330
1
100
AcDbSymbolTableRecord
100
AcDbBlockTableRecord
  2
block 62
340
0
102
{BLKREFS
331
182
102
}
 70
     0
280
     1
281
     0
  0
BLOCK_RECORD
  5
186
330
1
100
AcDbSymbolTableRecord
100
AcDbBlockTableRecord
  2
block 63
340
0
102
{BLKREFS
331
187
102
}
 70
     0
280
     1
281
     0
  0
BLOCK_RECORD
  5
18C
330
1
100
AcDbSymbolTableRecord
100
AcDbBlockTableRecord
  2
block 64
340
0
102
{BLKREFS
331
18D
102
}
 70
     0
280
     1
281
     0
  0
BLOCK_RECORD
  5
191
330
1
100
AcDbSymbolTableRecord
100
AcDbBlockTableRecord
  2
block 65
340
0
102
{BLKREFS
331
192
102
}
 70
     0
280
     1
281
     0
  0
BLOCK_RECORD
  5
196
330
1
100
AcDbSymbolTableRecord
100
AcDbBlockTableRecord
  2
block 66
340
0
102
{BLKREFS
331
197
102
}
 70
     0
280
     1
281
     0
  0
BLOCK_RECORD
  5
19C
330
1
100
AcDbSymbolTableRecord
100
AcDbBlockTableRecord
  2
block 67
340
0
102
{BLKREFS
331
19D
102
}
 70
     0
280
     1
281
     0
  0
BLOCK_RECORD
  5
1A1
330
1
100
AcDbSymbolTableRecord
100
AcDbBlockTableRecord
  2
block 68
340
0
102
{BLKREFS
331
1A2
102
}
 70
     0
280
     1
281
     0
  0
BLOCK_RECORD
  5
1A6
330
1
100
AcDbSymbolTableRecord
100
AcDbBlockTableRecord
  2
block 69
340
0
102
{BLKREFS
331
1A7
102
}
 70
     0
280
     1
281
     0
  0
BLOCK_RECORD
  5
1AB
330
1
100
AcDbSymbolTableRecord
100
AcDbBlockTableRecord
  2
block 70
340
0
102
{BLKREFS
331
1AC
102
}
 70
     0
280
     1
281
     0
  0
BLOCK_RECORD
  5
1B0
330
1
100
AcDbSymbolTableRecord
100
AcDbBlockTableRecord
  2
block 71
340
0
102
{BLKREFS
331
1B1
102
}
 70
     0
280
     1
281
     0
  0
BLOCK_RECORD
  5
1B5
330
1
100
AcDbSymbolTableRecord
100
AcDbBlockTableRecord
  2
block 72
340
0
102
{BLKREFS
331
1B6
102
}
 70
     0
280
     1
281
     0
  0
BLOCK_RECORD
  5
1BA
330
1
100
AcDbSymbolTableRecord
100
AcDbBlockTableRecord
  2
block 73
340
0
102
{BLKREFS
331
1BB
102
}
 70
     0
280
     1
281
     0
  0
BLOCK_RECORD
  5
1BE
330
1
100
AcDbSymbolTableRecord
100
AcDbBlockTableRecord
  2
block 74
340
0
102
{BLKREFS
331
1BF
102
}
 70
     0
280
     1
281
     0
  0
BLOCK_RECORD
  5
1C2
330
1
100
AcDbSymbolTableRecord
100
AcDbBlockTableRecord
  2
block 75
340
0
102
{BLKREFS
331
1C3
102
}
 70
     0
280
     1
281
     0
  0
BLOCK_RECORD
  5
1D8
330
1
100
AcDbSymbolTableRecord
100
AcDbBlockTableRecord
  2
block 76
340
0
102
{BLKREFS
331
1D9
102
}
 70
     0
280
     1
281
     0
  0
BLOCK_RECORD
  5
1DC
330
1
100
AcDbSymbolTableRecord
100
AcDbBlockTableRecord
  2
block 77
340
0
102
{BLKREFS
331
1DD
102
}
 70
     0
280
     1
281
     0
  0
BLOCK_RECORD
  5
1E0
330
1
100
AcDbSymbolTableRecord
100
AcDbBlockTableRecord
  2
block 78
340
0
102
{BLKREFS
331
1E1
102
}
 70
     0
280
     1
281
     0
  0
BLOCK_RECORD
  5
1F6
330
1
100
AcDbSymbolTableRecord
100
AcDbBlockTableRecord
  2
block 79
340
0
102
{BLKREFS
331
1F7
102
}
 70
     0
280
     1
281
     0
  0
ENDTAB
  0
ENDSEC
  0
SECTION
  2
BLOCKS
  0
BLOCK
  5
20
330
1F
100
AcDbEntity
  8
0
100
AcDbBlockBegin
  2
*Model_Space
 70
     0
 10
0.0
 20
0.0
 30
0.0
  3
*Model_Space
  1

  0
ENDBLK
  5
21
330
1F
100
AcDbEntity
  8
0
100
AcDbBlockEnd
  0
BLOCK
  5
1C
330
1B
100
AcDbEntity
 67
     1
  8
0
100
AcDbBlockBegin
  2
*Paper_Space
 70
     0
 10
0.0
 20
0.0
 30
0.0
  3
*Paper_Space
  1

  0
ENDBLK
  5
1D
330
1B
100
AcDbEntity
 67
     1
  8
0
100
AcDbBlockEnd
  0
BLOCK
  5
24
330
23
100
AcDbEntity
  8
0
100
AcDbBlockBegin
  2
*Paper_Space0
 70
     0
 10
0.0
 20
0.0
 30
0.0
  3
*Paper_Space0
  1

  0
ENDBLK
  5
25
330
23
100
AcDbEntity
  8
0
100
AcDbBlockEnd
  0
BLOCK
  5
42
330
40
100
AcDbEntity
  8
0
100
AcDbBlockBegin
  2
block 2
 70
     0
 10
0.0
 20
0.0
 30
0.0
  3
block 2
  1

  0
SPLINE
  5
44
330
40
100
AcDbEntity
  8
0
 62
   250
370
    25
100
AcDbSpline
210
0.0
220
0.0
230
1.0
 70
     8
 71
     3
 72
    65
 73
    61
 74
     0
 42
0.0000000001
 43
0.0000000001
 12
1.0
 22
0.0
 32
0.0
 13
1.0
 23
0.0
 33
0.0
 40
0.0
 40
0.0
 40
0.0
 40
0.0
 40
1.0
 40
1.0
 40
1.0
 40
2.0
 40
2.0
 40
2.0
 40
3.0
 40
3.0
 40
3.0
 40
4.0
 40
4.0
 40
4.0
 40
5.0
 40
5.0
 40
5.0
 40
6.0
 40
6.0
 40
6.0
 40
7.0
 40
7.0
 40
7.0
 40
8.0
 40
8.0
 40
8.0
 40
9.0
 40
9.0
 40
9.0
 40
10.0
 40
10.0
 40
10.0
 40
11.0
 40
11.0
 40
11.0
 40
12.0
 40
12.0
 40
12.0
 40
13.0
 40
13.0
 40
13.0
 40
14.0
 40
14.0
 40
14.0
 40
15.0
 40
15.0
 40
15.0
 40
16.0
 40
16.0
 40
16.0
 40
17.0
 40
17.0
 40
17.0
 40
18.0
 40
18.0
 40
18.0
 40
19.0
 40
19.0
 40
19.0
 40
20.0
 40
20.0
 40
20.0
 40
20.0
 10
-270.2247642522755
 20
-199.9002150647031
 30
0.0
 10
-277.7392911290932
 20
-199.8901689972067
 30
0.0
 10
-285.2538527012924
 20
-199.8800520849928
 30
0.0
 10
-292.768359896351
 20
-199.8633383805534
 30
0.0
 10
-298.2038573966575
 20
-199.8512729935028
 30
0.0
 10
-303.6393619675916
 20
-199.835785450179
 30
0.0
 10
-309.07484483681
 20
-199.8262250183563
 30
0.0
 10
-311.847198064707
 20
-199.8213650724321
 30
0.0
 10
-314.6195285194704
 20
-199.8180223267553
 30
0.0
 10
-317.3918575203067
 20
-199.8145031962598
 30
0.0
 10
-318.0663211896981
 20
-199.8136357685653
 30
0.0
 10
-318.7407848590966
 20
-199.8127683408701
 30
0.0
 10
-319.415236315439
 20
-199.810419280696
 30
0.0
 10
-320.0812915636016
 20
-199.8081041508521
 30
0.0
 10
-320.7473701664579
 20
-199.8043423746687
 30
0.0
 10
-321.4134377194273
 20
-199.7992400738816
 30
0.0
 10
-323.445718216172
 20
-199.7836875483419
 30
0.0
 10
-325.4779672006413
 20
-199.7557522269015
 30
0.0
 10
-327.5097871220173
 20
-199.7100043650361
 30
0.0
 10
-336.7953553671005
 20
-199.5009191613956
 30
0.0
 10
-346.0725969257586
 20
-198.9193878237877
 30
0.0
 10
-355.3119507736633
 20
-197.9700639429014
 30
0.0
 10
-378.8881959280664
 20
-195.5477282283404
 30
0.0
 10
-402.217893200431
 20
-190.7310036598296
 30
0.0
 10
-424.8217749956079
 20
-183.6057947801006
 30
0.0
 10
-436.3246037842729
 20
-179.9798661050438
 30
0.0
 10
-447.6394757967316
 20
-175.7561609706552
 30
0.0
 10
-458.7064610274463
 20
-170.9615270605936
 30
0.0
 10
-469.7693333927464
 20
-166.1686910207692
 30
0.0
 10
-480.584534418291
 20
-160.8053830610582
 30
0.0
 10
-491.0933869128358
 20
-154.8963590559665
 30
0.0
 10
-504.5990193532635
 20
-147.3022448524087
 30
0.0
 10
-517.5987249580984
 20
-138.8068209137266
 30
0.0
 10
-529.9772105607381
 20
-129.4870998996954
 30
0.0
 10
-542.3494202615047
 20
-120.1721227727239
 30
0.0
 10
-554.1010516335102
 20
-110.0336547064099
 30
0.0
 10
-565.1274485938607
 20
-99.1594514431637
 30
0.0
 10
-576.1486661461058
 20
-88.29033582220852
 30
0.0
 10
-586.4453600601571
 20
-76.68611417390325
 30
0.0
 10
-595.9256992892819
 20
-64.44964192884545
 30
0.0
 10
-605.1397256691822
 20
-52.5569043839554
 30
0.0
 10
-613.5825965983976
 20
-40.06692886529024
 30
0.0
 10
-621.1832343532499
 20
-27.08366979140588
 30
0.0
 10
-625.046331317736
 20
-20.4848556293261
 30
0.0
 10
-628.691868111945
 20
-13.75857123091803
 30
0.0
 10
-632.1121709481293
 20
-6.919732461846971
 30
0.0
 10
-635.5405607180719
 20
-0.064739643923161
 30
0.0
 10
-638.7426891362456
 20
6.903328266291773
 30
0.0
 10
-641.7111287720965
 20
13.96962799253404
 30
0.0
 10
-647.6116085241566
 20
28.01556352976161
 30
0.0
 10
-652.58876918878
 20
42.44947564949101
 30
0.0
 10
-656.5985824543482
 20
57.14720615075819
 30
0.0
 10
-660.6638026951229
 20
72.0481438564083
 30
0.0
 10
-663.7346966942736
 20
87.2202626204237
 30
0.0
 10
-665.7851018028524
 20
102.5291088170911
 30
0.0
 10
-666.8110369777206
 20
110.1888122188435
 30
0.0
 10
-667.5814438086634
 20
117.8827470501391
 30
0.0
 10
-668.094205892469
 20
125.5937500962187
 30
0.0
 10
-668.6023204173857
 20
133.2351439331385
 30
0.0
 10
-668.8573791082944
 20
140.8932910175038
 30
0.0
 10
-668.8608238827377
 20
148.5516219353822
 30
0.0
  0
ENDBLK
  5
43
330
40
100
AcDbEntity
  8
0
100
AcDbBlockEnd
  0
BLOCK
  5
47
330
45
100
AcDbEntity
  8
0
100
AcDbBlockBegin
  2
block 3
 70
     0
 10
0.0
 20
0.0
 30
0.0
  3
block 3
  1

  0
SPLINE
  5
49
330
45
100
AcDbEntity
  8
0
 62
   250
370
    25
100
AcDbSpline
210
0.0
220
0.0
230
1.0
 70
     8
 71
     3
 72
    80
 73
    76
 74
     0
 42
0.0000000001
 43
0.0000000001
 12
1.0
 22
0.0
 32
0.0
 13
1.0
 23
0.0
 33
0.0
 40
0.0
 40
0.0
 40
0.0
 40
0.0
 40
1.0
 40
1.0
 40
1.0
 40
2.0
 40
2.0
 40
2.0
 40
3.0
 40
3.0
 40
3.0
 40
4.0
 40
4.0
 40
4.0
 40
5.0
 40
5.0
 40
5.0
 40
6.0
 40
6.0
 40
6.0
 40
7.0
 40
7.0
 40
7.0
 40
8.0
 40
8.0
 40
8.0
 40
9.0
 40
9.0
 40
9.0
 40
10.0
 40
10.0
 40
10.0
 40
11.0
 40
11.0
 40
11.0
 40
12.0
 40
12.0
 40
12.0
 40
13.0
 40
13.0
 40
13.0
 40
14.0
 40
14.0
 40
14.0
 40
15.0
 40
15.0
 40
15.0
 40
16.0
 40
16.0
 40
16.0
 40
17.0
 40
17.0
 40
17.0
 40
18.0
 40
18.0
 40
18.0
 40
19.0
 40
19.0
 40
19.0
 40
20.0
 40
20.0
 40
20.0
 40
21.0
 40
21.0
 40
21.0
 40
22.0
 40
22.0
 40
22.0
 40
23.0
 40
23.0
 40
23.0
 40
24.0
 40
24.0
 40
24.0
 40
25.0
 40
25.0
 40
25.0
 40
25.0
 10
-668.8608548556069
 20
148.7447414116603
 30
0.0
 10
-668.859098916781
 20
156.4647683416059
 30
0.0
 10
-668.5998739578358
 20
164.1848250035974
 30
0.0
 10
-668.0842040976662
 20
171.8876682319584
 30
0.0
 10
-667.5674844376074
 20
179.6065901953707
 30
0.0
 10
-666.7932620770465
 20
187.3082281745751
 30
0.0
 10
-665.7628073466992
 20
194.9754292225425
 30
0.0
 10
-663.7019707662528
 20
210.3095496843306
 30
0.0
 10
-660.6162749665021
 20
225.5059586893525
 30
0.0
 10
-656.5333636827686
 20
240.4295524794633
 30
0.0
 10
-652.5041064760467
 20
255.1569766657146
 30
0.0
 10
-647.5036817443379
 20
269.6187151041086
 30
0.0
 10
-641.5760194415287
 20
283.6897823421365
 30
0.0
 10
-635.4866476519319
 20
298.1446966653415
 30
0.0
 10
-628.4188142270616
 20
312.187349933899
 30
0.0
 10
-620.4373927863708
 20
325.6899658670629
 30
0.0
 10
-612.4535746393997
 20
339.1965838912829
 30
0.0
 10
-603.555641939264
 20
352.1628427256247
 30
0.0
 10
-593.825529744829
 20
364.4711966231705
 30
0.0
 10
-584.6044076459528
 20
376.1357701067153
 30
0.0
 10
-574.6358593628125
 20
387.2094271895759
 30
0.0
 10
-564.0019450377639
 20
397.6022468946638
 30
0.0
 10
-553.0686009402136
 20
408.2877808138912
 30
0.0
 10
-541.4318625711677
 20
418.2536035495064
 30
0.0
 10
-529.1927309864217
 20
427.4145718499222
 30
0.0
 10
-516.7861893152788
 20
436.70081309636
 30
0.0
 10
-503.760644335475
 20
445.1600133911728
 30
0.0
 10
-490.2314393081604
 20
452.7175903957141
 30
0.0
 10
-485.043073966989
 20
455.6158514229836
 30
0.0
 10
-479.7806565266041
 20
458.3815219557407
 30
0.0
 10
-474.4512694229347
 20
461.0113793938439
 30
0.0
 10
-469.0699158309918
 20
463.6669152001551
 30
0.0
 10
-463.6202738601768
 20
466.1839810896763
 30
0.0
 10
-458.1094623865332
 20
468.5592136451698
 30
0.0
 10
-452.6221600174194
 20
470.9243031330187
 30
0.0
 10
-447.074242690147
 20
473.1487633561737
 30
0.0
 10
-441.472967480784
 20
475.2295848301742
 30
0.0
 10
-435.8475577774539
 20
477.3193799978603
 30
0.0
 10
-430.1683064920757
 20
479.2642976516747
 30
0.0
 10
-424.4428191085007
 20
481.06186036946
 30
0.0
 10
-413.0983459243303
 20
484.6235721563826
 30
0.0
 10
-401.5722609413349
 20
487.6067224331508
 30
0.0
 10
-389.9243486502547
 20
489.995893010089
 30
0.0
 10
-378.1815155225927
 20
492.4045315101669
 30
0.0
 10
-366.3148895709477
 20
494.2094017260582
 30
0.0
 10
-354.3870851943266
 20
495.402728257312
 30
0.0
 10
-348.7167200401273
 20
495.9700248913554
 30
0.0
 10
-343.0325358839858
 20
496.3990889183141
 30
0.0
 10
-337.3411854409505
 20
496.6874703416739
 30
0.0
 10
-334.5731397036851
 20
496.8277146338439
 30
0.0
 10
-331.8033926684958
 20
496.9346764650381
 30
0.0
 10
-329.0327921456673
 20
497.0082217062992
 30
0.0
 10
-326.0596084160226
 20
497.0871529327513
 30
0.0
 10
-323.0854014102753
 20
497.1275859417561
 30
0.0
 10
-320.1111910378992
 20
497.1470277033281
 30
0.0
 10
-318.7086196346096
 20
497.1562106157779
 30
0.0
 10
-317.306016352066
 20
497.1607011104791
 30
0.0
 10
-315.9034328430332
 20
497.1627927716312
 30
0.0
 10
-313.3207045291803
 20
497.1666928874926
 30
0.0
 10
-310.7379016976837
 20
497.1625134154719
 30
0.0
 10
-308.1551307454476
 20
497.1630263612246
 30
0.0
 10
-307.216204202702
 20
497.1632246756292
 30
0.0
 10
-306.27727242579
 20
497.1640579753823
 30
0.0
 10
-305.3383730179712
 20
497.1652443355559
 30
0.0
 10
-301.5976978331993
 20
497.1700775021606
 30
0.0
 10
-297.8570414422637
 20
497.1811905499016
 30
0.0
 10
-294.1163805978037
 20
497.1885639486845
 30
0.0
 10
-292.7898550951627
 20
497.1911767155056
 30
0.0
 10
-291.463333663538
 20
497.193295604811
 30
0.0
 10
-290.136812231913
 20
497.1954144941235
 30
0.0
 10
-288.2465192645643
 20
497.1984250921572
 30
0.0
 10
-286.3562618649391
 20
497.2014007040141
 30
0.0
 10
-284.4659718054566
 20
497.2040585324099
 30
0.0
 10
-278.8963549460207
 20
497.2118435440358
 30
0.0
 10
-273.3267246186406
 20
497.2169824925894
 30
0.0
 10
-267.757129568233
 20
497.2221217319256
 30
0.0
  0
ENDBLK
  5
48
330
45
100
AcDbEntity
  8
0
100
AcDbBlockEnd
  0
BLOCK
  5
4C
330
4A
100
AcDbEntity
  8
0
100
AcDbBlockBegin
  2
block 4
 70
     0
 10
0.0
 20
0.0
 30
0.0
  3
block 4
  1

  0
SPLINE
  5
4E
330
4A
100
AcDbEntity
  8
0
 62
   250
370
    25
100
AcDbSpline
210
0.0
220
0.0
230
1.0
 70
     8
 71
     3
 72
     8
 73
     4
 74
     0
 42
0.0000000001
 43
0.0000000001
 12
1.0
 22
0.0
 32
0.0
 13
1.0
 23
0.0
 33
0.0
 40
0.0
 40
0.0
 40
0.0
 40
0.0
 40
1.0
 40
1.0
 40
1.0
 40
1.0
 10
-257.2138606042953
 20
-199.8810928613242
 30
0.0
 10
-265.7624813855647
 20
-199.8692611484321
 30
0.0
 10
-274.3111255215146
 20
-199.8559827892043
 30
0.0
 10
-282.8597481392446
 20
-199.8400939346789
 30
0.0
  0
ENDBLK
  5
4D
330
4A
100
AcDbEntity
  8
0
100
AcDbBlockEnd
  0
BLOCK
  5
51
330
4F
100
AcDbEntity
  8
0
100
AcDbBlockBegin
  2
block 5
 70
     0
 10
0.0
 20
0.0
 30
0.0
  3
block 5
  1

  0
SPLINE
  5
53
330
4F
100
AcDbEntity
  8
0
 62
   250
370
    25
100
AcDbSpline
210
0.0
220
0.0
230
1.0
 70
     8
 71
     3
 72
     8
 73
     4
 74
     0
 42
0.0000000001
 43
0.0000000001
 12
1.0
 22
0.0
 32
0.0
 13
1.0
 23
0.0
 33
0.0
 40
0.0
 40
0.0
 40
0.0
 40
0.0
 40
1.0
 40
1.0
 40
1.0
 40
1.0
 10
-324.9678970284581
 20
-199.7042506085146
 30
0.0
 10
-327.6777026989081
 20
-199.6612047813332
 30
0.0
 10
-330.3861282666546
 20
-199.5876889626109
 30
0.0
 10
-333.0942317497696
 20
-199.4836591517204
 30
0.0
  0
ENDBLK
  5
52
330
4F
100
AcDbEntity
  8
0
100
AcDbBlockEnd
  0
BLOCK
  5
56
330
54
100
AcDbEntity
  8
0
100
AcDbBlockBegin
  2
block 6
 70
     0
 10
0.0
 20
0.0
 30
0.0
  3
block 6
  1

  0
SPLINE
  5
58
330
54
100
AcDbEntity
  8
0
 62
   250
370
    25
100
AcDbSpline
210
0.0
220
0.0
230
1.0
 70
     8
 71
     3
 72
     8
 73
     4
 74
     0
 42
0.0000000001
 43
0.0000000001
 12
1.0
 22
0.0
 32
0.0
 13
1.0
 23
0.0
 33
0.0
 40
0.0
 40
0.0
 40
0.0
 40
0.0
 40
1.0
 40
1.0
 40
1.0
 40
1.0
 10
-668.8608238827377
 20
148.5516219353822
 30
0.0
 10
-668.8608223511069
 20
148.616006756203
 30
0.0
 10
-668.8608560964498
 20
148.6803918677995
 30
0.0
 10
-668.8608548556069
 20
148.7447414116603
 30
0.0
  0
ENDBLK
  5
57
330
54
100
AcDbEntity
  8
0
100
AcDbBlockEnd
  0
BLOCK
  5
5B
330
59
100
AcDbEntity
  8
0
100
AcDbBlockBegin
  2
block 7
 70
     0
 10
0.0
 20
0.0
 30
0.0
  3
block 7
  1

  0
SPLINE
  5
5D
330
59
100
AcDbEntity
  8
0
 62
   250
370
    25
100
AcDbSpline
210
0.0
220
0.0
230
1.0
 70
     8
 71
     3
 72
    44
 73
    40
 74
     0
 42
0.0000000001
 43
0.0000000001
 12
1.0
 22
0.0
 32
0.0
 13
1.0
 23
0.0
 33
0.0
 40
0.0
 40
0.0
 40
0.0
 40
0.0
 40
1.0
 40
1.0
 40
1.0
 40
2.0
 40
2.0
 40
2.0
 40
3.0
 40
3.0
 40
3.0
 40
4.0
 40
4.0
 40
4.0
 40
5.0
 40
5.0
 40
5.0
 40
6.0
 40
6.0
 40
6.0
 40
7.0
 40
7.0
 40
7.0
 40
8.0
 40
8.0
 40
8.0
 40
9.0
 40
9.0
 40
9.0
 40
10.0
 40
10.0
 40
10.0
 40
11.0
 40
11.0
 40
11.0
 40
12.0
 40
12.0
 40
12.0
 40
13.0
 40
13.0
 40
13.0
 40
13.0
 10
-641.9309825267845
 20
282.8316802339303
 30
0.0
 10
-634.5096317392523
 20
300.5786804462435
 30
0.0
 10
-625.6121305061365
 20
317.7083306574733
 30
0.0
 10
-615.3627912557004
 20
333.98669503408
 30
0.0
 10
-605.0701260919834
 20
350.3338851013202
 30
0.0
 10
-593.4142166366441
 20
365.8225688816922
 30
0.0
 10
-580.5570209496569
 20
380.2399003964226
 30
0.0
 10
-567.696264416605
 20
394.6612244062367
 30
0.0
 10
-553.6335563330018
 20
408.0105909170835
 30
0.0
 10
-538.5643650273034
 20
420.1057351444369
 30
0.0
 10
-531.3561993616314
 20
425.8912969728456
 30
0.0
 10
-523.9177319682833
 20
431.3898679240581
 30
0.0
 10
-516.2732960248203
 20
436.5854906288619
 30
0.0
 10
-507.9321407255515
 20
442.254640402293
 30
0.0
 10
-499.3457687067338
 20
447.5630483306115
 30
0.0
 10
-490.5455083613975
 20
452.4892758464526
 30
0.0
 10
-474.3650074876748
 20
461.5468440511797
 30
0.0
 10
-457.4614875099451
 20
469.3123433672293
 30
0.0
 10
-440.0504944745052
 20
475.6929312905855
 30
0.0
 10
-422.6989855017876
 20
482.0517482630881
 30
0.0
 10
-404.843453527673
 20
487.0351018707084
 30
0.0
 10
-386.7066796353404
 20
490.5797733512039
 30
0.0
 10
-370.6216011883225
 20
493.7234728743269
 30
0.0
 10
-354.3152996583337
 20
495.7355970495917
 30
0.0
 10
-337.9489635443895
 20
496.5993780042351
 30
0.0
 10
-335.2298234022577
 20
496.7428830518923
 30
0.0
 10
-332.5090041537254
 20
496.8546933927396
 30
0.0
 10
-329.7872252958722
 20
496.9331215482518
 30
0.0
 10
-326.8027294758293
 20
497.0190859603852
 30
0.0
 10
-323.817012384849
 20
497.0648923930332
 30
0.0
 10
-320.8313076297468
 20
497.0878026222277
 30
0.0
 10
-319.0729786979512
 20
497.1013205849562
 30
0.0
 10
-317.3146446392691
 20
497.1069006492578
 30
0.0
 10
-315.5562901337534
 20
497.1106812975976
 30
0.0
 10
-311.7212503256023
 20
497.1188643048085
 30
0.0
 10
-307.8861409431601
 20
497.1183680157731
 30
0.0
 10
-304.0510608229009
 20
497.1228816371634
 30
0.0
 10
-298.6802908117172
 20
497.1291658739583
 30
0.0
 10
-293.3095455018922
 20
497.1452932560276
 30
0.0
 10
-287.9388064976073
 20
497.1563757414754
 30
0.0
  0
ENDBLK
  5
5C
330
59
100
AcDbEntity
  8
0
100
AcDbBlockEnd
  0
BLOCK
  5
60
330
5E
100
AcDbEntity
  8
0
100
AcDbBlockBegin
  2
block 8
 70
     0
 10
0.0
 20
0.0
 30
0.0
  3
block 8
  1

  0
SPLINE
  5
62
330
5E
100
AcDbEntity
  8
0
 62
   250
370
    25
100
AcDbSpline
210
0.0
220
0.0
230
1.0
 70
     8
 71
     3
 72
     8
 73
     4
 74
     0
 42
0.0000000001
 43
0.0000000001
 12
1.0
 22
0.0
 32
0.0
 13
1.0
 23
0.0
 33
0.0
 40
0.0
 40
0.0
 40
0.0
 40
0.0
 40
1.0
 40
1.0
 40
1.0
 40
1.0
 10
55.08963353001036
 20
-191.0933428260291
 30
0.0
 10
88.42336559334036
 20
-191.1541424012336
 30
0.0
 10
121.7569792923371
 20
-191.1608224613025
 30
0.0
 10
155.0907218565489
 20
-191.1133497648056
 30
0.0
  0
ENDBLK
  5
61
330
5E
100
AcDbEntity
  8
0
100
AcDbBlockEnd
  0
BLOCK
  5
65
330
63
100
AcDbEntity
  8
0
100
AcDbBlockBegin
  2
block 9
 70
     0
 10
0.0
 20
0.0
 30
0.0
  3
block 9
  1

  0
SPLINE
  5
67
330
63
100
AcDbEntity
  8
0
 62
   250
370
    25
100
AcDbSpline
210
0.0
220
0.0
230
1.0
 70
     8
 71
     3
 72
    47
 73
    43
 74
     0
 42
0.0000000001
 43
0.0000000001
 12
1.0
 22
0.0
 32
0.0
 13
1.0
 23
0.0
 33
0.0
 40
0.0
 40
0.0
 40
0.0
 40
0.0
 40
1.0
 40
1.0
 40
1.0
 40
2.0
 40
2.0
 40
2.0
 40
3.0
 40
3.0
 40
3.0
 40
4.0
 40
4.0
 40
4.0
 40
5.0
 40
5.0
 40
5.0
 40
6.0
 40
6.0
 40
6.0
 40
7.0
 40
7.0
 40
7.0
 40
8.0
 40
8.0
 40
8.0
 40
9.0
 40
9.0
 40
9.0
 40
10.0
 40
10.0
 40
10.0
 40
11.0
 40
11.0
 40
11.0
 40
12.0
 40
12.0
 40
12.0
 40
13.0
 40
13.0
 40
13.0
 40
14.0
 40
14.0
 40
14.0
 40
14.0
 10
525.0791407698428
 20
522.9384129364597
 30
0.0
 10
544.3651866414529
 20
522.9150172542613
 30
0.0
 10
559.7468842788647
 20
522.2048116180899
 30
0.0
 10
578.8956990577542
 20
519.6826163425292
 30
0.0
 10
614.6169579361236
 20
514.9776120090154
 30
0.0
 10
649.4876629675325
 20
505.1661929317362
 30
0.0
 10
682.4187990248129
 20
490.5465207483445
 30
0.0
 10
715.3663506947224
 20
475.9195879694824
 30
0.0
 10
746.0317827128408
 20
456.6356453217147
 30
0.0
 10
773.4791338536135
 20
433.2639502614346
 30
0.0
 10
800.9467349201973
 20
409.8750836301867
 30
0.0
 10
824.8774182572477
 20
382.6660054619965
 30
0.0
 10
844.5592606041679
 20
352.4302311068349
 30
0.0
 10
864.2060907261562
 20
322.248264145312
 30
0.0
 10
879.3857585407866
 20
289.4104227170729
 30
0.0
 10
889.6400820993846
 20
254.8871733419903
 30
0.0
 10
899.8880906227146
 20
220.385320034278
 30
0.0
 10
905.1161588061285
 20
184.4919041749222
 30
0.0
 10
905.107973762913
 20
148.4976308574336
 30
0.0
 10
905.0997836456382
 20
112.4171432953442
 30
0.0
 10
899.8955822494229
 20
76.6067206526406
 30
0.0
 10
889.6135872276714
 20
42.02036548212855
 30
0.0
 10
879.3392485013043
 20
7.45977169311349
 30
0.0
 10
864.1187974572483
 20
-25.4293688342081
 30
0.0
 10
844.4296284962222
 20
-55.63342864351686
 30
0.0
 10
824.7503213063787
 20
-85.82236433858789
 30
0.0
 10
800.8039659604138
 20
-113.0207748374351
 30
0.0
 10
773.356211723021
 20
-136.3706623027143
 30
0.0
 10
745.8982605910765
 20
-159.7292502761587
 30
0.0
 10
715.2388985112613
 20
-178.9944444086866
 30
0.0
 10
682.2852788174138
 20
-193.6080177862447
 30
0.0
 10
649.3330401593176
 20
-208.22096751915
 30
0.0
 10
614.4577538920075
 20
-218.0153098503914
 30
0.0
 10
578.7184173802062
 20
-222.7065320148821
 30
0.0
 10
559.451833066637
 20
-225.2355115512654
 30
0.0
 10
544.2937087868286
 20
-225.9067482268742
 30
0.0
 10
524.8919560646485
 20
-225.9292850472498
 30
0.0
 10
506.9033670327678
 20
-225.9501702121809
 30
0.0
 10
488.9148310765399
 20
-225.9988559509202
 30
0.0
 10
470.9262288675062
 20
-226.0170597758208
 30
0.0
 10
398.9677279035851
 20
-226.0898413441111
 30
0.0
 10
-188.9077747008442
 20
-225.7249351780221
 30
0.0
 10
-260.8662610336735
 20
-225.800221701537
 30
0.0
  0
SPLINE
  5
68
330
63
100
AcDbEntity
  8
0
 62
   250
370
    25
100
AcDbSpline
210
0.0
220
0.0
230
1.0
 70
     8
 71
     3
 72
     8
 73
     4
 74
     0
 42
0.0000000001
 43
0.0000000001
 12
1.0
 22
0.0
 32
0.0
 13
1.0
 23
0.0
 33
0.0
 40
0.0
 40
0.0
 40
0.0
 40
0.0
 40
1.0
 40
1.0
 40
1.0
 40
1.0
 10
-318.5193383089657
 20
523.0764076713778
 30
0.0
 10
-246.5456163255313
 20
522.9713263536337
 30
0.0
 10
399.1481100230648
 20
523.1424190687824
 30
0.0
 10
471.1218165030357
 20
523.0397368753714
 30
0.0
  0
ENDBLK
  5
66
330
63
100
AcDbEntity
  8
0
100
AcDbBlockEnd
  0
BLOCK
  5
6B
330
69
100
AcDbEntity
  8
0
100
AcDbBlockBegin
  2
block 10
 70
     0
 10
0.0
 20
0.0
 30
0.0
  3
block 10
  1

  0
POLYLINE
  5
6D
330
69
100
AcDbEntity
  8
0
 62
     7
370
    25
100
AcDb2dPolyline
 66
     1
 10
0.0
 20
0.0
 30
0.0
  0
VERTEX
  5
6E
330
6D
100
AcDbEntity
  8
0
 62
     7
370
    25
100
AcDbVertex
100
AcDb2dVertex
 10
508.7141854379619
 20
308.5407559826199
 30
0.0
  0
VERTEX
  5
1FB
330
6D
100
AcDbEntity
  8
0
100
AcDbVertex
100
AcDb2dVertex
 10
508.7141854379619
 20
308.5407559826199
 30
0.0
  0
SEQEND
  5
6F
330
6D
100
AcDbEntity
  8
0
 62
     7
370
    25
  0
ENDBLK
  5
6C
330
69
100
AcDbEntity
  8
0
100
AcDbBlockEnd
  0
BLOCK
  5
72
330
70
100
AcDbEntity
  8
0
100
AcDbBlockBegin
  2
block 11
 70
     0
 10
0.0
 20
0.0
 30
0.0
  3
block 11
  1

  0
SPLINE
  5
74
330
70
100
AcDbEntity
  8
0
 62
   250
370
    25
100
AcDbSpline
210
0.0
220
0.0
230
1.0
 70
     8
 71
     3
 72
     8
 73
     4
 74
     0
 42
0.0000000001
 43
0.0000000001
 12
1.0
 22
0.0
 32
0.0
 13
1.0
 23
0.0
 33
0.0
 40
0.0
 40
0.0
 40
0.0
 40
0.0
 40
1.0
 40
1.0
 40
1.0
 40
1.0
 10
431.8915690260841
 20
-11.44736724750142
 30
0.0
 10
431.8944973572465
 20
-10.27140543545881
 30
0.0
 10
431.9521596429315
 20
-9.095594346343043
 30
0.0
 10
432.0635654181871
 20
-7.924843241220593
 30
0.0
  0
ENDBLK
  5
73
330
70
100
AcDbEntity
  8
0
100
AcDbBlockEnd
  0
BLOCK
  5
77
330
75
100
AcDbEntity
  8
0
100
AcDbBlockBegin
  2
block 12
 70
     0
 10
0.0
 20
0.0
 30
0.0
  3
block 12
  1

  0
SPLINE
  5
79
330
75
100
AcDbEntity
  8
0
  6
AI-Linetype-1
 62
   250
370
    25
100
AcDbSpline
210
0.0
220
0.0
230
1.0
 70
     8
 71
     3
 72
    29
 73
    25
 74
     0
 42
0.0000000001
 43
0.0000000001
 12
1.0
 22
0.0
 32
0.0
 13
1.0
 23
0.0
 33
0.0
 40
0.0
 40
0.0
 40
0.0
 40
0.0
 40
1.0
 40
1.0
 40
1.0
 40
2.0
 40
2.0
 40
2.0
 40
3.0
 40
3.0
 40
3.0
 40
4.0
 40
4.0
 40
4.0
 40
5.0
 40
5.0
 40
5.0
 40
6.0
 40
6.0
 40
6.0
 40
7.0
 40
7.0
 40
7.0
 40
8.0
 40
8.0
 40
8.0
 40
8.0
 10
433.264913277586
 20
-1.37209937350114
 30
0.0
 10
433.6885308311903
 20
0.1725307191574076
 30
0.0
 10
434.2083957399146
 20
1.690655108425672
 30
0.0
 10
434.8218811184524
 20
3.169892982405463
 30
0.0
 10
436.7375264630255
 20
7.788646372092147
 30
0.0
 10
439.5667250028979
 20
12.02858998133011
 30
0.0
 10
443.0966129007778
 20
15.57014814016694
 30
0.0
 10
446.6285678559521
 20
19.11370876075458
 30
0.0
 10
450.8620303793052
 20
21.95806572076398
 30
0.0
 10
455.4779415652172
 20
23.88811587083485
 30
0.0
 10
460.0991065217455
 20
25.82040533297113
 30
0.0
 10
465.1035383510052
 20
26.83627786418418
 30
0.0
 10
470.1124057407062
 20
26.85824034790265
 30
0.0
 10
475.1297997417279
 20
26.88024589531468
 30
0.0
 10
480.1516293031907
 20
25.90493936344045
 30
0.0
 10
484.7961347816303
 20
24.0064333689064
 30
0.0
 10
489.4498128267987
 20
22.10420236487828
 30
0.0
 10
493.724616495978
 20
19.27511148423853
 30
0.0
 10
497.2944244377939
 20
15.73512515021685
 30
0.0
 10
500.8710364431918
 20
12.18835628445857
 30
0.0
 10
503.7399397085337
 20
7.92789282523723
 30
0.0
 10
505.6820261609574
 20
3.28030829270772
 30
0.0
 10
506.7453548824798
 20
0.735696171761842
 30
0.0
 10
507.5307935894244
 20
-1.92497260334339
 30
0.0
 10
508.0257246195729
 20
-4.63854512599399
 30
0.0
  0
ENDBLK
  5
78
330
75
100
AcDbEntity
  8
0
100
AcDbBlockEnd
  0
BLOCK
  5
7D
330
7B
100
AcDbEntity
  8
0
100
AcDbBlockBegin
  2
block 13
 70
     0
 10
0.0
 20
0.0
 30
0.0
  3
block 13
  1

  0
SPLINE
  5
7F
330
7B
100
AcDbEntity
  8
0
 62
   250
370
    25
100
AcDbSpline
210
0.0
220
0.0
230
1.0
 70
     8
 71
     3
 72
     8
 73
     4
 74
     0
 42
0.0000000001
 43
0.0000000001
 12
1.0
 22
0.0
 32
0.0
 13
1.0
 23
0.0
 33
0.0
 40
0.0
 40
0.0
 40
0.0
 40
0.0
 40
1.0
 40
1.0
 40
1.0
 40
1.0
 10
508.4815538159643
 20
-7.940001661355693
 30
0.0
 10
508.5918829988814
 20
-9.110881957558197
 30
0.0
 10
508.6484256285318
 20
-10.28673611036753
 30
0.0
 10
508.6502343036602
 20
-11.46269792241142
 30
0.0
  0
ENDBLK
  5
7E
330
7B
100
AcDbEntity
  8
0
100
AcDbBlockEnd
  0
BLOCK
  5
82
330
80
100
AcDbEntity
  8
0
100
AcDbBlockBegin
  2
block 14
 70
     0
 10
0.0
 20
0.0
 30
0.0
  3
block 14
  1

  0
SPLINE
  5
84
330
80
100
AcDbEntity
  8
0
 62
   250
370
    25
100
AcDbSpline
210
0.0
220
0.0
230
1.0
 70
     8
 71
     3
 72
     8
 73
     4
 74
     0
 42
0.0000000001
 43
0.0000000001
 12
1.0
 22
0.0
 32
0.0
 13
1.0
 23
0.0
 33
0.0
 40
0.0
 40
0.0
 40
0.0
 40
0.0
 40
1.0
 40
1.0
 40
1.0
 40
1.0
 10
508.6502343036602
 20
-11.46269792241142
 30
0.0
 10
508.6522152335655
 20
-12.63874586184116
 30
0.0
 10
508.5993760815599
 20
-13.81479380127218
 30
0.0
 10
508.4926642489062
 20
-14.98599707517579
 30
0.0
  0
ENDBLK
  5
83
330
80
100
AcDbEntity
  8
0
100
AcDbBlockEnd
  0
BLOCK
  5
87
330
85
100
AcDbEntity
  8
0
100
AcDbBlockBegin
  2
block 15
 70
     0
 10
0.0
 20
0.0
 30
0.0
  3
block 15
  1

  0
SPLINE
  5
89
330
85
100
AcDbEntity
  8
0
  6
AI-Linetype-2
 62
   250
370
    25
100
AcDbSpline
210
0.0
220
0.0
230
1.0
 70
     8
 71
     3
 72
    32
 73
    28
 74
     0
 42
0.0000000001
 43
0.0000000001
 12
1.0
 22
0.0
 32
0.0
 13
1.0
 23
0.0
 33
0.0
 40
0.0
 40
0.0
 40
0.0
 40
0.0
 40
1.0
 40
1.0
 40
1.0
 40
2.0
 40
2.0
 40
2.0
 40
3.0
 40
3.0
 40
3.0
 40
4.0
 40
4.0
 40
4.0
 40
5.0
 40
5.0
 40
5.0
 40
6.0
 40
6.0
 40
6.0
 40
7.0
 40
7.0
 40
7.0
 40
8.0
 40
8.0
 40
8.0
 40
9.0
 40
9.0
 40
9.0
 40
9.0
 10
507.3126329178191
 20
-21.56087568138797
 30
0.0
 10
506.883330956664
 20
-23.14805270328936
 30
0.0
 10
506.3526570608542
 20
-24.70773355684909
 30
0.0
 10
505.7234964978624
 20
-26.22659002890925
 30
0.0
 10
504.7571041505537
 20
-28.55945796859232
 30
0.0
 10
503.5582970490751
 20
-30.79605702131008
 30
0.0
 10
502.1528703458675
 20
-32.89420629921437
 30
0.0
 10
500.7477020248199
 20
-34.99196800387656
 30
0.0
 10
499.1359571657419
 20
-36.9513660611124
 30
0.0
 10
497.3466176343954
 20
-38.73237276775265
 30
0.0
 10
493.7705654570138
 20
-42.29180235941922
 30
0.0
 10
489.4851681192154
 20
-45.13865701365543
 30
0.0
 10
484.8169345456237
 20
-47.05253674679241
 30
0.0
 10
480.1556342266916
 20
-48.96355274430791
 30
0.0
 10
475.11266039169
 20
-49.9443714289579
 30
0.0
 10
470.0746819451426
 20
-49.92006197394075
 30
0.0
 10
465.0461775111759
 20
-49.89586017815687
 30
0.0
 10
460.0226684656658
 20
-48.87029831589156
 30
0.0
 10
455.3872924902622
 20
-46.92119248141725
 30
0.0
 10
450.761390527443
 20
-44.97602697490485
 30
0.0
 10
446.5221144054578
 20
-42.11108556937172
 30
0.0
 10
442.9918819980262
 20
-38.54444280903228
 30
0.0
 10
439.4678938261642
 20
-34.98410887980147
 30
0.0
 10
436.6504947383269
 20
-30.72454975814437
 30
0.0
 10
434.7526346991988
 20
-26.08857089103079
 30
0.0
 10
433.7244890153183
 20
-23.57703168674331
 30
0.0
 10
432.9661804353225
 20
-20.95501257661387
 30
0.0
 10
432.4895514749383
 20
-18.28284579532597
 30
0.0
  0
ENDBLK
  5
88
330
85
100
AcDbEntity
  8
0
100
AcDbBlockEnd
  0
BLOCK
  5
8D
330
8B
100
AcDbEntity
  8
0
100
AcDbBlockBegin
  2
block 16
 70
     0
 10
0.0
 20
0.0
 30
0.0
  3
block 16
  1

  0
SPLINE
  5
8F
330
8B
100
AcDbEntity
  8
0
 62
   250
370
    25
100
AcDbSpline
210
0.0
220
0.0
230
1.0
 70
     8
 71
     3
 72
     8
 73
     4
 74
     0
 42
0.0000000001
 43
0.0000000001
 12
1.0
 22
0.0
 32
0.0
 13
1.0
 23
0.0
 33
0.0
 40
0.0
 40
0.0
 40
0.0
 40
0.0
 40
1.0
 40
1.0
 40
1.0
 40
1.0
 10
432.0456939853561
 20
-14.97070946396
 30
0.0
 10
431.9402309998151
 20
-13.79939853082183
 30
0.0
 10
431.8885115038403
 20
-12.62330752769853
 30
0.0
 10
431.8915690260841
 20
-11.44736724750142
 30
0.0
  0
ENDBLK
  5
8E
330
8B
100
AcDbEntity
  8
0
100
AcDbBlockEnd
  0
BLOCK
  5
92
330
90
100
AcDbEntity
  8
0
100
AcDbBlockBegin
  2
block 17
 70
     0
 10
0.0
 20
0.0
 30
0.0
  3
block 17
  1

  0
SPLINE
  5
94
330
90
100
AcDbEntity
  8
0
 62
   250
370
    25
100
AcDbSpline
210
0.0
220
0.0
230
1.0
 70
     8
 71
     3
 72
     8
 73
     4
 74
     0
 42
0.0000000001
 43
0.0000000001
 12
1.0
 22
0.0
 32
0.0
 13
1.0
 23
0.0
 33
0.0
 40
0.0
 40
0.0
 40
0.0
 40
0.0
 40
1.0
 40
1.0
 40
1.0
 40
1.0
 10
904.7926400205658
 20
133.2516789849969
 30
0.0
 10
904.7697786093931
 20
132.6909608737033
 30
0.0
 10
904.7456827952699
 20
132.1302882169013
 30
0.0
 10
904.7203175920381
 20
131.5696965823522
 30
0.0
  0
ENDBLK
  5
93
330
90
100
AcDbEntity
  8
0
100
AcDbBlockEnd
  0
BLOCK
  5
97
330
95
100
AcDbEntity
  8
0
100
AcDbBlockBegin
  2
block 18
 70
     0
 10
0.0
 20
0.0
 30
0.0
  3
block 18
  1

  0
SPLINE
  5
99
330
95
100
AcDbEntity
  8
0
 62
   250
370
    25
100
AcDbSpline
210
0.0
220
0.0
230
1.0
 70
     8
 71
     3
 72
    59
 73
    55
 74
     0
 42
0.0000000001
 43
0.0000000001
 12
1.0
 22
0.0
 32
0.0
 13
1.0
 23
0.0
 33
0.0
 40
0.0
 40
0.0
 40
0.0
 40
0.0
 40
1.0
 40
1.0
 40
1.0
 40
2.0
 40
2.0
 40
2.0
 40
3.0
 40
3.0
 40
3.0
 40
4.0
 40
4.0
 40
4.0
 40
5.0
 40
5.0
 40
5.0
 40
6.0
 40
6.0
 40
6.0
 40
7.0
 40
7.0
 40
7.0
 40
8.0
 40
8.0
 40
8.0
 40
9.0
 40
9.0
 40
9.0
 40
10.0
 40
10.0
 40
10.0
 40
11.0
 40
11.0
 40
11.0
 40
12.0
 40
12.0
 40
12.0
 40
13.0
 40
13.0
 40
13.0
 40
14.0
 40
14.0
 40
14.0
 40
15.0
 40
15.0
 40
15.0
 40
16.0
 40
16.0
 40
16.0
 40
17.0
 40
17.0
 40
17.0
 40
18.0
 40
18.0
 40
18.0
 40
18.0
 10
499.5364769215321
 20
522.9746802638327
 30
0.0
 10
501.6716697342548
 20
522.9679812595424
 30
0.0
 10
513.8846400781815
 20
522.9333178155761
 30
0.0
 10
516.0198170966938
 20
522.9289826586526
 30
0.0
 10
517.8608746559336
 20
522.925202112999
 30
0.0
 10
519.7019155485615
 20
522.9236795838134
 30
0.0
 10
521.5429593490654
 20
522.9225098242591
 30
0.0
 10
524.0010362126229
 20
522.9209813150577
 30
0.0
 10
526.4591532965196
 20
522.9200522234374
 30
0.0
 10
528.9172099884796
 20
522.9075167199449
 30
0.0
 10
531.2227253085654
 20
522.8957799784591
 30
0.0
 10
533.5282271451748
 20
522.8738476128373
 30
0.0
 10
535.8334474238238
 20
522.8348776368267
 30
0.0
 10
538.0821933544041
 20
522.7968670881432
 30
0.0
 10
540.3306996921117
 20
522.7426300084429
 30
0.0
 10
542.5785012400846
 20
522.6670900043976
 30
0.0
 10
544.3658582755651
 20
522.6070228983218
 30
0.0
 10
546.1527864469692
 20
522.5334473321477
 30
0.0
 10
547.9390796175052
 20
522.4470353129584
 30
0.0
 10
550.4081088666029
 20
522.3275834585402
 30
0.0
 10
552.8759473914371
 20
522.1835164254001
 30
0.0
 10
555.3420672007572
 20
522.0149796831829
 30
0.0
 10
559.387213065048
 20
521.7385255986561
 30
0.0
 10
563.427899124064
 20
521.3961005921278
 30
0.0
 10
567.4620195191255
 20
520.9890273584654
 30
0.0
 10
572.3829255416412
 20
520.49251402702
 30
0.0
 10
577.2941132256667
 20
519.8998387073057
 30
0.0
 10
582.1916613032573
 20
519.2103634143363
 30
0.0
 10
591.090360840886
 20
517.9575521257852
 30
0.0
 10
599.9441252801465
 20
516.3850568747371
 30
0.0
 10
608.7304244716498
 20
514.4987786329599
 30
0.0
 10
617.5220411795226
 20
512.6113276195234
 30
0.0
 10
626.2461538732265
 20
510.4096705825703
 30
0.0
 10
634.8801481824803
 20
507.8980510581321
 30
0.0
 10
643.9483427470412
 20
505.2601155385458
 30
0.0
 10
652.9171236991166
 20
502.2802252128096
 30
0.0
 10
661.761056745863
 20
498.9671978989763
 30
0.0
 10
672.6929724635336
 20
494.8720323094474
 30
0.0
 10
683.4341353284219
 20
490.2678761803032
 30
0.0
 10
693.9378880973314
 20
485.1739542038643
 30
0.0
 10
704.4980388070459
 20
480.0526836757605
 30
0.0
 10
714.8181605769183
 20
474.4363760763621
 30
0.0
 10
724.8521960635048
 20
468.3485543149918
 30
0.0
 10
745.2118042802242
 20
455.9960512252886
 30
0.0
 10
764.3935924626534
 20
441.7024846632671
 30
0.0
 10
782.0476249644086
 20
425.7204111674098
 30
0.0
 10
791.371564878338
 20
417.2795235811284
 30
0.0
 10
800.2693640191634
 20
408.3676765485008
 30
0.0
 10
808.6973452977514
 20
399.031798853421
 30
0.0
 10
816.5218791509046
 20
390.3643237192563
 30
0.0
 10
823.9414626688722
 20
381.3313761495135
 30
0.0
 10
830.9221192387005
 20
371.9711615242402
 30
0.0
 10
845.1489040899088
 20
352.8948331364136
 30
0.0
 10
857.5525708795152
 20
332.4591193501591
 30
0.0
 10
867.9010643024128
 20
311.0293103969605
 30
0.0
  0
SPLINE
  5
9A
330
95
100
AcDbEntity
  8
0
 62
   250
370
    25
100
AcDbSpline
210
0.0
220
0.0
230
1.0
 70
     8
 71
     3
 72
    14
 73
    10
 74
     0
 42
0.0000000001
 43
0.0000000001
 12
1.0
 22
0.0
 32
0.0
 13
1.0
 23
0.0
 33
0.0
 40
0.0
 40
0.0
 40
0.0
 40
0.0
 40
1.0
 40
1.0
 40
1.0
 40
2.0
 40
2.0
 40
2.0
 40
3.0
 40
3.0
 40
3.0
 40
3.0
 10
301.0990760438025
 20
523.2794443136239
 30
0.0
 10
357.784410517797
 20
523.1950405189126
 30
0.0
 10
414.4697461549102
 20
523.1107778320799
 30
0.0
 10
471.1550783025929
 20
523.0260918216572
 30
0.0
 10
473.4008995821958
 20
523.0227497130717
 30
0.0
 10
475.6467558479733
 20
523.019372036737
 30
0.0
 10
477.8925756736518
 20
523.0158535433264
 30
0.0
 10
485.1072178251736
 20
523.004575083257
 30
0.0
 10
492.3218468912893
 20
522.9917091598118
 30
0.0
 10
499.5364769215321
 20
522.9746802638327
 30
0.0
  0
ENDBLK
  5
98
330
95
100
AcDbEntity
  8
0
100
AcDbBlockEnd
  0
BLOCK
  5
9D
330
9B
100
AcDbEntity
  8
0
100
AcDbBlockBegin
  2
block 19
 70
     0
 10
0.0
 20
0.0
 30
0.0
  3
block 19
  1

  0
SPLINE
  5
9F
330
9B
100
AcDbEntity
  8
0
 62
   250
370
    25
100
AcDbSpline
210
0.0
220
0.0
230
1.0
 70
     8
 71
     3
 72
    77
 73
    73
 74
     0
 42
0.0000000001
 43
0.0000000001
 12
1.0
 22
0.0
 32
0.0
 13
1.0
 23
0.0
 33
0.0
 40
0.0
 40
0.0
 40
0.0
 40
0.0
 40
1.0
 40
1.0
 40
1.0
 40
2.0
 40
2.0
 40
2.0
 40
3.0
 40
3.0
 40
3.0
 40
4.0
 40
4.0
 40
4.0
 40
5.0
 40
5.0
 40
5.0
 40
6.0
 40
6.0
 40
6.0
 40
7.0
 40
7.0
 40
7.0
 40
8.0
 40
8.0
 40
8.0
 40
9.0
 40
9.0
 40
9.0
 40
10.0
 40
10.0
 40
10.0
 40
11.0
 40
11.0
 40
11.0
 40
12.0
 40
12.0
 40
12.0
 40
13.0
 40
13.0
 40
13.0
 40
14.0
 40
14.0
 40
14.0
 40
15.0
 40
15.0
 40
15.0
 40
16.0
 40
16.0
 40
16.0
 40
17.0
 40
17.0
 40
17.0
 40
18.0
 40
18.0
 40
18.0
 40
19.0
 40
19.0
 40
19.0
 40
20.0
 40
20.0
 40
20.0
 40
21.0
 40
21.0
 40
21.0
 40
22.0
 40
22.0
 40
22.0
 40
23.0
 40
23.0
 40
23.0
 40
24.0
 40
24.0
 40
24.0
 40
24.0
 10
879.1091364245094
 20
148.5410805064372
 30
0.0
 10
879.1086518481673
 20
140.7698527441779
 30
0.0
 10
878.8494641395356
 20
132.9986759813673
 30
0.0
 10
878.3298466867093
 20
125.244921895889
 30
0.0
 10
877.8238627663633
 20
117.6942292684443
 30
0.0
 10
877.070918504645
 20
110.160072144568
 30
0.0
 10
876.0727695315776
 20
102.6585587205065
 30
0.0
 10
874.076853433719
 20
87.65905666093141
 30
0.0
 10
871.1004712599779
 20
72.79012649285107
 30
0.0
 10
867.1696406993705
 20
58.17792442362733
 30
0.0
 10
863.0196417089953
 20
42.75095286797861
 30
0.0
 10
857.8057887747659
 20
27.61015224063014
 30
0.0
 10
851.5760487598881
 20
12.89945501718412
 30
0.0
 10
845.6633975158929
 20
-1.062511412205362
 30
0.0
 10
838.8356186779756
 20
-14.63697575810686
 30
0.0
 10
831.1533867282556
 20
-27.70910992793101
 30
0.0
 10
823.4800643624591
 20
-40.76607685531322
 30
0.0
 10
814.9542906574438
 20
-53.32182376734542
 30
0.0
 10
805.648031233542
 20
-65.26987101436883
 30
0.0
 10
796.3393826638215
 20
-77.22100315148406
 30
0.0
 10
786.2499337904111
 20
-88.56408023686787
 30
0.0
 10
775.4664478408745
 20
-99.20357536083846
 30
0.0
 10
764.6805074257392
 20
-109.8455198079695
 30
0.0
 10
753.200285903601
 20
-119.7835274885096
 30
0.0
 10
741.1233138116503
 20
-128.9340493919968
 30
0.0
 10
728.3717144201397
 20
-138.5957471614395
 30
0.0
 10
714.9548564130079
 20
-147.3795379122394
 30
0.0
 10
701.0000662765708
 20
-155.2037058121449
 30
0.0
 10
690.7149194738598
 20
-160.970431011834
 30
0.0
 10
680.1375469745063
 20
-166.2158232864954
 30
0.0
 10
669.3225604575177
 20
-170.9142966302241
 30
0.0
 10
657.7324621639381
 20
-175.9495430944991
 30
0.0
 10
645.869434414731
 20
-180.3566486701532
 30
0.0
 10
633.8029136464753
 20
-184.1091264497938
 30
0.0
 10
611.2716396505933
 20
-191.1159109935741
 30
0.0
 10
588.0308380870208
 20
-195.8401639342459
 30
0.0
 10
564.5516667551348
 20
-198.1832119088523
 30
0.0
 10
559.1000135736912
 20
-198.7272630325959
 30
0.0
 10
553.6355188604241
 20
-199.1428972688109
 30
0.0
 10
548.1644829433358
 20
-199.4318952395769
 30
0.0
 10
545.4269177577337
 20
-199.5765184671774
 30
0.0
 10
542.6877446012553
 20
-199.6893770156077
 30
0.0
 10
539.9475025151258
 20
-199.7692758299206
 30
0.0
 10
538.4681301153261
 20
-199.812434727128
 30
0.0
 10
536.9884140675736
 20
-199.8459242467962
 30
0.0
 10
535.508631644196
 20
-199.8703464236253
 30
0.0
 10
534.0181585560413
 20
-199.8948921537945
 30
0.0
 10
532.5275497014923
 20
-199.9102288516924
 30
0.0
 10
531.0368829958933
 20
-199.9197439781711
 30
0.0
 10
529.9541376892354
 20
-199.9266593758794
 30
0.0
 10
528.8713821132624
 20
-199.9305406638919
 30
0.0
 10
527.7886384595629
 20
-199.932975596404
 30
0.0
 10
525.5848016030183
 20
-199.937952699623
 30
0.0
 10
523.3809780309389
 20
-199.9370382590926
 30
0.0
 10
521.1771245077961
 20
-199.9397573458376
 30
0.0
 10
520.2799259606776
 20
-199.9408640925624
 30
0.0
 10
519.3827221794023
 20
-199.9426058246248
 30
0.0
 10
518.4854825395959
 20
-199.9444178198547
 30
0.0
 10
513.2469391134606
 20
-199.9550376973896
 30
0.0
 10
508.0084013040247
 20
-199.9692561160251
 30
0.0
 10
502.7698220193552
 20
-199.9799462567082
 30
0.0
 10
494.7310016969157
 20
-199.9964126162623
 30
0.0
 10
486.6921080199788
 20
-200.0046582801052
 30
0.0
 10
478.6532478752646
 20
-200.0131158965171
 30
0.0
 10
475.57756663012
 20
-200.0163394355987
 30
0.0
 10
472.5018498172103
 20
-200.0195979608589
 30
0.0
 10
469.4261685720651
 20
-200.0228214999405
 30
0.0
 10
437.0386583870974
 20
-200.0568910641658
 30
0.0
 10
404.6511300815755
 20
-200.0888789967391
 30
0.0
 10
372.2635953787711
 20
-200.1216430224912
 30
0.0
 10
333.1943764813001
 20
-200.161139577039
 30
0.0
 10
-218.1446347279606
 20
-199.8407496596602
 30
0.0
 10
-257.2138606042953
 20
-199.8810928613242
 30
0.0
  0
ENDBLK
  5
9E
330
9B
100
AcDbEntity
  8
0
100
AcDbBlockEnd
  0
BLOCK
  5
A2
330
A0
100
AcDbEntity
  8
0
100
AcDbBlockBegin
  2
block 20
 70
     0
 10
0.0
 20
0.0
 30
0.0
  3
block 20
  1

  0
SPLINE
  5
A4
330
A0
100
AcDbEntity
  8
0
 62
   250
370
    25
100
AcDbSpline
210
0.0
220
0.0
230
1.0
 70
     8
 71
     3
 72
    71
 73
    67
 74
     0
 42
0.0000000001
 43
0.0000000001
 12
1.0
 22
0.0
 32
0.0
 13
1.0
 23
0.0
 33
0.0
 40
0.0
 40
0.0
 40
0.0
 40
0.0
 40
1.0
 40
1.0
 40
1.0
 40
2.0
 40
2.0
 40
2.0
 40
3.0
 40
3.0
 40
3.0
 40
4.0
 40
4.0
 40
4.0
 40
5.0
 40
5.0
 40
5.0
 40
6.0
 40
6.0
 40
6.0
 40
7.0
 40
7.0
 40
7.0
 40
8.0
 40
8.0
 40
8.0
 40
9.0
 40
9.0
 40
9.0
 40
10.0
 40
10.0
 40
10.0
 40
11.0
 40
11.0
 40
11.0
 40
12.0
 40
12.0
 40
12.0
 40
13.0
 40
13.0
 40
13.0
 40
14.0
 40
14.0
 40
14.0
 40
15.0
 40
15.0
 40
15.0
 40
16.0
 40
16.0
 40
16.0
 40
17.0
 40
17.0
 40
17.0
 40
18.0
 40
18.0
 40
18.0
 40
19.0
 40
19.0
 40
19.0
 40
20.0
 40
20.0
 40
20.0
 40
21.0
 40
21.0
 40
21.0
 40
22.0
 40
22.0
 40
22.0
 40
22.0
 10
-267.757129568233
 20
497.2221217319256
 30
0.0
 10
-229.2154169231137
 20
497.1663375889291
 30
0.0
 10
332.2788454860911
 20
497.2417200498188
 30
0.0
 10
370.8205642377185
 20
497.1866767230637
 30
0.0
 10
403.8943640155123
 20
497.1394502743604
 30
0.0
 10
436.9681675735424
 20
497.0926824261871
 30
0.0
 10
470.0419720039346
 20
497.0460204089124
 30
0.0
 10
472.2732950329683
 20
497.042868367658
 30
0.0
 10
474.5046180620008
 20
497.0397163264222
 30
0.0
 10
476.7359405094729
 20
497.0364937312407
 30
0.0
 10
483.5207509771005
 20
497.0266768778449
 30
0.0
 10
490.3055203520573
 20
497.0161547759631
 30
0.0
 10
497.0903213154913
 20
497.0009049793466
 30
0.0
 10
503.240705233171
 20
496.9870744913956
 30
0.0
 10
509.3911280089848
 20
496.9693982328116
 30
0.0
 10
515.5415533101442
 20
496.9563082703193
 30
0.0
 10
516.8726553138704
 20
496.953450291616
 30
0.0
 10
518.2037946300484
 20
496.9508389608757
 30
0.0
 10
519.5349088468281
 20
496.9494626146497
 30
0.0
 10
521.7647927900159
 20
496.9472044197556
 30
0.0
 10
523.9947058118926
 20
496.9484739212508
 30
0.0
 10
526.2246049677542
 20
496.9437813250765
 30
0.0
 10
527.5368687819685
 20
496.9410433496046
 30
0.0
 10
528.8491507167612
 20
496.9362237424914
 30
0.0
 10
530.1613995018167
 20
496.9273825614845
 30
0.0
 10
533.1566267559946
 20
496.9071381974927
 30
0.0
 10
536.1517503827721
 20
496.8657623505768
 30
0.0
 10
539.14596286837
 20
496.7866098187653
 30
0.0
 10
541.8785653693621
 20
496.7143764434829
 30
0.0
 10
544.6104146109712
 20
496.6106800874683
 30
0.0
 10
547.3405837961562
 20
496.4743641713827
 30
0.0
 10
553.0216797739967
 20
496.1906694487066
 30
0.0
 10
558.6956834572221
 20
495.7655982301768
 30
0.0
 10
564.3559562876214
 20
495.2026978939609
 30
0.0
 10
587.3930856597837
 20
492.9116001164019
 30
0.0
 10
610.2027842972362
 20
488.3368742131739
 30
0.0
 10
632.3392205786679
 20
481.5590699110095
 30
0.0
 10
643.6222594542177
 20
478.1043998120417
 30
0.0
 10
654.7303576212564
 20
474.077388234438
 30
0.0
 10
665.6066883756533
 20
469.5004473607175
 30
0.0
 10
677.2770488206259
 20
464.5893219100435
 30
0.0
 10
688.680487966704
 20
459.0450506907493
 30
0.0
 10
699.7498413219688
 20
452.898492307824
 30
0.0
 10
713.0070143162288
 20
445.5370827916619
 30
0.0
 10
725.7849576228922
 20
437.311751297163
 30
0.0
 10
737.9739161605605
 20
428.2908566680967
 30
0.0
 10
750.1529156517876
 20
419.2772763999206
 30
0.0
 10
761.7439641650609
 20
409.4694298119813
 30
0.0
 10
772.6488208825216
 20
398.9501159326514
 30
0.0
 10
783.5515778478003
 20
388.4328655644002
 30
0.0
 10
793.7684278500235
 20
377.2044630711026
 30
0.0
 10
803.2115266136618
 20
365.3592286921886
 30
0.0
 10
813.177667021718
 20
352.8579320027893
 30
0.0
 10
822.2819845484235
 20
339.6695826067652
 30
0.0
 10
830.4376943295898
 20
325.9185853048131
 30
0.0
 10
838.1632242157287
 20
312.892914386284
 30
0.0
 10
845.0375704500117
 20
299.3623915148919
 30
0.0
 10
851.0018813098268
 20
285.4418774883137
 30
0.0
 10
857.2966468418525
 20
270.7501139583013
 30
0.0
 10
862.5777129696728
 20
255.6239503536811
 30
0.0
 10
866.7939057843039
 20
240.2066193482161
 30
0.0
 10
870.7854028725271
 20
225.6108564297584
 30
0.0
 10
873.8224886474243
 20
210.7541672504858
 30
0.0
 10
875.8802394082699
 20
195.7629515260134
 30
0.0
 10
878.0268162974654
 20
180.1245798991793
 30
0.0
 10
879.107667124888
 20
164.3398254078285
 30
0.0
 10
879.1091440005181
 20
148.5548393946933
 30
0.0
  0
ENDBLK
  5
A3
330
A0
100
AcDbEntity
  8
0
100
AcDbBlockEnd
  0
BLOCK
  5
A7
330
A5
100
AcDbEntity
  8
0
100
AcDbBlockBegin
  2
block 21
 70
     0
 10
0.0
 20
0.0
 30
0.0
  3
block 21
  1

  0
SPLINE
  5
A9
330
A5
100
AcDbEntity
  8
0
 62
   250
370
    25
100
AcDbSpline
210
0.0
220
0.0
230
1.0
 70
     8
 71
     3
 72
     8
 73
     4
 74
     0
 42
0.0000000001
 43
0.0000000001
 12
1.0
 22
0.0
 32
0.0
 13
1.0
 23
0.0
 33
0.0
 40
0.0
 40
0.0
 40
0.0
 40
0.0
 40
1.0
 40
1.0
 40
1.0
 40
1.0
 10
-298.4021404403226
 20
308.7021762121439
 30
0.0
 10
-298.4041429020734
 20
309.8782147313913
 30
0.0
 10
-298.3512822182216
 20
311.0542640165621
 30
0.0
 10
-298.2445919174127
 20
312.2254578702834
 30
0.0
  0
ENDBLK
  5
A8
330
A5
100
AcDbEntity
  8
0
100
AcDbBlockEnd
  0
BLOCK
  5
AC
330
AA
100
AcDbEntity
  8
0
100
AcDbBlockBegin
  2
block 22
 70
     0
 10
0.0
 20
0.0
 30
0.0
  3
block 22
  1

  0
SPLINE
  5
AE
330
AA
100
AcDbEntity
  8
0
  6
AI-Linetype-3
 62
   250
370
    25
100
AcDbSpline
210
0.0
220
0.0
230
1.0
 70
     8
 71
     3
 72
    32
 73
    28
 74
     0
 42
0.0000000001
 43
0.0000000001
 12
1.0
 22
0.0
 32
0.0
 13
1.0
 23
0.0
 33
0.0
 40
0.0
 40
0.0
 40
0.0
 40
0.0
 40
1.0
 40
1.0
 40
1.0
 40
2.0
 40
2.0
 40
2.0
 40
3.0
 40
3.0
 40
3.0
 40
4.0
 40
4.0
 40
4.0
 40
5.0
 40
5.0
 40
5.0
 40
6.0
 40
6.0
 40
6.0
 40
7.0
 40
7.0
 40
7.0
 40
8.0
 40
8.0
 40
8.0
 40
9.0
 40
9.0
 40
9.0
 40
9.0
 10
-297.064517522634
 20
318.8003418594573
 30
0.0
 10
-296.6352155614783
 20
320.3875175356183
 30
0.0
 10
-296.1045631975159
 20
321.9471782030716
 30
0.0
 10
-295.4753811026754
 20
323.4660292921694
 30
0.0
 10
-294.509010287216
 20
325.7988837744489
 30
0.0
 10
-293.310224717583
 20
328.0354882101284
 30
0.0
 10
-291.9047549506818
 20
330.1336428709944
 30
0.0
 10
-290.4996081614822
 20
332.2314126500991
 30
0.0
 10
-288.8878848342484
 20
334.1908080158541
 30
0.0
 10
-287.0985453029032
 20
335.9718147224943
 30
0.0
 10
-283.5224715936736
 20
339.5312362397183
 30
0.0
 10
-279.2370742558778
 20
342.3781285746865
 30
0.0
 10
-274.5688191504368
 20
344.2919706270915
 30
0.0
 10
-269.9075188315065
 20
346.2030189223766
 30
0.0
 10
-264.8645449965043
 20
347.1838106922187
 30
0.0
 10
-259.8266096136492
 20
347.1595335349711
 30
0.0
 10
-254.7980836478382
 20
347.1352994414171
 30
0.0
 10
-249.7745746023276
 20
346.1097698769219
 30
0.0
 10
-245.1392416906175
 20
344.1606586594866
 30
0.0
 10
-240.513167473024
 20
342.2154985359362
 30
0.0
 10
-236.2737406281095
 20
339.3504790774575
 30
0.0
 10
-232.74344362514
 20
335.7837044345571
 30
0.0
 10
-229.2193477940441
 20
332.2231578783387
 30
0.0
 10
-226.4019487062068
 20
327.9633403745209
 30
0.0
 10
-224.5041532626165
 20
323.3271246570927
 30
0.0
 10
-223.4761798335115
 20
320.8158438349666
 30
0.0
 10
-222.7180219764419
 20
318.1941261706914
 30
0.0
 10
-222.2414360797512
 20
315.5222689097017
 30
0.0
  0
ENDBLK
  5
AD
330
AA
100
AcDbEntity
  8
0
100
AcDbBlockEnd
  0
BLOCK
  5
B2
330
B0
100
AcDbEntity
  8
0
100
AcDbBlockBegin
  2
block 23
 70
     0
 10
0.0
 20
0.0
 30
0.0
  3
block 23
  1

  0
SPLINE
  5
B4
330
B0
100
AcDbEntity
  8
0
 62
   250
370
    25
100
AcDbSpline
210
0.0
220
0.0
230
1.0
 70
     8
 71
     3
 72
     8
 73
     4
 74
     0
 42
0.0000000001
 43
0.0000000001
 12
1.0
 22
0.0
 32
0.0
 13
1.0
 23
0.0
 33
0.0
 40
0.0
 40
0.0
 40
0.0
 40
0.0
 40
1.0
 40
1.0
 40
1.0
 40
1.0
 10
-221.7976001220171
 20
312.21014603574
 30
0.0
 10
-221.6921156046281
 20
311.0388310653805
 30
0.0
 10
-221.6403961086558
 20
309.8627494824396
 30
0.0
 10
-221.6434320990522
 20
308.6868105479836
 30
0.0
  0
ENDBLK
  5
B3
330
B0
100
AcDbEntity
  8
0
100
AcDbBlockEnd
  0
BLOCK
  5
B7
330
B5
100
AcDbEntity
  8
0
100
AcDbBlockBegin
  2
block 24
 70
     0
 10
0.0
 20
0.0
 30
0.0
  3
block 24
  1

  0
SPLINE
  5
B9
330
B5
100
AcDbEntity
  8
0
 62
   250
370
    25
100
AcDbSpline
210
0.0
220
0.0
230
1.0
 70
     8
 71
     3
 72
     8
 73
     4
 74
     0
 42
0.0000000001
 43
0.0000000001
 12
1.0
 22
0.0
 32
0.0
 13
1.0
 23
0.0
 33
0.0
 40
0.0
 40
0.0
 40
0.0
 40
0.0
 40
1.0
 40
1.0
 40
1.0
 40
1.0
 10
-221.6434320990522
 20
308.6868105479836
 30
0.0
 10
-221.6463819620614
 20
307.5108480630701
 30
0.0
 10
-221.7040442477458
 20
306.3350376468245
 30
0.0
 10
-221.8154715548469
 20
305.1642717385581
 30
0.0
  0
ENDBLK
  5
B8
330
B5
100
AcDbEntity
  8
0
100
AcDbBlockEnd
  0
BLOCK
  5
BC
330
BA
100
AcDbEntity
  8
0
100
AcDbBlockBegin
  2
block 25
 70
     0
 10
0.0
 20
0.0
 30
0.0
  3
block 25
  1

  0
SPLINE
  5
BE
330
BA
100
AcDbEntity
  8
0
  6
AI-Linetype-4
 62
   250
370
    25
100
AcDbSpline
210
0.0
220
0.0
230
1.0
 70
     8
 71
     3
 72
    29
 73
    25
 74
     0
 42
0.0000000001
 43
0.0000000001
 12
1.0
 22
0.0
 32
0.0
 13
1.0
 23
0.0
 33
0.0
 40
0.0
 40
0.0
 40
0.0
 40
0.0
 40
1.0
 40
1.0
 40
1.0
 40
2.0
 40
2.0
 40
2.0
 40
3.0
 40
3.0
 40
3.0
 40
4.0
 40
4.0
 40
4.0
 40
5.0
 40
5.0
 40
5.0
 40
6.0
 40
6.0
 40
6.0
 40
7.0
 40
7.0
 40
7.0
 40
8.0
 40
8.0
 40
8.0
 40
8.0
 10
-223.016819414247
 20
298.6115263568806
 30
0.0
 10
-223.4404584996988
 20
297.0669209080936
 30
0.0
 10
-223.9602803447295
 20
295.5488184712153
 30
0.0
 10
-224.5737872551121
 20
294.0695721863585
 30
0.0
 10
-226.4894756633789
 20
289.4507841438553
 30
0.0
 10
-229.3186096077128
 20
285.2108412074882
 30
0.0
 10
-232.8485405692869
 20
281.6692790114301
 30
0.0
 10
-236.3804524607651
 20
278.1257574173147
 30
0.0
 10
-240.6139365159675
 20
275.2813991115649
 30
0.0
 10
-245.2297831063392
 20
273.3513529987153
 30
0.0
 10
-249.8510126584065
 20
271.4190581536174
 30
0.0
 10
-254.8555090832079
 20
270.4031640905575
 30
0.0
 10
-259.864398004753
 20
270.3812312131284
 30
0.0
 10
-264.8817920057773
 20
270.3592283571972
 30
0.0
 10
-269.9035785035453
 20
271.3345375805523
 30
0.0
 10
-274.5479978545977
 20
273.2329978199119
 30
0.0
 10
-279.2016974316136
 20
275.1352368983819
 30
0.0
 10
-283.476522632639
 20
277.9643156673585
 30
0.0
 10
-287.0463305744549
 20
281.5043208417461
 30
0.0
 10
-290.622964111701
 20
285.0511193137937
 30
0.0
 10
-293.4918673770428
 20
289.3115370178406
 30
0.0
 10
-295.4339322976185
 20
293.9591252511563
 30
0.0
 10
-296.4972394872941
 20
296.5037474651554
 30
0.0
 10
-297.282721257931
 20
299.1644224643101
 30
0.0
 10
-297.7776307562339
 20
301.8780059211016
 30
0.0
  0
ENDBLK
  5
BD
330
BA
100
AcDbEntity
  8
0
100
AcDbBlockEnd
  0
BLOCK
  5
C2
330
C0
100
AcDbEntity
  8
0
100
AcDbBlockBegin
  2
block 26
 70
     0
 10
0.0
 20
0.0
 30
0.0
  3
block 26
  1

  0
SPLINE
  5
C4
330
C0
100
AcDbEntity
  8
0
 62
   250
370
    25
100
AcDbSpline
210
0.0
220
0.0
230
1.0
 70
     8
 71
     3
 72
     8
 73
     4
 74
     0
 42
0.0000000001
 43
0.0000000001
 12
1.0
 22
0.0
 32
0.0
 13
1.0
 23
0.0
 33
0.0
 40
0.0
 40
0.0
 40
0.0
 40
0.0
 40
1.0
 40
1.0
 40
1.0
 40
1.0
 10
-298.2334814844728
 20
305.179467839425
 30
0.0
 10
-298.3437891355412
 20
306.3503414069254
 30
0.0
 10
-298.4003317651928
 20
307.5262096900092
 30
0.0
 10
-298.4021404403226
 20
308.7021762121439
 30
0.0
  0
ENDBLK
  5
C3
330
C0
100
AcDbEntity
  8
0
100
AcDbBlockEnd
  0
BLOCK
  5
C7
330
C5
100
AcDbEntity
  8
0
100
AcDbBlockBegin
  2
block 27
 70
     0
 10
0.0
 20
0.0
 30
0.0
  3
block 27
  1

  0
SPLINE
  5
C9
330
C5
100
AcDbEntity
  8
0
 62
   250
370
    25
100
AcDbSpline
210
0.0
220
0.0
230
1.0
 70
     8
 71
     3
 72
     8
 73
     4
 74
     0
 42
0.0000000001
 43
0.0000000001
 12
1.0
 22
0.0
 32
0.0
 13
1.0
 23
0.0
 33
0.0
 40
0.0
 40
0.0
 40
0.0
 40
0.0
 40
1.0
 40
1.0
 40
1.0
 40
1.0
 10
-298.4661115571143
 20
-11.30131673077361
 30
0.0
 10
-298.4638507132021
 20
-10.125354918731
 30
0.0
 10
-298.4068343829213
 20
-8.949522297767809
 30
0.0
 10
-298.2960530312237
 20
-7.77868506525951
 30
0.0
  0
ENDBLK
  5
C8
330
C5
100
AcDbEntity
  8
0
100
AcDbBlockEnd
  0
BLOCK
  5
CC
330
CA
100
AcDbEntity
  8
0
100
AcDbBlockBegin
  2
block 28
 70
     0
 10
0.0
 20
0.0
 30
0.0
  3
block 28
  1

  0
SPLINE
  5
CE
330
CA
100
AcDbEntity
  8
0
  6
AI-Linetype-5
 62
   250
370
    25
100
AcDbSpline
210
0.0
220
0.0
230
1.0
 70
     8
 71
     3
 72
    29
 73
    25
 74
     0
 42
0.0000000001
 43
0.0000000001
 12
1.0
 22
0.0
 32
0.0
 13
1.0
 23
0.0
 33
0.0
 40
0.0
 40
0.0
 40
0.0
 40
0.0
 40
1.0
 40
1.0
 40
1.0
 40
2.0
 40
2.0
 40
2.0
 40
3.0
 40
3.0
 40
3.0
 40
4.0
 40
4.0
 40
4.0
 40
5.0
 40
5.0
 40
5.0
 40
6.0
 40
6.0
 40
6.0
 40
7.0
 40
7.0
 40
7.0
 40
8.0
 40
8.0
 40
8.0
 40
8.0
 10
-297.0980641399216
 20
-1.225273710289148
 30
0.0
 10
-296.6635084081509
 20
0.3622908848543252
 30
0.0
 10
-296.1273223595653
 20
1.921907142873709
 30
0.0
 10
-295.4921974750127
 20
3.440160723223313
 30
0.0
 10
-293.5482377519202
 20
8.087120832196122
 30
0.0
 10
-290.6775904069889
 20
12.34648616723154
 30
0.0
 10
-287.0994927041617
 20
15.89192005848928
 30
0.0
 10
-283.5282421286113
 20
19.4304852906233
 30
0.0
 10
-279.2522972715532
 20
22.25787515536784
 30
0.0
 10
-274.5978225480532
 20
24.15829748426557
 30
0.0
 10
-269.9526065186698
 20
26.05488714443595
 30
0.0
 10
-264.9304539795065
 20
27.02821274640552
 30
0.0
 10
-259.9130384466354
 20
27.00420473724333
 30
0.0
 10
-254.9042356524774
 20
26.98023979177406
 30
0.0
 10
-249.900234460152
 20
25.96242939435056
 30
0.0
 10
-245.2798446501092
 20
24.02830972523773
 30
0.0
 10
-240.664751674375
 20
22.09645090003646
 30
0.0
 10
-236.4323872752052
 20
19.25039292413187
 30
0.0
 10
-232.9018534219212
 20
15.70545426535013
 30
0.0
 10
-229.3733004985412
 20
12.16247500462563
 30
0.0
 10
-226.5458029745627
 20
7.921368675662039
 30
0.0
 10
-224.6319447732725
 20
3.301797075796966
 30
0.0
 10
-223.593420739244
 20
0.794973345954922
 30
0.0
 10
-222.8239155989198
 20
-1.823299222834954
 30
0.0
 10
-222.3356163775792
 20
-4.492946778048619
 30
0.0
  0
ENDBLK
  5
CD
330
CA
100
AcDbEntity
  8
0
100
AcDbBlockEnd
  0
BLOCK
  5
D2
330
D0
100
AcDbEntity
  8
0
100
AcDbBlockBegin
  2
block 29
 70
     0
 10
0.0
 20
0.0
 30
0.0
  3
block 29
  1

  0
SPLINE
  5
D4
330
D0
100
AcDbEntity
  8
0
 62
   250
370
    25
100
AcDbSpline
210
0.0
220
0.0
230
1.0
 70
     8
 71
     3
 72
     8
 73
     4
 74
     0
 42
0.0000000001
 43
0.0000000001
 12
1.0
 22
0.0
 32
0.0
 13
1.0
 23
0.0
 33
0.0
 40
0.0
 40
0.0
 40
0.0
 40
0.0
 40
1.0
 40
1.0
 40
1.0
 40
1.0
 10
-221.8780431015977
 20
-7.794058803862438
 30
0.0
 10
-221.7671110269727
 20
-8.964874504524595
 30
0.0
 10
-221.7099009100707
 20
-10.14070712548651
 30
0.0
 10
-221.7074462795375
 20
-11.31669046937654
 30
0.0
  0
ENDBLK
  5
D3
330
D0
100
AcDbEntity
  8
0
100
AcDbBlockEnd
  0
BLOCK
  5
D7
330
D5
100
AcDbEntity
  8
0
100
AcDbBlockBegin
  2
block 30
 70
     0
 10
0.0
 20
0.0
 30
0.0
  3
block 30
  1

  0
SPLINE
  5
D9
330
D5
100
AcDbEntity
  8
0
 62
   250
370
    25
100
AcDbSpline
210
0.0
220
0.0
230
1.0
 70
     8
 71
     3
 72
     8
 73
     4
 74
     0
 42
0.0000000001
 43
0.0000000001
 12
1.0
 22
0.0
 32
0.0
 13
1.0
 23
0.0
 33
0.0
 40
0.0
 40
0.0
 40
0.0
 40
0.0
 40
1.0
 40
1.0
 40
1.0
 40
1.0
 10
-221.7074462795375
 20
-11.31669046937654
 30
0.0
 10
-221.7048839897703
 20
-12.492630749573
 30
0.0
 10
-221.7570556545251
 20
-13.66870022085081
 30
0.0
 10
-221.8630138725433
 20
-14.83996809029476
 30
0.0
  0
ENDBLK
  5
D8
330
D5
100
AcDbEntity
  8
0
100
AcDbBlockEnd
  0
BLOCK
  5
DC
330
DA
100
AcDbEntity
  8
0
100
AcDbBlockBegin
  2
block 31
 70
     0
 10
0.0
 20
0.0
 30
0.0
  3
block 31
  1

  0
SPLINE
  5
DE
330
DA
100
AcDbEntity
  8
0
  6
AI-Linetype-6
 62
   250
370
    25
100
AcDbSpline
210
0.0
220
0.0
230
1.0
 70
     8
 71
     3
 72
    29
 73
    25
 74
     0
 42
0.0000000001
 43
0.0000000001
 12
1.0
 22
0.0
 32
0.0
 13
1.0
 23
0.0
 33
0.0
 40
0.0
 40
0.0
 40
0.0
 40
0.0
 40
1.0
 40
1.0
 40
1.0
 40
2.0
 40
2.0
 40
2.0
 40
3.0
 40
3.0
 40
3.0
 40
4.0
 40
4.0
 40
4.0
 40
5.0
 40
5.0
 40
5.0
 40
6.0
 40
6.0
 40
6.0
 40
7.0
 40
7.0
 40
7.0
 40
8.0
 40
8.0
 40
8.0
 40
8.0
 10
-223.0387603661187
 20
-21.41564337483791
 30
0.0
 10
-223.4552724102854
 20
-22.9590892159234
 30
0.0
 10
-223.9677734274099
 20
-24.47650305424848
 30
0.0
 10
-224.5739164461928
 20
-25.95559020530015
 30
0.0
 10
-226.4735636286064
 20
-30.59115996732485
 30
0.0
 10
-229.2927498597267
 20
-34.84998700619134
 30
0.0
 10
-232.8183098564039
 20
-38.40915821569651
 30
0.0
 10
-236.3499848975674
 20
-41.97450906522771
 30
0.0
 10
-240.5904883348211
 20
-44.83774945486563
 30
0.0
 10
-245.2173376988987
 20
-46.7811278180957
 30
0.0
 10
-249.851163381334
 20
-48.7273914487934
 30
0.0
 10
-254.8725192421664
 20
-49.75101544484826
 30
0.0
 10
-259.8984398545167
 20
-49.77414064829363
 30
0.0
 10
-264.9388083360582
 20
-49.79733044727808
 30
0.0
 10
-269.9838061646581
 20
-48.81427245056268
 30
0.0
 10
-274.6468074994841
 20
-46.90065109958645
 30
0.0
 10
-279.3145027769087
 20
-44.98513494609462
 30
0.0
 10
-283.5994479459221
 20
-42.13711757213214
 30
0.0
 10
-287.1731100883121
 20
-38.57542713655274
 30
0.0
 10
-290.7494852433967
 20
-35.01098062458642
 30
0.0
 10
-293.6134577158253
 20
-30.73174139496982
 30
0.0
 10
-295.5451227544049
 20
-26.06647921623163
 30
0.0
 10
-296.6005923518515
 20
-23.51732387561522
 30
0.0
 10
-297.3777197659368
 20
-20.85293009101592
 30
0.0
 10
-297.8639303981394
 20
-18.13653689643677
 30
0.0
  0
ENDBLK
  5
DD
330
DA
100
AcDbEntity
  8
0
100
AcDbBlockEnd
  0
BLOCK
  5
E2
330
E0
100
AcDbEntity
  8
0
100
AcDbBlockBegin
  2
block 32
 70
     0
 10
0.0
 20
0.0
 30
0.0
  3
block 32
  1

  0
SPLINE
  5
E4
330
E0
100
AcDbEntity
  8
0
 62
   250
370
    25
100
AcDbSpline
210
0.0
220
0.0
230
1.0
 70
     8
 71
     3
 72
     8
 73
     4
 74
     0
 42
0.0000000001
 43
0.0000000001
 12
1.0
 22
0.0
 32
0.0
 13
1.0
 23
0.0
 33
0.0
 40
0.0
 40
0.0
 40
0.0
 40
0.0
 40
1.0
 40
1.0
 40
1.0
 40
1.0
 10
-298.3097688176243
 20
-14.82459435169184
 30
0.0
 10
-298.4159854178039
 20
-13.65334801409402
 30
0.0
 10
-298.4684154647201
 20
-12.4772785428175
 30
0.0
 10
-298.4661115571143
 20
-11.30131673077361
 30
0.0
  0
ENDBLK
  5
E3
330
E0
100
AcDbEntity
  8
0
100
AcDbBlockEnd
  0
BLOCK
  5
E7
330
E5
100
AcDbEntity
  8
0
100
AcDbBlockBegin
  2
block 33
 70
     0
 10
0.0
 20
0.0
 30
0.0
  3
block 33
  1

  0
SPLINE
  5
E9
330
E5
100
AcDbEntity
  8
0
 62
   250
370
    25
100
AcDbSpline
210
0.0
220
0.0
230
1.0
 70
     8
 71
     3
 72
     8
 73
     4
 74
     0
 42
0.0000000001
 43
0.0000000001
 12
1.0
 22
0.0
 32
0.0
 13
1.0
 23
0.0
 33
0.0
 40
0.0
 40
0.0
 40
0.0
 40
0.0
 40
1.0
 40
1.0
 40
1.0
 40
1.0
 10
431.9555186110284
 20
308.5561216581949
 30
0.0
 10
431.9529778531106
 20
309.7320794330168
 30
0.0
 10
432.0051710497121
 20
310.9081462128131
 30
0.0
 10
432.1111077358835
 20
312.0794208109598
 30
0.0
  0
ENDBLK
  5
E8
330
E5
100
AcDbEntity
  8
0
100
AcDbBlockEnd
  0
BLOCK
  5
EC
330
EA
100
AcDbEntity
  8
0
100
AcDbBlockBegin
  2
block 34
 70
     0
 10
0.0
 20
0.0
 30
0.0
  3
block 34
  1

  0
SPLINE
  5
EE
330
EA
100
AcDbEntity
  8
0
  6
AI-Linetype-7
 62
   250
370
    25
100
AcDbSpline
210
0.0
220
0.0
230
1.0
 70
     8
 71
     3
 72
    29
 73
    25
 74
     0
 42
0.0000000001
 43
0.0000000001
 12
1.0
 22
0.0
 32
0.0
 13
1.0
 23
0.0
 33
0.0
 40
0.0
 40
0.0
 40
0.0
 40
0.0
 40
1.0
 40
1.0
 40
1.0
 40
2.0
 40
2.0
 40
2.0
 40
3.0
 40
3.0
 40
3.0
 40
4.0
 40
4.0
 40
4.0
 40
5.0
 40
5.0
 40
5.0
 40
6.0
 40
6.0
 40
6.0
 40
7.0
 40
7.0
 40
7.0
 40
8.0
 40
8.0
 40
8.0
 40
8.0
 10
433.2869188249993
 20
318.655077255137
 30
0.0
 10
433.703430869166
 20
320.1985648141757
 30
0.0
 10
434.2159318862892
 20
321.7160176789731
 30
0.0
 10
434.8220964369189
 20
323.1951236703907
 30
0.0
 10
436.7217651511786
 20
327.8306261453941
 30
0.0
 10
439.5408437230656
 20
332.0894558757408
 30
0.0
 10
443.066382187896
 20
335.6485867130333
 30
0.0
 10
446.5980356972115
 20
339.2139483284885
 30
0.0
 10
450.8385606663126
 20
342.0771941010881
 30
0.0
 10
455.4654100303922
 20
344.0205563154328
 30
0.0
 10
460.1015611522781
 20
345.9677942621977
 30
0.0
 10
465.1255869621108
 20
346.991499002678
 30
0.0
 10
470.1540052686886
 20
347.0136552730179
 30
0.0
 10
475.1919406515437
 20
347.0359138196293
 30
0.0
 10
480.2343115948367
 20
346.0528127592197
 30
0.0
 10
484.8950951494428
 20
344.140041916192
 30
0.0
 10
489.5626827676335
 20
342.2244907734485
 30
0.0
 10
493.8476064048014
 20
339.3765245376222
 30
0.0
 10
497.4211608879588
 20
335.8148960061026
 30
0.0
 10
500.997557574889
 20
332.2504252708083
 30
0.0
 10
503.8615515791629
 20
327.971175275269
 30
0.0
 10
505.7931735540496
 20
323.305926553935
 30
0.0
 10
506.8487077470373
 20
320.7567658303562
 30
0.0
 10
507.6258351611212
 20
318.0923558968725
 30
0.0
 10
508.1120242614784
 20
315.3759600108125
 30
0.0
  0
ENDBLK
  5
ED
330
EA
100
AcDbEntity
  8
0
100
AcDbBlockEnd
  0
BLOCK
  5
F2
330
F0
100
AcDbEntity
  8
0
100
AcDbBlockBegin
  2
block 35
 70
     0
 10
0.0
 20
0.0
 30
0.0
  3
block 35
  1

  0
SPLINE
  5
F4
330
F0
100
AcDbEntity
  8
0
 62
   250
370
    25
100
AcDbSpline
210
0.0
220
0.0
230
1.0
 70
     8
 71
     3
 72
     8
 73
     4
 74
     0
 42
0.0000000001
 43
0.0000000001
 12
1.0
 22
0.0
 32
0.0
 13
1.0
 23
0.0
 33
0.0
 40
0.0
 40
0.0
 40
0.0
 40
0.0
 40
1.0
 40
1.0
 40
1.0
 40
1.0
 10
508.5578626809626
 20
312.0640295777314
 30
0.0
 10
508.6640577492974
 20
310.892775165691
 30
0.0
 10
508.7165093280584
 20
309.7167178060777
 30
0.0
 10
508.7141838886077
 20
308.5407559940344
 30
0.0
  0
ENDBLK
  5
F3
330
F0
100
AcDbEntity
  8
0
100
AcDbBlockEnd
  0
BLOCK
  5
F7
330
F5
100
AcDbEntity
  8
0
100
AcDbBlockBegin
  2
block 36
 70
     0
 10
0.0
 20
0.0
 30
0.0
  3
block 36
  1

  0
SPLINE
  5
F9
330
F5
100
AcDbEntity
  8
0
 62
   250
370
    25
100
AcDbSpline
210
0.0
220
0.0
230
1.0
 70
     8
 71
     3
 72
     8
 73
     4
 74
     0
 42
0.0000000001
 43
0.0000000001
 12
1.0
 22
0.0
 32
0.0
 13
1.0
 23
0.0
 33
0.0
 40
0.0
 40
0.0
 40
0.0
 40
0.0
 40
1.0
 40
1.0
 40
1.0
 40
1.0
 10
508.7141838886077
 20
308.5407559940344
 30
0.0
 10
508.7119445765424
 20
307.3647988920827
 30
0.0
 10
508.6549282462615
 20
306.1889575238073
 30
0.0
 10
508.5441253627146
 20
305.0181290386112
 30
0.0
  0
ENDBLK
  5
F8
330
F5
100
AcDbEntity
  8
0
100
AcDbBlockEnd
  0
BLOCK
  5
FC
330
FA
100
AcDbEntity
  8
0
100
AcDbBlockBegin
  2
block 37
 70
     0
 10
0.0
 20
0.0
 30
0.0
  3
block 37
  1

  0
SPLINE
  5
FE
330
FA
100
AcDbEntity
  8
0
  6
AI-Linetype-8
 62
   250
370
    25
100
AcDbSpline
210
0.0
220
0.0
230
1.0
 70
     8
 71
     3
 72
    29
 73
    25
 74
     0
 42
0.0000000001
 43
0.0000000001
 12
1.0
 22
0.0
 32
0.0
 13
1.0
 23
0.0
 33
0.0
 40
0.0
 40
0.0
 40
0.0
 40
0.0
 40
1.0
 40
1.0
 40
1.0
 40
2.0
 40
2.0
 40
2.0
 40
3.0
 40
3.0
 40
3.0
 40
4.0
 40
4.0
 40
4.0
 40
5.0
 40
5.0
 40
5.0
 40
6.0
 40
6.0
 40
6.0
 40
7.0
 40
7.0
 40
7.0
 40
8.0
 40
8.0
 40
8.0
 40
8.0
 10
507.346136471415
 20
298.4647149921606
 30
0.0
 10
506.9115807396431
 20
296.8771427431185
 30
0.0
 10
506.3753946910568
 20
295.3175201769409
 30
0.0
 10
505.7402482746581
 20
293.7992701291599
 30
0.0
 10
503.7963531471059
 20
289.1523500559647
 30
0.0
 10
500.9256842703292
 20
284.8929571332505
 30
0.0
 10
497.3475650356526
 20
281.3475232419928
 30
0.0
 10
493.7763790556426
 20
277.8089122546844
 30
0.0
 10
489.5004126667389
 20
274.9815210441994
 30
0.0
 10
484.8459164113921
 20
273.081112172706
 30
0.0
 10
480.2007219138555
 20
271.1845036721696
 30
0.0
 10
475.1785047791512
 20
270.2112318998164
 30
0.0
 10
470.1611107781263
 20
270.2352345260175
 30
0.0
 10
465.1523295158177
 20
270.2591994714868
 30
0.0
 10
460.1483283234923
 20
271.277050241123
 30
0.0
 10
455.5278954497533
 20
273.2111187720997
 30
0.0
 10
450.9128024740197
 20
275.1429937461854
 30
0.0
 10
446.6804596066974
 20
277.9890449933885
 30
0.0
 10
443.1499688171062
 20
281.5340172956809
 30
0.0
 10
439.621372830032
 20
285.0769979021458
 30
0.0
 10
436.7938537742094
 20
289.3181291273073
 30
0.0
 10
434.8799740410711
 20
293.9376852511575
 30
0.0
 10
433.8414500070426
 20
296.4445031774939
 30
0.0
 10
433.0719448667197
 20
299.062760606704
 30
0.0
 10
432.5836456453778
 20
301.7323735932105
 30
0.0
  0
ENDBLK
  5
FD
330
FA
100
AcDbEntity
  8
0
100
AcDbBlockEnd
  0
BLOCK
  5
102
330
100
100
AcDbEntity
  8
0
100
AcDbBlockBegin
  2
block 38
 70
     0
 10
0.0
 20
0.0
 30
0.0
  3
block 38
  1

  0
SPLINE
  5
104
330
100
100
AcDbEntity
  8
0
 62
   250
370
    25
100
AcDbSpline
210
0.0
220
0.0
230
1.0
 70
     8
 71
     3
 72
     8
 73
     4
 74
     0
 42
0.0000000001
 43
0.0000000001
 12
1.0
 22
0.0
 32
0.0
 13
1.0
 23
0.0
 33
0.0
 40
0.0
 40
0.0
 40
0.0
 40
0.0
 40
1.0
 40
1.0
 40
1.0
 40
1.0
 10
432.1260508375482
 20
305.0335014314737
 30
0.0
 10
432.0151187629232
 20
306.2043137677848
 30
0.0
 10
431.9579732415642
 20
307.3801504259686
 30
0.0
 10
431.9555186110284
 20
308.5561216581949
 30
0.0
  0
ENDBLK
  5
103
330
100
100
AcDbEntity
  8
0
100
AcDbBlockEnd
  0
BLOCK
  5
107
330
105
100
AcDbEntity
  8
0
100
AcDbBlockBegin
  2
block 39
 70
     0
 10
0.0
 20
0.0
 30
0.0
  3
block 39
  1

  0
SPLINE
  5
109
330
105
100
AcDbEntity
  8
0
 62
   250
370
    25
100
AcDbSpline
210
0.0
220
0.0
230
1.0
 70
     8
 71
     3
 72
    32
 73
    28
 74
     0
 42
0.0000000001
 43
0.0000000001
 12
1.0
 22
0.0
 32
0.0
 13
1.0
 23
0.0
 33
0.0
 40
0.0
 40
0.0
 40
0.0
 40
0.0
 40
1.0
 40
1.0
 40
1.0
 40
2.0
 40
2.0
 40
2.0
 40
3.0
 40
3.0
 40
3.0
 40
4.0
 40
4.0
 40
4.0
 40
5.0
 40
5.0
 40
5.0
 40
6.0
 40
6.0
 40
6.0
 40
7.0
 40
7.0
 40
7.0
 40
8.0
 40
8.0
 40
8.0
 40
9.0
 40
9.0
 40
9.0
 40
9.0
 10
-333.0942311681974
 20
-199.4835885977837
 30
0.0
 10
-349.0078716143598
 20
-198.8633351846406
 30
0.0
 10
-364.8793756128379
 20
-197.1586945946932
 30
0.0
 10
-380.5614601103935
 20
-194.383510888661
 30
0.0
 10
-397.0568171434158
 20
-191.4643514100368
 30
0.0
 10
-413.3425883254059
 20
-187.3607215931296
 30
0.0
 10
-429.2512148128426
 20
-182.1133391074555
 30
0.0
 10
-445.1517491168179
 20
-176.8686339980964
 30
0.0
 10
-460.6755013826385
 20
-170.4813727288814
 30
0.0
 10
-475.6620915604611
 20
-163.0157451283845
 30
0.0
 10
-490.6401087627418
 20
-155.5543864386089
 30
0.0
 10
-505.0815381951795
 20
-147.0158561817463
 30
0.0
 10
-518.83715937366
 20
-137.4871132242573
 30
0.0
 10
-531.8975488301771
 20
-128.4399843375416
 30
0.0
 10
-544.3396474496883
 20
-118.5001981086085
 30
0.0
 10
-556.0466938248071
 20
-107.7592438378416
 30
0.0
 10
-568.3636934492646
 20
-96.45863491076479
 30
0.0
 10
-579.8670730145877
 20
-84.27117697802096
 30
0.0
 10
-590.4372429881389
 20
-71.32189804485499
 30
0.0
 10
-600.7392456305216
 20
-58.70109313511497
 30
0.0
 10
-610.1548515495466
 20
-45.35664168929193
 30
0.0
 10
-618.5905533009508
 20
-31.4191425340387
 30
0.0
 10
-622.9195381184294
 20
-24.26683563203219
 30
0.0
 10
-626.9904374460937
 20
-16.95839290805488
 30
0.0
 10
-630.7931427123641
 20
-9.512948541556534
 30
0.0
 10
-634.5667187728811
 20
-2.124544057056795
 30
0.0
 10
-638.0761756516415
 20
5.398708338698
 30
0.0
 10
-641.3132420870983
 20
13.03733681751504
 30
0.0
  0
ENDBLK
  5
108
330
105
100
AcDbEntity
  8
0
100
AcDbBlockEnd
  0
BLOCK
  5
10C
330
10A
100
AcDbEntity
  8
0
100
AcDbBlockBegin
  2
block 40
 70
     0
 10
0.0
 20
0.0
 30
0.0
  3
block 40
  1

  0
SPLINE
  5
10E
330
10A
100
AcDbEntity
  8
0
 62
   250
370
    25
100
AcDbSpline
210
0.0
220
0.0
230
1.0
 70
     8
 71
     3
 72
    20
 73
    16
 74
     0
 42
0.0000000001
 43
0.0000000001
 12
1.0
 22
0.0
 32
0.0
 13
1.0
 23
0.0
 33
0.0
 40
0.0
 40
0.0
 40
0.0
 40
0.0
 40
1.0
 40
1.0
 40
1.0
 40
2.0
 40
2.0
 40
2.0
 40
3.0
 40
3.0
 40
3.0
 40
4.0
 40
4.0
 40
4.0
 40
5.0
 40
5.0
 40
5.0
 40
5.0
 10
-282.8597466853114
 20
-199.839917549861
 30
0.0
 10
-286.0054523056246
 20
-199.833955716204
 30
0.0
 10
-289.1511961107576
 20
-199.8283463613847
 30
0.0
 10
-292.2968906811525
 20
-199.8210440030971
 30
0.0
 10
-297.7065946143769
 20
-199.8084503650363
 30
0.0
 10
-303.1162572558454
 20
-199.7908473980876
 30
0.0
 10
-308.5259389975012
 20
-199.7798415141812
 30
0.0
 10
-311.2083249176959
 20
-199.7743825502397
 30
0.0
 10
-313.890759200261
 20
-199.7705107588629
 30
0.0
 10
-316.5731503546289
 20
-199.7656867802808
 30
0.0
 10
-317.1230061917568
 20
-199.764682272081
 30
0.0
 10
-317.6728264611424
 20
-199.7636427777269
 30
0.0
 10
-318.222642368735
 20
-199.7620741289158
 30
0.0
 10
-320.4711540945102
 20
-199.755569979944
 30
0.0
 10
-322.719661060391
 20
-199.7399285157818
 30
0.0
 10
-324.9679387027606
 20
-199.7050264109268
 30
0.0
  0
ENDBLK
  5
10D
330
10A
100
AcDbEntity
  8
0
100
AcDbBlockEnd
  0
BLOCK
  5
111
330
10F
100
AcDbEntity
  8
0
100
AcDbBlockBegin
  2
block 41
 70
     0
 10
0.0
 20
0.0
 30
0.0
  3
block 41
  1

  0
POLYLINE
  5
113
330
10F
100
AcDbEntity
  8
0
 62
   250
370
    25
100
AcDb2dPolyline
 66
     1
 10
0.0
 20
0.0
 30
0.0
  0
VERTEX
  5
114
330
113
100
AcDbEntity
  8
0
 62
   250
370
    25
100
AcDbVertex
100
AcDb2dVertex
 10
879.1091440005181
 20
148.5548393946933
 30
0.0
  0
VERTEX
  5
115
330
113
100
AcDbEntity
  8
0
 62
   250
370
    25
100
AcDbVertex
100
AcDb2dVertex
 10
879.1091364245094
 20
148.5410805064372
 30
0.0
  0
SEQEND
  5
116
330
113
100
AcDbEntity
  8
0
 62
   250
370
    25
  0
ENDBLK
  5
112
330
10F
100
AcDbEntity
  8
0
100
AcDbBlockEnd
  0
BLOCK
  5
119
330
117
100
AcDbEntity
  8
0
100
AcDbBlockBegin
  2
block 42
 70
     0
 10
0.0
 20
0.0
 30
0.0
  3
block 42
  1

  0
SPLINE
  5
11B
330
117
100
AcDbEntity
  8
0
 62
   250
370
    25
100
AcDbSpline
210
0.0
220
0.0
230
1.0
 70
     8
 71
     3
 72
    77
 73
    73
 74
     0
 42
0.0000000001
 43
0.0000000001
 12
1.0
 22
0.0
 32
0.0
 13
1.0
 23
0.0
 33
0.0
 40
0.0
 40
0.0
 40
0.0
 40
0.0
 40
1.0
 40
1.0
 40
1.0
 40
2.0
 40
2.0
 40
2.0
 40
3.0
 40
3.0
 40
3.0
 40
4.0
 40
4.0
 40
4.0
 40
5.0
 40
5.0
 40
5.0
 40
6.0
 40
6.0
 40
6.0
 40
7.0
 40
7.0
 40
7.0
 40
8.0
 40
8.0
 40
8.0
 40
9.0
 40
9.0
 40
9.0
 40
10.0
 40
10.0
 40
10.0
 40
11.0
 40
11.0
 40
11.0
 40
12.0
 40
12.0
 40
12.0
 40
13.0
 40
13.0
 40
13.0
 40
14.0
 40
14.0
 40
14.0
 40
15.0
 40
15.0
 40
15.0
 40
16.0
 40
16.0
 40
16.0
 40
17.0
 40
17.0
 40
17.0
 40
18.0
 40
18.0
 40
18.0
 40
19.0
 40
19.0
 40
19.0
 40
20.0
 40
20.0
 40
20.0
 40
21.0
 40
21.0
 40
21.0
 40
22.0
 40
22.0
 40
22.0
 40
23.0
 40
23.0
 40
23.0
 40
24.0
 40
24.0
 40
24.0
 40
24.0
 10
-44.92751151732127
 20
-100.9641641336075
 30
0.0
 10
-65.37640055991041
 20
-100.6797118882622
 30
0.0
 10
-85.82529309196971
 20
-100.3956829664322
 30
0.0
 10
-106.2742334048336
 20
-100.1131706632951
 30
0.0
 10
-108.4395048410625
 20
-100.0832921373627
 30
0.0
 10
-110.6047759865148
 20
-100.053378334453
 30
0.0
 10
-112.7700474227433
 20
-100.0234998084924
 30
0.0
 10
-122.9055722397947
 20
-99.88364713840564
 30
0.0
 10
-133.0411005462905
 20
-99.74421779186251
 30
0.0
 10
-143.1766699454853
 20
-99.60549369382385
 30
0.0
 10
-158.1871909542426
 20
-99.40002016528545
 30
0.0
 10
-173.1977603253894
 20
-99.19613380931683
 30
0.0
 10
-188.2082795894308
 20
-98.99044861899408
 30
0.0
 10
-191.5446953375184
 20
-98.94474249941062
 30
0.0
 10
-194.8811105040341
 20
-98.8989658258982
 30
0.0
 10
-198.217542245405
 20
-98.85519993933521
 30
0.0
 10
-201.4737573696364
 20
-98.81248334876723
 30
0.0
 10
-204.729988777953
 20
-98.77174226817202
 30
0.0
 10
-207.9861690077774
 20
-98.72479244195291
 30
0.0
 10
-210.4855556391934
 20
-98.6887377170177
 30
0.0
 10
-212.9849123195736
 20
-98.64904946483212
 30
0.0
 10
-215.4838635823237
 20
-98.59013730284663
 30
0.0
 10
-222.8776155999307
 20
-98.41580297339564
 30
0.0
 10
-230.2675473258769
 20
-98.07332342161473
 30
0.0
 10
-237.6476627788186
 20
-97.59284136691785
 30
0.0
 10
-239.6191089834439
 20
-97.46447298966652
 30
0.0
 10
-241.5898743501398
 20
-97.3262672828637
 30
0.0
 10
-243.5599058639347
 20
-97.17607264253218
 30
0.0
 10
-244.051144716761
 20
-97.13864910091903
 30
0.0
 10
-244.5423418952851
 20
-97.10044975686858
 30
0.0
 10
-245.0335005982003
 20
-97.06186265701075
 30
0.0
 10
-246.4629413683571
 20
-96.9495689231027
 30
0.0
 10
-247.892002616476
 20
-96.83403261637304
 30
0.0
 10
-249.3202398833021
 20
-96.708413204522
 30
0.0
 10
-252.3075767246009
 20
-96.44568827551515
 30
0.0
 10
-255.2911634937529
 20
-96.13889505725804
 30
0.0
 10
-258.2683146724101
 20
-95.77895361129188
 30
0.0
 10
-275.394052699414
 20
-93.70835845321015
 30
0.0
 10
-292.3076589088473
 20
-89.87907178755093
 30
0.0
 10
-308.6520531705118
 20
-84.36170282858747
 30
0.0
 10
-324.7262184374817
 20
-78.93553590659145
 30
0.0
 10
-340.249832077831
 20
-71.87662730934206
 30
0.0
 10
-354.8952520760816
 20
-63.31306062787402
 30
0.0
 10
-363.9537720110657
 20
-58.01630527132124
 30
0.0
 10
-372.6763446491338
 20
-52.14394927695268
 30
0.0
 10
-380.9922765625676
 20
-45.74384971187087
 30
0.0
 10
-389.8012847090568
 20
-38.96427805683962
 30
0.0
 10
-398.1540124217412
 20
-31.59256382390637
 30
0.0
 10
-405.9717694675239
 20
-23.69081230062226
 30
0.0
 10
-413.3678177675112
 20
-16.21528948954133
 30
0.0
 10
-420.2850250915153
 20
-8.265396175883014
 30
0.0
 10
-426.6657883062875
 20
0.0936904718570045
 30
0.0
 10
-433.0936350484308
 20
8.514445477298503
 30
0.0
 10
-438.9770853353199
 20
17.35043159532196
 30
0.0
 10
-444.2645504730137
 20
26.53013566993865
 30
0.0
 10
-446.9172387684329
 20
31.13560208744694
 30
0.0
 10
-449.4199470428113
 20
35.82757199466435
 30
0.0
 10
-451.7681048098665
 20
40.59556502643901
 30
0.0
 10
-454.1197676836607
 20
45.37060754349621
 30
0.0
 10
-456.3164549818407
 20
50.22188135743703
 30
0.0
 10
-458.352354254687
 20
55.13977784965045
 30
0.0
 10
-462.409244450032
 20
64.93953355574861
 30
0.0
 10
-465.8276559689187
 20
75.00377229492184
 30
0.0
 10
-468.5790817356144
 20
85.24705942795026
 30
0.0
 10
-471.3558713315038
 20
95.58475152749881
 30
0.0
 10
-473.4533000315398
 20
106.104812110988
 30
0.0
 10
-474.8524606550402
 20
116.7170523983638
 30
0.0
 10
-475.5528189423282
 20
122.0293704826991
 30
0.0
 10
-476.0782130538611
 20
127.364765498624
 30
0.0
 10
-476.4277506127334
 20
132.7116584599574
 30
0.0
 10
-476.7763744755283
 20
138.0452788500582
 30
0.0
 10
-476.9500245821324
 20
143.3902986243658
 30
0.0
 10
-476.9482654114631
 20
148.7353542387053
 30
0.0
  0
ENDBLK
  5
11A
330
117
100
AcDbEntity
  8
0
100
AcDbBlockEnd
  0
BLOCK
  5
11E
330
11C
100
AcDbEntity
  8
0
100
AcDbBlockBegin
  2
block 43
 70
     0
 10
0.0
 20
0.0
 30
0.0
  3
block 43
  1

  0
SPLINE
  5
120
330
11C
100
AcDbEntity
  8
0
 62
   250
370
    25
100
AcDbSpline
210
0.0
220
0.0
230
1.0
 70
     8
 71
     3
 72
    77
 73
    73
 74
     0
 42
0.0000000001
 43
0.0000000001
 12
1.0
 22
0.0
 32
0.0
 13
1.0
 23
0.0
 33
0.0
 40
0.0
 40
0.0
 40
0.0
 40
0.0
 40
1.0
 40
1.0
 40
1.0
 40
2.0
 40
2.0
 40
2.0
 40
3.0
 40
3.0
 40
3.0
 40
4.0
 40
4.0
 40
4.0
 40
5.0
 40
5.0
 40
5.0
 40
6.0
 40
6.0
 40
6.0
 40
7.0
 40
7.0
 40
7.0
 40
8.0
 40
8.0
 40
8.0
 40
9.0
 40
9.0
 40
9.0
 40
10.0
 40
10.0
 40
10.0
 40
11.0
 40
11.0
 40
11.0
 40
12.0
 40
12.0
 40
12.0
 40
13.0
 40
13.0
 40
13.0
 40
14.0
 40
14.0
 40
14.0
 40
15.0
 40
15.0
 40
15.0
 40
16.0
 40
16.0
 40
16.0
 40
17.0
 40
17.0
 40
17.0
 40
18.0
 40
18.0
 40
18.0
 40
19.0
 40
19.0
 40
19.0
 40
20.0
 40
20.0
 40
20.0
 40
21.0
 40
21.0
 40
21.0
 40
22.0
 40
22.0
 40
22.0
 40
23.0
 40
23.0
 40
23.0
 40
24.0
 40
24.0
 40
24.0
 40
24.0
 10
-44.82769510053134
 20
398.1973297001047
 30
0.0
 10
-14.20729631964989
 20
397.7687415987382
 30
0.0
 10
316.4164300512602
 20
397.2834483638393
 30
0.0
 10
347.0369653946611
 20
396.8628675515006
 30
0.0
 10
364.3332890476061
 20
396.625287186856
 30
0.0
 10
381.6296249135661
 20
396.3891884546562
 30
0.0
 10
398.9259677584306
 20
396.1539363695516
 30
0.0
 10
401.841656677004
 20
396.1143089610063
 30
0.0
 10
404.7573805817624
 20
396.0746459846993
 30
0.0
 10
407.6730674648184
 20
396.0347716374151
 30
0.0
 10
408.781314113293
 20
396.019603624822
 30
0.0
 10
409.8895254848076
 20
396.0044359030252
 30
0.0
 10
410.9977796937335
 20
395.990185091467
 30
0.0
 10
413.4373009349894
 20
395.958857358635
 30
0.0
 10
415.8768605600978
 20
395.9321861849157
 30
0.0
 10
418.3163559213152
 20
395.8977188023875
 30
0.0
 10
420.6981055097959
 20
395.8640449306758
 30
0.0
 10
423.0797587560585
 20
395.8229631875224
 30
0.0
 10
425.4610330463335
 20
395.7658677387055
 30
0.0
 10
432.7497195065213
 20
395.591094127868
 30
0.0
 10
440.0349132691055
 20
395.2665178657489
 30
0.0
 10
447.3104256527432
 20
394.7946242412581
 30
0.0
 10
449.4596944920194
 20
394.6551940945971
 30
0.0
 10
451.608116668626
 20
394.5029292399435
 30
0.0
 10
453.7560223781036
 20
394.3436480498916
 30
0.0
 10
455.6217245136692
 20
394.2052852776241
 30
0.0
 10
457.4870658293369
 20
394.061668854969
 30
0.0
 10
459.3509567946793
 20
393.9004599869116
 30
0.0
 10
462.3120649304028
 20
393.6443368304572
 30
0.0
 10
465.2695267893554
 20
393.3438975747582
 30
0.0
 10
468.2207002722124
 20
392.9910497457722
 30
0.0
 10
485.0958623073495
 20
390.9734282427127
 30
0.0
 10
501.7659320786664
 20
387.2422148304398
 30
0.0
 10
517.8919228654937
 20
381.8759838308388
 30
0.0
 10
521.8669168947512
 20
380.5532282861787
 30
0.0
 10
525.8088116107136
 20
379.1311519451386
 30
0.0
 10
529.7124644278855
 20
377.6107497405606
 30
0.0
 10
533.6642252132187
 20
376.0716409957438
 30
0.0
 10
537.576736280463
 20
374.4317804190081
 30
0.0
 10
541.4448993355475
 20
372.6932562383003
 30
0.0
 10
549.1575698311759
 20
369.2268102805247
 30
0.0
 10
556.6938905019598
 20
365.3680297535979
 30
0.0
 10
564.0161521411162
 20
361.1388517409283
 30
0.0
 10
568.5333357567844
 20
358.5298219614902
 30
0.0
 10
572.9690259256299
 20
355.7797820206148
 30
0.0
 10
577.3131234575063
 20
352.8918844698985
 30
0.0
 10
590.6868832237526
 20
344.0011415031536
 30
0.0
 10
603.1924413031046
 20
333.8035753360364
 30
0.0
 10
614.593440526126
 20
322.4935478820909
 30
0.0
 10
618.2505113071738
 20
318.8656489203324
 30
0.0
 10
621.7939210248579
 20
315.1232880768905
 30
0.0
 10
625.2164937326239
 20
311.2732981399728
 30
0.0
 10
628.9064043120088
 20
307.1226058813467
 30
0.0
 10
632.4558593132151
 20
302.8467712851648
 30
0.0
 10
635.8567235318749
 20
298.4560924240556
 30
0.0
 10
637.7204889901161
 20
296.0498119646855
 30
0.0
 10
639.5396595751122
 20
293.6090783712518
 30
0.0
 10
641.3128361305648
 20
291.1353496306862
 30
0.0
 10
645.8343505581581
 20
284.8274196639851
 30
0.0
 10
650.0569384891321
 20
278.3049503961871
 30
0.0
 10
653.9610491552286
 20
271.597173176241
 30
0.0
 10
659.2101869401635
 20
262.5784121891905
 30
0.0
 10
663.8835201421083
 20
253.2245867465768
 30
0.0
 10
667.9415567752905
 20
243.6109910193132
 30
0.0
 10
672.2456595106663
 20
233.414421757529
 30
0.0
 10
675.8575357859614
 20
222.9255890228575
 30
0.0
 10
678.7430161979808
 20
212.2406284934259
 30
0.0
 10
681.5579741072487
 20
201.8168579103229
 30
0.0
 10
683.6815755908166
 20
191.206372527483
 30
0.0
 10
685.09468921059
 20
180.5021147612503
 30
0.0
 10
686.4947543500082
 20
169.8968878783894
 30
0.0
 10
687.1973988569318
 20
159.1995709910453
 30
0.0
 10
687.1965034074666
 20
148.5023822697961
 30
0.0
  0
ENDBLK
  5
11F
330
11C
100
AcDbEntity
  8
0
100
AcDbBlockEnd
  0
BLOCK
  5
123
330
121
100
AcDbEntity
  8
0
100
AcDbBlockBegin
  2
block 44
 70
     0
 10
0.0
 20
0.0
 30
0.0
  3
block 44
  1

  0
SPLINE
  5
125
330
121
100
AcDbEntity
  8
0
 62
   250
370
    25
100
AcDbSpline
210
0.0
220
0.0
230
1.0
 70
     8
 71
     3
 72
     8
 73
     4
 74
     0
 42
0.0000000001
 43
0.0000000001
 12
1.0
 22
0.0
 32
0.0
 13
1.0
 23
0.0
 33
0.0
 40
0.0
 40
0.0
 40
0.0
 40
0.0
 40
1.0
 40
1.0
 40
1.0
 40
1.0
 10
-233.6948928707789
 20
308.6892375908381
 30
0.0
 10
-233.6946560204643
 20
309.8822667558078
 30
0.0
 10
-233.7743023217139
 20
311.0566553972955
 30
0.0
 10
-233.9287717905338
 20
312.207342858437
 30
0.0
  0
ENDBLK
  5
124
330
121
100
AcDbEntity
  8
0
100
AcDbBlockEnd
  0
BLOCK
  5
128
330
126
100
AcDbEntity
  8
0
100
AcDbBlockBegin
  2
block 45
 70
     0
 10
0.0
 20
0.0
 30
0.0
  3
block 45
  1

  0
SPLINE
  5
12A
330
126
100
AcDbEntity
  8
0
  6
AI-Linetype-9
 62
   250
370
    25
100
AcDbSpline
210
0.0
220
0.0
230
1.0
 70
     8
 71
     3
 72
    11
 73
     7
 74
     0
 42
0.0000000001
 43
0.0000000001
 12
1.0
 22
0.0
 32
0.0
 13
1.0
 23
0.0
 33
0.0
 40
0.0
 40
0.0
 40
0.0
 40
0.0
 40
1.0
 40
1.0
 40
1.0
 40
2.0
 40
2.0
 40
2.0
 40
2.0
 10
-235.7108120258196
 20
318.7809228251401
 30
0.0
 10
-239.6580086461979
 20
328.2155805766198
 30
0.0
 10
-248.9756784911449
 20
334.8453142539921
 30
0.0
 10
-259.8427154350427
 20
334.8474862790363
 30
0.0
 10
-271.9135979325675
 20
334.8498978458759
 30
0.0
 10
-282.076091317885
 20
326.6742206331914
 30
0.0
 10
-285.0912173547289
 20
315.5573712029194
 30
0.0
  0
ENDBLK
  5
129
330
126
100
AcDbEntity
  8
0
100
AcDbBlockEnd
  0
BLOCK
  5
12E
330
12C
100
AcDbEntity
  8
0
100
AcDbBlockBegin
  2
block 46
 70
     0
 10
0.0
 20
0.0
 30
0.0
  3
block 46
  1

  0
SPLINE
  5
130
330
12C
100
AcDbEntity
  8
0
 62
   250
370
    25
100
AcDbSpline
210
0.0
220
0.0
230
1.0
 70
     8
 71
     3
 72
     8
 73
     4
 74
     0
 42
0.0000000001
 43
0.0000000001
 12
1.0
 22
0.0
 32
0.0
 13
1.0
 23
0.0
 33
0.0
 40
0.0
 40
0.0
 40
0.0
 40
0.0
 40
1.0
 40
1.0
 40
1.0
 40
1.0
 10
-285.7656809233537
 20
312.2176996767395
 30
0.0
 10
-285.920602560956
 20
311.0670741196575
 30
0.0
 10
-286.0007225628348
 20
309.89271777594
 30
0.0
 10
-286.0009594131494
 20
308.6996886109703
 30
0.0
  0
ENDBLK
  5
12F
330
12C
100
AcDbEntity
  8
0
100
AcDbBlockEnd
  0
BLOCK
  5
133
330
131
100
AcDbEntity
  8
0
100
AcDbBlockBegin
  2
block 47
 70
     0
 10
0.0
 20
0.0
 30
0.0
  3
block 47
  1

  0
SPLINE
  5
135
330
131
100
AcDbEntity
  8
0
 62
   250
370
    25
100
AcDbSpline
210
0.0
220
0.0
230
1.0
 70
     8
 71
     3
 72
     8
 73
     4
 74
     0
 42
0.0000000001
 43
0.0000000001
 12
1.0
 22
0.0
 32
0.0
 13
1.0
 23
0.0
 33
0.0
 40
0.0
 40
0.0
 40
0.0
 40
0.0
 40
1.0
 40
1.0
 40
1.0
 40
1.0
 10
496.3130459251282
 20
308.5432435952081
 30
0.0
 10
496.3133043072876
 20
309.7362727601778
 30
0.0
 10
496.2336364741932
 20
310.910660055925
 30
0.0
 10
496.079167005372
 20
312.0613488628069
 30
0.0
  0
ENDBLK
  5
134
330
131
100
AcDbEntity
  8
0
100
AcDbBlockEnd
  0
BLOCK
  5
138
330
136
100
AcDbEntity
  8
0
100
AcDbBlockBegin
  2
block 48
 70
     0
 10
0.0
 20
0.0
 30
0.0
  3
block 48
  1

  0
SPLINE
  5
13A
330
136
100
AcDbEntity
  8
0
  6
AI-Linetype-10
 62
   250
370
    25
100
AcDbSpline
210
0.0
220
0.0
230
1.0
 70
     8
 71
     3
 72
    11
 73
     7
 74
     0
 42
0.0000000001
 43
0.0000000001
 12
1.0
 22
0.0
 32
0.0
 13
1.0
 23
0.0
 33
0.0
 40
0.0
 40
0.0
 40
0.0
 40
0.0
 40
1.0
 40
1.0
 40
1.0
 40
2.0
 40
2.0
 40
2.0
 40
2.0
 10
494.2971483019343
 20
318.6349328667313
 30
0.0
 10
490.3499301497092
 20
328.0695892724706
 30
0.0
 10
481.0322387729135
 20
334.6993283328046
 30
0.0
 10
470.1652448927086
 20
334.701527272657
 30
0.0
 10
458.0943623951864
 20
334.7039388394966
 30
0.0
 10
447.9318474780221
 20
326.5282535523698
 30
0.0
 10
444.9166999093314
 20
315.4113798987702
 30
0.0
  0
ENDBLK
  5
139
330
136
100
AcDbEntity
  8
0
100
AcDbBlockEnd
  0
BLOCK
  5
13E
330
13C
100
AcDbEntity
  8
0
100
AcDbBlockBegin
  2
block 49
 70
     0
 10
0.0
 20
0.0
 30
0.0
  3
block 49
  1

  0
SPLINE
  5
140
330
13C
100
AcDbEntity
  8
0
 62
   250
370
    25
100
AcDbSpline
210
0.0
220
0.0
230
1.0
 70
     8
 71
     3
 72
     8
 73
     4
 74
     0
 42
0.0000000001
 43
0.0000000001
 12
1.0
 22
0.0
 32
0.0
 13
1.0
 23
0.0
 33
0.0
 40
0.0
 40
0.0
 40
0.0
 40
0.0
 40
1.0
 40
1.0
 40
1.0
 40
1.0
 10
444.2422794043977
 20
312.0717056811094
 30
0.0
 10
444.0873362349498
 20
310.9210801240275
 30
0.0
 10
444.0071947012255
 20
309.74672378031
 30
0.0
 10
444.0069793827551
 20
308.5536946153403
 30
0.0
  0
ENDBLK
  5
13F
330
13C
100
AcDbEntity
  8
0
100
AcDbBlockEnd
  0
BLOCK
  5
143
330
141
100
AcDbEntity
  8
0
100
AcDbBlockBegin
  2
block 50
 70
     0
 10
0.0
 20
0.0
 30
0.0
  3
block 50
  1

  0
SPLINE
  5
145
330
141
100
AcDbEntity
  8
0
 62
   250
370
    25
100
AcDbSpline
210
0.0
220
0.0
230
1.0
 70
     8
 71
     3
 72
     8
 73
     4
 74
     0
 42
0.0000000001
 43
0.0000000001
 12
1.0
 22
0.0
 32
0.0
 13
1.0
 23
0.0
 33
0.0
 40
0.0
 40
0.0
 40
0.0
 40
0.0
 40
1.0
 40
1.0
 40
1.0
 40
1.0
 10
496.2490532764878
 20
-11.46024329187818
 30
0.0
 10
496.2492685949549
 20
-10.26722825718295
 30
0.0
 10
496.1696438255527
 20
-9.092838269954843
 30
0.0
 10
496.0151743567322
 20
-7.942154846033973
 30
0.0
  0
ENDBLK
  5
144
330
141
100
AcDbEntity
  8
0
100
AcDbBlockEnd
  0
BLOCK
  5
148
330
146
100
AcDbEntity
  8
0
100
AcDbBlockBegin
  2
block 51
 70
     0
 10
0.0
 20
0.0
 30
0.0
  3
block 51
  1

  0
SPLINE
  5
14A
330
146
100
AcDbEntity
  8
0
  6
AI-Linetype-11
 62
   250
370
    25
100
AcDbSpline
210
0.0
220
0.0
230
1.0
 70
     8
 71
     3
 72
    11
 73
     7
 74
     0
 42
0.0000000001
 43
0.0000000001
 12
1.0
 22
0.0
 32
0.0
 13
1.0
 23
0.0
 33
0.0
 40
0.0
 40
0.0
 40
0.0
 40
0.0
 40
1.0
 40
1.0
 40
1.0
 40
2.0
 40
2.0
 40
2.0
 40
2.0
 10
494.2331556532938
 20
-1.368568150628759
 30
0.0
 10
490.2859375010688
 20
8.06612728158288
 30
0.0
 10
480.9682461242769
 20
14.69586903339767
 30
0.0
 10
470.1012522440714
 20
14.69802221807595
 30
0.0
 10
458.0303697465459
 20
14.70043378491498
 30
0.0
 10
447.8678548293817
 20
6.52477002963532
 30
0.0
 10
444.8527503243839
 20
-4.592079400636683
 30
0.0
  0
ENDBLK
  5
149
330
146
100
AcDbEntity
  8
0
100
AcDbBlockEnd
  0
BLOCK
  5
14E
330
14C
100
AcDbEntity
  8
0
100
AcDbBlockBegin
  2
block 52
 70
     0
 10
0.0
 20
0.0
 30
0.0
  3
block 52
  1

  0
SPLINE
  5
150
330
14C
100
AcDbEntity
  8
0
 62
   250
370
    25
100
AcDbSpline
210
0.0
220
0.0
230
1.0
 70
     8
 71
     3
 72
     8
 73
     4
 74
     0
 42
0.0000000001
 43
0.0000000001
 12
1.0
 22
0.0
 32
0.0
 13
1.0
 23
0.0
 33
0.0
 40
0.0
 40
0.0
 40
0.0
 40
0.0
 40
1.0
 40
1.0
 40
1.0
 40
1.0
 10
444.1782867557604
 20
-7.931754964037876
 30
0.0
 10
444.02334358631
 20
-9.082373792418398
 30
0.0
 10
443.943245116278
 20
-10.25674224779972
 30
0.0
 10
443.9429867341179
 20
-11.44975728249495
 30
0.0
  0
ENDBLK
  5
14F
330
14C
100
AcDbEntity
  8
0
100
AcDbBlockEnd
  0
BLOCK
  5
153
330
151
100
AcDbEntity
  8
0
100
AcDbBlockBegin
  2
block 53
 70
     0
 10
0.0
 20
0.0
 30
0.0
  3
block 53
  1

  0
SPLINE
  5
155
330
151
100
AcDbEntity
  8
0
 62
   250
370
    25
100
AcDbSpline
210
0.0
220
0.0
230
1.0
 70
     8
 71
     3
 72
     8
 73
     4
 74
     0
 42
0.0000000001
 43
0.0000000001
 12
1.0
 22
0.0
 32
0.0
 13
1.0
 23
0.0
 33
0.0
 40
0.0
 40
0.0
 40
0.0
 40
0.0
 40
1.0
 40
1.0
 40
1.0
 40
1.0
 10
443.9429867341179
 20
-11.44975728249495
 30
0.0
 10
443.9427714156513
 20
-12.64279384903633
 30
0.0
 10
444.0223961850529
 20
-13.81718383626444
 30
0.0
 10
444.176865653874
 20
-14.96786726018466
 30
0.0
  0
ENDBLK
  5
154
330
151
100
AcDbEntity
  8
0
100
AcDbBlockEnd
  0
BLOCK
  5
158
330
156
100
AcDbEntity
  8
0
100
AcDbBlockBegin
  2
block 54
 70
     0
 10
0.0
 20
0.0
 30
0.0
  3
block 54
  1

  0
SPLINE
  5
15A
330
156
100
AcDbEntity
  8
0
  6
AI-Linetype-12
 62
   250
370
    25
100
AcDbSpline
210
0.0
220
0.0
230
1.0
 70
     8
 71
     3
 72
    11
 73
     7
 74
     0
 42
0.0000000001
 43
0.0000000001
 12
1.0
 22
0.0
 32
0.0
 13
1.0
 23
0.0
 33
0.0
 40
0.0
 40
0.0
 40
0.0
 40
0.0
 40
1.0
 40
1.0
 40
1.0
 40
2.0
 40
2.0
 40
2.0
 40
2.0
 10
445.9588843573118
 20
-21.54145395558988
 30
0.0
 10
449.9061025095368
 20
-30.97612785595474
 30
0.0
 10
459.2237938863294
 20
-37.60586960776952
 30
0.0
 10
470.0907877665343
 20
-37.60804432429459
 30
0.0
 10
482.1616702640597
 20
-37.61045589113426
 30
0.0
 10
492.3241851812239
 20
-29.43479213585396
 30
0.0
 10
495.3392896862223
 20
-18.31794270558195
 30
0.0
  0
ENDBLK
  5
159
330
156
100
AcDbEntity
  8
0
100
AcDbBlockEnd
  0
BLOCK
  5
15E
330
15C
100
AcDbEntity
  8
0
100
AcDbBlockBegin
  2
block 55
 70
     0
 10
0.0
 20
0.0
 30
0.0
  3
block 55
  1

  0
SPLINE
  5
160
330
15C
100
AcDbEntity
  8
0
 62
   250
370
    25
100
AcDbSpline
210
0.0
220
0.0
230
1.0
 70
     8
 71
     3
 72
     8
 73
     4
 74
     0
 42
0.0000000001
 43
0.0000000001
 12
1.0
 22
0.0
 32
0.0
 13
1.0
 23
0.0
 33
0.0
 40
0.0
 40
0.0
 40
0.0
 40
0.0
 40
1.0
 40
1.0
 40
1.0
 40
1.0
 10
496.0137532548452
 20
-14.9782671421814
 30
0.0
 10
496.1686964242962
 20
-13.8276267819541
 30
0.0
 10
496.2487948943283
 20
-12.65327985841956
 30
0.0
 10
496.2490532764878
 20
-11.46024329187818
 30
0.0
  0
ENDBLK
  5
15F
330
15C
100
AcDbEntity
  8
0
100
AcDbBlockEnd
  0
BLOCK
  5
163
330
161
100
AcDbEntity
  8
0
100
AcDbBlockBegin
  2
block 56
 70
     0
 10
0.0
 20
0.0
 30
0.0
  3
block 56
  1

  0
SPLINE
  5
165
330
161
100
AcDbEntity
  8
0
 62
   250
370
    25
100
AcDbSpline
210
0.0
220
0.0
230
1.0
 70
     8
 71
     3
 72
     8
 73
     4
 74
     0
 42
0.0000000001
 43
0.0000000001
 12
1.0
 22
0.0
 32
0.0
 13
1.0
 23
0.0
 33
0.0
 40
0.0
 40
0.0
 40
0.0
 40
0.0
 40
1.0
 40
1.0
 40
1.0
 40
1.0
 10
-286.0009594131494
 20
308.6996886109703
 30
0.0
 10
-286.0011962634641
 20
307.5066594460006
 30
0.0
 10
-285.9215499622144
 20
306.3322714773831
 30
0.0
 10
-285.7670804933945
 20
305.1815833433714
 30
0.0
  0
ENDBLK
  5
164
330
161
100
AcDbEntity
  8
0
100
AcDbBlockEnd
  0
BLOCK
  5
168
330
166
100
AcDbEntity
  8
0
100
AcDbBlockBegin
  2
block 57
 70
     0
 10
0.0
 20
0.0
 30
0.0
  3
block 57
  1

  0
SPLINE
  5
16A
330
166
100
AcDbEntity
  8
0
  6
AI-Linetype-13
 62
   250
370
    25
100
AcDbSpline
210
0.0
220
0.0
230
1.0
 70
     8
 71
     3
 72
    11
 73
     7
 74
     0
 42
0.0000000001
 43
0.0000000001
 12
1.0
 22
0.0
 32
0.0
 13
1.0
 23
0.0
 33
0.0
 40
0.0
 40
0.0
 40
0.0
 40
0.0
 40
1.0
 40
1.0
 40
1.0
 40
2.0
 40
2.0
 40
2.0
 40
2.0
 10
-283.9850617899555
 20
298.607998582468
 30
0.0
 10
-280.0378436377305
 20
289.1733301491737
 30
0.0
 10
-270.7201737927834
 20
282.5435769585653
 30
0.0
 10
-259.8531799125792
 20
282.5414049335211
 30
0.0
 10
-247.7822974150544
 20
282.5389933666814
 30
0.0
 10
-237.6197609660433
 20
290.7146773080681
 30
0.0
 10
-234.6046349291995
 20
301.8315523074081
 30
0.0
  0
ENDBLK
  5
169
330
166
100
AcDbEntity
  8
0
100
AcDbBlockEnd
  0
BLOCK
  5
16E
330
16C
100
AcDbEntity
  8
0
100
AcDbBlockBegin
  2
block 58
 70
     0
 10
0.0
 20
0.0
 30
0.0
  3
block 58
  1

  0
SPLINE
  5
170
330
16C
100
AcDbEntity
  8
0
 62
   250
370
    25
100
AcDbSpline
210
0.0
220
0.0
230
1.0
 70
     8
 71
     3
 72
     8
 73
     4
 74
     0
 42
0.0000000001
 43
0.0000000001
 12
1.0
 22
0.0
 32
0.0
 13
1.0
 23
0.0
 33
0.0
 40
0.0
 40
0.0
 40
0.0
 40
0.0
 40
1.0
 40
1.0
 40
1.0
 40
1.0
 10
-233.9301713605747
 20
305.1712265250689
 30
0.0
 10
-233.7752497229723
 20
306.3218520821509
 30
0.0
 10
-233.6951297210935
 20
307.4962077529982
 30
0.0
 10
-233.6948928707789
 20
308.6892375908381
 30
0.0
  0
ENDBLK
  5
16F
330
16C
100
AcDbEntity
  8
0
100
AcDbBlockEnd
  0
BLOCK
  5
173
330
171
100
AcDbEntity
  8
0
100
AcDbBlockBegin
  2
block 59
 70
     0
 10
0.0
 20
0.0
 30
0.0
  3
block 59
  1

  0
SPLINE
  5
175
330
171
100
AcDbEntity
  8
0
 62
   250
370
    25
100
AcDbSpline
210
0.0
220
0.0
230
1.0
 70
     8
 71
     3
 72
     8
 73
     4
 74
     0
 42
0.0000000001
 43
0.0000000001
 12
1.0
 22
0.0
 32
0.0
 13
1.0
 23
0.0
 33
0.0
 40
0.0
 40
0.0
 40
0.0
 40
0.0
 40
1.0
 40
1.0
 40
1.0
 40
1.0
 10
-233.7588855194174
 20
-11.31425737069072
 30
0.0
 10
-233.7586486691028
 20
-10.12122080414806
 30
0.0
 10
-233.8382949703524
 20
-8.946830816919958
 30
0.0
 10
-233.9927859710191
 20
-7.79614739300037
 30
0.0
  0
ENDBLK
  5
174
330
171
100
AcDbEntity
  8
0
100
AcDbBlockEnd
  0
BLOCK
  5
178
330
176
100
AcDbEntity
  8
0
100
AcDbBlockBegin
  2
block 60
 70
     0
 10
0.0
 20
0.0
 30
0.0
  3
block 60
  1

  0
SPLINE
  5
17A
330
176
100
AcDbEntity
  8
0
  6
AI-Linetype-14
 62
   250
370
    25
100
AcDbSpline
210
0.0
220
0.0
230
1.0
 70
     8
 71
     3
 72
    11
 73
     7
 74
     0
 42
0.0000000001
 43
0.0000000001
 12
1.0
 22
0.0
 32
0.0
 13
1.0
 23
0.0
 33
0.0
 40
0.0
 40
0.0
 40
0.0
 40
0.0
 40
1.0
 40
1.0
 40
1.0
 40
2.0
 40
2.0
 40
2.0
 40
2.0
 10
-235.7748046744582
 20
-1.222582229441297
 30
0.0
 10
-239.7220228266831
 20
8.21209167092356
 30
0.0
 10
-249.0396926716302
 20
14.84181189089156
 30
0.0
 10
-259.9066865518345
 20
14.84398660741663
 30
0.0
 10
-271.9775690493593
 20
14.8463981742563
 30
0.0
 10
-282.1400624346767
 20
6.670734418975358
 30
0.0
 10
-285.1552100033674
 20
-4.446115011296004
 30
0.0
  0
ENDBLK
  5
179
330
176
100
AcDbEntity
  8
0
100
AcDbBlockEnd
  0
BLOCK
  5
17E
330
17C
100
AcDbEntity
  8
0
100
AcDbBlockBegin
  2
block 61
 70
     0
 10
0.0
 20
0.0
 30
0.0
  3
block 61
  1

  0
SPLINE
  5
180
330
17C
100
AcDbEntity
  8
0
 62
   250
370
    25
100
AcDbSpline
210
0.0
220
0.0
230
1.0
 70
     8
 71
     3
 72
     8
 73
     4
 74
     0
 42
0.0000000001
 43
0.0000000001
 12
1.0
 22
0.0
 32
0.0
 13
1.0
 23
0.0
 33
0.0
 40
0.0
 40
0.0
 40
0.0
 40
0.0
 40
1.0
 40
1.0
 40
1.0
 40
1.0
 10
-285.8296520401454
 20
-7.785790574697196
 30
0.0
 10
-285.9845952095945
 20
-8.936430934924502
 30
0.0
 10
-286.0646936796265
 20
-10.11077785845904
 30
0.0
 10
-286.0649305299412
 20
-11.30381442500042
 30
0.0
  0
ENDBLK
  5
17F
330
17C
100
AcDbEntity
  8
0
100
AcDbBlockEnd
  0
BLOCK
  5
183
330
181
100
AcDbEntity
  8
0
100
AcDbBlockBegin
  2
block 62
 70
     0
 10
0.0
 20
0.0
 30
0.0
  3
block 62
  1

  0
SPLINE
  5
185
330
181
100
AcDbEntity
  8
0
 62
   250
370
    25
100
AcDbSpline
210
0.0
220
0.0
230
1.0
 70
     8
 71
     3
 72
     8
 73
     4
 74
     0
 42
0.0000000001
 43
0.0000000001
 12
1.0
 22
0.0
 32
0.0
 13
1.0
 23
0.0
 33
0.0
 40
0.0
 40
0.0
 40
0.0
 40
0.0
 40
1.0
 40
1.0
 40
1.0
 40
1.0
 10
-286.0649305299412
 20
-11.30381442500042
 30
0.0
 10
-286.0651889121025
 20
-12.49682945969565
 30
0.0
 10
-285.9855210790062
 20
-13.67121944692376
 30
0.0
 10
-285.8310516101863
 20
-14.82190287084463
 30
0.0
  0
ENDBLK
  5
184
330
181
100
AcDbEntity
  8
0
100
AcDbBlockEnd
  0
BLOCK
  5
188
330
186
100
AcDbEntity
  8
0
100
AcDbBlockBegin
  2
block 63
 70
     0
 10
0.0
 20
0.0
 30
0.0
  3
block 63
  1

  0
SPLINE
  5
18A
330
186
100
AcDbEntity
  8
0
  6
AI-Linetype-15
 62
   250
370
    25
100
AcDbSpline
210
0.0
220
0.0
230
1.0
 70
     8
 71
     3
 72
    11
 73
     7
 74
     0
 42
0.0000000001
 43
0.0000000001
 12
1.0
 22
0.0
 32
0.0
 13
1.0
 23
0.0
 33
0.0
 40
0.0
 40
0.0
 40
0.0
 40
0.0
 40
1.0
 40
1.0
 40
1.0
 40
2.0
 40
2.0
 40
2.0
 40
2.0
 10
-284.0490329067472
 20
-21.3954895662492
 30
0.0
 10
-280.1018147545223
 20
-30.83014193476727
 30
0.0
 10
-270.7841449095752
 20
-37.45988368658206
 30
0.0
 10
-259.9171510293709
 20
-37.46205840310712
 30
0.0
 10
-247.8462685318461
 20
-37.4644699699468
 30
0.0
 10
-237.6837536146818
 20
-29.2888062146665
 30
0.0
 10
-234.668627577838
 20
-18.17193525254835
 30
0.0
  0
ENDBLK
  5
189
330
186
100
AcDbEntity
  8
0
100
AcDbBlockEnd
  0
BLOCK
  5
18E
330
18C
100
AcDbEntity
  8
0
100
AcDbBlockBegin
  2
block 64
 70
     0
 10
0.0
 20
0.0
 30
0.0
  3
block 64
  1

  0
SPLINE
  5
190
330
18C
100
AcDbEntity
  8
0
 62
   250
370
    25
100
AcDbSpline
210
0.0
220
0.0
230
1.0
 70
     8
 71
     3
 72
     8
 73
     4
 74
     0
 42
0.0000000001
 43
0.0000000001
 12
1.0
 22
0.0
 32
0.0
 13
1.0
 23
0.0
 33
0.0
 40
0.0
 40
0.0
 40
0.0
 40
0.0
 40
1.0
 40
1.0
 40
1.0
 40
1.0
 10
-233.99418554106
 20
-14.83225968914652
 30
0.0
 10
-233.8392423716109
 20
-13.68164086076664
 30
0.0
 10
-233.759122369732
 20
-12.5072939372321
 30
0.0
 10
-233.7588855194174
 20
-11.31425737069072
 30
0.0
  0
ENDBLK
  5
18F
330
18C
100
AcDbEntity
  8
0
100
AcDbBlockEnd
  0
BLOCK
  5
193
330
191
100
AcDbEntity
  8
0
100
AcDbBlockBegin
  2
block 65
 70
     0
 10
0.0
 20
0.0
 30
0.0
  3
block 65
  1

  0
SPLINE
  5
195
330
191
100
AcDbEntity
  8
0
 62
   250
370
    25
100
AcDbSpline
210
0.0
220
0.0
230
1.0
 70
     8
 71
     3
 72
     8
 73
     4
 74
     0
 42
0.0000000001
 43
0.0000000001
 12
1.0
 22
0.0
 32
0.0
 13
1.0
 23
0.0
 33
0.0
 40
0.0
 40
0.0
 40
0.0
 40
0.0
 40
1.0
 40
1.0
 40
1.0
 40
1.0
 10
444.0069793827551
 20
308.5536946153403
 30
0.0
 10
444.006721000595
 20
307.3606647775004
 30
0.0
 10
444.0863888336901
 20
306.1862774817531
 30
0.0
 10
444.2408583025106
 20
305.0355893477414
 30
0.0
  0
ENDBLK
  5
194
330
191
100
AcDbEntity
  8
0
100
AcDbBlockEnd
  0
BLOCK
  5
198
330
196
100
AcDbEntity
  8
0
100
AcDbBlockBegin
  2
block 66
 70
     0
 10
0.0
 20
0.0
 30
0.0
  3
block 66
  1

  0
SPLINE
  5
19A
330
196
100
AcDbEntity
  8
0
  6
AI-Linetype-16
 62
   250
370
    25
100
AcDbSpline
210
0.0
220
0.0
230
1.0
 70
     8
 71
     3
 72
    11
 73
     7
 74
     0
 42
0.0000000001
 43
0.0000000001
 12
1.0
 22
0.0
 32
0.0
 13
1.0
 23
0.0
 33
0.0
 40
0.0
 40
0.0
 40
0.0
 40
0.0
 40
1.0
 40
1.0
 40
1.0
 40
2.0
 40
2.0
 40
2.0
 40
2.0
 10
446.0228770059491
 20
298.4620087922769
 30
0.0
 10
449.970095158174
 20
289.0273509566883
 30
0.0
 10
459.2877434712769
 20
282.3976179521863
 30
0.0
 10
470.1547804151747
 20
282.3954459271421
 30
0.0
 10
482.2256629126969
 20
282.3930343603024
 30
0.0
 10
492.3881778298612
 20
290.5687122458572
 30
0.0
 10
495.4033253985518
 20
301.6855603303887
 30
0.0
  0
ENDBLK
  5
199
330
196
100
AcDbEntity
  8
0
100
AcDbBlockEnd
  0
BLOCK
  5
19E
330
19C
100
AcDbEntity
  8
0
100
AcDbBlockBegin
  2
block 67
 70
     0
 10
0.0
 20
0.0
 30
0.0
  3
block 67
  1

  0
SPLINE
  5
1A0
330
19C
100
AcDbEntity
  8
0
 62
   250
370
    25
100
AcDbSpline
210
0.0
220
0.0
230
1.0
 70
     8
 71
     3
 72
     8
 73
     4
 74
     0
 42
0.0000000001
 43
0.0000000001
 12
1.0
 22
0.0
 32
0.0
 13
1.0
 23
0.0
 33
0.0
 40
0.0
 40
0.0
 40
0.0
 40
0.0
 40
1.0
 40
1.0
 40
1.0
 40
1.0
 10
496.0777459034856
 20
305.0252318565687
 30
0.0
 10
496.2326890729328
 20
306.1758580865209
 30
0.0
 10
496.3128306066578
 20
307.3502137573682
 30
0.0
 10
496.3130459251282
 20
308.5432435952081
 30
0.0
  0
ENDBLK
  5
19F
330
19C
100
AcDbEntity
  8
0
100
AcDbBlockEnd
  0
BLOCK
  5
1A3
330
1A1
100
AcDbEntity
  8
0
100
AcDbBlockBegin
  2
block 68
 70
     0
 10
0.0
 20
0.0
 30
0.0
  3
block 68
  1

  0
SPLINE
  5
1A5
330
1A1
100
AcDbEntity
  8
0
 62
   250
370
    25
100
AcDbSpline
210
0.0
220
0.0
230
1.0
 70
     8
 71
     3
 72
   101
 73
    97
 74
     0
 42
0.0000000001
 43
0.0000000001
 12
1.0
 22
0.0
 32
0.0
 13
1.0
 23
0.0
 33
0.0
 40
0.0
 40
0.0
 40
0.0
 40
0.0
 40
1.0
 40
1.0
 40
1.0
 40
2.0
 40
2.0
 40
2.0
 40
3.0
 40
3.0
 40
3.0
 40
4.0
 40
4.0
 40
4.0
 40
5.0
 40
5.0
 40
5.0
 40
6.0
 40
6.0
 40
6.0
 40
7.0
 40
7.0
 40
7.0
 40
8.0
 40
8.0
 40
8.0
 40
9.0
 40
9.0
 40
9.0
 40
10.0
 40
10.0
 40
10.0
 40
11.0
 40
11.0
 40
11.0
 40
12.0
 40
12.0
 40
12.0
 40
13.0
 40
13.0
 40
13.0
 40
14.0
 40
14.0
 40
14.0
 40
15.0
 40
15.0
 40
15.0
 40
16.0
 40
16.0
 40
16.0
 40
17.0
 40
17.0
 40
17.0
 40
18.0
 40
18.0
 40
18.0
 40
19.0
 40
19.0
 40
19.0
 40
20.0
 40
20.0
 40
20.0
 40
21.0
 40
21.0
 40
21.0
 40
22.0
 40
22.0
 40
22.0
 40
23.0
 40
23.0
 40
23.0
 40
24.0
 40
24.0
 40
24.0
 40
25.0
 40
25.0
 40
25.0
 40
26.0
 40
26.0
 40
26.0
 40
27.0
 40
27.0
 40
27.0
 40
28.0
 40
28.0
 40
28.0
 40
29.0
 40
29.0
 40
29.0
 40
30.0
 40
30.0
 40
30.0
 40
31.0
 40
31.0
 40
31.0
 40
32.0
 40
32.0
 40
32.0
 40
32.0
 10
-476.9482622128058
 20
148.7357422853025
 30
0.0
 10
-476.9448581803082
 20
159.4676252193956
 30
0.0
 10
-476.2332578497387
 20
170.1993152115444
 30
0.0
 10
-474.8198728489673
 20
180.8377717304897
 30
0.0
 10
-473.4023894589352
 20
191.5069136689477
 30
0.0
 10
-471.27903370565
 20
202.0822504002777
 30
0.0
 10
-468.4688383009276
 20
212.4718244018096
 30
0.0
 10
-465.7292352277084
 20
222.6005249574907
 30
0.0
 10
-462.336796771843
 20
232.552633478187
 30
0.0
 10
-458.3205978411033
 20
242.2462592776041
 30
0.0
 10
-454.1004127582459
 20
252.4321852229187
 30
0.0
 10
-449.1914576029621
 20
262.3327036136894
 30
0.0
 10
-443.6394858337463
 20
271.8584056233002
 30
0.0
 10
-438.2442898706966
 20
281.1151600340951
 30
0.0
 10
-432.2418905588665
 20
290.017925858783
 30
0.0
 10
-425.6853647011426
 20
298.4919250124874
 30
0.0
 10
-419.1692761928637
 20
306.9136912437205
 30
0.0
 10
-412.1058618332199
 20
314.9119682071517
 30
0.0
 10
-404.5556082249268
 20
322.4204001048905
 30
0.0
 10
-393.2883689713905
 20
333.6251751459724
 30
0.0
 10
-380.9369194192565
 20
343.739171504597
 30
0.0
 10
-367.7332771577848
 20
352.5801434357449
 30
0.0
 10
-363.1610253493711
 20
355.641675717136
 30
0.0
 10
-358.4865221850374
 20
358.5505580581982
 30
0.0
 10
-353.7208547172116
 20
361.3013782689939
 30
0.0
 10
-349.8460668980387
 20
363.5379719158086
 30
0.0
 10
-345.9109657725335
 20
365.6701001283336
 30
0.0
 10
-341.9219171874374
 20
367.6958750152365
 30
0.0
 10
-338.3527219139262
 20
369.5084249112112
 30
0.0
 10
-334.740341149066
 20
371.235807249337
 30
0.0
 10
-331.0887442324003
 20
372.8758321491106
 30
0.0
 10
-329.2370961768545
 20
373.7074501071432
 30
0.0
 10
-327.3753668837151
 20
374.5166178516969
 30
0.0
 10
-325.5038111429724
 20
375.302384940245
 30
0.0
 10
-323.453405173351
 20
376.1632339829953
 30
0.0
 10
-321.3912356300483
 20
376.9960095265926
 30
0.0
 10
-319.3184258509029
 20
377.8013911384783
 30
0.0
 10
-315.4186441092448
 20
379.3166333655196
 30
0.0
 10
-311.4812780777788
 20
380.7348650609535
 30
0.0
 10
-307.5109317906084
 20
382.053936855385
 30
0.0
 10
-301.7727998097329
 20
383.9602674487999
 30
0.0
 10
-295.9657811814442
 20
385.6594695595498
 30
0.0
 10
-290.1052542439341
 20
387.1476833831389
 30
0.0
 10
-279.4897712688613
 20
389.8432984365983
 30
0.0
 10
-268.6987294424134
 20
391.8466259384855
 30
0.0
 10
-257.8233062637237
 20
393.1429298230324
 30
0.0
 10
-255.9818899467392
 20
393.3624293886617
 30
0.0
 10
-254.1380656138695
 20
393.5616234731379
 30
0.0
 10
-252.2922886669759
 20
393.7409039033046
 30
0.0
 10
-251.1657280837624
 20
393.8503327461293
 30
0.0
 10
-250.0384527634027
 20
393.9523117524644
 30
0.0
 10
-248.9107283467278
 20
394.0488540354813
 30
0.0
 10
-246.8811565817402
 20
394.2225623243902
 30
0.0
 10
-244.8500721928865
 20
394.3786184648247
 30
0.0
 10
-242.8184879273146
 20
394.5268384669213
 30
0.0
 10
-240.8349828730535
 20
394.6715740548281
 30
0.0
 10
-238.8509747433935
 20
394.808861550957
 30
0.0
 10
-236.866304019172
 20
394.936653437544
 30
0.0
 10
-235.2561110918267
 20
395.0402964669233
 30
0.0
 10
-233.6455107424426
 20
395.1377269705592
 30
0.0
 10
-232.0344828149889
 20
395.2271102556628
 30
0.0
 10
-229.9791549648071
 20
395.3411605165341
 30
0.0
 10
-227.9231230448186
 20
395.4421868899931
 30
0.0
 10
-225.8666211991476
 20
395.5317435978954
 30
0.0
 10
-224.5552047349738
 20
395.5888464012954
 30
0.0
 10
-223.2436149928786
 20
395.6412909008654
 30
0.0
 10
-221.9318172774874
 20
395.6890062518787
 30
0.0
 10
-219.6692377856335
 20
395.7713254087656
 30
0.0
 10
-217.4061743185676
 20
395.8395993910215
 30
0.0
 10
-215.1427350334959
 20
395.8935468553032
 30
0.0
 10
-214.4250119958878
 20
395.9106328296728
 30
0.0
 10
-213.7072653128036
 20
395.9263074347349
 30
0.0
 10
-212.9894946934347
 20
395.9406059474621
 30
0.0
 10
-212.8087642113246
 20
395.9441964196434
 30
0.0
 10
-212.6280695877392
 20
395.947716628688
 30
0.0
 10
-212.4473405595618
 20
395.951130716057
 30
0.0
 10
-210.9695745398298
 20
395.9791680078083
 30
0.0
 10
-209.4916786611887
 20
396.0015595315584
 30
0.0
 10
-208.0137672790982
 20
396.0215519310389
 30
0.0
 10
-206.7399342042133
 20
396.0388166215531
 30
0.0
 10
-205.4661156686715
 20
396.0543174639239
 30
0.0
 10
-204.1922638916943
 20
396.0695710767657
 30
0.0
 10
-203.0150161441973
 20
396.0837159081448
 30
0.0
 10
-201.8378054183697
 20
396.0976493685211
 30
0.0
 10
-200.6605518551405
 20
396.112499739156
 30
0.0
 10
-199.5751752082428
 20
396.126202362852
 30
0.0
 10
-198.4897924548237
 20
396.1406458027773
 30
0.0
 10
-197.4043747152148
 20
396.1550536749598
 30
0.0
 10
-194.4579781700364
 20
396.1942341899496
 30
0.0
 10
-191.5115492557518
 20
396.2330616445187
 30
0.0
 10
-188.5651200506841
 20
396.2719243760543
 30
0.0
 10
-171.4931328106398
 20
396.4971886051393
 30
0.0
 10
-154.4211738686857
 20
396.7232997721343
 30
0.0
 10
-137.3492379906357
 20
396.9508928623639
 30
0.0
 10
-106.5086535328968
 20
397.362043628448
 30
0.0
 10
-75.6681700544308
 20
397.7780637785754
 30
0.0
 10
-44.82769510053134
 20
398.1973297001047
 30
0.0
  0
ENDBLK
  5
1A4
330
1A1
100
AcDbEntity
  8
0
100
AcDbBlockEnd
  0
BLOCK
  5
1A8
330
1A6
100
AcDbEntity
  8
0
100
AcDbBlockBegin
  2
block 69
 70
     0
 10
0.0
 20
0.0
 30
0.0
  3
block 69
  1

  0
SPLINE
  5
1AA
330
1A6
100
AcDbEntity
  8
0
 62
   250
370
    25
100
AcDbSpline
210
0.0
220
0.0
230
1.0
 70
     8
 71
     3
 72
    86
 73
    82
 74
     0
 42
0.0000000001
 43
0.0000000001
 12
1.0
 22
0.0
 32
0.0
 13
1.0
 23
0.0
 33
0.0
 40
0.0
 40
0.0
 40
0.0
 40
0.0
 40
1.0
 40
1.0
 40
1.0
 40
2.0
 40
2.0
 40
2.0
 40
3.0
 40
3.0
 40
3.0
 40
4.0
 40
4.0
 40
4.0
 40
5.0
 40
5.0
 40
5.0
 40
6.0
 40
6.0
 40
6.0
 40
7.0
 40
7.0
 40
7.0
 40
8.0
 40
8.0
 40
8.0
 40
9.0
 40
9.0
 40
9.0
 40
10.0
 40
10.0
 40
10.0
 40
11.0
 40
11.0
 40
11.0
 40
12.0
 40
12.0
 40
12.0
 40
13.0
 40
13.0
 40
13.0
 40
14.0
 40
14.0
 40
14.0
 40
15.0
 40
15.0
 40
15.0
 40
16.0
 40
16.0
 40
16.0
 40
17.0
 40
17.0
 40
17.0
 40
18.0
 40
18.0
 40
18.0
 40
19.0
 40
19.0
 40
19.0
 40
20.0
 40
20.0
 40
20.0
 40
21.0
 40
21.0
 40
21.0
 40
22.0
 40
22.0
 40
22.0
 40
23.0
 40
23.0
 40
23.0
 40
24.0
 40
24.0
 40
24.0
 40
25.0
 40
25.0
 40
25.0
 40
26.0
 40
26.0
 40
26.0
 40
27.0
 40
27.0
 40
27.0
 40
27.0
 10
687.1965331594813
 20
148.5017117166914
 30
0.0
 10
687.1956783205237
 20
143.253525772721
 30
0.0
 10
687.0266118680486
 20
138.0053857760212
 30
0.0
 10
686.6885411495697
 20
132.7681290242094
 30
0.0
 10
686.3411732267391
 20
127.3873619105451
 30
0.0
 10
685.8153508825657
 20
122.0180498501188
 30
0.0
 10
685.1124773599677
 20
116.672070420634
 30
0.0
 10
683.7202415161873
 20
106.0827336879112
 30
0.0
 10
681.6332974963376
 20
95.58485225941256
 30
0.0
 10
678.8694605667401
 20
85.26820637509537
 30
0.0
 10
676.1208020071678
 20
75.00819986748368
 30
0.0
 10
672.7026782747154
 20
64.9274625919894
 30
0.0
 10
668.6445469978423
 20
55.1115158563932
 30
0.0
 10
666.565643149327
 20
50.08296273556009
 30
0.0
 10
664.3187824632296
 20
45.1238832439343
 30
0.0
 10
661.9099781239767
 20
40.24474106456726
 30
0.0
 10
659.5667236813675
 20
35.49837926389422
 30
0.0
 10
657.0702038104557
 20
30.82761443847967
 30
0.0
 10
654.4249483184668
 20
26.24271082261858
 30
0.0
 10
649.1171508105402
 20
17.04298806776355
 30
0.0
 10
643.2103722870504
 20
8.188966040328646
 30
0.0
 10
636.7569312874598
 20
-0.2466876841941807
 30
0.0
 10
630.4112303773882
 20
-8.541477035210436
 30
0.0
 10
623.5369920654159
 20
-16.43177115906367
 30
0.0
 10
616.1906511385477
 20
-23.85484991077188
 30
0.0
 10
608.3723631655329
 20
-31.75482554676517
 30
0.0
 10
600.0193689308708
 20
-39.12557784484677
 30
0.0
 10
591.2099174706537
 20
-45.90297890295491
 30
0.0
 10
582.8622372496154
 20
-52.32518355139014
 30
0.0
 10
574.104698467338
 20
-58.21460766065334
 30
0.0
 10
565.0093353839089
 20
-63.52492345706124
 30
0.0
 10
550.2981298406781
 20
-72.11406307555934
 30
0.0
 10
534.7031750860292
 20
-79.18825449394912
 30
0.0
 10
518.5549133200113
 20
-84.61291426461752
 30
0.0
 10
502.2770292038389
 20
-90.08109867439944
 30
0.0
 10
485.4369197236126
 20
-93.87318312282747
 30
0.0
 10
468.3887592767404
 20
-95.92865476752509
 30
0.0
 10
466.9000784391814
 20
-96.10812694439844
 30
0.0
 10
465.4098483386234
 20
-96.27439186980607
 30
0.0
 10
463.9182097921415
 20
-96.42748598384398
 30
0.0
 10
462.4398828740898
 20
-96.57920809207845
 30
0.0
 10
460.9602157377137
 20
-96.71804218624246
 30
0.0
 10
459.4798119634141
 20
-96.84780341260866
 30
0.0
 10
457.9592313084813
 20
-96.98107891254719
 30
0.0
 10
456.4378478234831
 20
-97.10475180861283
 30
0.0
 10
454.9159828730926
 20
-97.22263492084348
 30
0.0
 10
454.5423124671155
 20
-97.25155314774852
 30
0.0
 10
454.1686094012395
 20
-97.2801535912001
 30
0.0
 10
453.7948739662884
 20
-97.30840097421769
 30
0.0
 10
451.7801900751729
 20
-97.46071157811768
 30
0.0
 10
449.7647750710954
 20
-97.60327905190681
 30
0.0
 10
447.7486420394461
 20
-97.73451593221846
 30
0.0
 10
440.4097722421002
 20
-98.21224378895734
 30
0.0
 10
433.0610965993872
 20
-98.5399535330531
 30
0.0
 10
425.708806317996
 20
-98.71554415744988
 30
0.0
 10
423.1973033868832
 20
-98.7755258164062
 30
0.0
 10
420.6853822901875
 20
-98.81775850996925
 30
0.0
 10
418.1733537251217
 20
-98.85162910914381
 30
0.0
 10
416.5120756845827
 20
-98.87402603292226
 30
0.0
 10
414.8507573319583
 20
-98.89275357088322
 30
0.0
 10
413.1894238584134
 20
-98.91331551097501
 30
0.0
 10
411.5819326276378
 20
-98.93315705205573
 30
0.0
 10
409.9744271483131
 20
-98.95472716437257
 30
0.0
 10
408.3669595630395
 20
-98.97598007478724
 30
0.0
 10
407.1017034429722
 20
-98.99275099580946
 30
0.0
 10
405.8364843445657
 20
-99.00931054581848
 30
0.0
 10
404.5712637922347
 20
-99.02604648066983
 30
0.0
 10
402.4868026045827
 20
-99.05359856255377
 30
0.0
 10
400.4023737860207
 20
-99.0815037048563
 30
0.0
 10
398.3179108536463
 20
-99.10926744852716
 30
0.0
 10
392.8825988428266
 20
-99.18169765955983
 30
0.0
 10
387.447296137173
 20
-99.25299900773855
 30
0.0
 10
382.0120260914003
 20
-99.32461813938099
 30
0.0
 10
372.5913076135986
 20
-99.44876139884492
 30
0.0
 10
363.1705815753141
 20
-99.5738218593823
 30
0.0
 10
353.7498881969279
 20
-99.69920010335905
 30
0.0
 10
341.3819516261948
 20
-99.86375188505995
 30
0.0
 10
329.0140104028742
 20
-100.028868098174
 30
0.0
 10
316.6460633638088
 20
-100.1946898505734
 30
0.0
 10
296.1226024059887
 20
-100.469859160591
 30
0.0
 10
-24.40406926160631
 20
-100.6869837458558
 30
0.0
 10
-44.92751151732127
 20
-100.9641641336075
 30
0.0
  0
ENDBLK
  5
1A9
330
1A6
100
AcDbEntity
  8
0
100
AcDbBlockEnd
  0
BLOCK
  5
1AD
330
1AB
100
AcDbEntity
  8
0
100
AcDbBlockBegin
  2
block 70
 70
     0
 10
0.0
 20
0.0
 30
0.0
  3
block 70
  1

  0
SPLINE
  5
1AF
330
1AB
100
AcDbEntity
  8
0
 62
   250
370
    25
100
AcDbSpline
210
0.0
220
0.0
230
1.0
 70
     8
 71
     3
 72
    47
 73
    43
 74
     0
 42
0.0000000001
 43
0.0000000001
 12
1.0
 22
0.0
 32
0.0
 13
1.0
 23
0.0
 33
0.0
 40
0.0
 40
0.0
 40
0.0
 40
0.0
 40
1.0
 40
1.0
 40
1.0
 40
2.0
 40
2.0
 40
2.0
 40
3.0
 40
3.0
 40
3.0
 40
4.0
 40
4.0
 40
4.0
 40
5.0
 40
5.0
 40
5.0
 40
6.0
 40
6.0
 40
6.0
 40
7.0
 40
7.0
 40
7.0
 40
8.0
 40
8.0
 40
8.0
 40
9.0
 40
9.0
 40
9.0
 40
10.0
 40
10.0
 40
10.0
 40
11.0
 40
11.0
 40
11.0
 40
12.0
 40
12.0
 40
12.0
 40
13.0
 40
13.0
 40
13.0
 40
14.0
 40
14.0
 40
14.0
 40
14.0
 10
-260.8662610336735
 20
-225.800221701537
 30
0.0
 10
-278.8520673933035
 20
-225.7745610460899
 30
0.0
 10
-296.8377825220512
 20
-225.7207129333978
 30
0.0
 10
-314.823585300479
 20
-225.6988977577926
 30
0.0
 10
-334.1096311720785
 20
-225.6755020738623
 30
0.0
 10
-349.4913288094262
 20
-224.9652964362994
 30
0.0
 10
-368.6401435880854
 20
-222.4431011590243
 30
0.0
 10
-404.3614024660354
 20
-217.7380968222889
 30
0.0
 10
-439.2321074965623
 20
-207.9266777418927
 30
0.0
 10
-472.16324355253
 20
-193.3070055555405
 30
0.0
 10
-505.1107952211238
 20
-178.6800727737342
 30
0.0
 10
-535.7762272375032
 20
-159.3961301232014
 30
0.0
 10
-563.2235783761801
 20
-136.0244350604681
 30
0.0
 10
-590.6911794406686
 20
-112.6355684267446
 30
0.0
 10
-614.6218627752671
 20
-85.42649025640311
 30
0.0
 10
-634.3037051194814
 20
-55.19071589948029
 30
0.0
 10
-653.9505352387745
 20
-25.00874893619658
 30
0.0
 10
-669.130203050438
 20
7.829092493415697
 30
0.0
 10
-679.3845266059459
 20
42.3523418694224
 30
0.0
 10
-689.6325351261713
 20
76.85419517803946
 30
0.0
 10
-694.8606033063583
 20
112.7476110378643
 30
0.0
 10
-694.8524182599214
 20
148.7418843553654
 30
0.0
 10
-694.8442281394008
 20
184.8223719174424
 30
0.0
 10
-689.640026739975
 20
220.6327945596833
 30
0.0
 10
-679.3580317151228
 20
255.2191497292719
 30
0.0
 10
-669.0836929856404
 20
289.7797435173752
 30
0.0
 10
-653.8632419386352
 20
322.6688840433235
 30
0.0
 10
-634.1740729749001
 20
352.8729438508483
 30
0.0
 10
-614.4947657823509
 20
383.0618795441662
 30
0.0
 10
-590.5484104339308
 20
410.2602900408509
 30
0.0
 10
-563.1006561944492
 20
433.6101775036789
 30
0.0
 10
-535.642705060398
 20
456.968765474654
 30
0.0
 10
-504.9833429788473
 20
476.2339596044296
 30
0.0
 10
-472.0297232836918
 20
490.8475329790269
 30
0.0
 10
-439.0774846242898
 20
505.4604827089698
 30
0.0
 10
-404.2021983561053
 20
515.2548250370868
 30
0.0
 10
-368.4628618438809
 20
519.9460471983674
 30
0.0
 10
-349.196277530082
 20
522.4750267330252
 30
0.0
 10
-334.0381532502164
 20
523.1462634072678
 30
0.0
 10
-314.6364005280276
 20
523.1688002259076
 30
0.0
 10
-296.6478114961553
 20
523.1896853892293
 30
0.0
 10
-278.6592755399087
 20
523.2383711263458
 30
0.0
 10
-260.6706733308872
 20
523.2565749496239
 30
0.0
  0
ENDBLK
  5
1AE
330
1AB
100
AcDbEntity
  8
0
100
AcDbBlockEnd
  0
BLOCK
  5
1B2
330
1B0
100
AcDbEntity
  8
0
100
AcDbBlockBegin
  2
block 71
 70
     0
 10
0.0
 20
0.0
 30
0.0
  3
block 71
  1

  0
SPLINE
  5
1B4
330
1B0
100
AcDbEntity
  8
0
 62
   250
370
    25
100
AcDbSpline
210
0.0
220
0.0
230
1.0
 70
     8
 71
     3
 72
     8
 73
     4
 74
     0
 42
0.0000000001
 43
0.0000000001
 12
1.0
 22
0.0
 32
0.0
 13
1.0
 23
0.0
 33
0.0
 40
0.0
 40
0.0
 40
0.0
 40
0.0
 40
1.0
 40
1.0
 40
1.0
 40
1.0
 10
-669.0250992870674
 20
285.229528325872
 30
0.0
 10
-668.4126201988958
 20
286.7909891372126
 30
0.0
 10
-667.7896987469036
 20
288.3481303491812
 30
0.0
 10
-667.1561920784952
 20
289.9011624604182
 30
0.0
  0
ENDBLK
  5
1B3
330
1B0
100
AcDbEntity
  8
0
100
AcDbBlockEnd
  0
BLOCK
  5
1B7
330
1B5
100
AcDbEntity
  8
0
100
AcDbBlockBegin
  2
block 72
 70
     0
 10
0.0
 20
0.0
 30
0.0
  3
block 72
  1

  0
SPLINE
  5
1B9
330
1B5
100
AcDbEntity
  8
0
 62
   250
370
    25
100
AcDbSpline
210
0.0
220
0.0
230
1.0
 70
    11
 71
     3
 72
    17
 73
    13
 74
     0
 42
0.0000000001
 43
0.0000000001
 12
1.0
 22
0.0
 32
0.0
 13
1.0
 23
0.0
 33
0.0
 40
0.0
 40
0.0
 40
0.0
 40
0.0
 40
1.0
 40
1.0
 40
1.0
 40
2.0
 40
2.0
 40
2.0
 40
3.0
 40
3.0
 40
3.0
 40
4.0
 40
4.0
 40
4.0
 40
4.0
 10
77.86398844975707
 20
149.2187040665055
 30
0.0
 10
78.25320494811876
 20
164.3319659944071
 30
0.0
 10
90.81888984210103
 20
176.2691096823563
 30
0.0
 10
105.9340771683662
 20
175.8783700155988
 30
0.0
 10
121.047570383252
 20
175.4910895645288
 30
0.0
 10
132.9829755892366
 20
162.9234810470211
 30
0.0
 10
132.5954922483453
 20
147.8114968019459
 30
0.0
 10
132.2062757499961
 20
132.6982348740315
 30
0.0
 10
119.6405908560276
 20
120.7610911860958
 30
0.0
 10
104.5253751325672
 20
121.1483858357439
 30
0.0
 10
89.41363637307394
 20
121.5395277324685
 30
0.0
 10
77.47647671172223
 20
134.1032748043209
 30
0.0
 10
77.86398844975707
 20
149.2187040665055
 30
0.0
  0
ENDBLK
  5
1B8
330
1B5
100
AcDbEntity
  8
0
100
AcDbBlockEnd
  0
BLOCK
  5
1BC
330
1BA
100
AcDbEntity
  8
0
100
AcDbBlockBegin
  2
block 73
 70
     0
 10
0.0
 20
0.0
 30
0.0
  3
block 73
  1

  0
INSERT
  5
1BF
330
1BA
100
AcDbEntity
  8
0
100
AcDbBlockReference
  2
block 74
 10
0.0
 20
0.0
 30
0.0
  0
ENDBLK
  5
1BD
330
1BA
100
AcDbEntity
  8
0
100
AcDbBlockEnd
  0
BLOCK
  5
1C0
330
1BE
100
AcDbEntity
  8
0
100
AcDbBlockBegin
  2
block 74
 70
     0
 10
0.0
 20
0.0
 30
0.0
  3
block 74
  1

  0
INSERT
  5
1C3
330
1BE
100
AcDbEntity
  8
0
100
AcDbBlockReference
  2
block 75
 10
0.0
 20
0.0
 30
0.0
  0
ENDBLK
  5
1C1
330
1BE
100
AcDbEntity
  8
0
100
AcDbBlockEnd
  0
BLOCK
  5
1C4
330
1C2
100
AcDbEntity
  8
0
100
AcDbBlockBegin
  2
block 75
 70
     0
 10
0.0
 20
0.0
 30
0.0
  3
block 75
  1

  0
POLYLINE
  5
1C6
330
1C2
100
AcDbEntity
  8
0
 62
     4
370
    25
100
AcDb2dPolyline
 66
     1
 10
0.0
 20
0.0
 30
0.0
  0
VERTEX
  5
1C7
330
1C6
100
AcDbEntity
  8
0
 62
     4
370
    25
100
AcDbVertex
100
AcDb2dVertex
 10
171.321810107316
 20
148.5690322504554
 30
0.0
  0
VERTEX
  5
1C8
330
1C6
100
AcDbEntity
  8
0
 62
     4
370
    25
100
AcDbVertex
100
AcDb2dVertex
 10
160.071721609152
 20
148.5690322504554
 30
0.0
  0
SEQEND
  5
1C9
330
1C6
100
AcDbEntity
  8
0
 62
     4
370
    25
  0
POLYLINE
  5
1CA
330
1C2
100
AcDbEntity
  8
0
  6
AI-Linetype-17
 62
     4
370
    25
100
AcDb2dPolyline
 66
     1
 10
0.0
 20
0.0
 30
0.0
  0
VERTEX
  5
1CB
330
1CA
100
AcDbEntity
  8
0
  6
AI-Linetype-17
 62
     4
370
    25
100
AcDbVertex
100
AcDb2dVertex
 10
156.5123243152556
 20
148.5690322504554
 30
0.0
  0
VERTEX
  5
1CC
330
1CA
100
AcDbEntity
  8
0
  6
AI-Linetype-17
 62
     4
370
    25
100
AcDbVertex
100
AcDb2dVertex
 10
151.1732229914493
 20
148.5690322504554
 30
0.0
  0
SEQEND
  5
1CE
330
1CA
100
AcDbEntity
  8
0
  6
AI-Linetype-17
 62
     4
370
    25
  0
POLYLINE
  5
1CF
330
1C2
100
AcDbEntity
  8
0
  6
AI-Linetype-18
 62
     4
370
    25
100
AcDb2dPolyline
 66
     1
 10
0.0
 20
0.0
 30
0.0
  0
VERTEX
  5
1D0
330
1CF
100
AcDbEntity
  8
0
  6
AI-Linetype-18
 62
     4
370
    25
100
AcDbVertex
100
AcDb2dVertex
 10
149.3935297274628
 20
148.5690322504554
 30
0.0
  0
VERTEX
  5
1D1
330
1CF
100
AcDbEntity
  8
0
  6
AI-Linetype-18
 62
     4
370
    25
100
AcDbVertex
100
AcDb2dVertex
 10
55.06897390896225
 20
148.5690322504554
 30
0.0
  0
SEQEND
  5
1D3
330
1CF
100
AcDbEntity
  8
0
  6
AI-Linetype-18
 62
     4
370
    25
  0
POLYLINE
  5
1D4
330
1C2
100
AcDbEntity
  8
0
 62
     4
370
    25
100
AcDb2dPolyline
 66
     1
 10
0.0
 20
0.0
 30
0.0
  0
VERTEX
  5
1D5
330
1D4
100
AcDbEntity
  8
0
 62
     4
370
    25
100
AcDbVertex
100
AcDb2dVertex
 10
53.28926987905236
 20
148.5690322504554
 30
0.0
  0
VERTEX
  5
1D6
330
1D4
100
AcDbEntity
  8
0
 62
     4
370
    25
100
AcDbVertex
100
AcDb2dVertex
 10
42.03918945533086
 20
148.5690322504554
 30
0.0
  0
SEQEND
  5
1D7
330
1D4
100
AcDbEntity
  8
0
 62
     4
370
    25
  0
ENDBLK
  5
1C5
330
1C2
100
AcDbEntity
  8
0
100
AcDbBlockEnd
  0
BLOCK
  5
1DA
330
1D8
100
AcDbEntity
  8
0
100
AcDbBlockBegin
  2
block 76
 70
     0
 10
0.0
 20
0.0
 30
0.0
  3
block 76
  1

  0
INSERT
  5
1DD
330
1D8
100
AcDbEntity
  8
0
100
AcDbBlockReference
  2
block 77
 10
0.0
 20
0.0
 30
0.0
  0
ENDBLK
  5
1DB
330
1D8
100
AcDbEntity
  8
0
100
AcDbBlockEnd
  0
BLOCK
  5
1DE
330
1DC
100
AcDbEntity
  8
0
100
AcDbBlockBegin
  2
block 77
 70
     0
 10
0.0
 20
0.0
 30
0.0
  3
block 77
  1

  0
INSERT
  5
1E1
330
1DC
100
AcDbEntity
  8
0
100
AcDbBlockReference
  2
block 78
 10
0.0
 20
0.0
 30
0.0
  0
ENDBLK
  5
1DF
330
1DC
100
AcDbEntity
  8
0
100
AcDbBlockEnd
  0
BLOCK
  5
1E2
330
1E0
100
AcDbEntity
  8
0
100
AcDbBlockBegin
  2
block 78
 70
     0
 10
0.0
 20
0.0
 30
0.0
  3
block 78
  1

  0
POLYLINE
  5
1E4
330
1E0
100
AcDbEntity
  8
0
 62
     4
370
    25
100
AcDb2dPolyline
 66
     1
 10
0.0
 20
0.0
 30
0.0
  0
VERTEX
  5
1E5
330
1E4
100
AcDbEntity
  8
0
 62
     4
370
    25
100
AcDbVertex
100
AcDb2dVertex
 10
105.7627949768145
 20
213.2736744665384
 30
0.0
  0
VERTEX
  5
1E6
330
1E4
100
AcDbEntity
  8
0
 62
     4
370
    25
100
AcDbVertex
100
AcDb2dVertex
 10
105.7627949768145
 20
202.0235859683743
 30
0.0
  0
SEQEND
  5
1E7
330
1E4
100
AcDbEntity
  8
0
 62
     4
370
    25
  0
POLYLINE
  5
1E8
330
1E0
100
AcDbEntity
  8
0
  6
AI-Linetype-19
 62
     4
370
    25
100
AcDb2dPolyline
 66
     1
 10
0.0
 20
0.0
 30
0.0
  0
VERTEX
  5
1E9
330
1E8
100
AcDbEntity
  8
0
  6
AI-Linetype-19
 62
     4
370
    25
100
AcDbVertex
100
AcDb2dVertex
 10
105.7627949768145
 20
198.4496008482826
 30
0.0
  0
VERTEX
  5
1EA
330
1E8
100
AcDbEntity
  8
0
  6
AI-Linetype-19
 62
     4
370
    25
100
AcDbVertex
100
AcDb2dVertex
 10
105.7627949768145
 20
193.0886231681449
 30
0.0
  0
SEQEND
  5
1EC
330
1E8
100
AcDbEntity
  8
0
  6
AI-Linetype-19
 62
     4
370
    25
  0
POLYLINE
  5
1ED
330
1E0
100
AcDbEntity
  8
0
  6
AI-Linetype-20
 62
     4
370
    25
100
AcDb2dPolyline
 66
     1
 10
0.0
 20
0.0
 30
0.0
  0
VERTEX
  5
1EE
330
1ED
100
AcDbEntity
  8
0
  6
AI-Linetype-20
 62
     4
370
    25
100
AcDbVertex
100
AcDb2dVertex
 10
105.7627949768145
 20
191.3016090762523
 30
0.0
  0
VERTEX
  5
1EF
330
1ED
100
AcDbEntity
  8
0
  6
AI-Linetype-20
 62
     4
370
    25
100
AcDbVertex
100
AcDb2dVertex
 10
105.7627949768145
 20
96.59035743841751
 30
0.0
  0
SEQEND
  5
1F1
330
1ED
100
AcDbEntity
  8
0
  6
AI-Linetype-20
 62
     4
370
    25
  0
POLYLINE
  5
1F2
330
1E0
100
AcDbEntity
  8
0
 62
     4
370
    25
100
AcDb2dPolyline
 66
     1
 10
0.0
 20
0.0
 30
0.0
  0
VERTEX
  5
1F3
330
1F2
100
AcDbEntity
  8
0
 62
     4
370
    25
100
AcDbVertex
100
AcDb2dVertex
 10
105.7627949768145
 20
94.80336487837164
 30
0.0
  0
VERTEX
  5
1F4
330
1F2
100
AcDbEntity
  8
0
 62
     4
370
    25
100
AcDbVertex
100
AcDb2dVertex
 10
105.7627949768145
 20
83.5532817631693
 30
0.0
  0
SEQEND
  5
1F5
330
1F2
100
AcDbEntity
  8
0
 62
     4
370
    25
  0
ENDBLK
  5
1E3
330
1E0
100
AcDbEntity
  8
0
100
AcDbBlockEnd
  0
BLOCK
  5
1F8
330
1F6
100
AcDbEntity
  8
0
100
AcDbBlockBegin
  2
block 79
 70
     0
 10
0.0
 20
0.0
 30
0.0
  3
block 79
  1

  0
SPLINE
  5
1FA
330
1F6
100
AcDbEntity
  8
0
 62
   250
370
    25
100
AcDbSpline
210
0.0
220
0.0
230
1.0
 70
    11
 71
     3
 72
    17
 73
    13
 74
     0
 42
0.0000000001
 43
0.0000000001
 12
1.0
 22
0.0
 32
0.0
 13
1.0
 23
0.0
 33
0.0
 40
0.0
 40
0.0
 40
0.0
 40
0.0
 40
1.0
 40
1.0
 40
1.0
 40
2.0
 40
2.0
 40
2.0
 40
3.0
 40
3.0
 40
3.0
 40
4.0
 40
4.0
 40
4.0
 40
4.0
 10
152.4756885422176
 20
148.5192735200308
 30
0.0
 10
152.6907686884391
 20
174.6118330905783
 30
0.0
 10
131.7155106853081
 20
195.9372817832859
 30
0.0
 10
105.6216592333428
 20
196.1523725784359
 30
0.0
 10
79.5310374849316
 20
196.367436751267
 30
0.0
 10
58.20536105490238
 20
175.3906733279815
 30
0.0
 10
57.99028090866809
 20
149.2981137574401
 30
0.0
 10
57.77521496101872
 20
123.2072766954544
 30
0.0
 10
78.75219547269765
 20
101.8818138041493
 30
0.0
 10
104.8428172211214
 20
101.6667496313442
 30
0.0
 10
130.9366686730738
 20
101.451658836174
 30
0.0
 10
152.2606225945551
 20
122.4284364580383
 30
0.0
 10
152.4756885422176
 20
148.5192735200308
 30
0.0
  0
ENDBLK
  5
1F9
330
1F6
100
AcDbEntity
  8
0
100
AcDbBlockEnd
  0
ENDSEC
  0
SECTION
  2
ENTITIES
  0
INSERT
  5
41
330
1F
100
AcDbEntity
  8
0
100
AcDbBlockReference
  2
block 2
 10
0.0
 20
0.0
 30
0.0
  0
INSERT
  5
46
330
1F
100
AcDbEntity
  8
0
100
AcDbBlockReference
  2
block 3
 10
0.0
 20
0.0
 30
0.0
  0
INSERT
  5
4B
330
1F
100
AcDbEntity
  8
0
100
AcDbBlockReference
  2
block 4
 10
0.0
 20
0.0
 30
0.0
  0
INSERT
  5
50
330
1F
100
AcDbEntity
  8
0
100
AcDbBlockReference
  2
block 5
 10
0.0
 20
0.0
 30
0.0
  0
INSERT
  5
55
330
1F
100
AcDbEntity
  8
0
100
AcDbBlockReference
  2
block 6
 10
0.0
 20
0.0
 30
0.0
  0
INSERT
  5
5A
330
1F
100
AcDbEntity
  8
0
100
AcDbBlockReference
  2
block 7
 10
0.0
 20
0.0
 30
0.0
  0
INSERT
  5
5F
330
1F
100
AcDbEntity
  8
0
100
AcDbBlockReference
  2
block 8
 10
0.0
 20
0.0
 30
0.0
  0
INSERT
  5
64
330
1F
100
AcDbEntity
  8
0
100
AcDbBlockReference
  2
block 9
 10
0.0
 20
0.0
 30
0.0
  0
INSERT
  5
6A
330
1F
100
AcDbEntity
  8
0
100
AcDbBlockReference
  2
block 10
 10
0.0
 20
0.0
 30
0.0
  0
INSERT
  5
71
330
1F
100
AcDbEntity
  8
0
100
AcDbBlockReference
  2
block 11
 10
0.0
 20
0.0
 30
0.0
  0
INSERT
  5
76
330
1F
100
AcDbEntity
  8
0
100
AcDbBlockReference
  2
block 12
 10
0.0
 20
0.0
 30
0.0
  0
INSERT
  5
7C
330
1F
100
AcDbEntity
  8
0
100
AcDbBlockReference
  2
block 13
 10
0.0
 20
0.0
 30
0.0
  0
INSERT
  5
81
330
1F
100
AcDbEntity
  8
0
100
AcDbBlockReference
  2
block 14
 10
0.0
 20
0.0
 30
0.0
  0
INSERT
  5
86
330
1F
100
AcDbEntity
  8
0
100
AcDbBlockReference
  2
block 15
 10
0.0
 20
0.0
 30
0.0
  0
INSERT
  5
8C
330
1F
100
AcDbEntity
  8
0
100
AcDbBlockReference
  2
block 16
 10
0.0
 20
0.0
 30
0.0
  0
INSERT
  5
91
330
1F
100
AcDbEntity
  8
0
100
AcDbBlockReference
  2
block 17
 10
0.0
 20
0.0
 30
0.0
  0
INSERT
  5
96
330
1F
100
AcDbEntity
  8
0
100
AcDbBlockReference
  2
block 18
 10
0.0
 20
0.0
 30
0.0
  0
INSERT
  5
9C
330
1F
100
AcDbEntity
  8
0
100
AcDbBlockReference
  2
block 19
 10
0.0
 20
0.0
 30
0.0
  0
INSERT
  5
A1
330
1F
100
AcDbEntity
  8
0
100
AcDbBlockReference
  2
block 20
 10
0.0
 20
0.0
 30
0.0
  0
INSERT
  5
A6
330
1F
100
AcDbEntity
  8
0
100
AcDbBlockReference
  2
block 21
 10
0.0
 20
0.0
 30
0.0
  0
INSERT
  5
AB
330
1F
100
AcDbEntity
  8
0
100
AcDbBlockReference
  2
block 22
 10
0.0
 20
0.0
 30
0.0
  0
INSERT
  5
B1
330
1F
100
AcDbEntity
  8
0
100
AcDbBlockReference
  2
block 23
 10
0.0
 20
0.0
 30
0.0
  0
INSERT
  5
B6
330
1F
100
AcDbEntity
  8
0
100
AcDbBlockReference
  2
block 24
 10
0.0
 20
0.0
 30
0.0
  0
INSERT
  5
BB
330
1F
100
AcDbEntity
  8
0
100
AcDbBlockReference
  2
block 25
 10
0.0
 20
0.0
 30
0.0
  0
INSERT
  5
C1
330
1F
100
AcDbEntity
  8
0
100
AcDbBlockReference
  2
block 26
 10
0.0
 20
0.0
 30
0.0
  0
INSERT
  5
C6
330
1F
100
AcDbEntity
  8
0
100
AcDbBlockReference
  2
block 27
 10
0.0
 20
0.0
 30
0.0
  0
INSERT
  5
CB
330
1F
100
AcDbEntity
  8
0
100
AcDbBlockReference
  2
block 28
 10
0.0
 20
0.0
 30
0.0
  0
INSERT
  5
D1
330
1F
100
AcDbEntity
  8
0
100
AcDbBlockReference
  2
block 29
 10
0.0
 20
0.0
 30
0.0
  0
INSERT
  5
D6
330
1F
100
AcDbEntity
  8
0
100
AcDbBlockReference
  2
block 30
 10
0.0
 20
0.0
 30
0.0
  0
INSERT
  5
DB
330
1F
100
AcDbEntity
  8
0
100
AcDbBlockReference
  2
block 31
 10
0.0
 20
0.0
 30
0.0
  0
INSERT
  5
E1
330
1F
100
AcDbEntity
  8
0
100
AcDbBlockReference
  2
block 32
 10
0.0
 20
0.0
 30
0.0
  0
INSERT
  5
E6
330
1F
100
AcDbEntity
  8
0
100
AcDbBlockReference
  2
block 33
 10
0.0
 20
0.0
 30
0.0
  0
INSERT
  5
EB
330
1F
100
AcDbEntity
  8
0
100
AcDbBlockReference
  2
block 34
 10
0.0
 20
0.0
 30
0.0
  0
INSERT
  5
F1
330
1F
100
AcDbEntity
  8
0
100
AcDbBlockReference
  2
block 35
 10
0.0
 20
0.0
 30
0.0
  0
INSERT
  5
F6
330
1F
100
AcDbEntity
  8
0
100
AcDbBlockReference
  2
block 36
 10
0.0
 20
0.0
 30
0.0
  0
INSERT
  5
FB
330
1F
100
AcDbEntity
  8
0
100
AcDbBlockReference
  2
block 37
 10
0.0
 20
0.0
 30
0.0
  0
INSERT
  5
101
330
1F
100
AcDbEntity
  8
0
100
AcDbBlockReference
  2
block 38
 10
0.0
 20
0.0
 30
0.0
  0
INSERT
  5
106
330
1F
100
AcDbEntity
  8
0
100
AcDbBlockReference
  2
block 39
 10
0.0
 20
0.0
 30
0.0
  0
INSERT
  5
10B
330
1F
100
AcDbEntity
  8
0
100
AcDbBlockReference
  2
block 40
 10
0.0
 20
0.0
 30
0.0
  0
INSERT
  5
110
330
1F
100
AcDbEntity
  8
0
100
AcDbBlockReference
  2
block 41
 10
0.0
 20
0.0
 30
0.0
  0
INSERT
  5
118
330
1F
100
AcDbEntity
  8
0
100
AcDbBlockReference
  2
block 42
 10
0.0
 20
0.0
 30
0.0
  0
INSERT
  5
11D
330
1F
100
AcDbEntity
  8
0
100
AcDbBlockReference
  2
block 43
 10
0.0
 20
0.0
 30
0.0
  0
INSERT
  5
122
330
1F
100
AcDbEntity
  8
0
100
AcDbBlockReference
  2
block 44
 10
0.0
 20
0.0
 30
0.0
  0
INSERT
  5
127
330
1F
100
AcDbEntity
  8
0
100
AcDbBlockReference
  2
block 45
 10
0.0
 20
0.0
 30
0.0
  0
INSERT
  5
12D
330
1F
100
AcDbEntity
  8
0
100
AcDbBlockReference
  2
block 46
 10
0.0
 20
0.0
 30
0.0
  0
INSERT
  5
132
330
1F
100
AcDbEntity
  8
0
100
AcDbBlockReference
  2
block 47
 10
0.0
 20
0.0
 30
0.0
  0
INSERT
  5
137
330
1F
100
AcDbEntity
  8
0
100
AcDbBlockReference
  2
block 48
 10
0.0
 20
0.0
 30
0.0
  0
INSERT
  5
13D
330
1F
100
AcDbEntity
  8
0
100
AcDbBlockReference
  2
block 49
 10
0.0
 20
0.0
 30
0.0
  0
INSERT
  5
142
330
1F
100
AcDbEntity
  8
0
100
AcDbBlockReference
  2
block 50
 10
0.0
 20
0.0
 30
0.0
  0
INSERT
  5
147
330
1F
100
AcDbEntity
  8
0
100
AcDbBlockReference
  2
block 51
 10
0.0
 20
0.0
 30
0.0
  0
INSERT
  5
14D
330
1F
100
AcDbEntity
  8
0
100
AcDbBlockReference
  2
block 52
 10
0.0
 20
0.0
 30
0.0
  0
INSERT
  5
152
330
1F
100
AcDbEntity
  8
0
100
AcDbBlockReference
  2
block 53
 10
0.0
 20
0.0
 30
0.0
  0
INSERT
  5
157
330
1F
100
AcDbEntity
  8
0
100
AcDbBlockReference
  2
block 54
 10
0.0
 20
0.0
 30
0.0
  0
INSERT
  5
15D
330
1F
100
AcDbEntity
  8
0
100
AcDbBlockReference
  2
block 55
 10
0.0
 20
0.0
 30
0.0
  0
INSERT
  5
162
330
1F
100
AcDbEntity
  8
0
100
AcDbBlockReference
  2
block 56
 10
0.0
 20
0.0
 30
0.0
  0
INSERT
  5
167
330
1F
100
AcDbEntity
  8
0
100
AcDbBlockReference
  2
block 57
 10
0.0
 20
0.0
 30
0.0
  0
INSERT
  5
16D
330
1F
100
AcDbEntity
  8
0
100
AcDbBlockReference
  2
block 58
 10
0.0
 20
0.0
 30
0.0
  0
INSERT
  5
172
330
1F
100
AcDbEntity
  8
0
100
AcDbBlockReference
  2
block 59
 10
0.0
 20
0.0
 30
0.0
  0
INSERT
  5
177
330
1F
100
AcDbEntity
  8
0
100
AcDbBlockReference
  2
block 60
 10
0.0
 20
0.0
 30
0.0
  0
INSERT
  5
17D
330
1F
100
AcDbEntity
  8
0
100
AcDbBlockReference
  2
block 61
 10
0.0
 20
0.0
 30
0.0
  0
INSERT
  5
182
330
1F
100
AcDbEntity
  8
0
100
AcDbBlockReference
  2
block 62
 10
0.0
 20
0.0
 30
0.0
  0
INSERT
  5
187
330
1F
100
AcDbEntity
  8
0
100
AcDbBlockReference
  2
block 63
 10
0.0
 20
0.0
 30
0.0
  0
INSERT
  5
18D
330
1F
100
AcDbEntity
  8
0
100
AcDbBlockReference
  2
block 64
 10
0.0
 20
0.0
 30
0.0
  0
INSERT
  5
192
330
1F
100
AcDbEntity
  8
0
100
AcDbBlockReference
  2
block 65
 10
0.0
 20
0.0
 30
0.0
  0
INSERT
  5
197
330
1F
100
AcDbEntity
  8
0
100
AcDbBlockReference
  2
block 66
 10
0.0
 20
0.0
 30
0.0
  0
INSERT
  5
19D
330
1F
100
AcDbEntity
  8
0
100
AcDbBlockReference
  2
block 67
 10
0.0
 20
0.0
 30
0.0
  0
INSERT
  5
1A2
330
1F
100
AcDbEntity
  8
0
100
AcDbBlockReference
  2
block 68
 10
0.0
 20
0.0
 30
0.0
  0
INSERT
  5
1A7
330
1F
100
AcDbEntity
  8
0
100
AcDbBlockReference
  2
block 69
 10
0.0
 20
0.0
 30
0.0
  0
INSERT
  5
1AC
330
1F
100
AcDbEntity
  8
0
100
AcDbBlockReference
  2
block 70
 10
0.0
 20
0.0
 30
0.0
  0
INSERT
  5
1B1
330
1F
100
AcDbEntity
  8
0
100
AcDbBlockReference
  2
block 71
 10
0.0
 20
0.0
 30
0.0
  0
INSERT
  5
1B6
330
1F
100
AcDbEntity
  8
0
100
AcDbBlockReference
  2
block 72
 10
0.0
 20
0.0
 30
0.0
  0
INSERT
  5
1BB
330
1F
100
AcDbEntity
  8
0
100
AcDbBlockReference
  2
block 73
 10
0.0
 20
0.0
 30
0.0
  0
INSERT
  5
1D9
330
1F
100
AcDbEntity
  8
0
100
AcDbBlockReference
  2
block 76
 10
0.0
 20
0.0
 30
0.0
  0
INSERT
  5
1F7
330
1F
100
AcDbEntity
  8
0
100
AcDbBlockReference
  2
block 79
 10
0.0
 20
0.0
 30
0.0
  0
ENDSEC
  0
SECTION
  2
OBJECTS
  0
DICTIONARY
  5
C
330
0
100
AcDbDictionary
281
     1
  3
ACAD_GROUP
350
D
  3
ACAD_LAYOUT
350
1A
  3
ACAD_MATERIAL
350
3B
  3
ACAD_MLEADERSTYLE
350
21D
  3
ACAD_MLINESTYLE
350
17
  3
ACAD_PLOTSETTINGS
350
19
  3
ACAD_PLOTSTYLENAME
350
E
  3
ACAD_TABLESTYLE
350
21C
  3
ACAD_VISUALSTYLE
350
2A
  0
SUN
  5
3F
330
29
100
AcDbSun
 90
        1
290
     0
 63
     7
421
 16777215
 40
1.0
291
     1
 91
  2455826
 92
 54000000
292
     0
 70
     2
 71
   256
280
     1
  0
DICTIONARY
  5
D
102
{ACAD_REACTORS
330
C
102
}
330
C
100
AcDbDictionary
281
     1
  0
DICTIONARY
  5
1A
102
{ACAD_REACTORS
330
C
102
}
330
C
100
AcDbDictionary
281
     1
  3
Layout1
350
1E
  3
Layout2
350
26
  3
Model
350
22
  0
DICTIONARY
  5
3B
102
{ACAD_REACTORS
330
C
102
}
330
C
100
AcDbDictionary
281
     1
  3
ByBlock
350
3D
  3
ByLayer
350
3C
  3
Global
350
3E
  0
DICTIONARY
  5
21D
102
{ACAD_REACTORS
330
C
102
}
330
C
100
AcDbDictionary
281
     1
  0
DICTIONARY
  5
17
102
{ACAD_REACTORS
330
C
102
}
330
C
100
AcDbDictionary
281
     1
  3
Standard
350
18
  0
DICTIONARY
  5
19
102
{ACAD_REACTORS
330
C
102
}
330
C
100
AcDbDictionary
281
     1
  0
ACDBDICTIONARYWDFLT
  5
E
102
{ACAD_REACTORS
330
C
102
}
330
C
100
AcDbDictionary
281
     1
  3
Normal
350
F
100
AcDbDictionaryWithDefault
340
F
  0
DICTIONARY
  5
21C
102
{ACAD_REACTORS
330
C
102
}
330
C
100
AcDbDictionary
281
     1
  0
DICTIONARY
  5
2A
102
{ACAD_REACTORS
330
C
102
}
330
C
100
AcDbDictionary
281
     1
  3
2dWireframe
350
2F
  3
3D Hidden
350
31
  3
3dWireframe
350
30
  3
Basic
350
32
  3
Brighten
350
36
  3
ColorChange
350
3A
  3
Conceptual
350
34
  3
Dim
350
35
  3
Facepattern
350
39
  3
Flat
350
2B
  3
FlatWithEdges
350
2C
  3
Gouraud
350
2D
  3
GouraudWithEdges
350
2E
  3
Linepattern
350
38
  3
Realistic
350
33
  3
Thicken
350
37
  0
LAYOUT
  5
1E
102
{ACAD_REACTORS
330
1A
102
}
330
1A
100
AcDbPlotSettings
  1

  2
none_device
  4

  6

 40
0.0
 41
0.0
 42
0.0
 43
0.0
 44
0.0
 45
0.0
 46
0.0
 47
0.0
 48
0.0
 49
0.0
140
0.0
141
0.0
142
1.0
143
1.0
 70
   688
 72
     0
 73
     0
 74
     5
  7

 75
    16
 76
     0
 77
     2
 78
   300
147
1.0
148
0.0
149
0.0
100
AcDbLayout
  1
Layout1
 70
     1
 71
     1
 10
0.0
 20
0.0
 11
12.0
 21
9.0
 12
0.0
 22
0.0
 32
0.0
 14
1.000000000000000E+20
 24
1.000000000000000E+20
 34
1.000000000000000E+20
 15
-1.000000000000000E+20
 25
-1.000000000000000E+20
 35
-1.000000000000000E+20
146
0.0
 13
0.0
 23
0.0
 33
0.0
 16
1.0
 26
0.0
 36
0.0
 17
0.0
 27
1.0
 37
0.0
 76
     0
330
1B
  0
LAYOUT
  5
26
102
{ACAD_REACTORS
330
1A
102
}
330
1A
100
AcDbPlotSettings
  1

  2
none_device
  4

  6

 40
0.0
 41
0.0
 42
0.0
 43
0.0
 44
0.0
 45
0.0
 46
0.0
 47
0.0
 48
0.0
 49
0.0
140
0.0
141
0.0
142
1.0
143
1.0
 70
   688
 72
     0
 73
     0
 74
     5
  7

 75
    16
 76
     0
 77
     2
 78
   300
147
1.0
148
0.0
149
0.0
100
AcDbLayout
  1
Layout2
 70
     1
 71
     2
 10
0.0
 20
0.0
 11
0.0
 21
0.0
 12
0.0
 22
0.0
 32
0.0
 14
0.0
 24
0.0
 34
0.0
 15
0.0
 25
0.0
 35
0.0
146
0.0
 13
0.0
 23
0.0
 33
0.0
 16
1.0
 26
0.0
 36
0.0
 17
0.0
 27
1.0
 37
0.0
 76
     0
330
23
  0
LAYOUT
  5
22
102
{ACAD_REACTORS
330
1A
102
}
330
1A
100
AcDbPlotSettings
  1

  2
none_device
  4

  6

 40
0.0
 41
0.0
 42
0.0
 43
0.0
 44
0.0
 45
0.0
 46
0.0
 47
0.0
 48
0.0
 49
0.0
140
0.0
141
0.0
142
1.0
143
1.0
 70
  1712
 72
     0
 73
     0
 74
     0
  7

 75
     0
 76
     0
 77
     2
 78
   300
147
1.0
148
0.0
149
0.0
100
AcDbLayout
  1
Model
 70
     1
 71
     0
 10
0.0
 20
0.0
 11
12.0
 21
9.0
 12
0.0
 22
0.0
 32
0.0
 14
1.000000000000000E+20
 24
1.000000000000000E+20
 34
1.000000000000000E+20
 15
-1.000000000000000E+20
 25
-1.000000000000000E+20
 35
-1.000000000000000E+20
146
0.0
 13
0.0
 23
0.0
 33
0.0
 16
1.0
 26
0.0
 36
0.0
 17
0.0
 27
1.0
 37
0.0
 76
     0
330
1F
331
29
  0
MATERIAL
  5
3D
102
{ACAD_REACTORS
330
3B
102
}
330
3B
100
AcDbMaterial
  1
ByBlock
 72
     1
 94
      127
  0
MATERIAL
  5
3C
102
{ACAD_REACTORS
330
3B
102
}
330
3B
100
AcDbMaterial
  1
ByLayer
 72
     1
 94
      127
  0
MATERIAL
  5
3E
102
{ACAD_REACTORS
330
3B
102
}
330
3B
100
AcDbMaterial
  1
Global
 72
     1
 94
      127
  0
MLINESTYLE
  5
18
102
{ACAD_REACTORS
330
17
102
}
330
17
100
AcDbMlineStyle
  2
Standard
 70
     0
  3

 62
   256
 51
90.0
 52
90.0
 71
     2
 49
0.5
 62
   256
  6
BYLAYER
 49
-0.5
 62
   256
  6
BYLAYER
  0
ACDBPLACEHOLDER
  5
F
102
{ACAD_REACTORS
330
E
102
}
330
E
  0
VISUALSTYLE
  5
2F
102
{ACAD_REACTORS
330
2A
102
}
102
{ACAD_XDICTIONARY
360
204
102
}
330
2A
100
AcDbVisualStyle
  2
2dWireframe
 70
     4
 71
     0
 72
     2
 73
     0
 90
        0
 40
-0.6
 41
-30.0
 62
     5
 63
     7
421
 16777215
 74
     1
 91
        4
 64
     7
 65
   257
 75
     1
175
     1
 42
1.0
 92
        0
 66
   257
 43
1.0
 76
     1
 77
     6
 78
     2
 67
     7
 79
     5
170
     0
171
     0
290
     0
174
     0
 93
        1
 44
0.0
173
     0
291
     0
 45
0.0
  0
VISUALSTYLE
  5
31
102
{ACAD_REACTORS
330
2A
102
}
102
{ACAD_XDICTIONARY
360
208
102
}
330
2A
100
AcDbVisualStyle
  2
3D Hidden
 70
     6
 71
     1
 72
     2
 73
     2
 90
        0
 40
-0.6
 41
-30.0
 62
     5
 63
     7
421
 16777215
 74
     2
 91
        2
 64
     7
 65
   257
 75
     2
175
     1
 42
40.0
 92
        0
 66
   257
 43
1.0
 76
     1
 77
     6
 78
     2
 67
     7
 79
     3
170
     0
171
     0
290
     0
174
     0
 93
        1
 44
0.0
173
     0
291
     0
 45
0.0
  0
VISUALSTYLE
  5
30
102
{ACAD_REACTORS
330
2A
102
}
102
{ACAD_XDICTIONARY
360
206
102
}
330
2A
100
AcDbVisualStyle
  2
3dWireframe
 70
     5
 71
     0
 72
     2
 73
     0
 90
        0
 40
-0.6
 41
-30.0
 62
     5
 63
     7
421
 16777215
 74
     1
 91
        4
 64
     7
 65
   257
 75
     1
175
     1
 42
1.0
 92
        0
 66
   257
 43
1.0
 76
     1
 77
     6
 78
     2
 67
     7
 79
     5
170
     0
171
     0
290
     0
174
     0
 93
        1
 44
0.0
173
     0
291
     0
 45
0.0
  0
VISUALSTYLE
  5
32
102
{ACAD_REACTORS
330
2A
102
}
102
{ACAD_XDICTIONARY
360
20A
102
}
330
2A
100
AcDbVisualStyle
  2
Basic
 70
     7
 71
     1
 72
     0
 73
     1
 90
        0
 40
-0.6
 41
-30.0
 62
     5
 63
     7
421
 16777215
 74
     0
 91
        4
 64
     7
 65
   257
 75
     1
175
     1
 42
1.0
 92
        8
 66
     7
 43
1.0
 76
     1
 77
     6
 78
     2
 67
     7
 79
     5
170
     0
171
     0
290
     0
174
     0
 93
        1
 44
0.0
173
     0
291
     1
 45
0.0
  0
VISUALSTYLE
  5
36
102
{ACAD_REACTORS
330
2A
102
}
102
{ACAD_XDICTIONARY
360
212
102
}
330
2A
100
AcDbVisualStyle
  2
Brighten
 70
    12
 71
     2
 72
     2
 73
     0
 90
        0
 40
-0.6
 41
-30.0
 62
     5
 63
     7
421
 16777215
 74
     1
 91
        4
 64
     7
 65
   257
 75
     1
175
     1
 42
1.0
 92
        8
 66
     7
 43
1.0
 76
     1
 77
     6
 78
     2
 67
     7
 79
     5
170
     0
171
     0
290
     0
174
     0
 93
        1
 44
50.0
173
     0
291
     1
 45
0.0
  0
VISUALSTYLE
  5
3A
102
{ACAD_REACTORS
330
2A
102
}
102
{ACAD_XDICTIONARY
360
21A
102
}
330
2A
100
AcDbVisualStyle
  2
ColorChange
 70
    16
 71
     2
 72
     2
 73
     3
 90
        0
 40
-0.6
 41
-30.0
 62
     5
 63
     8
421
  8421504
 74
     1
 91
        4
 64
     7
 65
   257
 75
     1
175
     1
 42
1.0
 92
        8
 66
     8
424
  8421504
 43
1.0
 76
     1
 77
     6
 78
     2
 67
     7
 79
     5
170
     0
171
     0
290
     0
174
     0
 93
        1
 44
0.0
173
     0
291
     1
 45
0.0
  0
VISUALSTYLE
  5
34
102
{ACAD_REACTORS
330
2A
102
}
102
{ACAD_XDICTIONARY
360
20E
102
}
330
2A
100
AcDbVisualStyle
  2
Conceptual
 70
     9
 71
     3
 72
     2
 73
     0
 90
        0
 40
-0.6
 41
-30.0
 62
     5
 63
     7
421
 16777215
 74
     2
 91
        2
 64
     7
 65
   257
 75
     1
175
     1
 42
40.0
 92
        8
 66
     7
 43
1.0
 76
     1
 77
     6
 78
     2
 67
     7
 79
     3
170
     0
171
     0
290
     0
174
     0
 93
        1
 44
0.0
173
     0
291
     0
 45
0.0
  0
VISUALSTYLE
  5
35
102
{ACAD_REACTORS
330
2A
102
}
102
{ACAD_XDICTIONARY
360
210
102
}
330
2A
100
AcDbVisualStyle
  2
Dim
 70
    11
 71
     2
 72
     2
 73
     0
 90
        0
 40
-0.6
 41
-30.0
 62
     5
 63
     7
421
 16777215
 74
     1
 91
        4
 64
     7
 65
   257
 75
     1
175
     1
 42
1.0
 92
        8
 66
     7
 43
1.0
 76
     1
 77
     6
 78
     2
 67
     7
 79
     5
170
     0
171
     0
290
     0
174
     0
 93
        1
 44
-50.0
173
     0
291
     1
 45
0.0
  0
VISUALSTYLE
  5
39
102
{ACAD_REACTORS
330
2A
102
}
102
{ACAD_XDICTIONARY
360
218
102
}
330
2A
100
AcDbVisualStyle
  2
Facepattern
 70
    15
 71
     2
 72
     2
 73
     0
 90
        0
 40
-0.6
 41
-30.0
 62
     5
 63
     7
421
 16777215
 74
     1
 91
        4
 64
     7
 65
   257
 75
     1
175
     1
 42
1.0
 92
        8
 66
     7
 43
1.0
 76
     1
 77
     6
 78
     2
 67
     7
 79
     5
170
     0
171
     0
290
     0
174
     0
 93
        1
 44
0.0
173
     0
291
     1
 45
0.0
  0
VISUALSTYLE
  5
2B
102
{ACAD_REACTORS
330
2A
102
}
102
{ACAD_XDICTIONARY
360
1FC
102
}
330
2A
100
AcDbVisualStyle
  2
Flat
 70
     0
 71
     2
 72
     1
 73
     1
 90
        2
 40
-0.6
 41
30.0
 62
     5
 63
     7
421
 16777215
 74
     0
 91
        4
 64
     7
 65
   257
 75
     1
175
     1
 42
1.0
 92
        8
 66
     7
 43
1.0
 76
     1
 77
     6
 78
     2
 67
     7
 79
     5
170
     0
171
     0
290
     0
174
     0
 93
       13
 44
0.0
173
     0
291
     1
 45
0.0
  0
VISUALSTYLE
  5
2C
102
{ACAD_REACTORS
330
2A
102
}
102
{ACAD_XDICTIONARY
360
1FE
102
}
330
2A
100
AcDbVisualStyle
  2
FlatWithEdges
 70
     1
 71
     2
 72
     1
 73
     1
 90
        2
 40
-0.6
 41
30.0
 62
     5
 63
     7
421
 16777215
 74
     1
 91
        4
 64
     7
 65
   257
 75
     1
175
     1
 42
1.0
 92
        0
 66
   257
 43
1.0
 76
     1
 77
     6
 78
     2
 67
     7
 79
     5
170
     0
171
     0
290
     0
174
     0
 93
       13
 44
0.0
173
     0
291
     1
 45
0.0
  0
VISUALSTYLE
  5
2D
102
{ACAD_REACTORS
330
2A
102
}
102
{ACAD_XDICTIONARY
360
200
102
}
330
2A
100
AcDbVisualStyle
  2
Gouraud
 70
     2
 71
     2
 72
     2
 73
     1
 90
        2
 40
-0.6
 41
30.0
 62
     5
 63
     7
421
 16777215
 74
     0
 91
        4
 64
     7
 65
   257
 75
     1
175
     1
 42
1.0
 92
        0
 66
     7
 43
1.0
 76
     1
 77
     6
 78
     2
 67
     7
 79
     5
170
     0
171
     0
290
     0
174
     0
 93
       13
 44
0.0
173
     0
291
     1
 45
0.0
  0
VISUALSTYLE
  5
2E
102
{ACAD_REACTORS
330
2A
102
}
102
{ACAD_XDICTIONARY
360
202
102
}
330
2A
100
AcDbVisualStyle
  2
GouraudWithEdges
 70
     3
 71
     2
 72
     2
 73
     1
 90
        2
 40
-0.6
 41
30.0
 62
     5
 63
     7
421
 16777215
 74
     1
 91
        4
 64
     7
 65
   257
 75
     1
175
     1
 42
1.0
 92
        0
 66
   257
 43
1.0
 76
     1
 77
     6
 78
     2
 67
     7
 79
     5
170
     0
171
     0
290
     0
174
     0
 93
       13
 44
0.0
173
     0
291
     1
 45
0.0
  0
VISUALSTYLE
  5
38
102
{ACAD_REACTORS
330
2A
102
}
102
{ACAD_XDICTIONARY
360
216
102
}
330
2A
100
AcDbVisualStyle
  2
Linepattern
 70
    14
 71
     2
 72
     2
 73
     0
 90
        0
 40
-0.6
 41
-30.0
 62
     5
 63
     7
421
 16777215
 74
     1
 91
        4
 64
     7
 65
   257
 75
     7
175
     7
 42
1.0
 92
        8
 66
     7
 43
1.0
 76
     1
 77
     6
 78
     2
 67
     7
 79
     5
170
     0
171
     0
290
     0
174
     0
 93
        1
 44
0.0
173
     0
291
     1
 45
0.0
  0
VISUALSTYLE
  5
33
102
{ACAD_REACTORS
330
2A
102
}
102
{ACAD_XDICTIONARY
360
20C
102
}
330
2A
100
AcDbVisualStyle
  2
Realistic
 70
     8
 71
     2
 72
     2
 73
     0
 90
        0
 40
-0.6
 41
-30.0
 62
     5
 63
     7
421
 16777215
 74
     1
 91
        0
 64
     7
 65
   257
 75
     1
175
     1
 42
1.0
 92
        8
 66
     8
424
  7895160
 43
1.0
 76
     1
 77
     6
 78
     2
 67
     7
 79
     5
170
     0
171
     0
290
     0
174
     0
 93
       13
 44
0.0
173
     0
291
     0
 45
0.0
  0
VISUALSTYLE
  5
37
102
{ACAD_REACTORS
330
2A
102
}
102
{ACAD_XDICTIONARY
360
214
102
}
330
2A
100
AcDbVisualStyle
  2
Thicken
 70
    13
 71
     2
 72
     2
 73
     0
 90
        0
 40
-0.6
 41
-30.0
 62
     5
 63
     7
421
 16777215
 74
     1
 91
        4
 64
     7
 65
   257
 75
     1
175
     1
 42
1.0
 92
       12
 66
     7
 43
1.0
 76
     1
 77
     6
 78
     2
 67
     7
 79
     5
170
     0
171
     0
290
     0
174
     0
 93
        1
 44
0.0
173
     0
291
     1
 45
0.0
  0
DICTIONARY
  5
204
330
2F
100
AcDbDictionary
280
     1
281
     1
  3
ACAD_XREC_ROUNDTRIP
360
205
  0
DICTIONARY
  5
208
330
31
100
AcDbDictionary
280
     1
281
     1
  3
ACAD_XREC_ROUNDTRIP
360
209
  0
DICTIONARY
  5
206
330
30
100
AcDbDictionary
280
     1
281
     1
  3
ACAD_XREC_ROUNDTRIP
360
207
  0
DICTIONARY
  5
20A
330
32
100
AcDbDictionary
280
     1
281
     1
  3
ACAD_XREC_ROUNDTRIP
360
20B
  0
DICTIONARY
  5
212
330
36
100
AcDbDictionary
280
     1
281
     1
  3
ACAD_XREC_ROUNDTRIP
360
213
  0
DICTIONARY
  5
21A
330
3A
100
AcDbDictionary
280
     1
281
     1
  3
ACAD_XREC_ROUNDTRIP
360
21B
  0
DICTIONARY
  5
20E
330
34
100
AcDbDictionary
280
     1
281
     1
  3
ACAD_XREC_ROUNDTRIP
360
20F
  0
DICTIONARY
  5
210
330
35
100
AcDbDictionary
280
     1
281
     1
  3
ACAD_XREC_ROUNDTRIP
360
211
  0
DICTIONARY
  5
218
330
39
100
AcDbDictionary
280
     1
281
     1
  3
ACAD_XREC_ROUNDTRIP
360
219
  0
DICTIONARY
  5
1FC
330
2B
100
AcDbDictionary
280
     1
281
     1
  3
ACAD_XREC_ROUNDTRIP
360
1FD
  0
DICTIONARY
  5
1FE
330
2C
100
AcDbDictionary
280
     1
281
     1
  3
ACAD_XREC_ROUNDTRIP
360
1FF
  0
DICTIONARY
  5
200
330
2D
100
AcDbDictionary
280
     1
281
     1
  3
ACAD_XREC_ROUNDTRIP
360
201
  0
DICTIONARY
  5
202
330
2E
100
AcDbDictionary
280
     1
281
     1
  3
ACAD_XREC_ROUNDTRIP
360
203
  0
DICTIONARY
  5
216
330
38
100
AcDbDictionary
280
     1
281
     1
  3
ACAD_XREC_ROUNDTRIP
360
217
  0
DICTIONARY
  5
20C
330
33
100
AcDbDictionary
280
     1
281
     1
  3
ACAD_XREC_ROUNDTRIP
360
20D
  0
DICTIONARY
  5
214
330
37
100
AcDbDictionary
280
     1
281
     1
  3
ACAD_XREC_ROUNDTRIP
360
215
  0
XRECORD
  5
205
102
{ACAD_REACTORS
330
204
102
}
330
204
100
AcDbXrecord
280
     1
102
RTVSPropertyOp0
 70
     1
102
RTVSPropertyOp1
 70
     1
102
RTVSPropertyOp2
 70
     1
102
RTVSPropertyOp3
 70
     1
102
RTVSPropertyOp4
 70
     1
102
RTVSPropertyOp5
 70
     1
102
RTVSPropertyOp6
 70
     1
102
RTVSPropertyOp7
 70
     1
102
RTVSPropertyOp8
 70
     1
102
RTVSPropertyOp9
 70
     1
102
RTVSPropertyOp10
 70
     1
102
RTVSPropertyOp11
 70
     1
102
RTVSPropertyOp12
 70
     1
102
RTVSPropertyOp13
 70
     1
102
RTVSPropertyOp14
 70
     1
102
RTVSPropertyOp15
 70
     1
102
RTVSPropertyOp16
 70
     1
102
RTVSPropertyOp17
 70
     1
102
RTVSPropertyOp18
 70
     1
102
RTVSPropertyOp19
 70
     1
102
RTVSPropertyOp20
 70
     1
102
RTVSPropertyOp21
 70
     1
102
RTVSPropertyOp22
 70
     1
102
RTVSPropertyOp23
 70
     1
102
RTVSPropertyOp24
 70
     1
102
RTVSPropertyOp25
 70
     1
102
RTVSPropertyOp26
 70
     1
102
RTVSPropertyOp27
 70
     1
102
RTVSPropertyOp28
 70
     1
102
RTVSPropertyOp29
 70
     1
102
RTVSPropertyOp30
 70
     1
102
RTVSPropertyOp31
 70
     1
102
RTVSPropertyOp32
 70
     1
  0
XRECORD
  5
209
102
{ACAD_REACTORS
330
208
102
}
330
208
100
AcDbXrecord
280
     1
102
RTVSPropertyOp0
 70
     1
102
RTVSPropertyOp1
 70
     1
102
RTVSPropertyOp2
 70
     1
102
RTVSPropertyOp3
 70
     1
102
RTVSPropertyOp4
 70
     1
102
RTVSPropertyOp5
 70
     1
102
RTVSPropertyOp6
 70
     1
102
RTVSPropertyOp7
 70
     1
102
RTVSPropertyOp8
 70
     1
102
RTVSPropertyOp9
 70
     1
102
RTVSPropertyOp10
 70
     1
102
RTVSPropertyOp11
 70
     1
102
RTVSPropertyOp12
 70
     1
102
RTVSPropertyOp13
 70
     1
102
RTVSPropertyOp14
 70
     1
102
RTVSPropertyOp15
 70
     1
102
RTVSPropertyOp16
 70
     1
102
RTVSPropertyOp17
 70
     1
102
RTVSPropertyOp18
 70
     1
102
RTVSPropertyOp19
 70
     1
102
RTVSPropertyOp20
 70
     1
102
RTVSPropertyOp21
 70
     1
102
RTVSPropertyOp22
 70
     1
102
RTVSPropertyOp23
 70
     1
102
RTVSPropertyOp24
 70
     1
102
RTVSPropertyOp25
 70
     1
102
RTVSPropertyOp26
 70
     1
102
RTVSPropertyOp27
 70
     1
102
RTVSPropertyOp28
 70
     1
102
RTVSPropertyOp29
 70
     1
102
RTVSPropertyOp30
 70
     1
102
RTVSPropertyOp31
 70
     1
102
RTVSPropertyOp32
 70
     1
  0
XRECORD
  5
207
102
{ACAD_REACTORS
330
206
102
}
330
206
100
AcDbXrecord
280
     1
102
RTVSPropertyOp0
 70
     1
102
RTVSPropertyOp1
 70
     1
102
RTVSPropertyOp2
 70
     1
102
RTVSPropertyOp3
 70
     1
102
RTVSPropertyOp4
 70
     1
102
RTVSPropertyOp5
 70
     1
102
RTVSPropertyOp6
 70
     1
102
RTVSPropertyOp7
 70
     1
102
RTVSPropertyOp8
 70
     1
102
RTVSPropertyOp9
 70
     1
102
RTVSPropertyOp10
 70
     1
102
RTVSPropertyOp11
 70
     1
102
RTVSPropertyOp12
 70
     1
102
RTVSPropertyOp13
 70
     1
102
RTVSPropertyOp14
 70
     1
102
RTVSPropertyOp15
 70
     1
102
RTVSPropertyOp16
 70
     1
102
RTVSPropertyOp17
 70
     1
102
RTVSPropertyOp18
 70
     1
102
RTVSPropertyOp19
 70
     1
102
RTVSPropertyOp20
 70
     1
102
RTVSPropertyOp21
 70
     1
102
RTVSPropertyOp22
 70
     1
102
RTVSPropertyOp23
 70
     1
102
RTVSPropertyOp24
 70
     1
102
RTVSPropertyOp25
 70
     1
102
RTVSPropertyOp26
 70
     1
102
RTVSPropertyOp27
 70
     1
102
RTVSPropertyOp28
 70
     1
102
RTVSPropertyOp29
 70
     1
102
RTVSPropertyOp30
 70
     1
102
RTVSPropertyOp31
 70
     1
102
RTVSPropertyOp32
 70
     1
  0
XRECORD
  5
20B
102
{ACAD_REACTORS
330
20A
102
}
330
20A
100
AcDbXrecord
280
     1
102
RTVSPropertyOp0
 70
     1
102
RTVSPropertyOp1
 70
     1
102
RTVSPropertyOp2
 70
     1
102
RTVSPropertyOp3
 70
     1
102
RTVSPropertyOp4
 70
     1
102
RTVSPropertyOp5
 70
     1
102
RTVSPropertyOp6
 70
     1
102
RTVSPropertyOp7
 70
     1
102
RTVSPropertyOp8
 70
     1
102
RTVSPropertyOp9
 70
     1
102
RTVSPropertyOp10
 70
     1
102
RTVSPropertyOp11
 70
     1
102
RTVSPropertyOp12
 70
     1
102
RTVSPropertyOp13
 70
     1
102
RTVSPropertyOp14
 70
     1
102
RTVSPropertyOp15
 70
     1
102
RTVSPropertyOp16
 70
     1
102
RTVSPropertyOp17
 70
     1
102
RTVSPropertyOp18
 70
     1
102
RTVSPropertyOp19
 70
     1
102
RTVSPropertyOp20
 70
     1
102
RTVSPropertyOp21
 70
     1
102
RTVSPropertyOp22
 70
     1
102
RTVSPropertyOp23
 70
     1
102
RTVSPropertyOp24
 70
     1
102
RTVSPropertyOp25
 70
     1
102
RTVSPropertyOp26
 70
     1
102
RTVSPropertyOp27
 70
     1
102
RTVSPropertyOp28
 70
     1
102
RTVSPropertyOp29
 70
     1
102
RTVSPropertyOp30
 70
     1
102
RTVSPropertyOp31
 70
     1
102
RTVSPropertyOp32
 70
     1
  0
XRECORD
  5
213
102
{ACAD_REACTORS
330
212
102
}
330
212
100
AcDbXrecord
280
     1
102
RTVSPropertyOp0
 70
     1
102
RTVSPropertyOp1
 70
     1
102
RTVSPropertyOp2
 70
     1
102
RTVSPropertyOp3
 70
     1
102
RTVSPropertyOp4
 70
     1
102
RTVSPropertyOp5
 70
     1
102
RTVSPropertyOp6
 70
     1
102
RTVSPropertyOp7
 70
     1
102
RTVSPropertyOp8
 70
     1
102
RTVSPropertyOp9
 70
     1
102
RTVSPropertyOp10
 70
     1
102
RTVSPropertyOp11
 70
     1
102
RTVSPropertyOp12
 70
     1
102
RTVSPropertyOp13
 70
     1
102
RTVSPropertyOp14
 70
     1
102
RTVSPropertyOp15
 70
     1
102
RTVSPropertyOp16
 70
     1
102
RTVSPropertyOp17
 70
     1
102
RTVSPropertyOp18
 70
     1
102
RTVSPropertyOp19
 70
     1
102
RTVSPropertyOp20
 70
     1
102
RTVSPropertyOp21
 70
     1
102
RTVSPropertyOp22
 70
     1
102
RTVSPropertyOp23
 70
     1
102
RTVSPropertyOp24
 70
     1
102
RTVSPropertyOp25
 70
     1
102
RTVSPropertyOp26
 70
     1
102
RTVSPropertyOp27
 70
     1
102
RTVSPropertyOp28
 70
     1
102
RTVSPropertyOp29
 70
     1
102
RTVSPropertyOp30
 70
     1
102
RTVSPropertyOp31
 70
     1
102
RTVSPropertyOp32
 70
     1
  0
XRECORD
  5
21B
102
{ACAD_REACTORS
330
21A
102
}
330
21A
100
AcDbXrecord
280
     1
102
RTVSPropertyOp0
 70
     1
102
RTVSPropertyOp1
 70
     1
102
RTVSPropertyOp2
 70
     1
102
RTVSPropertyOp3
 70
     1
102
RTVSPropertyOp4
 70
     1
102
RTVSPropertyOp5
 70
     1
102
RTVSPropertyOp6
 70
     1
102
RTVSPropertyOp7
 70
     1
102
RTVSPropertyOp8
 70
     1
102
RTVSPropertyOp9
 70
     1
102
RTVSPropertyOp10
 70
     1
102
RTVSPropertyOp11
 70
     1
102
RTVSPropertyOp12
 70
     1
102
RTVSPropertyOp13
 70
     1
102
RTVSPropertyOp14
 70
     1
102
RTVSPropertyOp15
 70
     1
102
RTVSPropertyOp16
 70
     1
102
RTVSPropertyOp17
 70
     1
102
RTVSPropertyOp18
 70
     1
102
RTVSPropertyOp19
 70
     1
102
RTVSPropertyOp20
 70
     1
102
RTVSPropertyOp21
 70
     1
102
RTVSPropertyOp22
 70
     1
102
RTVSPropertyOp23
 70
     1
102
RTVSPropertyOp24
 70
     1
102
RTVSPropertyOp25
 70
     1
102
RTVSPropertyOp26
 70
     1
102
RTVSPropertyOp27
 70
     1
102
RTVSPropertyOp28
 70
     1
102
RTVSPropertyOp29
 70
     1
102
RTVSPropertyOp30
 70
     1
102
RTVSPropertyOp31
 70
     1
102
RTVSPropertyOp32
 70
     1
  0
XRECORD
  5
20F
102
{ACAD_REACTORS
330
20E
102
}
330
20E
100
AcDbXrecord
280
     1
102
RTVSPropertyOp0
 70
     1
102
RTVSPropertyOp1
 70
     1
102
RTVSPropertyOp2
 70
     1
102
RTVSPropertyOp3
 70
     1
102
RTVSPropertyOp4
 70
     1
102
RTVSPropertyOp5
 70
     1
102
RTVSPropertyOp6
 70
     1
102
RTVSPropertyOp7
 70
     1
102
RTVSPropertyOp8
 70
     1
102
RTVSPropertyOp9
 70
     1
102
RTVSPropertyOp10
 70
     1
102
RTVSPropertyOp11
 70
     1
102
RTVSPropertyOp12
 70
     1
102
RTVSPropertyOp13
 70
     1
102
RTVSPropertyOp14
 70
     1
102
RTVSPropertyOp15
 70
     1
102
RTVSPropertyOp16
 70
     1
102
RTVSPropertyOp17
 70
     1
102
RTVSPropertyOp18
 70
     1
102
RTVSPropertyOp19
 70
     1
102
RTVSPropertyOp20
 70
     1
102
RTVSPropertyOp21
 70
     1
102
RTVSPropertyOp22
 70
     1
102
RTVSPropertyOp23
 70
     1
102
RTVSPropertyOp24
 70
     1
102
RTVSPropertyOp25
 70
     1
102
RTVSPropertyOp26
 70
     1
102
RTVSPropertyOp27
 70
     1
102
RTVSPropertyOp28
 70
     1
102
RTVSPropertyOp29
 70
     1
102
RTVSPropertyOp30
 70
     1
102
RTVSPropertyOp31
 70
     1
102
RTVSPropertyOp32
 70
     1
  0
XRECORD
  5
211
102
{ACAD_REACTORS
330
210
102
}
330
210
100
AcDbXrecord
280
     1
102
RTVSPropertyOp0
 70
     1
102
RTVSPropertyOp1
 70
     1
102
RTVSPropertyOp2
 70
     1
102
RTVSPropertyOp3
 70
     1
102
RTVSPropertyOp4
 70
     1
102
RTVSPropertyOp5
 70
     1
102
RTVSPropertyOp6
 70
     1
102
RTVSPropertyOp7
 70
     1
102
RTVSPropertyOp8
 70
     1
102
RTVSPropertyOp9
 70
     1
102
RTVSPropertyOp10
 70
     1
102
RTVSPropertyOp11
 70
     1
102
RTVSPropertyOp12
 70
     1
102
RTVSPropertyOp13
 70
     1
102
RTVSPropertyOp14
 70
     1
102
RTVSPropertyOp15
 70
     1
102
RTVSPropertyOp16
 70
     1
102
RTVSPropertyOp17
 70
     1
102
RTVSPropertyOp18
 70
     1
102
RTVSPropertyOp19
 70
     1
102
RTVSPropertyOp20
 70
     1
102
RTVSPropertyOp21
 70
     1
102
RTVSPropertyOp22
 70
     1
102
RTVSPropertyOp23
 70
     1
102
RTVSPropertyOp24
 70
     1
102
RTVSPropertyOp25
 70
     1
102
RTVSPropertyOp26
 70
     1
102
RTVSPropertyOp27
 70
     1
102
RTVSPropertyOp28
 70
     1
102
RTVSPropertyOp29
 70
     1
102
RTVSPropertyOp30
 70
     1
102
RTVSPropertyOp31
 70
     1
102
RTVSPropertyOp32
 70
     1
  0
XRECORD
  5
219
102
{ACAD_REACTORS
330
218
102
}
330
218
100
AcDbXrecord
280
     1
102
RTVSPropertyOp0
 70
     1
102
RTVSPropertyOp1
 70
     1
102
RTVSPropertyOp2
 70
     1
102
RTVSPropertyOp3
 70
     1
102
RTVSPropertyOp4
 70
     1
102
RTVSPropertyOp5
 70
     1
102
RTVSPropertyOp6
 70
     1
102
RTVSPropertyOp7
 70
     1
102
RTVSPropertyOp8
 70
     1
102
RTVSPropertyOp9
 70
     1
102
RTVSPropertyOp10
 70
     1
102
RTVSPropertyOp11
 70
     1
102
RTVSPropertyOp12
 70
     1
102
RTVSPropertyOp13
 70
     1
102
RTVSPropertyOp14
 70
     1
102
RTVSPropertyOp15
 70
     1
102
RTVSPropertyOp16
 70
     1
102
RTVSPropertyOp17
 70
     1
102
RTVSPropertyOp18
 70
     1
102
RTVSPropertyOp19
 70
     1
102
RTVSPropertyOp20
 70
     1
102
RTVSPropertyOp21
 70
     1
102
RTVSPropertyOp22
 70
     1
102
RTVSPropertyOp23
 70
     1
102
RTVSPropertyOp24
 70
     1
102
RTVSPropertyOp25
 70
     1
102
RTVSPropertyOp26
 70
     1
102
RTVSPropertyOp27
 70
     1
102
RTVSPropertyOp28
 70
     1
102
RTVSPropertyOp29
 70
     1
102
RTVSPropertyOp30
 70
     1
102
RTVSPropertyOp31
 70
     1
102
RTVSPropertyOp32
 70
     1
  0
XRECORD
  5
1FD
102
{ACAD_REACTORS
330
1FC
102
}
330
1FC
100
AcDbXrecord
280
     1
102
RTVSPropertyOp0
 70
     1
102
RTVSPropertyOp1
 70
     1
102
RTVSPropertyOp2
 70
     1
102
RTVSPropertyOp3
 70
     1
102
RTVSPropertyOp4
 70
     1
102
RTVSPropertyOp5
 70
     1
102
RTVSPropertyOp6
 70
     1
102
RTVSPropertyOp7
 70
     1
102
RTVSPropertyOp8
 70
     1
102
RTVSPropertyOp9
 70
     1
102
RTVSPropertyOp10
 70
     1
102
RTVSPropertyOp11
 70
     1
102
RTVSPropertyOp12
 70
     1
102
RTVSPropertyOp13
 70
     1
102
RTVSPropertyOp14
 70
     1
102
RTVSPropertyOp15
 70
     1
102
RTVSPropertyOp16
 70
     1
102
RTVSPropertyOp17
 70
     1
102
RTVSPropertyOp18
 70
     1
102
RTVSPropertyOp19
 70
     1
102
RTVSPropertyOp20
 70
     1
102
RTVSPropertyOp21
 70
     1
102
RTVSPropertyOp22
 70
     1
102
RTVSPropertyOp23
 70
     1
102
RTVSPropertyOp24
 70
     1
102
RTVSPropertyOp25
 70
     1
102
RTVSPropertyOp26
 70
     1
102
RTVSPropertyOp27
 70
     1
102
RTVSPropertyOp28
 70
     1
102
RTVSPropertyOp29
 70
     1
102
RTVSPropertyOp30
 70
     1
102
RTVSPropertyOp31
 70
     1
102
RTVSPropertyOp32
 70
     1
  0
XRECORD
  5
1FF
102
{ACAD_REACTORS
330
1FE
102
}
330
1FE
100
AcDbXrecord
280
     1
102
RTVSPropertyOp0
 70
     1
102
RTVSPropertyOp1
 70
     1
102
RTVSPropertyOp2
 70
     1
102
RTVSPropertyOp3
 70
     1
102
RTVSPropertyOp4
 70
     1
102
RTVSPropertyOp5
 70
     1
102
RTVSPropertyOp6
 70
     1
102
RTVSPropertyOp7
 70
     1
102
RTVSPropertyOp8
 70
     1
102
RTVSPropertyOp9
 70
     1
102
RTVSPropertyOp10
 70
     1
102
RTVSPropertyOp11
 70
     1
102
RTVSPropertyOp12
 70
     1
102
RTVSPropertyOp13
 70
     1
102
RTVSPropertyOp14
 70
     1
102
RTVSPropertyOp15
 70
     1
102
RTVSPropertyOp16
 70
     1
102
RTVSPropertyOp17
 70
     1
102
RTVSPropertyOp18
 70
     1
102
RTVSPropertyOp19
 70
     1
102
RTVSPropertyOp20
 70
     1
102
RTVSPropertyOp21
 70
     1
102
RTVSPropertyOp22
 70
     1
102
RTVSPropertyOp23
 70
     1
102
RTVSPropertyOp24
 70
     1
102
RTVSPropertyOp25
 70
     1
102
RTVSPropertyOp26
 70
     1
102
RTVSPropertyOp27
 70
     1
102
RTVSPropertyOp28
 70
     1
102
RTVSPropertyOp29
 70
     1
102
RTVSPropertyOp30
 70
     1
102
RTVSPropertyOp31
 70
     1
102
RTVSPropertyOp32
 70
     1
  0
XRECORD
  5
201
102
{ACAD_REACTORS
330
200
102
}
330
200
100
AcDbXrecord
280
     1
102
RTVSPropertyOp0
 70
     1
102
RTVSPropertyOp1
 70
     1
102
RTVSPropertyOp2
 70
     1
102
RTVSPropertyOp3
 70
     1
102
RTVSPropertyOp4
 70
     1
102
RTVSPropertyOp5
 70
     1
102
RTVSPropertyOp6
 70
     1
102
RTVSPropertyOp7
 70
     1
102
RTVSPropertyOp8
 70
     1
102
RTVSPropertyOp9
 70
     1
102
RTVSPropertyOp10
 70
     1
102
RTVSPropertyOp11
 70
     1
102
RTVSPropertyOp12
 70
     1
102
RTVSPropertyOp13
 70
     1
102
RTVSPropertyOp14
 70
     1
102
RTVSPropertyOp15
 70
     1
102
RTVSPropertyOp16
 70
     1
102
RTVSPropertyOp17
 70
     1
102
RTVSPropertyOp18
 70
     1
102
RTVSPropertyOp19
 70
     1
102
RTVSPropertyOp20
 70
     1
102
RTVSPropertyOp21
 70
     1
102
RTVSPropertyOp22
 70
     1
102
RTVSPropertyOp23
 70
     1
102
RTVSPropertyOp24
 70
     1
102
RTVSPropertyOp25
 70
     1
102
RTVSPropertyOp26
 70
     1
102
RTVSPropertyOp27
 70
     1
102
RTVSPropertyOp28
 70
     1
102
RTVSPropertyOp29
 70
     1
102
RTVSPropertyOp30
 70
     1
102
RTVSPropertyOp31
 70
     1
102
RTVSPropertyOp32
 70
     1
  0
XRECORD
  5
203
102
{ACAD_REACTORS
330
202
102
}
330
202
100
AcDbXrecord
280
     1
102
RTVSPropertyOp0
 70
     1
102
RTVSPropertyOp1
 70
     1
102
RTVSPropertyOp2
 70
     1
102
RTVSPropertyOp3
 70
     1
102
RTVSPropertyOp4
 70
     1
102
RTVSPropertyOp5
 70
     1
102
RTVSPropertyOp6
 70
     1
102
RTVSPropertyOp7
 70
     1
102
RTVSPropertyOp8
 70
     1
102
RTVSPropertyOp9
 70
     1
102
RTVSPropertyOp10
 70
     1
102
RTVSPropertyOp11
 70
     1
102
RTVSPropertyOp12
 70
     1
102
RTVSPropertyOp13
 70
     1
102
RTVSPropertyOp14
 70
     1
102
RTVSPropertyOp15
 70
     1
102
RTVSPropertyOp16
 70
     1
102
RTVSPropertyOp17
 70
     1
102
RTVSPropertyOp18
 70
     1
102
RTVSPropertyOp19
 70
     1
102
RTVSPropertyOp20
 70
     1
102
RTVSPropertyOp21
 70
     1
102
RTVSPropertyOp22
 70
     1
102
RTVSPropertyOp23
 70
     1
102
RTVSPropertyOp24
 70
     1
102
RTVSPropertyOp25
 70
     1
102
RTVSPropertyOp26
 70
     1
102
RTVSPropertyOp27
 70
     1
102
RTVSPropertyOp28
 70
     1
102
RTVSPropertyOp29
 70
     1
102
RTVSPropertyOp30
 70
     1
102
RTVSPropertyOp31
 70
     1
102
RTVSPropertyOp32
 70
     1
  0
XRECORD
  5
217
102
{ACAD_REACTORS
330
216
102
}
330
216
100
AcDbXrecord
280
     1
102
RTVSPropertyOp0
 70
     1
102
RTVSPropertyOp1
 70
     1
102
RTVSPropertyOp2
 70
     1
102
RTVSPropertyOp3
 70
     1
102
RTVSPropertyOp4
 70
     1
102
RTVSPropertyOp5
 70
     1
102
RTVSPropertyOp6
 70
     1
102
RTVSPropertyOp7
 70
     1
102
RTVSPropertyOp8
 70
     1
102
RTVSPropertyOp9
 70
     1
102
RTVSPropertyOp10
 70
     1
102
RTVSPropertyOp11
 70
     1
102
RTVSPropertyOp12
 70
     1
102
RTVSPropertyOp13
 70
     1
102
RTVSPropertyOp14
 70
     1
102
RTVSPropertyOp15
 70
     1
102
RTVSPropertyOp16
 70
     1
102
RTVSPropertyOp17
 70
     1
102
RTVSPropertyOp18
 70
     1
102
RTVSPropertyOp19
 70
     1
102
RTVSPropertyOp20
 70
     1
102
RTVSPropertyOp21
 70
     1
102
RTVSPropertyOp22
 70
     1
102
RTVSPropertyOp23
 70
     1
102
RTVSPropertyOp24
 70
     1
102
RTVSPropertyOp25
 70
     1
102
RTVSPropertyOp26
 70
     1
102
RTVSPropertyOp27
 70
     1
102
RTVSPropertyOp28
 70
     1
102
RTVSPropertyOp29
 70
     1
102
RTVSPropertyOp30
 70
     1
102
RTVSPropertyOp31
 70
     1
102
RTVSPropertyOp32
 70
     1
  0
XRECORD
  5
20D
102
{ACAD_REACTORS
330
20C
102
}
330
20C
100
AcDbXrecord
280
     1
102
RTVSPropertyOp0
 70
     1
102
RTVSPropertyOp1
 70
     1
102
RTVSPropertyOp2
 70
     1
102
RTVSPropertyOp3
 70
     1
102
RTVSPropertyOp4
 70
     1
102
RTVSPropertyOp5
 70
     1
102
RTVSPropertyOp6
 70
     1
102
RTVSPropertyOp7
 70
     1
102
RTVSPropertyOp8
 70
     1
102
RTVSPropertyOp9
 70
     1
102
RTVSPropertyOp10
 70
     1
102
RTVSPropertyOp11
 70
     1
102
RTVSPropertyOp12
 70
     1
102
RTVSPropertyOp13
 70
     1
102
RTVSPropertyOp14
 70
     1
102
RTVSPropertyOp15
 70
     1
102
RTVSPropertyOp16
 70
     1
102
RTVSPropertyOp17
 70
     1
102
RTVSPropertyOp18
 70
     1
102
RTVSPropertyOp19
 70
     1
102
RTVSPropertyOp20
 70
     1
102
RTVSPropertyOp21
 70
     1
102
RTVSPropertyOp22
 70
     1
102
RTVSPropertyOp23
 70
     1
102
RTVSPropertyOp24
 70
     1
102
RTVSPropertyOp25
 70
     1
102
RTVSPropertyOp26
 70
     1
102
RTVSPropertyOp27
 70
     1
102
RTVSPropertyOp28
 70
     1
102
RTVSPropertyOp29
 70
     1
102
RTVSPropertyOp30
 70
     1
102
RTVSPropertyOp31
 70
     1
102
RTVSPropertyOp32
 70
     1
  0
XRECORD
  5
215
102
{ACAD_REACTORS
330
214
102
}
330
214
100
AcDbXrecord
280
     1
102
RTVSPropertyOp0
 70
     1
102
RTVSPropertyOp1
 70
     1
102
RTVSPropertyOp2
 70
     1
102
RTVSPropertyOp3
 70
     1
102
RTVSPropertyOp4
 70
     1
102
RTVSPropertyOp5
 70
     1
102
RTVSPropertyOp6
 70
     1
102
RTVSPropertyOp7
 70
     1
102
RTVSPropertyOp8
 70
     1
102
RTVSPropertyOp9
 70
     1
102
RTVSPropertyOp10
 70
     1
102
RTVSPropertyOp11
 70
     1
102
RTVSPropertyOp12
 70
     1
102
RTVSPropertyOp13
 70
     1
102
RTVSPropertyOp14
 70
     1
102
RTVSPropertyOp15
 70
     1
102
RTVSPropertyOp16
 70
     1
102
RTVSPropertyOp17
 70
     1
102
RTVSPropertyOp18
 70
     1
102
RTVSPropertyOp19
 70
     1
102
RTVSPropertyOp20
 70
     1
102
RTVSPropertyOp21
 70
     1
102
RTVSPropertyOp22
 70
     1
102
RTVSPropertyOp23
 70
     1
102
RTVSPropertyOp24
 70
     1
102
RTVSPropertyOp25
 70
     1
102
RTVSPropertyOp26
 70
     1
102
RTVSPropertyOp27
 70
     1
102
RTVSPropertyOp28
 70
     1
102
RTVSPropertyOp29
 70
     1
102
RTVSPropertyOp30
 70
     1
102
RTVSPropertyOp31
 70
     1
102
RTVSPropertyOp32
 70
     1
  0
ENDSEC
  0
EOF
