  0
SECTION
  2
HEADER
  9
$ACADVER
  1
AC1021
  9
$ACADMAINTVER
 70
    25
  9
$DWGCODEPAGE
  3
UNDEFINED
  9
$INSBASE
 10
0.0
 20
0.0
 30
0.0
  9
$EXTMIN
 10
1.000000000000000E+20
 20
1.000000000000000E+20
 30
1.000000000000000E+20
  9
$EXTMAX
 10
-1.000000000000000E+20
 20
-1.000000000000000E+20
 30
-1.000000000000000E+20
  9
$LIMMIN
 10
0.0
 20
0.0
  9
$LIMMAX
 10
12.0
 20
9.0
  9
$ORTHOMODE
 70
     0
  9
$REGENMODE
 70
     1
  9
$FILLMODE
 70
     1
  9
$QTEXTMODE
 70
     0
  9
$MIRRTEXT
 70
     1
  9
$LTSCALE
 40
1.0
  9
$ATTMODE
 70
     1
  9
$TEXTSIZE
 40
0.2
  9
$TRACEWID
 40
0.05
  9
$TEXTSTYLE
  7
Standard
  9
$CLAYER
  8
0
  9
$CELTYPE
  6
ByLayer
  9
$CECOLOR
 62
   256
  9
$CELTSCALE
 40
1.0
  9
$DISPSILH
 70
     0
  9
$DIMSCALE
 40
1.0
  9
$DIMASZ
 40
0.18
  9
$DIMEXO
 40
0.0625
  9
$DIMDLI
 40
0.38
  9
$DIMRND
 40
0.0
  9
$DIMDLE
 40
0.0
  9
$DIMEXE
 40
0.18
  9
$DIMTP
 40
0.0
  9
$DIMTM
 40
0.0
  9
$DIMTXT
 40
0.18
  9
$DIMCEN
 40
0.09
  9
$DIMTSZ
 40
0.0
  9
$DIMTOL
 70
     0
  9
$DIMLIM
 70
     0
  9
$DIMTIH
 70
     1
  9
$DIMTOH
 70
     1
  9
$DIMSE1
 70
     0
  9
$DIMSE2
 70
     0
  9
$DIMTAD
 70
     0
  9
$DIMZIN
 70
     0
  9
$DIMBLK
  1

  9
$DIMASO
 70
     1
  9
$DIMSHO
 70
     1
  9
$DIMPOST
  1

  9
$DIMAPOST
  1

  9
$DIMALT
 70
     0
  9
$DIMALTD
 70
     2
  9
$DIMALTF
 40
25.4
  9
$DIMLFAC
 40
1.0
  9
$DIMTOFL
 70
     0
  9
$DIMTVP
 40
0.0
  9
$DIMTIX
 70
     0
  9
$DIMSOXD
 70
     0
  9
$DIMSAH
 70
     0
  9
$DIMBLK1
  1

  9
$DIMBLK2
  1

  9
$DIMSTYLE
  2
Standard
  9
$DIMCLRD
 70
     0
  9
$DIMCLRE
 70
     0
  9
$DIMCLRT
 70
     0
  9
$DIMTFAC
 40
1.0
  9
$DIMGAP
 40
0.09
  9
$DIMJUST
 70
     0
  9
$DIMSD1
 70
     0
  9
$DIMSD2
 70
     0
  9
$DIMTOLJ
 70
     1
  9
$DIMTZIN
 70
     0
  9
$DIMALTZ
 70
     0
  9
$DIMALTTZ
 70
     0
  9
$DIMUPT
 70
     0
  9
$DIMDEC
 70
     4
  9
$DIMTDEC
 70
     4
  9
$DIMALTU
 70
     2
  9
$DIMALTTD
 70
     2
  9
$DIMTXSTY
  7
Standard
  9
$DIMAUNIT
 70
     0
  9
$DIMADEC
 70
     0
  9
$DIMALTRND
 40
0.0
  9
$DIMAZIN
 70
     0
  9
$DIMDSEP
 70
    46
  9
$DIMATFIT
 70
     3
  9
$DIMFRAC
 70
     0
  9
$DIMLDRBLK
  1

  9
$DIMLUNIT
 70
     2
  9
$DIMLWD
 70
    -2
  9
$DIMLWE
 70
    -2
  9
$DIMTMOVE
 70
     0
  9
$DIMFXL
 40
1.0
  9
$DIMFXLON
 70
     0
  9
$DIMJOGANG
 40
0.7853981633974483
  9
$DIMTFILL
 70
     0
  9
$DIMTFILLCLR
 70
     0
  9
$DIMARCSYM
 70
     0
  9
$DIMLTYPE
  6

  9
$DIMLTEX1
  6

  9
$DIMLTEX2
  6

  9
$LUNITS
 70
     2
  9
$LUPREC
 70
     4
  9
$SKETCHINC
 40
0.1
  9
$FILLETRAD
 40
0.5
  9
$AUNITS
 70
     0
  9
$AUPREC
 70
     0
  9
$MENU
  1
.
  9
$ELEVATION
 40
0.0
  9
$PELEVATION
 40
0.0
  9
$THICKNESS
 40
0.0
  9
$LIMCHECK
 70
     0
  9
$CHAMFERA
 40
0.5
  9
$CHAMFERB
 40
0.5
  9
$CHAMFERC
 40
1.0
  9
$CHAMFERD
 40
0.0
  9
$SKPOLY
 70
     0
  9
$TDCREATE
 40
2460056.463807859
  9
$TDUCREATE
 40
2460056.422141204
  9
$TDUPDATE
 40
2460056.463807859
  9
$TDUUPDATE
 40
2460056.422141204
  9
$TDINDWG
 40
0.0000000116
  9
$TDUSRTIMER
 40
0.0000000116
  9
$USRTIMER
 70
     1
  9
$ANGBASE
 50
0.0
  9
$ANGDIR
 70
     0
  9
$PDMODE
 70
     0
  9
$PDSIZE
 40
0.0
  9
$PLINEWID
 40
0.0
  9
$SPLFRAME
 70
     0
  9
$SPLINETYPE
 70
     6
  9
$SPLINESEGS
 70
     8
  9
$HANDSEED
  5
265
  9
$SURFTAB1
 70
     6
  9
$SURFTAB2
 70
     6
  9
$SURFTYPE
 70
     6
  9
$SURFU
 70
     6
  9
$SURFV
 70
     6
  9
$UCSBASE
  2

  9
$UCSNAME
  2

  9
$UCSORG
 10
0.0
 20
0.0
 30
0.0
  9
$UCSXDIR
 10
1.0
 20
0.0
 30
0.0
  9
$UCSYDIR
 10
0.0
 20
1.0
 30
0.0
  9
$UCSORTHOREF
  2

  9
$UCSORTHOVIEW
 70
     0
  9
$UCSORGTOP
 10
0.0
 20
0.0
 30
0.0
  9
$UCSORGBOTTOM
 10
0.0
 20
0.0
 30
0.0
  9
$UCSORGLEFT
 10
0.0
 20
0.0
 30
0.0
  9
$UCSORGRIGHT
 10
0.0
 20
0.0
 30
0.0
  9
$UCSORGFRONT
 10
0.0
 20
0.0
 30
0.0
  9
$UCSORGBACK
 10
0.0
 20
0.0
 30
0.0
  9
$PUCSBASE
  2

  9
$PUCSNAME
  2

  9
$PUCSORG
 10
0.0
 20
0.0
 30
0.0
  9
$PUCSXDIR
 10
1.0
 20
0.0
 30
0.0
  9
$PUCSYDIR
 10
0.0
 20
1.0
 30
0.0
  9
$PUCSORTHOREF
  2

  9
$PUCSORTHOVIEW
 70
     0
  9
$PUCSORGTOP
 10
0.0
 20
0.0
 30
0.0
  9
$PUCSORGBOTTOM
 10
0.0
 20
0.0
 30
0.0
  9
$PUCSORGLEFT
 10
0.0
 20
0.0
 30
0.0
  9
$PUCSORGRIGHT
 10
0.0
 20
0.0
 30
0.0
  9
$PUCSORGFRONT
 10
0.0
 20
0.0
 30
0.0
  9
$PUCSORGBACK
 10
0.0
 20
0.0
 30
0.0
  9
$USERI1
 70
     0
  9
$USERI2
 70
     0
  9
$USERI3
 70
     0
  9
$USERI4
 70
     0
  9
$USERI5
 70
     0
  9
$USERR1
 40
0.0
  9
$USERR2
 40
0.0
  9
$USERR3
 40
0.0
  9
$USERR4
 40
0.0
  9
$USERR5
 40
0.0
  9
$WORLDVIEW
 70
     1
  9
$SHADEDGE
 70
     3
  9
$SHADEDIF
 70
    70
  9
$TILEMODE
 70
     1
  9
$MAXACTVP
 70
    64
  9
$PINSBASE
 10
0.0
 20
0.0
 30
0.0
  9
$PLIMCHECK
 70
     0
  9
$PEXTMIN
 10
1.000000000000000E+20
 20
1.000000000000000E+20
 30
1.000000000000000E+20
  9
$PEXTMAX
 10
-1.000000000000000E+20
 20
-1.000000000000000E+20
 30
-1.000000000000000E+20
  9
$PLIMMIN
 10
0.0
 20
0.0
  9
$PLIMMAX
 10
12.0
 20
9.0
  9
$UNITMODE
 70
     0
  9
$VISRETAIN
 70
     1
  9
$PLINEGEN
 70
     0
  9
$PSLTSCALE
 70
     1
  9
$TREEDEPTH
 70
  3020
  9
$CMLSTYLE
  2
Standard
  9
$CMLJUST
 70
     0
  9
$CMLSCALE
 40
1.0
  9
$PROXYGRAPHICS
 70
     1
  9
$MEASUREMENT
 70
     0
  9
$CELWEIGHT
370
    -1
  9
$ENDCAPS
280
     0
  9
$JOINSTYLE
280
     0
  9
$LWDISPLAY
290
     1
  9
$INSUNITS
 70
     1
  9
$HYPERLINKBASE
  1

  9
$STYLESHEET
  1

  9
$XEDIT
290
     1
  9
$CEPSNTYPE
380
     0
  9
$PSTYLEMODE
290
     1
  9
$FINGERPRINTGUID
  2
{3A5E0A0E-CF39-D7B0-4AC4-641FB2F2DAEE}
  9
$VERSIONGUID
  2
{FAEB1C32-E019-11D5-929B-00C0DF256EC4}
  9
$EXTNAMES
290
     1
  9
$PSVPSCALE
 40
0.0
  9
$OLESTARTUP
290
     0
  9
$SORTENTS
280
   127
  9
$INDEXCTL
280
     0
  9
$HIDETEXT
280
     1
  9
$XCLIPFRAME
290
     0
  9
$HALOGAP
280
     0
  9
$OBSCOLOR
 70
   257
  9
$OBSLTYPE
280
     0
  9
$INTERSECTIONDISPLAY
280
     0
  9
$INTERSECTIONCOLOR
 70
   257
  9
$DIMASSOC
280
     2
  9
$PROJECTNAME
  1

  9
$CAMERADISPLAY
290
     0
  9
$LENSLENGTH
 40
50.0
  9
$CAMERAHEIGHT
 40
0.0
  9
$STEPSPERSEC
 40
2.0
  9
$STEPSIZE
 40
6.0
  9
$3DDWFPREC
 40
2.0
  9
$PSOLWIDTH
 40
0.25
  9
$PSOLHEIGHT
 40
4.0
  9
$LOFTANG1
 40
1.570796326794897
  9
$LOFTANG2
 40
1.570796326794897
  9
$LOFTMAG1
 40
0.0
  9
$LOFTMAG2
 40
0.0
  9
$LOFTPARAM
 70
     7
  9
$LOFTNORMALS
280
     1
  9
$LATITUDE
 40
37.795
  9
$LONGITUDE
 40
-122.394
  9
$NORTHDIRECTION
 40
0.0
  9
$TIMEZONE
 70
 -8000
  9
$LIGHTGLYPHDISPLAY
280
     1
  9
$TILEMODELIGHTSYNCH
280
     1
  9
$CMATERIAL
347
3C
  9
$SOLIDHIST
280
     1
  9
$SHOWHIST
280
     1
  9
$DWFFRAME
280
     2
  9
$DGNFRAME
280
     2
  9
$REALWORLDSCALE
290
     1
  9
$INTERFERECOLOR
 62
   256
  9
$CSHADOW
280
     0
  9
$SHADOWPLANELOCATION
 40
0.0
  0
ENDSEC
  0
SECTION
  2
CLASSES
  0
CLASS
  1
ACDBDICTIONARYWDFLT
  2
AcDbDictionaryWithDefault
  3
ObjectDBX Classes
 90
        0
 91
        4
280
     0
281
     0
  0
CLASS
  1
VISUALSTYLE
  2
AcDbVisualStyle
  3
ObjectDBX Classes
 90
     4095
 91
        4
280
     0
281
     0
  0
CLASS
  1
MATERIAL
  2
AcDbMaterial
  3
ObjectDBX Classes
 90
     1153
 91
        4
280
     0
281
     0
  0
CLASS
  1
SUN
  2
AcDbSun
  3
SCENEOE
 90
     1024
 91
        4
280
     0
281
     0
  0
ENDSEC
  0
SECTION
  2
TABLES
  0
TABLE
  2
VPORT
  5
8
330
0
100
AcDbSymbolTable
 70
     1
  0
VPORT
  5
29
330
8
100
AcDbSymbolTableRecord
100
AcDbViewportTableRecord
  2
*Active
 70
     0
 10
0.0
 20
0.0
 11
1.0
 21
1.0
 12
0.0
 22
0.0
 13
0.0
 23
0.0
 14
0.5
 24
0.5
 15
0.5
 25
0.5
 16
0.0
 26
0.0
 36
1.0
 17
105.0007777515277
 27
-148.5000416295416
 37
0.0
 40
297.0000832590831
 41
0.7070757462376333
 42
50.0
 43
0.0
 44
0.0
 50
0.0
 51
0.0
 71
     0
 72
   100
 73
     1
 74
     3
 75
     0
 76
     0
 77
     0
 78
     0
281
     0
 65
     1
110
0.0
120
0.0
130
0.0
111
1.0
121
0.0
131
0.0
112
0.0
122
1.0
132
0.0
 79
     0
146
0.0
 60
     3
 61
     5
292
     1
282
     1
141
0.0
142
0.0
 63
   250
361
3F
  0
ENDTAB
  0
TABLE
  2
LTYPE
  5
5
330
0
100
AcDbSymbolTable
 70
     1
  0
LTYPE
  5
14
330
5
100
AcDbSymbolTableRecord
100
AcDbLinetypeTableRecord
  2
ByBlock
 70
     0
  3

 72
    65
 73
     0
 40
0.0
  0
LTYPE
  5
15
330
5
100
AcDbSymbolTableRecord
100
AcDbLinetypeTableRecord
  2
ByLayer
 70
     0
  3

 72
    65
 73
     0
 40
0.0
  0
LTYPE
  5
16
330
5
100
AcDbSymbolTableRecord
100
AcDbLinetypeTableRecord
  2
Continuous
 70
     0
  3
Solid line
 72
    65
 73
     0
 40
0.0
  0
ENDTAB
  0
TABLE
  2
LAYER
  5
2
330
0
100
AcDbSymbolTable
 70
     1
  0
LAYER
  5
10
330
2
100
AcDbSymbolTableRecord
100
AcDbLayerTableRecord
  2
0
 70
     0
 62
     7
  6
Continuous
370
    -3
390
F
347
3E
  0
ENDTAB
  0
TABLE
  2
STYLE
  5
3
330
0
100
AcDbSymbolTable
 70
     1
  0
STYLE
  5
11
330
3
100
AcDbSymbolTableRecord
100
AcDbTextStyleTableRecord
  2
Standard
 70
     0
 40
0.0
 41
1.0
 50
0.0
 71
     0
 42
0.2
  3
txt
  4

  0
ENDTAB
  0
TABLE
  2
VIEW
  5
6
330
0
100
AcDbSymbolTable
 70
     0
  0
ENDTAB
  0
TABLE
  2
UCS
  5
7
330
0
100
AcDbSymbolTable
 70
     0
  0
ENDTAB
  0
TABLE
  2
APPID
  5
9
330
0
100
AcDbSymbolTable
 70
     1
  0
APPID
  5
12
330
9
100
AcDbSymbolTableRecord
100
AcDbRegAppTableRecord
  2
ACAD
 70
     0
  0
ENDTAB
  0
TABLE
  2
DIMSTYLE
  5
A
330
0
100
AcDbSymbolTable
 70
     1
100
AcDbDimStyleTable
  0
DIMSTYLE
105
27
330
A
100
AcDbSymbolTableRecord
100
AcDbDimStyleTableRecord
  2
Standard
 70
     0
178
     0
340
11
  0
ENDTAB
  0
TABLE
  2
BLOCK_RECORD
  5
1
330
0
100
AcDbSymbolTable
 70
     1
  0
BLOCK_RECORD
  5
1F
330
1
100
AcDbSymbolTableRecord
100
AcDbBlockTableRecord
  2
*Model_Space
340
22
 70
     0
280
     1
281
     0
  0
BLOCK_RECORD
  5
1B
330
1
100
AcDbSymbolTableRecord
100
AcDbBlockTableRecord
  2
*Paper_Space
340
1E
 70
     0
280
     1
281
     0
  0
BLOCK_RECORD
  5
23
330
1
100
AcDbSymbolTableRecord
100
AcDbBlockTableRecord
  2
*Paper_Space0
340
26
 70
     0
280
     1
281
     0
  0
ENDTAB
  0
ENDSEC
  0
SECTION
  2
BLOCKS
  0
BLOCK
  5
20
330
1F
100
AcDbEntity
  8
0
100
AcDbBlockBegin
  2
*Model_Space
 70
     0
 10
0.0
 20
0.0
 30
0.0
  3
*Model_Space
  1

  0
ENDBLK
  5
21
330
1F
100
AcDbEntity
  8
0
100
AcDbBlockEnd
  0
BLOCK
  5
1C
330
1B
100
AcDbEntity
 67
     1
  8
0
100
AcDbBlockBegin
  2
*Paper_Space
 70
     0
 10
0.0
 20
0.0
 30
0.0
  3
*Paper_Space
  1

  0
ENDBLK
  5
1D
330
1B
100
AcDbEntity
 67
     1
  8
0
100
AcDbBlockEnd
  0
BLOCK
  5
24
330
23
100
AcDbEntity
  8
0
100
AcDbBlockBegin
  2
*Paper_Space0
 70
     0
 10
0.0
 20
0.0
 30
0.0
  3
*Paper_Space0
  1

  0
ENDBLK
  5
25
330
23
100
AcDbEntity
  8
0
100
AcDbBlockEnd
  0
ENDSEC
  0
SECTION
  2
ENTITIES
  0
SPLINE
  5
40
330
1F
100
AcDbEntity
  8
0
 62
   250
370
    25
100
AcDbSpline
210
0.0
220
0.0
230
1.0
 70
     8
 71
     3
 72
     8
 73
     4
 74
     0
 42
0.0000000001
 43
0.0000000001
 12
1.0
 22
0.0
 32
0.0
 13
1.0
 23
0.0
 33
0.0
 40
0.0
 40
0.0
 40
0.0
 40
0.0
 40
1.0
 40
1.0
 40
1.0
 40
1.0
 10
25.2505986047985
 20
-146.2497074634376
 30
0.0
 10
25.60962054915299
 20
-146.3854563522925
 30
0.0
 10
25.96867777128564
 20
-146.5210288522585
 30
0.0
 10
26.32780554897364
 20
-146.6564955188913
 30
0.0
  0
POLYLINE
  5
41
330
1F
100
AcDbEntity
  8
0
 62
   250
370
    25
100
AcDb2dPolyline
 66
     1
 10
0.0
 20
0.0
 30
0.0
  0
VERTEX
  5
42
330
41
100
AcDbEntity
  8
0
 62
   250
370
    25
100
AcDbVertex
100
AcDb2dVertex
 10
104.6095824738477
 20
-149.2291274626924
 30
0.0
  0
VERTEX
  5
43
330
41
100
AcDbEntity
  8
0
 62
   250
370
    25
100
AcDbVertex
100
AcDb2dVertex
 10
105.1180763626093
 20
-149.2291274626924
 30
0.0
  0
SEQEND
  5
44
330
41
100
AcDbEntity
  8
0
 62
   250
370
    25
  0
SPLINE
  5
45
330
1F
100
AcDbEntity
  8
0
 62
   250
370
    25
100
AcDbSpline
210
0.0
220
0.0
230
1.0
 70
    24
 71
     3
 72
     8
 73
     4
 74
     0
 42
0.0000000001
 43
0.0000000001
 12
1.0
 22
0.0
 32
0.0
 13
1.0
 23
0.0
 33
0.0
 40
0.0
 40
0.0
 40
0.0
 40
0.0
 40
1.0
 40
1.0
 40
1.0
 40
1.0
 10
117.1233158040525
 20
-146.7204541299865
 30
0.0
 10
117.1087108040561
 20
-147.5566785742218
 30
0.0
 10
117.0941058040597
 20
-148.3929030184574
 30
0.0
 10
117.0795008040634
 20
-149.2291274626924
 30
0.0
  0
SPLINE
  5
46
330
1F
100
AcDbEntity
  8
0
 62
   250
370
    25
100
AcDbSpline
210
0.0
220
0.0
230
1.0
 70
     8
 71
     3
 72
     8
 73
     4
 74
     0
 42
0.0000000001
 43
0.0000000001
 12
1.0
 22
0.0
 32
0.0
 13
1.0
 23
0.0
 33
0.0
 40
0.0
 40
0.0
 40
0.0
 40
0.0
 40
1.0
 40
1.0
 40
1.0
 40
1.0
 10
118.8595821925076
 20
-149.2291274626924
 30
0.0
 10
118.8449771925112
 20
-148.3929030184574
 30
0.0
 10
118.8303721925148
 20
-147.5566785742218
 30
0.0
 10
118.815802470296
 20
-146.7204541299865
 30
0.0
  0
POLYLINE
  5
47
330
1F
100
AcDbEntity
  8
0
 62
   250
370
    25
100
AcDb2dPolyline
 66
     1
 10
0.0
 20
0.0
 30
0.0
  0
VERTEX
  5
48
330
47
100
AcDbEntity
  8
0
 62
   250
370
    25
100
AcDbVertex
100
AcDb2dVertex
 10
25.1698124937075
 20
-153.3291460727787
 30
0.0
  0
VERTEX
  5
49
330
47
100
AcDbEntity
  8
0
 62
   250
370
    25
100
AcDbVertex
100
AcDb2dVertex
 10
25.17506888259512
 20
-152.7247671840408
 30
0.0
  0
SEQEND
  5
4A
330
47
100
AcDbEntity
  8
0
 62
   250
370
    25
  0
SPLINE
  5
4B
330
1F
100
AcDbEntity
  8
0
 62
   250
370
    25
100
AcDbSpline
210
0.0
220
0.0
230
1.0
 70
     8
 71
     3
 72
     8
 73
     4
 74
     0
 42
0.0000000001
 43
0.0000000001
 12
1.0
 22
0.0
 32
0.0
 13
1.0
 23
0.0
 33
0.0
 40
0.0
 40
0.0
 40
0.0
 40
0.0
 40
1.0
 40
1.0
 40
1.0
 40
1.0
 10
102.6472913632269
 20
-146.24445107455
 30
0.0
 10
102.2810374744299
 20
-146.3817874634045
 30
0.0
 10
101.9147483078547
 20
-146.5191591300368
 30
0.0
 10
101.5484591412796
 20
-146.6564955188913
 30
0.0
  0
SPLINE
  5
4C
330
1F
100
AcDbEntity
  8
0
 62
   250
370
    25
100
AcDbSpline
210
0.0
220
0.0
230
1.0
 70
     8
 71
     3
 72
    17
 73
    13
 74
     0
 42
0.0000000001
 43
0.0000000001
 12
1.0
 22
0.0
 32
0.0
 13
1.0
 23
0.0
 33
0.0
 40
0.0
 40
0.0
 40
0.0
 40
0.0
 40
1.0
 40
1.0
 40
1.0
 40
2.0
 40
2.0
 40
2.0
 40
3.0
 40
3.0
 40
3.0
 40
4.0
 40
4.0
 40
4.0
 40
4.0
 10
102.6881077521057
 20
-151.2291305177484
 30
0.0
 10
102.6946694187708
 20
-150.4784194068248
 30
0.0
 10
102.7012310854359
 20
-149.7276730181236
 30
0.0
 10
102.7077927521008
 20
-148.9769266294225
 30
0.0
 10
102.7110735854332
 20
-148.6014299628496
 30
0.0
 10
102.7143191409881
 20
-148.2259332962767
 30
0.0
 10
102.7175999743205
 20
-147.8504013519264
 30
0.0
 10
102.7192580298758
 20
-147.6628646853065
 30
0.0
 10
102.7208808076529
 20
-147.4753280186866
 30
0.0
 10
102.7225035854303
 20
-147.287791352067
 30
0.0
 10
102.7241616409856
 20
-147.1001135743361
 30
0.0
 10
102.7307233076508
 20
-146.3494377411903
 30
0.0
 10
102.7274424743184
 20
-146.7247580188743
 30
0.0
  0
POLYLINE
  5
4D
330
1F
100
AcDbEntity
  8
0
 62
   250
370
    25
100
AcDb2dPolyline
 66
     1
 10
0.0
 20
0.0
 30
0.0
  0
VERTEX
  5
4E
330
4D
100
AcDbEntity
  8
0
 62
   250
370
    25
100
AcDbVertex
100
AcDb2dVertex
 10
23.64457777186643
 20
-151.2291305177484
 30
0.0
  0
VERTEX
  5
4F
330
4D
100
AcDbEntity
  8
0
 62
   250
370
    25
100
AcDbVertex
100
AcDb2dVertex
 10
23.14447999421408
 20
-151.2291305177484
 30
0.0
  0
SEQEND
  5
50
330
4D
100
AcDbEntity
  8
0
 62
   250
370
    25
  0
POLYLINE
  5
51
330
1F
100
AcDbEntity
  8
0
 62
   250
370
    25
100
AcDb2dPolyline
 66
     1
 10
0.0
 20
0.0
 30
0.0
  0
VERTEX
  5
52
330
51
100
AcDbEntity
  8
0
 62
   250
370
    25
100
AcDbVertex
100
AcDb2dVertex
 10
23.18113360531606
 20
-153.3291460727787
 30
0.0
  0
VERTEX
  5
53
330
51
100
AcDbEntity
  8
0
 62
   250
370
    25
100
AcDbVertex
100
AcDb2dVertex
 10
23.14447999421408
 20
-151.2291305177484
 30
0.0
  0
SEQEND
  5
54
330
51
100
AcDbEntity
  8
0
 62
   250
370
    25
  0
SPLINE
  5
55
330
1F
100
AcDbEntity
  8
0
 62
   250
370
    25
100
AcDbSpline
210
0.0
220
0.0
230
1.0
 70
     8
 71
     3
 72
     8
 73
     4
 74
     0
 42
0.0000000001
 43
0.0000000001
 12
1.0
 22
0.0
 32
0.0
 13
1.0
 23
0.0
 33
0.0
 40
0.0
 40
0.0
 40
0.0
 40
0.0
 40
1.0
 40
1.0
 40
1.0
 40
1.0
 10
25.2505986047985
 20
-146.2497074634376
 30
0.0
 10
25.23049027147027
 20
-146.2402177412178
 30
0.0
 10
25.2099586048086
 20
-146.2334796856638
 30
0.0
 10
25.18812166036972
 20
-146.2291405189984
 30
0.0
  0
SPLINE
  5
56
330
1F
100
AcDbEntity
  8
0
 62
   250
370
    25
100
AcDbSpline
210
0.0
220
0.0
230
1.0
 70
     8
 71
     3
 72
     8
 73
     4
 74
     0
 42
0.0000000001
 43
0.0000000001
 12
1.0
 22
0.0
 32
0.0
 13
1.0
 23
0.0
 33
0.0
 40
0.0
 40
0.0
 40
0.0
 40
0.0
 40
1.0
 40
1.0
 40
1.0
 40
1.0
 10
24.64883027161539
 20
-146.2291405189984
 30
0.0
 10
24.92329138265798
 20
-146.2291405189984
 30
0.0
 10
25.14642332704653
 20
-146.4503321856096
 30
0.0
 10
25.14882221593518
 20
-146.7247580188743
 30
0.0
  0
SPLINE
  5
57
330
1F
100
AcDbEntity
  8
0
 62
   250
370
    25
100
AcDbSpline
210
0.0
220
0.0
230
1.0
 70
     8
 71
     3
 72
     8
 73
     4
 74
     0
 42
0.0000000001
 43
0.0000000001
 12
1.0
 22
0.0
 32
0.0
 13
1.0
 23
0.0
 33
0.0
 40
0.0
 40
0.0
 40
0.0
 40
0.0
 40
1.0
 40
1.0
 40
1.0
 40
1.0
 10
23.81038332738095
 20
-146.2291405189984
 30
0.0
 10
23.53765082744901
 20
-146.2291405189984
 30
0.0
 10
23.31522443861565
 20
-146.4477216300548
 30
0.0
 10
23.31046193861684
 20
-146.720418852209
 30
0.0
  0
SPLINE
  5
58
330
1F
100
AcDbEntity
  8
0
 62
   250
370
    25
100
AcDbSpline
210
0.0
220
0.0
230
1.0
 70
     8
 71
     3
 72
    17
 73
    13
 74
     0
 42
0.0000000001
 43
0.0000000001
 12
1.0
 22
0.0
 32
0.0
 13
1.0
 23
0.0
 33
0.0
 40
0.0
 40
0.0
 40
0.0
 40
0.0
 40
1.0
 40
1.0
 40
1.0
 40
2.0
 40
2.0
 40
2.0
 40
3.0
 40
3.0
 40
3.0
 40
4.0
 40
4.0
 40
4.0
 40
4.0
 10
23.23175721641424
 20
-151.2291305177484
 30
0.0
 10
23.2448805497442
 20
-150.4776785734918
 30
0.0
 10
23.25800388307449
 20
-149.7262266292351
 30
0.0
 10
23.27112721640446
 20
-148.9747394072009
 30
0.0
 10
23.2776888830696
 20
-148.5988899628502
 30
0.0
 10
23.28425054973442
 20
-148.2230405184996
 30
0.0
 10
23.29077693862173
 20
-147.8471910741493
 30
0.0
 10
23.29405777195414
 20
-147.659442740863
 30
0.0
 10
23.29733860528655
 20
-147.4717296853543
 30
0.0
 10
23.30061943861928
 20
-147.283981352068
 30
0.0
 10
23.30390027195202
 20
-147.0961271854482
 30
0.0
 10
23.31702360528166
 20
-146.3447105189694
 30
0.0
 10
23.31046193861684
 20
-146.720418852209
 30
0.0
  0
SPLINE
  5
59
330
1F
100
AcDbEntity
  8
0
 62
   250
370
    25
100
AcDbSpline
210
0.0
220
0.0
230
1.0
 70
     8
 71
     3
 72
     8
 73
     4
 74
     0
 42
0.0000000001
 43
0.0000000001
 12
1.0
 22
0.0
 32
0.0
 13
1.0
 23
0.0
 33
0.0
 40
0.0
 40
0.0
 40
0.0
 40
0.0
 40
1.0
 40
1.0
 40
1.0
 40
1.0
 10
103.22739914086
 20
-146.2291405189984
 30
0.0
 10
102.9529733075949
 20
-146.2291405189984
 30
0.0
 10
102.7298413632064
 20
-146.4503321856096
 30
0.0
 10
102.7274424743184
 20
-146.7247580188743
 30
0.0
  0
SPLINE
  5
5A
330
1F
100
AcDbEntity
  8
0
 62
   250
370
    25
100
AcDbSpline
210
0.0
220
0.0
230
1.0
 70
     8
 71
     3
 72
     8
 73
     4
 74
     0
 42
0.0000000001
 43
0.0000000001
 12
1.0
 22
0.0
 32
0.0
 13
1.0
 23
0.0
 33
0.0
 40
0.0
 40
0.0
 40
0.0
 40
0.0
 40
1.0
 40
1.0
 40
1.0
 40
1.0
 10
96.59602358696233
 20
-150.3253138513071
 30
0.0
 10
96.5993749758501
 20
-149.9430438514034
 30
0.0
 10
96.60272636473819
 20
-149.5607738514983
 30
0.0
 10
96.60600719807093
 20
-149.1785038515945
 30
0.0
  0
SPLINE
  5
5B
330
1F
100
AcDbEntity
  8
0
 62
   250
370
    25
100
AcDbSpline
210
0.0
220
0.0
230
1.0
 70
     8
 71
     3
 72
     8
 73
     4
 74
     0
 42
0.0000000001
 43
0.0000000001
 12
1.0
 22
0.0
 32
0.0
 13
1.0
 23
0.0
 33
0.0
 40
0.0
 40
0.0
 40
0.0
 40
0.0
 40
1.0
 40
1.0
 40
1.0
 40
1.0
 10
104.5658027516364
 20
-146.720418852209
 30
0.0
 10
104.5610402516376
 20
-146.4477216300548
 30
0.0
 10
104.3386138628042
 20
-146.2291405189984
 30
0.0
 10
104.0658460850944
 20
-146.2291405189984
 30
0.0
  0
POLYLINE
  5
5C
330
1F
100
AcDbEntity
  8
0
 62
   250
370
    25
100
AcDb2dPolyline
 66
     1
 10
0.0
 20
0.0
 30
0.0
  0
VERTEX
  5
5D
330
5C
100
AcDbEntity
  8
0
 62
   250
370
    25
100
AcDbVertex
100
AcDb2dVertex
 10
25.62948193803698
 20
-150.2291466291095
 30
0.0
  0
VERTEX
  5
5E
330
5C
100
AcDbEntity
  8
0
 62
   250
370
    25
100
AcDbVertex
100
AcDb2dVertex
 10
25.73051749356759
 20
-150.2291466291095
 30
0.0
  0
SEQEND
  5
5F
330
5C
100
AcDbEntity
  8
0
 62
   250
370
    25
  0
POLYLINE
  5
60
330
1F
100
AcDbEntity
  8
0
 62
   250
370
    25
100
AcDb2dPolyline
 66
     1
 10
0.0
 20
0.0
 30
0.0
  0
VERTEX
  5
61
330
60
100
AcDbEntity
  8
0
 62
   250
370
    25
100
AcDbVertex
100
AcDb2dVertex
 10
104.6444721960611
 20
-151.2291305177484
 30
0.0
  0
VERTEX
  5
62
330
60
100
AcDbEntity
  8
0
 62
   250
370
    25
100
AcDbVertex
100
AcDb2dVertex
 10
104.5658027516364
 20
-146.720418852209
 30
0.0
  0
SEQEND
  5
63
330
60
100
AcDbEntity
  8
0
 62
   250
370
    25
  0
SPLINE
  5
64
330
1F
100
AcDbEntity
  8
0
 62
   250
370
    25
100
AcDbSpline
210
0.0
220
0.0
230
1.0
 70
     8
 71
     3
 72
     8
 73
     4
 74
     0
 42
0.0000000001
 43
0.0000000001
 12
1.0
 22
0.0
 32
0.0
 13
1.0
 23
0.0
 33
0.0
 40
0.0
 40
0.0
 40
0.0
 40
0.0
 40
1.0
 40
1.0
 40
1.0
 40
1.0
 10
102.6472913632269
 20
-146.24445107455
 30
0.0
 10
102.660908585446
 20
-146.2393357967737
 30
0.0
 10
102.6954102521042
 20
-146.257115796769
 30
0.0
 10
102.6881077521057
 20
-146.2291405189984
 30
0.0
  0
POLYLINE
  5
65
330
1F
100
AcDbEntity
  8
0
 62
   250
370
    25
100
AcDb2dPolyline
 66
     1
 10
0.0
 20
0.0
 30
0.0
  0
VERTEX
  5
66
330
65
100
AcDbEntity
  8
0
 62
   250
370
    25
100
AcDbVertex
100
AcDb2dVertex
 10
96.59602358696233
 20
-152.1329824619667
 30
0.0
  0
VERTEX
  5
67
330
65
100
AcDbEntity
  8
0
 62
   250
370
    25
100
AcDbVertex
100
AcDb2dVertex
 10
96.58812136474181
 20
-151.2298713510815
 30
0.0
  0
SEQEND
  5
68
330
65
100
AcDbEntity
  8
0
 62
   250
370
    25
  0
SPLINE
  5
69
330
1F
100
AcDbEntity
  8
0
 62
   250
370
    25
100
AcDbSpline
210
0.0
220
0.0
230
1.0
 70
     8
 71
     3
 72
     8
 73
     4
 74
     0
 42
0.0000000001
 43
0.0000000001
 12
1.0
 22
0.0
 32
0.0
 13
1.0
 23
0.0
 33
0.0
 40
0.0
 40
0.0
 40
0.0
 40
0.0
 40
1.0
 40
1.0
 40
1.0
 40
1.0
 10
96.60604247584844
 20
-153.2816269061244
 30
0.0
 10
96.60269108696035
 20
-152.8987571839976
 30
0.0
 10
96.5993749758501
 20
-152.5158521840934
 30
0.0
 10
96.59602358696233
 20
-152.1329824619667
 30
0.0
  0
POLYLINE
  5
6A
330
1F
100
AcDbEntity
  8
0
 62
   250
370
    25
100
AcDb2dPolyline
 66
     1
 10
0.0
 20
0.0
 30
0.0
  0
VERTEX
  5
6B
330
6A
100
AcDbEntity
  8
0
 62
   250
370
    25
100
AcDbVertex
100
AcDb2dVertex
 10
25.77009916022421
 20
-152.2291496841649
 30
0.0
  0
VERTEX
  5
6C
330
6A
100
AcDbEntity
  8
0
 62
   250
370
    25
100
AcDbVertex
100
AcDb2dVertex
 10
25.62965832692586
 20
-152.2291496841649
 30
0.0
  0
SEQEND
  5
6D
330
6A
100
AcDbEntity
  8
0
 62
   250
370
    25
  0
SPLINE
  5
6E
330
1F
100
AcDbEntity
  8
0
 62
   250
370
    25
100
AcDbSpline
210
0.0
220
0.0
230
1.0
 70
     8
 71
     3
 72
     8
 73
     4
 74
     0
 42
0.0000000001
 43
0.0000000001
 12
1.0
 22
0.0
 32
0.0
 13
1.0
 23
0.0
 33
0.0
 40
0.0
 40
0.0
 40
0.0
 40
0.0
 40
1.0
 40
1.0
 40
1.0
 40
1.0
 10
25.99368971572373
 20
-152.1763388508448
 30
0.0
 10
25.92158193796411
 20
-152.2123221841694
 30
0.0
 10
25.8506736046485
 20
-152.2290791286092
 30
0.0
 10
25.77009916022421
 20
-152.2291496841649
 30
0.0
  0
SPLINE
  5
6F
330
1F
100
AcDbEntity
  8
0
 62
   250
370
    25
100
AcDbSpline
210
0.0
220
0.0
230
1.0
 70
     8
 71
     3
 72
     8
 73
     4
 74
     0
 42
0.0000000001
 43
0.0000000001
 12
1.0
 22
0.0
 32
0.0
 13
1.0
 23
0.0
 33
0.0
 40
0.0
 40
0.0
 40
0.0
 40
0.0
 40
1.0
 40
1.0
 40
1.0
 40
1.0
 10
188.6287960639538
 20
-141.3291277424456
 30
0.0
 10
188.9681513626437
 20
-141.3291277424456
 30
0.0
 10
189.1379955082709
 20
-141.6305410757037
 30
0.0
 10
189.1381366193823
 20
-141.8291196867648
 30
0.0
  0
POLYLINE
  5
70
330
1F
100
AcDbEntity
  8
0
 62
   250
370
    25
100
AcDb2dPolyline
 66
     1
 10
0.0
 20
0.0
 30
0.0
  0
VERTEX
  5
71
330
70
100
AcDbEntity
  8
0
 62
   250
370
    25
100
AcDbVertex
100
AcDb2dVertex
 10
26.61172110445818
 20
-151.8673407953662
 30
0.0
  0
VERTEX
  5
72
330
70
100
AcDbEntity
  8
0
 62
   250
370
    25
100
AcDbVertex
100
AcDb2dVertex
 10
25.99379554905693
 20
-152.1763035730673
 30
0.0
  0
SEQEND
  5
73
330
70
100
AcDbEntity
  8
0
 62
   250
370
    25
  0
POLYLINE
  5
74
330
1F
100
AcDbEntity
  8
0
 62
   250
370
    25
100
AcDb2dPolyline
 66
     1
 10
0.0
 20
0.0
 30
0.0
  0
VERTEX
  5
75
330
74
100
AcDbEntity
  8
0
 62
   250
370
    25
100
AcDbVertex
100
AcDb2dVertex
 10
26.88812249327813
 20
-151.1894782955362
 30
0.0
  0
VERTEX
  5
76
330
74
100
AcDbEntity
  8
0
 62
   250
370
    25
100
AcDbVertex
100
AcDb2dVertex
 10
26.88812249327813
 20
-151.4201244065896
 30
0.0
  0
SEQEND
  5
77
330
74
100
AcDbEntity
  8
0
 62
   250
370
    25
  0
POLYLINE
  5
78
330
1F
100
AcDbEntity
  8
0
 62
   250
370
    25
100
AcDb2dPolyline
 66
     1
 10
0.0
 20
0.0
 30
0.0
  0
VERTEX
  5
79
330
78
100
AcDbEntity
  8
0
 62
   250
370
    25
100
AcDbVertex
100
AcDb2dVertex
 10
26.67486832666465
 20
-150.7798327400828
 30
0.0
  0
VERTEX
  5
7A
330
78
100
AcDbEntity
  8
0
 62
   250
370
    25
100
AcDbVertex
100
AcDb2dVertex
 10
26.01725527127357
 20
-150.3195282957535
 30
0.0
  0
SEQEND
  5
7B
330
78
100
AcDbEntity
  8
0
 62
   250
370
    25
  0
POLYLINE
  5
7C
330
1F
100
AcDbEntity
  8
0
 62
   250
370
    25
100
AcDb2dPolyline
 66
     1
 10
0.0
 20
0.0
 30
0.0
  0
VERTEX
  5
7D
330
7C
100
AcDbEntity
  8
0
 62
   250
370
    25
100
AcDbVertex
100
AcDb2dVertex
 10
62.66303470655664
 20
-139.1548171874335
 30
0.0
  0
VERTEX
  5
7E
330
7C
100
AcDbEntity
  8
0
 62
   250
370
    25
100
AcDbVertex
100
AcDb2dVertex
 10
63.54441470633612
 20
-149.2291274626924
 30
0.0
  0
SEQEND
  5
7F
330
7C
100
AcDbEntity
  8
0
 62
   250
370
    25
  0
POLYLINE
  5
80
330
1F
100
AcDbEntity
  8
0
 62
   250
370
    25
100
AcDb2dPolyline
 66
     1
 10
0.0
 20
0.0
 30
0.0
  0
VERTEX
  5
81
330
80
100
AcDbEntity
  8
0
 62
   250
370
    25
100
AcDbVertex
100
AcDb2dVertex
 10
51.33181248716695
 20
-149.2291274626924
 30
0.0
  0
VERTEX
  5
82
330
80
100
AcDbEntity
  8
0
 62
   250
370
    25
100
AcDbVertex
100
AcDb2dVertex
 10
52.21322776472427
 20
-139.1548171874335
 30
0.0
  0
SEQEND
  5
83
330
80
100
AcDbEntity
  8
0
 62
   250
370
    25
  0
POLYLINE
  5
84
330
1F
100
AcDbEntity
  8
0
 62
   250
370
    25
100
AcDb2dPolyline
 66
     1
 10
0.0
 20
0.0
 30
0.0
  0
VERTEX
  5
85
330
84
100
AcDbEntity
  8
0
 62
   250
370
    25
100
AcDbVertex
100
AcDb2dVertex
 10
54.20561081978188
 20
-137.3291216323342
 30
0.0
  0
VERTEX
  5
86
330
84
100
AcDbEntity
  8
0
 62
   250
370
    25
100
AcDbVertex
100
AcDb2dVertex
 10
60.67065165149903
 20
-137.3291216323342
 30
0.0
  0
SEQEND
  5
87
330
84
100
AcDbEntity
  8
0
 62
   250
370
    25
  0
POLYLINE
  5
88
330
1F
100
AcDbEntity
  8
0
 62
   250
370
    25
100
AcDb2dPolyline
 66
     1
 10
0.0
 20
0.0
 30
0.0
  0
VERTEX
  5
89
330
88
100
AcDbEntity
  8
0
 62
   250
370
    25
100
AcDbVertex
100
AcDb2dVertex
 10
189.1381366193823
 20
-141.8291196867648
 30
0.0
  0
VERTEX
  5
8A
330
88
100
AcDbEntity
  8
0
 62
   250
370
    25
100
AcDbVertex
100
AcDb2dVertex
 10
189.1381366193823
 20
-153.3291460727787
 30
0.0
  0
SEQEND
  5
8B
330
88
100
AcDbEntity
  8
0
 62
   250
370
    25
  0
POLYLINE
  5
8C
330
1F
100
AcDbEntity
  8
0
 62
   250
370
    25
100
AcDb2dPolyline
 66
     1
 10
0.0
 20
0.0
 30
0.0
  0
VERTEX
  5
8D
330
8C
100
AcDbEntity
  8
0
 62
   250
370
    25
100
AcDbVertex
100
AcDb2dVertex
 10
20.73811221703779
 20
-141.8291196867648
 30
0.0
  0
VERTEX
  5
8E
330
8C
100
AcDbEntity
  8
0
 62
   250
370
    25
100
AcDbVertex
100
AcDb2dVertex
 10
20.73811221703779
 20
-153.3291460727787
 30
0.0
  0
SEQEND
  5
8F
330
8C
100
AcDbEntity
  8
0
 62
   250
370
    25
  0
POLYLINE
  5
90
330
1F
100
AcDbEntity
  8
0
 62
   250
370
    25
100
AcDb2dPolyline
 66
     1
 10
0.0
 20
0.0
 30
0.0
  0
VERTEX
  5
91
330
90
100
AcDbEntity
  8
0
 62
   250
370
    25
100
AcDbVertex
100
AcDb2dVertex
 10
121.3627874696595
 20
-149.2291274626924
 30
0.0
  0
VERTEX
  5
92
330
90
100
AcDbEntity
  8
0
 62
   250
370
    25
100
AcDbVertex
100
AcDb2dVertex
 10
121.3054610807848
 20
-149.2291274626924
 30
0.0
  0
SEQEND
  5
93
330
90
100
AcDbEntity
  8
0
 62
   250
370
    25
  0
POLYLINE
  5
94
330
1F
100
AcDbEntity
  8
0
 62
   250
370
    25
100
AcDb2dPolyline
 66
     1
 10
0.0
 20
0.0
 30
0.0
  0
VERTEX
  5
95
330
94
100
AcDbEntity
  8
0
 62
   250
370
    25
100
AcDbVertex
100
AcDb2dVertex
 10
118.4364252481687
 20
-149.2291274626924
 30
0.0
  0
VERTEX
  5
96
330
94
100
AcDbEntity
  8
0
 62
   250
370
    25
100
AcDbVertex
100
AcDb2dVertex
 10
118.3810038592935
 20
-149.2291274626924
 30
0.0
  0
SEQEND
  5
97
330
94
100
AcDbEntity
  8
0
 62
   250
370
    25
  0
POLYLINE
  5
98
330
1F
100
AcDbEntity
  8
0
 62
   250
370
    25
100
AcDb2dPolyline
 66
     1
 10
0.0
 20
0.0
 30
0.0
  0
VERTEX
  5
99
330
98
100
AcDbEntity
  8
0
 62
   250
370
    25
100
AcDbVertex
100
AcDb2dVertex
 10
116.3722166375735
 20
-149.2291274626924
 30
0.0
  0
VERTEX
  5
9A
330
98
100
AcDbEntity
  8
0
 62
   250
370
    25
100
AcDbVertex
100
AcDb2dVertex
 10
116.3113977487
 20
-149.2291274626924
 30
0.0
  0
SEQEND
  5
9B
330
98
100
AcDbEntity
  8
0
 62
   250
370
    25
  0
POLYLINE
  5
9C
330
1F
100
AcDbEntity
  8
0
 62
   250
370
    25
100
AcDb2dPolyline
 66
     1
 10
0.0
 20
0.0
 30
0.0
  0
VERTEX
  5
9D
330
9C
100
AcDbEntity
  8
0
 62
   250
370
    25
100
AcDbVertex
100
AcDb2dVertex
 10
120.5603944143041
 20
-146.2291405189984
 30
0.0
  0
VERTEX
  5
9E
330
9C
100
AcDbEntity
  8
0
 62
   250
370
    25
100
AcDbVertex
100
AcDb2dVertex
 10
120.7616894142541
 20
-146.2291405189984
 30
0.0
  0
SEQEND
  5
9F
330
9C
100
AcDbEntity
  8
0
 62
   250
370
    25
  0
SPLINE
  5
A0
330
1F
100
AcDbEntity
  8
0
 62
   250
370
    25
100
AcDbSpline
210
0.0
220
0.0
230
1.0
 70
     8
 71
     3
 72
    17
 73
    13
 74
     0
 42
0.0000000001
 43
0.0000000001
 12
1.0
 22
0.0
 32
0.0
 13
1.0
 23
0.0
 33
0.0
 40
0.0
 40
0.0
 40
0.0
 40
0.0
 40
1.0
 40
1.0
 40
1.0
 40
2.0
 40
2.0
 40
2.0
 40
3.0
 40
3.0
 40
3.0
 40
4.0
 40
4.0
 40
4.0
 40
4.0
 10
120.0604730255406
 20
-146.720418852209
 30
0.0
 10
120.0681283033162
 20
-146.6791791299967
 30
0.0
 10
120.0703155255378
 20
-146.6363519077852
 30
0.0
 10
120.0799816366468
 20
-146.5953944077957
 30
0.0
 10
120.0847088588678
 20
-146.575321352245
 30
0.0
 10
120.0912352477551
 20
-146.5557069078056
 30
0.0
 10
120.0990316366421
 20
-146.5365863522549
 30
0.0
 10
120.1235144144139
 20
-146.4767199633809
 30
0.0
 10
120.1604855255154
 20
-146.4217924633945
 30
0.0
 10
120.2063466366148
 20
-146.376037185628
 30
0.0
 10
120.2991977477031
 20
-146.2833271856514
 30
0.0
 10
120.4285613587814
 20
-146.2281174634429
 30
0.0
 10
120.560323858749
 20
-146.2291405189984
 30
0.0
  0
SPLINE
  5
A1
330
1F
100
AcDbEntity
  8
0
 62
   250
370
    25
100
AcDbSpline
210
0.0
220
0.0
230
1.0
 70
     8
 71
     3
 72
     8
 73
     4
 74
     0
 42
0.0000000001
 43
0.0000000001
 12
1.0
 22
0.0
 32
0.0
 13
1.0
 23
0.0
 33
0.0
 40
0.0
 40
0.0
 40
0.0
 40
0.0
 40
1.0
 40
1.0
 40
1.0
 40
1.0
 10
183.761238842949
 20
-148.6791469072746
 30
0.0
 10
184.2740718983757
 20
-148.6798877406077
 30
0.0
 10
184.7043549538242
 20
-148.2925730184823
 30
0.0
 10
184.7573421760332
 20
-147.7824916297211
 30
0.0
  0
SPLINE
  5
A2
330
1F
100
AcDbEntity
  8
0
 62
   250
370
    25
100
AcDbSpline
210
0.0
220
0.0
230
1.0
 70
     8
 71
     3
 72
     8
 73
     4
 74
     0
 42
0.0000000001
 43
0.0000000001
 12
1.0
 22
0.0
 32
0.0
 13
1.0
 23
0.0
 33
0.0
 40
0.0
 40
0.0
 40
0.0
 40
0.0
 40
1.0
 40
1.0
 40
1.0
 40
1.0
 10
107.0826605287849
 20
-147.522318018675
 30
0.0
 10
107.1307794176616
 20
-148.0362799629909
 30
0.0
 10
107.5621208064427
 20
-148.429133296226
 30
0.0
 10
108.0783052507582
 20
-148.429133296226
 30
0.0
  0
SPLINE
  5
A3
330
1F
100
AcDbEntity
  8
0
 62
   250
370
    25
100
AcDbSpline
210
0.0
220
0.0
230
1.0
 70
     8
 71
     3
 72
     8
 73
     4
 74
     0
 42
0.0000000001
 43
0.0000000001
 12
1.0
 22
0.0
 32
0.0
 13
1.0
 23
0.0
 33
0.0
 40
0.0
 40
0.0
 40
0.0
 40
0.0
 40
1.0
 40
1.0
 40
1.0
 40
1.0
 10
112.7680624718078
 20
-148.429133296226
 30
0.0
 10
113.0424883050728
 20
-148.429133296226
 30
0.0
 10
113.2656202494614
 20
-148.6503602406153
 30
0.0
 10
113.26801913835
 20
-148.9247860738797
 30
0.0
  0
POLYLINE
  5
A4
330
1F
100
AcDbEntity
  8
0
 62
   250
370
    25
100
AcDb2dPolyline
 66
     1
 10
0.0
 20
0.0
 30
0.0
  0
VERTEX
  5
A5
330
A4
100
AcDbEntity
  8
0
 62
   250
370
    25
100
AcDbVertex
100
AcDb2dVertex
 10
108.0783405285357
 20
-148.429133296226
 30
0.0
  0
VERTEX
  5
A6
330
A4
100
AcDbEntity
  8
0
 62
   250
370
    25
100
AcDbVertex
100
AcDb2dVertex
 10
112.7680271940302
 20
-148.429133296226
 30
0.0
  0
SEQEND
  5
A7
330
A4
100
AcDbEntity
  8
0
 62
   250
370
    25
  0
SPLINE
  5
A8
330
1F
100
AcDbEntity
  8
0
 62
   250
370
    25
100
AcDbSpline
210
0.0
220
0.0
230
1.0
 70
     8
 71
     3
 72
     8
 73
     4
 74
     0
 42
0.0000000001
 43
0.0000000001
 12
1.0
 22
0.0
 32
0.0
 13
1.0
 23
0.0
 33
0.0
 40
0.0
 40
0.0
 40
0.0
 40
0.0
 40
1.0
 40
1.0
 40
1.0
 40
1.0
 10
178.6060618997931
 20
-149.1747644071505
 30
0.0
 10
178.6084607886812
 20
-148.9003385738861
 30
0.0
 10
178.8315927330697
 20
-148.6791469072746
 30
0.0
 10
179.1060185663348
 20
-148.6791469072746
 30
0.0
  0
POLYLINE
  5
A9
330
1F
100
AcDbEntity
  8
0
 62
   250
370
    25
100
AcDb2dPolyline
 66
     1
 10
0.0
 20
0.0
 30
0.0
  0
VERTEX
  5
AA
330
A9
100
AcDbEntity
  8
0
 62
   250
370
    25
100
AcDbVertex
100
AcDb2dVertex
 10
183.7600041207268
 20
-148.6791469072746
 30
0.0
  0
VERTEX
  5
AB
330
A9
100
AcDbEntity
  8
0
 62
   250
370
    25
100
AcDbVertex
100
AcDb2dVertex
 10
179.1060185663348
 20
-148.6791469072746
 30
0.0
  0
SEQEND
  5
AC
330
A9
100
AcDbEntity
  8
0
 62
   250
370
    25
  0
SPLINE
  5
AD
330
1F
100
AcDbEntity
  8
0
 62
   250
370
    25
100
AcDbSpline
210
0.0
220
0.0
230
1.0
 70
     8
 71
     3
 72
     8
 73
     4
 74
     0
 42
0.0000000001
 43
0.0000000001
 12
1.0
 22
0.0
 32
0.0
 13
1.0
 23
0.0
 33
0.0
 40
0.0
 40
0.0
 40
0.0
 40
0.0
 40
1.0
 40
1.0
 40
1.0
 40
1.0
 10
178.6107891220141
 20
-153.3291460727787
 30
0.0
 10
178.6091310664592
 20
-153.3139413505606
 30
0.0
 10
178.6075788442367
 20
-153.2987013505644
 30
0.0
 10
178.6060618997931
 20
-153.2834966283457
 30
0.0
  0
POLYLINE
  5
AE
330
1F
100
AcDbEntity
  8
0
 62
   250
370
    25
100
AcDb2dPolyline
 66
     1
 10
0.0
 20
0.0
 30
0.0
  0
VERTEX
  5
AF
330
AE
100
AcDbEntity
  8
0
 62
   250
370
    25
100
AcDbVertex
100
AcDb2dVertex
 10
98.17742053101126
 20
-147.9206394074643
 30
0.0
  0
VERTEX
  5
B0
330
AE
100
AcDbEntity
  8
0
 62
   250
370
    25
100
AcDbVertex
100
AcDb2dVertex
 10
95.744664976064
 20
-148.8329227405696
 30
0.0
  0
SEQEND
  5
B1
330
AE
100
AcDbEntity
  8
0
 62
   250
370
    25
  0
POLYLINE
  5
B2
330
1F
100
AcDbEntity
  8
0
 62
   250
370
    25
100
AcDb2dPolyline
 66
     1
 10
0.0
 20
0.0
 30
0.0
  0
VERTEX
  5
B3
330
B2
100
AcDbEntity
  8
0
 62
   250
370
    25
100
AcDbVertex
100
AcDb2dVertex
 10
117.6232371928166
 20
-146.2291405189984
 30
0.0
  0
VERTEX
  5
B4
330
B2
100
AcDbEntity
  8
0
 62
   250
370
    25
100
AcDbVertex
100
AcDb2dVertex
 10
118.3158458037543
 20
-146.2291405189984
 30
0.0
  0
SEQEND
  5
B5
330
B2
100
AcDbEntity
  8
0
 62
   250
370
    25
  0
SPLINE
  5
B6
330
1F
100
AcDbEntity
  8
0
 62
   250
370
    25
100
AcDbSpline
210
0.0
220
0.0
230
1.0
 70
     8
 71
     3
 72
     8
 73
     4
 74
     0
 42
0.0000000001
 43
0.0000000001
 12
1.0
 22
0.0
 32
0.0
 13
1.0
 23
0.0
 33
0.0
 40
0.0
 40
0.0
 40
0.0
 40
0.0
 40
1.0
 40
1.0
 40
1.0
 40
1.0
 10
102.7040533076574
 20
-147.8518124630371
 30
0.0
 10
102.7082866409896
 20
-147.827541351932
 30
0.0
 10
102.7116027520998
 20
-147.8031996852713
 30
0.0
 10
102.7140721965435
 20
-147.7787169074999
 30
0.0
  0
SPLINE
  5
B7
330
1F
100
AcDbEntity
  8
0
 62
   250
370
    25
100
AcDbSpline
210
0.0
220
0.0
230
1.0
 70
     8
 71
     3
 72
     8
 73
     4
 74
     0
 42
0.0000000001
 43
0.0000000001
 12
1.0
 22
0.0
 32
0.0
 13
1.0
 23
0.0
 33
0.0
 40
0.0
 40
0.0
 40
0.0
 40
0.0
 40
1.0
 40
1.0
 40
1.0
 40
1.0
 10
25.15986416037674
 20
-147.5276449631179
 30
0.0
 10
25.16233360482075
 20
-147.5524099631118
 30
0.0
 10
25.16568499370852
 20
-147.5769985742167
 30
0.0
 10
25.16995360481886
 20
-147.6015166297663
 30
0.0
  0
SPLINE
  5
B8
330
1F
100
AcDbEntity
  8
0
 62
   250
370
    25
100
AcDbSpline
210
0.0
220
0.0
230
1.0
 70
     8
 71
     3
 72
     8
 73
     4
 74
     0
 42
0.0000000001
 43
0.0000000001
 12
1.0
 22
0.0
 32
0.0
 13
1.0
 23
0.0
 33
0.0
 40
0.0
 40
0.0
 40
0.0
 40
0.0
 40
1.0
 40
1.0
 40
1.0
 40
1.0
 10
30.76804304786371
 20
-148.429133296226
 30
0.0
 10
31.04246888112813
 20
-148.429133296226
 30
0.0
 10
31.26563610329485
 20
-148.6503602406153
 30
0.0
 10
31.26799971440533
 20
-148.9247860738797
 30
0.0
  0
SPLINE
  5
B9
330
1F
100
AcDbEntity
  8
0
 62
   250
370
    25
100
AcDbSpline
210
0.0
220
0.0
230
1.0
 70
     8
 71
     3
 72
     8
 73
     4
 74
     0
 42
0.0000000001
 43
0.0000000001
 12
1.0
 22
0.0
 32
0.0
 13
1.0
 23
0.0
 33
0.0
 40
0.0
 40
0.0
 40
0.0
 40
0.0
 40
1.0
 40
1.0
 40
1.0
 40
1.0
 10
25.17729138259456
 20
-149.6213810737054
 30
0.0
 10
25.17679749370576
 20
-149.6155955181518
 30
0.0
 10
25.17640943815048
 20
-149.6098099625975
 30
0.0
 10
25.1761272159284
 20
-149.6040244070433
 30
0.0
  0
POLYLINE
  5
BA
330
1F
100
AcDbEntity
  8
0
 62
   250
370
    25
100
AcDb2dPolyline
 66
     1
 10
0.0
 20
0.0
 30
0.0
  0
VERTEX
  5
BB
330
BA
100
AcDbEntity
  8
0
 62
   250
370
    25
100
AcDbVertex
100
AcDb2dVertex
 10
26.15501499346118
 20
-148.429133296226
 30
0.0
  0
VERTEX
  5
BC
330
BA
100
AcDbEntity
  8
0
 62
   250
370
    25
100
AcDbVertex
100
AcDb2dVertex
 10
30.76804304786371
 20
-148.429133296226
 30
0.0
  0
SEQEND
  5
BD
330
BA
100
AcDbEntity
  8
0
 62
   250
370
    25
  0
SPLINE
  5
BE
330
1F
100
AcDbEntity
  8
0
 62
   250
370
    25
100
AcDbSpline
210
0.0
220
0.0
230
1.0
 70
     8
 71
     3
 72
     8
 73
     4
 74
     0
 42
0.0000000001
 43
0.0000000001
 12
1.0
 22
0.0
 32
0.0
 13
1.0
 23
0.0
 33
0.0
 40
0.0
 40
0.0
 40
0.0
 40
0.0
 40
1.0
 40
1.0
 40
1.0
 40
1.0
 10
96.60604247584844
 20
-149.1747644071505
 30
0.0
 10
96.60844136473676
 20
-148.9003385738861
 30
0.0
 10
96.83157330912564
 20
-148.6791469072746
 30
0.0
 10
97.10599914239008
 20
-148.6791469072746
 30
0.0
  0
POLYLINE
  5
BF
330
1F
100
AcDbEntity
  8
0
 62
   250
370
    25
100
AcDb2dPolyline
 66
     1
 10
0.0
 20
0.0
 30
0.0
  0
VERTEX
  5
C0
330
BF
100
AcDbEntity
  8
0
 62
   250
370
    25
100
AcDbVertex
100
AcDb2dVertex
 10
101.7190624745701
 20
-148.6791469072746
 30
0.0
  0
VERTEX
  5
C1
330
BF
100
AcDbEntity
  8
0
 62
   250
370
    25
100
AcDbVertex
100
AcDb2dVertex
 10
97.10603442016792
 20
-148.6791469072746
 30
0.0
  0
SEQEND
  5
C2
330
BF
100
AcDbEntity
  8
0
 62
   250
370
    25
  0
SPLINE
  5
C3
330
1F
100
AcDbEntity
  8
0
 62
   250
370
    25
100
AcDbSpline
210
0.0
220
0.0
230
1.0
 70
     8
 71
     3
 72
     8
 73
     4
 74
     0
 42
0.0000000001
 43
0.0000000001
 12
1.0
 22
0.0
 32
0.0
 13
1.0
 23
0.0
 33
0.0
 40
0.0
 40
0.0
 40
0.0
 40
0.0
 40
1.0
 40
1.0
 40
1.0
 40
1.0
 10
96.61080497584726
 20
-153.3291460727787
 30
0.0
 10
96.60911164251445
 20
-153.3139413505606
 30
0.0
 10
96.6075946980702
 20
-153.2987013505644
 30
0.0
 10
96.60604247584844
 20
-153.2834966283457
 30
0.0
  0
SPLINE
  5
C4
330
1F
100
AcDbEntity
  8
0
 62
   250
370
    25
100
AcDbSpline
210
0.0
220
0.0
230
1.0
 70
     8
 71
     3
 72
     8
 73
     4
 74
     0
 42
0.0000000001
 43
0.0000000001
 12
1.0
 22
0.0
 32
0.0
 13
1.0
 23
0.0
 33
0.0
 40
0.0
 40
0.0
 40
0.0
 40
0.0
 40
1.0
 40
1.0
 40
1.0
 40
1.0
 10
118.3158810815325
 20
-146.2291405189984
 30
0.0
 10
118.5886135814638
 20
-146.2291405189984
 30
0.0
 10
118.8110399702975
 20
-146.4477216300548
 30
0.0
 10
118.815802470296
 20
-146.720418852209
 30
0.0
  0
SPLINE
  5
C5
330
1F
100
AcDbEntity
  8
0
 62
   250
370
    25
100
AcDbSpline
210
0.0
220
0.0
230
1.0
 70
     8
 71
     3
 72
     8
 73
     4
 74
     0
 42
0.0000000001
 43
0.0000000001
 12
1.0
 22
0.0
 32
0.0
 13
1.0
 23
0.0
 33
0.0
 40
0.0
 40
0.0
 40
0.0
 40
0.0
 40
1.0
 40
1.0
 40
1.0
 40
1.0
 10
117.1233158040525
 20
-146.720418852209
 30
0.0
 10
117.1280430262734
 20
-146.4477216300548
 30
0.0
 10
117.3504694151071
 20
-146.2291757967762
 30
0.0
 10
117.6231666372609
 20
-146.2291405189984
 30
0.0
  0
POLYLINE
  5
C6
330
1F
100
AcDbEntity
  8
0
 62
   250
370
    25
100
AcDb2dPolyline
 66
     1
 10
0.0
 20
0.0
 30
0.0
  0
VERTEX
  5
C7
330
C6
100
AcDbEntity
  8
0
 62
   250
370
    25
100
AcDbVertex
100
AcDb2dVertex
 10
31.28810804773357
 20
-151.2276841288599
 30
0.0
  0
VERTEX
  5
C8
330
C6
100
AcDbEntity
  8
0
 62
   250
370
    25
100
AcDbVertex
100
AcDb2dVertex
 10
31.27971193662458
 20
-150.268163851322
 30
0.0
  0
SEQEND
  5
C9
330
C6
100
AcDbEntity
  8
0
 62
   250
370
    25
  0
SPLINE
  5
CA
330
1F
100
AcDbEntity
  8
0
 62
   250
370
    25
100
AcDbSpline
210
0.0
220
0.0
230
1.0
 70
     8
 71
     3
 72
     8
 73
     4
 74
     0
 42
0.0000000001
 43
0.0000000001
 12
1.0
 22
0.0
 32
0.0
 13
1.0
 23
0.0
 33
0.0
 40
0.0
 40
0.0
 40
0.0
 40
0.0
 40
1.0
 40
1.0
 40
1.0
 40
1.0
 10
31.27971193662458
 20
-150.268163851322
 30
0.0
 10
31.27583138106984
 20
-149.8213002403225
 30
0.0
 10
31.27191554773759
 20
-149.3744013515456
 30
0.0
 10
31.26803499218286
 20
-148.927502462768
 30
0.0
  0
POLYLINE
  5
CB
330
1F
100
AcDbEntity
  8
0
 62
   250
370
    25
100
AcDb2dPolyline
 66
     1
 10
0.0
 20
0.0
 30
0.0
  0
VERTEX
  5
CC
330
CB
100
AcDbEntity
  8
0
 62
   250
370
    25
100
AcDbVertex
100
AcDb2dVertex
 10
31.27971193662458
 20
-152.1900971841743
 30
0.0
  0
VERTEX
  5
CD
330
CB
100
AcDbEntity
  8
0
 62
   250
370
    25
100
AcDbVertex
100
AcDb2dVertex
 10
31.28810804773357
 20
-151.2276841288599
 30
0.0
  0
SEQEND
  5
CE
330
CB
100
AcDbEntity
  8
0
 62
   250
370
    25
  0
SPLINE
  5
CF
330
1F
100
AcDbEntity
  8
0
 62
   250
370
    25
100
AcDbSpline
210
0.0
220
0.0
230
1.0
 70
     8
 71
     3
 72
     8
 73
     4
 74
     0
 42
0.0000000001
 43
0.0000000001
 12
1.0
 22
0.0
 32
0.0
 13
1.0
 23
0.0
 33
0.0
 40
0.0
 40
0.0
 40
0.0
 40
0.0
 40
1.0
 40
1.0
 40
1.0
 40
1.0
 10
31.26979888107166
 20
-153.3291460727787
 30
0.0
 10
31.27311499218159
 20
-152.9494513506512
 30
0.0
 10
31.27643110329216
 20
-152.5697566285243
 30
0.0
 10
31.27971193662458
 20
-152.1900971841743
 30
0.0
  0
SPLINE
  5
D0
330
1F
100
AcDbEntity
  8
0
 62
   250
370
    25
100
AcDbSpline
210
0.0
220
0.0
230
1.0
 70
     8
 71
     3
 72
     8
 73
     4
 74
     0
 42
0.0000000001
 43
0.0000000001
 12
1.0
 22
0.0
 32
0.0
 13
1.0
 23
0.0
 33
0.0
 40
0.0
 40
0.0
 40
0.0
 40
0.0
 40
1.0
 40
1.0
 40
1.0
 40
1.0
 10
52.21322776472427
 20
-139.1548171874335
 30
0.0
 10
52.30360943136859
 20
-138.121778021025
 30
0.0
 10
53.16858526448569
 20
-137.3291569101123
 30
0.0
 10
54.20561081978188
 20
-137.3291216323342
 30
0.0
  0
SPLINE
  5
D1
330
1F
100
AcDbEntity
  8
0
 62
   250
370
    25
100
AcDbSpline
210
0.0
220
0.0
230
1.0
 70
     8
 71
     3
 72
     8
 73
     4
 74
     0
 42
0.0000000001
 43
0.0000000001
 12
1.0
 22
0.0
 32
0.0
 13
1.0
 23
0.0
 33
0.0
 40
0.0
 40
0.0
 40
0.0
 40
0.0
 40
1.0
 40
1.0
 40
1.0
 40
1.0
 10
60.67065165149903
 20
-137.3291216323342
 30
0.0
 10
61.70764192901738
 20
-137.3291569101123
 30
0.0
 10
62.57265303991232
 20
-138.121778021025
 30
0.0
 10
62.66303470655664
 20
-139.1548171874335
 30
0.0
  0
SPLINE
  5
D2
330
1F
100
AcDbEntity
  8
0
 62
   250
370
    25
100
AcDbSpline
210
0.0
220
0.0
230
1.0
 70
     8
 71
     3
 72
     8
 73
     4
 74
     0
 42
0.0000000001
 43
0.0000000001
 12
1.0
 22
0.0
 32
0.0
 13
1.0
 23
0.0
 33
0.0
 40
0.0
 40
0.0
 40
0.0
 40
0.0
 40
1.0
 40
1.0
 40
1.0
 40
1.0
 10
25.73051749356759
 20
-150.2291466291095
 30
0.0
 10
25.83966693798445
 20
-150.2293582957759
 30
0.0
 10
25.92768499351829
 20
-150.2570866291026
 30
0.0
 10
26.01725527127357
 20
-150.3195282957535
 30
0.0
  0
SPLINE
  5
D3
330
1F
100
AcDbEntity
  8
0
 62
   250
370
    25
100
AcDbSpline
210
0.0
220
0.0
230
1.0
 70
     8
 71
     3
 72
     8
 73
     4
 74
     0
 42
0.0000000001
 43
0.0000000001
 12
1.0
 22
0.0
 32
0.0
 13
1.0
 23
0.0
 33
0.0
 40
0.0
 40
0.0
 40
0.0
 40
0.0
 40
1.0
 40
1.0
 40
1.0
 40
1.0
 10
26.67529165999777
 20
-150.7801502400824
 30
0.0
 10
26.827973882182
 20
-150.8872535733894
 30
0.0
 10
26.88812249327813
 20
-151.0029646844714
 30
0.0
 10
26.88812249327813
 20
-151.1894782955362
 30
0.0
  0
POLYLINE
  5
D4
330
1F
100
AcDbEntity
  8
0
 62
   250
370
    25
100
AcDb2dPolyline
 66
     1
 10
0.0
 20
0.0
 30
0.0
  0
VERTEX
  5
D5
330
D4
100
AcDbEntity
  8
0
 62
   250
370
    25
100
AcDbVertex
100
AcDb2dVertex
 10
26.03919804904597
 20
-152.1535846841837
 30
0.0
  0
VERTEX
  5
D6
330
D4
100
AcDbEntity
  8
0
 62
   250
370
    25
100
AcDbVertex
100
AcDb2dVertex
 10
26.06107027126269
 20
-152.1426485730756
 30
0.0
  0
SEQEND
  5
D7
330
D4
100
AcDbEntity
  8
0
 62
   250
370
    25
  0
SPLINE
  5
D8
330
1F
100
AcDbEntity
  8
0
 62
   250
370
    25
100
AcDbSpline
210
0.0
220
0.0
230
1.0
 70
     8
 71
     3
 72
     8
 73
     4
 74
     0
 42
0.0000000001
 43
0.0000000001
 12
1.0
 22
0.0
 32
0.0
 13
1.0
 23
0.0
 33
0.0
 40
0.0
 40
0.0
 40
0.0
 40
0.0
 40
1.0
 40
1.0
 40
1.0
 40
1.0
 10
26.88812249327813
 20
-151.4201244065896
 30
0.0
 10
26.88812249327813
 20
-151.6437855176448
 30
0.0
 10
26.81178138218602
 20
-151.7672930176138
 30
0.0
 10
26.61172110445818
 20
-151.8673407953662
 30
0.0
  0
SPLINE
  5
D9
330
1F
100
AcDbEntity
  8
0
 62
   250
370
    25
100
AcDbSpline
210
0.0
220
0.0
230
1.0
 70
     8
 71
     3
 72
     8
 73
     4
 74
     0
 42
0.0000000001
 43
0.0000000001
 12
1.0
 22
0.0
 32
0.0
 13
1.0
 23
0.0
 33
0.0
 40
0.0
 40
0.0
 40
0.0
 40
0.0
 40
1.0
 40
1.0
 40
1.0
 40
1.0
 10
25.17506888259512
 20
-152.7247671840408
 30
0.0
 10
25.17767943815016
 20
-152.4266346841152
 30
0.0
 10
25.29130916034377
 20
-152.291414961927
 30
0.0
 10
25.5845027713817
 20
-152.2374046841629
 30
0.0
  0
SPLINE
  5
DA
330
1F
100
AcDbEntity
  8
0
 62
   250
370
    25
100
AcDbSpline
210
0.0
220
0.0
230
1.0
 70
     8
 71
     3
 72
     8
 73
     4
 74
     0
 42
0.0000000001
 43
0.0000000001
 12
1.0
 22
0.0
 32
0.0
 13
1.0
 23
0.0
 33
0.0
 40
0.0
 40
0.0
 40
0.0
 40
0.0
 40
1.0
 40
1.0
 40
1.0
 40
1.0
 10
25.16078138259866
 20
-147.5370994075602
 30
0.0
 10
25.21570888258502
 20
-148.044817185211
 30
0.0
 10
25.64433388247792
 20
-148.4295919073372
 30
0.0
 10
26.15501499346118
 20
-148.4295566295594
 30
0.0
  0
SPLINE
  5
DB
330
1F
100
AcDbEntity
  8
0
 62
   250
370
    25
100
AcDbSpline
210
0.0
220
0.0
230
1.0
 70
     8
 71
     3
 72
     8
 73
     4
 74
     0
 42
0.0000000001
 43
0.0000000001
 12
1.0
 22
0.0
 32
0.0
 13
1.0
 23
0.0
 33
0.0
 40
0.0
 40
0.0
 40
0.0
 40
0.0
 40
1.0
 40
1.0
 40
1.0
 40
1.0
 10
25.64937860469881
 20
-150.2284763513315
 30
0.0
 10
25.38525388254259
 20
-150.2148944068909
 30
0.0
 10
25.17739721592809
 20
-149.9979713513894
 30
0.0
 10
25.17506888259512
 20
-149.7334938514554
 30
0.0
  0
SPLINE
  5
DC
330
1F
100
AcDbEntity
  8
0
 62
   250
370
    25
100
AcDbSpline
210
0.0
220
0.0
230
1.0
 70
     8
 71
     3
 72
    17
 73
    13
 74
     0
 42
0.0000000001
 43
0.0000000001
 12
1.0
 22
0.0
 32
0.0
 13
1.0
 23
0.0
 33
0.0
 40
0.0
 40
0.0
 40
0.0
 40
0.0
 40
1.0
 40
1.0
 40
1.0
 40
2.0
 40
2.0
 40
2.0
 40
3.0
 40
3.0
 40
3.0
 40
4.0
 40
4.0
 40
4.0
 40
4.0
 10
25.14882221593518
 20
-146.7247580188743
 30
0.0
 10
25.14663499371358
 20
-146.4743210744925
 30
0.0
 10
25.15100943815679
 20
-146.9752302410339
 30
0.0
 10
25.15210304926759
 20
-147.1004663521136
 30
0.0
 10
25.1531966603784
 20
-147.2257730187492
 30
0.0
 10
25.1542902714892
 20
-147.3510796853846
 30
0.0
 10
25.15538388260001
 20
-147.4763863520199
 30
0.0
 10
25.15757110482161
 20
-147.7270349630684
 30
0.0
 10
25.15975832704322
 20
-147.9776835741166
 30
0.0
 10
25.16194554926515
 20
-148.2282969073872
 30
0.0
 10
25.16631999370836
 20
-148.7295235739285
 30
0.0
 10
25.1706944381519
 20
-149.2307502404699
 30
0.0
 10
25.17506888259512
 20
-149.7319769070112
 30
0.0
  0
POLYLINE
  5
DD
330
1F
100
AcDbEntity
  8
0
 62
   250
370
    25
100
AcDb2dPolyline
 66
     1
 10
0.0
 20
0.0
 30
0.0
  0
VERTEX
  5
DE
330
DD
100
AcDbEntity
  8
0
 62
   250
370
    25
100
AcDbVertex
100
AcDb2dVertex
 10
96.59602358696233
 20
-150.3253138513071
 30
0.0
  0
VERTEX
  5
DF
330
DD
100
AcDbEntity
  8
0
 62
   250
370
    25
100
AcDbVertex
100
AcDb2dVertex
 10
96.58812136474181
 20
-151.2298713510815
 30
0.0
  0
SEQEND
  5
E0
330
DD
100
AcDbEntity
  8
0
 62
   250
370
    25
  0
SPLINE
  5
E1
330
1F
100
AcDbEntity
  8
0
 62
   250
370
    25
100
AcDbSpline
210
0.0
220
0.0
230
1.0
 70
    24
 71
     3
 72
     8
 73
     4
 74
     0
 42
0.0000000001
 43
0.0000000001
 12
1.0
 22
0.0
 32
0.0
 13
1.0
 23
0.0
 33
0.0
 40
0.0
 40
0.0
 40
0.0
 40
0.0
 40
1.0
 40
1.0
 40
1.0
 40
1.0
 10
25.18812166036972
 20
-146.2291405189984
 30
0.0
 10
25.01123888263613
 20
-146.2291405189984
 30
0.0
 10
24.83435610490254
 20
-146.2291405189984
 30
0.0
 10
24.65750860494678
 20
-146.2291405189984
 30
0.0
  0
POLYLINE
  5
E2
330
1F
100
AcDbEntity
  8
0
 62
   250
370
    25
100
AcDb2dPolyline
 66
     1
 10
0.0
 20
0.0
 30
0.0
  0
VERTEX
  5
E3
330
E2
100
AcDbEntity
  8
0
 62
   250
370
    25
100
AcDbVertex
100
AcDb2dVertex
 10
23.65438499408647
 20
-151.2291305177484
 30
0.0
  0
VERTEX
  5
E4
330
E2
100
AcDbEntity
  8
0
 62
   250
370
    25
100
AcDbVertex
100
AcDb2dVertex
 10
23.64457777186643
 20
-151.2291305177484
 30
0.0
  0
SEQEND
  5
E5
330
E2
100
AcDbEntity
  8
0
 62
   250
370
    25
  0
POLYLINE
  5
E6
330
1F
100
AcDbEntity
  8
0
 62
   250
370
    25
100
AcDb2dPolyline
 66
     1
 10
0.0
 20
0.0
 30
0.0
  0
VERTEX
  5
E7
330
E6
100
AcDbEntity
  8
0
 62
   250
370
    25
100
AcDbVertex
100
AcDb2dVertex
 10
23.65438499408647
 20
-151.2291305177484
 30
0.0
  0
VERTEX
  5
E8
330
E6
100
AcDbEntity
  8
0
 62
   250
370
    25
100
AcDbVertex
100
AcDb2dVertex
 10
23.73185499406691
 20
-151.2291305177484
 30
0.0
  0
SEQEND
  5
E9
330
E6
100
AcDbEntity
  8
0
 62
   250
370
    25
  0
POLYLINE
  5
EA
330
1F
100
AcDbEntity
  8
0
 62
   250
370
    25
100
AcDb2dPolyline
 66
     1
 10
0.0
 20
0.0
 30
0.0
  0
VERTEX
  5
EB
330
EA
100
AcDbEntity
  8
0
 62
   250
370
    25
100
AcDbVertex
100
AcDb2dVertex
 10
24.64883027161539
 20
-146.2291405189984
 30
0.0
  0
VERTEX
  5
EC
330
EA
100
AcDbEntity
  8
0
 62
   250
370
    25
100
AcDbVertex
100
AcDb2dVertex
 10
23.81038332738095
 20
-146.2291405189984
 30
0.0
  0
SEQEND
  5
ED
330
EA
100
AcDbEntity
  8
0
 62
   250
370
    25
  0
SPLINE
  5
EE
330
1F
100
AcDbEntity
  8
0
 62
   250
370
    25
100
AcDbSpline
210
0.0
220
0.0
230
1.0
 70
    24
 71
     3
 72
     8
 73
     4
 74
     0
 42
0.0000000001
 43
0.0000000001
 12
1.0
 22
0.0
 32
0.0
 13
1.0
 23
0.0
 33
0.0
 40
0.0
 40
0.0
 40
0.0
 40
0.0
 40
1.0
 40
1.0
 40
1.0
 40
1.0
 10
102.7064521965454
 20
-153.3291460727787
 30
0.0
 10
102.7003491409915
 20
-152.6296230173984
 30
0.0
 10
102.6942460854377
 20
-151.9300999620174
 30
0.0
 10
102.6881430298835
 20
-151.2305769066364
 30
0.0
  0
POLYLINE
  5
EF
330
1F
100
AcDbEntity
  8
0
 62
   250
370
    25
100
AcDb2dPolyline
 66
     1
 10
0.0
 20
0.0
 30
0.0
  0
VERTEX
  5
F0
330
EF
100
AcDbEntity
  8
0
 62
   250
370
    25
100
AcDbVertex
100
AcDb2dVertex
 10
105.2666663625724
 20
-149.2291274626924
 30
0.0
  0
VERTEX
  5
F1
330
EF
100
AcDbEntity
  8
0
 62
   250
370
    25
100
AcDbVertex
100
AcDb2dVertex
 10
105.1180763626093
 20
-149.2291274626924
 30
0.0
  0
SEQEND
  5
F2
330
EF
100
AcDbEntity
  8
0
 62
   250
370
    25
  0
POLYLINE
  5
F3
330
1F
100
AcDbEntity
  8
0
 62
   250
370
    25
100
AcDb2dPolyline
 66
     1
 10
0.0
 20
0.0
 30
0.0
  0
VERTEX
  5
F4
330
F3
100
AcDbEntity
  8
0
 62
   250
370
    25
100
AcDbVertex
100
AcDb2dVertex
 10
104.7317494182613
 20
-151.2291305177484
 30
0.0
  0
VERTEX
  5
F5
330
F3
100
AcDbEntity
  8
0
 62
   250
370
    25
100
AcDbVertex
100
AcDb2dVertex
 10
104.6950958071593
 20
-153.3291460727787
 30
0.0
  0
SEQEND
  5
F6
330
F3
100
AcDbEntity
  8
0
 62
   250
370
    25
  0
POLYLINE
  5
F7
330
1F
100
AcDbEntity
  8
0
 62
   250
370
    25
100
AcDb2dPolyline
 66
     1
 10
0.0
 20
0.0
 30
0.0
  0
VERTEX
  5
F8
330
F7
100
AcDbEntity
  8
0
 62
   250
370
    25
100
AcDbVertex
100
AcDb2dVertex
 10
33.18813388059197
 20
-149.2291274626924
 30
0.0
  0
VERTEX
  5
F9
330
F7
100
AcDbEntity
  8
0
 62
   250
370
    25
100
AcDbVertex
100
AcDb2dVertex
 10
26.32780554897364
 20
-146.6564955188913
 30
0.0
  0
SEQEND
  5
FA
330
F7
100
AcDbEntity
  8
0
 62
   250
370
    25
  0
SPLINE
  5
FB
330
1F
100
AcDbEntity
  8
0
 62
   250
370
    25
100
AcDbSpline
210
0.0
220
0.0
230
1.0
 70
    24
 71
     3
 72
     8
 73
     4
 74
     0
 42
0.0000000001
 43
0.0000000001
 12
1.0
 22
0.0
 32
0.0
 13
1.0
 23
0.0
 33
0.0
 40
0.0
 40
0.0
 40
0.0
 40
0.0
 40
1.0
 40
1.0
 40
1.0
 40
1.0
 10
94.50680303192877
 20
-149.2291274626924
 30
0.0
 10
74.06724664815005
 20
-149.2291274626924
 30
0.0
 10
53.62769026437068
 20
-149.2291274626924
 30
0.0
 10
33.18813388059197
 20
-149.2291274626924
 30
0.0
  0
POLYLINE
  5
FC
330
1F
100
AcDbEntity
  8
0
 62
   250
370
    25
100
AcDb2dPolyline
 66
     1
 10
0.0
 20
0.0
 30
0.0
  0
VERTEX
  5
FD
330
FC
100
AcDbEntity
  8
0
 62
   250
370
    25
100
AcDbVertex
100
AcDb2dVertex
 10
95.744664976064
 20
-148.8329227405696
 30
0.0
  0
VERTEX
  5
FE
330
FC
100
AcDbEntity
  8
0
 62
   250
370
    25
100
AcDbVertex
100
AcDb2dVertex
 10
94.85792275406338
 20
-149.16545107382
 30
0.0
  0
SEQEND
  5
FF
330
FC
100
AcDbEntity
  8
0
 62
   250
370
    25
  0
POLYLINE
  5
100
330
1F
100
AcDbEntity
  8
0
 62
   250
370
    25
100
AcDb2dPolyline
 66
     1
 10
0.0
 20
0.0
 30
0.0
  0
VERTEX
  5
101
330
100
100
AcDbEntity
  8
0
 62
   250
370
    25
100
AcDbVertex
100
AcDb2dVertex
 10
101.5484591412796
 20
-146.6564955188913
 30
0.0
  0
VERTEX
  5
102
330
100
100
AcDbEntity
  8
0
 62
   250
370
    25
100
AcDbVertex
100
AcDb2dVertex
 10
98.17742053101126
 20
-147.9206394074643
 30
0.0
  0
SEQEND
  5
103
330
100
100
AcDbEntity
  8
0
 62
   250
370
    25
  0
SPLINE
  5
104
330
1F
100
AcDbEntity
  8
0
 62
   250
370
    25
100
AcDbSpline
210
0.0
220
0.0
230
1.0
 70
     8
 71
     3
 72
     8
 73
     4
 74
     0
 42
0.0000000001
 43
0.0000000001
 12
1.0
 22
0.0
 32
0.0
 13
1.0
 23
0.0
 33
0.0
 40
0.0
 40
0.0
 40
0.0
 40
0.0
 40
1.0
 40
1.0
 40
1.0
 40
1.0
 10
94.85792275406338
 20
-149.16545107382
 30
0.0
 10
94.74298775409193
 20
-149.2085605182535
 30
0.0
 10
94.62953442078721
 20
-149.2291274626924
 30
0.0
 10
94.50680303192877
 20
-149.2291274626924
 30
0.0
  0
SPLINE
  5
105
330
1F
100
AcDbEntity
  8
0
 62
   250
370
    25
100
AcDbSpline
210
0.0
220
0.0
230
1.0
 70
    24
 71
     3
 72
     8
 73
     4
 74
     0
 42
0.0000000001
 43
0.0000000001
 12
1.0
 22
0.0
 32
0.0
 13
1.0
 23
0.0
 33
0.0
 40
0.0
 40
0.0
 40
0.0
 40
0.0
 40
1.0
 40
1.0
 40
1.0
 40
1.0
 10
103.1916980297575
 20
-146.2291405189984
 30
0.0
 10
103.0238463631327
 20
-146.2291405189984
 30
0.0
 10
102.8559946965083
 20
-146.2291405189984
 30
0.0
 10
102.6881077521057
 20
-146.2291405189984
 30
0.0
  0
POLYLINE
  5
106
330
1F
100
AcDbEntity
  8
0
 62
   250
370
    25
100
AcDb2dPolyline
 66
     1
 10
0.0
 20
0.0
 30
0.0
  0
VERTEX
  5
107
330
106
100
AcDbEntity
  8
0
 62
   250
370
    25
100
AcDbVertex
100
AcDb2dVertex
 10
104.0658460850944
 20
-146.2291405189984
 30
0.0
  0
VERTEX
  5
108
330
106
100
AcDbEntity
  8
0
 62
   250
370
    25
100
AcDbVertex
100
AcDb2dVertex
 10
103.22739914086
 20
-146.2291405189984
 30
0.0
  0
SEQEND
  5
109
330
106
100
AcDbEntity
  8
0
 62
   250
370
    25
  0
SPLINE
  5
10A
330
1F
100
AcDbEntity
  8
0
 62
   250
370
    25
100
AcDbSpline
210
0.0
220
0.0
230
1.0
 70
     8
 71
     3
 72
     8
 73
     4
 74
     0
 42
0.0000000001
 43
0.0000000001
 12
1.0
 22
0.0
 32
0.0
 13
1.0
 23
0.0
 33
0.0
 40
0.0
 40
0.0
 40
0.0
 40
0.0
 40
1.0
 40
1.0
 40
1.0
 40
1.0
 10
184.6538018982814
 20
-146.2420169078838
 30
0.0
 10
184.6652318982785
 20
-146.2377130189963
 30
0.0
 10
184.6766971760532
 20
-146.2334091301084
 30
0.0
 10
184.6881271760504
 20
-146.2291405189984
 30
0.0
  0
SPLINE
  5
10B
330
1F
100
AcDbEntity
  8
0
 62
   250
370
    25
100
AcDbSpline
210
0.0
220
0.0
230
1.0
 70
     8
 71
     3
 72
     8
 73
     4
 74
     0
 42
0.0000000001
 43
0.0000000001
 12
1.0
 22
0.0
 32
0.0
 13
1.0
 23
0.0
 33
0.0
 40
0.0
 40
0.0
 40
0.0
 40
0.0
 40
1.0
 40
1.0
 40
1.0
 40
1.0
 10
186.2208407867782
 20
-151.229165795526
 30
0.0
 10
186.1961110645618
 20
-151.229165795526
 30
0.0
 10
186.1713460645686
 20
-151.229165795526
 30
0.0
 10
186.1465810645741
 20
-151.2291305177484
 30
0.0
  0
SPLINE
  5
10C
330
1F
100
AcDbEntity
  8
0
 62
   250
370
    25
100
AcDbSpline
210
0.0
220
0.0
230
1.0
 70
     8
 71
     3
 72
     8
 73
     4
 74
     0
 42
0.0000000001
 43
0.0000000001
 12
1.0
 22
0.0
 32
0.0
 13
1.0
 23
0.0
 33
0.0
 40
0.0
 40
0.0
 40
0.0
 40
0.0
 40
1.0
 40
1.0
 40
1.0
 40
1.0
 10
186.0658655090391
 20
-146.2291405189984
 30
0.0
 10
186.3385980089711
 20
-146.2291405189984
 30
0.0
 10
186.5610243978041
 20
-146.4477216300548
 30
0.0
 10
186.5657868978032
 20
-146.720418852209
 30
0.0
  0
SPLINE
  5
10D
330
1F
100
AcDbEntity
  8
0
 62
   250
370
    25
100
AcDbSpline
210
0.0
220
0.0
230
1.0
 70
     8
 71
     3
 72
    20
 73
    16
 74
     0
 42
0.0000000001
 43
0.0000000001
 12
1.0
 22
0.0
 32
0.0
 13
1.0
 23
0.0
 33
0.0
 40
0.0
 40
0.0
 40
0.0
 40
0.0
 40
1.0
 40
1.0
 40
1.0
 40
2.0
 40
2.0
 40
2.0
 40
3.0
 40
3.0
 40
3.0
 40
4.0
 40
4.0
 40
4.0
 40
5.0
 40
5.0
 40
5.0
 40
5.0
 10
186.5657868978032
 20
-146.720418852209
 30
0.0
 10
186.5641288422476
 20
-146.6250277411216
 30
0.0
 10
186.5674449533582
 20
-146.8157746855182
 30
0.0
 10
186.5682916200244
 20
-146.863470241062
 30
0.0
 10
186.5707257866906
 20
-147.003628852138
 30
0.0
 10
186.5731599533568
 20
-147.1437521854364
 30
0.0
 10
186.5756293978005
 20
-147.2838755187345
 30
0.0
 10
186.5789102311329
 20
-147.4717649631321
 30
0.0
 10
186.5821910644659
 20
-147.6596896853073
 30
0.0
 10
186.5854718977977
 20
-147.8475791297046
 30
0.0
 10
186.5920335644632
 20
-148.2232874629442
 30
0.0
 10
186.598595231128
 20
-148.5990310739613
 30
0.0
 10
186.6051216200153
 20
-148.9747394072009
 30
0.0
 10
186.6182449533456
 20
-149.7262266292351
 30
0.0
 10
186.6313682866759
 20
-150.4776785734918
 30
0.0
 10
186.6444916200055
 20
-151.2291305177484
 30
0.0
  0
POLYLINE
  5
10E
330
1F
100
AcDbEntity
  8
0
 62
   250
370
    25
100
AcDb2dPolyline
 66
     1
 10
0.0
 20
0.0
 30
0.0
  0
VERTEX
  5
10F
330
10E
100
AcDbEntity
  8
0
 62
   250
370
    25
100
AcDbVertex
100
AcDb2dVertex
 10
186.231671064553
 20
-151.2291305177484
 30
0.0
  0
VERTEX
  5
110
330
10E
100
AcDbEntity
  8
0
 62
   250
370
    25
100
AcDbVertex
100
AcDb2dVertex
 10
186.2218638423333
 20
-151.2291305177484
 30
0.0
  0
SEQEND
  5
111
330
10E
100
AcDbEntity
  8
0
 62
   250
370
    25
  0
SPLINE
  5
112
330
1F
100
AcDbEntity
  8
0
 62
   250
370
    25
100
AcDbSpline
210
0.0
220
0.0
230
1.0
 70
    24
 71
     3
 72
    17
 73
    13
 74
     0
 42
0.0000000001
 43
0.0000000001
 12
1.0
 22
0.0
 32
0.0
 13
1.0
 23
0.0
 33
0.0
 40
0.0
 40
0.0
 40
0.0
 40
0.0
 40
1.0
 40
1.0
 40
1.0
 40
2.0
 40
2.0
 40
2.0
 40
3.0
 40
3.0
 40
3.0
 40
4.0
 40
4.0
 40
4.0
 40
4.0
 10
186.731768842206
 20
-151.2291305177484
 30
0.0
 10
186.7733613421953
 20
-151.2291305177484
 30
0.0
 10
186.690176342216
 20
-151.2291305177484
 30
0.0
 10
186.6693624533326
 20
-151.2291305177484
 30
0.0
 10
186.648513286671
 20
-151.2291305177484
 30
0.0
 10
186.6276993977876
 20
-151.2291305177484
 30
0.0
 10
186.6068502311259
 20
-151.2291305177484
 30
0.0
 10
186.5651871755809
 20
-151.2291305177484
 30
0.0
 10
186.5234888422577
 20
-151.2291305177484
 30
0.0
 10
186.4818257867127
 20
-151.2291305177484
 30
0.0
 10
186.3984643978445
 20
-151.2291305177484
 30
0.0
 10
186.3151382867544
 20
-151.2291305177484
 30
0.0
 10
186.2317768978862
 20
-151.2291305177484
 30
0.0
  0
SPLINE
  5
113
330
1F
100
AcDbEntity
  8
0
 62
   250
370
    25
100
AcDbSpline
210
0.0
220
0.0
230
1.0
 70
     8
 71
     3
 72
     8
 73
     4
 74
     0
 42
0.0000000001
 43
0.0000000001
 12
1.0
 22
0.0
 32
0.0
 13
1.0
 23
0.0
 33
0.0
 40
0.0
 40
0.0
 40
0.0
 40
0.0
 40
1.0
 40
1.0
 40
1.0
 40
1.0
 10
185.2710571759043
 20
-146.2291405189984
 30
0.0
 10
184.9965960648617
 20
-146.2291405189984
 30
0.0
 10
184.7734641204731
 20
-146.4503321856096
 30
0.0
 10
184.7710652315851
 20
-146.7247580188743
 30
0.0
  0
SPLINE
  5
114
330
1F
100
AcDbEntity
  8
0
 62
   250
370
    25
100
AcDbSpline
210
0.0
220
0.0
230
1.0
 70
     8
 71
     3
 72
    17
 73
    13
 74
     0
 42
0.0000000001
 43
0.0000000001
 12
1.0
 22
0.0
 32
0.0
 13
1.0
 23
0.0
 33
0.0
 40
0.0
 40
0.0
 40
0.0
 40
0.0
 40
1.0
 40
1.0
 40
1.0
 40
2.0
 40
2.0
 40
2.0
 40
3.0
 40
3.0
 40
3.0
 40
4.0
 40
4.0
 40
4.0
 40
4.0
 10
184.745241898258
 20
-149.6835052403568
 30
0.0
 10
184.7495457871462
 20
-149.1903571849245
 30
0.0
 10
184.7538496760337
 20
-148.6972091294923
 30
0.0
 10
184.7581535649219
 20
-148.20406107406
 30
0.0
 10
184.7603055093653
 20
-147.957504685233
 30
0.0
 10
184.7624574538094
 20
-147.7109835741834
 30
0.0
 10
184.7646093982535
 20
-147.4644271853561
 30
0.0
 10
184.7657030093643
 20
-147.3410960742756
 30
0.0
 10
184.766761342697
 20
-147.2177649631955
 30
0.0
 10
184.7678549538084
 20
-147.0943985743376
 30
0.0
 10
184.768913287141
 20
-146.9712085743685
 30
0.0
 10
184.7732171760286
 20
-146.4783427411583
 30
0.0
 10
184.7710652315851
 20
-146.7247580188743
 30
0.0
  0
SPLINE
  5
115
330
1F
100
AcDbEntity
  8
0
 62
   250
370
    25
100
AcDbSpline
210
0.0
220
0.0
230
1.0
 70
     8
 71
     3
 72
    17
 73
    13
 74
     0
 42
0.0000000001
 43
0.0000000001
 12
1.0
 22
0.0
 32
0.0
 13
1.0
 23
0.0
 33
0.0
 40
0.0
 40
0.0
 40
0.0
 40
0.0
 40
1.0
 40
1.0
 40
1.0
 40
2.0
 40
2.0
 40
2.0
 40
3.0
 40
3.0
 40
3.0
 40
4.0
 40
4.0
 40
4.0
 40
4.0
 10
121.7967394139951
 20
-149.2291274626924
 30
0.0
 10
121.7908833028857
 20
-148.8928596849987
 30
0.0
 10
121.7849919139983
 20
-148.5565919073054
 30
0.0
 10
121.7791358028883
 20
-148.2203241296117
 30
0.0
 10
121.7762077473337
 20
-148.0521902407648
 30
0.0
 10
121.7732444140015
 20
-147.884056351918
 30
0.0
 10
121.7703163584462
 20
-147.7159224630708
 30
0.0
 10
121.7688699695577
 20
-147.6318555186477
 30
0.0
 10
121.7673883028916
 20
-147.547788574224
 30
0.0
 10
121.7659066362249
 20
-147.4637216298009
 30
0.0
 10
121.7644602473369
 20
-147.379689963155
 30
0.0
 10
121.758604136227
 20
-147.043633852128
 30
0.0
 10
121.7615321917816
 20
-147.2116619076417
 30
0.0
  0
SPLINE
  5
116
330
1F
100
AcDbEntity
  8
0
 62
   250
370
    25
100
AcDbSpline
210
0.0
220
0.0
230
1.0
 70
     8
 71
     3
 72
     8
 73
     4
 74
     0
 42
0.0000000001
 43
0.0000000001
 12
1.0
 22
0.0
 32
0.0
 13
1.0
 23
0.0
 33
0.0
 40
0.0
 40
0.0
 40
0.0
 40
0.0
 40
1.0
 40
1.0
 40
1.0
 40
1.0
 10
120.7617246920316
 20
-146.2291405189984
 30
0.0
 10
121.3071896918955
 20
-146.2291405189984
 30
0.0
 10
121.752007191784
 20
-146.6663027411113
 30
0.0
 10
121.7615321917816
 20
-147.2116619076417
 30
0.0
  0
SPLINE
  5
117
330
1F
100
AcDbEntity
  8
0
 62
   250
370
    25
100
AcDbSpline
210
0.0
220
0.0
230
1.0
 70
     8
 71
     3
 72
     8
 73
     4
 74
     0
 42
0.0000000001
 43
0.0000000001
 12
1.0
 22
0.0
 32
0.0
 13
1.0
 23
0.0
 33
0.0
 40
0.0
 40
0.0
 40
0.0
 40
0.0
 40
1.0
 40
1.0
 40
1.0
 40
1.0
 10
107.2225369176391
 20
-146.2420521856616
 30
0.0
 10
107.5643080286643
 20
-146.3702163522962
 30
0.0
 10
107.9060438619127
 20
-146.498345241153
 30
0.0
 10
108.2478149729379
 20
-146.626509407788
 30
0.0
  0
POLYLINE
  5
118
330
1F
100
AcDbEntity
  8
0
 62
   250
370
    25
100
AcDb2dPolyline
 66
     1
 10
0.0
 20
0.0
 30
0.0
  0
VERTEX
  5
119
330
118
100
AcDbEntity
  8
0
 62
   250
370
    25
100
AcDbVertex
100
AcDb2dVertex
 10
184.1457313428525
 20
-150.1791227402333
 30
0.0
  0
VERTEX
  5
11A
330
118
100
AcDbEntity
  8
0
 62
   250
370
    25
100
AcDbVertex
100
AcDb2dVertex
 10
183.2013805097551
 20
-150.7298441289842
 30
0.0
  0
SEQEND
  5
11B
330
118
100
AcDbEntity
  8
0
 62
   250
370
    25
  0
POLYLINE
  5
11C
330
1F
100
AcDbEntity
  8
0
 62
   250
370
    25
100
AcDb2dPolyline
 66
     1
 10
0.0
 20
0.0
 30
0.0
  0
VERTEX
  5
11D
330
11C
100
AcDbEntity
  8
0
 62
   250
370
    25
100
AcDbVertex
100
AcDb2dVertex
 10
182.9881263431419
 20
-151.4701130176876
 30
0.0
  0
VERTEX
  5
11E
330
11C
100
AcDbEntity
  8
0
 62
   250
370
    25
100
AcDbVertex
100
AcDb2dVertex
 10
182.9881263431419
 20
-151.13945440666
 30
0.0
  0
SEQEND
  5
11F
330
11C
100
AcDbEntity
  8
0
 62
   250
370
    25
  0
POLYLINE
  5
120
330
1F
100
AcDbEntity
  8
0
 62
   250
370
    25
100
AcDb2dPolyline
 66
     1
 10
0.0
 20
0.0
 30
0.0
  0
VERTEX
  5
121
330
120
100
AcDbEntity
  8
0
 62
   250
370
    25
100
AcDbVertex
100
AcDb2dVertex
 10
184.1457313428525
 20
-150.1791227402333
 30
0.0
  0
VERTEX
  5
122
330
120
100
AcDbEntity
  8
0
 62
   250
370
    25
100
AcDbVertex
100
AcDb2dVertex
 10
184.2452852317164
 20
-150.1791227402333
 30
0.0
  0
SEQEND
  5
123
330
120
100
AcDbEntity
  8
0
 62
   250
370
    25
  0
POLYLINE
  5
124
330
1F
100
AcDbEntity
  8
0
 62
   250
370
    25
100
AcDb2dPolyline
 66
     1
 10
0.0
 20
0.0
 30
0.0
  0
VERTEX
  5
125
330
124
100
AcDbEntity
  8
0
 62
   250
370
    25
100
AcDbVertex
100
AcDb2dVertex
 10
184.1061496761959
 20
-152.2791382952636
 30
0.0
  0
VERTEX
  5
126
330
124
100
AcDbEntity
  8
0
 62
   250
370
    25
100
AcDbVertex
100
AcDb2dVertex
 10
184.2452852317164
 20
-152.2791382952636
 30
0.0
  0
SEQEND
  5
127
330
124
100
AcDbEntity
  8
0
 62
   250
370
    25
  0
POLYLINE
  5
128
330
1F
100
AcDbEntity
  8
0
 62
   250
370
    25
100
AcDb2dPolyline
 66
     1
 10
0.0
 20
0.0
 30
0.0
  0
VERTEX
  5
129
330
128
100
AcDbEntity
  8
0
 62
   250
370
    25
100
AcDbVertex
100
AcDb2dVertex
 10
184.7500749538128
 20
-153.3291460727787
 30
0.0
  0
VERTEX
  5
12A
330
128
100
AcDbEntity
  8
0
 62
   250
370
    25
100
AcDbVertex
100
AcDb2dVertex
 10
184.7452771760355
 20
-152.7780366284719
 30
0.0
  0
SEQEND
  5
12B
330
128
100
AcDbEntity
  8
0
 62
   250
370
    25
  0
POLYLINE
  5
12C
330
1F
100
AcDbEntity
  8
0
 62
   250
370
    25
100
AcDb2dPolyline
 66
     1
 10
0.0
 20
0.0
 30
0.0
  0
VERTEX
  5
12D
330
12C
100
AcDbEntity
  8
0
 62
   250
370
    25
100
AcDbVertex
100
AcDb2dVertex
 10
184.7452066204805
 20
-152.7715102395853
 30
0.0
  0
VERTEX
  5
12E
330
12C
100
AcDbEntity
  8
0
 62
   250
370
    25
100
AcDbVertex
100
AcDb2dVertex
 10
184.7449243982584
 20
-152.7387019062598
 30
0.0
  0
SEQEND
  5
12F
330
12C
100
AcDbEntity
  8
0
 62
   250
370
    25
  0
SPLINE
  5
130
330
1F
100
AcDbEntity
  8
0
 62
   250
370
    25
100
AcDbSpline
210
0.0
220
0.0
230
1.0
 70
     8
 71
     3
 72
     8
 73
     4
 74
     0
 42
0.0000000001
 43
0.0000000001
 12
1.0
 22
0.0
 32
0.0
 13
1.0
 23
0.0
 33
0.0
 40
0.0
 40
0.0
 40
0.0
 40
0.0
 40
1.0
 40
1.0
 40
1.0
 40
1.0
 10
184.2452852317164
 20
-152.2791382952636
 30
0.0
 10
184.5197110649808
 20
-152.2791382952636
 30
0.0
 10
184.74284300937
 20
-152.5003299618751
 30
0.0
 10
184.745241898258
 20
-152.7747557951395
 30
0.0
  0
POLYLINE
  5
131
330
1F
100
AcDbEntity
  8
0
 62
   250
370
    25
100
AcDb2dPolyline
 66
     1
 10
0.0
 20
0.0
 30
0.0
  0
VERTEX
  5
132
330
131
100
AcDbEntity
  8
0
 62
   250
370
    25
100
AcDbVertex
100
AcDb2dVertex
 10
107.0657977510113
 20
-146.720701074431
 30
0.0
  0
VERTEX
  5
133
330
131
100
AcDbEntity
  8
0
 62
   250
370
    25
100
AcDbVertex
100
AcDb2dVertex
 10
107.1811560843155
 20
-153.3291460727787
 30
0.0
  0
SEQEND
  5
134
330
131
100
AcDbEntity
  8
0
 62
   250
370
    25
  0
POLYLINE
  5
135
330
1F
100
AcDbEntity
  8
0
 62
   250
370
    25
100
AcDb2dPolyline
 66
     1
 10
0.0
 20
0.0
 30
0.0
  0
VERTEX
  5
136
330
135
100
AcDbEntity
  8
0
 62
   250
370
    25
100
AcDbVertex
100
AcDb2dVertex
 10
105.2317766403586
 20
-151.2291305177484
 30
0.0
  0
VERTEX
  5
137
330
135
100
AcDbEntity
  8
0
 62
   250
370
    25
100
AcDbVertex
100
AcDb2dVertex
 10
105.3104460847834
 20
-146.720418852209
 30
0.0
  0
SEQEND
  5
138
330
135
100
AcDbEntity
  8
0
 62
   250
370
    25
  0
POLYLINE
  5
139
330
1F
100
AcDbEntity
  8
0
 62
   250
370
    25
100
AcDb2dPolyline
 66
     1
 10
0.0
 20
0.0
 30
0.0
  0
VERTEX
  5
13A
330
139
100
AcDbEntity
  8
0
 62
   250
370
    25
100
AcDbVertex
100
AcDb2dVertex
 10
105.1811530292601
 20
-153.3291460727787
 30
0.0
  0
VERTEX
  5
13B
330
139
100
AcDbEntity
  8
0
 62
   250
370
    25
100
AcDbVertex
100
AcDb2dVertex
 10
105.1444994181581
 20
-151.2291305177484
 30
0.0
  0
SEQEND
  5
13C
330
139
100
AcDbEntity
  8
0
 62
   250
370
    25
  0
SPLINE
  5
13D
330
1F
100
AcDbEntity
  8
0
 62
   250
370
    25
100
AcDbSpline
210
0.0
220
0.0
230
1.0
 70
     8
 71
     3
 72
     8
 73
     4
 74
     0
 42
0.0000000001
 43
0.0000000001
 12
1.0
 22
0.0
 32
0.0
 13
1.0
 23
0.0
 33
0.0
 40
0.0
 40
0.0
 40
0.0
 40
0.0
 40
1.0
 40
1.0
 40
1.0
 40
1.0
 10
107.2225369176391
 20
-146.2420521856616
 30
0.0
 10
107.2110716398638
 20
-146.2377482967738
 30
0.0
 10
107.1996063620891
 20
-146.2334444078863
 30
0.0
 10
107.1881058065363
 20
-146.2291405189984
 30
0.0
  0
SPLINE
  5
13E
330
1F
100
AcDbEntity
  8
0
 62
   250
370
    25
100
AcDbSpline
210
0.0
220
0.0
230
1.0
 70
     8
 71
     3
 72
     8
 73
     4
 74
     0
 42
0.0000000001
 43
0.0000000001
 12
1.0
 22
0.0
 32
0.0
 13
1.0
 23
0.0
 33
0.0
 40
0.0
 40
0.0
 40
0.0
 40
0.0
 40
1.0
 40
1.0
 40
1.0
 40
1.0
 10
106.5658763622472
 20
-146.2291405189984
 30
0.0
 10
106.8386088621791
 20
-146.2291405189984
 30
0.0
 10
107.0610352510128
 20
-146.4477216300548
 30
0.0
 10
107.0657977510113
 20
-146.720418852209
 30
0.0
  0
SPLINE
  5
13F
330
1F
100
AcDbEntity
  8
0
 62
   250
370
    25
100
AcDbSpline
210
0.0
220
0.0
230
1.0
 70
     8
 71
     3
 72
     8
 73
     4
 74
     0
 42
0.0000000001
 43
0.0000000001
 12
1.0
 22
0.0
 32
0.0
 13
1.0
 23
0.0
 33
0.0
 40
0.0
 40
0.0
 40
0.0
 40
0.0
 40
1.0
 40
1.0
 40
1.0
 40
1.0
 10
105.3104460847834
 20
-146.720418852209
 30
0.0
 10
105.3152085847825
 20
-146.4477216300548
 30
0.0
 10
105.5376349736155
 20
-146.2291405189984
 30
0.0
 10
105.810402751325
 20
-146.2291405189984
 30
0.0
  0
POLYLINE
  5
140
330
1F
100
AcDbEntity
  8
0
 62
   250
370
    25
100
AcDb2dPolyline
 66
     1
 10
0.0
 20
0.0
 30
0.0
  0
VERTEX
  5
141
330
140
100
AcDbEntity
  8
0
 62
   250
370
    25
100
AcDbVertex
100
AcDb2dVertex
 10
178.5960430109064
 20
-152.1329824619667
 30
0.0
  0
VERTEX
  5
142
330
140
100
AcDbEntity
  8
0
 62
   250
370
    25
100
AcDbVertex
100
AcDb2dVertex
 10
178.5881407886862
 20
-151.2298713510815
 30
0.0
  0
SEQEND
  5
143
330
140
100
AcDbEntity
  8
0
 62
   250
370
    25
  0
SPLINE
  5
144
330
1F
100
AcDbEntity
  8
0
 62
   250
370
    25
100
AcDbSpline
210
0.0
220
0.0
230
1.0
 70
     8
 71
     3
 72
     8
 73
     4
 74
     0
 42
0.0000000001
 43
0.0000000001
 12
1.0
 22
0.0
 32
0.0
 13
1.0
 23
0.0
 33
0.0
 40
0.0
 40
0.0
 40
0.0
 40
0.0
 40
1.0
 40
1.0
 40
1.0
 40
1.0
 10
178.606026622015
 20
-153.2816269061244
 30
0.0
 10
178.602710510905
 20
-152.8987571839976
 30
0.0
 10
178.5993591220169
 20
-152.5158521840934
 30
0.0
 10
178.5960430109064
 20
-152.1329824619667
 30
0.0
  0
SPLINE
  5
145
330
1F
100
AcDbEntity
  8
0
 62
   250
370
    25
100
AcDbSpline
210
0.0
220
0.0
230
1.0
 70
     8
 71
     3
 72
     8
 73
     4
 74
     0
 42
0.0000000001
 43
0.0000000001
 12
1.0
 22
0.0
 32
0.0
 13
1.0
 23
0.0
 33
0.0
 40
0.0
 40
0.0
 40
0.0
 40
0.0
 40
1.0
 40
1.0
 40
1.0
 40
1.0
 10
178.5960430109064
 20
-150.3253138513071
 30
0.0
 10
178.5993591220169
 20
-149.9430438514034
 30
0.0
 10
178.602710510905
 20
-149.5607738514983
 30
0.0
 10
178.606026622015
 20
-149.1785038515945
 30
0.0
  0
POLYLINE
  5
146
330
1F
100
AcDbEntity
  8
0
 62
   250
370
    25
100
AcDb2dPolyline
 66
     1
 10
0.0
 20
0.0
 30
0.0
  0
VERTEX
  5
147
330
146
100
AcDbEntity
  8
0
 62
   250
370
    25
100
AcDbVertex
100
AcDb2dVertex
 10
113.2881274716779
 20
-151.2284249621929
 30
0.0
  0
VERTEX
  5
148
330
146
100
AcDbEntity
  8
0
 62
   250
370
    25
100
AcDbVertex
100
AcDb2dVertex
 10
113.2797313605686
 20
-150.268163851322
 30
0.0
  0
SEQEND
  5
149
330
146
100
AcDbEntity
  8
0
 62
   250
370
    25
  0
POLYLINE
  5
14A
330
1F
100
AcDbEntity
  8
0
 62
   250
370
    25
100
AcDb2dPolyline
 66
     1
 10
0.0
 20
0.0
 30
0.0
  0
VERTEX
  5
14B
330
14A
100
AcDbEntity
  8
0
 62
   250
370
    25
100
AcDbVertex
100
AcDb2dVertex
 10
156.5444332941971
 20
-149.2291274626924
 30
0.0
  0
VERTEX
  5
14C
330
14A
100
AcDbEntity
  8
0
 62
   250
370
    25
100
AcDbVertex
100
AcDb2dVertex
 10
155.6630532944173
 20
-139.1548171874335
 30
0.0
  0
SEQEND
  5
14D
330
14A
100
AcDbEntity
  8
0
 62
   250
370
    25
  0
SPLINE
  5
14E
330
1F
100
AcDbEntity
  8
0
 62
   250
370
    25
100
AcDbSpline
210
0.0
220
0.0
230
1.0
 70
     8
 71
     3
 72
     8
 73
     4
 74
     0
 42
0.0000000001
 43
0.0000000001
 12
1.0
 22
0.0
 32
0.0
 13
1.0
 23
0.0
 33
0.0
 40
0.0
 40
0.0
 40
0.0
 40
0.0
 40
1.0
 40
1.0
 40
1.0
 40
1.0
 10
113.2797313605686
 20
-150.268163851322
 30
0.0
 10
113.2758155272364
 20
-149.8213002403225
 30
0.0
 10
113.2718996939041
 20
-149.3744013515456
 30
0.0
 10
113.26801913835
 20
-148.927502462768
 30
0.0
  0
SPLINE
  5
14F
330
1F
100
AcDbEntity
  8
0
 62
   250
370
    25
100
AcDbSpline
210
0.0
220
0.0
230
1.0
 70
     8
 71
     3
 72
     8
 73
     4
 74
     0
 42
0.0000000001
 43
0.0000000001
 12
1.0
 22
0.0
 32
0.0
 13
1.0
 23
0.0
 33
0.0
 40
0.0
 40
0.0
 40
0.0
 40
0.0
 40
1.0
 40
1.0
 40
1.0
 40
1.0
 10
145.213211074808
 20
-139.1548171874335
 30
0.0
 10
145.303592741452
 20
-138.121778021025
 30
0.0
 10
146.1686038523466
 20
-137.3291569101123
 30
0.0
 10
147.2055941298653
 20
-137.3291216323342
 30
0.0
  0
SPLINE
  5
150
330
1F
100
AcDbEntity
  8
0
 62
   250
370
    25
100
AcDbSpline
210
0.0
220
0.0
230
1.0
 70
     8
 71
     3
 72
     8
 73
     4
 74
     0
 42
0.0000000001
 43
0.0000000001
 12
1.0
 22
0.0
 32
0.0
 13
1.0
 23
0.0
 33
0.0
 40
0.0
 40
0.0
 40
0.0
 40
0.0
 40
1.0
 40
1.0
 40
1.0
 40
1.0
 10
153.6706349615825
 20
-137.3291216323342
 30
0.0
 10
154.7076605168787
 20
-137.3291569101123
 30
0.0
 10
155.5726363499958
 20
-138.121778021025
 30
0.0
 10
155.6630532944173
 20
-139.1548171874335
 30
0.0
  0
POLYLINE
  5
151
330
1F
100
AcDbEntity
  8
0
 62
   250
370
    25
100
AcDb2dPolyline
 66
     1
 10
0.0
 20
0.0
 30
0.0
  0
VERTEX
  5
152
330
151
100
AcDbEntity
  8
0
 62
   250
370
    25
100
AcDbVertex
100
AcDb2dVertex
 10
147.2055941298653
 20
-137.3291216323342
 30
0.0
  0
VERTEX
  5
153
330
151
100
AcDbEntity
  8
0
 62
   250
370
    25
100
AcDbVertex
100
AcDb2dVertex
 10
153.6706349615825
 20
-137.3291216323342
 30
0.0
  0
SEQEND
  5
154
330
151
100
AcDbEntity
  8
0
 62
   250
370
    25
  0
POLYLINE
  5
155
330
1F
100
AcDbEntity
  8
0
 62
   250
370
    25
100
AcDb2dPolyline
 66
     1
 10
0.0
 20
0.0
 30
0.0
  0
VERTEX
  5
156
330
155
100
AcDbEntity
  8
0
 62
   250
370
    25
100
AcDbVertex
100
AcDb2dVertex
 10
144.3318310750282
 20
-149.2291274626924
 30
0.0
  0
VERTEX
  5
157
330
155
100
AcDbEntity
  8
0
 62
   250
370
    25
100
AcDbVertex
100
AcDb2dVertex
 10
145.213211074808
 20
-139.1548171874335
 30
0.0
  0
SEQEND
  5
158
330
155
100
AcDbEntity
  8
0
 62
   250
370
    25
  0
SPLINE
  5
159
330
1F
100
AcDbEntity
  8
0
 62
   250
370
    25
100
AcDbSpline
210
0.0
220
0.0
230
1.0
 70
     8
 71
     3
 72
     8
 73
     4
 74
     0
 42
0.0000000001
 43
0.0000000001
 12
1.0
 22
0.0
 32
0.0
 13
1.0
 23
0.0
 33
0.0
 40
0.0
 40
0.0
 40
0.0
 40
0.0
 40
1.0
 40
1.0
 40
1.0
 40
1.0
 10
113.2697830272382
 20
-153.3291460727787
 30
0.0
 10
113.2730991383488
 20
-152.9494513506512
 30
0.0
 10
113.2764152494587
 20
-152.5697566285243
 30
0.0
 10
113.2797313605686
 20
-152.1900971841743
 30
0.0
  0
POLYLINE
  5
15A
330
1F
100
AcDbEntity
  8
0
 62
   250
370
    25
100
AcDb2dPolyline
 66
     1
 10
0.0
 20
0.0
 30
0.0
  0
VERTEX
  5
15B
330
15A
100
AcDbEntity
  8
0
 62
   250
370
    25
100
AcDbVertex
100
AcDb2dVertex
 10
113.2797313605686
 20
-152.1900971841743
 30
0.0
  0
VERTEX
  5
15C
330
15A
100
AcDbEntity
  8
0
 62
   250
370
    25
100
AcDbVertex
100
AcDb2dVertex
 10
113.2881274716779
 20
-151.2284249621929
 30
0.0
  0
SEQEND
  5
15D
330
15A
100
AcDbEntity
  8
0
 62
   250
370
    25
  0
SPLINE
  5
15E
330
1F
100
AcDbEntity
  8
0
 62
   250
370
    25
100
AcDbSpline
210
0.0
220
0.0
230
1.0
 70
    24
 71
     3
 72
     8
 73
     4
 74
     0
 42
0.0000000001
 43
0.0000000001
 12
1.0
 22
0.0
 32
0.0
 13
1.0
 23
0.0
 33
0.0
 40
0.0
 40
0.0
 40
0.0
 40
0.0
 40
1.0
 40
1.0
 40
1.0
 40
1.0
 10
107.1158569176656
 20
-149.5883963514918
 30
0.0
 10
107.1158569176656
 20
-149.5882199626029
 30
0.0
 10
107.1158569176656
 20
-149.588043573714
 30
0.0
 10
107.1158569176656
 20
-149.5878671848251
 30
0.0
  0
SPLINE
  5
15F
330
1F
100
AcDbEntity
  8
0
 62
   250
370
    25
100
AcDbSpline
210
0.0
220
0.0
230
1.0
 70
     8
 71
     3
 72
     8
 73
     4
 74
     0
 42
0.0000000001
 43
0.0000000001
 12
1.0
 22
0.0
 32
0.0
 13
1.0
 23
0.0
 33
0.0
 40
0.0
 40
0.0
 40
0.0
 40
0.0
 40
1.0
 40
1.0
 40
1.0
 40
1.0
 10
184.745241898258
 20
-149.6835052403568
 30
0.0
 10
184.74284300937
 20
-149.9579310736218
 30
0.0
 10
184.5197110649808
 20
-150.1791227402333
 30
0.0
 10
184.2452852317164
 20
-150.1791227402333
 30
0.0
  0
SPLINE
  5
160
330
1F
100
AcDbEntity
  8
0
 62
   250
370
    25
100
AcDbSpline
210
0.0
220
0.0
230
1.0
 70
    24
 71
     3
 72
     8
 73
     4
 74
     0
 42
0.0000000001
 43
0.0000000001
 12
1.0
 22
0.0
 32
0.0
 13
1.0
 23
0.0
 33
0.0
 40
0.0
 40
0.0
 40
0.0
 40
0.0
 40
1.0
 40
1.0
 40
1.0
 40
1.0
 10
107.1881058065363
 20
-146.2291405189984
 30
0.0
 10
106.9945719176957
 20
-146.2291405189984
 30
0.0
 10
106.8010380288552
 20
-146.2291405189984
 30
0.0
 10
106.6075041400147
 20
-146.2291405189984
 30
0.0
  0
POLYLINE
  5
161
330
1F
100
AcDbEntity
  8
0
 62
   250
370
    25
100
AcDb2dPolyline
 66
     1
 10
0.0
 20
0.0
 30
0.0
  0
VERTEX
  5
162
330
161
100
AcDbEntity
  8
0
 62
   250
370
    25
100
AcDbVertex
100
AcDb2dVertex
 10
106.5658763622472
 20
-146.2291405189984
 30
0.0
  0
VERTEX
  5
163
330
161
100
AcDbEntity
  8
0
 62
   250
370
    25
100
AcDbVertex
100
AcDb2dVertex
 10
105.810402751325
 20
-146.2291405189984
 30
0.0
  0
SEQEND
  5
164
330
161
100
AcDbEntity
  8
0
 62
   250
370
    25
  0
SPLINE
  5
165
330
1F
100
AcDbEntity
  8
0
 62
   250
370
    25
100
AcDbSpline
210
0.0
220
0.0
230
1.0
 70
     8
 71
     3
 72
     8
 73
     4
 74
     0
 42
0.0000000001
 43
0.0000000001
 12
1.0
 22
0.0
 32
0.0
 13
1.0
 23
0.0
 33
0.0
 40
0.0
 40
0.0
 40
0.0
 40
0.0
 40
1.0
 40
1.0
 40
1.0
 40
1.0
 10
183.2645277319616
 20
-151.9173294064648
 30
0.0
 10
183.0644674542337
 20
-151.8172816287125
 30
0.0
 10
182.9881263431419
 20
-151.693809406521
 30
0.0
 10
182.9881263431419
 20
-151.4701130176876
 30
0.0
  0
SPLINE
  5
166
330
1F
100
AcDbEntity
  8
0
 62
   250
370
    25
100
AcDbSpline
210
0.0
220
0.0
230
1.0
 70
     8
 71
     3
 72
     8
 73
     4
 74
     0
 42
0.0000000001
 43
0.0000000001
 12
1.0
 22
0.0
 32
0.0
 13
1.0
 23
0.0
 33
0.0
 40
0.0
 40
0.0
 40
0.0
 40
0.0
 40
1.0
 40
1.0
 40
1.0
 40
1.0
 10
183.8825591206964
 20
-152.226362739721
 30
0.0
 10
183.9546668984557
 20
-152.2624166286013
 30
0.0
 10
184.0255399539934
 20
-152.2791382952636
 30
0.0
 10
184.1061496761959
 20
-152.2791382952636
 30
0.0
  0
POLYLINE
  5
167
330
1F
100
AcDbEntity
  8
0
 62
   250
370
    25
100
AcDb2dPolyline
 66
     1
 10
0.0
 20
0.0
 30
0.0
  0
VERTEX
  5
168
330
167
100
AcDbEntity
  8
0
 62
   250
370
    25
100
AcDbVertex
100
AcDb2dVertex
 10
183.8825591206964
 20
-152.226362739721
 30
0.0
  0
VERTEX
  5
169
330
167
100
AcDbEntity
  8
0
 62
   250
370
    25
100
AcDbVertex
100
AcDb2dVertex
 10
183.2645277319616
 20
-151.9173294064648
 30
0.0
  0
SEQEND
  5
16A
330
167
100
AcDbEntity
  8
0
 62
   250
370
    25
  0
POLYLINE
  5
16B
330
1F
100
AcDbEntity
  8
0
 62
   250
370
    25
100
AcDb2dPolyline
 66
     1
 10
0.0
 20
0.0
 30
0.0
  0
VERTEX
  5
16C
330
16B
100
AcDbEntity
  8
0
 62
   250
370
    25
100
AcDbVertex
100
AcDb2dVertex
 10
178.5960430109064
 20
-150.3253138513071
 30
0.0
  0
VERTEX
  5
16D
330
16B
100
AcDbEntity
  8
0
 62
   250
370
    25
100
AcDbVertex
100
AcDb2dVertex
 10
178.5881407886862
 20
-151.2298713510815
 30
0.0
  0
SEQEND
  5
16E
330
16B
100
AcDbEntity
  8
0
 62
   250
370
    25
  0
POLYLINE
  5
16F
330
1F
100
AcDbEntity
  8
0
 62
   250
370
    25
100
AcDb2dPolyline
 66
     1
 10
0.0
 20
0.0
 30
0.0
  0
VERTEX
  5
170
330
16F
100
AcDbEntity
  8
0
 62
   250
370
    25
100
AcDbVertex
100
AcDb2dVertex
 10
183.7532307873949
 20
-150.3435524624137
 30
0.0
  0
VERTEX
  5
171
330
16F
100
AcDbEntity
  8
0
 62
   250
370
    25
100
AcDbVertex
100
AcDb2dVertex
 10
183.6808407874129
 20
-150.3942466290679
 30
0.0
  0
SEQEND
  5
172
330
16F
100
AcDbEntity
  8
0
 62
   250
370
    25
  0
SPLINE
  5
173
330
1F
100
AcDbEntity
  8
0
 62
   250
370
    25
100
AcDbSpline
210
0.0
220
0.0
230
1.0
 70
     8
 71
     3
 72
     8
 73
     4
 74
     0
 42
0.0000000001
 43
0.0000000001
 12
1.0
 22
0.0
 32
0.0
 13
1.0
 23
0.0
 33
0.0
 40
0.0
 40
0.0
 40
0.0
 40
0.0
 40
1.0
 40
1.0
 40
1.0
 40
1.0
 10
183.2013805097551
 20
-150.7298441289842
 30
0.0
 10
183.0483807875713
 20
-150.8369474622905
 30
0.0
 10
182.9881263431419
 20
-150.9526938511507
 30
0.0
 10
182.9881263431419
 20
-151.13945440666
 30
0.0
  0
POLYLINE
  5
174
330
1F
100
AcDbEntity
  8
0
 62
   250
370
    25
100
AcDb2dPolyline
 66
     1
 10
0.0
 20
0.0
 30
0.0
  0
VERTEX
  5
175
330
174
100
AcDbEntity
  8
0
 62
   250
370
    25
100
AcDbVertex
100
AcDb2dVertex
 10
186.731768842206
 20
-151.2291305177484
 30
0.0
  0
VERTEX
  5
176
330
174
100
AcDbEntity
  8
0
 62
   250
370
    25
100
AcDbVertex
100
AcDb2dVertex
 10
186.695115231104
 20
-153.3291460727787
 30
0.0
  0
SEQEND
  5
177
330
174
100
AcDbEntity
  8
0
 62
   250
370
    25
  0
POLYLINE
  5
178
330
1F
100
AcDbEntity
  8
0
 62
   250
370
    25
100
AcDb2dPolyline
 66
     1
 10
0.0
 20
0.0
 30
0.0
  0
VERTEX
  5
179
330
178
100
AcDbEntity
  8
0
 62
   250
370
    25
100
AcDbVertex
100
AcDb2dVertex
 10
114.8485341379542
 20
-149.1018099627244
 30
0.0
  0
VERTEX
  5
17A
330
178
100
AcDbEntity
  8
0
 62
   250
370
    25
100
AcDbVertex
100
AcDb2dVertex
 10
108.2478149729379
 20
-146.626509407788
 30
0.0
  0
SEQEND
  5
17B
330
178
100
AcDbEntity
  8
0
 62
   250
370
    25
  0
SPLINE
  5
17C
330
1F
100
AcDbEntity
  8
0
 62
   250
370
    25
100
AcDbSpline
210
0.0
220
0.0
230
1.0
 70
     8
 71
     3
 72
    17
 73
    13
 74
     0
 42
0.0000000001
 43
0.0000000001
 12
1.0
 22
0.0
 32
0.0
 13
1.0
 23
0.0
 33
0.0
 40
0.0
 40
0.0
 40
0.0
 40
0.0
 40
1.0
 40
1.0
 40
1.0
 40
2.0
 40
2.0
 40
2.0
 40
3.0
 40
3.0
 40
3.0
 40
4.0
 40
4.0
 40
4.0
 40
4.0
 10
120.0604730255406
 20
-146.7204541299865
 30
0.0
 10
120.0641066366508
 20
-146.5115744078165
 30
0.0
 10
120.0568041366523
 20
-146.9293338521564
 30
0.0
 10
120.0550049699859
 20
-147.0337913521305
 30
0.0
 10
120.0531705255421
 20
-147.1383899632152
 30
0.0
 10
120.0513360810982
 20
-147.2429532965225
 30
0.0
 10
120.0495016366544
 20
-147.3475519076076
 30
0.0
 10
120.0458680255442
 20
-147.5565727408886
 30
0.0
 10
120.042234414434
 20
-147.765558296392
 30
0.0
 10
120.0385655255457
 20
-147.974579129673
 30
0.0
 10
120.0312630255478
 20
-148.3927619073464
 30
0.0
 10
120.0239605255493
 20
-148.8109446850194
 30
0.0
 10
120.0166580255515
 20
-149.2291274626924
 30
0.0
  0
POLYLINE
  5
17D
330
1F
100
AcDbEntity
  8
0
 62
   250
370
    25
100
AcDb2dPolyline
 66
     1
 10
0.0
 20
0.0
 30
0.0
  0
VERTEX
  5
17E
330
17D
100
AcDbEntity
  8
0
 62
   250
370
    25
100
AcDbVertex
100
AcDb2dVertex
 10
176.3254594003631
 20
-149.2291274626924
 30
0.0
  0
VERTEX
  5
17F
330
17D
100
AcDbEntity
  8
0
 62
   250
370
    25
100
AcDbVertex
100
AcDb2dVertex
 10
115.550808860001
 20
-149.2291274626924
 30
0.0
  0
SEQEND
  5
180
330
17D
100
AcDbEntity
  8
0
 62
   250
370
    25
  0
SPLINE
  5
181
330
1F
100
AcDbEntity
  8
0
 62
   250
370
    25
100
AcDbSpline
210
0.0
220
0.0
230
1.0
 70
     8
 71
     3
 72
     8
 73
     4
 74
     0
 42
0.0000000001
 43
0.0000000001
 12
1.0
 22
0.0
 32
0.0
 13
1.0
 23
0.0
 33
0.0
 40
0.0
 40
0.0
 40
0.0
 40
0.0
 40
1.0
 40
1.0
 40
1.0
 40
1.0
 10
115.550808860001
 20
-149.2291274626924
 30
0.0
 10
115.3053108045072
 20
-149.2291274626924
 30
0.0
 10
115.0784041378972
 20
-149.1879582960365
 30
0.0
 10
114.8485341379542
 20
-149.1018099627244
 30
0.0
  0
SPLINE
  5
182
330
1F
100
AcDbEntity
  8
0
 62
   250
370
    25
100
AcDbSpline
210
0.0
220
0.0
230
1.0
 70
     8
 71
     3
 72
     8
 73
     4
 74
     0
 42
0.0000000001
 43
0.0000000001
 12
1.0
 22
0.0
 32
0.0
 13
1.0
 23
0.0
 33
0.0
 40
0.0
 40
0.0
 40
0.0
 40
0.0
 40
1.0
 40
1.0
 40
1.0
 40
1.0
 10
177.0276988446317
 20
-149.1018099627244
 30
0.0
 10
176.797864122467
 20
-149.187993573814
 30
0.0
 10
176.5709221780794
 20
-149.2291274626924
 30
0.0
 10
176.3254594003631
 20
-149.2291274626924
 30
0.0
  0
POLYLINE
  5
183
330
1F
100
AcDbEntity
  8
0
 62
   250
370
    25
100
AcDb2dPolyline
 66
     1
 10
0.0
 20
0.0
 30
0.0
  0
VERTEX
  5
184
330
183
100
AcDbEntity
  8
0
 62
   250
370
    25
100
AcDbVertex
100
AcDb2dVertex
 10
183.5922230096577
 20
-146.6400913522289
 30
0.0
  0
VERTEX
  5
185
330
183
100
AcDbEntity
  8
0
 62
   250
370
    25
100
AcDbVertex
100
AcDb2dVertex
 10
177.0276988446317
 20
-149.1018099627244
 30
0.0
  0
SEQEND
  5
186
330
183
100
AcDbEntity
  8
0
 62
   250
370
    25
  0
SPLINE
  5
187
330
1F
100
AcDbEntity
  8
0
 62
   250
370
    25
100
AcDbSpline
210
0.0
220
0.0
230
1.0
 70
     8
 71
     3
 72
     8
 73
     4
 74
     0
 42
0.0000000001
 43
0.0000000001
 12
1.0
 22
0.0
 32
0.0
 13
1.0
 23
0.0
 33
0.0
 40
0.0
 40
0.0
 40
0.0
 40
0.0
 40
1.0
 40
1.0
 40
1.0
 40
1.0
 10
184.6506974538372
 20
-146.2431810745503
 30
0.0
 10
184.2978843983701
 20
-146.3754727411839
 30
0.0
 10
183.9450713429023
 20
-146.5077996855953
 30
0.0
 10
183.5922230096577
 20
-146.6400913522289
 30
0.0
  0
SPLINE
  5
188
330
1F
100
AcDbEntity
  8
0
 62
   250
370
    25
100
AcDbSpline
210
0.0
220
0.0
230
1.0
 70
    24
 71
     3
 72
     8
 73
     4
 74
     0
 42
0.0000000001
 43
0.0000000001
 12
1.0
 22
0.0
 32
0.0
 13
1.0
 23
0.0
 33
0.0
 40
0.0
 40
0.0
 40
0.0
 40
0.0
 40
1.0
 40
1.0
 40
1.0
 40
1.0
 10
185.2322516203589
 20
-146.2291405189984
 30
0.0
 10
185.0508885648485
 20
-146.2291405189984
 30
0.0
 10
184.86949023156
 20
-146.2291405189984
 30
0.0
 10
184.6881271760504
 20
-146.2291405189984
 30
0.0
  0
POLYLINE
  5
189
330
1F
100
AcDbEntity
  8
0
 62
   250
370
    25
100
AcDb2dPolyline
 66
     1
 10
0.0
 20
0.0
 30
0.0
  0
VERTEX
  5
18A
330
189
100
AcDbEntity
  8
0
 62
   250
370
    25
100
AcDbVertex
100
AcDb2dVertex
 10
186.0658655090391
 20
-146.2291405189984
 30
0.0
  0
VERTEX
  5
18B
330
189
100
AcDbEntity
  8
0
 62
   250
370
    25
100
AcDbVertex
100
AcDb2dVertex
 10
185.2710571759043
 20
-146.2291405189984
 30
0.0
  0
SEQEND
  5
18C
330
189
100
AcDbEntity
  8
0
 62
   250
370
    25
  0
POLYLINE
  5
18D
330
1F
100
AcDbEntity
  8
0
 62
   250
370
    25
100
AcDb2dPolyline
 66
     1
 10
0.0
 20
0.0
 30
0.0
  0
VERTEX
  5
18E
330
18D
100
AcDbEntity
  8
0
 62
   250
370
    25
100
AcDbVertex
100
AcDb2dVertex
 10
-9.564934442053133
 20
-159.3517682934953
 30
0.0
  0
VERTEX
  5
18F
330
18D
100
AcDbEntity
  8
0
 62
   250
370
    25
100
AcDbVertex
100
AcDb2dVertex
 10
-9.061873331067972
 20
-159.8291471822653
 30
0.0
  0
SEQEND
  5
190
330
18D
100
AcDbEntity
  8
0
 62
   250
370
    25
  0
POLYLINE
  5
191
330
1F
100
AcDbEntity
  8
0
 62
   250
370
    25
100
AcDb2dPolyline
 66
     1
 10
0.0
 20
0.0
 30
0.0
  0
VERTEX
  5
192
330
191
100
AcDbEntity
  8
0
 62
   250
370
    25
100
AcDbVertex
100
AcDb2dVertex
 10
-9.588041386492016
 20
-159.3298255157229
 30
0.0
  0
VERTEX
  5
193
330
191
100
AcDbEntity
  8
0
 62
   250
370
    25
100
AcDbVertex
100
AcDb2dVertex
 10
-9.581303330937992
 20
-159.336246071277
 30
0.0
  0
SEQEND
  5
194
330
191
100
AcDbEntity
  8
0
 62
   250
370
    25
  0
POLYLINE
  5
195
330
1F
100
AcDbEntity
  8
0
 62
   250
370
    25
100
AcDb2dPolyline
 66
     1
 10
0.0
 20
0.0
 30
0.0
  0
VERTEX
  5
196
330
195
100
AcDbEntity
  8
0
 62
   250
370
    25
100
AcDbVertex
100
AcDb2dVertex
 10
219.4575521673578
 20
-159.336246071277
 30
0.0
  0
VERTEX
  5
197
330
195
100
AcDbEntity
  8
0
 62
   250
370
    25
100
AcDbVertex
100
AcDb2dVertex
 10
219.4642902229121
 20
-159.3298255157229
 30
0.0
  0
SEQEND
  5
198
330
195
100
AcDbEntity
  8
0
 62
   250
370
    25
  0
POLYLINE
  5
199
330
1F
100
AcDbEntity
  8
0
 62
   250
370
    25
100
AcDb2dPolyline
 66
     1
 10
0.0
 20
0.0
 30
0.0
  0
VERTEX
  5
19A
330
199
100
AcDbEntity
  8
0
 62
   250
370
    25
100
AcDbVertex
100
AcDb2dVertex
 10
218.938122167488
 20
-159.8291471822653
 30
0.0
  0
VERTEX
  5
19B
330
199
100
AcDbEntity
  8
0
 62
   250
370
    25
100
AcDbVertex
100
AcDb2dVertex
 10
219.4411832784732
 20
-159.3517682934953
 30
0.0
  0
SEQEND
  5
19C
330
199
100
AcDbEntity
  8
0
 62
   250
370
    25
  0
SPLINE
  5
19D
330
1F
100
AcDbEntity
  8
0
 62
   250
370
    25
100
AcDbSpline
210
0.0
220
0.0
230
1.0
 70
    24
 71
     3
 72
    17
 73
    13
 74
     0
 42
0.0000000001
 43
0.0000000001
 12
1.0
 22
0.0
 32
0.0
 13
1.0
 23
0.0
 33
0.0
 40
0.0
 40
0.0
 40
0.0
 40
0.0
 40
1.0
 40
1.0
 40
1.0
 40
2.0
 40
2.0
 40
2.0
 40
3.0
 40
3.0
 40
3.0
 40
4.0
 40
4.0
 40
4.0
 40
4.0
 10
-9.403221108760395
 20
-153.3291460727787
 30
0.0
 10
-9.486441386517253
 20
-153.3291460727787
 30
0.0
 10
-9.56966166427411
 20
-153.3291460727787
 30
0.0
 10
-9.65288194203129
 20
-153.3291460727787
 30
0.0
 10
-9.694474442020958
 20
-153.3291460727787
 30
0.0
 10
-9.736102219788146
 20
-153.3291460727787
 30
0.0
 10
-9.777729997555335
 20
-153.3291460727787
 30
0.0
 10
-9.798543886439411
 20
-153.3291460727787
 30
0.0
 10
-9.819322497545325
 20
-153.3291460727787
 30
0.0
 10
-9.840136386428759
 20
-153.3291460727787
 30
0.0
 10
-9.860950275312513
 20
-153.3291460727787
 30
0.0
 10
-9.94409999751401
 20
-153.3291460727787
 30
0.0
 10
-9.902542775302182
 20
-153.3291460727787
 30
0.0
  0
SPLINE
  5
19E
330
1F
100
AcDbEntity
  8
0
 62
   250
370
    25
100
AcDbSpline
210
0.0
220
0.0
230
1.0
 70
    24
 71
     3
 72
    17
 73
    13
 74
     0
 42
0.0000000001
 43
0.0000000001
 12
1.0
 22
0.0
 32
0.0
 13
1.0
 23
0.0
 33
0.0
 40
0.0
 40
0.0
 40
0.0
 40
0.0
 40
1.0
 40
1.0
 40
1.0
 40
2.0
 40
2.0
 40
2.0
 40
3.0
 40
3.0
 40
3.0
 40
4.0
 40
4.0
 40
4.0
 40
4.0
 10
219.7787916117216
 20
-153.3291460727787
 30
0.0
 10
219.8203488339335
 20
-153.3291460727787
 30
0.0
 10
219.7371991117323
 20
-153.3291460727787
 30
0.0
 10
219.7164205006264
 20
-153.3291460727787
 30
0.0
 10
219.6956066117429
 20
-153.3291460727787
 30
0.0
 10
219.674828000637
 20
-153.3291460727787
 30
0.0
 10
219.6540141117529
 20
-153.3291460727787
 30
0.0
 10
219.6124216117636
 20
-153.3291460727787
 30
0.0
 10
219.5707938339961
 20
-153.3291460727787
 30
0.0
 10
219.5292013340067
 20
-153.3291460727787
 30
0.0
 10
219.4459457784717
 20
-153.3291460727787
 30
0.0
 10
219.3626902229373
 20
-153.3291460727787
 30
0.0
 10
219.2794699451805
 20
-153.3291460727787
 30
0.0
  0
POLYLINE
  5
19F
330
1F
100
AcDbEntity
  8
0
 62
   250
370
    25
100
AcDb2dPolyline
 66
     1
 10
0.0
 20
0.0
 30
0.0
  0
VERTEX
  5
1A0
330
19F
100
AcDbEntity
  8
0
 62
   250
370
    25
100
AcDbVertex
100
AcDb2dVertex
 10
219.7787916117216
 20
-153.3291460727787
 30
0.0
  0
VERTEX
  5
1A1
330
19F
100
AcDbEntity
  8
0
 62
   250
370
    25
100
AcDbVertex
100
AcDb2dVertex
 10
219.4642902229121
 20
-159.3298255157229
 30
0.0
  0
SEQEND
  5
1A2
330
19F
100
AcDbEntity
  8
0
 62
   250
370
    25
  0
POLYLINE
  5
1A3
330
1F
100
AcDbEntity
  8
0
 62
   250
370
    25
100
AcDb2dPolyline
 66
     1
 10
0.0
 20
0.0
 30
0.0
  0
VERTEX
  5
1A4
330
1A3
100
AcDbEntity
  8
0
 62
   250
370
    25
100
AcDbVertex
100
AcDb2dVertex
 10
77.07263109184272
 20
-149.6238857959273
 30
0.0
  0
VERTEX
  5
1A5
330
1A3
100
AcDbEntity
  8
0
 62
   250
370
    25
100
AcDbVertex
100
AcDb2dVertex
 10
77.0520288696257
 20
-150.8029396845217
 30
0.0
  0
SEQEND
  5
1A6
330
1A3
100
AcDbEntity
  8
0
 62
   250
370
    25
  0
POLYLINE
  5
1A7
330
1F
100
AcDbEntity
  8
0
 62
   250
370
    25
100
AcDb2dPolyline
 66
     1
 10
0.0
 20
0.0
 30
0.0
  0
VERTEX
  5
1A8
330
1A7
100
AcDbEntity
  8
0
 62
   250
370
    25
100
AcDbVertex
100
AcDb2dVertex
 10
77.0520288696257
 20
-150.8029396845217
 30
0.0
  0
VERTEX
  5
1A9
330
1A7
100
AcDbEntity
  8
0
 62
   250
370
    25
100
AcDbVertex
100
AcDb2dVertex
 10
77.0079316474145
 20
-153.3291460727787
 30
0.0
  0
SEQEND
  5
1AA
330
1A7
100
AcDbEntity
  8
0
 62
   250
370
    25
  0
POLYLINE
  5
1AB
330
1F
100
AcDbEntity
  8
0
 62
   250
370
    25
100
AcDb2dPolyline
 66
     1
 10
0.0
 20
0.0
 30
0.0
  0
VERTEX
  5
1AC
330
1AB
100
AcDbEntity
  8
0
 62
   250
370
    25
100
AcDbVertex
100
AcDb2dVertex
 10
92.07263636587076
 20
-149.6238857959273
 30
0.0
  0
VERTEX
  5
1AD
330
1AB
100
AcDbEntity
  8
0
 62
   250
370
    25
100
AcDbVertex
100
AcDb2dVertex
 10
92.05203414365373
 20
-150.8029396845217
 30
0.0
  0
SEQEND
  5
1AE
330
1AB
100
AcDbEntity
  8
0
 62
   250
370
    25
  0
POLYLINE
  5
1AF
330
1F
100
AcDbEntity
  8
0
 62
   250
370
    25
100
AcDb2dPolyline
 66
     1
 10
0.0
 20
0.0
 30
0.0
  0
VERTEX
  5
1B0
330
1AF
100
AcDbEntity
  8
0
 62
   250
370
    25
100
AcDbVertex
100
AcDb2dVertex
 10
92.05203414365373
 20
-150.8029396845217
 30
0.0
  0
VERTEX
  5
1B1
330
1AF
100
AcDbEntity
  8
0
 62
   250
370
    25
100
AcDbVertex
100
AcDb2dVertex
 10
92.00793692144254
 20
-153.3291460727787
 30
0.0
  0
SEQEND
  5
1B2
330
1AF
100
AcDbEntity
  8
0
 62
   250
370
    25
  0
POLYLINE
  5
1B3
330
1F
100
AcDbEntity
  8
0
 62
   250
370
    25
100
AcDb2dPolyline
 66
     1
 10
0.0
 20
0.0
 30
0.0
  0
VERTEX
  5
1B4
330
1B3
100
AcDbEntity
  8
0
 62
   250
370
    25
100
AcDbVertex
100
AcDb2dVertex
 10
92.86829136567185
 20
-153.3291460727787
 30
0.0
  0
VERTEX
  5
1B5
330
1B3
100
AcDbEntity
  8
0
 62
   250
370
    25
100
AcDbVertex
100
AcDb2dVertex
 10
92.82419414346066
 20
-150.8029396845217
 30
0.0
  0
SEQEND
  5
1B6
330
1B3
100
AcDbEntity
  8
0
 62
   250
370
    25
  0
SPLINE
  5
1B7
330
1F
100
AcDbEntity
  8
0
 62
   250
370
    25
100
AcDbSpline
210
0.0
220
0.0
230
1.0
 70
     8
 71
     3
 72
     8
 73
     4
 74
     0
 42
0.0000000001
 43
0.0000000001
 12
1.0
 22
0.0
 32
0.0
 13
1.0
 23
0.0
 33
0.0
 40
0.0
 40
0.0
 40
0.0
 40
0.0
 40
1.0
 40
1.0
 40
1.0
 40
1.0
 10
77.80362192499375
 20
-149.6238857959273
 30
0.0
 10
77.79998831388357
 20
-149.414864962646
 30
0.0
 10
77.7127110916831
 20
-149.3291399626679
 30
0.0
 10
77.50369025840179
 20
-149.3291399626679
 30
0.0
  0
SPLINE
  5
1B8
330
1F
100
AcDbEntity
  8
0
 62
   250
370
    25
100
AcDbSpline
210
0.0
220
0.0
230
1.0
 70
     8
 71
     3
 72
     8
 73
     4
 74
     0
 42
0.0000000001
 43
0.0000000001
 12
1.0
 22
0.0
 32
0.0
 13
1.0
 23
0.0
 33
0.0
 40
0.0
 40
0.0
 40
0.0
 40
0.0
 40
1.0
 40
1.0
 40
1.0
 40
1.0
 10
77.37256275843468
 20
-149.3291399626679
 30
0.0
 10
77.16354192515337
 20
-149.3291399626679
 30
0.0
 10
77.07626470295322
 20
-149.414864962646
 30
0.0
 10
77.07263109184272
 20
-149.6238857959273
 30
0.0
  0
SPLINE
  5
1B9
330
1F
100
AcDbEntity
  8
0
 62
   250
370
    25
100
AcDbSpline
210
0.0
220
0.0
230
1.0
 70
     8
 71
     3
 72
     8
 73
     4
 74
     0
 42
0.0000000001
 43
0.0000000001
 12
1.0
 22
0.0
 32
0.0
 13
1.0
 23
0.0
 33
0.0
 40
0.0
 40
0.0
 40
0.0
 40
0.0
 40
1.0
 40
1.0
 40
1.0
 40
1.0
 10
92.3725680324624
 20
-149.3291399626679
 30
0.0
 10
92.16351192140357
 20
-149.3291399626679
 30
0.0
 10
92.07626997698094
 20
-149.414864962646
 30
0.0
 10
92.07263636587076
 20
-149.6238857959273
 30
0.0
  0
SPLINE
  5
1BA
330
1F
100
AcDbEntity
  8
0
 62
   250
370
    25
100
AcDbSpline
210
0.0
220
0.0
230
1.0
 70
     8
 71
     3
 72
     8
 73
     4
 74
     0
 42
0.0000000001
 43
0.0000000001
 12
1.0
 22
0.0
 32
0.0
 13
1.0
 23
0.0
 33
0.0
 40
0.0
 40
0.0
 40
0.0
 40
0.0
 40
1.0
 40
1.0
 40
1.0
 40
1.0
 10
92.80362719902114
 20
-149.6238857959273
 30
0.0
 10
92.79999358791098
 20
-149.414864962646
 30
0.0
 10
92.71271636571049
 20
-149.3291399626679
 30
0.0
 10
92.50366025465166
 20
-149.3291399626679
 30
0.0
  0
SPLINE
  5
1BB
330
1F
100
AcDbEntity
  8
0
 62
   250
370
    25
100
AcDbSpline
210
0.0
220
0.0
230
1.0
 70
     8
 71
     3
 72
    20
 73
    16
 74
     0
 42
0.0000000001
 43
0.0000000001
 12
1.0
 22
0.0
 32
0.0
 13
1.0
 23
0.0
 33
0.0
 40
0.0
 40
0.0
 40
0.0
 40
0.0
 40
1.0
 40
1.0
 40
1.0
 40
2.0
 40
2.0
 40
2.0
 40
3.0
 40
3.0
 40
3.0
 40
4.0
 40
4.0
 40
4.0
 40
5.0
 40
5.0
 40
5.0
 40
5.0
 10
188.1285218974125
 20
-141.3291277424456
 30
0.0
 10
188.1262288418571
 20
-141.3294805202231
 30
0.0
 10
188.1254527307465
 20
-141.3313502424448
 30
0.0
 10
188.1247118974135
 20
-141.3332552424443
 30
0.0
 10
188.1219955085252
 20
-141.3401344091094
 30
0.0
 10
188.12001995297
 20
-141.3471546868855
 30
0.0
 10
188.1182207863037
 20
-141.3542455202169
 30
0.0
 10
188.1129291196386
 20
-141.3749182979896
 30
0.0
 10
188.1090485640838
 20
-141.3959085757623
 30
0.0
 10
188.1053796751961
 20
-141.4169694090903
 30
0.0
 10
188.0927855085325
 20
-141.4892888535166
 30
0.0
 10
188.0829782863128
 20
-141.5619963534982
 30
0.0
 10
188.0742646752038
 20
-141.6348802423691
 30
0.0
 10
188.0535566196536
 20
-141.8078824645479
 30
0.0
 10
188.0389516196566
 20
-141.9815902422823
 30
0.0
 10
188.0282624529931
 20
-142.1554744089055
 30
0.0
  0
POLYLINE
  5
1BC
330
1F
100
AcDbEntity
  8
0
 62
   250
370
    25
100
AcDb2dPolyline
 66
     1
 10
0.0
 20
0.0
 30
0.0
  0
VERTEX
  5
1BD
330
1BC
100
AcDbEntity
  8
0
 62
   250
370
    25
100
AcDbVertex
100
AcDb2dVertex
 10
155.8532791048338
 20
-141.3291277424456
 30
0.0
  0
VERTEX
  5
1BE
330
1BC
100
AcDbEntity
  8
0
 62
   250
370
    25
100
AcDbVertex
100
AcDb2dVertex
 10
188.1285218974125
 20
-141.3291277424456
 30
0.0
  0
SEQEND
  5
1BF
330
1BC
100
AcDbEntity
  8
0
 62
   250
370
    25
  0
SPLINE
  5
1C0
330
1F
100
AcDbEntity
  8
0
 62
   250
370
    25
100
AcDbSpline
210
0.0
220
0.0
230
1.0
 70
     8
 71
     3
 72
    23
 73
    19
 74
     0
 42
0.0000000001
 43
0.0000000001
 12
1.0
 22
0.0
 32
0.0
 13
1.0
 23
0.0
 33
0.0
 40
0.0
 40
0.0
 40
0.0
 40
0.0
 40
1.0
 40
1.0
 40
1.0
 40
2.0
 40
2.0
 40
2.0
 40
3.0
 40
3.0
 40
3.0
 40
4.0
 40
4.0
 40
4.0
 40
5.0
 40
5.0
 40
5.0
 40
6.0
 40
6.0
 40
6.0
 40
6.0
 10
21.84798638342696
 20
-142.1554744089055
 30
0.0
 10
21.84244777231726
 20
-142.0651280200394
 30
0.0
 10
21.83581555009676
 20
-141.9748169089507
 30
0.0
 10
21.82784277232089
 20
-141.8846469089731
 30
0.0
 10
21.82046971676734
 20
-141.8012855201052
 30
0.0
 10
21.81193249454699
 20
-141.7179946867927
 30
0.0
 10
21.80198416121624
 20
-141.6348802423691
 30
0.0
 10
21.79327055010733
 20
-141.5620316312761
 30
0.0
 10
21.78346332788761
 20
-141.4892888535166
 30
0.0
 10
21.77086916122396
 20
-141.4169694090903
 30
0.0
 10
21.76720027233595
 20
-141.3959085757623
 30
0.0
 10
21.76331971678154
 20
-141.3749182979896
 30
0.0
 10
21.75802805011608
 20
-141.3542455202169
 30
0.0
 10
21.75622888345007
 20
-141.3471546868855
 30
0.0
 10
21.75425332789487
 20
-141.3401344091094
 30
0.0
 10
21.75153693900662
 20
-141.3332552424443
 30
0.0
 10
21.75079610567357
 20
-141.3313502424448
 30
0.0
 10
21.75001999456237
 20
-141.3294805202231
 30
0.0
 10
21.74772693900756
 20
-141.3291277424456
 30
0.0
  0
POLYLINE
  5
1C1
330
1F
100
AcDbEntity
  8
0
 62
   250
370
    25
100
AcDb2dPolyline
 66
     1
 10
0.0
 20
0.0
 30
0.0
  0
VERTEX
  5
1C2
330
1C1
100
AcDbEntity
  8
0
 62
   250
370
    25
100
AcDbVertex
100
AcDb2dVertex
 10
77.37256275843468
 20
-149.3291399626679
 30
0.0
  0
VERTEX
  5
1C3
330
1C1
100
AcDbEntity
  8
0
 62
   250
370
    25
100
AcDbVertex
100
AcDb2dVertex
 10
77.50369025840179
 20
-149.3291399626679
 30
0.0
  0
SEQEND
  5
1C4
330
1C1
100
AcDbEntity
  8
0
 62
   250
370
    25
  0
POLYLINE
  5
1C5
330
1F
100
AcDbEntity
  8
0
 62
   250
370
    25
100
AcDb2dPolyline
 66
     1
 10
0.0
 20
0.0
 30
0.0
  0
VERTEX
  5
1C6
330
1C5
100
AcDbEntity
  8
0
 62
   250
370
    25
100
AcDbVertex
100
AcDb2dVertex
 10
92.3725680324624
 20
-149.3291399626679
 30
0.0
  0
VERTEX
  5
1C7
330
1C5
100
AcDbEntity
  8
0
 62
   250
370
    25
100
AcDbVertex
100
AcDb2dVertex
 10
92.50366025465166
 20
-149.3291399626679
 30
0.0
  0
SEQEND
  5
1C8
330
1C5
100
AcDbEntity
  8
0
 62
   250
370
    25
  0
SPLINE
  5
1C9
330
1F
100
AcDbEntity
  8
0
 62
   250
370
    25
100
AcDbSpline
210
0.0
220
0.0
230
1.0
 70
     8
 71
     3
 72
     8
 73
     4
 74
     0
 42
0.0000000001
 43
0.0000000001
 12
1.0
 22
0.0
 32
0.0
 13
1.0
 23
0.0
 33
0.0
 40
0.0
 40
0.0
 40
0.0
 40
0.0
 40
1.0
 40
1.0
 40
1.0
 40
1.0
 10
188.0282624529931
 20
-142.1554744089055
 30
0.0
 10
187.8028374530491
 20
-145.8836299635292
 30
0.0
 10
187.5319393975617
 20
-149.6076227403759
 30
0.0
 10
187.2155330087513
 20
-153.3291460727787
 30
0.0
  0
POLYLINE
  5
1CA
330
1F
100
AcDbEntity
  8
0
 62
   250
370
    25
100
AcDb2dPolyline
 66
     1
 10
0.0
 20
0.0
 30
0.0
  0
VERTEX
  5
1CB
330
1CA
100
AcDbEntity
  8
0
 62
   250
370
    25
100
AcDbVertex
100
AcDb2dVertex
 10
21.24745277246569
 20
-141.3291277424456
 30
0.0
  0
VERTEX
  5
1CC
330
1CA
100
AcDbEntity
  8
0
 62
   250
370
    25
100
AcDbVertex
100
AcDb2dVertex
 10
21.74772693900756
 20
-141.3291277424456
 30
0.0
  0
SEQEND
  5
1CD
330
1CA
100
AcDbEntity
  8
0
 62
   250
370
    25
  0
POLYLINE
  5
1CE
330
1F
100
AcDbEntity
  8
0
 62
   250
370
    25
100
AcDb2dPolyline
 66
     1
 10
0.0
 20
0.0
 30
0.0
  0
VERTEX
  5
1CF
330
1CE
100
AcDbEntity
  8
0
 62
   250
370
    25
100
AcDbVertex
100
AcDb2dVertex
 10
188.1285218974125
 20
-141.3291277424456
 30
0.0
  0
VERTEX
  5
1D0
330
1CE
100
AcDbEntity
  8
0
 62
   250
370
    25
100
AcDbVertex
100
AcDb2dVertex
 10
188.6287960639538
 20
-141.3291277424456
 30
0.0
  0
SEQEND
  5
1D1
330
1CE
100
AcDbEntity
  8
0
 62
   250
370
    25
  0
POLYLINE
  5
1D2
330
1F
100
AcDbEntity
  8
0
 62
   250
370
    25
100
AcDb2dPolyline
 66
     1
 10
0.0
 20
0.0
 30
0.0
  0
VERTEX
  5
1D3
330
1D2
100
AcDbEntity
  8
0
 62
   250
370
    25
100
AcDbVertex
100
AcDb2dVertex
 10
62.85325248428661
 20
-141.3291277424456
 30
0.0
  0
VERTEX
  5
1D4
330
1D2
100
AcDbEntity
  8
0
 62
   250
370
    25
100
AcDbVertex
100
AcDb2dVertex
 10
145.0229932970774
 20
-141.3291277424456
 30
0.0
  0
SEQEND
  5
1D5
330
1D2
100
AcDbEntity
  8
0
 62
   250
370
    25
  0
POLYLINE
  5
1D6
330
1F
100
AcDbEntity
  8
0
 62
   250
370
    25
100
AcDb2dPolyline
 66
     1
 10
0.0
 20
0.0
 30
0.0
  0
VERTEX
  5
1D7
330
1D6
100
AcDbEntity
  8
0
 62
   250
370
    25
100
AcDbVertex
100
AcDb2dVertex
 10
21.74772693900756
 20
-141.3291277424456
 30
0.0
  0
VERTEX
  5
1D8
330
1D6
100
AcDbEntity
  8
0
 62
   250
370
    25
100
AcDbVertex
100
AcDb2dVertex
 10
52.02297470921646
 20
-141.3291277424456
 30
0.0
  0
SEQEND
  5
1D9
330
1D6
100
AcDbEntity
  8
0
 62
   250
370
    25
  0
SPLINE
  5
1DA
330
1F
100
AcDbEntity
  8
0
 62
   250
370
    25
100
AcDbSpline
210
0.0
220
0.0
230
1.0
 70
     8
 71
     3
 72
     8
 73
     4
 74
     0
 42
0.0000000001
 43
0.0000000001
 12
1.0
 22
0.0
 32
0.0
 13
1.0
 23
0.0
 33
0.0
 40
0.0
 40
0.0
 40
0.0
 40
0.0
 40
1.0
 40
1.0
 40
1.0
 40
1.0
 10
22.66071582766811
 20
-153.3291460727787
 30
0.0
 10
22.34430943885842
 20
-149.6076227403759
 30
0.0
 10
22.07341138337033
 20
-145.8836299635292
 30
0.0
 10
21.84798638342696
 20
-142.1554744089055
 30
0.0
  0
POLYLINE
  5
1DB
330
1F
100
AcDbEntity
  8
0
 62
   250
370
    25
100
AcDb2dPolyline
 66
     1
 10
0.0
 20
0.0
 30
0.0
  0
VERTEX
  5
1DC
330
1DB
100
AcDbEntity
  8
0
 62
   250
370
    25
100
AcDbVertex
100
AcDb2dVertex
 10
92.82419414346066
 20
-150.8029396845217
 30
0.0
  0
VERTEX
  5
1DD
330
1DB
100
AcDbEntity
  8
0
 62
   250
370
    25
100
AcDbVertex
100
AcDb2dVertex
 10
92.80362719902114
 20
-149.6238857959273
 30
0.0
  0
SEQEND
  5
1DE
330
1DB
100
AcDbEntity
  8
0
 62
   250
370
    25
  0
POLYLINE
  5
1DF
330
1F
100
AcDbEntity
  8
0
 62
   250
370
    25
100
AcDb2dPolyline
 66
     1
 10
0.0
 20
0.0
 30
0.0
  0
VERTEX
  5
1E0
330
1DF
100
AcDbEntity
  8
0
 62
   250
370
    25
100
AcDbVertex
100
AcDb2dVertex
 10
77.80362192499375
 20
-149.6238857959273
 30
0.0
  0
VERTEX
  5
1E1
330
1DF
100
AcDbEntity
  8
0
 62
   250
370
    25
100
AcDbVertex
100
AcDb2dVertex
 10
77.82422414721078
 20
-150.8029396845217
 30
0.0
  0
SEQEND
  5
1E2
330
1DF
100
AcDbEntity
  8
0
 62
   250
370
    25
  0
POLYLINE
  5
1E3
330
1F
100
AcDbEntity
  8
0
 62
   250
370
    25
100
AcDb2dPolyline
 66
     1
 10
0.0
 20
0.0
 30
0.0
  0
VERTEX
  5
1E4
330
1E3
100
AcDbEntity
  8
0
 62
   250
370
    25
100
AcDbVertex
100
AcDb2dVertex
 10
77.86832136942198
 20
-153.3291460727787
 30
0.0
  0
VERTEX
  5
1E5
330
1E3
100
AcDbEntity
  8
0
 62
   250
370
    25
100
AcDbVertex
100
AcDb2dVertex
 10
77.82422414721078
 20
-150.8029396845217
 30
0.0
  0
SEQEND
  5
1E6
330
1E3
100
AcDbEntity
  8
0
 62
   250
370
    25
  0
POLYLINE
  5
1E7
330
1F
100
AcDbEntity
  8
0
 62
   250
370
    25
100
AcDb2dPolyline
 66
     1
 10
0.0
 20
0.0
 30
0.0
  0
VERTEX
  5
1E8
330
1E7
100
AcDbEntity
  8
0
 62
   250
370
    25
100
AcDbVertex
100
AcDb2dVertex
 10
219.2794699451805
 20
-153.3291460727787
 30
0.0
  0
VERTEX
  5
1E9
330
1E7
100
AcDbEntity
  8
0
 62
   250
370
    25
100
AcDbVertex
100
AcDb2dVertex
 10
-9.403221108760395
 20
-153.3291460727787
 30
0.0
  0
SEQEND
  5
1EA
330
1E7
100
AcDbEntity
  8
0
 62
   250
370
    25
  0
POLYLINE
  5
1EB
330
1F
100
AcDbEntity
  8
0
 62
   250
370
    25
100
AcDb2dPolyline
 66
     1
 10
0.0
 20
0.0
 30
0.0
  0
VERTEX
  5
1EC
330
1EB
100
AcDbEntity
  8
0
 62
   250
370
    25
100
AcDbVertex
100
AcDb2dVertex
 10
-9.902542775302182
 20
-153.3291460727787
 30
0.0
  0
VERTEX
  5
1ED
330
1EB
100
AcDbEntity
  8
0
 62
   250
370
    25
100
AcDbVertex
100
AcDb2dVertex
 10
-9.588041386492016
 20
-159.3298255157229
 30
0.0
  0
SEQEND
  5
1EE
330
1EB
100
AcDbEntity
  8
0
 62
   250
370
    25
  0
POLYLINE
  5
1EF
330
1F
100
AcDbEntity
  8
0
 62
   250
370
    25
100
AcDb2dPolyline
 66
     1
 10
0.0
 20
0.0
 30
0.0
  0
VERTEX
  5
1F0
330
1EF
100
AcDbEntity
  8
0
 62
   250
370
    25
100
AcDbVertex
100
AcDb2dVertex
 10
218.5251252231467
 20
-159.8291471822653
 30
0.0
  0
VERTEX
  5
1F1
330
1EF
100
AcDbEntity
  8
0
 62
   250
370
    25
100
AcDbVertex
100
AcDb2dVertex
 10
-8.648876386726572
 20
-159.8291471822653
 30
0.0
  0
SEQEND
  5
1F2
330
1EF
100
AcDbEntity
  8
0
 62
   250
370
    25
  0
POLYLINE
  5
1F3
330
1F
100
AcDbEntity
  8
0
 62
   250
370
    25
100
AcDb2dPolyline
 66
     1
 10
0.0
 20
0.0
 30
0.0
  0
VERTEX
  5
1F4
330
1F3
100
AcDbEntity
  8
0
 62
   250
370
    25
100
AcDbVertex
100
AcDb2dVertex
 10
218.9353705008216
 20
-159.8291471822653
 30
0.0
  0
VERTEX
  5
1F5
330
1F3
100
AcDbEntity
  8
0
 62
   250
370
    25
100
AcDbVertex
100
AcDb2dVertex
 10
218.5251252231467
 20
-159.8291471822653
 30
0.0
  0
SEQEND
  5
1F6
330
1F3
100
AcDbEntity
  8
0
 62
   250
370
    25
  0
POLYLINE
  5
1F7
330
1F
100
AcDbEntity
  8
0
 62
   250
370
    25
100
AcDb2dPolyline
 66
     1
 10
0.0
 20
0.0
 30
0.0
  0
VERTEX
  5
1F8
330
1F7
100
AcDbEntity
  8
0
 62
   250
370
    25
100
AcDbVertex
100
AcDb2dVertex
 10
-8.648876386726572
 20
-159.8291471822653
 30
0.0
  0
VERTEX
  5
1F9
330
1F7
100
AcDbEntity
  8
0
 62
   250
370
    25
100
AcDbVertex
100
AcDb2dVertex
 10
-9.059086386624042
 20
-159.8291471822653
 30
0.0
  0
SEQEND
  5
1FA
330
1F7
100
AcDbEntity
  8
0
 62
   250
370
    25
  0
SPLINE
  5
1FB
330
1F
100
AcDbEntity
  8
0
 62
   250
370
    25
100
AcDbSpline
210
0.0
220
0.0
230
1.0
 70
     8
 71
     3
 72
     8
 73
     4
 74
     0
 42
0.0000000001
 43
0.0000000001
 12
1.0
 22
0.0
 32
0.0
 13
1.0
 23
0.0
 33
0.0
 40
0.0
 40
0.0
 40
0.0
 40
0.0
 40
1.0
 40
1.0
 40
1.0
 40
1.0
 10
21.24745277246569
 20
-141.3291277424456
 30
0.0
 10
20.96720610586949
 20
-141.4089613535366
 30
0.0
 10
20.7478136059243
 20
-141.6373496868131
 30
0.0
 10
20.74770777259078
 20
-141.8291196867648
 30
0.0
  0
SPLINE
  5
1FC
330
1F
100
AcDbEntity
  8
0
 62
   250
370
    25
100
AcDbSpline
210
0.0
220
0.0
230
1.0
 70
    24
 71
     3
 72
    17
 73
    13
 74
     0
 42
0.0000000001
 43
0.0000000001
 12
1.0
 22
0.0
 32
0.0
 13
1.0
 23
0.0
 33
0.0
 40
0.0
 40
0.0
 40
0.0
 40
0.0
 40
1.0
 40
1.0
 40
1.0
 40
2.0
 40
2.0
 40
2.0
 40
3.0
 40
3.0
 40
3.0
 40
4.0
 40
4.0
 40
4.0
 40
4.0
 10
189.1360199527164
 20
-141.8291196867648
 30
0.0
 10
189.1365138416049
 20
-141.8291196867648
 30
0.0
 10
189.1370077304933
 20
-141.8291196867648
 30
0.0
 10
189.1375016193824
 20
-141.8291196867648
 30
0.0
 10
189.1376074527157
 20
-141.8291196867648
 30
0.0
 10
189.1373605082711
 20
-141.8291196867648
 30
0.0
 10
189.1372899527161
 20
-141.8291196867648
 30
0.0
 10
189.136337452716
 20
-141.8291196867648
 30
0.0
 10
189.1353496749384
 20
-141.8291196867648
 30
0.0
 10
189.1343971749389
 20
-141.8291196867648
 30
0.0
 10
189.1324216193837
 20
-141.8291196867648
 30
0.0
 10
189.1304813416067
 20
-141.8291196867648
 30
0.0
 10
189.128541063829
 20
-141.8291196867648
 30
0.0
  0
SPLINE
  5
1FD
330
1F
100
AcDbEntity
  8
0
 62
   250
370
    25
100
AcDbSpline
210
0.0
220
0.0
230
1.0
 70
     8
 71
     3
 72
     8
 73
     4
 74
     0
 42
0.0000000001
 43
0.0000000001
 12
1.0
 22
0.0
 32
0.0
 13
1.0
 23
0.0
 33
0.0
 40
0.0
 40
0.0
 40
0.0
 40
0.0
 40
1.0
 40
1.0
 40
1.0
 40
1.0
 10
179.088132733006
 20
-151.2276841288599
 30
0.0
 10
179.0907080107829
 20
-150.9268705178235
 30
0.0
 10
179.0933891218936
 20
-150.626092184566
 30
0.0
 10
179.095999677448
 20
-150.3253138513071
 30
0.0
  0
SPLINE
  5
1FE
330
1F
100
AcDbEntity
  8
0
 62
   250
370
    25
100
AcDbSpline
210
0.0
220
0.0
230
1.0
 70
     8
 71
     3
 72
     8
 73
     4
 74
     0
 42
0.0000000001
 43
0.0000000001
 12
1.0
 22
0.0
 32
0.0
 13
1.0
 23
0.0
 33
0.0
 40
0.0
 40
0.0
 40
0.0
 40
0.0
 40
1.0
 40
1.0
 40
1.0
 40
1.0
 10
179.095999677448
 20
-152.1329824619667
 30
0.0
 10
179.0933891218936
 20
-151.83171023982
 30
0.0
 10
179.0907080107829
 20
-151.5304027398951
 30
0.0
 10
179.088132733006
 20
-151.2291305177484
 30
0.0
  0
SPLINE
  5
1FF
330
1F
100
AcDbEntity
  8
0
 62
   250
370
    25
100
AcDbSpline
210
0.0
220
0.0
230
1.0
 70
     8
 71
     3
 72
     8
 73
     4
 74
     0
 42
0.0000000001
 43
0.0000000001
 12
1.0
 22
0.0
 32
0.0
 13
1.0
 23
0.0
 33
0.0
 40
0.0
 40
0.0
 40
0.0
 40
0.0
 40
1.0
 40
1.0
 40
1.0
 40
1.0
 10
179.095999677448
 20
-152.3480005174686
 30
0.0
 10
179.0983632885591
 20
-152.6750255173868
 30
0.0
 10
179.100726899669
 20
-153.0020857950824
 30
0.0
 10
179.1030905107801
 20
-153.3291460727787
 30
0.0
  0
SPLINE
  5
200
330
1F
100
AcDbEntity
  8
0
 62
   250
370
    25
100
AcDbSpline
210
0.0
220
0.0
230
1.0
 70
     8
 71
     3
 72
     8
 73
     4
 74
     0
 42
0.0000000001
 43
0.0000000001
 12
1.0
 22
0.0
 32
0.0
 13
1.0
 23
0.0
 33
0.0
 40
0.0
 40
0.0
 40
0.0
 40
0.0
 40
1.0
 40
1.0
 40
1.0
 40
1.0
 10
184.7392446760373
 20
-149.6103744070417
 30
0.0
 10
184.7434780093698
 20
-149.6017313514885
 30
0.0
 10
184.7460180093692
 20
-149.5932646848241
 30
0.0
 10
184.7461238427024
 20
-149.5834927403819
 30
0.0
  0
SPLINE
  5
201
330
1F
100
AcDbEntity
  8
0
 62
   250
370
    25
100
AcDbSpline
210
0.0
220
0.0
230
1.0
 70
     8
 71
     3
 72
     8
 73
     4
 74
     0
 42
0.0000000001
 43
0.0000000001
 12
1.0
 22
0.0
 32
0.0
 13
1.0
 23
0.0
 33
0.0
 40
0.0
 40
0.0
 40
0.0
 40
0.0
 40
1.0
 40
1.0
 40
1.0
 40
1.0
 10
108.0952385840875
 20
-148.4075432962316
 30
0.0
 10
108.0279638618817
 20
-148.4079666295648
 30
0.0
 10
107.9606891396766
 20
-148.4090602406756
 30
0.0
 10
107.893449695249
 20
-148.410824129564
 30
0.0
  0
POLYLINE
  5
202
330
1F
100
AcDbEntity
  8
0
 62
   250
370
    25
100
AcDb2dPolyline
 66
     1
 10
0.0
 20
0.0
 30
0.0
  0
VERTEX
  5
203
330
202
100
AcDbEntity
  8
0
 62
   250
370
    25
100
AcDbVertex
100
AcDb2dVertex
 10
110.6720333056655
 20
-148.4075432962316
 30
0.0
  0
VERTEX
  5
204
330
202
100
AcDbEntity
  8
0
 62
   250
370
    25
100
AcDbVertex
100
AcDb2dVertex
 10
110.6720333056655
 20
-148.429133296226
 30
0.0
  0
SEQEND
  5
205
330
202
100
AcDbEntity
  8
0
 62
   250
370
    25
  0
POLYLINE
  5
206
330
1F
100
AcDbEntity
  8
0
 62
   250
370
    25
100
AcDb2dPolyline
 66
     1
 10
0.0
 20
0.0
 30
0.0
  0
VERTEX
  5
207
330
206
100
AcDbEntity
  8
0
 62
   250
370
    25
100
AcDbVertex
100
AcDb2dVertex
 10
108.0952385840875
 20
-148.429133296226
 30
0.0
  0
VERTEX
  5
208
330
206
100
AcDbEntity
  8
0
 62
   250
370
    25
100
AcDbVertex
100
AcDb2dVertex
 10
108.0952385840875
 20
-148.4075432962316
 30
0.0
  0
SEQEND
  5
209
330
206
100
AcDbEntity
  8
0
 62
   250
370
    25
  0
POLYLINE
  5
20A
330
1F
100
AcDbEntity
  8
0
 62
   250
370
    25
100
AcDb2dPolyline
 66
     1
 10
0.0
 20
0.0
 30
0.0
  0
VERTEX
  5
20B
330
20A
100
AcDbEntity
  8
0
 62
   250
370
    25
100
AcDbVertex
100
AcDb2dVertex
 10
108.0952385840875
 20
-148.4075432962316
 30
0.0
  0
VERTEX
  5
20C
330
20A
100
AcDbEntity
  8
0
 62
   250
370
    25
100
AcDbVertex
100
AcDb2dVertex
 10
110.6720333056655
 20
-148.4075432962316
 30
0.0
  0
SEQEND
  5
20D
330
20A
100
AcDbEntity
  8
0
 62
   250
370
    25
  0
SPLINE
  5
20E
330
1F
100
AcDbEntity
  8
0
 62
   250
370
    25
100
AcDbSpline
210
0.0
220
0.0
230
1.0
 70
     8
 71
     3
 72
     8
 73
     4
 74
     0
 42
0.0000000001
 43
0.0000000001
 12
1.0
 22
0.0
 32
0.0
 13
1.0
 23
0.0
 33
0.0
 40
0.0
 40
0.0
 40
0.0
 40
0.0
 40
1.0
 40
1.0
 40
1.0
 40
1.0
 10
110.6720333056655
 20
-148.4075432962316
 30
0.0
 10
110.7406838612035
 20
-148.4077196851202
 30
0.0
 10
110.8075352500758
 20
-148.4148457962295
 30
0.0
 10
110.8746688611702
 20
-148.429133296226
 30
0.0
  0
SPLINE
  5
20F
330
1F
100
AcDbEntity
  8
0
 62
   250
370
    25
100
AcDbSpline
210
0.0
220
0.0
230
1.0
 70
     8
 71
     3
 72
     8
 73
     4
 74
     0
 42
0.0000000001
 43
0.0000000001
 12
1.0
 22
0.0
 32
0.0
 13
1.0
 23
0.0
 33
0.0
 40
0.0
 40
0.0
 40
0.0
 40
0.0
 40
1.0
 40
1.0
 40
1.0
 40
1.0
 10
178.5960430109064
 20
-150.3253138513071
 30
0.0
 10
178.5979480109059
 20
-150.1055685735848
 30
0.0
 10
178.9571110663721
 20
-150.1093080180282
 30
0.0
 10
179.095999677448
 20
-150.1102957958058
 30
0.0
  0
SPLINE
  5
210
330
1F
100
AcDbEntity
  8
0
 62
   250
370
    25
100
AcDbSpline
210
0.0
220
0.0
230
1.0
 70
     8
 71
     3
 72
     8
 73
     4
 74
     0
 42
0.0000000001
 43
0.0000000001
 12
1.0
 22
0.0
 32
0.0
 13
1.0
 23
0.0
 33
0.0
 40
0.0
 40
0.0
 40
0.0
 40
0.0
 40
1.0
 40
1.0
 40
1.0
 40
1.0
 10
179.095999677448
 20
-150.1102957958058
 30
0.0
 10
179.0993157885586
 20
-149.634821907036
 30
0.0
 10
179.1028082885574
 20
-149.1593480182661
 30
0.0
 10
179.1060185663348
 20
-148.6838741294956
 30
0.0
  0
POLYLINE
  5
211
330
1F
100
AcDbEntity
  8
0
 62
   250
370
    25
100
AcDb2dPolyline
 66
     1
 10
0.0
 20
0.0
 30
0.0
  0
VERTEX
  5
212
330
211
100
AcDbEntity
  8
0
 62
   250
370
    25
100
AcDbVertex
100
AcDb2dVertex
 10
179.095999677448
 20
-152.1329824619667
 30
0.0
  0
VERTEX
  5
213
330
211
100
AcDbEntity
  8
0
 62
   250
370
    25
100
AcDbVertex
100
AcDb2dVertex
 10
179.095999677448
 20
-152.3480005174686
 30
0.0
  0
SEQEND
  5
214
330
211
100
AcDbEntity
  8
0
 62
   250
370
    25
  0
SPLINE
  5
215
330
1F
100
AcDbEntity
  8
0
 62
   250
370
    25
100
AcDbSpline
210
0.0
220
0.0
230
1.0
 70
     8
 71
     3
 72
     8
 73
     4
 74
     0
 42
0.0000000001
 43
0.0000000001
 12
1.0
 22
0.0
 32
0.0
 13
1.0
 23
0.0
 33
0.0
 40
0.0
 40
0.0
 40
0.0
 40
0.0
 40
1.0
 40
1.0
 40
1.0
 40
1.0
 10
179.095999677448
 20
-152.3480005174686
 30
0.0
 10
178.9571463441496
 20
-152.3489530174681
 30
0.0
 10
178.5979480109059
 20
-152.3526924619121
 30
0.0
 10
178.5960430109064
 20
-152.1329824619667
 30
0.0
  0
POLYLINE
  5
216
330
1F
100
AcDbEntity
  8
0
 62
   250
370
    25
100
AcDb2dPolyline
 66
     1
 10
0.0
 20
0.0
 30
0.0
  0
VERTEX
  5
217
330
216
100
AcDbEntity
  8
0
 62
   250
370
    25
100
AcDbVertex
100
AcDb2dVertex
 10
179.095999677448
 20
-150.1102957958058
 30
0.0
  0
VERTEX
  5
218
330
216
100
AcDbEntity
  8
0
 62
   250
370
    25
100
AcDbVertex
100
AcDb2dVertex
 10
179.095999677448
 20
-150.3253138513071
 30
0.0
  0
SEQEND
  5
219
330
216
100
AcDbEntity
  8
0
 62
   250
370
    25
  0
SPLINE
  5
21A
330
1F
100
AcDbEntity
  8
0
 62
   250
370
    25
100
AcDbSpline
210
0.0
220
0.0
230
1.0
 70
     8
 71
     3
 72
     8
 73
     4
 74
     0
 42
0.0000000001
 43
0.0000000001
 12
1.0
 22
0.0
 32
0.0
 13
1.0
 23
0.0
 33
0.0
 40
0.0
 40
0.0
 40
0.0
 40
0.0
 40
1.0
 40
1.0
 40
1.0
 40
1.0
 10
186.231671064553
 20
-151.2291305177484
 30
0.0
 10
186.2206996756668
 20
-151.9291474620179
 30
0.0
 10
186.2099752312252
 20
-152.6291291285092
 30
0.0
 10
186.1992155090054
 20
-153.3291460727787
 30
0.0
  0
SPLINE
  5
21B
330
1F
100
AcDbEntity
  8
0
 62
   250
370
    25
100
AcDbSpline
210
0.0
220
0.0
230
1.0
 70
     8
 71
     3
 72
     8
 73
     4
 74
     0
 42
0.0000000001
 43
0.0000000001
 12
1.0
 22
0.0
 32
0.0
 13
1.0
 23
0.0
 33
0.0
 40
0.0
 40
0.0
 40
0.0
 40
0.0
 40
1.0
 40
1.0
 40
1.0
 40
1.0
 10
186.0658655090391
 20
-146.2291405189984
 30
0.0
 10
186.0942641201432
 20
-147.8957685741372
 30
0.0
 10
186.1179355090262
 20
-149.5624671848314
 30
0.0
 10
186.1443938423525
 20
-151.2290952399703
 30
0.0
  0
SPLINE
  5
21C
330
1F
100
AcDbEntity
  8
0
 62
   250
370
    25
100
AcDbSpline
210
0.0
220
0.0
230
1.0
 70
     8
 71
     3
 72
     8
 73
     4
 74
     0
 42
0.0000000001
 43
0.0000000001
 12
1.0
 22
0.0
 32
0.0
 13
1.0
 23
0.0
 33
0.0
 40
0.0
 40
0.0
 40
0.0
 40
0.0
 40
1.0
 40
1.0
 40
1.0
 40
1.0
 10
102.6998552521027
 20
-152.5747660729673
 30
0.0
 10
102.6998552521027
 20
-152.5713794063017
 30
0.0
 10
102.6991144187697
 20
-152.5683102396357
 30
0.0
 10
102.69784441877
 20
-152.565170517414
 30
0.0
  0
SPLINE
  5
21D
330
1F
100
AcDbEntity
  8
0
 62
   250
370
    25
100
AcDbSpline
210
0.0
220
0.0
230
1.0
 70
     8
 71
     3
 72
     8
 73
     4
 74
     0
 42
0.0000000001
 43
0.0000000001
 12
1.0
 22
0.0
 32
0.0
 13
1.0
 23
0.0
 33
0.0
 40
0.0
 40
0.0
 40
0.0
 40
0.0
 40
1.0
 40
1.0
 40
1.0
 40
1.0
 10
24.67740527160829
 20
-149.8655032958669
 30
0.0
 10
24.66777443827746
 20
-148.6547699628364
 30
0.0
 10
24.65588582716934
 20
-147.4440719075833
 30
0.0
 10
24.64883027161539
 20
-146.2333385745527
 30
0.0
  0
SPLINE
  5
21E
330
1F
100
AcDbEntity
  8
0
 62
   250
370
    25
100
AcDbSpline
210
0.0
220
0.0
230
1.0
 70
     8
 71
     3
 72
     8
 73
     4
 74
     0
 42
0.0000000001
 43
0.0000000001
 12
1.0
 22
0.0
 32
0.0
 13
1.0
 23
0.0
 33
0.0
 40
0.0
 40
0.0
 40
0.0
 40
0.0
 40
1.0
 40
1.0
 40
1.0
 40
1.0
 10
23.81038332738095
 20
-146.2291405189984
 30
0.0
 10
23.78388971627646
 20
-147.8958038519151
 30
0.0
 10
23.7583486051714
 20
-149.5624671848314
 30
0.0
 10
23.73185499406691
 20
-151.2291305177484
 30
0.0
  0
SPLINE
  5
21F
330
1F
100
AcDbEntity
  8
0
 62
   250
370
    25
100
AcDbSpline
210
0.0
220
0.0
230
1.0
 70
     8
 71
     3
 72
     8
 73
     4
 74
     0
 42
0.0000000001
 43
0.0000000001
 12
1.0
 22
0.0
 32
0.0
 13
1.0
 23
0.0
 33
0.0
 40
0.0
 40
0.0
 40
0.0
 40
0.0
 40
1.0
 40
1.0
 40
1.0
 40
1.0
 10
23.64457777186643
 20
-151.2291305177484
 30
0.0
 10
23.65576082741935
 20
-151.9291474620179
 30
0.0
 10
23.66669693852771
 20
-152.6291291285092
 30
0.0
 10
23.67759777185823
 20
-153.3291460727787
 30
0.0
  0
SPLINE
  5
220
330
1F
100
AcDbEntity
  8
0
 62
   250
370
    25
100
AcDbSpline
210
0.0
220
0.0
230
1.0
 70
     8
 71
     3
 72
     8
 73
     4
 74
     0
 42
0.0000000001
 43
0.0000000001
 12
1.0
 22
0.0
 32
0.0
 13
1.0
 23
0.0
 33
0.0
 40
0.0
 40
0.0
 40
0.0
 40
0.0
 40
1.0
 40
1.0
 40
1.0
 40
1.0
 10
24.67158443827651
 20
-153.3291460727787
 30
0.0
 10
24.67348943827604
 20
-153.0836832950625
 30
0.0
 10
24.67542971605341
 20
-152.8382205173462
 30
0.0
 10
24.67740527160829
 20
-152.5927930174075
 30
0.0
  0
SPLINE
  5
221
330
1F
100
AcDbEntity
  8
0
 62
   250
370
    25
100
AcDbSpline
210
0.0
220
0.0
230
1.0
 70
     8
 71
     3
 72
     8
 73
     4
 74
     0
 42
0.0000000001
 43
0.0000000001
 12
1.0
 22
0.0
 32
0.0
 13
1.0
 23
0.0
 33
0.0
 40
0.0
 40
0.0
 40
0.0
 40
0.0
 40
1.0
 40
1.0
 40
1.0
 40
1.0
 10
102.7123435854329
 20
-147.7963205186066
 30
0.0
 10
102.6535355298921
 20
-148.3003694073693
 30
0.0
 10
102.2264980299991
 20
-148.6804169072743
 30
0.0
 10
101.7190624745701
 20
-148.6803110739411
 30
0.0
  0
SPLINE
  5
222
330
1F
100
AcDbEntity
  8
0
 62
   250
370
    25
100
AcDbSpline
210
0.0
220
0.0
230
1.0
 70
     8
 71
     3
 72
     8
 73
     4
 74
     0
 42
0.0000000001
 43
0.0000000001
 12
1.0
 22
0.0
 32
0.0
 13
1.0
 23
0.0
 33
0.0
 40
0.0
 40
0.0
 40
0.0
 40
0.0
 40
1.0
 40
1.0
 40
1.0
 40
1.0
 10
26.16344638234802
 20
-148.4075432962316
 30
0.0
 10
26.10026388236403
 20
-148.4076844073423
 30
0.0
 10
26.0370813823794
 20
-148.4083899628979
 30
0.0
 10
25.97389888239542
 20
-148.4096952406754
 30
0.0
  0
POLYLINE
  5
223
330
1F
100
AcDbEntity
  8
0
 62
   250
370
    25
100
AcDb2dPolyline
 66
     1
 10
0.0
 20
0.0
 30
0.0
  0
VERTEX
  5
224
330
223
100
AcDbEntity
  8
0
 62
   250
370
    25
100
AcDbVertex
100
AcDb2dVertex
 10
28.6720491594986
 20
-148.4075432962316
 30
0.0
  0
VERTEX
  5
225
330
223
100
AcDbEntity
  8
0
 62
   250
370
    25
100
AcDbVertex
100
AcDb2dVertex
 10
28.6720491594986
 20
-148.429133296226
 30
0.0
  0
SEQEND
  5
226
330
223
100
AcDbEntity
  8
0
 62
   250
370
    25
  0
POLYLINE
  5
227
330
1F
100
AcDbEntity
  8
0
 62
   250
370
    25
100
AcDb2dPolyline
 66
     1
 10
0.0
 20
0.0
 30
0.0
  0
VERTEX
  5
228
330
227
100
AcDbEntity
  8
0
 62
   250
370
    25
100
AcDbVertex
100
AcDb2dVertex
 10
26.16344638234802
 20
-148.429133296226
 30
0.0
  0
VERTEX
  5
229
330
227
100
AcDbEntity
  8
0
 62
   250
370
    25
100
AcDbVertex
100
AcDb2dVertex
 10
26.16344638234802
 20
-148.4075432962316
 30
0.0
  0
SEQEND
  5
22A
330
227
100
AcDbEntity
  8
0
 62
   250
370
    25
  0
POLYLINE
  5
22B
330
1F
100
AcDbEntity
  8
0
 62
   250
370
    25
100
AcDb2dPolyline
 66
     1
 10
0.0
 20
0.0
 30
0.0
  0
VERTEX
  5
22C
330
22B
100
AcDbEntity
  8
0
 62
   250
370
    25
100
AcDbVertex
100
AcDb2dVertex
 10
26.16344638234802
 20
-148.4075432962316
 30
0.0
  0
VERTEX
  5
22D
330
22B
100
AcDbEntity
  8
0
 62
   250
370
    25
100
AcDbVertex
100
AcDb2dVertex
 10
28.6720491594986
 20
-148.4075432962316
 30
0.0
  0
SEQEND
  5
22E
330
22B
100
AcDbEntity
  8
0
 62
   250
370
    25
  0
SPLINE
  5
22F
330
1F
100
AcDbEntity
  8
0
 62
   250
370
    25
100
AcDbSpline
210
0.0
220
0.0
230
1.0
 70
     8
 71
     3
 72
     8
 73
     4
 74
     0
 42
0.0000000001
 43
0.0000000001
 12
1.0
 22
0.0
 32
0.0
 13
1.0
 23
0.0
 33
0.0
 40
0.0
 40
0.0
 40
0.0
 40
0.0
 40
1.0
 40
1.0
 40
1.0
 40
1.0
 10
28.6720491594986
 20
-148.4075432962316
 30
0.0
 10
28.74069971503692
 20
-148.4077196851202
 30
0.0
 10
28.8075158261314
 20
-148.4148457962295
 30
0.0
 10
28.87464943722581
 20
-148.429133296226
 30
0.0
  0
SPLINE
  5
230
330
1F
100
AcDbEntity
  8
0
 62
   250
370
    25
100
AcDbSpline
210
0.0
220
0.0
230
1.0
 70
     8
 71
     3
 72
    20
 73
    16
 74
     0
 42
0.0000000001
 43
0.0000000001
 12
1.0
 22
0.0
 32
0.0
 13
1.0
 23
0.0
 33
0.0
 40
0.0
 40
0.0
 40
0.0
 40
0.0
 40
1.0
 40
1.0
 40
1.0
 40
2.0
 40
2.0
 40
2.0
 40
3.0
 40
3.0
 40
3.0
 40
4.0
 40
4.0
 40
4.0
 40
5.0
 40
5.0
 40
5.0
 40
5.0
 10
25.62768277137065
 20
-150.2291466291095
 30
0.0
 10
25.60880916026427
 20
-150.2293582957759
 30
0.0
 10
25.59000610471356
 20
-150.2280530179987
 30
0.0
 10
25.57123832694037
 20
-150.2262185735549
 30
0.0
 10
25.54784916027973
 20
-150.2238902402219
 30
0.0
 10
25.52453054917445
 20
-150.2207152402227
 30
0.0
 10
25.5014588825134
 20
-150.2162702402238
 30
0.0
 10
25.45559777141404
 20
-150.2074507957817
 30
0.0
 10
25.41068916031412
 20
-150.1935160735627
 30
0.0
 10
25.36712110476956
 20
-150.1767238513447
 30
0.0
 10
25.2103466603642
 20
-150.1163282958046
 30
0.0
 10
25.07071721595458
 20
-150.0189616291617
 30
0.0
 10
24.91743527154835
 20
-149.9506285736233
 30
0.0
 10
24.83989471601224
 20
-149.9160210736322
 30
0.0
 10
24.75886166047698
 20
-149.8888924625279
 30
0.0
 10
24.67740527160829
 20
-149.8655032958669
 30
0.0
  0
SPLINE
  5
231
330
1F
100
AcDbEntity
  8
0
 62
   250
370
    25
100
AcDbSpline
210
0.0
220
0.0
230
1.0
 70
     8
 71
     3
 72
    17
 73
    13
 74
     0
 42
0.0000000001
 43
0.0000000001
 12
1.0
 22
0.0
 32
0.0
 13
1.0
 23
0.0
 33
0.0
 40
0.0
 40
0.0
 40
0.0
 40
0.0
 40
1.0
 40
1.0
 40
1.0
 40
2.0
 40
2.0
 40
2.0
 40
3.0
 40
3.0
 40
3.0
 40
4.0
 40
4.0
 40
4.0
 40
4.0
 10
24.67740527160829
 20
-152.5927930174075
 30
0.0
 10
24.72157304937517
 20
-152.5810455174107
 30
0.0
 10
24.76475304936445
 20
-152.5663346840805
 30
0.0
 10
24.80761554935348
 20
-152.5506360729733
 30
0.0
 10
24.84836138267659
 20
-152.5357488507549
 30
0.0
 10
24.88878971600009
 20
-152.5200149618702
 30
0.0
 10
24.92833610487919
 20
-152.5023407952078
 30
0.0
 10
25.07773749373037
 20
-152.435454128558
 30
0.0
 10
25.21408610480757
 20
-152.3404863508037
 30
0.0
 10
25.36701527143604
 20
-152.2818546841518
 30
0.0
 10
25.45076471585954
 20
-152.2497166286044
 30
0.0
 10
25.53945304917074
 20
-152.2284794063875
 30
0.0
 10
25.62948193803698
 20
-152.2291496841649
 30
0.0
  0
POLYLINE
  5
232
330
1F
100
AcDbEntity
  8
0
 62
   250
370
    25
100
AcDb2dPolyline
 66
     1
 10
0.0
 20
0.0
 30
0.0
  0
VERTEX
  5
233
330
232
100
AcDbEntity
  8
0
 62
   250
370
    25
100
AcDbVertex
100
AcDb2dVertex
 10
30.77975527008295
 20
-152.3936852396797
 30
0.0
  0
VERTEX
  5
234
330
232
100
AcDbEntity
  8
0
 62
   250
370
    25
100
AcDbVertex
100
AcDb2dVertex
 10
30.77975527008295
 20
-152.1900971841743
 30
0.0
  0
SEQEND
  5
235
330
232
100
AcDbEntity
  8
0
 62
   250
370
    25
  0
POLYLINE
  5
236
330
1F
100
AcDbEntity
  8
0
 62
   250
370
    25
100
AcDb2dPolyline
 66
     1
 10
0.0
 20
0.0
 30
0.0
  0
VERTEX
  5
237
330
236
100
AcDbEntity
  8
0
 62
   250
370
    25
100
AcDbVertex
100
AcDb2dVertex
 10
30.77975527008295
 20
-150.268163851322
 30
0.0
  0
VERTEX
  5
238
330
236
100
AcDbEntity
  8
0
 62
   250
370
    25
100
AcDbVertex
100
AcDb2dVertex
 10
30.77975527008295
 20
-150.0645757958172
 30
0.0
  0
SEQEND
  5
239
330
236
100
AcDbEntity
  8
0
 62
   250
370
    25
  0
SPLINE
  5
23A
330
1F
100
AcDbEntity
  8
0
 62
   250
370
    25
100
AcDbSpline
210
0.0
220
0.0
230
1.0
 70
     8
 71
     3
 72
     8
 73
     4
 74
     0
 42
0.0000000001
 43
0.0000000001
 12
1.0
 22
0.0
 32
0.0
 13
1.0
 23
0.0
 33
0.0
 40
0.0
 40
0.0
 40
0.0
 40
0.0
 40
1.0
 40
1.0
 40
1.0
 40
1.0
 10
30.77975527008295
 20
-150.268163851322
 30
0.0
 10
30.78254221452656
 20
-150.5884860734639
 30
0.0
 10
30.78539971452585
 20
-150.9088082956065
 30
0.0
 10
30.78808082563626
 20
-151.2291305177484
 30
0.0
  0
POLYLINE
  5
23B
330
1F
100
AcDbEntity
  8
0
 62
   250
370
    25
100
AcDb2dPolyline
 66
     1
 10
0.0
 20
0.0
 30
0.0
  0
VERTEX
  5
23C
330
23B
100
AcDbEntity
  8
0
 62
   250
370
    25
100
AcDbVertex
100
AcDb2dVertex
 10
30.7881161034141
 20
-151.2305769066364
 30
0.0
  0
VERTEX
  5
23D
330
23B
100
AcDbEntity
  8
0
 62
   250
370
    25
100
AcDbVertex
100
AcDb2dVertex
 10
30.77975527008295
 20
-152.1900971841743
 30
0.0
  0
SEQEND
  5
23E
330
23B
100
AcDbEntity
  8
0
 62
   250
370
    25
  0
SPLINE
  5
23F
330
1F
100
AcDbEntity
  8
0
 62
   250
370
    25
100
AcDbSpline
210
0.0
220
0.0
230
1.0
 70
     8
 71
     3
 72
     8
 73
     4
 74
     0
 42
0.0000000001
 43
0.0000000001
 12
1.0
 22
0.0
 32
0.0
 13
1.0
 23
0.0
 33
0.0
 40
0.0
 40
0.0
 40
0.0
 40
0.0
 40
1.0
 40
1.0
 40
1.0
 40
1.0
 10
30.77975527008295
 20
-150.0645757958172
 30
0.0
 10
30.91472804782695
 20
-150.0636232958171
 30
0.0
 10
31.27784221440257
 20
-150.0503588513761
 30
0.0
 10
31.27971193662458
 20
-150.268163851322
 30
0.0
  0
SPLINE
  5
240
330
1F
100
AcDbEntity
  8
0
 62
   250
370
    25
100
AcDbSpline
210
0.0
220
0.0
230
1.0
 70
     8
 71
     3
 72
     8
 73
     4
 74
     0
 42
0.0000000001
 43
0.0000000001
 12
1.0
 22
0.0
 32
0.0
 13
1.0
 23
0.0
 33
0.0
 40
0.0
 40
0.0
 40
0.0
 40
0.0
 40
1.0
 40
1.0
 40
1.0
 40
1.0
 10
30.76804304786371
 20
-148.4314969073368
 30
0.0
 10
30.77192360341812
 20
-148.9758682960892
 30
0.0
 10
30.77583943675069
 20
-149.5202396848423
 30
0.0
 10
30.77975527008295
 20
-150.0645757958172
 30
0.0
  0
SPLINE
  5
241
330
1F
100
AcDbEntity
  8
0
 62
   250
370
    25
100
AcDbSpline
210
0.0
220
0.0
230
1.0
 70
     8
 71
     3
 72
     8
 73
     4
 74
     0
 42
0.0000000001
 43
0.0000000001
 12
1.0
 22
0.0
 32
0.0
 13
1.0
 23
0.0
 33
0.0
 40
0.0
 40
0.0
 40
0.0
 40
0.0
 40
1.0
 40
1.0
 40
1.0
 40
1.0
 10
31.27971193662458
 20
-152.1900971841743
 30
0.0
 10
31.27784221440257
 20
-152.4079021841202
 30
0.0
 10
30.91472804782695
 20
-152.3946730174567
 30
0.0
 10
30.77975527008295
 20
-152.3936852396797
 30
0.0
  0
SPLINE
  5
242
330
1F
100
AcDbEntity
  8
0
 62
   250
370
    25
100
AcDbSpline
210
0.0
220
0.0
230
1.0
 70
     8
 71
     3
 72
     8
 73
     4
 74
     0
 42
0.0000000001
 43
0.0000000001
 12
1.0
 22
0.0
 32
0.0
 13
1.0
 23
0.0
 33
0.0
 40
0.0
 40
0.0
 40
0.0
 40
0.0
 40
1.0
 40
1.0
 40
1.0
 40
1.0
 10
30.77975527008295
 20
-152.3936852396797
 30
0.0
 10
30.77753277008318
 20
-152.7055055173792
 30
0.0
 10
30.77531027008405
 20
-153.0173257950786
 30
0.0
 10
30.77305249230676
 20
-153.3291460727787
 30
0.0
  0
ENDSEC
  0
SECTION
  2
OBJECTS
  0
DICTIONARY
  5
C
330
0
100
AcDbDictionary
281
     1
  3
ACAD_GROUP
350
D
  3
ACAD_LAYOUT
350
1A
  3
ACAD_MATERIAL
350
3B
  3
ACAD_MLEADERSTYLE
350
264
  3
ACAD_MLINESTYLE
350
17
  3
ACAD_PLOTSETTINGS
350
19
  3
ACAD_PLOTSTYLENAME
350
E
  3
ACAD_TABLESTYLE
350
263
  3
ACAD_VISUALSTYLE
350
2A
  0
SUN
  5
3F
330
29
100
AcDbSun
 90
        1
290
     0
 63
     7
421
 16777215
 40
1.0
291
     1
 91
  2455826
 92
 54000000
292
     0
 70
     2
 71
   256
280
     1
  0
DICTIONARY
  5
D
102
{ACAD_REACTORS
330
C
102
}
330
C
100
AcDbDictionary
281
     1
  0
DICTIONARY
  5
1A
102
{ACAD_REACTORS
330
C
102
}
330
C
100
AcDbDictionary
281
     1
  3
Layout1
350
1E
  3
Layout2
350
26
  3
Model
350
22
  0
DICTIONARY
  5
3B
102
{ACAD_REACTORS
330
C
102
}
330
C
100
AcDbDictionary
281
     1
  3
ByBlock
350
3D
  3
ByLayer
350
3C
  3
Global
350
3E
  0
DICTIONARY
  5
264
102
{ACAD_REACTORS
330
C
102
}
330
C
100
AcDbDictionary
281
     1
  0
DICTIONARY
  5
17
102
{ACAD_REACTORS
330
C
102
}
330
C
100
AcDbDictionary
281
     1
  3
Standard
350
18
  0
DICTIONARY
  5
19
102
{ACAD_REACTORS
330
C
102
}
330
C
100
AcDbDictionary
281
     1
  0
ACDBDICTIONARYWDFLT
  5
E
102
{ACAD_REACTORS
330
C
102
}
330
C
100
AcDbDictionary
281
     1
  3
Normal
350
F
100
AcDbDictionaryWithDefault
340
F
  0
DICTIONARY
  5
263
102
{ACAD_REACTORS
330
C
102
}
330
C
100
AcDbDictionary
281
     1
  0
DICTIONARY
  5
2A
102
{ACAD_REACTORS
330
C
102
}
330
C
100
AcDbDictionary
281
     1
  3
2dWireframe
350
2F
  3
3D Hidden
350
31
  3
3dWireframe
350
30
  3
Basic
350
32
  3
Brighten
350
36
  3
ColorChange
350
3A
  3
Conceptual
350
34
  3
Dim
350
35
  3
Facepattern
350
39
  3
Flat
350
2B
  3
FlatWithEdges
350
2C
  3
Gouraud
350
2D
  3
GouraudWithEdges
350
2E
  3
Linepattern
350
38
  3
Realistic
350
33
  3
Thicken
350
37
  0
LAYOUT
  5
1E
102
{ACAD_REACTORS
330
1A
102
}
330
1A
100
AcDbPlotSettings
  1

  2
none_device
  4

  6

 40
0.0
 41
0.0
 42
0.0
 43
0.0
 44
0.0
 45
0.0
 46
0.0
 47
0.0
 48
0.0
 49
0.0
140
0.0
141
0.0
142
1.0
143
1.0
 70
   688
 72
     0
 73
     0
 74
     5
  7

 75
    16
 76
     0
 77
     2
 78
   300
147
1.0
148
0.0
149
0.0
100
AcDbLayout
  1
Layout1
 70
     1
 71
     1
 10
0.0
 20
0.0
 11
12.0
 21
9.0
 12
0.0
 22
0.0
 32
0.0
 14
1.000000000000000E+20
 24
1.000000000000000E+20
 34
1.000000000000000E+20
 15
-1.000000000000000E+20
 25
-1.000000000000000E+20
 35
-1.000000000000000E+20
146
0.0
 13
0.0
 23
0.0
 33
0.0
 16
1.0
 26
0.0
 36
0.0
 17
0.0
 27
1.0
 37
0.0
 76
     0
330
1B
  0
LAYOUT
  5
26
102
{ACAD_REACTORS
330
1A
102
}
330
1A
100
AcDbPlotSettings
  1

  2
none_device
  4

  6

 40
0.0
 41
0.0
 42
0.0
 43
0.0
 44
0.0
 45
0.0
 46
0.0
 47
0.0
 48
0.0
 49
0.0
140
0.0
141
0.0
142
1.0
143
1.0
 70
   688
 72
     0
 73
     0
 74
     5
  7

 75
    16
 76
     0
 77
     2
 78
   300
147
1.0
148
0.0
149
0.0
100
AcDbLayout
  1
Layout2
 70
     1
 71
     2
 10
0.0
 20
0.0
 11
0.0
 21
0.0
 12
0.0
 22
0.0
 32
0.0
 14
0.0
 24
0.0
 34
0.0
 15
0.0
 25
0.0
 35
0.0
146
0.0
 13
0.0
 23
0.0
 33
0.0
 16
1.0
 26
0.0
 36
0.0
 17
0.0
 27
1.0
 37
0.0
 76
     0
330
23
  0
LAYOUT
  5
22
102
{ACAD_REACTORS
330
1A
102
}
330
1A
100
AcDbPlotSettings
  1

  2
none_device
  4

  6

 40
0.0
 41
0.0
 42
0.0
 43
0.0
 44
0.0
 45
0.0
 46
0.0
 47
0.0
 48
0.0
 49
0.0
140
0.0
141
0.0
142
1.0
143
1.0
 70
  1712
 72
     0
 73
     0
 74
     0
  7

 75
     0
 76
     0
 77
     2
 78
   300
147
1.0
148
0.0
149
0.0
100
AcDbLayout
  1
Model
 70
     1
 71
     0
 10
0.0
 20
0.0
 11
12.0
 21
9.0
 12
0.0
 22
0.0
 32
0.0
 14
1.000000000000000E+20
 24
1.000000000000000E+20
 34
1.000000000000000E+20
 15
-1.000000000000000E+20
 25
-1.000000000000000E+20
 35
-1.000000000000000E+20
146
0.0
 13
0.0
 23
0.0
 33
0.0
 16
1.0
 26
0.0
 36
0.0
 17
0.0
 27
1.0
 37
0.0
 76
     0
330
1F
331
29
  0
MATERIAL
  5
3D
102
{ACAD_REACTORS
330
3B
102
}
330
3B
100
AcDbMaterial
  1
ByBlock
 72
     1
 94
      127
  0
MATERIAL
  5
3C
102
{ACAD_REACTORS
330
3B
102
}
330
3B
100
AcDbMaterial
  1
ByLayer
 72
     1
 94
      127
  0
MATERIAL
  5
3E
102
{ACAD_REACTORS
330
3B
102
}
330
3B
100
AcDbMaterial
  1
Global
 72
     1
 94
      127
  0
MLINESTYLE
  5
18
102
{ACAD_REACTORS
330
17
102
}
330
17
100
AcDbMlineStyle
  2
Standard
 70
     0
  3

 62
   256
 51
90.0
 52
90.0
 71
     2
 49
0.5
 62
   256
  6
BYLAYER
 49
-0.5
 62
   256
  6
BYLAYER
  0
ACDBPLACEHOLDER
  5
F
102
{ACAD_REACTORS
330
E
102
}
330
E
  0
VISUALSTYLE
  5
2F
102
{ACAD_REACTORS
330
2A
102
}
102
{ACAD_XDICTIONARY
360
24B
102
}
330
2A
100
AcDbVisualStyle
  2
2dWireframe
 70
     4
 71
     0
 72
     2
 73
     0
 90
        0
 40
-0.6
 41
-30.0
 62
     5
 63
     7
421
 16777215
 74
     1
 91
        4
 64
     7
 65
   257
 75
     1
175
     1
 42
1.0
 92
        0
 66
   257
 43
1.0
 76
     1
 77
     6
 78
     2
 67
     7
 79
     5
170
     0
171
     0
290
     0
174
     0
 93
        1
 44
0.0
173
     0
291
     0
 45
0.0
  0
VISUALSTYLE
  5
31
102
{ACAD_REACTORS
330
2A
102
}
102
{ACAD_XDICTIONARY
360
24F
102
}
330
2A
100
AcDbVisualStyle
  2
3D Hidden
 70
     6
 71
     1
 72
     2
 73
     2
 90
        0
 40
-0.6
 41
-30.0
 62
     5
 63
     7
421
 16777215
 74
     2
 91
        2
 64
     7
 65
   257
 75
     2
175
     1
 42
40.0
 92
        0
 66
   257
 43
1.0
 76
     1
 77
     6
 78
     2
 67
     7
 79
     3
170
     0
171
     0
290
     0
174
     0
 93
        1
 44
0.0
173
     0
291
     0
 45
0.0
  0
VISUALSTYLE
  5
30
102
{ACAD_REACTORS
330
2A
102
}
102
{ACAD_XDICTIONARY
360
24D
102
}
330
2A
100
AcDbVisualStyle
  2
3dWireframe
 70
     5
 71
     0
 72
     2
 73
     0
 90
        0
 40
-0.6
 41
-30.0
 62
     5
 63
     7
421
 16777215
 74
     1
 91
        4
 64
     7
 65
   257
 75
     1
175
     1
 42
1.0
 92
        0
 66
   257
 43
1.0
 76
     1
 77
     6
 78
     2
 67
     7
 79
     5
170
     0
171
     0
290
     0
174
     0
 93
        1
 44
0.0
173
     0
291
     0
 45
0.0
  0
VISUALSTYLE
  5
32
102
{ACAD_REACTORS
330
2A
102
}
102
{ACAD_XDICTIONARY
360
251
102
}
330
2A
100
AcDbVisualStyle
  2
Basic
 70
     7
 71
     1
 72
     0
 73
     1
 90
        0
 40
-0.6
 41
-30.0
 62
     5
 63
     7
421
 16777215
 74
     0
 91
        4
 64
     7
 65
   257
 75
     1
175
     1
 42
1.0
 92
        8
 66
     7
 43
1.0
 76
     1
 77
     6
 78
     2
 67
     7
 79
     5
170
     0
171
     0
290
     0
174
     0
 93
        1
 44
0.0
173
     0
291
     1
 45
0.0
  0
VISUALSTYLE
  5
36
102
{ACAD_REACTORS
330
2A
102
}
102
{ACAD_XDICTIONARY
360
259
102
}
330
2A
100
AcDbVisualStyle
  2
Brighten
 70
    12
 71
     2
 72
     2
 73
     0
 90
        0
 40
-0.6
 41
-30.0
 62
     5
 63
     7
421
 16777215
 74
     1
 91
        4
 64
     7
 65
   257
 75
     1
175
     1
 42
1.0
 92
        8
 66
     7
 43
1.0
 76
     1
 77
     6
 78
     2
 67
     7
 79
     5
170
     0
171
     0
290
     0
174
     0
 93
        1
 44
50.0
173
     0
291
     1
 45
0.0
  0
VISUALSTYLE
  5
3A
102
{ACAD_REACTORS
330
2A
102
}
102
{ACAD_XDICTIONARY
360
261
102
}
330
2A
100
AcDbVisualStyle
  2
ColorChange
 70
    16
 71
     2
 72
     2
 73
     3
 90
        0
 40
-0.6
 41
-30.0
 62
     5
 63
     8
421
  8421504
 74
     1
 91
        4
 64
     7
 65
   257
 75
     1
175
     1
 42
1.0
 92
        8
 66
     8
424
  8421504
 43
1.0
 76
     1
 77
     6
 78
     2
 67
     7
 79
     5
170
     0
171
     0
290
     0
174
     0
 93
        1
 44
0.0
173
     0
291
     1
 45
0.0
  0
VISUALSTYLE
  5
34
102
{ACAD_REACTORS
330
2A
102
}
102
{ACAD_XDICTIONARY
360
255
102
}
330
2A
100
AcDbVisualStyle
  2
Conceptual
 70
     9
 71
     3
 72
     2
 73
     0
 90
        0
 40
-0.6
 41
-30.0
 62
     5
 63
     7
421
 16777215
 74
     2
 91
        2
 64
     7
 65
   257
 75
     1
175
     1
 42
40.0
 92
        8
 66
     7
 43
1.0
 76
     1
 77
     6
 78
     2
 67
     7
 79
     3
170
     0
171
     0
290
     0
174
     0
 93
        1
 44
0.0
173
     0
291
     0
 45
0.0
  0
VISUALSTYLE
  5
35
102
{ACAD_REACTORS
330
2A
102
}
102
{ACAD_XDICTIONARY
360
257
102
}
330
2A
100
AcDbVisualStyle
  2
Dim
 70
    11
 71
     2
 72
     2
 73
     0
 90
        0
 40
-0.6
 41
-30.0
 62
     5
 63
     7
421
 16777215
 74
     1
 91
        4
 64
     7
 65
   257
 75
     1
175
     1
 42
1.0
 92
        8
 66
     7
 43
1.0
 76
     1
 77
     6
 78
     2
 67
     7
 79
     5
170
     0
171
     0
290
     0
174
     0
 93
        1
 44
-50.0
173
     0
291
     1
 45
0.0
  0
VISUALSTYLE
  5
39
102
{ACAD_REACTORS
330
2A
102
}
102
{ACAD_XDICTIONARY
360
25F
102
}
330
2A
100
AcDbVisualStyle
  2
Facepattern
 70
    15
 71
     2
 72
     2
 73
     0
 90
        0
 40
-0.6
 41
-30.0
 62
     5
 63
     7
421
 16777215
 74
     1
 91
        4
 64
     7
 65
   257
 75
     1
175
     1
 42
1.0
 92
        8
 66
     7
 43
1.0
 76
     1
 77
     6
 78
     2
 67
     7
 79
     5
170
     0
171
     0
290
     0
174
     0
 93
        1
 44
0.0
173
     0
291
     1
 45
0.0
  0
VISUALSTYLE
  5
2B
102
{ACAD_REACTORS
330
2A
102
}
102
{ACAD_XDICTIONARY
360
243
102
}
330
2A
100
AcDbVisualStyle
  2
Flat
 70
     0
 71
     2
 72
     1
 73
     1
 90
        2
 40
-0.6
 41
30.0
 62
     5
 63
     7
421
 16777215
 74
     0
 91
        4
 64
     7
 65
   257
 75
     1
175
     1
 42
1.0
 92
        8
 66
     7
 43
1.0
 76
     1
 77
     6
 78
     2
 67
     7
 79
     5
170
     0
171
     0
290
     0
174
     0
 93
       13
 44
0.0
173
     0
291
     1
 45
0.0
  0
VISUALSTYLE
  5
2C
102
{ACAD_REACTORS
330
2A
102
}
102
{ACAD_XDICTIONARY
360
245
102
}
330
2A
100
AcDbVisualStyle
  2
FlatWithEdges
 70
     1
 71
     2
 72
     1
 73
     1
 90
        2
 40
-0.6
 41
30.0
 62
     5
 63
     7
421
 16777215
 74
     1
 91
        4
 64
     7
 65
   257
 75
     1
175
     1
 42
1.0
 92
        0
 66
   257
 43
1.0
 76
     1
 77
     6
 78
     2
 67
     7
 79
     5
170
     0
171
     0
290
     0
174
     0
 93
       13
 44
0.0
173
     0
291
     1
 45
0.0
  0
VISUALSTYLE
  5
2D
102
{ACAD_REACTORS
330
2A
102
}
102
{ACAD_XDICTIONARY
360
247
102
}
330
2A
100
AcDbVisualStyle
  2
Gouraud
 70
     2
 71
     2
 72
     2
 73
     1
 90
        2
 40
-0.6
 41
30.0
 62
     5
 63
     7
421
 16777215
 74
     0
 91
        4
 64
     7
 65
   257
 75
     1
175
     1
 42
1.0
 92
        0
 66
     7
 43
1.0
 76
     1
 77
     6
 78
     2
 67
     7
 79
     5
170
     0
171
     0
290
     0
174
     0
 93
       13
 44
0.0
173
     0
291
     1
 45
0.0
  0
VISUALSTYLE
  5
2E
102
{ACAD_REACTORS
330
2A
102
}
102
{ACAD_XDICTIONARY
360
249
102
}
330
2A
100
AcDbVisualStyle
  2
GouraudWithEdges
 70
     3
 71
     2
 72
     2
 73
     1
 90
        2
 40
-0.6
 41
30.0
 62
     5
 63
     7
421
 16777215
 74
     1
 91
        4
 64
     7
 65
   257
 75
     1
175
     1
 42
1.0
 92
        0
 66
   257
 43
1.0
 76
     1
 77
     6
 78
     2
 67
     7
 79
     5
170
     0
171
     0
290
     0
174
     0
 93
       13
 44
0.0
173
     0
291
     1
 45
0.0
  0
VISUALSTYLE
  5
38
102
{ACAD_REACTORS
330
2A
102
}
102
{ACAD_XDICTIONARY
360
25D
102
}
330
2A
100
AcDbVisualStyle
  2
Linepattern
 70
    14
 71
     2
 72
     2
 73
     0
 90
        0
 40
-0.6
 41
-30.0
 62
     5
 63
     7
421
 16777215
 74
     1
 91
        4
 64
     7
 65
   257
 75
     7
175
     7
 42
1.0
 92
        8
 66
     7
 43
1.0
 76
     1
 77
     6
 78
     2
 67
     7
 79
     5
170
     0
171
     0
290
     0
174
     0
 93
        1
 44
0.0
173
     0
291
     1
 45
0.0
  0
VISUALSTYLE
  5
33
102
{ACAD_REACTORS
330
2A
102
}
102
{ACAD_XDICTIONARY
360
253
102
}
330
2A
100
AcDbVisualStyle
  2
Realistic
 70
     8
 71
     2
 72
     2
 73
     0
 90
        0
 40
-0.6
 41
-30.0
 62
     5
 63
     7
421
 16777215
 74
     1
 91
        0
 64
     7
 65
   257
 75
     1
175
     1
 42
1.0
 92
        8
 66
     8
424
  7895160
 43
1.0
 76
     1
 77
     6
 78
     2
 67
     7
 79
     5
170
     0
171
     0
290
     0
174
     0
 93
       13
 44
0.0
173
     0
291
     0
 45
0.0
  0
VISUALSTYLE
  5
37
102
{ACAD_REACTORS
330
2A
102
}
102
{ACAD_XDICTIONARY
360
25B
102
}
330
2A
100
AcDbVisualStyle
  2
Thicken
 70
    13
 71
     2
 72
     2
 73
     0
 90
        0
 40
-0.6
 41
-30.0
 62
     5
 63
     7
421
 16777215
 74
     1
 91
        4
 64
     7
 65
   257
 75
     1
175
     1
 42
1.0
 92
       12
 66
     7
 43
1.0
 76
     1
 77
     6
 78
     2
 67
     7
 79
     5
170
     0
171
     0
290
     0
174
     0
 93
        1
 44
0.0
173
     0
291
     1
 45
0.0
  0
DICTIONARY
  5
24B
330
2F
100
AcDbDictionary
280
     1
281
     1
  3
ACAD_XREC_ROUNDTRIP
360
24C
  0
DICTIONARY
  5
24F
330
31
100
AcDbDictionary
280
     1
281
     1
  3
ACAD_XREC_ROUNDTRIP
360
250
  0
DICTIONARY
  5
24D
330
30
100
AcDbDictionary
280
     1
281
     1
  3
ACAD_XREC_ROUNDTRIP
360
24E
  0
DICTIONARY
  5
251
330
32
100
AcDbDictionary
280
     1
281
     1
  3
ACAD_XREC_ROUNDTRIP
360
252
  0
DICTIONARY
  5
259
330
36
100
AcDbDictionary
280
     1
281
     1
  3
ACAD_XREC_ROUNDTRIP
360
25A
  0
DICTIONARY
  5
261
330
3A
100
AcDbDictionary
280
     1
281
     1
  3
ACAD_XREC_ROUNDTRIP
360
262
  0
DICTIONARY
  5
255
330
34
100
AcDbDictionary
280
     1
281
     1
  3
ACAD_XREC_ROUNDTRIP
360
256
  0
DICTIONARY
  5
257
330
35
100
AcDbDictionary
280
     1
281
     1
  3
ACAD_XREC_ROUNDTRIP
360
258
  0
DICTIONARY
  5
25F
330
39
100
AcDbDictionary
280
     1
281
     1
  3
ACAD_XREC_ROUNDTRIP
360
260
  0
DICTIONARY
  5
243
330
2B
100
AcDbDictionary
280
     1
281
     1
  3
ACAD_XREC_ROUNDTRIP
360
244
  0
DICTIONARY
  5
245
330
2C
100
AcDbDictionary
280
     1
281
     1
  3
ACAD_XREC_ROUNDTRIP
360
246
  0
DICTIONARY
  5
247
330
2D
100
AcDbDictionary
280
     1
281
     1
  3
ACAD_XREC_ROUNDTRIP
360
248
  0
DICTIONARY
  5
249
330
2E
100
AcDbDictionary
280
     1
281
     1
  3
ACAD_XREC_ROUNDTRIP
360
24A
  0
DICTIONARY
  5
25D
330
38
100
AcDbDictionary
280
     1
281
     1
  3
ACAD_XREC_ROUNDTRIP
360
25E
  0
DICTIONARY
  5
253
330
33
100
AcDbDictionary
280
     1
281
     1
  3
ACAD_XREC_ROUNDTRIP
360
254
  0
DICTIONARY
  5
25B
330
37
100
AcDbDictionary
280
     1
281
     1
  3
ACAD_XREC_ROUNDTRIP
360
25C
  0
XRECORD
  5
24C
102
{ACAD_REACTORS
330
24B
102
}
330
24B
100
AcDbXrecord
280
     1
102
RTVSPropertyOp0
 70
     1
102
RTVSPropertyOp1
 70
     1
102
RTVSPropertyOp2
 70
     1
102
RTVSPropertyOp3
 70
     1
102
RTVSPropertyOp4
 70
     1
102
RTVSPropertyOp5
 70
     1
102
RTVSPropertyOp6
 70
     1
102
RTVSPropertyOp7
 70
     1
102
RTVSPropertyOp8
 70
     1
102
RTVSPropertyOp9
 70
     1
102
RTVSPropertyOp10
 70
     1
102
RTVSPropertyOp11
 70
     1
102
RTVSPropertyOp12
 70
     1
102
RTVSPropertyOp13
 70
     1
102
RTVSPropertyOp14
 70
     1
102
RTVSPropertyOp15
 70
     1
102
RTVSPropertyOp16
 70
     1
102
RTVSPropertyOp17
 70
     1
102
RTVSPropertyOp18
 70
     1
102
RTVSPropertyOp19
 70
     1
102
RTVSPropertyOp20
 70
     1
102
RTVSPropertyOp21
 70
     1
102
RTVSPropertyOp22
 70
     1
102
RTVSPropertyOp23
 70
     1
102
RTVSPropertyOp24
 70
     1
102
RTVSPropertyOp25
 70
     1
102
RTVSPropertyOp26
 70
     1
102
RTVSPropertyOp27
 70
     1
102
RTVSPropertyOp28
 70
     1
102
RTVSPropertyOp29
 70
     1
102
RTVSPropertyOp30
 70
     1
102
RTVSPropertyOp31
 70
     1
102
RTVSPropertyOp32
 70
     1
  0
XRECORD
  5
250
102
{ACAD_REACTORS
330
24F
102
}
330
24F
100
AcDbXrecord
280
     1
102
RTVSPropertyOp0
 70
     1
102
RTVSPropertyOp1
 70
     1
102
RTVSPropertyOp2
 70
     1
102
RTVSPropertyOp3
 70
     1
102
RTVSPropertyOp4
 70
     1
102
RTVSPropertyOp5
 70
     1
102
RTVSPropertyOp6
 70
     1
102
RTVSPropertyOp7
 70
     1
102
RTVSPropertyOp8
 70
     1
102
RTVSPropertyOp9
 70
     1
102
RTVSPropertyOp10
 70
     1
102
RTVSPropertyOp11
 70
     1
102
RTVSPropertyOp12
 70
     1
102
RTVSPropertyOp13
 70
     1
102
RTVSPropertyOp14
 70
     1
102
RTVSPropertyOp15
 70
     1
102
RTVSPropertyOp16
 70
     1
102
RTVSPropertyOp17
 70
     1
102
RTVSPropertyOp18
 70
     1
102
RTVSPropertyOp19
 70
     1
102
RTVSPropertyOp20
 70
     1
102
RTVSPropertyOp21
 70
     1
102
RTVSPropertyOp22
 70
     1
102
RTVSPropertyOp23
 70
     1
102
RTVSPropertyOp24
 70
     1
102
RTVSPropertyOp25
 70
     1
102
RTVSPropertyOp26
 70
     1
102
RTVSPropertyOp27
 70
     1
102
RTVSPropertyOp28
 70
     1
102
RTVSPropertyOp29
 70
     1
102
RTVSPropertyOp30
 70
     1
102
RTVSPropertyOp31
 70
     1
102
RTVSPropertyOp32
 70
     1
  0
XRECORD
  5
24E
102
{ACAD_REACTORS
330
24D
102
}
330
24D
100
AcDbXrecord
280
     1
102
RTVSPropertyOp0
 70
     1
102
RTVSPropertyOp1
 70
     1
102
RTVSPropertyOp2
 70
     1
102
RTVSPropertyOp3
 70
     1
102
RTVSPropertyOp4
 70
     1
102
RTVSPropertyOp5
 70
     1
102
RTVSPropertyOp6
 70
     1
102
RTVSPropertyOp7
 70
     1
102
RTVSPropertyOp8
 70
     1
102
RTVSPropertyOp9
 70
     1
102
RTVSPropertyOp10
 70
     1
102
RTVSPropertyOp11
 70
     1
102
RTVSPropertyOp12
 70
     1
102
RTVSPropertyOp13
 70
     1
102
RTVSPropertyOp14
 70
     1
102
RTVSPropertyOp15
 70
     1
102
RTVSPropertyOp16
 70
     1
102
RTVSPropertyOp17
 70
     1
102
RTVSPropertyOp18
 70
     1
102
RTVSPropertyOp19
 70
     1
102
RTVSPropertyOp20
 70
     1
102
RTVSPropertyOp21
 70
     1
102
RTVSPropertyOp22
 70
     1
102
RTVSPropertyOp23
 70
     1
102
RTVSPropertyOp24
 70
     1
102
RTVSPropertyOp25
 70
     1
102
RTVSPropertyOp26
 70
     1
102
RTVSPropertyOp27
 70
     1
102
RTVSPropertyOp28
 70
     1
102
RTVSPropertyOp29
 70
     1
102
RTVSPropertyOp30
 70
     1
102
RTVSPropertyOp31
 70
     1
102
RTVSPropertyOp32
 70
     1
  0
XRECORD
  5
252
102
{ACAD_REACTORS
330
251
102
}
330
251
100
AcDbXrecord
280
     1
102
RTVSPropertyOp0
 70
     1
102
RTVSPropertyOp1
 70
     1
102
RTVSPropertyOp2
 70
     1
102
RTVSPropertyOp3
 70
     1
102
RTVSPropertyOp4
 70
     1
102
RTVSPropertyOp5
 70
     1
102
RTVSPropertyOp6
 70
     1
102
RTVSPropertyOp7
 70
     1
102
RTVSPropertyOp8
 70
     1
102
RTVSPropertyOp9
 70
     1
102
RTVSPropertyOp10
 70
     1
102
RTVSPropertyOp11
 70
     1
102
RTVSPropertyOp12
 70
     1
102
RTVSPropertyOp13
 70
     1
102
RTVSPropertyOp14
 70
     1
102
RTVSPropertyOp15
 70
     1
102
RTVSPropertyOp16
 70
     1
102
RTVSPropertyOp17
 70
     1
102
RTVSPropertyOp18
 70
     1
102
RTVSPropertyOp19
 70
     1
102
RTVSPropertyOp20
 70
     1
102
RTVSPropertyOp21
 70
     1
102
RTVSPropertyOp22
 70
     1
102
RTVSPropertyOp23
 70
     1
102
RTVSPropertyOp24
 70
     1
102
RTVSPropertyOp25
 70
     1
102
RTVSPropertyOp26
 70
     1
102
RTVSPropertyOp27
 70
     1
102
RTVSPropertyOp28
 70
     1
102
RTVSPropertyOp29
 70
     1
102
RTVSPropertyOp30
 70
     1
102
RTVSPropertyOp31
 70
     1
102
RTVSPropertyOp32
 70
     1
  0
XRECORD
  5
25A
102
{ACAD_REACTORS
330
259
102
}
330
259
100
AcDbXrecord
280
     1
102
RTVSPropertyOp0
 70
     1
102
RTVSPropertyOp1
 70
     1
102
RTVSPropertyOp2
 70
     1
102
RTVSPropertyOp3
 70
     1
102
RTVSPropertyOp4
 70
     1
102
RTVSPropertyOp5
 70
     1
102
RTVSPropertyOp6
 70
     1
102
RTVSPropertyOp7
 70
     1
102
RTVSPropertyOp8
 70
     1
102
RTVSPropertyOp9
 70
     1
102
RTVSPropertyOp10
 70
     1
102
RTVSPropertyOp11
 70
     1
102
RTVSPropertyOp12
 70
     1
102
RTVSPropertyOp13
 70
     1
102
RTVSPropertyOp14
 70
     1
102
RTVSPropertyOp15
 70
     1
102
RTVSPropertyOp16
 70
     1
102
RTVSPropertyOp17
 70
     1
102
RTVSPropertyOp18
 70
     1
102
RTVSPropertyOp19
 70
     1
102
RTVSPropertyOp20
 70
     1
102
RTVSPropertyOp21
 70
     1
102
RTVSPropertyOp22
 70
     1
102
RTVSPropertyOp23
 70
     1
102
RTVSPropertyOp24
 70
     1
102
RTVSPropertyOp25
 70
     1
102
RTVSPropertyOp26
 70
     1
102
RTVSPropertyOp27
 70
     1
102
RTVSPropertyOp28
 70
     1
102
RTVSPropertyOp29
 70
     1
102
RTVSPropertyOp30
 70
     1
102
RTVSPropertyOp31
 70
     1
102
RTVSPropertyOp32
 70
     1
  0
XRECORD
  5
262
102
{ACAD_REACTORS
330
261
102
}
330
261
100
AcDbXrecord
280
     1
102
RTVSPropertyOp0
 70
     1
102
RTVSPropertyOp1
 70
     1
102
RTVSPropertyOp2
 70
     1
102
RTVSPropertyOp3
 70
     1
102
RTVSPropertyOp4
 70
     1
102
RTVSPropertyOp5
 70
     1
102
RTVSPropertyOp6
 70
     1
102
RTVSPropertyOp7
 70
     1
102
RTVSPropertyOp8
 70
     1
102
RTVSPropertyOp9
 70
     1
102
RTVSPropertyOp10
 70
     1
102
RTVSPropertyOp11
 70
     1
102
RTVSPropertyOp12
 70
     1
102
RTVSPropertyOp13
 70
     1
102
RTVSPropertyOp14
 70
     1
102
RTVSPropertyOp15
 70
     1
102
RTVSPropertyOp16
 70
     1
102
RTVSPropertyOp17
 70
     1
102
RTVSPropertyOp18
 70
     1
102
RTVSPropertyOp19
 70
     1
102
RTVSPropertyOp20
 70
     1
102
RTVSPropertyOp21
 70
     1
102
RTVSPropertyOp22
 70
     1
102
RTVSPropertyOp23
 70
     1
102
RTVSPropertyOp24
 70
     1
102
RTVSPropertyOp25
 70
     1
102
RTVSPropertyOp26
 70
     1
102
RTVSPropertyOp27
 70
     1
102
RTVSPropertyOp28
 70
     1
102
RTVSPropertyOp29
 70
     1
102
RTVSPropertyOp30
 70
     1
102
RTVSPropertyOp31
 70
     1
102
RTVSPropertyOp32
 70
     1
  0
XRECORD
  5
256
102
{ACAD_REACTORS
330
255
102
}
330
255
100
AcDbXrecord
280
     1
102
RTVSPropertyOp0
 70
     1
102
RTVSPropertyOp1
 70
     1
102
RTVSPropertyOp2
 70
     1
102
RTVSPropertyOp3
 70
     1
102
RTVSPropertyOp4
 70
     1
102
RTVSPropertyOp5
 70
     1
102
RTVSPropertyOp6
 70
     1
102
RTVSPropertyOp7
 70
     1
102
RTVSPropertyOp8
 70
     1
102
RTVSPropertyOp9
 70
     1
102
RTVSPropertyOp10
 70
     1
102
RTVSPropertyOp11
 70
     1
102
RTVSPropertyOp12
 70
     1
102
RTVSPropertyOp13
 70
     1
102
RTVSPropertyOp14
 70
     1
102
RTVSPropertyOp15
 70
     1
102
RTVSPropertyOp16
 70
     1
102
RTVSPropertyOp17
 70
     1
102
RTVSPropertyOp18
 70
     1
102
RTVSPropertyOp19
 70
     1
102
RTVSPropertyOp20
 70
     1
102
RTVSPropertyOp21
 70
     1
102
RTVSPropertyOp22
 70
     1
102
RTVSPropertyOp23
 70
     1
102
RTVSPropertyOp24
 70
     1
102
RTVSPropertyOp25
 70
     1
102
RTVSPropertyOp26
 70
     1
102
RTVSPropertyOp27
 70
     1
102
RTVSPropertyOp28
 70
     1
102
RTVSPropertyOp29
 70
     1
102
RTVSPropertyOp30
 70
     1
102
RTVSPropertyOp31
 70
     1
102
RTVSPropertyOp32
 70
     1
  0
XRECORD
  5
258
102
{ACAD_REACTORS
330
257
102
}
330
257
100
AcDbXrecord
280
     1
102
RTVSPropertyOp0
 70
     1
102
RTVSPropertyOp1
 70
     1
102
RTVSPropertyOp2
 70
     1
102
RTVSPropertyOp3
 70
     1
102
RTVSPropertyOp4
 70
     1
102
RTVSPropertyOp5
 70
     1
102
RTVSPropertyOp6
 70
     1
102
RTVSPropertyOp7
 70
     1
102
RTVSPropertyOp8
 70
     1
102
RTVSPropertyOp9
 70
     1
102
RTVSPropertyOp10
 70
     1
102
RTVSPropertyOp11
 70
     1
102
RTVSPropertyOp12
 70
     1
102
RTVSPropertyOp13
 70
     1
102
RTVSPropertyOp14
 70
     1
102
RTVSPropertyOp15
 70
     1
102
RTVSPropertyOp16
 70
     1
102
RTVSPropertyOp17
 70
     1
102
RTVSPropertyOp18
 70
     1
102
RTVSPropertyOp19
 70
     1
102
RTVSPropertyOp20
 70
     1
102
RTVSPropertyOp21
 70
     1
102
RTVSPropertyOp22
 70
     1
102
RTVSPropertyOp23
 70
     1
102
RTVSPropertyOp24
 70
     1
102
RTVSPropertyOp25
 70
     1
102
RTVSPropertyOp26
 70
     1
102
RTVSPropertyOp27
 70
     1
102
RTVSPropertyOp28
 70
     1
102
RTVSPropertyOp29
 70
     1
102
RTVSPropertyOp30
 70
     1
102
RTVSPropertyOp31
 70
     1
102
RTVSPropertyOp32
 70
     1
  0
XRECORD
  5
260
102
{ACAD_REACTORS
330
25F
102
}
330
25F
100
AcDbXrecord
280
     1
102
RTVSPropertyOp0
 70
     1
102
RTVSPropertyOp1
 70
     1
102
RTVSPropertyOp2
 70
     1
102
RTVSPropertyOp3
 70
     1
102
RTVSPropertyOp4
 70
     1
102
RTVSPropertyOp5
 70
     1
102
RTVSPropertyOp6
 70
     1
102
RTVSPropertyOp7
 70
     1
102
RTVSPropertyOp8
 70
     1
102
RTVSPropertyOp9
 70
     1
102
RTVSPropertyOp10
 70
     1
102
RTVSPropertyOp11
 70
     1
102
RTVSPropertyOp12
 70
     1
102
RTVSPropertyOp13
 70
     1
102
RTVSPropertyOp14
 70
     1
102
RTVSPropertyOp15
 70
     1
102
RTVSPropertyOp16
 70
     1
102
RTVSPropertyOp17
 70
     1
102
RTVSPropertyOp18
 70
     1
102
RTVSPropertyOp19
 70
     1
102
RTVSPropertyOp20
 70
     1
102
RTVSPropertyOp21
 70
     1
102
RTVSPropertyOp22
 70
     1
102
RTVSPropertyOp23
 70
     1
102
RTVSPropertyOp24
 70
     1
102
RTVSPropertyOp25
 70
     1
102
RTVSPropertyOp26
 70
     1
102
RTVSPropertyOp27
 70
     1
102
RTVSPropertyOp28
 70
     1
102
RTVSPropertyOp29
 70
     1
102
RTVSPropertyOp30
 70
     1
102
RTVSPropertyOp31
 70
     1
102
RTVSPropertyOp32
 70
     1
  0
XRECORD
  5
244
102
{ACAD_REACTORS
330
243
102
}
330
243
100
AcDbXrecord
280
     1
102
RTVSPropertyOp0
 70
     1
102
RTVSPropertyOp1
 70
     1
102
RTVSPropertyOp2
 70
     1
102
RTVSPropertyOp3
 70
     1
102
RTVSPropertyOp4
 70
     1
102
RTVSPropertyOp5
 70
     1
102
RTVSPropertyOp6
 70
     1
102
RTVSPropertyOp7
 70
     1
102
RTVSPropertyOp8
 70
     1
102
RTVSPropertyOp9
 70
     1
102
RTVSPropertyOp10
 70
     1
102
RTVSPropertyOp11
 70
     1
102
RTVSPropertyOp12
 70
     1
102
RTVSPropertyOp13
 70
     1
102
RTVSPropertyOp14
 70
     1
102
RTVSPropertyOp15
 70
     1
102
RTVSPropertyOp16
 70
     1
102
RTVSPropertyOp17
 70
     1
102
RTVSPropertyOp18
 70
     1
102
RTVSPropertyOp19
 70
     1
102
RTVSPropertyOp20
 70
     1
102
RTVSPropertyOp21
 70
     1
102
RTVSPropertyOp22
 70
     1
102
RTVSPropertyOp23
 70
     1
102
RTVSPropertyOp24
 70
     1
102
RTVSPropertyOp25
 70
     1
102
RTVSPropertyOp26
 70
     1
102
RTVSPropertyOp27
 70
     1
102
RTVSPropertyOp28
 70
     1
102
RTVSPropertyOp29
 70
     1
102
RTVSPropertyOp30
 70
     1
102
RTVSPropertyOp31
 70
     1
102
RTVSPropertyOp32
 70
     1
  0
XRECORD
  5
246
102
{ACAD_REACTORS
330
245
102
}
330
245
100
AcDbXrecord
280
     1
102
RTVSPropertyOp0
 70
     1
102
RTVSPropertyOp1
 70
     1
102
RTVSPropertyOp2
 70
     1
102
RTVSPropertyOp3
 70
     1
102
RTVSPropertyOp4
 70
     1
102
RTVSPropertyOp5
 70
     1
102
RTVSPropertyOp6
 70
     1
102
RTVSPropertyOp7
 70
     1
102
RTVSPropertyOp8
 70
     1
102
RTVSPropertyOp9
 70
     1
102
RTVSPropertyOp10
 70
     1
102
RTVSPropertyOp11
 70
     1
102
RTVSPropertyOp12
 70
     1
102
RTVSPropertyOp13
 70
     1
102
RTVSPropertyOp14
 70
     1
102
RTVSPropertyOp15
 70
     1
102
RTVSPropertyOp16
 70
     1
102
RTVSPropertyOp17
 70
     1
102
RTVSPropertyOp18
 70
     1
102
RTVSPropertyOp19
 70
     1
102
RTVSPropertyOp20
 70
     1
102
RTVSPropertyOp21
 70
     1
102
RTVSPropertyOp22
 70
     1
102
RTVSPropertyOp23
 70
     1
102
RTVSPropertyOp24
 70
     1
102
RTVSPropertyOp25
 70
     1
102
RTVSPropertyOp26
 70
     1
102
RTVSPropertyOp27
 70
     1
102
RTVSPropertyOp28
 70
     1
102
RTVSPropertyOp29
 70
     1
102
RTVSPropertyOp30
 70
     1
102
RTVSPropertyOp31
 70
     1
102
RTVSPropertyOp32
 70
     1
  0
XRECORD
  5
248
102
{ACAD_REACTORS
330
247
102
}
330
247
100
AcDbXrecord
280
     1
102
RTVSPropertyOp0
 70
     1
102
RTVSPropertyOp1
 70
     1
102
RTVSPropertyOp2
 70
     1
102
RTVSPropertyOp3
 70
     1
102
RTVSPropertyOp4
 70
     1
102
RTVSPropertyOp5
 70
     1
102
RTVSPropertyOp6
 70
     1
102
RTVSPropertyOp7
 70
     1
102
RTVSPropertyOp8
 70
     1
102
RTVSPropertyOp9
 70
     1
102
RTVSPropertyOp10
 70
     1
102
RTVSPropertyOp11
 70
     1
102
RTVSPropertyOp12
 70
     1
102
RTVSPropertyOp13
 70
     1
102
RTVSPropertyOp14
 70
     1
102
RTVSPropertyOp15
 70
     1
102
RTVSPropertyOp16
 70
     1
102
RTVSPropertyOp17
 70
     1
102
RTVSPropertyOp18
 70
     1
102
RTVSPropertyOp19
 70
     1
102
RTVSPropertyOp20
 70
     1
102
RTVSPropertyOp21
 70
     1
102
RTVSPropertyOp22
 70
     1
102
RTVSPropertyOp23
 70
     1
102
RTVSPropertyOp24
 70
     1
102
RTVSPropertyOp25
 70
     1
102
RTVSPropertyOp26
 70
     1
102
RTVSPropertyOp27
 70
     1
102
RTVSPropertyOp28
 70
     1
102
RTVSPropertyOp29
 70
     1
102
RTVSPropertyOp30
 70
     1
102
RTVSPropertyOp31
 70
     1
102
RTVSPropertyOp32
 70
     1
  0
XRECORD
  5
24A
102
{ACAD_REACTORS
330
249
102
}
330
249
100
AcDbXrecord
280
     1
102
RTVSPropertyOp0
 70
     1
102
RTVSPropertyOp1
 70
     1
102
RTVSPropertyOp2
 70
     1
102
RTVSPropertyOp3
 70
     1
102
RTVSPropertyOp4
 70
     1
102
RTVSPropertyOp5
 70
     1
102
RTVSPropertyOp6
 70
     1
102
RTVSPropertyOp7
 70
     1
102
RTVSPropertyOp8
 70
     1
102
RTVSPropertyOp9
 70
     1
102
RTVSPropertyOp10
 70
     1
102
RTVSPropertyOp11
 70
     1
102
RTVSPropertyOp12
 70
     1
102
RTVSPropertyOp13
 70
     1
102
RTVSPropertyOp14
 70
     1
102
RTVSPropertyOp15
 70
     1
102
RTVSPropertyOp16
 70
     1
102
RTVSPropertyOp17
 70
     1
102
RTVSPropertyOp18
 70
     1
102
RTVSPropertyOp19
 70
     1
102
RTVSPropertyOp20
 70
     1
102
RTVSPropertyOp21
 70
     1
102
RTVSPropertyOp22
 70
     1
102
RTVSPropertyOp23
 70
     1
102
RTVSPropertyOp24
 70
     1
102
RTVSPropertyOp25
 70
     1
102
RTVSPropertyOp26
 70
     1
102
RTVSPropertyOp27
 70
     1
102
RTVSPropertyOp28
 70
     1
102
RTVSPropertyOp29
 70
     1
102
RTVSPropertyOp30
 70
     1
102
RTVSPropertyOp31
 70
     1
102
RTVSPropertyOp32
 70
     1
  0
XRECORD
  5
25E
102
{ACAD_REACTORS
330
25D
102
}
330
25D
100
AcDbXrecord
280
     1
102
RTVSPropertyOp0
 70
     1
102
RTVSPropertyOp1
 70
     1
102
RTVSPropertyOp2
 70
     1
102
RTVSPropertyOp3
 70
     1
102
RTVSPropertyOp4
 70
     1
102
RTVSPropertyOp5
 70
     1
102
RTVSPropertyOp6
 70
     1
102
RTVSPropertyOp7
 70
     1
102
RTVSPropertyOp8
 70
     1
102
RTVSPropertyOp9
 70
     1
102
RTVSPropertyOp10
 70
     1
102
RTVSPropertyOp11
 70
     1
102
RTVSPropertyOp12
 70
     1
102
RTVSPropertyOp13
 70
     1
102
RTVSPropertyOp14
 70
     1
102
RTVSPropertyOp15
 70
     1
102
RTVSPropertyOp16
 70
     1
102
RTVSPropertyOp17
 70
     1
102
RTVSPropertyOp18
 70
     1
102
RTVSPropertyOp19
 70
     1
102
RTVSPropertyOp20
 70
     1
102
RTVSPropertyOp21
 70
     1
102
RTVSPropertyOp22
 70
     1
102
RTVSPropertyOp23
 70
     1
102
RTVSPropertyOp24
 70
     1
102
RTVSPropertyOp25
 70
     1
102
RTVSPropertyOp26
 70
     1
102
RTVSPropertyOp27
 70
     1
102
RTVSPropertyOp28
 70
     1
102
RTVSPropertyOp29
 70
     1
102
RTVSPropertyOp30
 70
     1
102
RTVSPropertyOp31
 70
     1
102
RTVSPropertyOp32
 70
     1
  0
XRECORD
  5
254
102
{ACAD_REACTORS
330
253
102
}
330
253
100
AcDbXrecord
280
     1
102
RTVSPropertyOp0
 70
     1
102
RTVSPropertyOp1
 70
     1
102
RTVSPropertyOp2
 70
     1
102
RTVSPropertyOp3
 70
     1
102
RTVSPropertyOp4
 70
     1
102
RTVSPropertyOp5
 70
     1
102
RTVSPropertyOp6
 70
     1
102
RTVSPropertyOp7
 70
     1
102
RTVSPropertyOp8
 70
     1
102
RTVSPropertyOp9
 70
     1
102
RTVSPropertyOp10
 70
     1
102
RTVSPropertyOp11
 70
     1
102
RTVSPropertyOp12
 70
     1
102
RTVSPropertyOp13
 70
     1
102
RTVSPropertyOp14
 70
     1
102
RTVSPropertyOp15
 70
     1
102
RTVSPropertyOp16
 70
     1
102
RTVSPropertyOp17
 70
     1
102
RTVSPropertyOp18
 70
     1
102
RTVSPropertyOp19
 70
     1
102
RTVSPropertyOp20
 70
     1
102
RTVSPropertyOp21
 70
     1
102
RTVSPropertyOp22
 70
     1
102
RTVSPropertyOp23
 70
     1
102
RTVSPropertyOp24
 70
     1
102
RTVSPropertyOp25
 70
     1
102
RTVSPropertyOp26
 70
     1
102
RTVSPropertyOp27
 70
     1
102
RTVSPropertyOp28
 70
     1
102
RTVSPropertyOp29
 70
     1
102
RTVSPropertyOp30
 70
     1
102
RTVSPropertyOp31
 70
     1
102
RTVSPropertyOp32
 70
     1
  0
XRECORD
  5
25C
102
{ACAD_REACTORS
330
25B
102
}
330
25B
100
AcDbXrecord
280
     1
102
RTVSPropertyOp0
 70
     1
102
RTVSPropertyOp1
 70
     1
102
RTVSPropertyOp2
 70
     1
102
RTVSPropertyOp3
 70
     1
102
RTVSPropertyOp4
 70
     1
102
RTVSPropertyOp5
 70
     1
102
RTVSPropertyOp6
 70
     1
102
RTVSPropertyOp7
 70
     1
102
RTVSPropertyOp8
 70
     1
102
RTVSPropertyOp9
 70
     1
102
RTVSPropertyOp10
 70
     1
102
RTVSPropertyOp11
 70
     1
102
RTVSPropertyOp12
 70
     1
102
RTVSPropertyOp13
 70
     1
102
RTVSPropertyOp14
 70
     1
102
RTVSPropertyOp15
 70
     1
102
RTVSPropertyOp16
 70
     1
102
RTVSPropertyOp17
 70
     1
102
RTVSPropertyOp18
 70
     1
102
RTVSPropertyOp19
 70
     1
102
RTVSPropertyOp20
 70
     1
102
RTVSPropertyOp21
 70
     1
102
RTVSPropertyOp22
 70
     1
102
RTVSPropertyOp23
 70
     1
102
RTVSPropertyOp24
 70
     1
102
RTVSPropertyOp25
 70
     1
102
RTVSPropertyOp26
 70
     1
102
RTVSPropertyOp27
 70
     1
102
RTVSPropertyOp28
 70
     1
102
RTVSPropertyOp29
 70
     1
102
RTVSPropertyOp30
 70
     1
102
RTVSPropertyOp31
 70
     1
102
RTVSPropertyOp32
 70
     1
  0
ENDSEC
  0
EOF
