  0
SECTION
  2
HEADER
  9
$ACADVER
  1
AC1021
  9
$ACADMAINTVER
 70
    25
  9
$DWGCODEPAGE
  3
UNDEFINED
  9
$INSBASE
 10
0.0
 20
0.0
 30
0.0
  9
$EXTMIN
 10
1.000000000000000E+20
 20
1.000000000000000E+20
 30
1.000000000000000E+20
  9
$EXTMAX
 10
-1.000000000000000E+20
 20
-1.000000000000000E+20
 30
-1.000000000000000E+20
  9
$LIMMIN
 10
0.0
 20
0.0
  9
$LIMMAX
 10
12.0
 20
9.0
  9
$ORTHOMODE
 70
     0
  9
$REGENMODE
 70
     1
  9
$FILLMODE
 70
     1
  9
$QTEXTMODE
 70
     0
  9
$MIRRTEXT
 70
     1
  9
$LTSCALE
 40
1.0
  9
$ATTMODE
 70
     1
  9
$TEXTSIZE
 40
0.2
  9
$TRACEWID
 40
0.05
  9
$TEXTSTYLE
  7
Standard
  9
$CLAYER
  8
0
  9
$CELTYPE
  6
ByLayer
  9
$CECOLOR
 62
   256
  9
$CELTSCALE
 40
1.0
  9
$DISPSILH
 70
     0
  9
$DIMSCALE
 40
1.0
  9
$DIMASZ
 40
0.18
  9
$DIMEXO
 40
0.0625
  9
$DIMDLI
 40
0.38
  9
$DIMRND
 40
0.0
  9
$DIMDLE
 40
0.0
  9
$DIMEXE
 40
0.18
  9
$DIMTP
 40
0.0
  9
$DIMTM
 40
0.0
  9
$DIMTXT
 40
0.18
  9
$DIMCEN
 40
0.09
  9
$DIMTSZ
 40
0.0
  9
$DIMTOL
 70
     0
  9
$DIMLIM
 70
     0
  9
$DIMTIH
 70
     1
  9
$DIMTOH
 70
     1
  9
$DIMSE1
 70
     0
  9
$DIMSE2
 70
     0
  9
$DIMTAD
 70
     0
  9
$DIMZIN
 70
     0
  9
$DIMBLK
  1

  9
$DIMASO
 70
     1
  9
$DIMSHO
 70
     1
  9
$DIMPOST
  1

  9
$DIMAPOST
  1

  9
$DIMALT
 70
     0
  9
$DIMALTD
 70
     2
  9
$DIMALTF
 40
25.4
  9
$DIMLFAC
 40
1.0
  9
$DIMTOFL
 70
     0
  9
$DIMTVP
 40
0.0
  9
$DIMTIX
 70
     0
  9
$DIMSOXD
 70
     0
  9
$DIMSAH
 70
     0
  9
$DIMBLK1
  1

  9
$DIMBLK2
  1

  9
$DIMSTYLE
  2
Standard
  9
$DIMCLRD
 70
     0
  9
$DIMCLRE
 70
     0
  9
$DIMCLRT
 70
     0
  9
$DIMTFAC
 40
1.0
  9
$DIMGAP
 40
0.09
  9
$DIMJUST
 70
     0
  9
$DIMSD1
 70
     0
  9
$DIMSD2
 70
     0
  9
$DIMTOLJ
 70
     1
  9
$DIMTZIN
 70
     0
  9
$DIMALTZ
 70
     0
  9
$DIMALTTZ
 70
     0
  9
$DIMUPT
 70
     0
  9
$DIMDEC
 70
     4
  9
$DIMTDEC
 70
     4
  9
$DIMALTU
 70
     2
  9
$DIMALTTD
 70
     2
  9
$DIMTXSTY
  7
Standard
  9
$DIMAUNIT
 70
     0
  9
$DIMADEC
 70
     0
  9
$DIMALTRND
 40
0.0
  9
$DIMAZIN
 70
     0
  9
$DIMDSEP
 70
    46
  9
$DIMATFIT
 70
     3
  9
$DIMFRAC
 70
     0
  9
$DIMLDRBLK
  1

  9
$DIMLUNIT
 70
     2
  9
$DIMLWD
 70
    -2
  9
$DIMLWE
 70
    -2
  9
$DIMTMOVE
 70
     0
  9
$DIMFXL
 40
1.0
  9
$DIMFXLON
 70
     0
  9
$DIMJOGANG
 40
0.7853981633974483
  9
$DIMTFILL
 70
     0
  9
$DIMTFILLCLR
 70
     0
  9
$DIMARCSYM
 70
     0
  9
$DIMLTYPE
  6

  9
$DIMLTEX1
  6

  9
$DIMLTEX2
  6

  9
$LUNITS
 70
     2
  9
$LUPREC
 70
     4
  9
$SKETCHINC
 40
0.1
  9
$FILLETRAD
 40
0.5
  9
$AUNITS
 70
     0
  9
$AUPREC
 70
     0
  9
$MENU
  1
.
  9
$ELEVATION
 40
0.0
  9
$PELEVATION
 40
0.0
  9
$THICKNESS
 40
0.0
  9
$LIMCHECK
 70
     0
  9
$CHAMFERA
 40
0.5
  9
$CHAMFERB
 40
0.5
  9
$CHAMFERC
 40
1.0
  9
$CHAMFERD
 40
0.0
  9
$SKPOLY
 70
     0
  9
$TDCREATE
 40
2459906.446863414
  9
$TDUCREATE
 40
2459906.405196759
  9
$TDUPDATE
 40
2459906.446863414
  9
$TDUUPDATE
 40
2459906.405196759
  9
$TDINDWG
 40
0.0000000116
  9
$TDUSRTIMER
 40
0.0000000116
  9
$USRTIMER
 70
     1
  9
$ANGBASE
 50
0.0
  9
$ANGDIR
 70
     0
  9
$PDMODE
 70
     0
  9
$PDSIZE
 40
0.0
  9
$PLINEWID
 40
0.0
  9
$SPLFRAME
 70
     0
  9
$SPLINETYPE
 70
     6
  9
$SPLINESEGS
 70
     8
  9
$HANDSEED
  5
172
  9
$SURFTAB1
 70
     6
  9
$SURFTAB2
 70
     6
  9
$SURFTYPE
 70
     6
  9
$SURFU
 70
     6
  9
$SURFV
 70
     6
  9
$UCSBASE
  2

  9
$UCSNAME
  2

  9
$UCSORG
 10
0.0
 20
0.0
 30
0.0
  9
$UCSXDIR
 10
1.0
 20
0.0
 30
0.0
  9
$UCSYDIR
 10
0.0
 20
1.0
 30
0.0
  9
$UCSORTHOREF
  2

  9
$UCSORTHOVIEW
 70
     0
  9
$UCSORGTOP
 10
0.0
 20
0.0
 30
0.0
  9
$UCSORGBOTTOM
 10
0.0
 20
0.0
 30
0.0
  9
$UCSORGLEFT
 10
0.0
 20
0.0
 30
0.0
  9
$UCSORGRIGHT
 10
0.0
 20
0.0
 30
0.0
  9
$UCSORGFRONT
 10
0.0
 20
0.0
 30
0.0
  9
$UCSORGBACK
 10
0.0
 20
0.0
 30
0.0
  9
$PUCSBASE
  2

  9
$PUCSNAME
  2

  9
$PUCSORG
 10
0.0
 20
0.0
 30
0.0
  9
$PUCSXDIR
 10
1.0
 20
0.0
 30
0.0
  9
$PUCSYDIR
 10
0.0
 20
1.0
 30
0.0
  9
$PUCSORTHOREF
  2

  9
$PUCSORTHOVIEW
 70
     0
  9
$PUCSORGTOP
 10
0.0
 20
0.0
 30
0.0
  9
$PUCSORGBOTTOM
 10
0.0
 20
0.0
 30
0.0
  9
$PUCSORGLEFT
 10
0.0
 20
0.0
 30
0.0
  9
$PUCSORGRIGHT
 10
0.0
 20
0.0
 30
0.0
  9
$PUCSORGFRONT
 10
0.0
 20
0.0
 30
0.0
  9
$PUCSORGBACK
 10
0.0
 20
0.0
 30
0.0
  9
$USERI1
 70
     0
  9
$USERI2
 70
     0
  9
$USERI3
 70
     0
  9
$USERI4
 70
     0
  9
$USERI5
 70
     0
  9
$USERR1
 40
0.0
  9
$USERR2
 40
0.0
  9
$USERR3
 40
0.0
  9
$USERR4
 40
0.0
  9
$USERR5
 40
0.0
  9
$WORLDVIEW
 70
     1
  9
$SHADEDGE
 70
     3
  9
$SHADEDIF
 70
    70
  9
$TILEMODE
 70
     1
  9
$MAXACTVP
 70
    64
  9
$PINSBASE
 10
0.0
 20
0.0
 30
0.0
  9
$PLIMCHECK
 70
     0
  9
$PEXTMIN
 10
1.000000000000000E+20
 20
1.000000000000000E+20
 30
1.000000000000000E+20
  9
$PEXTMAX
 10
-1.000000000000000E+20
 20
-1.000000000000000E+20
 30
-1.000000000000000E+20
  9
$PLIMMIN
 10
0.0
 20
0.0
  9
$PLIMMAX
 10
12.0
 20
9.0
  9
$UNITMODE
 70
     0
  9
$VISRETAIN
 70
     1
  9
$PLINEGEN
 70
     0
  9
$PSLTSCALE
 70
     1
  9
$TREEDEPTH
 70
  3020
  9
$CMLSTYLE
  2
Standard
  9
$CMLJUST
 70
     0
  9
$CMLSCALE
 40
1.0
  9
$PROXYGRAPHICS
 70
     1
  9
$MEASUREMENT
 70
     0
  9
$CELWEIGHT
370
    -1
  9
$ENDCAPS
280
     0
  9
$JOINSTYLE
280
     0
  9
$LWDISPLAY
290
     1
  9
$INSUNITS
 70
     1
  9
$HYPERLINKBASE
  1

  9
$STYLESHEET
  1

  9
$XEDIT
290
     1
  9
$CEPSNTYPE
380
     0
  9
$PSTYLEMODE
290
     1
  9
$FINGERPRINTGUID
  2
{AE08A0CB-C628-5761-7371-8427FD98C97F}
  9
$VERSIONGUID
  2
{FAEB1C32-E019-11D5-929B-00C0DF256EC4}
  9
$EXTNAMES
290
     1
  9
$PSVPSCALE
 40
0.0
  9
$OLESTARTUP
290
     0
  9
$SORTENTS
280
   127
  9
$INDEXCTL
280
     0
  9
$HIDETEXT
280
     1
  9
$XCLIPFRAME
290
     0
  9
$HALOGAP
280
     0
  9
$OBSCOLOR
 70
   257
  9
$OBSLTYPE
280
     0
  9
$INTERSECTIONDISPLAY
280
     0
  9
$INTERSECTIONCOLOR
 70
   257
  9
$DIMASSOC
280
     2
  9
$PROJECTNAME
  1

  9
$CAMERADISPLAY
290
     0
  9
$LENSLENGTH
 40
50.0
  9
$CAMERAHEIGHT
 40
0.0
  9
$STEPSPERSEC
 40
2.0
  9
$STEPSIZE
 40
6.0
  9
$3DDWFPREC
 40
2.0
  9
$PSOLWIDTH
 40
0.25
  9
$PSOLHEIGHT
 40
4.0
  9
$LOFTANG1
 40
1.570796326794897
  9
$LOFTANG2
 40
1.570796326794897
  9
$LOFTMAG1
 40
0.0
  9
$LOFTMAG2
 40
0.0
  9
$LOFTPARAM
 70
     7
  9
$LOFTNORMALS
280
     1
  9
$LATITUDE
 40
37.795
  9
$LONGITUDE
 40
-122.394
  9
$NORTHDIRECTION
 40
0.0
  9
$TIMEZONE
 70
 -8000
  9
$LIGHTGLYPHDISPLAY
280
     1
  9
$TILEMODELIGHTSYNCH
280
     1
  9
$CMATERIAL
347
3C
  9
$SOLIDHIST
280
     1
  9
$SHOWHIST
280
     1
  9
$DWFFRAME
280
     2
  9
$DGNFRAME
280
     2
  9
$REALWORLDSCALE
290
     1
  9
$INTERFERECOLOR
 62
   256
  9
$CSHADOW
280
     0
  9
$SHADOWPLANELOCATION
 40
0.0
  0
ENDSEC
  0
SECTION
  2
CLASSES
  0
CLASS
  1
ACDBDICTIONARYWDFLT
  2
AcDbDictionaryWithDefault
  3
ObjectDBX Classes
 90
        0
 91
        4
280
     0
281
     0
  0
CLASS
  1
VISUALSTYLE
  2
AcDbVisualStyle
  3
ObjectDBX Classes
 90
     4095
 91
        4
280
     0
281
     0
  0
CLASS
  1
MATERIAL
  2
AcDbMaterial
  3
ObjectDBX Classes
 90
     1153
 91
        4
280
     0
281
     0
  0
CLASS
  1
SUN
  2
AcDbSun
  3
SCENEOE
 90
     1024
 91
        4
280
     0
281
     0
  0
ENDSEC
  0
SECTION
  2
TABLES
  0
TABLE
  2
VPORT
  5
8
330
0
100
AcDbSymbolTable
 70
     1
  0
VPORT
  5
29
330
8
100
AcDbSymbolTableRecord
100
AcDbViewportTableRecord
  2
*Active
 70
     0
 10
0.0
 20
0.0
 11
1.0
 21
1.0
 12
0.0
 22
0.0
 13
0.0
 23
0.0
 14
0.5
 24
0.5
 15
0.5
 25
0.5
 16
0.0
 26
0.0
 36
1.0
 17
105.0007777515277
 27
148.5000416295417
 37
0.0
 40
297.0000832590835
 41
0.7070757462376325
 42
50.0
 43
0.0
 44
0.0
 50
0.0
 51
0.0
 71
     0
 72
   100
 73
     1
 74
     3
 75
     0
 76
     0
 77
     0
 78
     0
281
     0
 65
     1
110
0.0
120
0.0
130
0.0
111
1.0
121
0.0
131
0.0
112
0.0
122
1.0
132
0.0
 79
     0
146
0.0
 60
     3
 61
     5
292
     1
282
     1
141
0.0
142
0.0
 63
   250
361
3F
  0
ENDTAB
  0
TABLE
  2
LTYPE
  5
5
330
0
100
AcDbSymbolTable
 70
     5
  0
LTYPE
  5
14
330
5
100
AcDbSymbolTableRecord
100
AcDbLinetypeTableRecord
  2
ByBlock
 70
     0
  3

 72
    65
 73
     0
 40
0.0
  0
LTYPE
  5
15
330
5
100
AcDbSymbolTableRecord
100
AcDbLinetypeTableRecord
  2
ByLayer
 70
     0
  3

 72
    65
 73
     0
 40
0.0
  0
LTYPE
  5
16
330
5
100
AcDbSymbolTableRecord
100
AcDbLinetypeTableRecord
  2
Continuous
 70
     0
  3
Solid line
 72
    65
 73
     0
 40
0.0
  0
LTYPE
  5
11A
330
5
100
AcDbSymbolTableRecord
100
AcDbLinetypeTableRecord
  2
AI-Linetype-1
 70
     0
  3
Adobe Illustrator Linetype No. 1
 72
    65
 73
     2
 40
7.148196997444925
 49
3.574098498722463
 74
     0
 49
-3.574098498722463
 74
     0
  0
LTYPE
  5
123
330
5
100
AcDbSymbolTableRecord
100
AcDbLinetypeTableRecord
  2
AI-Linetype-2
 70
     0
  3
Adobe Illustrator Linetype No. 2
 72
    65
 73
     4
 40
32.1670459587424
 49
21.44475046257501
 74
     0
 49
-3.574098498722463
 74
     0
 49
3.574098498722463
 74
     0
 49
-3.574098498722463
 74
     0
  0
LTYPE
  5
13C
330
5
100
AcDbSymbolTableRecord
100
AcDbLinetypeTableRecord
  2
AI-Linetype-3
 70
     0
  3
Adobe Illustrator Linetype No. 3
 72
    65
 73
     2
 40
7.148182867170474
 49
3.574091433585237
 74
     0
 49
-3.574091433585237
 74
     0
  0
LTYPE
  5
145
330
5
100
AcDbSymbolTableRecord
100
AcDbLinetypeTableRecord
  2
AI-Linetype-4
 70
     0
  3
Adobe Illustrator Linetype No. 4
 72
    65
 73
     4
 40
32.16698169963716
 49
21.44470739888144
 74
     0
 49
-3.574091433585237
 74
     0
 49
3.574091433585237
 74
     0
 49
-3.574091433585237
 74
     0
  0
ENDTAB
  0
TABLE
  2
LAYER
  5
2
330
0
100
AcDbSymbolTable
 70
     1
  0
LAYER
  5
10
330
2
100
AcDbSymbolTableRecord
100
AcDbLayerTableRecord
  2
0
 70
     0
 62
     7
  6
Continuous
370
    -3
390
F
347
3E
  0
ENDTAB
  0
TABLE
  2
STYLE
  5
3
330
0
100
AcDbSymbolTable
 70
     1
  0
STYLE
  5
11
330
3
100
AcDbSymbolTableRecord
100
AcDbTextStyleTableRecord
  2
Standard
 70
     0
 40
0.0
 41
1.0
 50
0.0
 71
     0
 42
0.2
  3
txt
  4

  0
ENDTAB
  0
TABLE
  2
VIEW
  5
6
330
0
100
AcDbSymbolTable
 70
     0
  0
ENDTAB
  0
TABLE
  2
UCS
  5
7
330
0
100
AcDbSymbolTable
 70
     0
  0
ENDTAB
  0
TABLE
  2
APPID
  5
9
330
0
100
AcDbSymbolTable
 70
     1
  0
APPID
  5
12
330
9
100
AcDbSymbolTableRecord
100
AcDbRegAppTableRecord
  2
ACAD
 70
     0
  0
ENDTAB
  0
TABLE
  2
DIMSTYLE
  5
A
330
0
100
AcDbSymbolTable
 70
     1
100
AcDbDimStyleTable
  0
DIMSTYLE
105
27
330
A
100
AcDbSymbolTableRecord
100
AcDbDimStyleTableRecord
  2
Standard
 70
     0
178
     0
340
11
  0
ENDTAB
  0
TABLE
  2
BLOCK_RECORD
  5
1
330
0
100
AcDbSymbolTable
 70
    45
  0
BLOCK_RECORD
  5
1F
330
1
100
AcDbSymbolTableRecord
100
AcDbBlockTableRecord
  2
*Model_Space
340
22
 70
     0
280
     1
281
     0
  0
BLOCK_RECORD
  5
1B
330
1
100
AcDbSymbolTableRecord
100
AcDbBlockTableRecord
  2
*Paper_Space
340
1E
 70
     0
280
     1
281
     0
  0
BLOCK_RECORD
  5
23
330
1
100
AcDbSymbolTableRecord
100
AcDbBlockTableRecord
  2
*Paper_Space0
340
26
 70
     0
280
     1
281
     0
  0
BLOCK_RECORD
  5
40
330
1
100
AcDbSymbolTableRecord
100
AcDbBlockTableRecord
  2
block 2
340
0
102
{BLKREFS
331
41
102
}
 70
     0
280
     1
281
     0
  0
BLOCK_RECORD
  5
45
330
1
100
AcDbSymbolTableRecord
100
AcDbBlockTableRecord
  2
block 3
340
0
102
{BLKREFS
331
46
102
}
 70
     0
280
     1
281
     0
  0
BLOCK_RECORD
  5
4A
330
1
100
AcDbSymbolTableRecord
100
AcDbBlockTableRecord
  2
block 4
340
0
102
{BLKREFS
331
4B
102
}
 70
     0
280
     1
281
     0
  0
BLOCK_RECORD
  5
4F
330
1
100
AcDbSymbolTableRecord
100
AcDbBlockTableRecord
  2
block 5
340
0
102
{BLKREFS
331
50
102
}
 70
     0
280
     1
281
     0
  0
BLOCK_RECORD
  5
57
330
1
100
AcDbSymbolTableRecord
100
AcDbBlockTableRecord
  2
block 6
340
0
102
{BLKREFS
331
58
102
}
 70
     0
280
     1
281
     0
  0
BLOCK_RECORD
  5
5C
330
1
100
AcDbSymbolTableRecord
100
AcDbBlockTableRecord
  2
block 7
340
0
102
{BLKREFS
331
5D
102
}
 70
     0
280
     1
281
     0
  0
BLOCK_RECORD
  5
64
330
1
100
AcDbSymbolTableRecord
100
AcDbBlockTableRecord
  2
block 8
340
0
102
{BLKREFS
331
65
102
}
 70
     0
280
     1
281
     0
  0
BLOCK_RECORD
  5
69
330
1
100
AcDbSymbolTableRecord
100
AcDbBlockTableRecord
  2
block 9
340
0
102
{BLKREFS
331
6A
102
}
 70
     0
280
     1
281
     0
  0
BLOCK_RECORD
  5
71
330
1
100
AcDbSymbolTableRecord
100
AcDbBlockTableRecord
  2
block 10
340
0
102
{BLKREFS
331
72
102
}
 70
     0
280
     1
281
     0
  0
BLOCK_RECORD
  5
76
330
1
100
AcDbSymbolTableRecord
100
AcDbBlockTableRecord
  2
block 11
340
0
102
{BLKREFS
331
77
102
}
 70
     0
280
     1
281
     0
  0
BLOCK_RECORD
  5
7E
330
1
100
AcDbSymbolTableRecord
100
AcDbBlockTableRecord
  2
block 12
340
0
102
{BLKREFS
331
7F
102
}
 70
     0
280
     1
281
     0
  0
BLOCK_RECORD
  5
83
330
1
100
AcDbSymbolTableRecord
100
AcDbBlockTableRecord
  2
block 13
340
0
102
{BLKREFS
331
84
102
}
 70
     0
280
     1
281
     0
  0
BLOCK_RECORD
  5
88
330
1
100
AcDbSymbolTableRecord
100
AcDbBlockTableRecord
  2
block 14
340
0
102
{BLKREFS
331
89
102
}
 70
     0
280
     1
281
     0
  0
BLOCK_RECORD
  5
8D
330
1
100
AcDbSymbolTableRecord
100
AcDbBlockTableRecord
  2
block 15
340
0
102
{BLKREFS
331
8E
102
}
 70
     0
280
     1
281
     0
  0
BLOCK_RECORD
  5
92
330
1
100
AcDbSymbolTableRecord
100
AcDbBlockTableRecord
  2
block 16
340
0
102
{BLKREFS
331
93
102
}
 70
     0
280
     1
281
     0
  0
BLOCK_RECORD
  5
97
330
1
100
AcDbSymbolTableRecord
100
AcDbBlockTableRecord
  2
block 17
340
0
102
{BLKREFS
331
98
102
}
 70
     0
280
     1
281
     0
  0
BLOCK_RECORD
  5
9C
330
1
100
AcDbSymbolTableRecord
100
AcDbBlockTableRecord
  2
block 18
340
0
102
{BLKREFS
331
9D
102
}
 70
     0
280
     1
281
     0
  0
BLOCK_RECORD
  5
A1
330
1
100
AcDbSymbolTableRecord
100
AcDbBlockTableRecord
  2
block 19
340
0
102
{BLKREFS
331
A2
102
}
 70
     0
280
     1
281
     0
  0
BLOCK_RECORD
  5
A6
330
1
100
AcDbSymbolTableRecord
100
AcDbBlockTableRecord
  2
block 20
340
0
102
{BLKREFS
331
A7
102
}
 70
     0
280
     1
281
     0
  0
BLOCK_RECORD
  5
AB
330
1
100
AcDbSymbolTableRecord
100
AcDbBlockTableRecord
  2
block 21
340
0
102
{BLKREFS
331
AC
102
}
 70
     0
280
     1
281
     0
  0
BLOCK_RECORD
  5
B0
330
1
100
AcDbSymbolTableRecord
100
AcDbBlockTableRecord
  2
block 22
340
0
102
{BLKREFS
331
B1
102
}
 70
     0
280
     1
281
     0
  0
BLOCK_RECORD
  5
B5
330
1
100
AcDbSymbolTableRecord
100
AcDbBlockTableRecord
  2
block 23
340
0
102
{BLKREFS
331
B6
102
}
 70
     0
280
     1
281
     0
  0
BLOCK_RECORD
  5
BA
330
1
100
AcDbSymbolTableRecord
100
AcDbBlockTableRecord
  2
block 24
340
0
102
{BLKREFS
331
BB
102
}
 70
     0
280
     1
281
     0
  0
BLOCK_RECORD
  5
BF
330
1
100
AcDbSymbolTableRecord
100
AcDbBlockTableRecord
  2
block 25
340
0
102
{BLKREFS
331
C0
102
}
 70
     0
280
     1
281
     0
  0
BLOCK_RECORD
  5
C4
330
1
100
AcDbSymbolTableRecord
100
AcDbBlockTableRecord
  2
block 26
340
0
102
{BLKREFS
331
C5
102
}
 70
     0
280
     1
281
     0
  0
BLOCK_RECORD
  5
C9
330
1
100
AcDbSymbolTableRecord
100
AcDbBlockTableRecord
  2
block 27
340
0
102
{BLKREFS
331
CA
102
}
 70
     0
280
     1
281
     0
  0
BLOCK_RECORD
  5
CE
330
1
100
AcDbSymbolTableRecord
100
AcDbBlockTableRecord
  2
block 28
340
0
102
{BLKREFS
331
CF
102
}
 70
     0
280
     1
281
     0
  0
BLOCK_RECORD
  5
D5
330
1
100
AcDbSymbolTableRecord
100
AcDbBlockTableRecord
  2
block 29
340
0
102
{BLKREFS
331
D6
102
}
 70
     0
280
     1
281
     0
  0
BLOCK_RECORD
  5
DA
330
1
100
AcDbSymbolTableRecord
100
AcDbBlockTableRecord
  2
block 30
340
0
102
{BLKREFS
331
DB
102
}
 70
     0
280
     1
281
     0
  0
BLOCK_RECORD
  5
E2
330
1
100
AcDbSymbolTableRecord
100
AcDbBlockTableRecord
  2
block 31
340
0
102
{BLKREFS
331
E3
102
}
 70
     0
280
     1
281
     0
  0
BLOCK_RECORD
  5
EA
330
1
100
AcDbSymbolTableRecord
100
AcDbBlockTableRecord
  2
block 32
340
0
102
{BLKREFS
331
EB
102
}
 70
     0
280
     1
281
     0
  0
BLOCK_RECORD
  5
F2
330
1
100
AcDbSymbolTableRecord
100
AcDbBlockTableRecord
  2
block 33
340
0
102
{BLKREFS
331
F3
102
}
 70
     0
280
     1
281
     0
  0
BLOCK_RECORD
  5
F7
330
1
100
AcDbSymbolTableRecord
100
AcDbBlockTableRecord
  2
block 34
340
0
102
{BLKREFS
331
F8
102
}
 70
     0
280
     1
281
     0
  0
BLOCK_RECORD
  5
FC
330
1
100
AcDbSymbolTableRecord
100
AcDbBlockTableRecord
  2
block 35
340
0
102
{BLKREFS
331
FD
102
}
 70
     0
280
     1
281
     0
  0
BLOCK_RECORD
  5
101
330
1
100
AcDbSymbolTableRecord
100
AcDbBlockTableRecord
  2
block 36
340
0
102
{BLKREFS
331
102
102
}
 70
     0
280
     1
281
     0
  0
BLOCK_RECORD
  5
106
330
1
100
AcDbSymbolTableRecord
100
AcDbBlockTableRecord
  2
block 37
340
0
102
{BLKREFS
331
107
102
}
 70
     0
280
     1
281
     0
  0
BLOCK_RECORD
  5
10B
330
1
100
AcDbSymbolTableRecord
100
AcDbBlockTableRecord
  2
block 38
340
0
102
{BLKREFS
331
10C
102
}
 70
     0
280
     1
281
     0
  0
BLOCK_RECORD
  5
113
330
1
100
AcDbSymbolTableRecord
100
AcDbBlockTableRecord
  2
block 39
340
0
102
{BLKREFS
331
114
102
}
 70
     0
280
     1
281
     0
  0
BLOCK_RECORD
  5
11C
330
1
100
AcDbSymbolTableRecord
100
AcDbBlockTableRecord
  2
block 40
340
0
102
{BLKREFS
331
11D
102
}
 70
     0
280
     1
281
     0
  0
BLOCK_RECORD
  5
125
330
1
100
AcDbSymbolTableRecord
100
AcDbBlockTableRecord
  2
block 41
340
0
102
{BLKREFS
331
126
102
}
 70
     0
280
     1
281
     0
  0
BLOCK_RECORD
  5
12D
330
1
100
AcDbSymbolTableRecord
100
AcDbBlockTableRecord
  2
block 42
340
0
102
{BLKREFS
331
12E
102
}
 70
     0
280
     1
281
     0
  0
BLOCK_RECORD
  5
135
330
1
100
AcDbSymbolTableRecord
100
AcDbBlockTableRecord
  2
block 43
340
0
102
{BLKREFS
331
136
102
}
 70
     0
280
     1
281
     0
  0
BLOCK_RECORD
  5
13E
330
1
100
AcDbSymbolTableRecord
100
AcDbBlockTableRecord
  2
block 44
340
0
102
{BLKREFS
331
13F
102
}
 70
     0
280
     1
281
     0
  0
BLOCK_RECORD
  5
147
330
1
100
AcDbSymbolTableRecord
100
AcDbBlockTableRecord
  2
block 45
340
0
102
{BLKREFS
331
148
102
}
 70
     0
280
     1
281
     0
  0
ENDTAB
  0
ENDSEC
  0
SECTION
  2
BLOCKS
  0
BLOCK
  5
20
330
1F
100
AcDbEntity
  8
0
100
AcDbBlockBegin
  2
*Model_Space
 70
     0
 10
0.0
 20
0.0
 30
0.0
  3
*Model_Space
  1

  0
ENDBLK
  5
21
330
1F
100
AcDbEntity
  8
0
100
AcDbBlockEnd
  0
BLOCK
  5
1C
330
1B
100
AcDbEntity
 67
     1
  8
0
100
AcDbBlockBegin
  2
*Paper_Space
 70
     0
 10
0.0
 20
0.0
 30
0.0
  3
*Paper_Space
  1

  0
ENDBLK
  5
1D
330
1B
100
AcDbEntity
 67
     1
  8
0
100
AcDbBlockEnd
  0
BLOCK
  5
24
330
23
100
AcDbEntity
  8
0
100
AcDbBlockBegin
  2
*Paper_Space0
 70
     0
 10
0.0
 20
0.0
 30
0.0
  3
*Paper_Space0
  1

  0
ENDBLK
  5
25
330
23
100
AcDbEntity
  8
0
100
AcDbBlockEnd
  0
BLOCK
  5
42
330
40
100
AcDbEntity
  8
0
100
AcDbBlockBegin
  2
block 2
 70
     0
 10
0.0
 20
0.0
 30
0.0
  3
block 2
  1

  0
SPLINE
  5
44
330
40
100
AcDbEntity
  8
0
 62
   250
370
    25
100
AcDbSpline
210
0.0
220
0.0
230
1.0
 70
     8
 71
     3
 72
    14
 73
    10
 74
     0
 42
0.0000000001
 43
0.0000000001
 12
1.0
 22
0.0
 32
0.0
 13
1.0
 23
0.0
 33
0.0
 40
0.0
 40
0.0
 40
0.0
 40
0.0
 40
1.0
 40
1.0
 40
1.0
 40
2.0
 40
2.0
 40
2.0
 40
3.0
 40
3.0
 40
3.0
 40
3.0
 10
893.7972658513427
 20
174.6958195077988
 30
0.0
 10
894.379031671383
 20
174.6958195077988
 30
0.0
 10
894.6975547196671
 20
173.4530892584191
 30
0.0
 10
894.8070569393781
 20
173.1079314885178
 30
0.0
 10
895.005670823735
 20
172.4818215028138
 30
0.0
 10
895.1530260981526
 20
171.8460101284581
 30
0.0
 10
895.2851766506845
 20
171.2038487542337
 30
0.0
 10
895.5495835890944
 20
169.919137950252
 30
0.0
 10
895.7410008069427
 20
168.6260310353335
 30
0.0
 10
895.9058538587262
 20
167.3259743983714
 30
0.0
  0
ENDBLK
  5
43
330
40
100
AcDbEntity
  8
0
100
AcDbBlockEnd
  0
BLOCK
  5
47
330
45
100
AcDbEntity
  8
0
100
AcDbBlockBegin
  2
block 3
 70
     0
 10
0.0
 20
0.0
 30
0.0
  3
block 3
  1

  0
SPLINE
  5
49
330
45
100
AcDbEntity
  8
0
 62
   250
370
    25
100
AcDbSpline
210
0.0
220
0.0
230
1.0
 70
     8
 71
     3
 72
     8
 73
     4
 74
     0
 42
0.0000000001
 43
0.0000000001
 12
1.0
 22
0.0
 32
0.0
 13
1.0
 23
0.0
 33
0.0
 40
0.0
 40
0.0
 40
0.0
 40
0.0
 40
1.0
 40
1.0
 40
1.0
 40
1.0
 10
895.9058538587262
 20
167.3259743983714
 30
0.0
 10
896.6921602296609
 20
161.1239295400532
 30
0.0
 10
896.903050780397
 20
154.9325385703604
 30
0.0
 10
896.9029449470638
 20
148.6958156572629
 30
0.0
  0
ENDBLK
  5
48
330
45
100
AcDbEntity
  8
0
100
AcDbBlockEnd
  0
BLOCK
  5
4C
330
4A
100
AcDbEntity
  8
0
100
AcDbBlockBegin
  2
block 4
 70
     0
 10
0.0
 20
0.0
 30
0.0
  3
block 4
  1

  0
SPLINE
  5
4E
330
4A
100
AcDbEntity
  8
0
 62
   250
370
    25
100
AcDbSpline
210
0.0
220
0.0
230
1.0
 70
     8
 71
     3
 72
     8
 73
     4
 74
     0
 42
0.0000000001
 43
0.0000000001
 12
1.0
 22
0.0
 32
0.0
 13
1.0
 23
0.0
 33
0.0
 40
0.0
 40
0.0
 40
0.0
 40
0.0
 40
1.0
 40
1.0
 40
1.0
 40
1.0
 10
-744.6958072767956
 20
513.6958181530541
 30
0.0
 10
-744.6958072767956
 20
519.2186599713525
 30
0.0
 10
-740.2186693235186
 20
523.6958332024095
 30
0.0
 10
-734.6958275052268
 20
523.6958332024095
 30
0.0
  0
ENDBLK
  5
4D
330
4A
100
AcDbEntity
  8
0
100
AcDbBlockEnd
  0
BLOCK
  5
51
330
4F
100
AcDbEntity
  8
0
100
AcDbBlockBegin
  2
block 5
 70
     0
 10
0.0
 20
0.0
 30
0.0
  3
block 5
  1

  0
POLYLINE
  5
53
330
4F
100
AcDbEntity
  8
0
 62
   250
370
    25
100
AcDb2dPolyline
 66
     1
 10
0.0
 20
0.0
 30
0.0
  0
VERTEX
  5
54
330
53
100
AcDbEntity
  8
0
 62
   250
370
    25
100
AcDbVertex
100
AcDb2dVertex
 10
-744.6958072767956
 20
513.6958181530541
 30
0.0
  0
VERTEX
  5
55
330
53
100
AcDbEntity
  8
0
 62
   250
370
    25
100
AcDbVertex
100
AcDb2dVertex
 10
-744.6958072767956
 20
-216.304151560754
 30
0.0
  0
SEQEND
  5
56
330
53
100
AcDbEntity
  8
0
 62
   250
370
    25
  0
ENDBLK
  5
52
330
4F
100
AcDbEntity
  8
0
100
AcDbBlockEnd
  0
BLOCK
  5
59
330
57
100
AcDbEntity
  8
0
100
AcDbBlockBegin
  2
block 6
 70
     0
 10
0.0
 20
0.0
 30
0.0
  3
block 6
  1

  0
SPLINE
  5
5B
330
57
100
AcDbEntity
  8
0
 62
   250
370
    25
100
AcDbSpline
210
0.0
220
0.0
230
1.0
 70
     8
 71
     3
 72
     8
 73
     4
 74
     0
 42
0.0000000001
 43
0.0000000001
 12
1.0
 22
0.0
 32
0.0
 13
1.0
 23
0.0
 33
0.0
 40
0.0
 40
0.0
 40
0.0
 40
0.0
 40
1.0
 40
1.0
 40
1.0
 40
1.0
 10
-734.6958275052268
 20
-226.3041666100907
 30
0.0
 10
-740.2186693235186
 20
-226.3041666100907
 30
0.0
 10
-744.6958072767956
 20
-221.8270286568067
 30
0.0
 10
-744.6958072767956
 20
-216.304151560754
 30
0.0
  0
ENDBLK
  5
5A
330
57
100
AcDbEntity
  8
0
100
AcDbBlockEnd
  0
BLOCK
  5
5E
330
5C
100
AcDbEntity
  8
0
100
AcDbBlockBegin
  2
block 7
 70
     0
 10
0.0
 20
0.0
 30
0.0
  3
block 7
  1

  0
POLYLINE
  5
60
330
5C
100
AcDbEntity
  8
0
 62
   250
370
    25
100
AcDb2dPolyline
 66
     1
 10
0.0
 20
0.0
 30
0.0
  0
VERTEX
  5
61
330
60
100
AcDbEntity
  8
0
 62
   250
370
    25
100
AcDbVertex
100
AcDb2dVertex
 10
-734.6958275052268
 20
-226.3041666100907
 30
0.0
  0
VERTEX
  5
62
330
60
100
AcDbEntity
  8
0
 62
   250
370
    25
100
AcDbVertex
100
AcDb2dVertex
 10
945.3041255081273
 20
-226.3041666100907
 30
0.0
  0
SEQEND
  5
63
330
60
100
AcDbEntity
  8
0
 62
   250
370
    25
  0
ENDBLK
  5
5F
330
5C
100
AcDbEntity
  8
0
100
AcDbBlockEnd
  0
BLOCK
  5
66
330
64
100
AcDbEntity
  8
0
100
AcDbBlockBegin
  2
block 8
 70
     0
 10
0.0
 20
0.0
 30
0.0
  3
block 8
  1

  0
SPLINE
  5
68
330
64
100
AcDbEntity
  8
0
 62
   250
370
    25
100
AcDbSpline
210
0.0
220
0.0
230
1.0
 70
     8
 71
     3
 72
     8
 73
     4
 74
     0
 42
0.0000000001
 43
0.0000000001
 12
1.0
 22
0.0
 32
0.0
 13
1.0
 23
0.0
 33
0.0
 40
0.0
 40
0.0
 40
0.0
 40
0.0
 40
1.0
 40
1.0
 40
1.0
 40
1.0
 10
955.3041405574768
 20
-216.304151560754
 30
0.0
 10
955.3041405574768
 20
-221.8270286568067
 30
0.0
 10
950.8270026041929
 20
-226.3041666100907
 30
0.0
 10
945.3041255081273
 20
-226.3041666100907
 30
0.0
  0
ENDBLK
  5
67
330
64
100
AcDbEntity
  8
0
100
AcDbBlockEnd
  0
BLOCK
  5
6B
330
69
100
AcDbEntity
  8
0
100
AcDbBlockBegin
  2
block 9
 70
     0
 10
0.0
 20
0.0
 30
0.0
  3
block 9
  1

  0
POLYLINE
  5
6D
330
69
100
AcDbEntity
  8
0
 62
   250
370
    25
100
AcDb2dPolyline
 66
     1
 10
0.0
 20
0.0
 30
0.0
  0
VERTEX
  5
6E
330
6D
100
AcDbEntity
  8
0
 62
   250
370
    25
100
AcDbVertex
100
AcDb2dVertex
 10
955.3041405574768
 20
-216.304151560754
 30
0.0
  0
VERTEX
  5
6F
330
6D
100
AcDbEntity
  8
0
 62
   250
370
    25
100
AcDbVertex
100
AcDb2dVertex
 10
955.3041405574768
 20
513.6958181530541
 30
0.0
  0
SEQEND
  5
70
330
6D
100
AcDbEntity
  8
0
 62
   250
370
    25
  0
ENDBLK
  5
6C
330
69
100
AcDbEntity
  8
0
100
AcDbBlockEnd
  0
BLOCK
  5
73
330
71
100
AcDbEntity
  8
0
100
AcDbBlockBegin
  2
block 10
 70
     0
 10
0.0
 20
0.0
 30
0.0
  3
block 10
  1

  0
SPLINE
  5
75
330
71
100
AcDbEntity
  8
0
 62
   250
370
    25
100
AcDbSpline
210
0.0
220
0.0
230
1.0
 70
     8
 71
     3
 72
     8
 73
     4
 74
     0
 42
0.0000000001
 43
0.0000000001
 12
1.0
 22
0.0
 32
0.0
 13
1.0
 23
0.0
 33
0.0
 40
0.0
 40
0.0
 40
0.0
 40
0.0
 40
1.0
 40
1.0
 40
1.0
 40
1.0
 10
945.3041255081273
 20
523.6958332024095
 30
0.0
 10
950.8270026041929
 20
523.6958332024095
 30
0.0
 10
955.3041405574768
 20
519.2186599713525
 30
0.0
 10
955.3041405574768
 20
513.6958181530541
 30
0.0
  0
ENDBLK
  5
74
330
71
100
AcDbEntity
  8
0
100
AcDbBlockEnd
  0
BLOCK
  5
78
330
76
100
AcDbEntity
  8
0
100
AcDbBlockBegin
  2
block 11
 70
     0
 10
0.0
 20
0.0
 30
0.0
  3
block 11
  1

  0
POLYLINE
  5
7A
330
76
100
AcDbEntity
  8
0
 62
   250
370
    25
100
AcDb2dPolyline
 66
     1
 10
0.0
 20
0.0
 30
0.0
  0
VERTEX
  5
7B
330
7A
100
AcDbEntity
  8
0
 62
   250
370
    25
100
AcDbVertex
100
AcDb2dVertex
 10
945.3041255081273
 20
523.6958332024095
 30
0.0
  0
VERTEX
  5
7C
330
7A
100
AcDbEntity
  8
0
 62
   250
370
    25
100
AcDbVertex
100
AcDb2dVertex
 10
-734.6958275052268
 20
523.6958332024095
 30
0.0
  0
SEQEND
  5
7D
330
7A
100
AcDbEntity
  8
0
 62
   250
370
    25
  0
ENDBLK
  5
79
330
76
100
AcDbEntity
  8
0
100
AcDbBlockEnd
  0
BLOCK
  5
80
330
7E
100
AcDbEntity
  8
0
100
AcDbBlockBegin
  2
block 12
 70
     0
 10
0.0
 20
0.0
 30
0.0
  3
block 12
  1

  0
SPLINE
  5
82
330
7E
100
AcDbEntity
  8
0
 62
   250
370
    25
100
AcDbSpline
210
0.0
220
0.0
230
1.0
 70
     8
 71
     3
 72
    35
 73
    31
 74
     0
 42
0.0000000001
 43
0.0000000001
 12
1.0
 22
0.0
 32
0.0
 13
1.0
 23
0.0
 33
0.0
 40
0.0
 40
0.0
 40
0.0
 40
0.0
 40
1.0
 40
1.0
 40
1.0
 40
2.0
 40
2.0
 40
2.0
 40
3.0
 40
3.0
 40
3.0
 40
4.0
 40
4.0
 40
4.0
 40
5.0
 40
5.0
 40
5.0
 40
6.0
 40
6.0
 40
6.0
 40
7.0
 40
7.0
 40
7.0
 40
8.0
 40
8.0
 40
8.0
 40
9.0
 40
9.0
 40
9.0
 40
10.0
 40
10.0
 40
10.0
 40
10.0
 10
896.9029449470638
 20
148.6958156572629
 30
0.0
 10
896.9018866137562
 20
147.1131840267518
 30
0.0
 10
896.8846005030424
 20
145.5299879518186
 30
0.0
 10
896.8465005039079
 20
143.9475679879536
 30
0.0
 10
896.8060016159458
 20
142.2647121930629
 30
0.0
 10
896.7419371729727
 20
140.5827383425858
 30
0.0
 10
896.654413008299
 20
138.9016817143281
 30
0.0
 10
896.5116085671102
 20
136.1599987214033
 30
0.0
 10
896.3062919051362
 20
133.4207498950792
 30
0.0
 10
895.982159690317
 20
130.6946596795742
 30
0.0
 10
895.8510674710926
 20
129.5920527603033
 30
0.0
 10
895.7005371967535
 20
128.4916330632194
 30
0.0
 10
895.5125066454932
 20
127.3971400326721
 30
0.0
 10
895.359013037886
 20
126.5037303308748
 30
0.0
 10
895.1804722086302
 20
125.6142275720783
 30
0.0
 10
894.9396661030158
 20
124.7402559474638
 30
0.0
 10
894.8602205492779
 20
124.4520365168812
 30
0.0
 10
894.7740016623641
 20
124.1654751417869
 30
0.0
 10
894.6708141647244
 20
123.8849462663756
 30
0.0
 10
894.5921447220663
 20
123.671162943329
 30
0.0
 10
894.5035975018722
 20
123.460872120113
 30
0.0
 10
894.39642361543
 20
123.2594712964694
 30
0.0
 10
894.3207880616013
 20
123.1173371366477
 30
0.0
 10
894.2359097302075
 20
122.9796126988188
 30
0.0
 10
894.1232677883364
 20
122.8642543710403
 30
0.0
 10
894.0749019561049
 20
122.8146890956326
 30
0.0
 10
894.021385568444
 20
122.7692160422761
 30
0.0
 10
893.9598964031792
 20
122.7377835437929
 30
0.0
 10
893.909625571
 20
122.7120660450246
 30
0.0
 10
893.8540277944853
 20
122.6956971569223
 30
0.0
 10
893.7972658513427
 20
122.6958029902426
 30
0.0
  0
ENDBLK
  5
81
330
7E
100
AcDbEntity
  8
0
100
AcDbBlockEnd
  0
BLOCK
  5
85
330
83
100
AcDbEntity
  8
0
100
AcDbBlockBegin
  2
block 13
 70
     0
 10
0.0
 20
0.0
 30
0.0
  3
block 13
  1

  0
SPLINE
  5
87
330
83
100
AcDbEntity
  8
0
 62
   250
370
    25
100
AcDbSpline
210
0.0
220
0.0
230
1.0
 70
     8
 71
     3
 72
    32
 73
    28
 74
     0
 42
0.0000000001
 43
0.0000000001
 12
1.0
 22
0.0
 32
0.0
 13
1.0
 23
0.0
 33
0.0
 40
0.0
 40
0.0
 40
0.0
 40
0.0
 40
1.0
 40
1.0
 40
1.0
 40
2.0
 40
2.0
 40
2.0
 40
3.0
 40
3.0
 40
3.0
 40
4.0
 40
4.0
 40
4.0
 40
5.0
 40
5.0
 40
5.0
 40
6.0
 40
6.0
 40
6.0
 40
7.0
 40
7.0
 40
7.0
 40
8.0
 40
8.0
 40
8.0
 40
9.0
 40
9.0
 40
9.0
 40
9.0
 10
893.7972658513427
 20
122.6958029902426
 30
0.0
 10
893.6941136314749
 20
122.6942154903332
 30
0.0
 10
893.6049314112944
 20
122.7478024321939
 30
0.0
 10
893.5297897463445
 20
122.8139129845644
 30
0.0
 10
893.4192291933144
 20
122.9111738132186
 30
0.0
 10
893.3390428062569
 20
123.0355632516822
 30
0.0
 10
893.2688047522956
 20
123.1645740788064
 30
0.0
 10
893.1670283657363
 20
123.3514051809299
 30
0.0
 10
893.0860305898107
 20
123.5479023936998
 30
0.0
 10
893.0149811469837
 20
123.7478215507537
 30
0.0
 10
892.9200486491593
 20
124.0147684823481
 30
0.0
 10
892.8428255953697
 20
124.2878537470024
 30
0.0
 10
892.7727639303018
 20
124.5625617893399
 30
0.0
 10
892.579723934707
 20
125.3197992529199
 30
0.0
 10
892.4413997711996
 20
126.0893486603311
 30
0.0
 10
892.3229369961258
 20
126.8616586560225
 30
0.0
 10
892.1625642220108
 20
127.9073625210182
 30
0.0
 10
892.038633391508
 20
128.9580405525883
 30
0.0
 10
891.9330822828139
 20
130.01051775076
 30
0.0
 10
891.802625063576
 20
131.3112093877084
 30
0.0
 10
891.7002842325763
 20
132.6146174135105
 30
0.0
 10
891.6148767345294
 20
133.919083772581
 30
0.0
 10
891.5158520145704
 20
135.4320417935849
 30
0.0
 10
891.4395814607541
 20
136.9463403701103
 30
0.0
 10
891.3789742399176
 20
138.4612739466156
 30
0.0
 10
891.2425903541437
 20
141.8709063687285
 30
0.0
 10
891.1855814665488
 20
145.2835726796498
 30
0.0
 10
891.1842409110275
 20
148.6958156572629
 30
0.0
  0
ENDBLK
  5
86
330
83
100
AcDbEntity
  8
0
100
AcDbBlockEnd
  0
BLOCK
  5
8A
330
88
100
AcDbEntity
  8
0
100
AcDbBlockBegin
  2
block 14
 70
     0
 10
0.0
 20
0.0
 30
0.0
  3
block 14
  1

  0
SPLINE
  5
8C
330
88
100
AcDbEntity
  8
0
 62
   250
370
    25
100
AcDbSpline
210
0.0
220
0.0
230
1.0
 70
     8
 71
     3
 72
    35
 73
    31
 74
     0
 42
0.0000000001
 43
0.0000000001
 12
1.0
 22
0.0
 32
0.0
 13
1.0
 23
0.0
 33
0.0
 40
0.0
 40
0.0
 40
0.0
 40
0.0
 40
1.0
 40
1.0
 40
1.0
 40
2.0
 40
2.0
 40
2.0
 40
3.0
 40
3.0
 40
3.0
 40
4.0
 40
4.0
 40
4.0
 40
5.0
 40
5.0
 40
5.0
 40
6.0
 40
6.0
 40
6.0
 40
7.0
 40
7.0
 40
7.0
 40
8.0
 40
8.0
 40
8.0
 40
9.0
 40
9.0
 40
9.0
 40
10.0
 40
10.0
 40
10.0
 40
10.0
 10
891.1842409110275
 20
148.6958509350302
 30
0.0
 10
891.1842409110275
 20
150.4421361729326
 30
0.0
 10
891.20025702178
 20
152.1883508552677
 30
0.0
 10
891.2334181321272
 20
153.9342833153968
 30
0.0
 10
891.2650622980725
 20
155.6000999440017
 30
0.0
 10
891.3122992414377
 20
157.2656343504056
 30
0.0
 10
891.3788331288101
 20
158.9303926457029
 30
0.0
 10
891.4393697940876
 20
160.4453262222152
 30
0.0
 10
891.5159225701177
 20
161.9596247987399
 30
0.0
 10
891.6149825678626
 20
163.4725475419458
 30
0.0
 10
891.7003900659096
 20
164.7770139010484
 30
0.0
 10
891.8025897857901
 20
166.0804572046049
 30
0.0
 10
891.9330117272538
 20
167.3811488415661
 30
0.0
 10
892.038562835962
 20
168.4336260397378
 30
0.0
 10
892.1625994997967
 20
169.4843040713016
 30
0.0
 10
892.3229722739129
 20
170.5299726585172
 30
0.0
 10
892.4414350489726
 20
171.3022737519858
 30
0.0
 10
892.5796886569326
 20
172.0718584566392
 30
0.0
 10
892.7727639303018
 20
172.8290606615496
 30
0.0
 10
892.8428255953697
 20
173.1037687108424
 30
0.0
 10
892.9200839269336
 20
173.3768539823764
 30
0.0
 10
893.0149811469837
 20
173.6438009207336
 30
0.0
 10
893.0860658675849
 20
173.8437200828319
 30
0.0
 10
893.1670283657363
 20
174.0402173005621
 30
0.0
 10
893.2687694745226
 20
174.2270484074022
 30
0.0
 10
893.3390428062569
 20
174.3560592377862
 30
0.0
 10
893.4192291933144
 20
174.4804486793819
 30
0.0
 10
893.5297897463445
 20
174.5777447882726
 30
0.0
 10
893.6049314112944
 20
174.6438553423314
 30
0.0
 10
893.6940783537019
 20
174.6974422855461
 30
0.0
 10
893.7972658513427
 20
174.6958195077988
 30
0.0
  0
ENDBLK
  5
8B
330
88
100
AcDbEntity
  8
0
100
AcDbBlockEnd
  0
BLOCK
  5
8F
330
8D
100
AcDbEntity
  8
0
100
AcDbBlockBegin
  2
block 15
 70
     0
 10
0.0
 20
0.0
 30
0.0
  3
block 15
  1

  0
SPLINE
  5
91
330
8D
100
AcDbEntity
  8
0
 62
   250
370
    25
100
AcDbSpline
210
0.0
220
0.0
230
1.0
 70
     8
 71
     3
 72
    65
 73
    61
 74
     0
 42
0.0000000001
 43
0.0000000001
 12
1.0
 22
0.0
 32
0.0
 13
1.0
 23
0.0
 33
0.0
 40
0.0
 40
0.0
 40
0.0
 40
0.0
 40
1.0
 40
1.0
 40
1.0
 40
2.0
 40
2.0
 40
2.0
 40
3.0
 40
3.0
 40
3.0
 40
4.0
 40
4.0
 40
4.0
 40
5.0
 40
5.0
 40
5.0
 40
6.0
 40
6.0
 40
6.0
 40
7.0
 40
7.0
 40
7.0
 40
8.0
 40
8.0
 40
8.0
 40
9.0
 40
9.0
 40
9.0
 40
10.0
 40
10.0
 40
10.0
 40
11.0
 40
11.0
 40
11.0
 40
12.0
 40
12.0
 40
12.0
 40
13.0
 40
13.0
 40
13.0
 40
14.0
 40
14.0
 40
14.0
 40
15.0
 40
15.0
 40
15.0
 40
16.0
 40
16.0
 40
16.0
 40
17.0
 40
17.0
 40
17.0
 40
18.0
 40
18.0
 40
18.0
 40
19.0
 40
19.0
 40
19.0
 40
20.0
 40
20.0
 40
20.0
 40
20.0
 10
751.2940968842569
 20
-14.777351229981
 30
0.0
 10
751.0222816126841
 20
-14.84190956020296
 30
0.0
 10
750.7471502300835
 20
-14.89009900232325
 30
0.0
 10
750.4713132919358
 20
-14.93366705578293
 30
0.0
 10
750.0634669123757
 20
-14.99811955268452
 30
0.0
 10
749.6540683106024
 20
-15.05255316117228
 30
0.0
 10
749.2440347088689
 20
-15.10123649217271
 30
0.0
 10
748.3377133406752
 20
-15.20886898699987
 30
0.0
 10
747.428252250346
 20
-15.28838509429587
 30
0.0
 10
746.5178739378036
 20
-15.35252009119786
 30
0.0
 10
744.0657156604848
 20
-15.52527536067445
 30
0.0
 10
741.6068898833104
 20
-15.58648230215976
 30
0.0
 10
739.1489813283501
 20
-15.6233123003962
 30
0.0
 10
738.0129310765188
 20
-15.64031618847268
 30
0.0
 10
736.8770924913553
 20
-15.65213424343669
 30
0.0
 10
735.7409364062044
 20
-15.65915452088649
 30
0.0
 10
735.1273500313247
 20
-15.66296452070458
 30
0.0
 10
734.5136578231246
 20
-15.6653634094681
 30
0.0
 10
733.9000008926982
 20
-15.66758590937675
 30
0.0
 10
731.791836218634
 20
-15.67524118680008
 30
0.0
 10
729.6839537667835
 20
-15.6808856309555
 30
0.0
 10
727.5759654815998
 20
-15.69118674158307
 30
0.0
 10
726.1062227373988
 20
-15.69834813011343
 30
0.0
 10
724.6364447154107
 20
-15.70776729632546
 30
0.0
 10
723.1667019712096
 20
-15.71940896242176
 30
0.0
 10
720.1118581520958
 20
-15.74353896128124
 30
0.0
 10
717.0571907218754
 20
-15.77708812632838
 30
0.0
 10
714.0025938472016
 20
-15.81709312440939
 30
0.0
 10
711.0524191923685
 20
-15.85572228922168
 30
0.0
 10
708.102279815321
 20
-15.90038395373633
 30
0.0
 10
705.1521404382621
 20
-15.94617450708027
 30
0.0
 10
695.4381928823716
 20
-16.09684588871394
 30
0.0
 10
685.7244569931481
 20
-16.25937060313598
 30
0.0
 10
676.0105447150441
 20
-16.40961865146252
 30
0.0
 10
670.3618317885167
 20
-16.49696642502388
 30
0.0
 10
664.7130130286562
 20
-16.58018669880477
 30
0.0
 10
659.0641942688078
 20
-16.6602319727411
 30
0.0
 10
645.6508779085385
 20
-16.85034390802958
 30
0.0
 10
632.2373146038162
 20
-17.02257001085173
 30
0.0
 10
618.8235749102263
 20
-17.17641639235691
 30
0.0
 10
591.6004905320661
 20
-17.48869526619968
 30
0.0
 10
564.3765594872649
 20
-17.72526803260433
 30
0.0
 10
537.1525578869175
 20
-17.94208524439507
 30
0.0
 10
527.6208906046446
 20
-18.01800301852654
 30
0.0
 10
518.0891880445988
 20
-18.09148662612018
 30
0.0
 10
508.5574854845407
 20
-18.16257134491179
 30
0.0
 10
496.445883816766
 20
-18.25291772944874
 30
0.0
 10
484.334246871206
 20
-18.33938355862152
 30
0.0
 10
472.2226099256447
 20
-18.42390911012379
 30
0.0
 10
451.3982087346521
 20
-18.56921826977728
 30
0.0
 10
430.5737369881135
 20
-18.70867131864745
 30
0.0
 10
409.7491946860268
 20
-18.83983409010792
 30
0.0
 10
373.1219721893503
 20
-19.07051546790489
 30
0.0
 10
336.494573303794
 20
-19.27540879138688
 30
0.0
 10
299.8669980293577
 20
-19.44100267229461
 30
0.0
 10
266.2023679650126
 20
-19.59319099830322
 30
0.0
 10
232.5375967895484
 20
-19.71214765926686
 30
0.0
 10
198.8727550585369
 20
-19.79374515533833
 30
0.0
 10
167.1432168944413
 20
-19.87065070717874
 30
0.0
 10
135.4136434525593
 20
-19.91435987175748
 30
0.0
 10
103.6840347329041
 20
-19.92095681588731
 30
0.0
  0
ENDBLK
  5
90
330
8D
100
AcDbEntity
  8
0
100
AcDbBlockEnd
  0
BLOCK
  5
94
330
92
100
AcDbEntity
  8
0
100
AcDbBlockBegin
  2
block 16
 70
     0
 10
0.0
 20
0.0
 30
0.0
  3
block 16
  1

  0
SPLINE
  5
96
330
92
100
AcDbEntity
  8
0
 62
   250
370
    25
100
AcDbSpline
210
0.0
220
0.0
230
1.0
 70
     8
 71
     3
 72
    59
 73
    55
 74
     0
 42
0.0000000001
 43
0.0000000001
 12
1.0
 22
0.0
 32
0.0
 13
1.0
 23
0.0
 33
0.0
 40
0.0
 40
0.0
 40
0.0
 40
0.0
 40
1.0
 40
1.0
 40
1.0
 40
2.0
 40
2.0
 40
2.0
 40
3.0
 40
3.0
 40
3.0
 40
4.0
 40
4.0
 40
4.0
 40
5.0
 40
5.0
 40
5.0
 40
6.0
 40
6.0
 40
6.0
 40
7.0
 40
7.0
 40
7.0
 40
8.0
 40
8.0
 40
8.0
 40
9.0
 40
9.0
 40
9.0
 40
10.0
 40
10.0
 40
10.0
 40
11.0
 40
11.0
 40
11.0
 40
12.0
 40
12.0
 40
12.0
 40
13.0
 40
13.0
 40
13.0
 40
14.0
 40
14.0
 40
14.0
 40
15.0
 40
15.0
 40
15.0
 40
16.0
 40
16.0
 40
16.0
 40
17.0
 40
17.0
 40
17.0
 40
18.0
 40
18.0
 40
18.0
 40
18.0
 10
765.9098915503961
 20
148.6958156572629
 30
0.0
 10
765.9089390504223
 20
138.2175045077472
 30
0.0
 10
765.7801751644662
 20
127.7391228026453
 30
0.0
 10
765.526351559153
 20
117.2638368626597
 30
0.0
 10
765.2822998980581
 20
107.1916790138491
 30
0.0
 10
764.9226076840639
 20
97.12241394267065
 30
0.0
 10
764.4579993613356
 20
87.05801720460377
 30
0.0
 10
763.4740316060435
 20
65.74304378550882
 30
0.0
 10
762.0194935837025
 20
44.45001314313643
 30
0.0
 10
760.126981960269
 20
23.19652888774051
 30
0.0
 10
759.7750508571982
 20
19.24411268899655
 30
0.0
 10
759.4079503100282
 20
15.29307232348922
 30
0.0
 10
759.025821429866
 20
11.34347834682361
 30
0.0
 10
758.8280894899348
 20
9.299766222921345
 30
0.0
 10
758.6263006056563
 20
7.256406876781438
 30
0.0
 10
758.420031443709
 20
5.21354141946905
 30
0.0
 10
758.2920083910718
 20
3.945517036045717
 30
0.0
 10
758.1622567273682
 20
2.677704319238731
 30
0.0
 10
758.0227331194465
 20
1.41091465796505
 30
0.0
 10
757.9126664552971
 20
0.4118833171385471
 30
0.0
 10
757.7965320135049
 20
-0.5865130237388081
 30
0.0
 10
757.6723542385635
 20
-1.583886309082858
 30
0.0
 10
757.5743525741377
 20
-2.370827660123986
 30
0.0
 10
757.4713767431517
 20
-3.157098733417272
 30
0.0
 10
757.3574295235337
 20
-3.941888140095808
 30
0.0
 10
757.2652486923108
 20
-4.576641165114207
 30
0.0
 10
757.1659064723523
 20
-5.210406412399281
 30
0.0
 10
757.0517828638536
 20
-5.841596382039013
 30
0.0
 10
756.9653875880464
 20
-6.319469136829296
 30
0.0
 10
756.8704903679834
 20
-6.795895502803527
 30
0.0
 10
756.760741203833
 20
-7.269041035612828
 30
0.0
 10
756.6782970390541
 20
-7.6243940740608
 30
0.0
 10
756.5874920411255
 20
-7.977877390386869
 30
0.0
 10
756.4777075991893
 20
-8.325645706997348
 30
0.0
 10
756.3660887128523
 20
-8.679129023323418
 30
0.0
 10
756.2348906602813
 20
-9.026756228814833
 30
0.0
 10
756.0813970526883
 20
-9.364188157050389
 30
0.0
 10
755.9260337228937
 20
-9.705677029493414
 30
0.0
 10
755.7478456714106
 20
-10.03672368024243
 30
0.0
 10
755.554347064722
 20
-10.35828060922951
 30
0.0
 10
755.3688917911828
 20
-10.66650253884042
 30
0.0
 10
755.1693606846251
 20
-10.96601085775889
 30
0.0
 10
754.9585759672221
 20
-11.25733473263807
 30
0.0
 10
754.444049590088
 20
-11.96842886509507
 30
0.0
 10
753.8623190478206
 20
-12.63080438877861
 30
0.0
 10
753.2299296178138
 20
-13.239804637282
 30
0.0
 10
752.912429625063
 20
-13.54555712256923
 30
0.0
 10
752.5821590770536
 20
-13.83783349738432
 30
0.0
 10
752.2374246404922
 20
-14.11240042862774
 30
0.0
 10
752.0665390888388
 20
-14.24853736653428
 30
0.0
 10
751.8920904817174
 20
-14.38033513796829
 30
0.0
 10
751.7132674302467
 20
-14.50592402080784
 30
0.0
 10
751.5769893777943
 20
-14.60159734955194
 30
0.0
 10
751.4381360476332
 20
-14.69370762289298
 30
0.0
 10
751.2940968842569
 20
-14.777351229981
 30
0.0
  0
ENDBLK
  5
95
330
92
100
AcDbEntity
  8
0
100
AcDbBlockEnd
  0
BLOCK
  5
99
330
97
100
AcDbEntity
  8
0
100
AcDbBlockBegin
  2
block 17
 70
     0
 10
0.0
 20
0.0
 30
0.0
  3
block 17
  1

  0
SPLINE
  5
9B
330
97
100
AcDbEntity
  8
0
 62
   250
370
    25
100
AcDbSpline
210
0.0
220
0.0
230
1.0
 70
     8
 71
     3
 72
    65
 73
    61
 74
     0
 42
0.0000000001
 43
0.0000000001
 12
1.0
 22
0.0
 32
0.0
 13
1.0
 23
0.0
 33
0.0
 40
0.0
 40
0.0
 40
0.0
 40
0.0
 40
1.0
 40
1.0
 40
1.0
 40
2.0
 40
2.0
 40
2.0
 40
3.0
 40
3.0
 40
3.0
 40
4.0
 40
4.0
 40
4.0
 40
5.0
 40
5.0
 40
5.0
 40
6.0
 40
6.0
 40
6.0
 40
7.0
 40
7.0
 40
7.0
 40
8.0
 40
8.0
 40
8.0
 40
9.0
 40
9.0
 40
9.0
 40
10.0
 40
10.0
 40
10.0
 40
11.0
 40
11.0
 40
11.0
 40
12.0
 40
12.0
 40
12.0
 40
13.0
 40
13.0
 40
13.0
 40
14.0
 40
14.0
 40
14.0
 40
15.0
 40
15.0
 40
15.0
 40
16.0
 40
16.0
 40
16.0
 40
17.0
 40
17.0
 40
17.0
 40
18.0
 40
18.0
 40
18.0
 40
19.0
 40
19.0
 40
19.0
 40
20.0
 40
20.0
 40
20.0
 40
20.0
 10
751.2941674398171
 20
312.1689419231182
 30
0.0
 10
751.0224580015769
 20
312.2336413660898
 30
0.0
 10
750.7474324522966
 20
312.2817602538692
 30
0.0
 10
750.4717013474955
 20
312.3252930306595
 30
0.0
 10
750.0639608012431
 20
312.3897102514116
 30
0.0
 10
749.6546680328163
 20
312.444108583506
 30
0.0
 10
749.2447402644026
 20
312.4927919157244
 30
0.0
 10
748.3387363962086
 20
312.6003891354865
 30
0.0
 10
747.429557528093
 20
312.6799052447717
 30
0.0
 10
746.5194614377644
 20
312.7440402433293
 30
0.0
 10
744.0680439937657
 20
312.9167602393643
 30
0.0
 10
741.6099943276852
 20
312.9780377379678
 30
0.0
 10
739.1528266060445
 20
313.0149030149026
 30
0.0
 10
738.0171291319872
 20
313.0319421811885
 30
0.0
 10
736.8816080468104
 20
313.0437602364605
 30
0.0
 10
735.7458400172064
 20
313.0507805140708
 30
0.0
 10
735.1323947534336
 20
313.0545905139915
 30
0.0
 10
734.5188789341134
 20
313.0569894028256
 30
0.0
 10
733.9053983925676
 20
313.0592119027991
 30
0.0
 10
731.7977981629302
 20
313.06686718037
 30
0.0
 10
729.6905154332931
 20
313.0724057913905
 30
0.0
 10
727.5831268703226
 20
313.0827069022362
 30
0.0
 10
726.113772181668
 20
313.0899035687386
 30
0.0
 10
724.6443469374537
 20
313.0994285685354
 30
0.0
 10
723.1749922487862
 20
313.1110702349525
 30
0.0
 10
720.1206070407789
 20
313.1353413454893
 30
0.0
 10
717.0664334994385
 20
313.1688905113893
 30
0.0
 10
714.0122952358712
 20
313.2088249549118
 30
0.0
 10
711.0627203032514
 20
313.24741884292
 30
0.0
 10
708.1131453706193
 20
313.2919746752501
 30
0.0
 10
705.1636409935589
 20
313.3377299519812
 30
0.0
 10
695.7832800967192
 20
313.4832507819986
 30
0.0
 10
686.40316614432
 20
313.6410482783867
 30
0.0
 10
677.0228405252532
 20
313.7865691083906
 30
0.0
 10
671.0373659397542
 20
313.8794202173742
 30
0.0
 10
665.0517855209214
 20
313.9672971598147
 30
0.0
 10
659.0661698243149
 20
314.051857991234
 30
0.0
 10
645.6585331861414
 20
314.2412643757945
 30
0.0
 10
632.2506496035145
 20
314.4139490940622
 30
0.0
 10
618.8425896320199
 20
314.5679718683161
 30
0.0
 10
591.6130494206706
 20
314.8807799167447
 30
0.0
 10
564.3826625426937
 20
315.1165765779976
 30
0.0
 10
537.1521698313705
 20
315.3335349063824
 30
0.0
 10
527.6211375490853
 20
315.4094879602114
 30
0.0
 10
518.0901052667996
 20
315.4831126807471
 30
0.0
 10
508.5590377067278
 20
315.5542679569078
 30
0.0
 10
496.4490588166875
 20
315.6446496214971
 30
0.0
 10
484.338974093314
 20
315.7310448973101
 30
0.0
 10
472.2289246477148
 20
315.8154998953705
 30
0.0
 10
451.4035709567606
 20
315.9607385031734
 30
0.0
 10
430.5781819880084
 20
316.1002621110882
 30
0.0
 10
409.7527224637217
 20
316.2314601636528
 30
0.0
 10
373.1181621894424
 20
316.4622121028231
 30
0.0
 10
336.4834255262698
 20
316.6671054314829
 30
0.0
 10
299.8484771964436
 20
316.8326993165945
 30
0.0
 10
266.1867046320339
 20
316.9848876464533
 30
0.0
 10
232.5247556787296
 20
317.1038443103938
 30
0.0
 10
198.8627008921062
 20
317.1854418085321
 30
0.0
 10
167.1365493945986
 20
317.262312084549
 30
0.0
 10
135.4102920637449
 20
317.3060212502263
 30
0.0
 10
103.6840347329041
 20
317.3126181945217
 30
0.0
  0
ENDBLK
  5
9A
330
97
100
AcDbEntity
  8
0
100
AcDbBlockEnd
  0
BLOCK
  5
9E
330
9C
100
AcDbEntity
  8
0
100
AcDbBlockBegin
  2
block 18
 70
     0
 10
0.0
 20
0.0
 30
0.0
  3
block 18
  1

  0
SPLINE
  5
A0
330
9C
100
AcDbEntity
  8
0
 62
   250
370
    25
100
AcDbSpline
210
0.0
220
0.0
230
1.0
 70
     8
 71
     3
 72
    56
 73
    52
 74
     0
 42
0.0000000001
 43
0.0000000001
 12
1.0
 22
0.0
 32
0.0
 13
1.0
 23
0.0
 33
0.0
 40
0.0
 40
0.0
 40
0.0
 40
0.0
 40
1.0
 40
1.0
 40
1.0
 40
2.0
 40
2.0
 40
2.0
 40
3.0
 40
3.0
 40
3.0
 40
4.0
 40
4.0
 40
4.0
 40
5.0
 40
5.0
 40
5.0
 40
6.0
 40
6.0
 40
6.0
 40
7.0
 40
7.0
 40
7.0
 40
8.0
 40
8.0
 40
8.0
 40
9.0
 40
9.0
 40
9.0
 40
10.0
 40
10.0
 40
10.0
 40
11.0
 40
11.0
 40
11.0
 40
12.0
 40
12.0
 40
12.0
 40
13.0
 40
13.0
 40
13.0
 40
14.0
 40
14.0
 40
14.0
 40
15.0
 40
15.0
 40
15.0
 40
16.0
 40
16.0
 40
16.0
 40
17.0
 40
17.0
 40
17.0
 40
17.0
 10
-397.3063299343
 20
314.6465001998668
 30
0.0
 10
-397.6605188150923
 20
314.3439227067815
 30
0.0
 10
-398.0022899183991
 20
314.0268813251243
 30
0.0
 10
-398.3339010219421
 20
313.6997152214897
 30
0.0
 10
-398.7526482345862
 20
313.2865418975885
 30
0.0
 10
-399.1552029476229
 20
312.8572466296271
 30
0.0
 10
-399.5435759943078
 20
312.4152866397211
 30
0.0
 10
-400.1981551460112
 20
311.6703258234028
 30
0.0
 10
-400.8124470764311
 20
310.8893463967851
 30
0.0
 10
-401.3628862305263
 20
310.064587248969
 30
0.0
 10
-401.5797740033444
 20
309.7396436452758
 30
0.0
 10
-401.7867134430651
 20
309.4078914306388
 30
0.0
 10
-401.9790478831135
 20
309.0678136606265
 30
0.0
 10
-402.19117315605
 20
308.6927050580797
 30
0.0
 10
-402.3855184293923
 20
308.307436455769
 30
0.0
 10
-402.5573917587928
 20
307.9123606314548
 30
0.0
 10
-402.7118025886001
 20
307.5574309173558
 30
0.0
 10
-402.8480806410402
 20
307.1945637034081
 30
0.0
 10
-402.9682367494067
 20
306.8265459340438
 30
0.0
 10
-403.0881106355601
 20
306.4592689979927
 30
0.0
 10
-403.1918978554143
 20
306.0868767842616
 30
0.0
 10
-403.2854192421707
 20
305.7120151261683
 30
0.0
 10
-403.4310811832808
 20
305.1283443061664
 30
0.0
 10
-403.5518370138616
 20
304.5387468196296
 30
0.0
 10
-403.6606336780376
 20
303.947067944252
 30
0.0
 10
-403.7693950644402
 20
303.3555654577735
 30
0.0
 10
-403.8661972844513
 20
302.7619463046683
 30
0.0
 10
-403.9578842268069
 20
302.1676215960351
 30
0.0
 10
-404.2329450538609
 20
300.3845063589658
 30
0.0
 10
-404.4621094930704
 20
298.5946530665257
 30
0.0
 10
-404.6722239327126
 20
296.8027183852325
 30
0.0
 10
-404.9878542032761
 20
294.1113415022734
 30
0.0
 10
-405.2605866970496
 20
291.4152726749664
 30
0.0
 10
-405.5271808576207
 20
288.7186041254654
 30
0.0
 10
-405.9066991822889
 20
284.8795000464784
 30
0.0
 10
-406.2737997294588
 20
281.0392670786507
 30
0.0
 10
-406.6249194436626
 20
277.1975171663966
 30
0.0
 10
-408.5541905106971
 20
256.0882479263717
 30
0.0
 10
-410.0005440887692
 20
234.9347403540041
 30
0.0
 10
-410.9708240666148
 20
213.7595722265937
 30
0.0
 10
-411.8601415462956
 20
194.3518560032679
 30
0.0
 10
-412.3495501462203
 20
174.9259717247622
 30
0.0
 10
-412.4337229220801
 20
155.4980060574351
 30
0.0
 10
-412.440425699709
 20
153.9455016484619
 30
0.0
 10
-412.4445884773908
 20
152.3929619617081
 30
0.0
 10
-412.4468815328853
 20
150.8404575527336
 30
0.0
 10
-412.4474106995519
 20
150.4905725607308
 30
0.0
 10
-412.4478340328719
 20
150.1407228464939
 30
0.0
 10
-412.4465993106716
 20
149.7908731322505
 30
0.0
 10
-412.4452940329248
 20
149.4191159185129
 30
0.0
 10
-412.4421543107766
 20
149.0473939825803
 30
0.0
 10
-412.4490687550726
 20
148.675672046615
 30
0.0
  0
ENDBLK
  5
9F
330
9C
100
AcDbEntity
  8
0
100
AcDbBlockEnd
  0
BLOCK
  5
A3
330
A1
100
AcDbEntity
  8
0
100
AcDbBlockBegin
  2
block 19
 70
     0
 10
0.0
 20
0.0
 30
0.0
  3
block 19
  1

  0
SPLINE
  5
A5
330
A1
100
AcDbEntity
  8
0
 62
   250
370
    25
100
AcDbSpline
210
0.0
220
0.0
230
1.0
 70
     8
 71
     3
 72
    56
 73
    52
 74
     0
 42
0.0000000001
 43
0.0000000001
 12
1.0
 22
0.0
 32
0.0
 13
1.0
 23
0.0
 33
0.0
 40
0.0
 40
0.0
 40
0.0
 40
0.0
 40
1.0
 40
1.0
 40
1.0
 40
2.0
 40
2.0
 40
2.0
 40
3.0
 40
3.0
 40
3.0
 40
4.0
 40
4.0
 40
4.0
 40
5.0
 40
5.0
 40
5.0
 40
6.0
 40
6.0
 40
6.0
 40
7.0
 40
7.0
 40
7.0
 40
8.0
 40
8.0
 40
8.0
 40
9.0
 40
9.0
 40
9.0
 40
10.0
 40
10.0
 40
10.0
 40
11.0
 40
11.0
 40
11.0
 40
12.0
 40
12.0
 40
12.0
 40
13.0
 40
13.0
 40
13.0
 40
14.0
 40
14.0
 40
14.0
 40
15.0
 40
15.0
 40
15.0
 40
16.0
 40
16.0
 40
16.0
 40
17.0
 40
17.0
 40
17.0
 40
17.0
 10
765.9098915503961
 20
148.6958156572629
 30
0.0
 10
765.9094329393024
 20
159.0102968105543
 30
0.0
 10
765.78402044216
 20
169.3247426860714
 30
0.0
 10
765.5379226699978
 20
179.6362957838492
 30
0.0
 10
765.2873446201799
 20
190.1336569329592
 30
0.0
 10
764.9116715731933
 20
200.6279489154544
 30
0.0
 10
764.4218749177211
 20
211.1168433980742
 30
0.0
 10
763.4327566069874
 20
232.3000195808608
 30
0.0
 10
761.9782538624194
 20
253.4611824308122
 30
0.0
 10
760.0921275166289
 20
274.5833280594412
 30
0.0
 10
759.7460172467469
 20
278.4594032486826
 30
0.0
 10
759.3853725327662
 20
282.3341731601834
 30
0.0
 10
759.0102639302193
 20
286.2075672383521
 30
0.0
 10
758.8100272681285
 20
288.2750919133716
 30
0.0
 10
758.6056631061282
 20
290.3422285328134
 30
0.0
 10
758.3959367220328
 20
292.4088359856078
 30
0.0
 10
758.2660439472218
 20
293.6885020674813
 30
0.0
 10
758.1341050613435
 20
294.9679917604941
 30
0.0
 10
757.9922531201419
 20
296.2463878423878
 30
0.0
 10
757.887513400314
 20
297.1902800430435
 30
0.0
 10
757.7773761806045
 20
298.1336077992665
 30
0.0
 10
757.6594778499709
 20
299.0759477777538
 30
0.0
 10
757.5640514632548
 20
299.8389002603259
 30
0.0
 10
757.4635450766682
 20
300.601182465124
 30
0.0
 10
757.3523848014248
 20
301.3619830033202
 30
0.0
 10
757.2603803590824
 20
301.9915502111537
 30
0.0
 10
757.1611086946833
 20
302.6200590856796
 30
0.0
 10
757.0480081417058
 20
303.2461337936106
 30
0.0
 10
756.9596020326179
 20
303.7354365602213
 30
0.0
 10
756.862764534833
 20
304.2232576601788
 30
0.0
 10
756.7494875929756
 20
304.7075157046685
 30
0.0
 10
756.6595645394742
 20
305.092008195886
 30
0.0
 10
756.5592698195412
 20
305.4742076316077
 30
0.0
 10
756.4351273223862
 20
305.8489281786012
 30
0.0
 10
756.3313753803058
 20
306.1619831714506
 30
0.0
 10
756.2109370497249
 20
306.4698523310778
 30
0.0
 10
756.0739534417388
 20
306.7697487131275
 30
0.0
 10
755.7603340044561
 20
307.4563953640904
 30
0.0
 10
755.359895958059
 20
308.1015906271289
 30
0.0
 10
754.9128206904846
 20
308.7107320021072
 30
0.0
 10
754.3993526466573
 20
309.4103255972402
 30
0.0
 10
753.8243601597924
 20
310.0623647490148
 30
0.0
 10
753.1976857296673
 20
310.6622986241959
 30
0.0
 10
752.8814910146635
 20
310.9649819506208
 30
0.0
 10
752.5521729666292
 20
311.254400832914
 30
0.0
 10
752.2091318633611
 20
311.5261102711402
 30
0.0
 10
752.0480535336983
 20
311.6536747126574
 30
0.0
 10
751.8839765930073
 20
311.7773585987451
 30
0.0
 10
751.7157721524081
 20
311.8953627626919
 30
0.0
 10
751.578612155541
 20
311.9916005382821
 30
0.0
 10
751.4387004920729
 20
312.0840635917251
 30
0.0
 10
751.2941674398171
 20
312.1689419231182
 30
0.0
  0
ENDBLK
  5
A4
330
A1
100
AcDbEntity
  8
0
100
AcDbBlockEnd
  0
BLOCK
  5
A8
330
A6
100
AcDbEntity
  8
0
100
AcDbBlockBegin
  2
block 20
 70
     0
 10
0.0
 20
0.0
 30
0.0
  3
block 20
  1

  0
SPLINE
  5
AA
330
A6
100
AcDbEntity
  8
0
 62
   250
370
    25
100
AcDbSpline
210
0.0
220
0.0
230
1.0
 70
     8
 71
     3
 72
    32
 73
    28
 74
     0
 42
0.0000000001
 43
0.0000000001
 12
1.0
 22
0.0
 32
0.0
 13
1.0
 23
0.0
 33
0.0
 40
0.0
 40
0.0
 40
0.0
 40
0.0
 40
1.0
 40
1.0
 40
1.0
 40
2.0
 40
2.0
 40
2.0
 40
3.0
 40
3.0
 40
3.0
 40
4.0
 40
4.0
 40
4.0
 40
5.0
 40
5.0
 40
5.0
 40
6.0
 40
6.0
 40
6.0
 40
7.0
 40
7.0
 40
7.0
 40
8.0
 40
8.0
 40
8.0
 40
9.0
 40
9.0
 40
9.0
 40
9.0
 10
103.6840347329041
 20
-19.92095681588731
 30
0.0
 10
77.77772865800458
 20
-19.92614264894845
 30
0.0
 10
51.87138730531915
 20
-19.91333681624984
 30
0.0
 10
25.96511650819356
 20
-19.88091654003199
 30
0.0
 10
2.85767870270799
 20
-19.85195348587244
 30
0.0
 10
-20.24975910280357
 20
-19.80736237690385
 30
0.0
 10
-43.35712635274213
 20
-19.7478840464355
 30
0.0
 10
-92.37016467760608
 20
-19.62169544138261
 30
0.0
 10
-141.3830266135766
 20
-19.42844378402387
 30
0.0
 10
-190.3955004940134
 20
-19.16879935206735
 30
0.0
 10
-252.2110910264285
 20
-18.841315756697
 30
0.0
 10
-314.0260818366293
 20
-18.40831633308905
 30
0.0
 10
-375.8403318135233
 20
-17.8895919136035
 30
0.0
 10
-377.9687459315821
 20
-17.8717413588858
 30
0.0
 10
-380.0971600496275
 20
-17.8537849708734
 30
0.0
 10
-382.2255388898992
 20
-17.83392358294041
 30
0.0
 10
-383.8849349631078
 20
-17.8184366392517
 30
0.0
 10
-385.5442957585299
 20
-17.8017855289363
 30
0.0
 10
-387.2034801650714
 20
-17.77081164153322
 30
0.0
 10
-388.6275381880951
 20
-17.744212198377
 30
0.0
 10
-390.0514198222385
 20
-17.70706470015251
 30
0.0
 10
-391.4747017341683
 20
-17.65259581389043
 30
0.0
 10
-392.5953708752459
 20
-17.6096980381786
 30
0.0
 10
-393.7156166829903
 20
-17.55607581853207
 30
0.0
 10
-394.8345572129749
 20
-17.48005221108023
 30
0.0
 10
-395.6601277496839
 20
-17.42396054711002
 30
0.0
 10
-396.4849574530597
 20
-17.35569805039033
 30
0.0
 10
-397.3063299343
 20
-17.25487416635812
 30
0.0
  0
ENDBLK
  5
A9
330
A6
100
AcDbEntity
  8
0
100
AcDbBlockEnd
  0
BLOCK
  5
AD
330
AB
100
AcDbEntity
  8
0
100
AcDbBlockBegin
  2
block 21
 70
     0
 10
0.0
 20
0.0
 30
0.0
  3
block 21
  1

  0
SPLINE
  5
AF
330
AB
100
AcDbEntity
  8
0
 62
   250
370
    25
100
AcDbSpline
210
0.0
220
0.0
230
1.0
 70
     8
 71
     3
 72
    41
 73
    37
 74
     0
 42
0.0000000001
 43
0.0000000001
 12
1.0
 22
0.0
 32
0.0
 13
1.0
 23
0.0
 33
0.0
 40
0.0
 40
0.0
 40
0.0
 40
0.0
 40
1.0
 40
1.0
 40
1.0
 40
2.0
 40
2.0
 40
2.0
 40
3.0
 40
3.0
 40
3.0
 40
4.0
 40
4.0
 40
4.0
 40
5.0
 40
5.0
 40
5.0
 40
6.0
 40
6.0
 40
6.0
 40
7.0
 40
7.0
 40
7.0
 40
8.0
 40
8.0
 40
8.0
 40
9.0
 40
9.0
 40
9.0
 40
10.0
 40
10.0
 40
10.0
 40
11.0
 40
11.0
 40
11.0
 40
12.0
 40
12.0
 40
12.0
 40
12.0
 10
-397.3063299343
 20
-17.25487416635812
 30
0.0
 10
-397.6716665926165
 20
-16.94270112580877
 30
0.0
 10
-398.0229626957137
 20
-16.61468836382504
 30
0.0
 10
-398.3642751879141
 20
-16.27658615785447
 30
0.0
 10
-398.7606562899625
 20
-15.88387395452716
 30
0.0
 10
-399.1435260034452
 20
-15.47757980739708
 30
0.0
 10
-399.5132371061096
 20
-15.05957343860925
 30
0.0
 10
-400.1786112575831
 20
-14.30734541924195
 30
0.0
 10
-400.8012992989069
 20
-13.51733490170358
 30
0.0
 10
-401.3585470639511
 20
-12.6815338307956
 30
0.0
 10
-401.8056223315255
 20
-12.01104441859445
 30
0.0
 10
-402.2105759333777
 20
-11.31102750783194
 30
0.0
 10
-402.5362603703846
 20
-10.57449809882103
 30
0.0
 10
-402.685132589216
 20
-10.23777172613073
 30
0.0
 10
-402.8174242528544
 20
-9.893425353805524
 30
0.0
 10
-402.9346875835138
 20
-9.544210648378993
 30
0.0
 10
-403.0706481359536
 20
-9.139292334516348
 30
0.0
 10
-403.1863945221989
 20
-8.727812354323847
 30
0.0
 10
-403.289088130966
 20
-8.313298485380177
 30
0.0
 10
-403.410796461526
 20
-7.822055453439418
 30
0.0
 10
-403.5141956258204
 20
-7.326508532851761
 30
0.0
 10
-403.608916456991
 20
-6.829338834529011
 30
0.0
 10
-403.7389503429084
 20
-6.146925534019103
 30
0.0
 10
-403.8525800625393
 20
-5.461443067009383
 30
0.0
 10
-403.9590131156613
 20
-4.774902266693331
 30
0.0
 10
-404.2338269982751
 20
-3.001876518644658
 30
0.0
 10
-404.4603103264432
 20
-1.221901048732023
 30
0.0
 10
-404.6688372661118
 20
0.5600852544485259
 30
0.0
 10
-404.9785055923791
 20
3.205953738283641
 30
0.0
 10
-405.2486275306451
 20
5.85619666633866
 30
0.0
 10
-405.5119055802006
 20
8.507074594392881
 30
0.0
 10
-405.8975269602653
 20
12.38967607428587
 30
0.0
 10
-406.2685080629104
 20
16.2737239429962
 30
0.0
 10
-406.6232966659157
 20
20.15921820052001
 30
0.0
 10
-410.5241015768072
 20
62.87919392325497
 30
0.0
 10
-412.4675895879735
 20
105.7779574151881
 30
0.0
 10
-412.4490687550726
 20
148.675672046615
 30
0.0
  0
ENDBLK
  5
AE
330
AB
100
AcDbEntity
  8
0
100
AcDbBlockEnd
  0
BLOCK
  5
B2
330
B0
100
AcDbEntity
  8
0
100
AcDbBlockBegin
  2
block 22
 70
     0
 10
0.0
 20
0.0
 30
0.0
  3
block 22
  1

  0
SPLINE
  5
B4
330
B0
100
AcDbEntity
  8
0
 62
   250
370
    25
100
AcDbSpline
210
0.0
220
0.0
230
1.0
 70
     8
 71
     3
 72
    32
 73
    28
 74
     0
 42
0.0000000001
 43
0.0000000001
 12
1.0
 22
0.0
 32
0.0
 13
1.0
 23
0.0
 33
0.0
 40
0.0
 40
0.0
 40
0.0
 40
0.0
 40
1.0
 40
1.0
 40
1.0
 40
2.0
 40
2.0
 40
2.0
 40
3.0
 40
3.0
 40
3.0
 40
4.0
 40
4.0
 40
4.0
 40
5.0
 40
5.0
 40
5.0
 40
6.0
 40
6.0
 40
6.0
 40
7.0
 40
7.0
 40
7.0
 40
8.0
 40
8.0
 40
8.0
 40
9.0
 40
9.0
 40
9.0
 40
9.0
 10
103.6840347329041
 20
317.3126181945217
 30
0.0
 10
77.77772865800458
 20
317.3178040277304
 30
0.0
 10
51.87138730531915
 20
317.3049981946859
 30
0.0
 10
25.96508123042021
 20
317.2725426398731
 30
0.0
 10
2.857643424921487
 20
317.243614862755
 30
0.0
 10
-20.24975910280357
 20
317.1990237526519
 30
0.0
 10
-43.35712635274213
 20
317.1395454206877
 30
0.0
 10
-92.37016467760608
 20
317.0133568124584
 30
0.0
 10
-141.3830266135766
 20
316.8200698724235
 30
0.0
 10
-190.3955357717868
 20
316.5604254339216
 30
0.0
 10
-252.2110910264285
 20
316.2329771080733
 30
0.0
 10
-314.0260818366293
 20
315.7999423957244
 30
0.0
 10
-375.8403318135233
 20
315.2812532409212
 30
0.0
 10
-377.9687459315821
 20
315.2634026857678
 30
0.0
 10
-380.0971600496275
 20
315.2454110195204
 30
0.0
 10
-382.2255388898992
 20
315.2255496310734
 30
0.0
 10
-383.8849349631078
 20
315.2100626869868
 30
0.0
 10
-385.5442957585299
 20
315.1934115762479
 30
0.0
 10
-387.2034801650714
 20
315.1624376880683
 30
0.0
 10
-388.6275381880951
 20
315.1358735220114
 30
0.0
 10
-390.0514198222385
 20
315.0987260228699
 30
0.0
 10
-391.4747017341683
 20
315.0442218574481
 30
0.0
 10
-392.5953708752459
 20
315.0013593584055
 30
0.0
 10
-393.7156166829903
 20
314.9477018596513
 30
0.0
 10
-394.8345572129749
 20
314.8716782502679
 30
0.0
 10
-395.6601277496839
 20
314.8156218626725
 30
0.0
 10
-396.4849574530597
 20
314.7473593642196
 30
0.0
 10
-397.3063299343
 20
314.6465001998668
 30
0.0
  0
ENDBLK
  5
B3
330
B0
100
AcDbEntity
  8
0
100
AcDbBlockEnd
  0
BLOCK
  5
B7
330
B5
100
AcDbEntity
  8
0
100
AcDbBlockBegin
  2
block 23
 70
     0
 10
0.0
 20
0.0
 30
0.0
  3
block 23
  1

  0
SPLINE
  5
B9
330
B5
100
AcDbEntity
  8
0
 62
   250
370
    25
100
AcDbSpline
210
0.0
220
0.0
230
1.0
 70
     8
 71
     3
 72
    59
 73
    55
 74
     0
 42
0.0000000001
 43
0.0000000001
 12
1.0
 22
0.0
 32
0.0
 13
1.0
 23
0.0
 33
0.0
 40
0.0
 40
0.0
 40
0.0
 40
0.0
 40
1.0
 40
1.0
 40
1.0
 40
2.0
 40
2.0
 40
2.0
 40
3.0
 40
3.0
 40
3.0
 40
4.0
 40
4.0
 40
4.0
 40
5.0
 40
5.0
 40
5.0
 40
6.0
 40
6.0
 40
6.0
 40
7.0
 40
7.0
 40
7.0
 40
8.0
 40
8.0
 40
8.0
 40
9.0
 40
9.0
 40
9.0
 40
10.0
 40
10.0
 40
10.0
 40
11.0
 40
11.0
 40
11.0
 40
12.0
 40
12.0
 40
12.0
 40
13.0
 40
13.0
 40
13.0
 40
14.0
 40
14.0
 40
14.0
 40
15.0
 40
15.0
 40
15.0
 40
16.0
 40
16.0
 40
16.0
 40
17.0
 40
17.0
 40
17.0
 40
18.0
 40
18.0
 40
18.0
 40
18.0
 10
765.9796709932502
 20
148.6958156572629
 30
0.0
 10
765.9787537710502
 20
138.2112956189981
 30
0.0
 10
765.8490726628926
 20
127.7267050251407
 30
0.0
 10
765.5936615576193
 20
117.2452454746738
 30
0.0
 10
765.3480576743366
 20
107.1680781816633
 30
0.0
 10
764.9862135159414
 20
97.09383894405035
 30
0.0
 10
764.5192415821591
 20
87.0245385951104
 30
0.0
 10
763.5304054936391
 20
65.70296823188046
 30
0.0
 10
762.0701171936555
 20
44.40355231202027
 30
0.0
 10
760.1725961259002
 20
23.14368277917374
 30
0.0
 10
759.8197478006165
 20
19.19056102489608
 30
0.0
 10
759.4518005868053
 20
15.23881510389355
 30
0.0
 10
759.068789762216
 20
11.28844501613406
 30
0.0
 10
758.8705992111919
 20
9.244415392246308
 30
0.0
 10
758.6683517158191
 20
7.200738546118352
 30
0.0
 10
758.4616592205249
 20
5.157520311071838
 30
0.0
 10
758.3333892234617
 20
3.889319538729464
 30
0.0
 10
758.2033906153175
 20
2.621295155280463
 30
0.0
 10
758.0635495073967
 20
1.354293827340382
 30
0.0
 10
757.9533064543662
 20
0.355121375420485
 30
0.0
 10
757.8369250681345
 20
-0.6434160765502639
 30
0.0
 10
757.7125356265389
 20
-1.640965750787686
 30
0.0
 10
757.6143928509941
 20
-2.428012935149181
 30
0.0
 10
757.511240631127
 20
-3.21442511953586
 30
0.0
 10
757.397117022629
 20
-3.999285081787403
 30
0.0
 10
757.3048303580729
 20
-4.634143940127452
 30
0.0
 10
757.2053470270074
 20
-5.268015020757275
 30
0.0
 10
757.0910823073898
 20
-5.899275545944347
 30
0.0
 10
757.0045811982621
 20
-6.377254134054996
 30
0.0
 10
756.9095781448782
 20
-6.853751055576565
 30
0.0
 10
756.7997231473825
 20
-7.326967143931921
 30
0.0
 10
756.7171731492696
 20
-7.682355460154204
 30
0.0
 10
756.6262975957937
 20
-8.03590933205328
 30
0.0
 10
756.5164073205243
 20
-8.383712926436786
 30
0.0
 10
756.4047178786277
 20
-8.737302076083221
 30
0.0
 10
756.2734492705229
 20
-9.084964559347666
 30
0.0
 10
756.1198498295826
 20
-9.422431765357532
 30
0.0
 10
755.964380666469
 20
-9.763991193373563
 30
0.0
 10
755.7860867816527
 20
-10.09510839966864
 30
0.0
 10
755.5924823416302
 20
-10.41673588417738
 30
0.0
 10
755.4069212347578
 20
-10.72502836936002
 30
0.0
 10
755.2073195726533
 20
-11.02460724382582
 30
0.0
 10
754.9964290219044
 20
-11.31600167425234
 30
0.0
 10
754.4816557003423
 20
-12.02727219560272
 30
0.0
 10
753.8996429358484
 20
-12.68982410817963
 30
0.0
 10
753.2669712836414
 20
-13.29896546775075
 30
0.0
 10
752.9493654575573
 20
-13.6047885086097
 30
0.0
 10
752.6189537984411
 20
-13.89717071674516
 30
0.0
 10
752.27407825076
 20
-14.17184348133589
 30
0.0
 10
752.1031221435599
 20
-14.3080156969898
 30
0.0
 10
751.9286029808784
 20
-14.43984874619811
 30
0.0
 10
751.7497093738486
 20
-14.56543762906333
 30
0.0
 10
751.6133607658619
 20
-14.6611815133291
 30
0.0
 10
751.4745074357
 20
-14.75329178669453
 30
0.0
 10
751.3303977167642
 20
-14.83697067155558
 30
0.0
  0
ENDBLK
  5
B8
330
B5
100
AcDbEntity
  8
0
100
AcDbBlockEnd
  0
BLOCK
  5
BC
330
BA
100
AcDbEntity
  8
0
100
AcDbBlockBegin
  2
block 24
 70
     0
 10
0.0
 20
0.0
 30
0.0
  3
block 24
  1

  0
SPLINE
  5
BE
330
BA
100
AcDbEntity
  8
0
 62
   250
370
    25
100
AcDbSpline
210
0.0
220
0.0
230
1.0
 70
     8
 71
     3
 72
    41
 73
    37
 74
     0
 42
0.0000000001
 43
0.0000000001
 12
1.0
 22
0.0
 32
0.0
 13
1.0
 23
0.0
 33
0.0
 40
0.0
 40
0.0
 40
0.0
 40
0.0
 40
1.0
 40
1.0
 40
1.0
 40
2.0
 40
2.0
 40
2.0
 40
3.0
 40
3.0
 40
3.0
 40
4.0
 40
4.0
 40
4.0
 40
5.0
 40
5.0
 40
5.0
 40
6.0
 40
6.0
 40
6.0
 40
7.0
 40
7.0
 40
7.0
 40
8.0
 40
8.0
 40
8.0
 40
9.0
 40
9.0
 40
9.0
 40
10.0
 40
10.0
 40
10.0
 40
11.0
 40
11.0
 40
11.0
 40
12.0
 40
12.0
 40
12.0
 40
12.0
 10
-397.3752979882745
 20
314.6574010329438
 30
0.0
 10
-397.74059936883
 20
314.3452279845156
 30
0.0
 10
-398.0919307496875
 20
314.0171799364541
 30
0.0
 10
-398.4332079641142
 20
313.6790424441758
 30
0.0
 10
-398.8296243439491
 20
313.2863302309221
 30
0.0
 10
-399.2125293351924
 20
312.8799655179832
 30
0.0
 10
-399.5822404378698
 20
312.4619591386459
 30
0.0
 10
-400.2476145893306
 20
311.7096605447318
 30
0.0
 10
-400.8703026306665
 20
310.9196147294495
 30
0.0
 10
-401.4275503957116
 20
310.0837783596495
 30
0.0
 10
-401.8746256632858
 20
309.413183097175
 30
0.0
 10
-402.2796145429046
 20
308.7131661687272
 30
0.0
 10
-402.605263702145
 20
307.9765661855661
 30
0.0
 10
-402.7541711987496
 20
307.6398398043483
 30
0.0
 10
-402.8864628623884
 20
307.2954581455467
 30
0.0
 10
-403.0037261930471
 20
306.9462081535302
 30
0.0
 10
-403.1396867454876
 20
306.5412545516658
 30
0.0
 10
-403.2554331317328
 20
306.1297745610778
 30
0.0
 10
-403.3581267405057
 20
305.7152254038629
 30
0.0
 10
-403.47983507106
 20
305.2239470817509
 30
0.0
 10
-403.5832695131402
 20
304.7283648708636
 30
0.0
 10
-403.6779903443106
 20
304.2311598822162
 30
0.0
 10
-403.8080242302285
 20
303.5487112867023
 30
0.0
 10
-403.9216539498463
 20
302.8631582468008
 30
0.0
 10
-404.0280870029746
 20
302.1765821513659
 30
0.0
 10
-404.3029008855821
 20
300.4034505251998
 30
0.0
 10
-404.5294194915238
 20
298.6233338991973
 30
0.0
 10
-404.7379817089918
 20
296.8412769954805
 30
0.0
 10
-405.0476853130199
 20
294.1951967781332
 30
0.0
 10
-405.3178072512984
 20
291.5448126719978
 30
0.0
 10
-405.5811205786148
 20
288.8937230103409
 30
0.0
 10
-405.9667772364721
 20
285.0108744879165
 30
0.0
 10
-406.3377936168838
 20
281.1266148544316
 30
0.0
 10
-406.692617497663
 20
277.2408382765193
 30
0.0
 10
-410.594339630755
 20
234.5113717525716
 30
0.0
 10
-412.538004030814
 20
191.6030468993805
 30
0.0
 10
-412.5188481979133
 20
148.6958156572629
 30
0.0
  0
ENDBLK
  5
BD
330
BA
100
AcDbEntity
  8
0
100
AcDbBlockEnd
  0
BLOCK
  5
C1
330
BF
100
AcDbEntity
  8
0
100
AcDbBlockBegin
  2
block 25
 70
     0
 10
0.0
 20
0.0
 30
0.0
  3
block 25
  1

  0
SPLINE
  5
C3
330
BF
100
AcDbEntity
  8
0
 62
   250
370
    25
100
AcDbSpline
210
0.0
220
0.0
230
1.0
 70
     8
 71
     3
 72
   104
 73
   100
 74
     0
 42
0.0000000001
 43
0.0000000001
 12
1.0
 22
0.0
 32
0.0
 13
1.0
 23
0.0
 33
0.0
 40
0.0
 40
0.0
 40
0.0
 40
0.0
 40
1.0
 40
1.0
 40
1.0
 40
2.0
 40
2.0
 40
2.0
 40
3.0
 40
3.0
 40
3.0
 40
4.0
 40
4.0
 40
4.0
 40
5.0
 40
5.0
 40
5.0
 40
6.0
 40
6.0
 40
6.0
 40
7.0
 40
7.0
 40
7.0
 40
8.0
 40
8.0
 40
8.0
 40
9.0
 40
9.0
 40
9.0
 40
10.0
 40
10.0
 40
10.0
 40
11.0
 40
11.0
 40
11.0
 40
12.0
 40
12.0
 40
12.0
 40
13.0
 40
13.0
 40
13.0
 40
14.0
 40
14.0
 40
14.0
 40
15.0
 40
15.0
 40
15.0
 40
16.0
 40
16.0
 40
16.0
 40
17.0
 40
17.0
 40
17.0
 40
18.0
 40
18.0
 40
18.0
 40
19.0
 40
19.0
 40
19.0
 40
20.0
 40
20.0
 40
20.0
 40
21.0
 40
21.0
 40
21.0
 40
22.0
 40
22.0
 40
22.0
 40
23.0
 40
23.0
 40
23.0
 40
24.0
 40
24.0
 40
24.0
 40
25.0
 40
25.0
 40
25.0
 40
26.0
 40
26.0
 40
26.0
 40
27.0
 40
27.0
 40
27.0
 40
28.0
 40
28.0
 40
28.0
 40
29.0
 40
29.0
 40
29.0
 40
30.0
 40
30.0
 40
30.0
 40
31.0
 40
31.0
 40
31.0
 40
32.0
 40
32.0
 40
32.0
 40
33.0
 40
33.0
 40
33.0
 40
33.0
 10
105.3041666403374
 20
459.0469432902611
 30
0.0
 10
183.7527704039202
 20
459.0436977348053
 30
0.0
 10
262.2014094452888
 20
458.9780810696144
 30
0.0
 10
340.649907375539
 20
458.8497052392238
 30
0.0
 10
372.3602544289727
 20
458.7978116292903
 30
0.0
 10
404.0706014824077
 20
458.7356521862729
 30
0.0
 10
435.7809132580554
 20
458.6631210768168
 30
0.0
 10
475.0356245836114
 20
458.5733391344158
 30
0.0
 10
514.290300631368
 20
458.4676821923817
 30
0.0
 10
553.5449414013644
 20
458.346926361814
 30
0.0
 10
556.6303710531038
 20
458.3374366398098
 30
0.0
 10
559.715835982629
 20
458.3278763622592
 30
0.0
 10
562.8013009121427
 20
458.3198683068766
 30
0.0
 10
564.2606014343661
 20
458.3160583069551
 30
0.0
 10
565.7199019565894
 20
458.3126363626006
 30
0.0
 10
567.1792024788
 20
458.3094260848925
 30
0.0
 10
570.9266196154249
 20
458.3012063628627
 30
0.0
 10
574.6740014742762
 20
458.2946094185666
 30
0.0
 10
578.421383333114
 20
458.2910110853244
 30
0.0
 10
582.9179593415115
 20
458.2866719187502
 30
0.0
 10
587.414535349909
 20
458.2867071965235
 30
0.0
 10
591.9111113583066
 20
458.2911874741925
 30
0.0
 10
596.4076873667041
 20
458.2956677518739
 30
0.0
 10
600.9042986528759
 20
458.304628307224
 30
0.0
 10
605.4008746612734
 20
458.3176105291493
 30
0.0
 10
610.2391864952042
 20
458.331580528834
 30
0.0
 10
615.0774983291349
 20
458.3502424728553
 30
0.0
 10
619.9158101630528
 20
458.3721499723438
 30
0.0
 10
631.0303560202772
 20
458.4225266378572
 30
0.0
 10
642.1448313219548
 20
458.4902246918826
 30
0.0
 10
653.2593771791786
 20
458.529100802111
 30
0.0
 10
658.8249051076074
 20
458.5485741349918
 30
0.0
 10
664.3904330360234
 20
458.5608155236037
 30
0.0
 10
669.9560315200112
 20
458.5559119125891
 30
0.0
 10
681.1403215423032
 20
458.5461046905985
 30
0.0
 10
692.3248585090475
 20
458.4670471924007
 30
0.0
 10
703.5060440869781
 20
458.2065913650185
 30
0.0
 10
709.7812550547379
 20
458.0604355350218
 30
0.0
 10
716.0554076892034
 20
457.8571649841218
 30
0.0
 10
722.3253622682007
 20
457.563759713035
 30
0.0
 10
727.105465770122
 20
457.3400986070463
 30
0.0
 10
731.8831351054298
 20
457.0640852800123
 30
0.0
 10
736.656324163069
 20
456.718856954564
 30
0.0
 10
745.5703481261129
 20
456.0741555804053
 30
0.0
 10
754.468708756191
 20
455.1881894895321
 30
0.0
 10
763.3104132764339
 20
453.8866511859238
 30
0.0
 10
771.1783805967223
 20
452.728481767919
 30
0.0
 10
779.0015098624604
 20
451.2413118019028
 30
0.0
 10
786.7111505196863
 20
449.2893571242865
 30
0.0
 10
793.4793684206392
 20
447.5757391078508
 30
0.0
 10
800.160097434703
 20
445.5039458218541
 30
0.0
 10
806.667788952714
 20
442.9761167129261
 30
0.0
 10
811.0994185737121
 20
441.2547375855732
 30
0.0
 10
815.4508265298668
 20
439.3218329075107
 30
0.0
 10
819.6843008776016
 20
437.1579646236178
 30
0.0
 10
823.9573216133253
 20
434.9738821734919
 30
0.0
 10
828.1102567962414
 20
432.5544263954259
 30
0.0
 10
832.1032425383754
 20
429.8931061784392
 30
0.0
 10
835.9239668955352
 20
427.3465445699506
 30
0.0
 10
839.5982532004917
 20
424.5785443553891
 30
0.0
 10
843.0950217317385
 20
421.6025110900389
 30
0.0
 10
846.9401230327876
 20
418.3300033870259
 30
0.0
 10
850.570559060967
 20
414.805965134182
 30
0.0
 10
853.9640695390127
 20
411.0673674418006
 30
0.0
 10
857.1321902999717
 20
407.5771252993034
 30
0.0
 10
860.0937949545557
 20
403.8998403833059
 30
0.0
 10
862.8481779471924
 20
400.0745651929105
 30
0.0
 10
865.8761753780157
 20
395.8692425112
 30
0.0
 10
868.653771147902
 20
391.4849909446919
 30
0.0
 10
871.1974047009089
 20
386.970176325569
 30
0.0
 10
873.9215193609074
 20
382.1349689360254
 30
0.0
 10
876.3773112492537
 20
377.1499721054509
 30
0.0
 10
878.5978356429746
 20
372.0636574994088
 30
0.0
 10
880.8696539244233
 20
366.8597620627345
 30
0.0
 10
882.8951980448146
 20
361.5497863506922
 30
0.0
 10
884.7130971699643
 20
356.170560362463
 30
0.0
 10
886.6185557375493
 20
350.5323602134728
 30
0.0
 10
888.2959081992316
 20
344.8180306217725
 30
0.0
 10
889.7884756651355
 20
339.0567463089407
 30
0.0
 10
891.4323142386979
 20
332.7116147872071
 30
0.0
 10
892.8519625396003
 20
326.3094743778851
 30
0.0
 10
894.1012897332877
 20
319.8750195248576
 30
0.0
 10
895.4432916470794
 20
312.9632916271893
 30
0.0
 10
896.5887610653537
 20
306.0143103970456
 30
0.0
 10
897.6017271533234
 20
299.0467025006361
 30
0.0
 10
898.7990196259774
 20
290.8116346331971
 30
0.0
 10
899.8112096028533
 20
282.5505670441157
 30
0.0
 10
900.6951648604384
 20
274.2760233442472
 30
0.0
 10
901.2083154042795
 20
269.4725659539762
 30
0.0
 10
901.678250671317
 20
264.6645577304702
 30
0.0
 10
902.1171414946211
 20
259.8537272848036
 30
0.0
 10
902.6107481500142
 20
254.4428571306221
 30
0.0
 10
903.0650906396447
 20
249.0284591987457
 30
0.0
 10
903.4839789634092
 20
243.6112743224818
 30
0.0
 10
904.2718375565162
 20
233.4220998330189
 30
0.0
 10
904.9342483747223
 20
223.2231886770993
 30
0.0
 10
905.4694122513852
 20
213.0176100213305
 30
0.0
 10
906.5926919479443
 20
191.5966263439775
 30
0.0
 10
907.1553019350977
 20
170.146256278407
 30
0.0
 10
907.1552666573233
 20
148.6958156572629
 30
0.0
  0
ENDBLK
  5
C2
330
BF
100
AcDbEntity
  8
0
100
AcDbBlockEnd
  0
BLOCK
  5
C6
330
C4
100
AcDbEntity
  8
0
100
AcDbBlockBegin
  2
block 26
 70
     0
 10
0.0
 20
0.0
 30
0.0
  3
block 26
  1

  0
SPLINE
  5
C8
330
C4
100
AcDbEntity
  8
0
 62
   250
370
    25
100
AcDbSpline
210
0.0
220
0.0
230
1.0
 70
     8
 71
     3
 72
   101
 73
    97
 74
     0
 42
0.0000000001
 43
0.0000000001
 12
1.0
 22
0.0
 32
0.0
 13
1.0
 23
0.0
 33
0.0
 40
0.0
 40
0.0
 40
0.0
 40
0.0
 40
1.0
 40
1.0
 40
1.0
 40
2.0
 40
2.0
 40
2.0
 40
3.0
 40
3.0
 40
3.0
 40
4.0
 40
4.0
 40
4.0
 40
5.0
 40
5.0
 40
5.0
 40
6.0
 40
6.0
 40
6.0
 40
7.0
 40
7.0
 40
7.0
 40
8.0
 40
8.0
 40
8.0
 40
9.0
 40
9.0
 40
9.0
 40
10.0
 40
10.0
 40
10.0
 40
11.0
 40
11.0
 40
11.0
 40
12.0
 40
12.0
 40
12.0
 40
13.0
 40
13.0
 40
13.0
 40
14.0
 40
14.0
 40
14.0
 40
15.0
 40
15.0
 40
15.0
 40
16.0
 40
16.0
 40
16.0
 40
17.0
 40
17.0
 40
17.0
 40
18.0
 40
18.0
 40
18.0
 40
19.0
 40
19.0
 40
19.0
 40
20.0
 40
20.0
 40
20.0
 40
21.0
 40
21.0
 40
21.0
 40
22.0
 40
22.0
 40
22.0
 40
23.0
 40
23.0
 40
23.0
 40
24.0
 40
24.0
 40
24.0
 40
25.0
 40
25.0
 40
25.0
 40
26.0
 40
26.0
 40
26.0
 40
27.0
 40
27.0
 40
27.0
 40
28.0
 40
28.0
 40
28.0
 40
29.0
 40
29.0
 40
29.0
 40
30.0
 40
30.0
 40
30.0
 40
31.0
 40
31.0
 40
31.0
 40
32.0
 40
32.0
 40
32.0
 40
32.0
 10
105.3041666403374
 20
-161.6552783311305
 30
0.0
 10
182.961137088677
 20
-161.6518916646324
 30
0.0
 10
260.6181075370167
 20
-161.5877213899317
 30
0.0
 10
338.2749721520103
 20
-161.4618502848784
 30
0.0
 10
374.1166643888461
 20
-161.4037477876775
 30
0.0
 10
409.9583213479217
 20
-161.3325219577668
 30
0.0
 10
445.7999783069716
 20
-161.248208072931
 30
0.0
 10
479.5286022587539
 20
-161.1688330767425
 30
0.0
 10
513.2572262105241
 20
-161.0779222477781
 30
0.0
 10
546.9857796067474
 20
-160.974946419409
 30
0.0
 10
552.1516103220732
 20
-160.9591772535078
 30
0.0
 10
557.3174410374118
 20
-160.9430905875929
 30
0.0
 10
562.4833070305117
 20
-160.9292969771597
 30
0.0
 10
563.54502700626
 20
-160.9264747550762
 30
0.0
 10
564.6067469820083
 20
-160.9237230885388
 30
0.0
 10
565.6685022355297
 20
-160.921147810869
 30
0.0
 10
570.3759687946762
 20
-160.9097530892263
 30
0.0
 10
575.0834353538098
 20
-160.9016392006959
 30
0.0
 10
579.7909019129428
 20
-160.8982172564375
 30
0.0
 10
588.169585610444
 20
-160.8921142011621
 30
0.0
 10
596.5482340301727
 20
-160.9007925340816
 30
0.0
 10
604.9268824498873
 20
-160.9242875329406
 30
0.0
 10
609.123350409581
 20
-160.9360350323829
 30
0.0
 10
613.3197830915017
 20
-160.9514866982973
 30
0.0
 10
617.5162510512081
 20
-160.9697605863221
 30
0.0
 10
629.1989455065615
 20
-161.0205605838723
 30
0.0
 10
640.8815694063674
 20
-161.092880024838
 30
0.0
 10
652.5642991394938
 20
-161.1351075228033
 30
0.0
 10
658.8225767743264
 20
-161.157755855048
 30
0.0
 10
665.0808896869194
 20
-161.1717258543733
 30
0.0
 10
671.3392378772987
 20
-161.1627300214941
 30
0.0
 10
682.1153992978049
 20
-161.1472783555527
 30
0.0
 10
692.8917371072031
 20
-161.0637405817979
 30
0.0
 10
703.6648999166804
 20
-160.8111164272912
 30
0.0
 10
709.2104959011149
 20
-160.6810825446587
 30
0.0
 10
714.7552452189082
 20
-160.5062458863925
 30
0.0
 10
720.2969606478746
 20
-160.2639581202723
 30
0.0
 10
725.8160630218052
 20
-160.022658131888
 30
0.0
 10
731.3321667846815
 20
-159.7144714800513
 30
0.0
 10
736.8422733254883
 20
-159.3137864993139
 30
0.0
 10
745.7678331216034
 20
-158.6646754194348
 30
0.0
 10
754.6776590291925
 20
-157.772853240104
 30
0.0
 10
763.5300174380928
 20
-156.4627071920114
 30
0.0
 10
771.0851061544059
 20
-155.3445780791278
 30
0.0
 10
778.5983554272226
 20
-153.9217195364673
 30
0.0
 10
786.0091227579456
 20
-152.0742224031288
 30
0.0
 10
792.7256939934108
 20
-150.3997627614551
 30
0.0
 10
799.3581277308032
 20
-148.3765117476619
 30
0.0
 10
805.8250734164108
 20
-145.9087607552592
 30
0.0
 10
810.5019541429053
 20
-144.1241286188873
 30
0.0
 10
815.0922984824994
 20
-142.1070159381425
 30
0.0
 10
819.5523619917232
 20
-139.8337513252738
 30
0.0
 10
823.6900924527671
 20
-137.7247753156287
 30
0.0
 10
827.7157101385939
 20
-135.3953484832425
 30
0.0
 10
831.593090605576
 20
-132.8394383284115
 30
0.0
 10
835.4753746835601
 20
-130.280353173736
 30
0.0
 10
839.2090334871662
 20
-127.494184974428
 30
0.0
 10
842.7614350726878
 20
-124.4937748409861
 30
0.0
 10
846.6234344289172
 20
-121.2318858312247
 30
0.0
 10
850.2712624011428
 20
-117.7168082225561
 30
0.0
 10
853.681812045463
 20
-113.9855484020434
 30
0.0
 10
857.0790619678578
 20
-110.2688230252706
 30
0.0
 10
860.2409032845197
 20
-106.3376440477104
 30
0.0
 10
863.1664187732499
 20
-102.2391073004396
 30
0.0
 10
866.037042041012
 20
-98.21740554943622
 30
0.0
 10
868.6800883695248
 20
-94.03459019510261
 30
0.0
 10
871.1104097029012
 20
-89.7325359575929
 30
0.0
 10
873.5602043691654
 20
-85.39601533287573
 30
0.0
 10
875.7938873736924
 20
-80.93835082509781
 30
0.0
 10
877.83481260485
 20
-76.39510243253696
 30
0.0
 10
880.1619464405867
 20
-71.21466684841859
 30
0.0
 10
882.238466948705
 20
-65.92292988074963
 30
0.0
 10
884.1031091283396
 20
-60.5585912499013
 30
0.0
 10
886.0792643609789
 20
-54.87340124560985
 30
0.0
 10
887.8174004323782
 20
-49.10668430078272
 30
0.0
 10
889.3624259526366
 20
-43.28955541395105
 30
0.0
 10
890.9729623047456
 20
-37.22579959455354
 30
0.0
 10
892.3737017171863
 20
-31.10725738889435
 30
0.0
 10
893.6120928000172
 20
-24.95678879584483
 30
0.0
 10
895.015054712418
 20
-17.98903996436699
 30
0.0
 10
896.209666074019
 20
-10.98026307929794
 30
0.0
 10
897.2630252166177
 20
-3.951025084095389
 30
0.0
 10
898.4476176895598
 20
3.953842591178392
 30
0.0
 10
899.4535987776873
 20
11.88463943191317
 30
0.0
 10
900.3368484797386
 20
19.82873599419975
 30
0.0
 10
901.3994151221268
 20
29.38587359000325
 30
0.0
 10
902.2843934352466
 20
38.96220229599831
 30
0.0
 10
903.065937306286
 20
48.54650377939193
 30
0.0
 10
903.4530403529963
 20
53.2940457732471
 30
0.0
 10
903.8147786780711
 20
58.04356332254454
 30
0.0
 10
904.1483300593346
 20
62.79509170508551
 30
0.0
 10
904.5930769936288
 20
69.13052167810203
 30
0.0
 10
904.9876942068358
 20
75.46951470651005
 30
0.0
 10
905.3332400322648
 20
81.8111888458889
 30
0.0
 10
906.5468661156594
 20
104.0840597189001
 30
0.0
 10
907.1553372128707
 20
126.3899153125437
 30
0.0
 10
907.1552666573233
 20
148.6958156572629
 30
0.0
  0
ENDBLK
  5
C7
330
C4
100
AcDbEntity
  8
0
100
AcDbBlockEnd
  0
BLOCK
  5
CB
330
C9
100
AcDbEntity
  8
0
100
AcDbBlockBegin
  2
block 27
 70
     0
 10
0.0
 20
0.0
 30
0.0
  3
block 27
  1

  0
SPLINE
  5
CD
330
C9
100
AcDbEntity
  8
0
 62
   250
370
    25
100
AcDbSpline
210
0.0
220
0.0
230
1.0
 70
     8
 71
     3
 72
   101
 73
    97
 74
     0
 42
0.0000000001
 43
0.0000000001
 12
1.0
 22
0.0
 32
0.0
 13
1.0
 23
0.0
 33
0.0
 40
0.0
 40
0.0
 40
0.0
 40
0.0
 40
1.0
 40
1.0
 40
1.0
 40
2.0
 40
2.0
 40
2.0
 40
3.0
 40
3.0
 40
3.0
 40
4.0
 40
4.0
 40
4.0
 40
5.0
 40
5.0
 40
5.0
 40
6.0
 40
6.0
 40
6.0
 40
7.0
 40
7.0
 40
7.0
 40
8.0
 40
8.0
 40
8.0
 40
9.0
 40
9.0
 40
9.0
 40
10.0
 40
10.0
 40
10.0
 40
11.0
 40
11.0
 40
11.0
 40
12.0
 40
12.0
 40
12.0
 40
13.0
 40
13.0
 40
13.0
 40
14.0
 40
14.0
 40
14.0
 40
15.0
 40
15.0
 40
15.0
 40
16.0
 40
16.0
 40
16.0
 40
17.0
 40
17.0
 40
17.0
 40
18.0
 40
18.0
 40
18.0
 40
19.0
 40
19.0
 40
19.0
 40
20.0
 40
20.0
 40
20.0
 40
21.0
 40
21.0
 40
21.0
 40
22.0
 40
22.0
 40
22.0
 40
23.0
 40
23.0
 40
23.0
 40
24.0
 40
24.0
 40
24.0
 40
25.0
 40
25.0
 40
25.0
 40
26.0
 40
26.0
 40
26.0
 40
27.0
 40
27.0
 40
27.0
 40
28.0
 40
28.0
 40
28.0
 40
29.0
 40
29.0
 40
29.0
 40
30.0
 40
30.0
 40
30.0
 40
31.0
 40
31.0
 40
31.0
 40
32.0
 40
32.0
 40
32.0
 40
32.0
 10
105.3041666403374
 20
-161.6552783311305
 30
0.0
 10
30.24953196590115
 20
-161.6583827754278
 30
0.0
 10
-44.80513798633446
 20
-161.6041255558064
 30
0.0
 10
-119.8596668274375
 20
-161.4925066722935
 30
0.0
 10
-154.5933546451536
 20
-161.4408600080905
 30
0.0
 10
-189.3270424628626
 20
-161.3769366778421
 30
0.0
 10
-224.0606950027857
 20
-161.3007014037238
 30
0.0
 10
-244.9009006378513
 20
-161.2549461281542
 30
0.0
 10
-265.7410709951432
 20
-161.204781130566
 30
0.0
 10
-286.5812413524355
 20
-161.1502769665296
 30
0.0
 10
-302.9932745886508
 20
-161.1073439130447
 30
0.0
 10
-319.4052725470918
 20
-161.0617297485685
 30
0.0
 10
-335.8172705055335
 20
-161.0129405842477
 30
0.0
 10
-341.4957225980465
 20
-160.9960778072659
 30
0.0
 10
-347.1742099683325
 20
-160.9788269747744
 30
0.0
 10
-352.8526973386185
 20
-160.9652450309832
 30
0.0
 10
-358.1186816627835
 20
-160.9526155871523
 30
0.0
 10
-363.384665986935
 20
-160.9431964209389
 30
0.0
 10
-368.6506855888733
 20
-160.9399155877483
 30
0.0
 10
-377.0757948408598
 20
-160.9346944769001
 30
0.0
 10
-385.5009393706329
 20
-160.9452778097285
 30
0.0
 10
-393.9260133448457
 20
-160.9703603085226
 30
0.0
 10
-398.1389207486125
 20
-160.9829191968062
 30
0.0
 10
-402.3517928746057
 20
-160.9991116960158
 30
0.0
 10
-406.564665000586
 20
-161.0179853062155
 30
0.0
 10
-418.1667144578004
 20
-161.0699847481538
 30
0.0
 10
-429.7686933594417
 20
-161.142445300227
 30
0.0
 10
-441.3707428166436
 20
-161.1845316870976
 30
0.0
 10
-447.1712207396976
 20
-161.2055572416329
 30
0.0
 10
-452.9717339405378
 20
-161.218998074332
 30
0.0
 10
-458.772317696925
 20
-161.2133889079368
 30
0.0
 10
-469.4311099534514
 20
-161.2031230750835
 30
0.0
 10
-480.0901138766308
 20
-161.1286516897938
 30
0.0
 10
-490.7461897443421
 20
-160.8920083678418
 30
0.0
 10
-496.6901423863456
 20
-160.7599989297414
 30
0.0
 10
-502.6331778061355
 20
-160.5775422718634
 30
0.0
 10
-508.5730382260167
 20
-160.3222017285794
 30
0.0
 10
-513.9187503261138
 20
-160.0924022951967
 30
0.0
 10
-519.2619224262885
 20
-159.8036184201873
 30
0.0
 10
-524.5999792488016
 20
-159.43168482697
 30
0.0
 10
-533.5421548778702
 20
-158.8086440236196
 30
0.0
 10
-542.4700430072794
 20
-157.9523818425768
 30
0.0
 10
-551.3418747490671
 20
-156.6734919040997
 30
0.0
 10
-559.2735890123272
 20
-155.53013918133
 30
0.0
 10
-567.1605004988368
 20
-154.0489664748008
 30
0.0
 10
-574.93050143246
 20
-152.0876279580408
 30
0.0
 10
-581.6428746124703
 20
-150.3932716506469
 30
0.0
 10
-588.2680411277937
 20
-148.3405636938397
 30
0.0
 10
-594.7203112581824
 20
-145.8322432589529
 30
0.0
 10
-599.5030253156049
 20
-143.9729986261721
 30
0.0
 10
-604.1907363196304
 20
-141.8633876165279
 30
0.0
 10
-608.7344434380727
 20
-139.4785041201578
 30
0.0
 10
-612.8672350103284
 20
-137.3093089467248
 30
0.0
 10
-616.8808935297637
 20
-134.9123604509128
 30
0.0
 10
-620.7378481638842
 20
-132.2840602995688
 30
0.0
 10
-624.5464016879997
 20
-129.6887095910958
 30
0.0
 10
-628.2021671600421
 20
-126.8677927823281
 30
0.0
 10
-631.6740295807327
 20
-123.8365851503765
 30
0.0
 10
-635.2407186659265
 20
-120.7226158557255
 30
0.0
 10
-638.6133447000047
 20
-117.38667879397
 30
0.0
 10
-641.7734221278132
 20
-113.8608767413654
 30
0.0
 10
-645.0627573304592
 20
-110.1907885845906
 30
0.0
 10
-648.1217992050279
 20
-106.3149604376926
 30
0.0
 10
-650.94994802932
 20
-102.2786536874148
 30
0.0
 10
-653.6805890780411
 20
-98.38148248599468
 30
0.0
 10
-656.1960004094776
 20
-94.33469823622158
 30
0.0
 10
-658.5111045232619
 20
-90.17728288066886
 30
0.0
 10
-661.0031266885566
 20
-85.70226170704181
 30
0.0
 10
-663.263021081386
 20
-81.09904109513248
 30
0.0
 10
-665.3199271455102
 20
-76.40804937635463
 30
0.0
 10
-667.6587379254115
 20
-71.07408491072042
 30
0.0
 10
-669.7350820446557
 20
-65.62663183944876
 30
0.0
 10
-671.5969372799099
 20
-60.10805877157525
 30
0.0
 10
-673.4795005702325
 20
-54.52806709555004
 30
0.0
 10
-675.1428124766828
 20
-48.87533264526358
 30
0.0
 10
-676.6350977203729
 20
-43.17860680818465
 30
0.0
 10
-678.3059943488789
 20
-36.80010267056934
 30
0.0
 10
-679.7625079267149
 20
-30.36642409117109
 30
0.0
 10
-681.0555795638471
 20
-23.90074856886212
 30
0.0
 10
-682.4480286986982
 20
-16.93829140379017
 30
0.0
 10
-683.6510008934481
 20
-9.938686740520682
 30
0.0
 10
-684.7102514248093
 20
-2.917880133795558
 30
0.0
 10
-685.9381650078752
 20
5.220879196918451
 30
0.0
 10
-686.9729327620132
 20
13.3882135262579
 30
0.0
 10
-687.8766435747
 20
21.56941202157791
 30
0.0
 10
-688.4033407848922
 20
26.3374151255345
 30
0.0
 10
-688.8855174405473
 20
31.11011017373113
 30
0.0
 10
-689.3350974302699
 20
35.88594494401084
 30
0.0
 10
-689.8493063074179
 20
41.34803829233639
 30
0.0
 10
-690.3208643522021
 20
46.81422386273228
 30
0.0
 10
-690.7558746200388
 20
52.28333748853202
 30
0.0
 10
-691.6707332102496
 20
63.7850919352328
 30
0.0
 10
-692.4238784708242
 20
75.2996522146707
 30
0.0
 10
-693.0124529018276
 20
86.82264388258089
 30
0.0
 10
-694.0649653777857
 20
107.4290984468822
 30
0.0
 10
-694.5912039768716
 20
128.0624789063713
 30
0.0
 10
-694.5917684213113
 20
148.6958156572629
 30
0.0
  0
ENDBLK
  5
CC
330
C9
100
AcDbEntity
  8
0
100
AcDbBlockEnd
  0
BLOCK
  5
D0
330
CE
100
AcDbEntity
  8
0
100
AcDbBlockBegin
  2
block 28
 70
     0
 10
0.0
 20
0.0
 30
0.0
  3
block 28
  1

  0
POLYLINE
  5
D2
330
CE
100
AcDbEntity
  8
0
 62
   250
370
    25
100
AcDb2dPolyline
 66
     1
 10
0.0
 20
0.0
 30
0.0
  0
VERTEX
  5
D3
330
D2
100
AcDbEntity
  8
0
 62
   250
370
    25
100
AcDbVertex
100
AcDb2dVertex
 10
105.3041666403374
 20
459.0469432902611
 30
0.0
  0
VERTEX
  5
14F
330
D2
100
AcDbEntity
  8
0
100
AcDbVertex
100
AcDb2dVertex
 10
105.3041666403374
 20
459.0469432902611
 30
0.0
  0
SEQEND
  5
D4
330
D2
100
AcDbEntity
  8
0
 62
   250
370
    25
  0
ENDBLK
  5
D1
330
CE
100
AcDbEntity
  8
0
100
AcDbBlockEnd
  0
BLOCK
  5
D7
330
D5
100
AcDbEntity
  8
0
100
AcDbBlockBegin
  2
block 29
 70
     0
 10
0.0
 20
0.0
 30
0.0
  3
block 29
  1

  0
SPLINE
  5
D9
330
D5
100
AcDbEntity
  8
0
 62
   250
370
    25
100
AcDbSpline
210
0.0
220
0.0
230
1.0
 70
     8
 71
     3
 72
   107
 73
   103
 74
     0
 42
0.0000000001
 43
0.0000000001
 12
1.0
 22
0.0
 32
0.0
 13
1.0
 23
0.0
 33
0.0
 40
0.0
 40
0.0
 40
0.0
 40
0.0
 40
1.0
 40
1.0
 40
1.0
 40
2.0
 40
2.0
 40
2.0
 40
3.0
 40
3.0
 40
3.0
 40
4.0
 40
4.0
 40
4.0
 40
5.0
 40
5.0
 40
5.0
 40
6.0
 40
6.0
 40
6.0
 40
7.0
 40
7.0
 40
7.0
 40
8.0
 40
8.0
 40
8.0
 40
9.0
 40
9.0
 40
9.0
 40
10.0
 40
10.0
 40
10.0
 40
11.0
 40
11.0
 40
11.0
 40
12.0
 40
12.0
 40
12.0
 40
13.0
 40
13.0
 40
13.0
 40
14.0
 40
14.0
 40
14.0
 40
15.0
 40
15.0
 40
15.0
 40
16.0
 40
16.0
 40
16.0
 40
17.0
 40
17.0
 40
17.0
 40
18.0
 40
18.0
 40
18.0
 40
19.0
 40
19.0
 40
19.0
 40
20.0
 40
20.0
 40
20.0
 40
21.0
 40
21.0
 40
21.0
 40
22.0
 40
22.0
 40
22.0
 40
23.0
 40
23.0
 40
23.0
 40
24.0
 40
24.0
 40
24.0
 40
25.0
 40
25.0
 40
25.0
 40
26.0
 40
26.0
 40
26.0
 40
27.0
 40
27.0
 40
27.0
 40
28.0
 40
28.0
 40
28.0
 40
29.0
 40
29.0
 40
29.0
 40
30.0
 40
30.0
 40
30.0
 40
31.0
 40
31.0
 40
31.0
 40
32.0
 40
32.0
 40
32.0
 40
33.0
 40
33.0
 40
33.0
 40
34.0
 40
34.0
 40
34.0
 40
34.0
 10
105.3041666403374
 20
459.0469432902611
 30
0.0
 10
31.3255041635286
 20
459.049977179089
 30
0.0
 10
-42.65315831326676
 20
458.9973074580744
 30
0.0
 10
-116.6317149567424
 20
458.8889341272248
 30
0.0
 10
-153.6209932784799
 20
458.8347121840049
 30
0.0
 10
-190.6102716002177
 20
458.7665907966842
 30
0.0
 10
-227.5994793663953
 20
458.6845346874397
 30
0.0
 10
-249.7930463594431
 20
458.63528691078
 30
0.0
 10
-271.9865780747045
 20
458.5810649675723
 30
0.0
 10
-294.1801097899658
 20
458.5217630244957
 30
0.0
 10
-309.8388919322859
 20
458.4799588587849
 30
0.0
 10
-325.4976387968198
 20
458.4356146931221
 30
0.0
 10
-341.1563856613538
 20
458.3888716386426
 30
0.0
 10
-341.6495337056401
 20
458.3874252497897
 30
0.0
 10
-342.1427170277058
 20
458.3859435831297
 30
0.0
 10
-342.6358650719988
 20
458.3844619165149
 30
0.0
 10
-343.4988653300758
 20
458.3819219165743
 30
0.0
 10
-344.3619008659002
 20
458.3794171943999
 30
0.0
 10
-345.2249011239704
 20
458.3769477500255
 30
0.0
 10
-347.3206480205493
 20
458.3709505279429
 30
0.0
 10
-349.4163949171089
 20
458.365200250287
 30
0.0
 10
-351.5121418136814
 20
458.3599438615124
 30
0.0
 10
-356.6892966954253
 20
458.346926361814
 30
0.0
 10
-361.8664515771686
 20
458.3370838620365
 30
0.0
 10
-367.0436064589118
 20
458.3328858065814
 30
0.0
 10
-375.563224875415
 20
458.3259360845127
 30
0.0
 10
-384.0828080141317
 20
458.3342263621027
 30
0.0
 10
-392.6023558750693
 20
458.3580741393324
 30
0.0
 10
-398.0577113060211
 20
458.3733494167702
 30
0.0
 10
-403.5130667369661
 20
458.3950452496062
 30
0.0
 10
-408.9683516123523
 20
458.4206216379096
 30
0.0
 10
-419.8654452523182
 20
458.4717038589814
 30
0.0
 10
-430.7624683367374
 20
458.538378857442
 30
0.0
 10
-441.6595619767032
 20
458.5773255232299
 30
0.0
 10
-447.5929665633959
 20
458.5984921893983
 30
0.0
 10
-453.5263711500879
 20
458.611474411324
 30
0.0
 10
-459.4598815701137
 20
458.6041366337142
 30
0.0
 10
-470.1864071584136
 20
458.590872189576
 30
0.0
 10
-480.9131796911657
 20
458.5113208025052
 30
0.0
 10
-491.636741946211
 20
458.2638119192747
 30
0.0
 10
-497.6488865311073
 20
458.1250644224339
 30
0.0
 10
-503.660008060457
 20
457.9335060934727
 30
0.0
 10
-509.6677076454451
 20
457.6659241551476
 30
0.0
 10
-514.8494839159767
 20
457.4351369382034
 30
0.0
 10
-520.0286849087879
 20
457.1478347225514
 30
0.0
 10
-525.2029117350304
 20
456.781086953148
 30
0.0
 10
-534.0982384762874
 20
456.1505672453218
 30
0.0
 10
-542.9788191067587
 20
455.2853092095239
 30
0.0
 10
-551.8028494607541
 20
453.9983759055874
 30
0.0
 10
-559.6183587266754
 20
452.8585156538421
 30
0.0
 10
-567.3895238269391
 20
451.3878556874535
 30
0.0
 10
-575.0464242075858
 20
449.4500121206155
 30
0.0
 10
-581.8975096066498
 20
447.7161093824319
 30
0.0
 10
-588.6571550077989
 20
445.6081563750209
 30
0.0
 10
-595.2340615242362
 20
443.0231419896306
 30
0.0
 10
-599.7085183664652
 20
441.2644389742435
 30
0.0
 10
-604.0984496550747
 20
439.2849676305634
 30
0.0
 10
-608.3629331687683
 20
437.0643726812948
 30
0.0
 10
-612.75328779071
 20
434.7782669001688
 30
0.0
 10
-617.010680471241
 20
432.2366441804617
 30
0.0
 10
-621.0906612113693
 20
429.4344950778068
 30
0.0
 10
-625.2029211174433
 20
426.6101562534222
 30
0.0
 10
-629.1349821387271
 20
423.5211988239826
 30
0.0
 10
-632.8480387205784
 20
420.1891069556526
 30
0.0
 10
-636.2013678106485
 20
417.1798773021829
 30
0.0
 10
-639.3760502381299
 20
413.9723512643359
 30
0.0
 10
-642.3581512811222
 20
410.5950685637094
 30
0.0
 10
-645.4281292665487
 20
407.1182319764566
 30
0.0
 10
-648.2939900344284
 20
403.4614787266674
 30
0.0
 10
-650.9553102514151
 20
399.6626265912026
 30
0.0
 10
-653.905767128462
 20
395.4510597429571
 30
0.0
 10
-656.60483456681
 20
391.0648326209422
 30
0.0
 10
-659.0717742326812
 20
386.5529460573383
 30
0.0
 10
-661.6532608403708
 20
381.8315094985136
 30
0.0
 10
-663.9805357872132
 20
376.9724543317278
 30
0.0
 10
-666.0882418501839
 20
372.0211830559389
 30
0.0
 10
-668.1907620799258
 20
367.0821531687616
 30
0.0
 10
-670.0748070369017
 20
362.0513305058956
 30
0.0
 10
-671.7780181090944
 20
356.9609236777258
 30
0.0
 10
-673.716531953712
 20
351.1673249211751
 30
0.0
 10
-675.4207660814445
 20
345.2965031108401
 30
0.0
 10
-676.9442016022005
 20
339.3801024126545
 30
0.0
 10
-678.6060318420233
 20
332.9263858934114
 30
0.0
 10
-680.0527029200821
 20
326.4184121531814
 30
0.0
 10
-681.3356145574501
 20
319.8788648025521
 30
0.0
 10
-682.7643645248088
 20
312.5958735800384
 30
0.0
 10
-683.9899850523675
 20
305.273759302837
 30
0.0
 10
-685.0637700278407
 20
297.9300197483794
 30
0.0
 10
-686.2022544462856
 20
290.1435793706763
 30
0.0
 10
-687.1700649797305
 20
282.3327973268704
 30
0.0
 10
-688.0207532936236
 20
274.5096680611323
 30
0.0
 10
-688.5873496695712
 20
269.2990345690422
 30
0.0
 10
-689.1020171578192
 20
264.0829330215425
 30
0.0
 10
-689.579995758006
 20
258.8634800851842
 30
0.0
 10
-690.1177701901759
 20
252.991388274888
 30
0.0
 10
-690.609154345621
 20
247.1150984091113
 30
0.0
 10
-691.0581698909168
 20
241.2355277100797
 30
0.0
 10
-691.8212987623752
 20
231.2426740494608
 30
0.0
 10
-692.4619784699523
 20
221.2404717779378
 30
0.0
 10
-692.9785509581608
 20
211.2318842287729
 30
0.0
 10
-694.0535353780479
 20
190.4050135933989
 30
0.0
 10
-694.5912745324312
 20
169.5504146253283
 30
0.0
 10
-694.5917684213113
 20
148.6958156572629
 30
0.0
  0
ENDBLK
  5
D8
330
D5
100
AcDbEntity
  8
0
100
AcDbBlockEnd
  0
BLOCK
  5
DC
330
DA
100
AcDbEntity
  8
0
100
AcDbBlockBegin
  2
block 30
 70
     0
 10
0.0
 20
0.0
 30
0.0
  3
block 30
  1

  0
POLYLINE
  5
DE
330
DA
100
AcDbEntity
  8
0
 62
   250
370
    25
100
AcDb2dPolyline
 66
     1
 10
0.0
 20
0.0
 30
0.0
  0
VERTEX
  5
DF
330
DE
100
AcDbEntity
  8
0
 62
   250
370
    25
100
AcDbVertex
100
AcDb2dVertex
 10
-401.4275503957116
 20
310.0837783596495
 30
0.0
  0
VERTEX
  5
E0
330
DE
100
AcDbEntity
  8
0
 62
   250
370
    25
100
AcDbVertex
100
AcDb2dVertex
 10
-618.8958462564434
 20
430.8909964618815
 30
0.0
  0
SEQEND
  5
E1
330
DE
100
AcDbEntity
  8
0
 62
   250
370
    25
  0
ENDBLK
  5
DD
330
DA
100
AcDbEntity
  8
0
100
AcDbBlockEnd
  0
BLOCK
  5
E4
330
E2
100
AcDbEntity
  8
0
100
AcDbBlockBegin
  2
block 31
 70
     0
 10
0.0
 20
0.0
 30
0.0
  3
block 31
  1

  0
POLYLINE
  5
E6
330
E2
100
AcDbEntity
  8
0
 62
   250
370
    25
100
AcDb2dPolyline
 66
     1
 10
0.0
 20
0.0
 30
0.0
  0
VERTEX
  5
E7
330
E6
100
AcDbEntity
  8
0
 62
   250
370
    25
100
AcDbVertex
100
AcDb2dVertex
 10
-399.5132371061096
 20
-15.05957343860925
 30
0.0
  0
VERTEX
  5
E8
330
E6
100
AcDbEntity
  8
0
 62
   250
370
    25
100
AcDbVertex
100
AcDb2dVertex
 10
-608.7344434380727
 20
-139.4785041201578
 30
0.0
  0
SEQEND
  5
E9
330
E6
100
AcDbEntity
  8
0
 62
   250
370
    25
  0
ENDBLK
  5
E5
330
E2
100
AcDbEntity
  8
0
100
AcDbBlockEnd
  0
BLOCK
  5
EC
330
EA
100
AcDbEntity
  8
0
100
AcDbBlockBegin
  2
block 32
 70
     0
 10
0.0
 20
0.0
 30
0.0
  3
block 32
  1

  0
POLYLINE
  5
EE
330
EA
100
AcDbEntity
  8
0
 62
   250
370
    25
100
AcDb2dPolyline
 66
     1
 10
0.0
 20
0.0
 30
0.0
  0
VERTEX
  5
EF
330
EE
100
AcDbEntity
  8
0
 62
   250
370
    25
100
AcDbVertex
100
AcDb2dVertex
 10
753.2669712836414
 20
-13.29896546775075
 30
0.0
  0
VERTEX
  5
F0
330
EE
100
AcDbEntity
  8
0
 62
   250
370
    25
100
AcDbVertex
100
AcDb2dVertex
 10
846.519889987849
 20
-121.163239599596
 30
0.0
  0
SEQEND
  5
F1
330
EE
100
AcDbEntity
  8
0
 62
   250
370
    25
  0
ENDBLK
  5
ED
330
EA
100
AcDbEntity
  8
0
100
AcDbBlockEnd
  0
BLOCK
  5
F4
330
F2
100
AcDbEntity
  8
0
100
AcDbBlockBegin
  2
block 33
 70
     0
 10
0.0
 20
0.0
 30
0.0
  3
block 33
  1

  0
SPLINE
  5
F6
330
F2
100
AcDbEntity
  8
0
 62
   250
370
    25
100
AcDbSpline
210
0.0
220
0.0
230
1.0
 70
     8
 71
     3
 72
     8
 73
     4
 74
     0
 42
0.0000000001
 43
0.0000000001
 12
1.0
 22
0.0
 32
0.0
 13
1.0
 23
0.0
 33
0.0
 40
0.0
 40
0.0
 40
0.0
 40
0.0
 40
1.0
 40
1.0
 40
1.0
 40
1.0
 10
753.1976857296673
 20
310.6622986241959
 30
0.0
 10
755.1973502424381
 20
313.2077578699568
 30
0.0
 10
845.5410411091827
 20
419.4345274121492
 30
0.0
 10
845.5410411091827
 20
419.4345274121492
 30
0.0
  0
ENDBLK
  5
F5
330
F2
100
AcDbEntity
  8
0
100
AcDbBlockEnd
  0
BLOCK
  5
F9
330
F7
100
AcDbEntity
  8
0
100
AcDbBlockBegin
  2
block 34
 70
     0
 10
0.0
 20
0.0
 30
0.0
  3
block 34
  1

  0
SPLINE
  5
FB
330
F7
100
AcDbEntity
  8
0
 62
   250
370
    25
100
AcDbSpline
210
0.0
220
0.0
230
1.0
 70
     8
 71
     3
 72
    11
 73
     7
 74
     0
 42
0.0000000001
 43
0.0000000001
 12
1.0
 22
0.0
 32
0.0
 13
1.0
 23
0.0
 33
0.0
 40
0.0
 40
0.0
 40
0.0
 40
0.0
 40
1.0
 40
1.0
 40
1.0
 40
2.0
 40
2.0
 40
2.0
 40
2.0
 10
663.4225814246906
 20
126.1112573970739
 30
0.0
 10
650.8210032561282
 20
119.226973895545
 30
0.0
 10
635.0245981731464
 20
123.861769388283
 30
0.0
 10
628.1403497754966
 20
136.4633119607249
 30
0.0
 10
621.2560661000481
 20
149.0648898109395
 30
0.0
 10
625.8908617098775
 20
164.861303739124
 30
0.0
 10
638.49243987844
 20
171.7455521367789
 30
0.0
  0
ENDBLK
  5
FA
330
F7
100
AcDbEntity
  8
0
100
AcDbBlockEnd
  0
BLOCK
  5
FE
330
FC
100
AcDbEntity
  8
0
100
AcDbBlockBegin
  2
block 35
 70
     0
 10
0.0
 20
0.0
 30
0.0
  3
block 35
  1

  0
SPLINE
  5
100
330
FC
100
AcDbEntity
  8
0
 62
   250
370
    25
100
AcDbSpline
210
0.0
220
0.0
230
1.0
 70
     8
 71
     3
 72
    11
 73
     7
 74
     0
 42
0.0000000001
 43
0.0000000001
 12
1.0
 22
0.0
 32
0.0
 13
1.0
 23
0.0
 33
0.0
 40
0.0
 40
0.0
 40
0.0
 40
0.0
 40
1.0
 40
1.0
 40
1.0
 40
2.0
 40
2.0
 40
2.0
 40
2.0
 10
638.49243987844
 20
171.7455521367789
 30
0.0
 10
651.0939827692152
 20
178.629835812221
 30
0.0
 10
666.8903878521977
 20
173.9950402023922
 30
0.0
 10
673.7746362498604
 20
161.3934620338304
 30
0.0
 10
680.658919925296
 20
148.7919103047578
 30
0.0
 10
676.0241243154666
 20
132.9955056208226
 30
0.0
 10
663.4225814246906
 20
126.1112573970739
 30
0.0
  0
ENDBLK
  5
FF
330
FC
100
AcDbEntity
  8
0
100
AcDbBlockEnd
  0
BLOCK
  5
103
330
101
100
AcDbEntity
  8
0
100
AcDbBlockBegin
  2
block 36
 70
     0
 10
0.0
 20
0.0
 30
0.0
  3
block 36
  1

  0
SPLINE
  5
105
330
101
100
AcDbEntity
  8
0
 62
   250
370
    25
100
AcDbSpline
210
0.0
220
0.0
230
1.0
 70
     8
 71
     3
 72
    11
 73
     7
 74
     0
 42
0.0000000001
 43
0.0000000001
 12
1.0
 22
0.0
 32
0.0
 13
1.0
 23
0.0
 33
0.0
 40
0.0
 40
0.0
 40
0.0
 40
0.0
 40
1.0
 40
1.0
 40
1.0
 40
2.0
 40
2.0
 40
2.0
 40
2.0
 10
629.7259098963824
 20
187.7925706161185
 30
0.0
 10
651.190008904468
 20
199.5184482867104
 30
0.0
 10
678.0957770585944
 20
191.6240557461734
 30
0.0
 10
689.8216547291861
 20
170.1599920158802
 30
0.0
 10
701.5475323997912
 20
148.6958841719243
 30
0.0
 10
693.6531751370471
 20
121.7901166974992
 30
0.0
 10
672.1890761289617
 20
110.0642393231216
 30
0.0
  0
ENDBLK
  5
104
330
101
100
AcDbEntity
  8
0
100
AcDbBlockEnd
  0
BLOCK
  5
108
330
106
100
AcDbEntity
  8
0
100
AcDbBlockBegin
  2
block 37
 70
     0
 10
0.0
 20
0.0
 30
0.0
  3
block 37
  1

  0
SPLINE
  5
10A
330
106
100
AcDbEntity
  8
0
 62
   250
370
    25
100
AcDbSpline
210
0.0
220
0.0
230
1.0
 70
     8
 71
     3
 72
    11
 73
     7
 74
     0
 42
0.0000000001
 43
0.0000000001
 12
1.0
 22
0.0
 32
0.0
 13
1.0
 23
0.0
 33
0.0
 40
0.0
 40
0.0
 40
0.0
 40
0.0
 40
1.0
 40
1.0
 40
1.0
 40
2.0
 40
2.0
 40
2.0
 40
2.0
 10
672.1890761289617
 20
110.0642393231216
 30
0.0
 10
650.7250123986621
 20
98.33836194873759
 30
0.0
 10
623.8192442445362
 20
106.2327190120679
 30
0.0
 10
612.0933312961573
 20
127.6968174779177
 30
0.0
 10
600.3674536255529
 20
149.1608806659871
 30
0.0
 10
608.2618461660963
 20
176.066692945513
 30
0.0
 10
629.7259098963824
 20
187.7925706161185
 30
0.0
  0
ENDBLK
  5
109
330
106
100
AcDbEntity
  8
0
100
AcDbBlockEnd
  0
BLOCK
  5
10D
330
10B
100
AcDbEntity
  8
0
100
AcDbBlockBegin
  2
block 38
 70
     0
 10
0.0
 20
0.0
 30
0.0
  3
block 38
  1

  0
POLYLINE
  5
10F
330
10B
100
AcDbEntity
  8
0
 62
     4
370
    25
100
AcDb2dPolyline
 66
     1
 10
0.0
 20
0.0
 30
0.0
  0
VERTEX
  5
110
330
10F
100
AcDbEntity
  8
0
 62
     4
370
    25
100
AcDbVertex
100
AcDb2dVertex
 10
716.7106853205298
 20
149.3019580745236
 30
0.0
  0
VERTEX
  5
111
330
10F
100
AcDbEntity
  8
0
 62
     4
370
    25
100
AcDbVertex
100
AcDb2dVertex
 10
705.4605968223658
 20
149.3019580745236
 30
0.0
  0
SEQEND
  5
112
330
10F
100
AcDbEntity
  8
0
 62
     4
370
    25
  0
ENDBLK
  5
10E
330
10B
100
AcDbEntity
  8
0
100
AcDbBlockEnd
  0
BLOCK
  5
115
330
113
100
AcDbEntity
  8
0
100
AcDbBlockBegin
  2
block 39
 70
     0
 10
0.0
 20
0.0
 30
0.0
  3
block 39
  1

  0
POLYLINE
  5
117
330
113
100
AcDbEntity
  8
0
  6
AI-Linetype-1
 62
     4
370
    25
100
AcDb2dPolyline
 66
     1
 10
0.0
 20
0.0
 30
0.0
  0
VERTEX
  5
118
330
117
100
AcDbEntity
  8
0
  6
AI-Linetype-1
 62
     4
370
    25
100
AcDbVertex
100
AcDb2dVertex
 10
701.8864825111933
 20
149.3019580745236
 30
0.0
  0
VERTEX
  5
119
330
117
100
AcDbEntity
  8
0
  6
AI-Linetype-1
 62
     4
370
    25
100
AcDbVertex
100
AcDb2dVertex
 10
696.5253541081282
 20
149.3019580745236
 30
0.0
  0
SEQEND
  5
11B
330
117
100
AcDbEntity
  8
0
  6
AI-Linetype-1
 62
     4
370
    25
  0
ENDBLK
  5
116
330
113
100
AcDbEntity
  8
0
100
AcDbBlockEnd
  0
BLOCK
  5
11E
330
11C
100
AcDbEntity
  8
0
100
AcDbBlockBegin
  2
block 40
 70
     0
 10
0.0
 20
0.0
 30
0.0
  3
block 40
  1

  0
POLYLINE
  5
120
330
11C
100
AcDbEntity
  8
0
  6
AI-Linetype-2
 62
     4
370
    25
100
AcDb2dPolyline
 66
     1
 10
0.0
 20
0.0
 30
0.0
  0
VERTEX
  5
121
330
120
100
AcDbEntity
  8
0
  6
AI-Linetype-2
 62
     4
370
    25
100
AcDbVertex
100
AcDb2dVertex
 10
694.7382969525421
 20
149.3019580745236
 30
0.0
  0
VERTEX
  5
122
330
120
100
AcDbEntity
  8
0
  6
AI-Linetype-2
 62
     4
370
    25
100
AcDbVertex
100
AcDb2dVertex
 10
600.0242246427787
 20
149.3019580745236
 30
0.0
  0
SEQEND
  5
124
330
120
100
AcDbEntity
  8
0
  6
AI-Linetype-2
 62
     4
370
    25
  0
ENDBLK
  5
11F
330
11C
100
AcDbEntity
  8
0
100
AcDbBlockEnd
  0
BLOCK
  5
127
330
125
100
AcDbEntity
  8
0
100
AcDbBlockBegin
  2
block 41
 70
     0
 10
0.0
 20
0.0
 30
0.0
  3
block 41
  1

  0
POLYLINE
  5
129
330
125
100
AcDbEntity
  8
0
 62
     4
370
    25
100
AcDb2dPolyline
 66
     1
 10
0.0
 20
0.0
 30
0.0
  0
VERTEX
  5
12A
330
129
100
AcDbEntity
  8
0
 62
     4
370
    25
100
AcDbVertex
100
AcDb2dVertex
 10
598.2371674871926
 20
149.3019580745236
 30
0.0
  0
VERTEX
  5
12B
330
129
100
AcDbEntity
  8
0
 62
     4
370
    25
100
AcDbVertex
100
AcDb2dVertex
 10
586.9870789890284
 20
149.3019580745236
 30
0.0
  0
SEQEND
  5
12C
330
129
100
AcDbEntity
  8
0
 62
     4
370
    25
  0
ENDBLK
  5
128
330
125
100
AcDbEntity
  8
0
100
AcDbBlockEnd
  0
BLOCK
  5
12F
330
12D
100
AcDbEntity
  8
0
100
AcDbBlockBegin
  2
block 42
 70
     0
 10
0.0
 20
0.0
 30
0.0
  3
block 42
  1

  0
POLYLINE
  5
131
330
12D
100
AcDbEntity
  8
0
 62
     4
370
    25
100
AcDb2dPolyline
 66
     1
 10
0.0
 20
0.0
 30
0.0
  0
VERTEX
  5
132
330
131
100
AcDbEntity
  8
0
 62
     4
370
    25
100
AcDbVertex
100
AcDb2dVertex
 10
650.6195428945613
 20
214.1050869577911
 30
0.0
  0
VERTEX
  5
133
330
131
100
AcDbEntity
  8
0
 62
     4
370
    25
100
AcDbVertex
100
AcDb2dVertex
 10
650.6195428945613
 20
202.8549984596271
 30
0.0
  0
SEQEND
  5
134
330
131
100
AcDbEntity
  8
0
 62
     4
370
    25
  0
ENDBLK
  5
130
330
12D
100
AcDbEntity
  8
0
100
AcDbBlockEnd
  0
BLOCK
  5
137
330
135
100
AcDbEntity
  8
0
100
AcDbBlockBegin
  2
block 43
 70
     0
 10
0.0
 20
0.0
 30
0.0
  3
block 43
  1

  0
POLYLINE
  5
139
330
135
100
AcDbEntity
  8
0
  6
AI-Linetype-3
 62
     4
370
    25
100
AcDb2dPolyline
 66
     1
 10
0.0
 20
0.0
 30
0.0
  0
VERTEX
  5
13A
330
139
100
AcDbEntity
  8
0
  6
AI-Linetype-3
 62
     4
370
    25
100
AcDbVertex
100
AcDb2dVertex
 10
650.6195428945613
 20
199.2809056803017
 30
0.0
  0
VERTEX
  5
13B
330
139
100
AcDbEntity
  8
0
  6
AI-Linetype-3
 62
     4
370
    25
100
AcDbVertex
100
AcDb2dVertex
 10
650.6195428945613
 20
193.9197665113132
 30
0.0
  0
SEQEND
  5
13D
330
139
100
AcDbEntity
  8
0
  6
AI-Linetype-3
 62
     4
370
    25
  0
ENDBLK
  5
138
330
135
100
AcDbEntity
  8
0
100
AcDbBlockEnd
  0
BLOCK
  5
140
330
13E
100
AcDbEntity
  8
0
100
AcDbBlockBegin
  2
block 44
 70
     0
 10
0.0
 20
0.0
 30
0.0
  3
block 44
  1

  0
POLYLINE
  5
142
330
13E
100
AcDbEntity
  8
0
  6
AI-Linetype-4
 62
     4
370
    25
100
AcDb2dPolyline
 66
     1
 10
0.0
 20
0.0
 30
0.0
  0
VERTEX
  5
143
330
142
100
AcDbEntity
  8
0
  6
AI-Linetype-4
 62
     4
370
    25
100
AcDbVertex
100
AcDb2dVertex
 10
650.6195428945613
 20
192.1327308875738
 30
0.0
  0
VERTEX
  5
144
330
142
100
AcDbEntity
  8
0
  6
AI-Linetype-4
 62
     4
370
    25
100
AcDbVertex
100
AcDb2dVertex
 10
650.6195428945613
 20
97.41882006666135
 30
0.0
  0
SEQEND
  5
146
330
142
100
AcDbEntity
  8
0
  6
AI-Linetype-4
 62
     4
370
    25
  0
ENDBLK
  5
141
330
13E
100
AcDbEntity
  8
0
100
AcDbBlockEnd
  0
BLOCK
  5
149
330
147
100
AcDbEntity
  8
0
100
AcDbBlockBegin
  2
block 45
 70
     0
 10
0.0
 20
0.0
 30
0.0
  3
block 45
  1

  0
POLYLINE
  5
14B
330
147
100
AcDbEntity
  8
0
 62
     4
370
    25
100
AcDb2dPolyline
 66
     1
 10
0.0
 20
0.0
 30
0.0
  0
VERTEX
  5
14C
330
14B
100
AcDbEntity
  8
0
 62
     4
370
    25
100
AcDbVertex
100
AcDb2dVertex
 10
650.6195428945613
 20
95.63178444292191
 30
0.0
  0
VERTEX
  5
14D
330
14B
100
AcDbEntity
  8
0
 62
     4
370
    25
100
AcDbVertex
100
AcDb2dVertex
 10
650.6195428945613
 20
84.38169594475788
 30
0.0
  0
SEQEND
  5
14E
330
14B
100
AcDbEntity
  8
0
 62
     4
370
    25
  0
ENDBLK
  5
14A
330
147
100
AcDbEntity
  8
0
100
AcDbBlockEnd
  0
ENDSEC
  0
SECTION
  2
ENTITIES
  0
INSERT
  5
41
330
1F
100
AcDbEntity
  8
0
100
AcDbBlockReference
  2
block 2
 10
0.0
 20
0.0
 30
0.0
  0
INSERT
  5
46
330
1F
100
AcDbEntity
  8
0
100
AcDbBlockReference
  2
block 3
 10
0.0
 20
0.0
 30
0.0
  0
INSERT
  5
4B
330
1F
100
AcDbEntity
  8
0
100
AcDbBlockReference
  2
block 4
 10
0.0
 20
0.0
 30
0.0
  0
INSERT
  5
50
330
1F
100
AcDbEntity
  8
0
100
AcDbBlockReference
  2
block 5
 10
0.0
 20
0.0
 30
0.0
  0
INSERT
  5
58
330
1F
100
AcDbEntity
  8
0
100
AcDbBlockReference
  2
block 6
 10
0.0
 20
0.0
 30
0.0
  0
INSERT
  5
5D
330
1F
100
AcDbEntity
  8
0
100
AcDbBlockReference
  2
block 7
 10
0.0
 20
0.0
 30
0.0
  0
INSERT
  5
65
330
1F
100
AcDbEntity
  8
0
100
AcDbBlockReference
  2
block 8
 10
0.0
 20
0.0
 30
0.0
  0
INSERT
  5
6A
330
1F
100
AcDbEntity
  8
0
100
AcDbBlockReference
  2
block 9
 10
0.0
 20
0.0
 30
0.0
  0
INSERT
  5
72
330
1F
100
AcDbEntity
  8
0
100
AcDbBlockReference
  2
block 10
 10
0.0
 20
0.0
 30
0.0
  0
INSERT
  5
77
330
1F
100
AcDbEntity
  8
0
100
AcDbBlockReference
  2
block 11
 10
0.0
 20
0.0
 30
0.0
  0
INSERT
  5
7F
330
1F
100
AcDbEntity
  8
0
100
AcDbBlockReference
  2
block 12
 10
0.0
 20
0.0
 30
0.0
  0
INSERT
  5
84
330
1F
100
AcDbEntity
  8
0
100
AcDbBlockReference
  2
block 13
 10
0.0
 20
0.0
 30
0.0
  0
INSERT
  5
89
330
1F
100
AcDbEntity
  8
0
100
AcDbBlockReference
  2
block 14
 10
0.0
 20
0.0
 30
0.0
  0
INSERT
  5
8E
330
1F
100
AcDbEntity
  8
0
100
AcDbBlockReference
  2
block 15
 10
0.0
 20
0.0
 30
0.0
  0
INSERT
  5
93
330
1F
100
AcDbEntity
  8
0
100
AcDbBlockReference
  2
block 16
 10
0.0
 20
0.0
 30
0.0
  0
INSERT
  5
98
330
1F
100
AcDbEntity
  8
0
100
AcDbBlockReference
  2
block 17
 10
0.0
 20
0.0
 30
0.0
  0
INSERT
  5
9D
330
1F
100
AcDbEntity
  8
0
100
AcDbBlockReference
  2
block 18
 10
0.0
 20
0.0
 30
0.0
  0
INSERT
  5
A2
330
1F
100
AcDbEntity
  8
0
100
AcDbBlockReference
  2
block 19
 10
0.0
 20
0.0
 30
0.0
  0
INSERT
  5
A7
330
1F
100
AcDbEntity
  8
0
100
AcDbBlockReference
  2
block 20
 10
0.0
 20
0.0
 30
0.0
  0
INSERT
  5
AC
330
1F
100
AcDbEntity
  8
0
100
AcDbBlockReference
  2
block 21
 10
0.0
 20
0.0
 30
0.0
  0
INSERT
  5
B1
330
1F
100
AcDbEntity
  8
0
100
AcDbBlockReference
  2
block 22
 10
0.0
 20
0.0
 30
0.0
  0
INSERT
  5
B6
330
1F
100
AcDbEntity
  8
0
100
AcDbBlockReference
  2
block 23
 10
0.0
 20
0.0
 30
0.0
  0
INSERT
  5
BB
330
1F
100
AcDbEntity
  8
0
100
AcDbBlockReference
  2
block 24
 10
0.0
 20
0.0
 30
0.0
  0
INSERT
  5
C0
330
1F
100
AcDbEntity
  8
0
100
AcDbBlockReference
  2
block 25
 10
0.0
 20
0.0
 30
0.0
  0
INSERT
  5
C5
330
1F
100
AcDbEntity
  8
0
100
AcDbBlockReference
  2
block 26
 10
0.0
 20
0.0
 30
0.0
  0
INSERT
  5
CA
330
1F
100
AcDbEntity
  8
0
100
AcDbBlockReference
  2
block 27
 10
0.0
 20
0.0
 30
0.0
  0
INSERT
  5
CF
330
1F
100
AcDbEntity
  8
0
100
AcDbBlockReference
  2
block 28
 10
0.0
 20
0.0
 30
0.0
  0
INSERT
  5
D6
330
1F
100
AcDbEntity
  8
0
100
AcDbBlockReference
  2
block 29
 10
0.0
 20
0.0
 30
0.0
  0
INSERT
  5
DB
330
1F
100
AcDbEntity
  8
0
100
AcDbBlockReference
  2
block 30
 10
0.0
 20
0.0
 30
0.0
  0
INSERT
  5
E3
330
1F
100
AcDbEntity
  8
0
100
AcDbBlockReference
  2
block 31
 10
0.0
 20
0.0
 30
0.0
  0
INSERT
  5
EB
330
1F
100
AcDbEntity
  8
0
100
AcDbBlockReference
  2
block 32
 10
0.0
 20
0.0
 30
0.0
  0
INSERT
  5
F3
330
1F
100
AcDbEntity
  8
0
100
AcDbBlockReference
  2
block 33
 10
0.0
 20
0.0
 30
0.0
  0
INSERT
  5
F8
330
1F
100
AcDbEntity
  8
0
100
AcDbBlockReference
  2
block 34
 10
0.0
 20
0.0
 30
0.0
  0
INSERT
  5
FD
330
1F
100
AcDbEntity
  8
0
100
AcDbBlockReference
  2
block 35
 10
0.0
 20
0.0
 30
0.0
  0
INSERT
  5
102
330
1F
100
AcDbEntity
  8
0
100
AcDbBlockReference
  2
block 36
 10
0.0
 20
0.0
 30
0.0
  0
INSERT
  5
107
330
1F
100
AcDbEntity
  8
0
100
AcDbBlockReference
  2
block 37
 10
0.0
 20
0.0
 30
0.0
  0
INSERT
  5
10C
330
1F
100
AcDbEntity
  8
0
100
AcDbBlockReference
  2
block 38
 10
0.0
 20
0.0
 30
0.0
  0
INSERT
  5
114
330
1F
100
AcDbEntity
  8
0
100
AcDbBlockReference
  2
block 39
 10
0.0
 20
0.0
 30
0.0
  0
INSERT
  5
11D
330
1F
100
AcDbEntity
  8
0
100
AcDbBlockReference
  2
block 40
 10
0.0
 20
0.0
 30
0.0
  0
INSERT
  5
126
330
1F
100
AcDbEntity
  8
0
100
AcDbBlockReference
  2
block 41
 10
0.0
 20
0.0
 30
0.0
  0
INSERT
  5
12E
330
1F
100
AcDbEntity
  8
0
100
AcDbBlockReference
  2
block 42
 10
0.0
 20
0.0
 30
0.0
  0
INSERT
  5
136
330
1F
100
AcDbEntity
  8
0
100
AcDbBlockReference
  2
block 43
 10
0.0
 20
0.0
 30
0.0
  0
INSERT
  5
13F
330
1F
100
AcDbEntity
  8
0
100
AcDbBlockReference
  2
block 44
 10
0.0
 20
0.0
 30
0.0
  0
INSERT
  5
148
330
1F
100
AcDbEntity
  8
0
100
AcDbBlockReference
  2
block 45
 10
0.0
 20
0.0
 30
0.0
  0
ENDSEC
  0
SECTION
  2
OBJECTS
  0
DICTIONARY
  5
C
330
0
100
AcDbDictionary
281
     1
  3
ACAD_GROUP
350
D
  3
ACAD_LAYOUT
350
1A
  3
ACAD_MATERIAL
350
3B
  3
ACAD_MLEADERSTYLE
350
171
  3
ACAD_MLINESTYLE
350
17
  3
ACAD_PLOTSETTINGS
350
19
  3
ACAD_PLOTSTYLENAME
350
E
  3
ACAD_TABLESTYLE
350
170
  3
ACAD_VISUALSTYLE
350
2A
  0
SUN
  5
3F
330
29
100
AcDbSun
 90
        1
290
     0
 63
     7
421
 16777215
 40
1.0
291
     1
 91
  2455826
 92
 54000000
292
     0
 70
     2
 71
   256
280
     1
  0
DICTIONARY
  5
D
102
{ACAD_REACTORS
330
C
102
}
330
C
100
AcDbDictionary
281
     1
  0
DICTIONARY
  5
1A
102
{ACAD_REACTORS
330
C
102
}
330
C
100
AcDbDictionary
281
     1
  3
Layout1
350
1E
  3
Layout2
350
26
  3
Model
350
22
  0
DICTIONARY
  5
3B
102
{ACAD_REACTORS
330
C
102
}
330
C
100
AcDbDictionary
281
     1
  3
ByBlock
350
3D
  3
ByLayer
350
3C
  3
Global
350
3E
  0
DICTIONARY
  5
171
102
{ACAD_REACTORS
330
C
102
}
330
C
100
AcDbDictionary
281
     1
  0
DICTIONARY
  5
17
102
{ACAD_REACTORS
330
C
102
}
330
C
100
AcDbDictionary
281
     1
  3
Standard
350
18
  0
DICTIONARY
  5
19
102
{ACAD_REACTORS
330
C
102
}
330
C
100
AcDbDictionary
281
     1
  0
ACDBDICTIONARYWDFLT
  5
E
102
{ACAD_REACTORS
330
C
102
}
330
C
100
AcDbDictionary
281
     1
  3
Normal
350
F
100
AcDbDictionaryWithDefault
340
F
  0
DICTIONARY
  5
170
102
{ACAD_REACTORS
330
C
102
}
330
C
100
AcDbDictionary
281
     1
  0
DICTIONARY
  5
2A
102
{ACAD_REACTORS
330
C
102
}
330
C
100
AcDbDictionary
281
     1
  3
2dWireframe
350
2F
  3
3D Hidden
350
31
  3
3dWireframe
350
30
  3
Basic
350
32
  3
Brighten
350
36
  3
ColorChange
350
3A
  3
Conceptual
350
34
  3
Dim
350
35
  3
Facepattern
350
39
  3
Flat
350
2B
  3
FlatWithEdges
350
2C
  3
Gouraud
350
2D
  3
GouraudWithEdges
350
2E
  3
Linepattern
350
38
  3
Realistic
350
33
  3
Thicken
350
37
  0
LAYOUT
  5
1E
102
{ACAD_REACTORS
330
1A
102
}
330
1A
100
AcDbPlotSettings
  1

  2
none_device
  4

  6

 40
0.0
 41
0.0
 42
0.0
 43
0.0
 44
0.0
 45
0.0
 46
0.0
 47
0.0
 48
0.0
 49
0.0
140
0.0
141
0.0
142
1.0
143
1.0
 70
   688
 72
     0
 73
     0
 74
     5
  7

 75
    16
 76
     0
 77
     2
 78
   300
147
1.0
148
0.0
149
0.0
100
AcDbLayout
  1
Layout1
 70
     1
 71
     1
 10
0.0
 20
0.0
 11
12.0
 21
9.0
 12
0.0
 22
0.0
 32
0.0
 14
1.000000000000000E+20
 24
1.000000000000000E+20
 34
1.000000000000000E+20
 15
-1.000000000000000E+20
 25
-1.000000000000000E+20
 35
-1.000000000000000E+20
146
0.0
 13
0.0
 23
0.0
 33
0.0
 16
1.0
 26
0.0
 36
0.0
 17
0.0
 27
1.0
 37
0.0
 76
     0
330
1B
  0
LAYOUT
  5
26
102
{ACAD_REACTORS
330
1A
102
}
330
1A
100
AcDbPlotSettings
  1

  2
none_device
  4

  6

 40
0.0
 41
0.0
 42
0.0
 43
0.0
 44
0.0
 45
0.0
 46
0.0
 47
0.0
 48
0.0
 49
0.0
140
0.0
141
0.0
142
1.0
143
1.0
 70
   688
 72
     0
 73
     0
 74
     5
  7

 75
    16
 76
     0
 77
     2
 78
   300
147
1.0
148
0.0
149
0.0
100
AcDbLayout
  1
Layout2
 70
     1
 71
     2
 10
0.0
 20
0.0
 11
0.0
 21
0.0
 12
0.0
 22
0.0
 32
0.0
 14
0.0
 24
0.0
 34
0.0
 15
0.0
 25
0.0
 35
0.0
146
0.0
 13
0.0
 23
0.0
 33
0.0
 16
1.0
 26
0.0
 36
0.0
 17
0.0
 27
1.0
 37
0.0
 76
     0
330
23
  0
LAYOUT
  5
22
102
{ACAD_REACTORS
330
1A
102
}
330
1A
100
AcDbPlotSettings
  1

  2
none_device
  4

  6

 40
0.0
 41
0.0
 42
0.0
 43
0.0
 44
0.0
 45
0.0
 46
0.0
 47
0.0
 48
0.0
 49
0.0
140
0.0
141
0.0
142
1.0
143
1.0
 70
  1712
 72
     0
 73
     0
 74
     0
  7

 75
     0
 76
     0
 77
     2
 78
   300
147
1.0
148
0.0
149
0.0
100
AcDbLayout
  1
Model
 70
     1
 71
     0
 10
0.0
 20
0.0
 11
12.0
 21
9.0
 12
0.0
 22
0.0
 32
0.0
 14
1.000000000000000E+20
 24
1.000000000000000E+20
 34
1.000000000000000E+20
 15
-1.000000000000000E+20
 25
-1.000000000000000E+20
 35
-1.000000000000000E+20
146
0.0
 13
0.0
 23
0.0
 33
0.0
 16
1.0
 26
0.0
 36
0.0
 17
0.0
 27
1.0
 37
0.0
 76
     0
330
1F
331
29
  0
MATERIAL
  5
3D
102
{ACAD_REACTORS
330
3B
102
}
330
3B
100
AcDbMaterial
  1
ByBlock
 72
     1
 94
      127
  0
MATERIAL
  5
3C
102
{ACAD_REACTORS
330
3B
102
}
330
3B
100
AcDbMaterial
  1
ByLayer
 72
     1
 94
      127
  0
MATERIAL
  5
3E
102
{ACAD_REACTORS
330
3B
102
}
330
3B
100
AcDbMaterial
  1
Global
 72
     1
 94
      127
  0
MLINESTYLE
  5
18
102
{ACAD_REACTORS
330
17
102
}
330
17
100
AcDbMlineStyle
  2
Standard
 70
     0
  3

 62
   256
 51
90.0
 52
90.0
 71
     2
 49
0.5
 62
   256
  6
BYLAYER
 49
-0.5
 62
   256
  6
BYLAYER
  0
ACDBPLACEHOLDER
  5
F
102
{ACAD_REACTORS
330
E
102
}
330
E
  0
VISUALSTYLE
  5
2F
102
{ACAD_REACTORS
330
2A
102
}
102
{ACAD_XDICTIONARY
360
158
102
}
330
2A
100
AcDbVisualStyle
  2
2dWireframe
 70
     4
 71
     0
 72
     2
 73
     0
 90
        0
 40
-0.6
 41
-30.0
 62
     5
 63
     7
421
 16777215
 74
     1
 91
        4
 64
     7
 65
   257
 75
     1
175
     1
 42
1.0
 92
        0
 66
   257
 43
1.0
 76
     1
 77
     6
 78
     2
 67
     7
 79
     5
170
     0
171
     0
290
     0
174
     0
 93
        1
 44
0.0
173
     0
291
     0
 45
0.0
  0
VISUALSTYLE
  5
31
102
{ACAD_REACTORS
330
2A
102
}
102
{ACAD_XDICTIONARY
360
15C
102
}
330
2A
100
AcDbVisualStyle
  2
3D Hidden
 70
     6
 71
     1
 72
     2
 73
     2
 90
        0
 40
-0.6
 41
-30.0
 62
     5
 63
     7
421
 16777215
 74
     2
 91
        2
 64
     7
 65
   257
 75
     2
175
     1
 42
40.0
 92
        0
 66
   257
 43
1.0
 76
     1
 77
     6
 78
     2
 67
     7
 79
     3
170
     0
171
     0
290
     0
174
     0
 93
        1
 44
0.0
173
     0
291
     0
 45
0.0
  0
VISUALSTYLE
  5
30
102
{ACAD_REACTORS
330
2A
102
}
102
{ACAD_XDICTIONARY
360
15A
102
}
330
2A
100
AcDbVisualStyle
  2
3dWireframe
 70
     5
 71
     0
 72
     2
 73
     0
 90
        0
 40
-0.6
 41
-30.0
 62
     5
 63
     7
421
 16777215
 74
     1
 91
        4
 64
     7
 65
   257
 75
     1
175
     1
 42
1.0
 92
        0
 66
   257
 43
1.0
 76
     1
 77
     6
 78
     2
 67
     7
 79
     5
170
     0
171
     0
290
     0
174
     0
 93
        1
 44
0.0
173
     0
291
     0
 45
0.0
  0
VISUALSTYLE
  5
32
102
{ACAD_REACTORS
330
2A
102
}
102
{ACAD_XDICTIONARY
360
15E
102
}
330
2A
100
AcDbVisualStyle
  2
Basic
 70
     7
 71
     1
 72
     0
 73
     1
 90
        0
 40
-0.6
 41
-30.0
 62
     5
 63
     7
421
 16777215
 74
     0
 91
        4
 64
     7
 65
   257
 75
     1
175
     1
 42
1.0
 92
        8
 66
     7
 43
1.0
 76
     1
 77
     6
 78
     2
 67
     7
 79
     5
170
     0
171
     0
290
     0
174
     0
 93
        1
 44
0.0
173
     0
291
     1
 45
0.0
  0
VISUALSTYLE
  5
36
102
{ACAD_REACTORS
330
2A
102
}
102
{ACAD_XDICTIONARY
360
166
102
}
330
2A
100
AcDbVisualStyle
  2
Brighten
 70
    12
 71
     2
 72
     2
 73
     0
 90
        0
 40
-0.6
 41
-30.0
 62
     5
 63
     7
421
 16777215
 74
     1
 91
        4
 64
     7
 65
   257
 75
     1
175
     1
 42
1.0
 92
        8
 66
     7
 43
1.0
 76
     1
 77
     6
 78
     2
 67
     7
 79
     5
170
     0
171
     0
290
     0
174
     0
 93
        1
 44
50.0
173
     0
291
     1
 45
0.0
  0
VISUALSTYLE
  5
3A
102
{ACAD_REACTORS
330
2A
102
}
102
{ACAD_XDICTIONARY
360
16E
102
}
330
2A
100
AcDbVisualStyle
  2
ColorChange
 70
    16
 71
     2
 72
     2
 73
     3
 90
        0
 40
-0.6
 41
-30.0
 62
     5
 63
     8
421
  8421504
 74
     1
 91
        4
 64
     7
 65
   257
 75
     1
175
     1
 42
1.0
 92
        8
 66
     8
424
  8421504
 43
1.0
 76
     1
 77
     6
 78
     2
 67
     7
 79
     5
170
     0
171
     0
290
     0
174
     0
 93
        1
 44
0.0
173
     0
291
     1
 45
0.0
  0
VISUALSTYLE
  5
34
102
{ACAD_REACTORS
330
2A
102
}
102
{ACAD_XDICTIONARY
360
162
102
}
330
2A
100
AcDbVisualStyle
  2
Conceptual
 70
     9
 71
     3
 72
     2
 73
     0
 90
        0
 40
-0.6
 41
-30.0
 62
     5
 63
     7
421
 16777215
 74
     2
 91
        2
 64
     7
 65
   257
 75
     1
175
     1
 42
40.0
 92
        8
 66
     7
 43
1.0
 76
     1
 77
     6
 78
     2
 67
     7
 79
     3
170
     0
171
     0
290
     0
174
     0
 93
        1
 44
0.0
173
     0
291
     0
 45
0.0
  0
VISUALSTYLE
  5
35
102
{ACAD_REACTORS
330
2A
102
}
102
{ACAD_XDICTIONARY
360
164
102
}
330
2A
100
AcDbVisualStyle
  2
Dim
 70
    11
 71
     2
 72
     2
 73
     0
 90
        0
 40
-0.6
 41
-30.0
 62
     5
 63
     7
421
 16777215
 74
     1
 91
        4
 64
     7
 65
   257
 75
     1
175
     1
 42
1.0
 92
        8
 66
     7
 43
1.0
 76
     1
 77
     6
 78
     2
 67
     7
 79
     5
170
     0
171
     0
290
     0
174
     0
 93
        1
 44
-50.0
173
     0
291
     1
 45
0.0
  0
VISUALSTYLE
  5
39
102
{ACAD_REACTORS
330
2A
102
}
102
{ACAD_XDICTIONARY
360
16C
102
}
330
2A
100
AcDbVisualStyle
  2
Facepattern
 70
    15
 71
     2
 72
     2
 73
     0
 90
        0
 40
-0.6
 41
-30.0
 62
     5
 63
     7
421
 16777215
 74
     1
 91
        4
 64
     7
 65
   257
 75
     1
175
     1
 42
1.0
 92
        8
 66
     7
 43
1.0
 76
     1
 77
     6
 78
     2
 67
     7
 79
     5
170
     0
171
     0
290
     0
174
     0
 93
        1
 44
0.0
173
     0
291
     1
 45
0.0
  0
VISUALSTYLE
  5
2B
102
{ACAD_REACTORS
330
2A
102
}
102
{ACAD_XDICTIONARY
360
150
102
}
330
2A
100
AcDbVisualStyle
  2
Flat
 70
     0
 71
     2
 72
     1
 73
     1
 90
        2
 40
-0.6
 41
30.0
 62
     5
 63
     7
421
 16777215
 74
     0
 91
        4
 64
     7
 65
   257
 75
     1
175
     1
 42
1.0
 92
        8
 66
     7
 43
1.0
 76
     1
 77
     6
 78
     2
 67
     7
 79
     5
170
     0
171
     0
290
     0
174
     0
 93
       13
 44
0.0
173
     0
291
     1
 45
0.0
  0
VISUALSTYLE
  5
2C
102
{ACAD_REACTORS
330
2A
102
}
102
{ACAD_XDICTIONARY
360
152
102
}
330
2A
100
AcDbVisualStyle
  2
FlatWithEdges
 70
     1
 71
     2
 72
     1
 73
     1
 90
        2
 40
-0.6
 41
30.0
 62
     5
 63
     7
421
 16777215
 74
     1
 91
        4
 64
     7
 65
   257
 75
     1
175
     1
 42
1.0
 92
        0
 66
   257
 43
1.0
 76
     1
 77
     6
 78
     2
 67
     7
 79
     5
170
     0
171
     0
290
     0
174
     0
 93
       13
 44
0.0
173
     0
291
     1
 45
0.0
  0
VISUALSTYLE
  5
2D
102
{ACAD_REACTORS
330
2A
102
}
102
{ACAD_XDICTIONARY
360
154
102
}
330
2A
100
AcDbVisualStyle
  2
Gouraud
 70
     2
 71
     2
 72
     2
 73
     1
 90
        2
 40
-0.6
 41
30.0
 62
     5
 63
     7
421
 16777215
 74
     0
 91
        4
 64
     7
 65
   257
 75
     1
175
     1
 42
1.0
 92
        0
 66
     7
 43
1.0
 76
     1
 77
     6
 78
     2
 67
     7
 79
     5
170
     0
171
     0
290
     0
174
     0
 93
       13
 44
0.0
173
     0
291
     1
 45
0.0
  0
VISUALSTYLE
  5
2E
102
{ACAD_REACTORS
330
2A
102
}
102
{ACAD_XDICTIONARY
360
156
102
}
330
2A
100
AcDbVisualStyle
  2
GouraudWithEdges
 70
     3
 71
     2
 72
     2
 73
     1
 90
        2
 40
-0.6
 41
30.0
 62
     5
 63
     7
421
 16777215
 74
     1
 91
        4
 64
     7
 65
   257
 75
     1
175
     1
 42
1.0
 92
        0
 66
   257
 43
1.0
 76
     1
 77
     6
 78
     2
 67
     7
 79
     5
170
     0
171
     0
290
     0
174
     0
 93
       13
 44
0.0
173
     0
291
     1
 45
0.0
  0
VISUALSTYLE
  5
38
102
{ACAD_REACTORS
330
2A
102
}
102
{ACAD_XDICTIONARY
360
16A
102
}
330
2A
100
AcDbVisualStyle
  2
Linepattern
 70
    14
 71
     2
 72
     2
 73
     0
 90
        0
 40
-0.6
 41
-30.0
 62
     5
 63
     7
421
 16777215
 74
     1
 91
        4
 64
     7
 65
   257
 75
     7
175
     7
 42
1.0
 92
        8
 66
     7
 43
1.0
 76
     1
 77
     6
 78
     2
 67
     7
 79
     5
170
     0
171
     0
290
     0
174
     0
 93
        1
 44
0.0
173
     0
291
     1
 45
0.0
  0
VISUALSTYLE
  5
33
102
{ACAD_REACTORS
330
2A
102
}
102
{ACAD_XDICTIONARY
360
160
102
}
330
2A
100
AcDbVisualStyle
  2
Realistic
 70
     8
 71
     2
 72
     2
 73
     0
 90
        0
 40
-0.6
 41
-30.0
 62
     5
 63
     7
421
 16777215
 74
     1
 91
        0
 64
     7
 65
   257
 75
     1
175
     1
 42
1.0
 92
        8
 66
     8
424
  7895160
 43
1.0
 76
     1
 77
     6
 78
     2
 67
     7
 79
     5
170
     0
171
     0
290
     0
174
     0
 93
       13
 44
0.0
173
     0
291
     0
 45
0.0
  0
VISUALSTYLE
  5
37
102
{ACAD_REACTORS
330
2A
102
}
102
{ACAD_XDICTIONARY
360
168
102
}
330
2A
100
AcDbVisualStyle
  2
Thicken
 70
    13
 71
     2
 72
     2
 73
     0
 90
        0
 40
-0.6
 41
-30.0
 62
     5
 63
     7
421
 16777215
 74
     1
 91
        4
 64
     7
 65
   257
 75
     1
175
     1
 42
1.0
 92
       12
 66
     7
 43
1.0
 76
     1
 77
     6
 78
     2
 67
     7
 79
     5
170
     0
171
     0
290
     0
174
     0
 93
        1
 44
0.0
173
     0
291
     1
 45
0.0
  0
DICTIONARY
  5
158
330
2F
100
AcDbDictionary
280
     1
281
     1
  3
ACAD_XREC_ROUNDTRIP
360
159
  0
DICTIONARY
  5
15C
330
31
100
AcDbDictionary
280
     1
281
     1
  3
ACAD_XREC_ROUNDTRIP
360
15D
  0
DICTIONARY
  5
15A
330
30
100
AcDbDictionary
280
     1
281
     1
  3
ACAD_XREC_ROUNDTRIP
360
15B
  0
DICTIONARY
  5
15E
330
32
100
AcDbDictionary
280
     1
281
     1
  3
ACAD_XREC_ROUNDTRIP
360
15F
  0
DICTIONARY
  5
166
330
36
100
AcDbDictionary
280
     1
281
     1
  3
ACAD_XREC_ROUNDTRIP
360
167
  0
DICTIONARY
  5
16E
330
3A
100
AcDbDictionary
280
     1
281
     1
  3
ACAD_XREC_ROUNDTRIP
360
16F
  0
DICTIONARY
  5
162
330
34
100
AcDbDictionary
280
     1
281
     1
  3
ACAD_XREC_ROUNDTRIP
360
163
  0
DICTIONARY
  5
164
330
35
100
AcDbDictionary
280
     1
281
     1
  3
ACAD_XREC_ROUNDTRIP
360
165
  0
DICTIONARY
  5
16C
330
39
100
AcDbDictionary
280
     1
281
     1
  3
ACAD_XREC_ROUNDTRIP
360
16D
  0
DICTIONARY
  5
150
330
2B
100
AcDbDictionary
280
     1
281
     1
  3
ACAD_XREC_ROUNDTRIP
360
151
  0
DICTIONARY
  5
152
330
2C
100
AcDbDictionary
280
     1
281
     1
  3
ACAD_XREC_ROUNDTRIP
360
153
  0
DICTIONARY
  5
154
330
2D
100
AcDbDictionary
280
     1
281
     1
  3
ACAD_XREC_ROUNDTRIP
360
155
  0
DICTIONARY
  5
156
330
2E
100
AcDbDictionary
280
     1
281
     1
  3
ACAD_XREC_ROUNDTRIP
360
157
  0
DICTIONARY
  5
16A
330
38
100
AcDbDictionary
280
     1
281
     1
  3
ACAD_XREC_ROUNDTRIP
360
16B
  0
DICTIONARY
  5
160
330
33
100
AcDbDictionary
280
     1
281
     1
  3
ACAD_XREC_ROUNDTRIP
360
161
  0
DICTIONARY
  5
168
330
37
100
AcDbDictionary
280
     1
281
     1
  3
ACAD_XREC_ROUNDTRIP
360
169
  0
XRECORD
  5
159
102
{ACAD_REACTORS
330
158
102
}
330
158
100
AcDbXrecord
280
     1
102
RTVSPropertyOp0
 70
     1
102
RTVSPropertyOp1
 70
     1
102
RTVSPropertyOp2
 70
     1
102
RTVSPropertyOp3
 70
     1
102
RTVSPropertyOp4
 70
     1
102
RTVSPropertyOp5
 70
     1
102
RTVSPropertyOp6
 70
     1
102
RTVSPropertyOp7
 70
     1
102
RTVSPropertyOp8
 70
     1
102
RTVSPropertyOp9
 70
     1
102
RTVSPropertyOp10
 70
     1
102
RTVSPropertyOp11
 70
     1
102
RTVSPropertyOp12
 70
     1
102
RTVSPropertyOp13
 70
     1
102
RTVSPropertyOp14
 70
     1
102
RTVSPropertyOp15
 70
     1
102
RTVSPropertyOp16
 70
     1
102
RTVSPropertyOp17
 70
     1
102
RTVSPropertyOp18
 70
     1
102
RTVSPropertyOp19
 70
     1
102
RTVSPropertyOp20
 70
     1
102
RTVSPropertyOp21
 70
     1
102
RTVSPropertyOp22
 70
     1
102
RTVSPropertyOp23
 70
     1
102
RTVSPropertyOp24
 70
     1
102
RTVSPropertyOp25
 70
     1
102
RTVSPropertyOp26
 70
     1
102
RTVSPropertyOp27
 70
     1
102
RTVSPropertyOp28
 70
     1
102
RTVSPropertyOp29
 70
     1
102
RTVSPropertyOp30
 70
     1
102
RTVSPropertyOp31
 70
     1
102
RTVSPropertyOp32
 70
     1
  0
XRECORD
  5
15D
102
{ACAD_REACTORS
330
15C
102
}
330
15C
100
AcDbXrecord
280
     1
102
RTVSPropertyOp0
 70
     1
102
RTVSPropertyOp1
 70
     1
102
RTVSPropertyOp2
 70
     1
102
RTVSPropertyOp3
 70
     1
102
RTVSPropertyOp4
 70
     1
102
RTVSPropertyOp5
 70
     1
102
RTVSPropertyOp6
 70
     1
102
RTVSPropertyOp7
 70
     1
102
RTVSPropertyOp8
 70
     1
102
RTVSPropertyOp9
 70
     1
102
RTVSPropertyOp10
 70
     1
102
RTVSPropertyOp11
 70
     1
102
RTVSPropertyOp12
 70
     1
102
RTVSPropertyOp13
 70
     1
102
RTVSPropertyOp14
 70
     1
102
RTVSPropertyOp15
 70
     1
102
RTVSPropertyOp16
 70
     1
102
RTVSPropertyOp17
 70
     1
102
RTVSPropertyOp18
 70
     1
102
RTVSPropertyOp19
 70
     1
102
RTVSPropertyOp20
 70
     1
102
RTVSPropertyOp21
 70
     1
102
RTVSPropertyOp22
 70
     1
102
RTVSPropertyOp23
 70
     1
102
RTVSPropertyOp24
 70
     1
102
RTVSPropertyOp25
 70
     1
102
RTVSPropertyOp26
 70
     1
102
RTVSPropertyOp27
 70
     1
102
RTVSPropertyOp28
 70
     1
102
RTVSPropertyOp29
 70
     1
102
RTVSPropertyOp30
 70
     1
102
RTVSPropertyOp31
 70
     1
102
RTVSPropertyOp32
 70
     1
  0
XRECORD
  5
15B
102
{ACAD_REACTORS
330
15A
102
}
330
15A
100
AcDbXrecord
280
     1
102
RTVSPropertyOp0
 70
     1
102
RTVSPropertyOp1
 70
     1
102
RTVSPropertyOp2
 70
     1
102
RTVSPropertyOp3
 70
     1
102
RTVSPropertyOp4
 70
     1
102
RTVSPropertyOp5
 70
     1
102
RTVSPropertyOp6
 70
     1
102
RTVSPropertyOp7
 70
     1
102
RTVSPropertyOp8
 70
     1
102
RTVSPropertyOp9
 70
     1
102
RTVSPropertyOp10
 70
     1
102
RTVSPropertyOp11
 70
     1
102
RTVSPropertyOp12
 70
     1
102
RTVSPropertyOp13
 70
     1
102
RTVSPropertyOp14
 70
     1
102
RTVSPropertyOp15
 70
     1
102
RTVSPropertyOp16
 70
     1
102
RTVSPropertyOp17
 70
     1
102
RTVSPropertyOp18
 70
     1
102
RTVSPropertyOp19
 70
     1
102
RTVSPropertyOp20
 70
     1
102
RTVSPropertyOp21
 70
     1
102
RTVSPropertyOp22
 70
     1
102
RTVSPropertyOp23
 70
     1
102
RTVSPropertyOp24
 70
     1
102
RTVSPropertyOp25
 70
     1
102
RTVSPropertyOp26
 70
     1
102
RTVSPropertyOp27
 70
     1
102
RTVSPropertyOp28
 70
     1
102
RTVSPropertyOp29
 70
     1
102
RTVSPropertyOp30
 70
     1
102
RTVSPropertyOp31
 70
     1
102
RTVSPropertyOp32
 70
     1
  0
XRECORD
  5
15F
102
{ACAD_REACTORS
330
15E
102
}
330
15E
100
AcDbXrecord
280
     1
102
RTVSPropertyOp0
 70
     1
102
RTVSPropertyOp1
 70
     1
102
RTVSPropertyOp2
 70
     1
102
RTVSPropertyOp3
 70
     1
102
RTVSPropertyOp4
 70
     1
102
RTVSPropertyOp5
 70
     1
102
RTVSPropertyOp6
 70
     1
102
RTVSPropertyOp7
 70
     1
102
RTVSPropertyOp8
 70
     1
102
RTVSPropertyOp9
 70
     1
102
RTVSPropertyOp10
 70
     1
102
RTVSPropertyOp11
 70
     1
102
RTVSPropertyOp12
 70
     1
102
RTVSPropertyOp13
 70
     1
102
RTVSPropertyOp14
 70
     1
102
RTVSPropertyOp15
 70
     1
102
RTVSPropertyOp16
 70
     1
102
RTVSPropertyOp17
 70
     1
102
RTVSPropertyOp18
 70
     1
102
RTVSPropertyOp19
 70
     1
102
RTVSPropertyOp20
 70
     1
102
RTVSPropertyOp21
 70
     1
102
RTVSPropertyOp22
 70
     1
102
RTVSPropertyOp23
 70
     1
102
RTVSPropertyOp24
 70
     1
102
RTVSPropertyOp25
 70
     1
102
RTVSPropertyOp26
 70
     1
102
RTVSPropertyOp27
 70
     1
102
RTVSPropertyOp28
 70
     1
102
RTVSPropertyOp29
 70
     1
102
RTVSPropertyOp30
 70
     1
102
RTVSPropertyOp31
 70
     1
102
RTVSPropertyOp32
 70
     1
  0
XRECORD
  5
167
102
{ACAD_REACTORS
330
166
102
}
330
166
100
AcDbXrecord
280
     1
102
RTVSPropertyOp0
 70
     1
102
RTVSPropertyOp1
 70
     1
102
RTVSPropertyOp2
 70
     1
102
RTVSPropertyOp3
 70
     1
102
RTVSPropertyOp4
 70
     1
102
RTVSPropertyOp5
 70
     1
102
RTVSPropertyOp6
 70
     1
102
RTVSPropertyOp7
 70
     1
102
RTVSPropertyOp8
 70
     1
102
RTVSPropertyOp9
 70
     1
102
RTVSPropertyOp10
 70
     1
102
RTVSPropertyOp11
 70
     1
102
RTVSPropertyOp12
 70
     1
102
RTVSPropertyOp13
 70
     1
102
RTVSPropertyOp14
 70
     1
102
RTVSPropertyOp15
 70
     1
102
RTVSPropertyOp16
 70
     1
102
RTVSPropertyOp17
 70
     1
102
RTVSPropertyOp18
 70
     1
102
RTVSPropertyOp19
 70
     1
102
RTVSPropertyOp20
 70
     1
102
RTVSPropertyOp21
 70
     1
102
RTVSPropertyOp22
 70
     1
102
RTVSPropertyOp23
 70
     1
102
RTVSPropertyOp24
 70
     1
102
RTVSPropertyOp25
 70
     1
102
RTVSPropertyOp26
 70
     1
102
RTVSPropertyOp27
 70
     1
102
RTVSPropertyOp28
 70
     1
102
RTVSPropertyOp29
 70
     1
102
RTVSPropertyOp30
 70
     1
102
RTVSPropertyOp31
 70
     1
102
RTVSPropertyOp32
 70
     1
  0
XRECORD
  5
16F
102
{ACAD_REACTORS
330
16E
102
}
330
16E
100
AcDbXrecord
280
     1
102
RTVSPropertyOp0
 70
     1
102
RTVSPropertyOp1
 70
     1
102
RTVSPropertyOp2
 70
     1
102
RTVSPropertyOp3
 70
     1
102
RTVSPropertyOp4
 70
     1
102
RTVSPropertyOp5
 70
     1
102
RTVSPropertyOp6
 70
     1
102
RTVSPropertyOp7
 70
     1
102
RTVSPropertyOp8
 70
     1
102
RTVSPropertyOp9
 70
     1
102
RTVSPropertyOp10
 70
     1
102
RTVSPropertyOp11
 70
     1
102
RTVSPropertyOp12
 70
     1
102
RTVSPropertyOp13
 70
     1
102
RTVSPropertyOp14
 70
     1
102
RTVSPropertyOp15
 70
     1
102
RTVSPropertyOp16
 70
     1
102
RTVSPropertyOp17
 70
     1
102
RTVSPropertyOp18
 70
     1
102
RTVSPropertyOp19
 70
     1
102
RTVSPropertyOp20
 70
     1
102
RTVSPropertyOp21
 70
     1
102
RTVSPropertyOp22
 70
     1
102
RTVSPropertyOp23
 70
     1
102
RTVSPropertyOp24
 70
     1
102
RTVSPropertyOp25
 70
     1
102
RTVSPropertyOp26
 70
     1
102
RTVSPropertyOp27
 70
     1
102
RTVSPropertyOp28
 70
     1
102
RTVSPropertyOp29
 70
     1
102
RTVSPropertyOp30
 70
     1
102
RTVSPropertyOp31
 70
     1
102
RTVSPropertyOp32
 70
     1
  0
XRECORD
  5
163
102
{ACAD_REACTORS
330
162
102
}
330
162
100
AcDbXrecord
280
     1
102
RTVSPropertyOp0
 70
     1
102
RTVSPropertyOp1
 70
     1
102
RTVSPropertyOp2
 70
     1
102
RTVSPropertyOp3
 70
     1
102
RTVSPropertyOp4
 70
     1
102
RTVSPropertyOp5
 70
     1
102
RTVSPropertyOp6
 70
     1
102
RTVSPropertyOp7
 70
     1
102
RTVSPropertyOp8
 70
     1
102
RTVSPropertyOp9
 70
     1
102
RTVSPropertyOp10
 70
     1
102
RTVSPropertyOp11
 70
     1
102
RTVSPropertyOp12
 70
     1
102
RTVSPropertyOp13
 70
     1
102
RTVSPropertyOp14
 70
     1
102
RTVSPropertyOp15
 70
     1
102
RTVSPropertyOp16
 70
     1
102
RTVSPropertyOp17
 70
     1
102
RTVSPropertyOp18
 70
     1
102
RTVSPropertyOp19
 70
     1
102
RTVSPropertyOp20
 70
     1
102
RTVSPropertyOp21
 70
     1
102
RTVSPropertyOp22
 70
     1
102
RTVSPropertyOp23
 70
     1
102
RTVSPropertyOp24
 70
     1
102
RTVSPropertyOp25
 70
     1
102
RTVSPropertyOp26
 70
     1
102
RTVSPropertyOp27
 70
     1
102
RTVSPropertyOp28
 70
     1
102
RTVSPropertyOp29
 70
     1
102
RTVSPropertyOp30
 70
     1
102
RTVSPropertyOp31
 70
     1
102
RTVSPropertyOp32
 70
     1
  0
XRECORD
  5
165
102
{ACAD_REACTORS
330
164
102
}
330
164
100
AcDbXrecord
280
     1
102
RTVSPropertyOp0
 70
     1
102
RTVSPropertyOp1
 70
     1
102
RTVSPropertyOp2
 70
     1
102
RTVSPropertyOp3
 70
     1
102
RTVSPropertyOp4
 70
     1
102
RTVSPropertyOp5
 70
     1
102
RTVSPropertyOp6
 70
     1
102
RTVSPropertyOp7
 70
     1
102
RTVSPropertyOp8
 70
     1
102
RTVSPropertyOp9
 70
     1
102
RTVSPropertyOp10
 70
     1
102
RTVSPropertyOp11
 70
     1
102
RTVSPropertyOp12
 70
     1
102
RTVSPropertyOp13
 70
     1
102
RTVSPropertyOp14
 70
     1
102
RTVSPropertyOp15
 70
     1
102
RTVSPropertyOp16
 70
     1
102
RTVSPropertyOp17
 70
     1
102
RTVSPropertyOp18
 70
     1
102
RTVSPropertyOp19
 70
     1
102
RTVSPropertyOp20
 70
     1
102
RTVSPropertyOp21
 70
     1
102
RTVSPropertyOp22
 70
     1
102
RTVSPropertyOp23
 70
     1
102
RTVSPropertyOp24
 70
     1
102
RTVSPropertyOp25
 70
     1
102
RTVSPropertyOp26
 70
     1
102
RTVSPropertyOp27
 70
     1
102
RTVSPropertyOp28
 70
     1
102
RTVSPropertyOp29
 70
     1
102
RTVSPropertyOp30
 70
     1
102
RTVSPropertyOp31
 70
     1
102
RTVSPropertyOp32
 70
     1
  0
XRECORD
  5
16D
102
{ACAD_REACTORS
330
16C
102
}
330
16C
100
AcDbXrecord
280
     1
102
RTVSPropertyOp0
 70
     1
102
RTVSPropertyOp1
 70
     1
102
RTVSPropertyOp2
 70
     1
102
RTVSPropertyOp3
 70
     1
102
RTVSPropertyOp4
 70
     1
102
RTVSPropertyOp5
 70
     1
102
RTVSPropertyOp6
 70
     1
102
RTVSPropertyOp7
 70
     1
102
RTVSPropertyOp8
 70
     1
102
RTVSPropertyOp9
 70
     1
102
RTVSPropertyOp10
 70
     1
102
RTVSPropertyOp11
 70
     1
102
RTVSPropertyOp12
 70
     1
102
RTVSPropertyOp13
 70
     1
102
RTVSPropertyOp14
 70
     1
102
RTVSPropertyOp15
 70
     1
102
RTVSPropertyOp16
 70
     1
102
RTVSPropertyOp17
 70
     1
102
RTVSPropertyOp18
 70
     1
102
RTVSPropertyOp19
 70
     1
102
RTVSPropertyOp20
 70
     1
102
RTVSPropertyOp21
 70
     1
102
RTVSPropertyOp22
 70
     1
102
RTVSPropertyOp23
 70
     1
102
RTVSPropertyOp24
 70
     1
102
RTVSPropertyOp25
 70
     1
102
RTVSPropertyOp26
 70
     1
102
RTVSPropertyOp27
 70
     1
102
RTVSPropertyOp28
 70
     1
102
RTVSPropertyOp29
 70
     1
102
RTVSPropertyOp30
 70
     1
102
RTVSPropertyOp31
 70
     1
102
RTVSPropertyOp32
 70
     1
  0
XRECORD
  5
151
102
{ACAD_REACTORS
330
150
102
}
330
150
100
AcDbXrecord
280
     1
102
RTVSPropertyOp0
 70
     1
102
RTVSPropertyOp1
 70
     1
102
RTVSPropertyOp2
 70
     1
102
RTVSPropertyOp3
 70
     1
102
RTVSPropertyOp4
 70
     1
102
RTVSPropertyOp5
 70
     1
102
RTVSPropertyOp6
 70
     1
102
RTVSPropertyOp7
 70
     1
102
RTVSPropertyOp8
 70
     1
102
RTVSPropertyOp9
 70
     1
102
RTVSPropertyOp10
 70
     1
102
RTVSPropertyOp11
 70
     1
102
RTVSPropertyOp12
 70
     1
102
RTVSPropertyOp13
 70
     1
102
RTVSPropertyOp14
 70
     1
102
RTVSPropertyOp15
 70
     1
102
RTVSPropertyOp16
 70
     1
102
RTVSPropertyOp17
 70
     1
102
RTVSPropertyOp18
 70
     1
102
RTVSPropertyOp19
 70
     1
102
RTVSPropertyOp20
 70
     1
102
RTVSPropertyOp21
 70
     1
102
RTVSPropertyOp22
 70
     1
102
RTVSPropertyOp23
 70
     1
102
RTVSPropertyOp24
 70
     1
102
RTVSPropertyOp25
 70
     1
102
RTVSPropertyOp26
 70
     1
102
RTVSPropertyOp27
 70
     1
102
RTVSPropertyOp28
 70
     1
102
RTVSPropertyOp29
 70
     1
102
RTVSPropertyOp30
 70
     1
102
RTVSPropertyOp31
 70
     1
102
RTVSPropertyOp32
 70
     1
  0
XRECORD
  5
153
102
{ACAD_REACTORS
330
152
102
}
330
152
100
AcDbXrecord
280
     1
102
RTVSPropertyOp0
 70
     1
102
RTVSPropertyOp1
 70
     1
102
RTVSPropertyOp2
 70
     1
102
RTVSPropertyOp3
 70
     1
102
RTVSPropertyOp4
 70
     1
102
RTVSPropertyOp5
 70
     1
102
RTVSPropertyOp6
 70
     1
102
RTVSPropertyOp7
 70
     1
102
RTVSPropertyOp8
 70
     1
102
RTVSPropertyOp9
 70
     1
102
RTVSPropertyOp10
 70
     1
102
RTVSPropertyOp11
 70
     1
102
RTVSPropertyOp12
 70
     1
102
RTVSPropertyOp13
 70
     1
102
RTVSPropertyOp14
 70
     1
102
RTVSPropertyOp15
 70
     1
102
RTVSPropertyOp16
 70
     1
102
RTVSPropertyOp17
 70
     1
102
RTVSPropertyOp18
 70
     1
102
RTVSPropertyOp19
 70
     1
102
RTVSPropertyOp20
 70
     1
102
RTVSPropertyOp21
 70
     1
102
RTVSPropertyOp22
 70
     1
102
RTVSPropertyOp23
 70
     1
102
RTVSPropertyOp24
 70
     1
102
RTVSPropertyOp25
 70
     1
102
RTVSPropertyOp26
 70
     1
102
RTVSPropertyOp27
 70
     1
102
RTVSPropertyOp28
 70
     1
102
RTVSPropertyOp29
 70
     1
102
RTVSPropertyOp30
 70
     1
102
RTVSPropertyOp31
 70
     1
102
RTVSPropertyOp32
 70
     1
  0
XRECORD
  5
155
102
{ACAD_REACTORS
330
154
102
}
330
154
100
AcDbXrecord
280
     1
102
RTVSPropertyOp0
 70
     1
102
RTVSPropertyOp1
 70
     1
102
RTVSPropertyOp2
 70
     1
102
RTVSPropertyOp3
 70
     1
102
RTVSPropertyOp4
 70
     1
102
RTVSPropertyOp5
 70
     1
102
RTVSPropertyOp6
 70
     1
102
RTVSPropertyOp7
 70
     1
102
RTVSPropertyOp8
 70
     1
102
RTVSPropertyOp9
 70
     1
102
RTVSPropertyOp10
 70
     1
102
RTVSPropertyOp11
 70
     1
102
RTVSPropertyOp12
 70
     1
102
RTVSPropertyOp13
 70
     1
102
RTVSPropertyOp14
 70
     1
102
RTVSPropertyOp15
 70
     1
102
RTVSPropertyOp16
 70
     1
102
RTVSPropertyOp17
 70
     1
102
RTVSPropertyOp18
 70
     1
102
RTVSPropertyOp19
 70
     1
102
RTVSPropertyOp20
 70
     1
102
RTVSPropertyOp21
 70
     1
102
RTVSPropertyOp22
 70
     1
102
RTVSPropertyOp23
 70
     1
102
RTVSPropertyOp24
 70
     1
102
RTVSPropertyOp25
 70
     1
102
RTVSPropertyOp26
 70
     1
102
RTVSPropertyOp27
 70
     1
102
RTVSPropertyOp28
 70
     1
102
RTVSPropertyOp29
 70
     1
102
RTVSPropertyOp30
 70
     1
102
RTVSPropertyOp31
 70
     1
102
RTVSPropertyOp32
 70
     1
  0
XRECORD
  5
157
102
{ACAD_REACTORS
330
156
102
}
330
156
100
AcDbXrecord
280
     1
102
RTVSPropertyOp0
 70
     1
102
RTVSPropertyOp1
 70
     1
102
RTVSPropertyOp2
 70
     1
102
RTVSPropertyOp3
 70
     1
102
RTVSPropertyOp4
 70
     1
102
RTVSPropertyOp5
 70
     1
102
RTVSPropertyOp6
 70
     1
102
RTVSPropertyOp7
 70
     1
102
RTVSPropertyOp8
 70
     1
102
RTVSPropertyOp9
 70
     1
102
RTVSPropertyOp10
 70
     1
102
RTVSPropertyOp11
 70
     1
102
RTVSPropertyOp12
 70
     1
102
RTVSPropertyOp13
 70
     1
102
RTVSPropertyOp14
 70
     1
102
RTVSPropertyOp15
 70
     1
102
RTVSPropertyOp16
 70
     1
102
RTVSPropertyOp17
 70
     1
102
RTVSPropertyOp18
 70
     1
102
RTVSPropertyOp19
 70
     1
102
RTVSPropertyOp20
 70
     1
102
RTVSPropertyOp21
 70
     1
102
RTVSPropertyOp22
 70
     1
102
RTVSPropertyOp23
 70
     1
102
RTVSPropertyOp24
 70
     1
102
RTVSPropertyOp25
 70
     1
102
RTVSPropertyOp26
 70
     1
102
RTVSPropertyOp27
 70
     1
102
RTVSPropertyOp28
 70
     1
102
RTVSPropertyOp29
 70
     1
102
RTVSPropertyOp30
 70
     1
102
RTVSPropertyOp31
 70
     1
102
RTVSPropertyOp32
 70
     1
  0
XRECORD
  5
16B
102
{ACAD_REACTORS
330
16A
102
}
330
16A
100
AcDbXrecord
280
     1
102
RTVSPropertyOp0
 70
     1
102
RTVSPropertyOp1
 70
     1
102
RTVSPropertyOp2
 70
     1
102
RTVSPropertyOp3
 70
     1
102
RTVSPropertyOp4
 70
     1
102
RTVSPropertyOp5
 70
     1
102
RTVSPropertyOp6
 70
     1
102
RTVSPropertyOp7
 70
     1
102
RTVSPropertyOp8
 70
     1
102
RTVSPropertyOp9
 70
     1
102
RTVSPropertyOp10
 70
     1
102
RTVSPropertyOp11
 70
     1
102
RTVSPropertyOp12
 70
     1
102
RTVSPropertyOp13
 70
     1
102
RTVSPropertyOp14
 70
     1
102
RTVSPropertyOp15
 70
     1
102
RTVSPropertyOp16
 70
     1
102
RTVSPropertyOp17
 70
     1
102
RTVSPropertyOp18
 70
     1
102
RTVSPropertyOp19
 70
     1
102
RTVSPropertyOp20
 70
     1
102
RTVSPropertyOp21
 70
     1
102
RTVSPropertyOp22
 70
     1
102
RTVSPropertyOp23
 70
     1
102
RTVSPropertyOp24
 70
     1
102
RTVSPropertyOp25
 70
     1
102
RTVSPropertyOp26
 70
     1
102
RTVSPropertyOp27
 70
     1
102
RTVSPropertyOp28
 70
     1
102
RTVSPropertyOp29
 70
     1
102
RTVSPropertyOp30
 70
     1
102
RTVSPropertyOp31
 70
     1
102
RTVSPropertyOp32
 70
     1
  0
XRECORD
  5
161
102
{ACAD_REACTORS
330
160
102
}
330
160
100
AcDbXrecord
280
     1
102
RTVSPropertyOp0
 70
     1
102
RTVSPropertyOp1
 70
     1
102
RTVSPropertyOp2
 70
     1
102
RTVSPropertyOp3
 70
     1
102
RTVSPropertyOp4
 70
     1
102
RTVSPropertyOp5
 70
     1
102
RTVSPropertyOp6
 70
     1
102
RTVSPropertyOp7
 70
     1
102
RTVSPropertyOp8
 70
     1
102
RTVSPropertyOp9
 70
     1
102
RTVSPropertyOp10
 70
     1
102
RTVSPropertyOp11
 70
     1
102
RTVSPropertyOp12
 70
     1
102
RTVSPropertyOp13
 70
     1
102
RTVSPropertyOp14
 70
     1
102
RTVSPropertyOp15
 70
     1
102
RTVSPropertyOp16
 70
     1
102
RTVSPropertyOp17
 70
     1
102
RTVSPropertyOp18
 70
     1
102
RTVSPropertyOp19
 70
     1
102
RTVSPropertyOp20
 70
     1
102
RTVSPropertyOp21
 70
     1
102
RTVSPropertyOp22
 70
     1
102
RTVSPropertyOp23
 70
     1
102
RTVSPropertyOp24
 70
     1
102
RTVSPropertyOp25
 70
     1
102
RTVSPropertyOp26
 70
     1
102
RTVSPropertyOp27
 70
     1
102
RTVSPropertyOp28
 70
     1
102
RTVSPropertyOp29
 70
     1
102
RTVSPropertyOp30
 70
     1
102
RTVSPropertyOp31
 70
     1
102
RTVSPropertyOp32
 70
     1
  0
XRECORD
  5
169
102
{ACAD_REACTORS
330
168
102
}
330
168
100
AcDbXrecord
280
     1
102
RTVSPropertyOp0
 70
     1
102
RTVSPropertyOp1
 70
     1
102
RTVSPropertyOp2
 70
     1
102
RTVSPropertyOp3
 70
     1
102
RTVSPropertyOp4
 70
     1
102
RTVSPropertyOp5
 70
     1
102
RTVSPropertyOp6
 70
     1
102
RTVSPropertyOp7
 70
     1
102
RTVSPropertyOp8
 70
     1
102
RTVSPropertyOp9
 70
     1
102
RTVSPropertyOp10
 70
     1
102
RTVSPropertyOp11
 70
     1
102
RTVSPropertyOp12
 70
     1
102
RTVSPropertyOp13
 70
     1
102
RTVSPropertyOp14
 70
     1
102
RTVSPropertyOp15
 70
     1
102
RTVSPropertyOp16
 70
     1
102
RTVSPropertyOp17
 70
     1
102
RTVSPropertyOp18
 70
     1
102
RTVSPropertyOp19
 70
     1
102
RTVSPropertyOp20
 70
     1
102
RTVSPropertyOp21
 70
     1
102
RTVSPropertyOp22
 70
     1
102
RTVSPropertyOp23
 70
     1
102
RTVSPropertyOp24
 70
     1
102
RTVSPropertyOp25
 70
     1
102
RTVSPropertyOp26
 70
     1
102
RTVSPropertyOp27
 70
     1
102
RTVSPropertyOp28
 70
     1
102
RTVSPropertyOp29
 70
     1
102
RTVSPropertyOp30
 70
     1
102
RTVSPropertyOp31
 70
     1
102
RTVSPropertyOp32
 70
     1
  0
ENDSEC
  0
EOF
