  0
SECTION
  2
HEADER
  9
$ACADVER
  1
AC1015
  9
$ACADMAINTVER
 70
     6
  9
$DWGCODEPAGE
  3
ANSI_1252
  9
$INSBASE
 10
0.0
 20
0.0
 30
0.0
  9
$EXTMIN
 10
0.0
 20
0.0
 30
0.0
  9
$EXTMAX
 10
1682.0
 20
2378.0
 30
0.0
  9
$LIMMIN
 10
0.0
 20
0.0
  9
$LIMMAX
 10
1682.0
 20
2378.0
  9
$ORTHOMODE
 70
     0
  9
$REGENMODE
 70
     1
  9
$FILLMODE
 70
     1
  9
$QTEXTMODE
 70
     0
  9
$MIRRTEXT
 70
     1
  9
$LTSCALE
 40
1.0
  9
$ATTMODE
 70
     1
  9
$TEXTSIZE
 40
2.5
  9
$TRACEWID
 40
1.0
  9
$TEXTSTYLE
  7
Standard
  9
$CLAYER
  8
0
  9
$CELTYPE
  6
ByLayer
  9
$CECOLOR
 62
   256
  9
$CELTSCALE
 40
1.0
  9
$DISPSILH
 70
     0
  9
$DIMSCALE
 40
1.0
  9
$DIMASZ
 40
2.5
  9
$DIMEXO
 40
0.625
  9
$DIMDLI
 40
3.75
  9
$DIMRND
 40
0.0
  9
$DIMDLE
 40
0.0
  9
$DIMEXE
 40
1.25
  9
$DIMTP
 40
0.0
  9
$DIMTM
 40
0.0
  9
$DIMTXT
 40
2.5
  9
$DIMCEN
 40
2.5
  9
$DIMTSZ
 40
0.0
  9
$DIMTOL
 70
     0
  9
$DIMLIM
 70
     0
  9
$DIMTIH
 70
     0
  9
$DIMTOH
 70
     0
  9
$DIMSE1
 70
     0
  9
$DIMSE2
 70
     0
  9
$DIMTAD
 70
     1
  9
$DIMZIN
 70
     8
  9
$DIMBLK
  1

  9
$DIMASO
 70
     1
  9
$DIMSHO
 70
     1
  9
$DIMPOST
  1

  9
$DIMAPOST
  1

  9
$DIMALT
 70
     0
  9
$DIMALTD
 70
     3
  9
$DIMALTF
 40
0.0393700787
  9
$DIMLFAC
 40
1.0
  9
$DIMTOFL
 70
     1
  9
$DIMTVP
 40
0.0
  9
$DIMTIX
 70
     0
  9
$DIMSOXD
 70
     0
  9
$DIMSAH
 70
     0
  9
$DIMBLK1
  1

  9
$DIMBLK2
  1

  9
$DIMSTYLE
  2
ISO-25
  9
$DIMCLRD
 70
     0
  9
$DIMCLRE
 70
     0
  9
$DIMCLRT
 70
     0
  9
$DIMTFAC
 40
1.0
  9
$DIMGAP
 40
0.625
  9
$DIMJUST
 70
     0
  9
$DIMSD1
 70
     0
  9
$DIMSD2
 70
     0
  9
$DIMTOLJ
 70
     0
  9
$DIMTZIN
 70
     8
  9
$DIMALTZ
 70
     0
  9
$DIMALTTZ
 70
     0
  9
$DIMUPT
 70
     0
  9
$DIMDEC
 70
     2
  9
$DIMTDEC
 70
     2
  9
$DIMALTU
 70
     2
  9
$DIMALTTD
 70
     3
  9
$DIMTXSTY
  7
Standard
  9
$DIMAUNIT
 70
     0
  9
$DIMADEC
 70
     0
  9
$DIMALTRND
 40
0.0
  9
$DIMAZIN
 70
     0
  9
$DIMDSEP
 70
    44
  9
$DIMATFIT
 70
     3
  9
$DIMFRAC
 70
     0
  9
$DIMLDRBLK
  1

  9
$DIMLUNIT
 70
     2
  9
$DIMLWD
 70
    -2
  9
$DIMLWE
 70
    -2
  9
$DIMTMOVE
 70
     0
  9
$LUNITS
 70
     2
  9
$LUPREC
 70
     4
  9
$SKETCHINC
 40
1.0
  9
$FILLETRAD
 40
10.0
  9
$AUNITS
 70
     0
  9
$AUPREC
 70
     0
  9
$MENU
  1
.
  9
$ELEVATION
 40
0.0
  9
$PELEVATION
 40
0.0
  9
$THICKNESS
 40
0.0
  9
$LIMCHECK
 70
     0
  9
$CHAMFERA
 40
10.0
  9
$CHAMFERB
 40
10.0
  9
$CHAMFERC
 40
20.0
  9
$CHAMFERD
 40
0.0
  9
$SKPOLY
 70
     0
  9
$TDCREATE
 40
2455544.355249363
  9
$TDUCREATE
 40
2455544.313582697
  9
$TDUPDATE
 40
2455544.355249375
  9
$TDUUPDATE
 40
2455544.313582708
  9
$TDINDWG
 40
0.0000000116
  9
$TDUSRTIMER
 40
0.0000000116
  9
$USRTIMER
 70
     1
  9
$ANGBASE
 50
0.0
  9
$ANGDIR
 70
     0
  9
$PDMODE
 70
     0
  9
$PDSIZE
 40
0.0
  9
$PLINEWID
 40
0.0
  9
$SPLFRAME
 70
     0
  9
$SPLINETYPE
 70
     6
  9
$SPLINESEGS
 70
     8
  9
$HANDSEED
  5
F6
  9
$SURFTAB1
 70
     6
  9
$SURFTAB2
 70
     6
  9
$SURFTYPE
 70
     6
  9
$SURFU
 70
     6
  9
$SURFV
 70
     6
  9
$UCSBASE
  2

  9
$UCSNAME
  2

  9
$UCSORG
 10
0.0
 20
0.0
 30
0.0
  9
$UCSXDIR
 10
1.0
 20
0.0
 30
0.0
  9
$UCSYDIR
 10
0.0
 20
1.0
 30
0.0
  9
$UCSORTHOREF
  2

  9
$UCSORTHOVIEW
 70
     0
  9
$UCSORGTOP
 10
0.0
 20
0.0
 30
0.0
  9
$UCSORGBOTTOM
 10
0.0
 20
0.0
 30
0.0
  9
$UCSORGLEFT
 10
0.0
 20
0.0
 30
0.0
  9
$UCSORGRIGHT
 10
0.0
 20
0.0
 30
0.0
  9
$UCSORGFRONT
 10
0.0
 20
0.0
 30
0.0
  9
$UCSORGBACK
 10
0.0
 20
0.0
 30
0.0
  9
$PUCSBASE
  2

  9
$PUCSNAME
  2

  9
$PUCSORG
 10
0.0
 20
0.0
 30
0.0
  9
$PUCSXDIR
 10
1.0
 20
0.0
 30
0.0
  9
$PUCSYDIR
 10
0.0
 20
1.0
 30
0.0
  9
$PUCSORTHOREF
  2

  9
$PUCSORTHOVIEW
 70
     0
  9
$PUCSORGTOP
 10
0.0
 20
0.0
 30
0.0
  9
$PUCSORGBOTTOM
 10
0.0
 20
0.0
 30
0.0
  9
$PUCSORGLEFT
 10
0.0
 20
0.0
 30
0.0
  9
$PUCSORGRIGHT
 10
0.0
 20
0.0
 30
0.0
  9
$PUCSORGFRONT
 10
0.0
 20
0.0
 30
0.0
  9
$PUCSORGBACK
 10
0.0
 20
0.0
 30
0.0
  9
$USERI1
 70
     0
  9
$USERI2
 70
     0
  9
$USERI3
 70
     0
  9
$USERI4
 70
     0
  9
$USERI5
 70
     0
  9
$USERR1
 40
0.0
  9
$USERR2
 40
0.0
  9
$USERR3
 40
0.0
  9
$USERR4
 40
0.0
  9
$USERR5
 40
0.0
  9
$WORLDVIEW
 70
     1
  9
$SHADEDGE
 70
     3
  9
$SHADEDIF
 70
    70
  9
$TILEMODE
 70
     1
  9
$MAXACTVP
 70
    64
  9
$PINSBASE
 10
0.0
 20
0.0
 30
0.0
  9
$PLIMCHECK
 70
     0
  9
$PEXTMIN
 10
0.0
 20
0.0
 30
0.0
  9
$PEXTMAX
 10
1682.0
 20
2378.0
 30
0.0
  9
$PLIMMIN
 10
0.0
 20
0.0
  9
$PLIMMAX
 10
1682.0
 20
2378.0
  9
$UNITMODE
 70
     0
  9
$VISRETAIN
 70
     1
  9
$PLINEGEN
 70
     0
  9
$PSLTSCALE
 70
     1
  9
$TREEDEPTH
 70
  3020
  9
$CMLSTYLE
  2
Standard
  9
$CMLJUST
 70
     0
  9
$CMLSCALE
 40
20.0
  9
$PROXYGRAPHICS
 70
     1
  9
$MEASUREMENT
 70
     1
  9
$CELWEIGHT
370
    -1
  9
$ENDCAPS
280
     0
  9
$JOINSTYLE
280
     0
  9
$LWDISPLAY
290
     0
  9
$INSUNITS
 70
     4
  9
$HYPERLINKBASE
  1

  9
$STYLESHEET
  1

  9
$XEDIT
290
     1
  9
$CEPSNTYPE
380
     0
  9
$PSTYLEMODE
290
     1
  9
$FINGERPRINTGUID
  2
{48DD783B-715D-448A-8356-534FC0DEB567}
  9
$VERSIONGUID
  2
{FAEB1C32-E019-11D5-929B-00C0DF256EC4}
  9
$EXTNAMES
290
     1
  9
$PSVPSCALE
 40
0.0
  9
$OLESTARTUP
290
     0
  0
ENDSEC
  0
SECTION
  2
CLASSES
  0
CLASS
  1
ACDBDICTIONARYWDFLT
  2
AcDbDictionaryWithDefault
  3
ObjectDBX Classes
 90
        0
280
     0
281
     0
  0
CLASS
  1
VISUALSTYLE
  2
AcDbVisualStyle
  3
ObjectDBX Classes
 90
     4095
280
     0
281
     0
  0
CLASS
  1
SCALE
  2
AcDbScale
  3
ObjectDBX Classes
 90
     1153
280
     0
281
     0
  0
CLASS
  1
DICTIONARYVAR
  2
AcDbDictionaryVar
  3
ObjectDBX Classes
 90
        0
280
     0
281
     0
  0
CLASS
  1
ACDBPLACEHOLDER
  2
AcDbPlaceHolder
  3
ObjectDBX Classes
 90
        0
280
     0
281
     0
  0
CLASS
  1
LAYOUT
  2
AcDbLayout
  3
ObjectDBX Classes
 90
        0
280
     0
281
     0
  0
ENDSEC
  0
SECTION
  2
TABLES
  0
TABLE
  2
VPORT
  5
8
330
0
100
AcDbSymbolTable
 70
     1
  0
VPORT
  5
29
330
8
100
AcDbSymbolTableRecord
100
AcDbViewportTableRecord
  2
*Active
 70
     0
 10
0.0
 20
0.0
 11
1.0
 21
1.0
 12
344.1869158879
 22
148.5
 13
0.0
 23
0.0
 14
10.0
 24
10.0
 15
10.0
 25
10.0
 16
0.0
 26
0.0
 36
1.0
 17
0.0
 27
0.0
 37
0.0
 40
297.0
 41
1.9729729729
 42
50.0
 43
0.0
 44
0.0
 50
0.0
 51
0.0
 71
     0
 72
   100
 73
     1
 74
     3
 75
     0
 76
     0
 77
     0
 78
     0
281
     0
 65
     1
110
0.0
120
0.0
130
0.0
111
1.0
121
0.0
131
0.0
112
0.0
122
1.0
132
0.0
 79
     0
146
0.0
  0
ENDTAB
  0
TABLE
  2
LTYPE
  5
5
330
0
100
AcDbSymbolTable
 70
     2
  0
LTYPE
  5
14
330
5
100
AcDbSymbolTableRecord
100
AcDbLinetypeTableRecord
  2
ByBlock
 70
     0
  3

 72
    65
 73
     0
 40
0.0
  0
LTYPE
  5
15
330
5
100
AcDbSymbolTableRecord
100
AcDbLinetypeTableRecord
  2
ByLayer
 70
     0
  3

 72
    65
 73
     0
 40
0.0
  0
LTYPE
  5
16
330
5
100
AcDbSymbolTableRecord
100
AcDbLinetypeTableRecord
  2
Continuous
 70
     0
  3
Solid line
 72
    65
 73
     0
 40
0.0
  0
LTYPE
  5
60
330
5
100
AcDbSymbolTableRecord
100
AcDbLinetypeTableRecord
  2
CENTER2
 70
     0
  3
Center (.5x) ___ _ ___ _ ___ _ ___ _ ___ _ ___
 72
    65
 73
     4
 40
28.575
 49
19.05
 74
     4
 75
     0
340
0
 46
0.0
 50
0.0
 44
0.0
 45
0.0
 49
-3.175
 74
     4
 75
     0
340
0
 46
0.0
 50
0.0
 44
0.0
 45
0.0
 49
3.175
 74
     4
 75
     0
340
0
 46
0.0
 50
0.0
 44
0.0
 45
0.0
 49
-3.175
 74
     4
 75
     0
340
0
 46
0.0
 50
0.0
 44
0.0
 45
0.0
  0
ENDTAB
  0
TABLE
  2
LAYER
  5
2
330
0
100
AcDbSymbolTable
 70
     4
  0
LAYER
  5
10
330
2
100
AcDbSymbolTableRecord
100
AcDbLayerTableRecord
  2
0
 70
     0
 62
     7
  6
Continuous
370
    -3
390
F
  0
LAYER
  5
5D
330
2
100
AcDbSymbolTableRecord
100
AcDbLayerTableRecord
  2
Default
 70
     0
 62
     7
  6
Continuous
370
    -3
390
F
  0
LAYER
  5
77
330
2
100
AcDbSymbolTableRecord
100
AcDbLayerTableRecord
  2
02201038_ROSETTE
 70
     0
 62
     7
  6
Continuous
370
    -3
390
F
  0
LAYER
  5
7C
330
2
100
AcDbSymbolTableRecord
100
AcDbLayerTableRecord
  2
03781031_BRAUSEA
 70
     0
 62
     7
  6
Continuous
370
    -3
390
F
  0
ENDTAB
  0
TABLE
  2
STYLE
  5
3
330
0
100
AcDbSymbolTable
 70
     2
  0
STYLE
  5
11
330
3
100
AcDbSymbolTableRecord
100
AcDbTextStyleTableRecord
  2
Standard
 70
     0
 40
0.0
 41
1.0
 50
0.0
 71
     0
 42
2.5
  3
txt
  4

  0
STYLE
  5
E5
330
3
100
AcDbSymbolTableRecord
100
AcDbTextStyleTableRecord
  2
SEACAD_seiso_ttf
 70
     0
 40
0.0
 41
1.0
 50
0.0
 71
     0
 42
0.2
  3
seiso.ttf
  4

  0
ENDTAB
  0
TABLE
  2
VIEW
  5
6
330
0
100
AcDbSymbolTable
 70
     0
  0
ENDTAB
  0
TABLE
  2
UCS
  5
7
330
0
100
AcDbSymbolTable
 70
     0
  0
ENDTAB
  0
TABLE
  2
APPID
  5
9
330
0
100
AcDbSymbolTable
 70
     1
  0
APPID
  5
12
330
9
100
AcDbSymbolTableRecord
100
AcDbRegAppTableRecord
  2
ACAD
 70
     0
  0
ENDTAB
  0
TABLE
  2
DIMSTYLE
  5
A
330
0
100
AcDbSymbolTable
 70
     1
100
AcDbDimStyleTable
  0
DIMSTYLE
105
27
330
A
100
AcDbSymbolTableRecord
100
AcDbDimStyleTableRecord
  2
ISO-25
 70
     0
 41
2.5
 42
0.625
 43
3.75
 44
1.25
 73
     0
 74
     0
 77
     1
 78
     8
140
2.5
141
2.5
143
0.0393700787
147
0.625
171
     3
172
     1
271
     2
272
     2
274
     3
278
    44
283
     0
284
     8
340
11
  0
ENDTAB
  0
TABLE
  2
BLOCK_RECORD
  5
1
330
0
100
AcDbSymbolTable
 70
     7
  0
BLOCK_RECORD
  5
1F
330
1
100
AcDbSymbolTableRecord
100
AcDbBlockTableRecord
  2
*Model_Space
340
22
  0
BLOCK_RECORD
  5
1B
330
1
100
AcDbSymbolTableRecord
100
AcDbBlockTableRecord
  2
*Paper_Space
340
1E
  0
BLOCK_RECORD
  5
5E
330
1
100
AcDbSymbolTableRecord
100
AcDbBlockTableRecord
  2
SEANNOT_GROUP
340
0
102
{BLKREFS
331
5F
102
}
  0
BLOCK_RECORD
  5
69
330
1
100
AcDbSymbolTableRecord
100
AcDbBlockTableRecord
  2
SEANNOT_GROUP1
340
0
102
{BLKREFS
331
6A
102
}
  0
BLOCK_RECORD
  5
6F
330
1
100
AcDbSymbolTableRecord
100
AcDbBlockTableRecord
  2
SEANNOT_GROUP2
340
0
102
{BLKREFS
331
70
102
}
  0
BLOCK_RECORD
  5
75
330
1
100
AcDbSymbolTableRecord
100
AcDbBlockTableRecord
  2
SE
340
0
102
{BLKREFS
331
76
102
}
  0
BLOCK_RECORD
  5
94
330
1
100
AcDbSymbolTableRecord
100
AcDbBlockTableRecord
  2
SE1
340
0
102
{BLKREFS
331
95
102
}
  0
BLOCK_RECORD
  5
BF
330
1
100
AcDbSymbolTableRecord
100
AcDbBlockTableRecord
  2
SE2
340
0
102
{BLKREFS
331
C0
102
}
  0
ENDTAB
  0
ENDSEC
  0
SECTION
  2
BLOCKS
  0
BLOCK
  5
20
330
1F
100
AcDbEntity
  8
0
100
AcDbBlockBegin
  2
*Model_Space
 70
     0
 10
0.0
 20
0.0
 30
0.0
  3
*Model_Space
  1

  0
ENDBLK
  5
21
330
1F
100
AcDbEntity
  8
0
100
AcDbBlockEnd
  0
BLOCK
  5
1C
330
1B
100
AcDbEntity
 67
     1
  8
0
100
AcDbBlockBegin
  2
*Paper_Space
 70
     0
 10
0.0
 20
0.0
 30
0.0
  3
*Paper_Space
  1

  0
ENDBLK
  5
1D
330
1B
100
AcDbEntity
 67
     1
  8
0
100
AcDbBlockEnd
  0
BLOCK
  5
67
330
5E
100
AcDbEntity
  8
0
100
AcDbBlockBegin
  2
SEANNOT_GROUP
 70
     0
 10
0.0
 20
0.0
 30
0.0
  3
SEANNOT_GROUP
  1

  0
LINE
  5
61
330
5E
100
AcDbEntity
  8
Default
  6
CENTER2
 62
     7
100
AcDbLine
 10
58.8478239032
 20
293.4926157331
 30
0.0
 11
18.8478247973
 21
293.4926157331
 31
0.0
  0
LINE
  5
62
330
5E
100
AcDbEntity
  8
Default
  6
CENTER2
 62
     7
100
AcDbLine
 10
38.8478243502
 20
313.492615286
 30
0.0
 11
38.8478243502
 21
273.4926161801
 31
0.0
  0
LINE
  5
63
330
5E
100
AcDbEntity
  8
Default
  6
CENTER2
 62
     7
100
AcDbLine
 10
63.8478237914
 20
293.4926157331
 30
0.0
 11
74.8456487004
 21
293.4926157331
 31
0.0
  0
LINE
  5
64
330
5E
100
AcDbEntity
  8
Default
  6
CENTER2
 62
     7
100
AcDbLine
 10
38.8478243502
 20
318.4926151743
 30
0.0
 11
38.8478243502
 21
329.4904400833
 31
0.0
  0
LINE
  5
65
330
5E
100
AcDbEntity
  8
Default
  6
CENTER2
 62
     7
100
AcDbLine
 10
13.847824909
 20
293.4926157331
 30
0.0
 11
2.85
 21
293.4926157331
 31
0.0
  0
LINE
  5
66
330
5E
100
AcDbEntity
  8
Default
  6
CENTER2
 62
     7
100
AcDbLine
 10
38.8478243502
 20
268.4926162919
 30
0.0
 11
38.8478243502
 21
257.4947913828
 31
0.0
  0
ENDBLK
  5
68
330
5E
100
AcDbEntity
  8
0
100
AcDbBlockEnd
  0
BLOCK
  5
6D
330
69
100
AcDbEntity
  8
0
100
AcDbBlockBegin
  2
SEANNOT_GROUP1
 70
     0
 10
0.0
 20
0.0
 30
0.0
  3
SEANNOT_GROUP1
  1

  0
LINE
  5
6B
330
69
100
AcDbEntity
  8
Default
  6
CENTER2
 62
     7
100
AcDbLine
 10
168.2456482534
 20
293.4926157331
 30
0.0
 11
128.2456491475
 21
293.4926157331
 31
0.0
  0
LINE
  5
6C
330
69
100
AcDbEntity
  8
Default
  6
CENTER2
 62
     7
100
AcDbLine
 10
148.2456487004
 20
313.492615286
 30
0.0
 11
148.2456487004
 21
273.4926161801
 31
0.0
  0
ENDBLK
  5
6E
330
69
100
AcDbEntity
  8
0
100
AcDbBlockEnd
  0
BLOCK
  5
73
330
6F
100
AcDbEntity
  8
0
100
AcDbBlockBegin
  2
SEANNOT_GROUP2
 70
     0
 10
0.0
 20
0.0
 30
0.0
  3
SEANNOT_GROUP2
  1

  0
LINE
  5
71
330
6F
100
AcDbEntity
  8
Default
  6
CENTER2
 62
     7
100
AcDbLine
 10
58.8478239032
 20
173.6572647331
 30
0.0
 11
18.8478247973
 21
173.6572647331
 31
0.0
  0
LINE
  5
72
330
6F
100
AcDbEntity
  8
Default
  6
CENTER2
 62
     7
100
AcDbLine
 10
38.8478243502
 20
193.657264286
 30
0.0
 11
38.8478243502
 21
153.6572651801
 31
0.0
  0
ENDBLK
  5
74
330
6F
100
AcDbEntity
  8
0
100
AcDbBlockEnd
  0
BLOCK
  5
92
330
75
100
AcDbEntity
  8
0
100
AcDbBlockBegin
  2
SE
 70
     0
 10
0.0
 20
0.0
 30
0.0
  3
SE
  1

  0
ARC
  5
78
330
75
100
AcDbEntity
  8
02201038_ROSETTE
  6
Continuous
 62
     7
100
AcDbCircle
 10
38.8478243502
 20
293.4926157331
 30
0.0
 40
28.40666081013948
100
AcDbArc
 50
294.9884881201
 51
0.0
  0
ARC
  5
79
330
75
100
AcDbEntity
  8
02201038_ROSETTE
  6
Continuous
 62
     7
100
AcDbCircle
 10
38.8478243502
 20
293.4926157331
 30
0.0
 40
28.40666081013948
100
AcDbArc
 50
0.0
 51
245.0115118799
  0
ARC
  5
7A
330
75
100
AcDbEntity
  8
02201038_ROSETTE
  6
Continuous
 62
     7
100
AcDbCircle
 10
38.8478243502
 20
293.4926157331
 30
0.0
 40
32.49782435021543
100
AcDbArc
 50
291.6697098752
 51
0.0
  0
ARC
  5
7B
330
75
100
AcDbEntity
  8
02201038_ROSETTE
  6
Continuous
 62
     7
100
AcDbCircle
 10
38.8478243502
 20
293.4926157331
 30
0.0
 40
32.49782435021543
100
AcDbArc
 50
0.0
 51
248.3302901248
  0
ARC
  5
7D
330
75
100
AcDbEntity
  8
03781031_BRAUSEA
  6
Continuous
 62
     7
100
AcDbCircle
 10
38.8478243502
 20
293.4926157331
 30
0.0
 40
9.999999999999998
100
AcDbArc
 50
0.0
 51
180.0
  0
LINE
  5
7E
330
75
100
AcDbEntity
  8
03781031_BRAUSEA
  6
Continuous
 62
     7
100
AcDbLine
 10
25.3478248146
 20
285.6983868309
 30
0.0
 11
25.3478243502
 21
301.2868443671
 31
0.0
  0
LINE
  5
7F
330
75
100
AcDbEntity
  8
03781031_BRAUSEA
  6
Continuous
 62
     7
100
AcDbLine
 10
25.3478243502
 20
301.2868443671
 30
0.0
 11
38.8478243502
 21
309.0810730012
 31
0.0
  0
LINE
  5
80
330
75
100
AcDbEntity
  8
03781031_BRAUSEA
  6
Continuous
 62
     7
100
AcDbLine
 10
38.8478243502
 20
309.0810730012
 30
0.0
 11
52.3478243502
 21
301.2868443671
 31
0.0
  0
LINE
  5
81
330
75
100
AcDbEntity
  8
03781031_BRAUSEA
  6
Continuous
 62
     7
100
AcDbLine
 10
52.3478243502
 20
301.2868443671
 30
0.0
 11
52.3478243502
 21
285.698387099
 31
0.0
  0
LINE
  5
82
330
75
100
AcDbEntity
  8
03781031_BRAUSEA
  6
Continuous
 62
     7
100
AcDbLine
 10
52.3478243502
 20
285.698387099
 30
0.0
 11
48.8489088653
 21
283.6782873019
 31
0.0
  0
LINE
  5
83
330
75
100
AcDbEntity
  8
03781031_BRAUSEA
  6
Continuous
 62
     7
100
AcDbLine
 10
28.8473595515
 20
283.6779295085
 30
0.0
 11
25.3478248146
 21
285.6983868309
 31
0.0
  0
ELLIPSE
  5
84
330
75
100
AcDbEntity
  8
03781031_BRAUSEA
  6
Continuous
 62
     7
100
AcDbEllipse
 10
38.8478243502
 20
253.6620308939
 30
0.0
 11
-6.50000031101999
 21
0.0
 31
0.0
210
0.0
220
0.0
230
1.0
 40
0.3420201622
 41
0.0
 42
6.283185307179586
  0
ELLIPSE
  5
85
330
75
100
AcDbEntity
  8
03781031_BRAUSEA
  6
Continuous
 62
     7
100
AcDbEllipse
 10
38.8478243502
 20
254.4904967102
 30
0.0
 11
-11.50000032627858
 21
0.0
 31
0.0
210
0.0
220
0.0
230
1.0
 40
0.3420201622
 41
0.0
 42
6.283185307179586
  0
ELLIPSE
  5
86
330
75
100
AcDbEntity
  8
03781031_BRAUSEA
  6
Continuous
 62
     7
100
AcDbEllipse
 10
38.8478243502
 20
262.0080376042
 30
0.0
 11
-11.50000001608467
 21
0.0
 31
0.0
210
0.0
220
0.0
230
1.0
 40
0.3420201622
 41
3.141592653589793
 42
6.283185307179586
  0
ELLIPSE
  5
87
330
75
100
AcDbEntity
  8
03781031_BRAUSEA
  6
Continuous
 62
     7
100
AcDbEllipse
 10
38.8478243502
 20
262.0080378985
 30
0.0
 11
-12.00000063959319
 21
6.938893903907228E-15
 31
0.0
210
0.0
220
0.0
230
1.0
 40
0.3420201622
 41
0.0
 42
0.2896871228722633
  0
ELLIPSE
  5
88
330
75
100
AcDbEntity
  8
03781031_BRAUSEA
  6
Continuous
 62
     7
100
AcDbEllipse
 10
38.8478243502
 20
262.0080378985
 30
0.0
 11
-12.00000063959319
 21
6.938893903907228E-15
 31
0.0
210
0.0
220
0.0
230
1.0
 40
0.3420201622
 41
2.85190553071753
 42
6.283185307179586
  0
ELLIPSE
  5
89
330
75
100
AcDbEntity
  8
03781031_BRAUSEA
  6
Continuous
 62
     7
100
AcDbEllipse
 10
38.8478243502
 20
270.011103902
 30
0.0
 11
-12.0000006497867
 21
3.469446951953615E-15
 31
0.0
210
0.0
220
0.0
230
1.0
 40
0.3420201622
 41
3.141621799095484
 42
6.283156161673895
  0
LINE
  5
8A
330
75
100
AcDbEntity
  8
03781031_BRAUSEA
  6
Continuous
 62
     7
100
AcDbLine
 10
28.8478243502
 20
293.4926157331
 30
0.0
 11
28.8478243502
 21
277.0431193162
 31
0.0
  0
LINE
  5
8B
330
75
100
AcDbEntity
  8
03781031_BRAUSEA
  6
Continuous
 62
     7
100
AcDbLine
 10
48.8478243502
 20
277.0431193162
 30
0.0
 11
48.8478243502
 21
293.4926157331
 31
0.0
  0
ARC
  5
8C
330
75
100
AcDbEntity
  8
03781031_BRAUSEA
  6
Continuous
 62
     7
100
AcDbCircle
 10
60.4812459784
 20
276.9747516804
 30
0.0
 40
11.62858714893585
100
AcDbArc
 50
179.6631096743
 51
211.6054904871
  0
ARC
  5
8D
330
75
100
AcDbEntity
  8
03781031_BRAUSEA
  6
Continuous
 62
     7
100
AcDbCircle
 10
17.2320639422
 20
276.972557197
 30
0.0
 40
11.61125652731626
100
AcDbArc
 50
328.341695453
 51
0.3503952167
  0
LINE
  5
8E
330
75
100
AcDbEntity
  8
03781031_BRAUSEA
  6
Continuous
 62
     7
100
AcDbLine
 10
50.3478245214
 20
254.4904967102
 30
0.0
 11
50.3478245214
 21
262.0080376042
 31
0.0
  0
LINE
  5
8F
330
75
100
AcDbEntity
  8
03781031_BRAUSEA
  6
Continuous
 62
     7
100
AcDbLine
 10
27.347824179
 20
262.0080376042
 30
0.0
 11
27.347824179
 21
254.4904967102
 31
0.0
  0
LINE
  5
90
330
75
100
AcDbEntity
  8
03781031_BRAUSEA
  6
Continuous
 62
     7
100
AcDbLine
 10
50.8478249949
 20
262.0080378985
 30
0.0
 11
50.8478249949
 21
270.011103902
 31
0.0
  0
LINE
  5
91
330
75
100
AcDbEntity
  8
03781031_BRAUSEA
  6
Continuous
 62
     7
100
AcDbLine
 10
26.8478237055
 20
270.011103902
 30
0.0
 11
26.8478237055
 21
262.0080378985
 31
0.0
  0
ENDBLK
  5
93
330
75
100
AcDbEntity
  8
0
100
AcDbBlockEnd
  0
BLOCK
  5
BD
330
94
100
AcDbEntity
  8
0
100
AcDbBlockBegin
  2
SE1
 70
     0
 10
0.0
 20
0.0
 30
0.0
  3
SE1
  1

  0
LINE
  5
96
330
94
100
AcDbEntity
  8
02201038_ROSETTE
  6
Continuous
 62
     7
100
AcDbLine
 10
150.7655613539
 20
265.0859549229
 30
0.0
 11
150.7655613539
 21
321.8992765432
 31
0.0
  0
LINE
  5
97
330
94
100
AcDbEntity
  8
02201038_ROSETTE
  6
Continuous
 62
     7
100
AcDbLine
 10
148.2456487004
 20
260.9947913828
 30
0.0
 11
148.2456487004
 21
325.9904400833
 31
0.0
  0
ARC
  5
98
330
94
100
AcDbEntity
  8
02201038_ROSETTE
  6
Continuous
 62
     7
100
AcDbCircle
 10
28.5116487004
 20
291.1432157331
 30
0.0
 40
125.0000000000086
100
AcDbArc
 50
347.9679925342
 51
355.8019186647
  0
ARC
  5
99
330
94
100
AcDbEntity
  8
02201038_ROSETTE
  6
Continuous
 62
     7
100
AcDbCircle
 10
28.5116487004
 20
295.8420157331
 30
0.0
 40
125.0000000000086
100
AcDbArc
 50
4.1980813353
 51
12.0320074658
  0
ARC
  5
9A
330
94
100
AcDbEntity
  8
02201038_ROSETTE
  6
Continuous
 62
     7
100
AcDbCircle
 10
143.4562487004
 20
266.7664157331
 30
0.0
 40
7.500000000000446
100
AcDbArc
 50
309.6865113452
 51
347.0523063135
  0
ARC
  5
9B
330
94
100
AcDbEntity
  8
02201038_ROSETTE
  6
Continuous
 62
     7
100
AcDbCircle
 10
143.4562487004
 20
320.2188157331
 30
0.0
 40
7.500000000000442
100
AcDbArc
 50
12.9476936865
 51
50.3134886548
  0
LINE
  5
9C
330
94
100
AcDbEntity
  8
03781031_BRAUSEA
  6
Continuous
 62
     7
100
AcDbLine
 10
153.3247437004
 20
281.9926157331
 30
0.0
 11
153.3247437004
 21
304.9926157331
 31
0.0
  0
ARC
  5
9D
330
94
100
AcDbEntity
  8
03781031_BRAUSEA
  6
Continuous
 62
     7
100
AcDbCircle
 10
137.1532251582
 20
293.492615599
 30
0.0
 40
23.23850735238013
100
AcDbArc
 50
340.4030490148
 51
19.5969509852
  0
LINE
  5
9E
330
94
100
AcDbEntity
  8
03781031_BRAUSEA
  6
Continuous
 62
     7
100
AcDbLine
 10
159.0456490048
 20
301.2868443671
 30
0.0
 11
154.0456487477
 21
301.2868443671
 31
0.0
  0
SPLINE
  5
9F
330
94
100
AcDbEntity
  8
03781031_BRAUSEA
  6
Continuous
 62
     7
100
AcDbSpline
210
0.0
220
0.0
230
1.0
 70
     8
 71
     3
 72
    14
 73
    10
 74
     0
 42
0.000000000640522
 43
0.0000000001
 40
0.0
 40
0.0
 40
0.0
 40
0.0
 40
0.25
 40
0.25
 40
0.4999999999999999
 40
0.4999999999999999
 40
0.75
 40
0.75
 40
1.0
 40
1.0
 40
1.0
 40
1.0
 10
154.0456487477076
 20
301.2868443671253
 30
0.0
 10
153.9310870481459
 20
299.9874204971138
 30
0.0
 10
153.8378106357838
 20
298.6842953768953
 30
0.0
 10
153.710758576
 20
296.0823816815202
 30
0.0
 10
153.6772366019241
 20
294.7822668684648
 30
0.0
 10
153.6775596325766
 20
292.1839278310648
 30
0.0
 10
153.7113928305068
 20
290.885703275374
 30
0.0
 10
153.8385047544423
 20
288.2909224448964
 30
0.0
 10
153.9313917287
 20
286.9943551759779
 30
0.0
 10
154.0456487004309
 20
285.6983876352451
 30
0.0
  0
LINE
  5
A0
330
94
100
AcDbEntity
  8
03781031_BRAUSEA
  6
Continuous
 62
     7
100
AcDbLine
 10
154.0456487004
 20
285.6983876352
 30
0.0
 11
159.0456490048
 21
285.6983868309
 31
0.0
  0
LINE
  5
A1
330
94
100
AcDbEntity
  8
03781031_BRAUSEA
  6
Continuous
 62
     7
100
AcDbLine
 10
159.0456490048
 20
309.0810730012
 30
0.0
 11
154.0456487477
 21
309.0810730012
 31
0.0
  0
ARC
  5
A2
330
94
100
AcDbEntity
  8
03781031_BRAUSEA
  6
Continuous
 62
     7
100
AcDbCircle
 10
174.6640986248
 20
305.1839586842
 30
0.0
 40
20.98351675324359
100
AcDbArc
 50
169.2967326828
 51
190.7032673172
  0
SPLINE
  5
A3
330
94
100
AcDbEntity
  8
03781031_BRAUSEA
  6
Continuous
 62
     7
100
AcDbSpline
210
0.0
220
0.0
230
1.0
 70
     8
 71
     3
 72
    12
 73
     8
 74
     0
 42
0.0000000011865139
 43
0.0000000001
 40
0.0
 40
0.0
 40
0.0
 40
0.0
 40
0.5000000000000001
 40
0.5000000000000001
 40
0.75
 40
0.75
 40
1.0
 40
1.0
 40
1.0
 40
1.0
 10
159.0456490047894
 20
301.2868443671253
 30
0.0
 10
159.6720310291721
 20
302.5610810133151
 30
0.0
 10
160.4059295099981
 20
303.8287244094009
 30
0.0
 10
160.427605490241
 20
305.7963677373462
 30
0.0
 10
160.2537559169683
 20
306.4683973343106
 30
0.0
 10
159.7158174108165
 20
307.7819820032437
 30
0.0
 10
159.3657558334828
 20
308.4298858376899
 30
0.0
 10
159.0456490047894
 20
309.0810730011852
 30
0.0
  0
LINE
  5
A4
330
94
100
AcDbEntity
  8
03781031_BRAUSEA
  6
Continuous
 62
     7
100
AcDbLine
 10
159.0456490048
 20
277.9041584649
 30
0.0
 11
154.0456487477
 21
277.9041584649
 31
0.0
  0
ARC
  5
A5
330
94
100
AcDbEntity
  8
03781031_BRAUSEA
  6
Continuous
 62
     7
100
AcDbCircle
 10
174.6641034045
 20
281.8012731752
 30
0.0
 40
20.9835215228715
100
AcDbArc
 50
169.2967347469
 51
190.7032659482
  0
SPLINE
  5
A6
330
94
100
AcDbEntity
  8
03781031_BRAUSEA
  6
Continuous
 62
     7
100
AcDbSpline
210
0.0
220
0.0
230
1.0
 70
     8
 71
     3
 72
    12
 73
     8
 74
     0
 42
0.000000001186514
 43
0.0000000001
 40
0.0
 40
0.0
 40
0.0
 40
0.0
 40
0.5
 40
0.5
 40
0.75
 40
0.75
 40
1.0
 40
1.0
 40
1.0
 40
1.0
 10
159.0456490047895
 20
277.9041584649455
 30
0.0
 10
159.6720307897432
 20
279.1783946240697
 30
0.0
 10
160.4059295665292
 20
280.4460371334184
 30
0.0
 10
160.4276054655386
 20
282.413682845516
 30
0.0
 10
160.2537552567822
 20
283.0857133248891
 30
0.0
 10
159.7158170166887
 20
284.3992967828196
 30
0.0
 10
159.3657557207624
 20
285.0472001795599
 30
0.0
 10
159.0456490047894
 20
285.6983868308855
 30
0.0
  0
LINE
  5
A7
330
94
100
AcDbEntity
  8
03781031_BRAUSEA
  6
Continuous
 62
     7
100
AcDbLine
 10
211.1559872657
 20
255.8851620547
 30
0.0
 11
198.9399827004
 21
251.4388997331
 31
0.0
  0
LINE
  5
A8
330
94
100
AcDbEntity
  8
03781031_BRAUSEA
  6
Continuous
 62
     7
100
AcDbLine
 10
215.5529134335
 20
258.4237286874
 30
0.0
 11
193.9399827004
 21
250.5572647331
 31
0.0
  0
LINE
  5
A9
330
94
100
AcDbEntity
  8
03781031_BRAUSEA
  6
Continuous
 62
     7
100
AcDbLine
 10
213.2865986362
 20
266.112280064
 30
0.0
 11
190.7339747004
 21
257.9037957331
 31
0.0
  0
LINE
  5
AA
330
94
100
AcDbEntity
  8
03781031_BRAUSEA
  6
Continuous
 62
     7
100
AcDbLine
 10
210.3737206554
 20
274.1153460709
 30
0.0
 11
187.8210967004
 21
265.9068617331
 31
0.0
  0
LINE
  5
AB
330
94
100
AcDbEntity
  8
03781031_BRAUSEA
  6
Continuous
 62
     7
100
AcDbLine
 10
173.0456487004
 20
303.4926157331
 30
0.0
 11
168.0199617004
 21
303.4926157331
 31
0.0
  0
LINE
  5
AC
330
94
100
AcDbEntity
  8
03781031_BRAUSEA
  6
Continuous
 62
     7
100
AcDbLine
 10
168.0199617004
 20
283.4926157331
 30
0.0
 11
173.0456487004
 21
283.4926157331
 31
0.0
  0
ARC
  5
AD
330
94
100
AcDbEntity
  8
03781031_BRAUSEA
  6
Continuous
 62
     7
100
AcDbCircle
 10
173.0456487004
 20
268.4926157331
 30
0.0
 40
14.99999999999996
100
AcDbArc
 50
20.0
 51
90.0
  0
ARC
  5
AE
330
94
100
AcDbEntity
  8
03781031_BRAUSEA
  6
Continuous
 62
     7
100
AcDbCircle
 10
173.0456487004
 20
268.4926157331
 30
0.0
 40
34.99999999999996
100
AcDbArc
 50
20.0
 51
90.0
  0
LINE
  5
AF
330
94
100
AcDbEntity
  8
03781031_BRAUSEA
  6
Continuous
 62
     7
100
AcDbLine
 10
153.1762648497
 20
281.9926157331
 30
0.0
 11
153.3247437004
 21
281.9926157331
 31
0.0
  0
LINE
  5
B0
330
94
100
AcDbEntity
  8
03781031_BRAUSEA
  6
Continuous
 62
     7
100
AcDbLine
 10
153.3247437004
 20
304.9926157331
 30
0.0
 11
153.1762648497
 21
304.9926157331
 31
0.0
  0
LINE
  5
B1
330
94
100
AcDbEntity
  8
03781031_BRAUSEA
  6
Continuous
 62
     7
100
AcDbLine
 10
154.0456487477
 20
309.0810730012
 30
0.0
 11
153.3247437004
 21
304.9926157331
 31
0.0
  0
LINE
  5
B2
330
94
100
AcDbEntity
  8
03781031_BRAUSEA
  6
Continuous
 62
     7
100
AcDbLine
 10
153.3247437004
 20
281.9926157331
 30
0.0
 11
154.0456487477
 21
277.9041584649
 31
0.0
  0
ARC
  5
B3
330
94
100
AcDbEntity
  8
03781031_BRAUSEA
  6
Continuous
 62
     7
100
AcDbCircle
 10
168.0199617004
 20
273.4926157331
 30
0.0
 40
10.0
100
AcDbArc
 50
90.0
 51
153.3134142524
  0
ARC
  5
B4
330
94
100
AcDbEntity
  8
03781031_BRAUSEA
  6
Continuous
 62
     7
100
AcDbCircle
 10
168.0199617004
 20
313.4926157331
 30
0.0
 40
10.00000000000001
100
AcDbArc
 50
206.1813305851
 51
270.0
  0
ARC
  5
B5
330
94
100
AcDbEntity
  8
03781031_BRAUSEA
  6
Continuous
 62
     7
100
AcDbCircle
 10
220.0302793958
 20
285.5936238443
 30
0.0
 40
14.99999957830734
100
AcDbArc
 50
200.0000038412
 51
229.9264381959
  0
ARC
  5
B6
330
94
100
AcDbEntity
  8
03781031_BRAUSEA
  6
Continuous
 62
     7
100
AcDbCircle
 10
173.0456487004
 20
268.4926157331
 30
0.0
 40
14.99999978915365
100
AcDbArc
 50
350.0735641089
 51
20.0
  0
LINE
  5
B7
330
94
100
AcDbEntity
  8
03781031_BRAUSEA
  6
Continuous
 62
     7
100
AcDbLine
 10
193.9399827004
 20
250.5572647331
 30
0.0
 11
198.9399827004
 21
251.4388997331
 31
0.0
  0
LINE
  5
B8
330
94
100
AcDbEntity
  8
03781031_BRAUSEA
  6
Continuous
 62
     7
100
AcDbLine
 10
211.1559872657
 20
255.8851620547
 30
0.0
 11
215.5529134335
 21
258.4237286874
 31
0.0
  0
LINE
  5
B9
330
94
100
AcDbEntity
  8
03781031_BRAUSEA
  6
Continuous
 62
     7
100
AcDbLine
 10
215.5529132878
 20
258.4237286344
 30
0.0
 11
212.8167519963
 21
265.9412695283
 31
0.0
  0
LINE
  5
BA
330
94
100
AcDbEntity
  8
03781031_BRAUSEA
  6
Continuous
 62
     7
100
AcDbLine
 10
191.2038215547
 20
258.07480568
 30
0.0
 11
193.9399828462
 21
250.5572647861
 31
0.0
  0
LINE
  5
BB
330
94
100
AcDbEntity
  8
03781031_BRAUSEA
  6
Continuous
 62
     7
100
AcDbLine
 10
213.286598641
 20
266.1122800657
 30
0.0
 11
210.3737206506
 21
274.1153460692
 31
0.0
  0
LINE
  5
BC
330
94
100
AcDbEntity
  8
03781031_BRAUSEA
  6
Continuous
 62
     7
100
AcDbLine
 10
187.8210967052
 20
265.9068617348
 30
0.0
 11
190.7339746956
 21
257.9037957313
 31
0.0
  0
ENDBLK
  5
BE
330
94
100
AcDbEntity
  8
0
100
AcDbBlockEnd
  0
BLOCK
  5
E3
330
BF
100
AcDbEntity
  8
0
100
AcDbBlockBegin
  2
SE2
 70
     0
 10
0.0
 20
0.0
 30
0.0
  3
SE2
  1

  0
LINE
  5
C1
330
BF
100
AcDbEntity
  8
02201038_ROSETTE
  6
Continuous
 62
     7
100
AcDbLine
 10
67.2544851604
 20
171.1373520796
 30
0.0
 11
10.4411635401
 21
171.1373520796
 31
0.0
  0
LINE
  5
C2
330
BF
100
AcDbEntity
  8
02201038_ROSETTE
  6
Continuous
 62
     7
100
AcDbLine
 10
71.3456487004
 20
173.6572647331
 30
0.0
 11
6.35
 21
173.6572647331
 31
0.0
  0
ARC
  5
C3
330
BF
100
AcDbEntity
  8
02201038_ROSETTE
  6
Continuous
 62
     7
100
AcDbCircle
 10
36.4984243502
 20
293.3912647331
 30
0.0
 40
125.0000000000086
100
AcDbArc
 50
257.9679925342
 51
265.8019186647
  0
ARC
  5
C4
330
BF
100
AcDbEntity
  8
02201038_ROSETTE
  6
Continuous
 62
     7
100
AcDbCircle
 10
41.1972243502
 20
293.3912647331
 30
0.0
 40
125.0000000000086
100
AcDbArc
 50
274.1980813353
 51
282.0320074658
  0
ARC
  5
C5
330
BF
100
AcDbEntity
  8
02201038_ROSETTE
  6
Continuous
 62
     7
100
AcDbCircle
 10
12.1216243502
 20
178.4466647331
 30
0.0
 40
7.500000000000446
100
AcDbArc
 50
219.6865113452
 51
257.0523063135
  0
ARC
  5
C6
330
BF
100
AcDbEntity
  8
02201038_ROSETTE
  6
Continuous
 62
     7
100
AcDbCircle
 10
65.5740243502
 20
178.4466647331
 30
0.0
 40
7.500000000000442
100
AcDbArc
 50
282.9476936865
 51
320.3134886548
  0
LINE
  5
C7
330
BF
100
AcDbEntity
  8
03781031_BRAUSEA
  6
Continuous
 62
     7
100
AcDbLine
 10
50.3478243502
 20
168.5781697331
 30
0.0
 11
27.3478243502
 21
168.5781697331
 31
0.0
  0
LINE
  5
C8
330
BF
100
AcDbEntity
  8
03781031_BRAUSEA
  6
Continuous
 62
     7
100
AcDbLine
 10
25.3478248146
 20
162.8572644287
 30
0.0
 11
25.3478243502
 21
161.4825756748
 31
0.0
  0
LINE
  5
C9
330
BF
100
AcDbEntity
  8
03781031_BRAUSEA
  6
Continuous
 62
     7
100
AcDbLine
 10
25.3478243502
 20
162.8572644287
 30
0.0
 11
25.3478243502
 21
167.8572646858
 31
0.0
  0
LINE
  5
CA
330
BF
100
AcDbEntity
  8
03781031_BRAUSEA
  6
Continuous
 62
     7
100
AcDbLine
 10
25.3478243502
 20
167.8572646858
 30
0.0
 11
25.3478243502
 21
168.2255153162
 31
0.0
  0
LINE
  5
CB
330
BF
100
AcDbEntity
  8
03781031_BRAUSEA
  6
Continuous
 62
     7
100
AcDbLine
 10
38.8478243502
 20
162.8572644287
 30
0.0
 11
38.8478243502
 21
167.8572646858
 31
0.0
  0
ARC
  5
CC
330
BF
100
AcDbEntity
  8
03781031_BRAUSEA
  6
Continuous
 62
     7
100
AcDbCircle
 10
32.0978243502
 20
105.673806596
 30
0.0
 40
62.54874067481503
100
AcDbArc
 50
83.8048131278
 51
96.1951868722
  0
ARC
  5
CD
330
BF
100
AcDbEntity
  8
03781031_BRAUSEA
  6
Continuous
 62
     7
100
AcDbCircle
 10
32.0978243502
 20
179.1852164161
 30
0.0
 40
17.66817806404869
100
AcDbArc
 50
247.5397248461
 51
292.4602751539
  0
LINE
  5
CE
330
BF
100
AcDbEntity
  8
03781031_BRAUSEA
  6
Continuous
 62
     7
100
AcDbLine
 10
52.3478243502
 20
162.8572644287
 30
0.0
 11
52.3478243502
 21
167.8572646858
 31
0.0
  0
ARC
  5
CF
330
BF
100
AcDbEntity
  8
03781031_BRAUSEA
  6
Continuous
 62
     7
100
AcDbCircle
 10
45.5978243502
 20
105.6738066998
 30
0.0
 40
62.54874057159571
100
AcDbArc
 50
83.8048131176
 51
96.1951868824
  0
ARC
  5
D0
330
BF
100
AcDbEntity
  8
03781031_BRAUSEA
  6
Continuous
 62
     7
100
AcDbCircle
 10
45.5978243502
 20
179.1852163512
 30
0.0
 40
17.66817800405341
100
AcDbArc
 50
247.5397247656
 51
292.4602752344
  0
LINE
  5
D1
330
BF
100
AcDbEntity
  8
03781031_BRAUSEA
  6
Continuous
 62
     7
100
AcDbLine
 10
52.3478243502
 20
167.8572646858
 30
0.0
 11
52.3478243502
 21
168.2255153162
 31
0.0
  0
LINE
  5
D2
330
BF
100
AcDbEntity
  8
03781031_BRAUSEA
  6
Continuous
 62
     7
100
AcDbLine
 10
52.3478243502
 20
161.4825985577
 30
0.0
 11
52.3478243502
 21
162.8572644287
 31
0.0
  0
ELLIPSE
  5
D3
330
BF
100
AcDbEntity
  8
03781031_BRAUSEA
  6
Continuous
 62
     7
100
AcDbEllipse
 10
38.8478243502
 20
117.1564653665
 30
0.0
 11
11.50000032627857
 21
-3.469446951953614E-14
 31
0.0
210
0.0
220
0.0
230
1.0
 40
0.9396926139
 41
3.190464173318973
 42
6.234313787450411
  0
ELLIPSE
  5
D4
330
BF
100
AcDbEntity
  8
03781031_BRAUSEA
  6
Continuous
 62
     7
100
AcDbEllipse
 10
38.8478243502
 20
119.8926267652
 30
0.0
 11
12.00000063959317
 21
-1.040834085586084E-13
 31
0.0
210
0.0
220
0.0
230
1.0
 40
0.9396926139
 41
3.141592653589793
 42
6.283185307179584
  0
ELLIPSE
  5
D5
330
BF
100
AcDbEntity
  8
03781031_BRAUSEA
  6
Continuous
 62
     7
100
AcDbEllipse
 10
38.8478243502
 20
122.8055047556
 30
0.0
 11
-12.0000006497867
 21
-6.938893903907228E-15
 31
0.0
210
0.0
220
0.0
230
1.0
 40
0.9396926139
 41
5.697499682089917
 42
6.283185307179586
  0
ELLIPSE
  5
D6
330
BF
100
AcDbEntity
  8
03781031_BRAUSEA
  6
Continuous
 62
     7
100
AcDbEllipse
 10
38.8478243502
 20
122.8055047556
 30
0.0
 11
-12.0000006497867
 21
-6.938893903907228E-15
 31
0.0
210
0.0
220
0.0
230
1.0
 40
0.9396926139
 41
0.0
 42
3.72727827867946
  0
LINE
  5
D7
330
BF
100
AcDbEntity
  8
03781031_BRAUSEA
  6
Continuous
 62
     7
100
AcDbLine
 10
48.8478243502
 20
148.8572647331
 30
0.0
 11
48.8478243502
 21
153.8829517331
 31
0.0
  0
LINE
  5
D8
330
BF
100
AcDbEntity
  8
03781031_BRAUSEA
  6
Continuous
 62
     7
100
AcDbLine
 10
28.8478243502
 20
153.8829517331
 30
0.0
 11
28.8478243502
 21
148.8572647331
 31
0.0
  0
LINE
  5
D9
330
BF
100
AcDbEntity
  8
03781031_BRAUSEA
  6
Continuous
 62
     7
100
AcDbLine
 10
28.8478243502
 20
148.8572647331
 30
0.0
 11
28.8478243502
 21
125.3649492134
 31
0.0
  0
LINE
  5
DA
330
BF
100
AcDbEntity
  8
03781031_BRAUSEA
  6
Continuous
 62
     7
100
AcDbLine
 10
48.8478243502
 20
125.3649492134
 30
0.0
 11
48.8478243502
 21
148.8572647331
 31
0.0
  0
LINE
  5
DB
330
BF
100
AcDbEntity
  8
03781031_BRAUSEA
  6
Continuous
 62
     7
100
AcDbLine
 10
27.3478243502
 20
168.7266485838
 30
0.0
 11
27.3478243502
 21
168.5781697331
 31
0.0
  0
LINE
  5
DC
330
BF
100
AcDbEntity
  8
03781031_BRAUSEA
  6
Continuous
 62
     7
100
AcDbLine
 10
50.3478243502
 20
168.5781697331
 30
0.0
 11
50.3478243502
 21
168.7266485838
 31
0.0
  0
LINE
  5
DD
330
BF
100
AcDbEntity
  8
03781031_BRAUSEA
  6
Continuous
 62
     7
100
AcDbLine
 10
52.3478243502
 20
168.2255159079
 30
0.0
 11
50.3478243502
 21
168.5781697331
 31
0.0
  0
LINE
  5
DE
330
BF
100
AcDbEntity
  8
03781031_BRAUSEA
  6
Continuous
 62
     7
100
AcDbLine
 10
27.3478243502
 20
168.5781697331
 30
0.0
 11
25.3478243502
 21
168.2255159079
 31
0.0
  0
ARC
  5
DF
330
BF
100
AcDbEntity
  8
03781031_BRAUSEA
  6
Continuous
 62
     7
100
AcDbCircle
 10
18.8478243502
 20
153.8829517331
 30
0.0
 40
10.0
100
AcDbArc
 50
0.0
 51
49.4573564056
  0
ARC
  5
E0
330
BF
100
AcDbEntity
  8
03781031_BRAUSEA
  6
Continuous
 62
     7
100
AcDbCircle
 10
58.8478243502
 20
153.8829517331
 30
0.0
 40
10.0
100
AcDbArc
 50
130.5404801859
 51
180.0
  0
LINE
  5
E1
330
BF
100
AcDbEntity
  8
03781031_BRAUSEA
  6
Continuous
 62
     7
100
AcDbLine
 10
50.8478249949
 20
119.8926267652
 30
0.0
 11
50.8478249949
 21
122.8055047556
 31
0.0
  0
LINE
  5
E2
330
BF
100
AcDbEntity
  8
03781031_BRAUSEA
  6
Continuous
 62
     7
100
AcDbLine
 10
26.8478237055
 20
122.8055047556
 30
0.0
 11
26.8478237055
 21
119.8926267652
 31
0.0
  0
ENDBLK
  5
E4
330
BF
100
AcDbEntity
  8
0
100
AcDbBlockEnd
  0
ENDSEC
  0
SECTION
  2
ENTITIES
  0
INSERT
  5
5F
330
1F
100
AcDbEntity
  8
Default
100
AcDbBlockReference
  2
SEANNOT_GROUP
 10
0.0
 20
0.0
 30
0.0
  0
INSERT
  5
6A
330
1F
100
AcDbEntity
  8
Default
100
AcDbBlockReference
  2
SEANNOT_GROUP1
 10
0.0
 20
0.0
 30
0.0
  0
INSERT
  5
70
330
1F
100
AcDbEntity
  8
Default
100
AcDbBlockReference
  2
SEANNOT_GROUP2
 10
0.0
 20
0.0
 30
0.0
  0
INSERT
  5
76
330
1F
100
AcDbEntity
  8
Default
100
AcDbBlockReference
  2
SE
 10
0.0
 20
0.0
 30
0.0
  0
INSERT
  5
95
330
1F
100
AcDbEntity
  8
Default
100
AcDbBlockReference
  2
SE1
 10
0.0
 20
0.0
 30
0.0
  0
INSERT
  5
C0
330
1F
100
AcDbEntity
  8
Default
100
AcDbBlockReference
  2
SE2
 10
0.0
 20
0.0
 30
0.0
  0
TEXT
  5
E6
330
1F
100
AcDbEntity
  8
Default
  6
Continuous
 62
     7
100
AcDbText
 10
5.9362635081
 20
53.4225120485
 30
0.0
 40
10.0
  1
Grohe AG^J
  7
SEACAD_seiso_ttf
 11
5.9362635081
 21
63.4225120485
 31
0.0
100
AcDbText
 73
     3
  0
TEXT
  5
E7
330
1F
100
AcDbEntity
  8
Default
  6
Continuous
 62
     7
100
AcDbText
 10
5.9362635081
 20
37.0588756849
 30
0.0
 40
10.0
  1
 
  7
SEACAD_seiso_ttf
 11
5.9362635081
 21
47.0588756849
 31
0.0
100
AcDbText
 73
     3
  0
TEXT
  5
E8
330
1F
100
AcDbEntity
  8
Default
  6
Continuous
 62
     7
100
AcDbText
 10
5.9362635081
 20
20.6952393213
 30
0.0
 40
10.0
  1
ecn: 
  7
SEACAD_seiso_ttf
 11
5.9362635081
 21
30.6952393213
 31
0.0
100
AcDbText
 73
     3
  0
TEXT
  5
E9
330
1F
100
AcDbEntity
  8
Default
  6
Continuous
 62
     7
100
AcDbText
 10
5.9362635081
 20
4.3316029576
 30
0.0
 40
10.0
  1
unit: mm
  7
SEACAD_seiso_ttf
 11
5.9362635081
 21
14.3316029576
 31
0.0
100
AcDbText
 73
     3
  0
LINE
  5
EA
330
1F
100
AcDbEntity
  8
Default
  6
Continuous
 62
     7
100
AcDbLine
 10
0.0
 20
0.0
 30
0.0
 11
100.0
 21
0.0
 31
0.0
  0
LINE
  5
EB
330
1F
100
AcDbEntity
  8
Default
  6
Continuous
 62
     7
100
AcDbLine
 10
0.0
 20
0.0
 30
0.0
 11
0.0
 21
100.0
 31
0.0
  0
TEXT
  5
EC
330
1F
100
AcDbEntity
  8
Default
  6
Continuous
 62
     7
100
AcDbText
 10
24.3923665681
 20
-18.2375342018
 30
0.0
 40
10.0
  1
100 mm
  7
SEACAD_seiso_ttf
 11
24.3923665681
 21
-8.2375342018
 31
0.0
100
AcDbText
 73
     3
  0
TEXT
  5
ED
330
1F
100
AcDbEntity
  8
Default
  6
Continuous
 62
     7
100
AcDbText
 10
-7.6150308803
 20
24.6231930421
 30
0.0
 40
10.0
  1
100 mm
 50
90.0
  7
SEACAD_seiso_ttf
 11
-17.6150308803
 21
24.6231930421
 31
0.0
100
AcDbText
 73
     3
  0
TEXT
  5
EE
330
1F
100
AcDbEntity
  8
Default
  6
Continuous
 62
     7
100
AcDbText
 10
28.4878128572
 20
20.0907663715
 30
0.0
 40
10.0
  1
2084
  7
SEACAD_seiso_ttf
 11
28.4878128572
 21
30.0907663715
 31
0.0
100
AcDbText
 73
     3
  0
TEXT
  5
EF
330
1F
100
AcDbEntity
  8
Default
  6
Continuous
 62
     7
100
AcDbText
 10
5.9012241913
 20
36.7242780188
 30
0.0
 40
10.0
  1
28429000
  7
SEACAD_seiso_ttf
 11
5.9012241913
 21
46.7242780188
 31
0.0
100
AcDbText
 73
     3
  0
ENDSEC
  0
SECTION
  2
OBJECTS
  0
DICTIONARY
  5
C
330
0
100
AcDbDictionary
281
     1
  3
ACAD_GROUP
350
D
  3
ACAD_LAYOUT
350
1A
  3
ACAD_MLEADERSTYLE
350
F3
  3
ACAD_MLINESTYLE
350
17
  3
ACAD_PLOTSETTINGS
350
19
  3
ACAD_PLOTSTYLENAME
350
E
  3
ACAD_SCALELIST
350
3B
  3
ACAD_TABLESTYLE
350
F2
  3
ACAD_VISUALSTYLE
350
2A
  3
AcDbVariableDictionary
350
F0
  0
DICTIONARY
  5
D
102
{ACAD_REACTORS
330
C
102
}
330
C
100
AcDbDictionary
281
     1
  0
DICTIONARY
  5
1A
102
{ACAD_REACTORS
330
C
102
}
330
C
100
AcDbDictionary
281
     1
  3
Layout1
350
1E
  3
Model
350
22
  0
DICTIONARY
  5
F3
102
{ACAD_REACTORS
330
C
102
}
330
C
100
AcDbDictionary
281
     1
  0
DICTIONARY
  5
17
102
{ACAD_REACTORS
330
C
102
}
330
C
100
AcDbDictionary
281
     1
  3
Standard
350
18
  0
DICTIONARY
  5
19
102
{ACAD_REACTORS
330
C
102
}
330
C
100
AcDbDictionary
281
     1
  0
ACDBDICTIONARYWDFLT
  5
E
102
{ACAD_REACTORS
330
C
102
}
330
C
100
AcDbDictionary
281
     1
  3
Normal
350
F
100
AcDbDictionaryWithDefault
340
F
  0
DICTIONARY
  5
3B
102
{ACAD_REACTORS
330
C
102
}
330
C
100
AcDbDictionary
281
     1
  3
A0
350
3C
  3
A1
350
3D
  3
A2
350
3E
  3
A3
350
3F
  3
A4
350
40
  3
A5
350
41
  3
A6
350
42
  3
A7
350
43
  3
A8
350
44
  3
A9
350
45
  3
B0
350
46
  3
B1
350
47
  3
B2
350
48
  3
B3
350
49
  3
B4
350
4A
  3
B5
350
4B
  3
B6
350
4C
  3
B7
350
4D
  3
B8
350
4E
  3
B9
350
4F
  3
C0
350
50
  3
C1
350
51
  3
C2
350
52
  3
C3
350
53
  3
C4
350
54
  3
C5
350
55
  3
C6
350
56
  3
C7
350
57
  3
C8
350
58
  3
C9
350
59
  3
D0
350
5A
  3
D1
350
5B
  3
D2
350
5C
  0
DICTIONARY
  5
F2
102
{ACAD_REACTORS
330
C
102
}
330
C
100
AcDbDictionary
281
     1
  0
DICTIONARY
  5
2A
102
{ACAD_REACTORS
330
C
102
}
330
C
100
AcDbDictionary
281
     1
  3
2dWireframe
350
2F
  3
3D Hidden
350
31
  3
3dWireframe
350
30
  3
Basic
350
32
  3
Brighten
350
36
  3
ColorChange
350
3A
  3
Conceptual
350
34
  3
Dim
350
35
  3
Facepattern
350
39
  3
Flat
350
2B
  3
FlatWithEdges
350
2C
  3
Gouraud
350
2D
  3
GouraudWithEdges
350
2E
  3
Linepattern
350
38
  3
Realistic
350
33
  3
Thicken
350
37
  0
DICTIONARY
  5
F0
102
{ACAD_REACTORS
330
C
102
}
330
C
100
AcDbDictionary
281
     1
  3
CANNOSCALE
350
F1
  3
PSOLHEIGHT
350
F5
  3
PSOLWIDTH
350
F4
  0
LAYOUT
  5
1E
102
{ACAD_REACTORS
330
1A
102
}
330
1A
100
AcDbPlotSettings
  1

  2
none_device
  4

  6

 40
0.0
 41
0.0
 42
0.0
 43
0.0
 44
0.0
 45
0.0
 46
0.0
 47
0.0
 48
0.0
 49
0.0
140
0.0
141
0.0
142
1.0
143
1.0
 70
   688
 72
     0
 73
     0
 74
     5
  7

 75
    16
147
1.0
148
0.0
149
0.0
100
AcDbLayout
  1
Layout1
 70
     1
 71
     1
 10
0.0
 20
0.0
 11
1682.0
 21
2378.0
 12
0.0
 22
0.0
 32
0.0
 14
0.0
 24
0.0
 34
0.0
 15
1682.0
 25
2378.0
 35
0.0
146
0.0
 13
0.0
 23
0.0
 33
0.0
 16
1.0
 26
0.0
 36
0.0
 17
0.0
 27
1.0
 37
0.0
 76
     0
330
1B
  0
LAYOUT
  5
22
102
{ACAD_REACTORS
330
1A
102
}
330
1A
100
AcDbPlotSettings
  1

  2
none_device
  4

  6

 40
0.0
 41
0.0
 42
0.0
 43
0.0
 44
0.0
 45
0.0
 46
0.0
 47
0.0
 48
0.0
 49
0.0
140
0.0
141
0.0
142
1.0
143
1.0
 70
  1712
 72
     0
 73
     0
 74
     0
  7

 75
     0
147
1.0
148
0.0
149
0.0
100
AcDbLayout
  1
Model
 70
     1
 71
     0
 10
0.0
 20
0.0
 11
1682.0
 21
2378.0
 12
0.0
 22
0.0
 32
0.0
 14
0.0
 24
0.0
 34
0.0
 15
1682.0
 25
2378.0
 35
0.0
146
0.0
 13
0.0
 23
0.0
 33
0.0
 16
1.0
 26
0.0
 36
0.0
 17
0.0
 27
1.0
 37
0.0
 76
     0
330
1F
331
29
  0
MLINESTYLE
  5
18
102
{ACAD_REACTORS
330
17
102
}
330
17
100
AcDbMlineStyle
  2
Standard
 70
     0
  3

 62
   256
 51
90.0
 52
90.0
 71
     2
 49
0.5
 62
   256
  6
BYLAYER
 49
-0.5
 62
   256
  6
BYLAYER
  0
ACDBPLACEHOLDER
  5
F
102
{ACAD_REACTORS
330
E
102
}
330
E
  0
SCALE
  5
3C
102
{ACAD_REACTORS
330
3B
102
}
330
3B
100
AcDbScale
 70
     0
300
1:1
140
1.0
141
1.0
290
     1
  0
SCALE
  5
3D
102
{ACAD_REACTORS
330
3B
102
}
330
3B
100
AcDbScale
 70
     0
300
1:2
140
1.0
141
2.0
290
     0
  0
SCALE
  5
3E
102
{ACAD_REACTORS
330
3B
102
}
330
3B
100
AcDbScale
 70
     0
300
1:4
140
1.0
141
4.0
290
     0
  0
SCALE
  5
3F
102
{ACAD_REACTORS
330
3B
102
}
330
3B
100
AcDbScale
 70
     0
300
1:5
140
1.0
141
5.0
290
     0
  0
SCALE
  5
40
102
{ACAD_REACTORS
330
3B
102
}
330
3B
100
AcDbScale
 70
     0
300
1:8
140
1.0
141
8.0
290
     0
  0
SCALE
  5
41
102
{ACAD_REACTORS
330
3B
102
}
330
3B
100
AcDbScale
 70
     0
300
1:10
140
1.0
141
10.0
290
     0
  0
SCALE
  5
42
102
{ACAD_REACTORS
330
3B
102
}
330
3B
100
AcDbScale
 70
     0
300
1:16
140
1.0
141
16.0
290
     0
  0
SCALE
  5
43
102
{ACAD_REACTORS
330
3B
102
}
330
3B
100
AcDbScale
 70
     0
300
1:20
140
1.0
141
20.0
290
     0
  0
SCALE
  5
44
102
{ACAD_REACTORS
330
3B
102
}
330
3B
100
AcDbScale
 70
     0
300
1:30
140
1.0
141
30.0
290
     0
  0
SCALE
  5
45
102
{ACAD_REACTORS
330
3B
102
}
330
3B
100
AcDbScale
 70
     0
300
1:40
140
1.0
141
40.0
290
     0
  0
SCALE
  5
46
102
{ACAD_REACTORS
330
3B
102
}
330
3B
100
AcDbScale
 70
     0
300
1:50
140
1.0
141
50.0
290
     0
  0
SCALE
  5
47
102
{ACAD_REACTORS
330
3B
102
}
330
3B
100
AcDbScale
 70
     0
300
1:100
140
1.0
141
100.0
290
     0
  0
SCALE
  5
48
102
{ACAD_REACTORS
330
3B
102
}
330
3B
100
AcDbScale
 70
     0
300
2:1
140
2.0
141
1.0
290
     0
  0
SCALE
  5
49
102
{ACAD_REACTORS
330
3B
102
}
330
3B
100
AcDbScale
 70
     0
300
4:1
140
4.0
141
1.0
290
     0
  0
SCALE
  5
4A
102
{ACAD_REACTORS
330
3B
102
}
330
3B
100
AcDbScale
 70
     0
300
8:1
140
8.0
141
1.0
290
     0
  0
SCALE
  5
4B
102
{ACAD_REACTORS
330
3B
102
}
330
3B
100
AcDbScale
 70
     0
300
10:1
140
10.0
141
1.0
290
     0
  0
SCALE
  5
4C
102
{ACAD_REACTORS
330
3B
102
}
330
3B
100
AcDbScale
 70
     0
300
100:1
140
100.0
141
1.0
290
     0
  0
SCALE
  5
4D
102
{ACAD_REACTORS
330
3B
102
}
330
3B
100
AcDbScale
 70
     0
300
1/128" = 1'-0"
140
0.0078125
141
12.0
290
     0
  0
SCALE
  5
4E
102
{ACAD_REACTORS
330
3B
102
}
330
3B
100
AcDbScale
 70
     0
300
1/64" = 1'-0"
140
0.015625
141
12.0
290
     0
  0
SCALE
  5
4F
102
{ACAD_REACTORS
330
3B
102
}
330
3B
100
AcDbScale
 70
     0
300
1/32" = 1'-0"
140
0.03125
141
12.0
290
     0
  0
SCALE
  5
50
102
{ACAD_REACTORS
330
3B
102
}
330
3B
100
AcDbScale
 70
     0
300
1/16" = 1'-0"
140
0.0625
141
12.0
290
     0
  0
SCALE
  5
51
102
{ACAD_REACTORS
330
3B
102
}
330
3B
100
AcDbScale
 70
     0
300
3/32" = 1'-0"
140
0.09375
141
12.0
290
     0
  0
SCALE
  5
52
102
{ACAD_REACTORS
330
3B
102
}
330
3B
100
AcDbScale
 70
     0
300
1/8" = 1'-0"
140
0.125
141
12.0
290
     0
  0
SCALE
  5
53
102
{ACAD_REACTORS
330
3B
102
}
330
3B
100
AcDbScale
 70
     0
300
3/16" = 1'-0"
140
0.1875
141
12.0
290
     0
  0
SCALE
  5
54
102
{ACAD_REACTORS
330
3B
102
}
330
3B
100
AcDbScale
 70
     0
300
1/4" = 1'-0"
140
0.25
141
12.0
290
     0
  0
SCALE
  5
55
102
{ACAD_REACTORS
330
3B
102
}
330
3B
100
AcDbScale
 70
     0
300
3/8" = 1'-0"
140
0.375
141
12.0
290
     0
  0
SCALE
  5
56
102
{ACAD_REACTORS
330
3B
102
}
330
3B
100
AcDbScale
 70
     0
300
1/2" = 1'-0"
140
0.5
141
12.0
290
     0
  0
SCALE
  5
57
102
{ACAD_REACTORS
330
3B
102
}
330
3B
100
AcDbScale
 70
     0
300
3/4" = 1'-0"
140
0.75
141
12.0
290
     0
  0
SCALE
  5
58
102
{ACAD_REACTORS
330
3B
102
}
330
3B
100
AcDbScale
 70
     0
300
1" = 1'-0"
140
1.0
141
12.0
290
     0
  0
SCALE
  5
59
102
{ACAD_REACTORS
330
3B
102
}
330
3B
100
AcDbScale
 70
     0
300
1-1/2" = 1'-0"
140
1.5
141
12.0
290
     0
  0
SCALE
  5
5A
102
{ACAD_REACTORS
330
3B
102
}
330
3B
100
AcDbScale
 70
     0
300
3" = 1'-0"
140
3.0
141
12.0
290
     0
  0
SCALE
  5
5B
102
{ACAD_REACTORS
330
3B
102
}
330
3B
100
AcDbScale
 70
     0
300
6" = 1'-0"
140
6.0
141
12.0
290
     0
  0
SCALE
  5
5C
102
{ACAD_REACTORS
330
3B
102
}
330
3B
100
AcDbScale
 70
     0
300
1'-0" = 1'-0"
140
12.0
141
12.0
290
     0
  0
VISUALSTYLE
  5
2F
102
{ACAD_REACTORS
330
2A
102
}
330
2A
100
AcDbVisualStyle
  2
2dWireframe
 70
     4
 71
     0
 72
     2
 73
     0
 90
        0
 40
-0.6
 41
-30.0
 62
     5
 63
     7
 74
     1
 91
        4
 64
     7
 65
   257
 75
     1
175
     1
 42
1.0
 92
        0
 66
   257
 43
1.0
 76
     1
 77
     6
 78
     2
 67
     7
 79
     5
170
     0
171
     0
290
     0
174
     0
 93
        1
 44
0.0
173
     0
291
     0
 45
0.0
1001
ACAD
1000
AcDbSavedByObjectVersion
1070
     0
  0
VISUALSTYLE
  5
31
102
{ACAD_REACTORS
330
2A
102
}
330
2A
100
AcDbVisualStyle
  2
3D Hidden
 70
     6
 71
     1
 72
     2
 73
     2
 90
        0
 40
-0.6
 41
-30.0
 62
     5
 63
     7
 74
     2
 91
        2
 64
     7
 65
   257
 75
     2
175
     1
 42
40.0
 92
        0
 66
   257
 43
1.0
 76
     1
 77
     6
 78
     2
 67
     7
 79
     3
170
     0
171
     0
290
     0
174
     0
 93
        1
 44
0.0
173
     0
291
     0
 45
0.0
1001
ACAD
1000
AcDbSavedByObjectVersion
1070
     0
  0
VISUALSTYLE
  5
30
102
{ACAD_REACTORS
330
2A
102
}
330
2A
100
AcDbVisualStyle
  2
3dWireframe
 70
     5
 71
     0
 72
     2
 73
     0
 90
        0
 40
-0.6
 41
-30.0
 62
     5
 63
     7
 74
     1
 91
        4
 64
     7
 65
   257
 75
     1
175
     1
 42
1.0
 92
        0
 66
   257
 43
1.0
 76
     1
 77
     6
 78
     2
 67
     7
 79
     5
170
     0
171
     0
290
     0
174
     0
 93
        1
 44
0.0
173
     0
291
     0
 45
0.0
1001
ACAD
1000
AcDbSavedByObjectVersion
1070
     0
  0
VISUALSTYLE
  5
32
102
{ACAD_REACTORS
330
2A
102
}
330
2A
100
AcDbVisualStyle
  2
Basic
 70
     7
 71
     1
 72
     0
 73
     1
 90
        0
 40
-0.6
 41
-30.0
 62
     5
 63
     7
 74
     0
 91
        4
 64
     7
 65
   257
 75
     1
175
     1
 42
1.0
 92
        8
 66
     7
 43
1.0
 76
     1
 77
     6
 78
     2
 67
     7
 79
     5
170
     0
171
     0
290
     0
174
     0
 93
        1
 44
0.0
173
     0
291
     1
 45
0.0
1001
ACAD
1000
AcDbSavedByObjectVersion
1070
     0
  0
VISUALSTYLE
  5
36
102
{ACAD_REACTORS
330
2A
102
}
330
2A
100
AcDbVisualStyle
  2
Brighten
 70
    12
 71
     2
 72
     2
 73
     0
 90
        0
 40
-0.6
 41
-30.0
 62
     5
 63
     7
 74
     1
 91
        4
 64
     7
 65
   257
 75
     1
175
     1
 42
1.0
 92
        8
 66
     7
 43
1.0
 76
     1
 77
     6
 78
     2
 67
     7
 79
     5
170
     0
171
     0
290
     0
174
     0
 93
        1
 44
50.0
173
     0
291
     1
 45
0.0
1001
ACAD
1000
AcDbSavedByObjectVersion
1070
     0
  0
VISUALSTYLE
  5
3A
102
{ACAD_REACTORS
330
2A
102
}
330
2A
100
AcDbVisualStyle
  2
ColorChange
 70
    16
 71
     2
 72
     2
 73
     3
 90
        0
 40
-0.6
 41
-30.0
 62
     5
 63
     8
 74
     1
 91
        4
 64
     7
 65
   257
 75
     1
175
     1
 42
1.0
 92
        8
 66
     8
 43
1.0
 76
     1
 77
     6
 78
     2
 67
     7
 79
     5
170
     0
171
     0
290
     0
174
     0
 93
        1
 44
0.0
173
     0
291
     1
 45
0.0
1001
ACAD
1000
AcDbSavedByObjectVersion
1070
     0
  0
VISUALSTYLE
  5
34
102
{ACAD_REACTORS
330
2A
102
}
330
2A
100
AcDbVisualStyle
  2
Conceptual
 70
     9
 71
     3
 72
     2
 73
     0
 90
        0
 40
-0.6
 41
-30.0
 62
     5
 63
     7
 74
     2
 91
        2
 64
     7
 65
   257
 75
     1
175
     1
 42
40.0
 92
        8
 66
     7
 43
1.0
 76
     1
 77
     6
 78
     2
 67
     7
 79
     3
170
     0
171
     0
290
     0
174
     0
 93
        1
 44
0.0
173
     0
291
     0
 45
0.0
1001
ACAD
1000
AcDbSavedByObjectVersion
1070
     0
  0
VISUALSTYLE
  5
35
102
{ACAD_REACTORS
330
2A
102
}
330
2A
100
AcDbVisualStyle
  2
Dim
 70
    11
 71
     2
 72
     2
 73
     0
 90
        0
 40
-0.6
 41
-30.0
 62
     5
 63
     7
 74
     1
 91
        4
 64
     7
 65
   257
 75
     1
175
     1
 42
1.0
 92
        8
 66
     7
 43
1.0
 76
     1
 77
     6
 78
     2
 67
     7
 79
     5
170
     0
171
     0
290
     0
174
     0
 93
        1
 44
-50.0
173
     0
291
     1
 45
0.0
1001
ACAD
1000
AcDbSavedByObjectVersion
1070
     0
  0
VISUALSTYLE
  5
39
102
{ACAD_REACTORS
330
2A
102
}
330
2A
100
AcDbVisualStyle
  2
Facepattern
 70
    15
 71
     2
 72
     2
 73
     0
 90
        0
 40
-0.6
 41
-30.0
 62
     5
 63
     7
 74
     1
 91
        4
 64
     7
 65
   257
 75
     1
175
     1
 42
1.0
 92
        8
 66
     7
 43
1.0
 76
     1
 77
     6
 78
     2
 67
     7
 79
     5
170
     0
171
     0
290
     0
174
     0
 93
        1
 44
0.0
173
     0
291
     1
 45
0.0
1001
ACAD
1000
AcDbSavedByObjectVersion
1070
     0
  0
VISUALSTYLE
  5
2B
102
{ACAD_REACTORS
330
2A
102
}
330
2A
100
AcDbVisualStyle
  2
Flat
 70
     0
 71
     2
 72
     1
 73
     1
 90
        2
 40
-0.6
 41
30.0
 62
     5
 63
     7
 74
     0
 91
        4
 64
     7
 65
   257
 75
     1
175
     1
 42
1.0
 92
        8
 66
     7
 43
1.0
 76
     1
 77
     6
 78
     2
 67
     7
 79
     5
170
     0
171
     0
290
     0
174
     0
 93
       13
 44
0.0
173
     0
291
     1
 45
0.0
1001
ACAD
1000
AcDbSavedByObjectVersion
1070
     0
  0
VISUALSTYLE
  5
2C
102
{ACAD_REACTORS
330
2A
102
}
330
2A
100
AcDbVisualStyle
  2
FlatWithEdges
 70
     1
 71
     2
 72
     1
 73
     1
 90
        2
 40
-0.6
 41
30.0
 62
     5
 63
     7
 74
     1
 91
        4
 64
     7
 65
   257
 75
     1
175
     1
 42
1.0
 92
        0
 66
   257
 43
1.0
 76
     1
 77
     6
 78
     2
 67
     7
 79
     5
170
     0
171
     0
290
     0
174
     0
 93
       13
 44
0.0
173
     0
291
     1
 45
0.0
1001
ACAD
1000
AcDbSavedByObjectVersion
1070
     0
  0
VISUALSTYLE
  5
2D
102
{ACAD_REACTORS
330
2A
102
}
330
2A
100
AcDbVisualStyle
  2
Gouraud
 70
     2
 71
     2
 72
     2
 73
     1
 90
        2
 40
-0.6
 41
30.0
 62
     5
 63
     7
 74
     0
 91
        4
 64
     7
 65
   257
 75
     1
175
     1
 42
1.0
 92
        0
 66
     7
 43
1.0
 76
     1
 77
     6
 78
     2
 67
     7
 79
     5
170
     0
171
     0
290
     0
174
     0
 93
       13
 44
0.0
173
     0
291
     1
 45
0.0
1001
ACAD
1000
AcDbSavedByObjectVersion
1070
     0
  0
VISUALSTYLE
  5
2E
102
{ACAD_REACTORS
330
2A
102
}
330
2A
100
AcDbVisualStyle
  2
GouraudWithEdges
 70
     3
 71
     2
 72
     2
 73
     1
 90
        2
 40
-0.6
 41
30.0
 62
     5
 63
     7
 74
     1
 91
        4
 64
     7
 65
   257
 75
     1
175
     1
 42
1.0
 92
        0
 66
   257
 43
1.0
 76
     1
 77
     6
 78
     2
 67
     7
 79
     5
170
     0
171
     0
290
     0
174
     0
 93
       13
 44
0.0
173
     0
291
     1
 45
0.0
1001
ACAD
1000
AcDbSavedByObjectVersion
1070
     0
  0
VISUALSTYLE
  5
38
102
{ACAD_REACTORS
330
2A
102
}
330
2A
100
AcDbVisualStyle
  2
Linepattern
 70
    14
 71
     2
 72
     2
 73
     0
 90
        0
 40
-0.6
 41
-30.0
 62
     5
 63
     7
 74
     1
 91
        4
 64
     7
 65
   257
 75
     7
175
     7
 42
1.0
 92
        8
 66
     7
 43
1.0
 76
     1
 77
     6
 78
     2
 67
     7
 79
     5
170
     0
171
     0
290
     0
174
     0
 93
        1
 44
0.0
173
     0
291
     1
 45
0.0
1001
ACAD
1000
AcDbSavedByObjectVersion
1070
     0
  0
VISUALSTYLE
  5
33
102
{ACAD_REACTORS
330
2A
102
}
330
2A
100
AcDbVisualStyle
  2
Realistic
 70
     8
 71
     2
 72
     2
 73
     0
 90
        0
 40
-0.6
 41
-30.0
 62
     5
 63
     7
 74
     1
 91
        0
 64
     7
 65
   257
 75
     1
175
     1
 42
1.0
 92
        8
 66
     8
 43
1.0
 76
     1
 77
     6
 78
     2
 67
     7
 79
     5
170
     0
171
     0
290
     0
174
     0
 93
       13
 44
0.0
173
     0
291
     0
 45
0.0
1001
ACAD
1000
AcDbSavedByObjectVersion
1070
     0
  0
VISUALSTYLE
  5
37
102
{ACAD_REACTORS
330
2A
102
}
330
2A
100
AcDbVisualStyle
  2
Thicken
 70
    13
 71
     2
 72
     2
 73
     0
 90
        0
 40
-0.6
 41
-30.0
 62
     5
 63
     7
 74
     1
 91
        4
 64
     7
 65
   257
 75
     1
175
     1
 42
1.0
 92
       12
 66
     7
 43
1.0
 76
     1
 77
     6
 78
     2
 67
     7
 79
     5
170
     0
171
     0
290
     0
174
     0
 93
        1
 44
0.0
173
     0
291
     1
 45
0.0
1001
ACAD
1000
AcDbSavedByObjectVersion
1070
     0
  0
DICTIONARYVAR
  5
F1
102
{ACAD_REACTORS
330
F0
102
}
330
F0
100
DictionaryVariables
280
     0
  1
1:1
  0
DICTIONARYVAR
  5
F5
102
{ACAD_REACTORS
330
F0
102
}
330
F0
100
DictionaryVariables
280
     0
  1
80.000000
  0
DICTIONARYVAR
  5
F4
102
{ACAD_REACTORS
330
F0
102
}
330
F0
100
DictionaryVariables
280
     0
  1
5.000000
  0
ENDSEC
  0
EOF
