  0
SECTION
  2
HEADER
  9
$ACADVER
  1
AC1021
  9
$ACADMAINTVER
 70
    25
  9
$DWGCODEPAGE
  3
UNDEFINED
  9
$INSBASE
 10
0.0
 20
0.0
 30
0.0
  9
$EXTMIN
 10
1.000000000000000E+20
 20
1.000000000000000E+20
 30
1.000000000000000E+20
  9
$EXTMAX
 10
-1.000000000000000E+20
 20
-1.000000000000000E+20
 30
-1.000000000000000E+20
  9
$LIMMIN
 10
0.0
 20
0.0
  9
$LIMMAX
 10
12.0
 20
9.0
  9
$ORTHOMODE
 70
     0
  9
$REGENMODE
 70
     1
  9
$FILLMODE
 70
     1
  9
$QTEXTMODE
 70
     0
  9
$MIRRTEXT
 70
     1
  9
$LTSCALE
 40
1.0
  9
$ATTMODE
 70
     1
  9
$TEXTSIZE
 40
0.2
  9
$TRACEWID
 40
0.05
  9
$TEXTSTYLE
  7
Standard
  9
$CLAYER
  8
0
  9
$CELTYPE
  6
ByLayer
  9
$CECOLOR
 62
   256
  9
$CELTSCALE
 40
1.0
  9
$DISPSILH
 70
     0
  9
$DIMSCALE
 40
1.0
  9
$DIMASZ
 40
0.18
  9
$DIMEXO
 40
0.0625
  9
$DIMDLI
 40
0.38
  9
$DIMRND
 40
0.0
  9
$DIMDLE
 40
0.0
  9
$DIMEXE
 40
0.18
  9
$DIMTP
 40
0.0
  9
$DIMTM
 40
0.0
  9
$DIMTXT
 40
0.18
  9
$DIMCEN
 40
0.09
  9
$DIMTSZ
 40
0.0
  9
$DIMTOL
 70
     0
  9
$DIMLIM
 70
     0
  9
$DIMTIH
 70
     1
  9
$DIMTOH
 70
     1
  9
$DIMSE1
 70
     0
  9
$DIMSE2
 70
     0
  9
$DIMTAD
 70
     0
  9
$DIMZIN
 70
     0
  9
$DIMBLK
  1

  9
$DIMASO
 70
     1
  9
$DIMSHO
 70
     1
  9
$DIMPOST
  1

  9
$DIMAPOST
  1

  9
$DIMALT
 70
     0
  9
$DIMALTD
 70
     2
  9
$DIMALTF
 40
25.4
  9
$DIMLFAC
 40
1.0
  9
$DIMTOFL
 70
     0
  9
$DIMTVP
 40
0.0
  9
$DIMTIX
 70
     0
  9
$DIMSOXD
 70
     0
  9
$DIMSAH
 70
     0
  9
$DIMBLK1
  1

  9
$DIMBLK2
  1

  9
$DIMSTYLE
  2
Standard
  9
$DIMCLRD
 70
     0
  9
$DIMCLRE
 70
     0
  9
$DIMCLRT
 70
     0
  9
$DIMTFAC
 40
1.0
  9
$DIMGAP
 40
0.09
  9
$DIMJUST
 70
     0
  9
$DIMSD1
 70
     0
  9
$DIMSD2
 70
     0
  9
$DIMTOLJ
 70
     1
  9
$DIMTZIN
 70
     0
  9
$DIMALTZ
 70
     0
  9
$DIMALTTZ
 70
     0
  9
$DIMUPT
 70
     0
  9
$DIMDEC
 70
     4
  9
$DIMTDEC
 70
     4
  9
$DIMALTU
 70
     2
  9
$DIMALTTD
 70
     2
  9
$DIMTXSTY
  7
Standard
  9
$DIMAUNIT
 70
     0
  9
$DIMADEC
 70
     0
  9
$DIMALTRND
 40
0.0
  9
$DIMAZIN
 70
     0
  9
$DIMDSEP
 70
    46
  9
$DIMATFIT
 70
     3
  9
$DIMFRAC
 70
     0
  9
$DIMLDRBLK
  1

  9
$DIMLUNIT
 70
     2
  9
$DIMLWD
 70
    -2
  9
$DIMLWE
 70
    -2
  9
$DIMTMOVE
 70
     0
  9
$DIMFXL
 40
1.0
  9
$DIMFXLON
 70
     0
  9
$DIMJOGANG
 40
0.7853981633974483
  9
$DIMTFILL
 70
     0
  9
$DIMTFILLCLR
 70
     0
  9
$DIMARCSYM
 70
     0
  9
$DIMLTYPE
  6

  9
$DIMLTEX1
  6

  9
$DIMLTEX2
  6

  9
$LUNITS
 70
     2
  9
$LUPREC
 70
     4
  9
$SKETCHINC
 40
0.1
  9
$FILLETRAD
 40
0.5
  9
$AUNITS
 70
     0
  9
$AUPREC
 70
     0
  9
$MENU
  1
.
  9
$ELEVATION
 40
0.0
  9
$PELEVATION
 40
0.0
  9
$THICKNESS
 40
0.0
  9
$LIMCHECK
 70
     0
  9
$CHAMFERA
 40
0.5
  9
$CHAMFERB
 40
0.5
  9
$CHAMFERC
 40
1.0
  9
$CHAMFERD
 40
0.0
  9
$SKPOLY
 70
     0
  9
$TDCREATE
 40
2459906.44304397
  9
$TDUCREATE
 40
2459906.401377315
  9
$TDUPDATE
 40
2459906.44304397
  9
$TDUUPDATE
 40
2459906.401377315
  9
$TDINDWG
 40
0.0000000116
  9
$TDUSRTIMER
 40
0.0000000116
  9
$USRTIMER
 70
     1
  9
$ANGBASE
 50
0.0
  9
$ANGDIR
 70
     0
  9
$PDMODE
 70
     0
  9
$PDSIZE
 40
0.0
  9
$PLINEWID
 40
0.0
  9
$SPLFRAME
 70
     0
  9
$SPLINETYPE
 70
     6
  9
$SPLINESEGS
 70
     8
  9
$HANDSEED
  5
159
  9
$SURFTAB1
 70
     6
  9
$SURFTAB2
 70
     6
  9
$SURFTYPE
 70
     6
  9
$SURFU
 70
     6
  9
$SURFV
 70
     6
  9
$UCSBASE
  2

  9
$UCSNAME
  2

  9
$UCSORG
 10
0.0
 20
0.0
 30
0.0
  9
$UCSXDIR
 10
1.0
 20
0.0
 30
0.0
  9
$UCSYDIR
 10
0.0
 20
1.0
 30
0.0
  9
$UCSORTHOREF
  2

  9
$UCSORTHOVIEW
 70
     0
  9
$UCSORGTOP
 10
0.0
 20
0.0
 30
0.0
  9
$UCSORGBOTTOM
 10
0.0
 20
0.0
 30
0.0
  9
$UCSORGLEFT
 10
0.0
 20
0.0
 30
0.0
  9
$UCSORGRIGHT
 10
0.0
 20
0.0
 30
0.0
  9
$UCSORGFRONT
 10
0.0
 20
0.0
 30
0.0
  9
$UCSORGBACK
 10
0.0
 20
0.0
 30
0.0
  9
$PUCSBASE
  2

  9
$PUCSNAME
  2

  9
$PUCSORG
 10
0.0
 20
0.0
 30
0.0
  9
$PUCSXDIR
 10
1.0
 20
0.0
 30
0.0
  9
$PUCSYDIR
 10
0.0
 20
1.0
 30
0.0
  9
$PUCSORTHOREF
  2

  9
$PUCSORTHOVIEW
 70
     0
  9
$PUCSORGTOP
 10
0.0
 20
0.0
 30
0.0
  9
$PUCSORGBOTTOM
 10
0.0
 20
0.0
 30
0.0
  9
$PUCSORGLEFT
 10
0.0
 20
0.0
 30
0.0
  9
$PUCSORGRIGHT
 10
0.0
 20
0.0
 30
0.0
  9
$PUCSORGFRONT
 10
0.0
 20
0.0
 30
0.0
  9
$PUCSORGBACK
 10
0.0
 20
0.0
 30
0.0
  9
$USERI1
 70
     0
  9
$USERI2
 70
     0
  9
$USERI3
 70
     0
  9
$USERI4
 70
     0
  9
$USERI5
 70
     0
  9
$USERR1
 40
0.0
  9
$USERR2
 40
0.0
  9
$USERR3
 40
0.0
  9
$USERR4
 40
0.0
  9
$USERR5
 40
0.0
  9
$WORLDVIEW
 70
     1
  9
$SHADEDGE
 70
     3
  9
$SHADEDIF
 70
    70
  9
$TILEMODE
 70
     1
  9
$MAXACTVP
 70
    64
  9
$PINSBASE
 10
0.0
 20
0.0
 30
0.0
  9
$PLIMCHECK
 70
     0
  9
$PEXTMIN
 10
1.000000000000000E+20
 20
1.000000000000000E+20
 30
1.000000000000000E+20
  9
$PEXTMAX
 10
-1.000000000000000E+20
 20
-1.000000000000000E+20
 30
-1.000000000000000E+20
  9
$PLIMMIN
 10
0.0
 20
0.0
  9
$PLIMMAX
 10
12.0
 20
9.0
  9
$UNITMODE
 70
     0
  9
$VISRETAIN
 70
     1
  9
$PLINEGEN
 70
     0
  9
$PSLTSCALE
 70
     1
  9
$TREEDEPTH
 70
  3020
  9
$CMLSTYLE
  2
Standard
  9
$CMLJUST
 70
     0
  9
$CMLSCALE
 40
1.0
  9
$PROXYGRAPHICS
 70
     1
  9
$MEASUREMENT
 70
     0
  9
$CELWEIGHT
370
    -1
  9
$ENDCAPS
280
     0
  9
$JOINSTYLE
280
     0
  9
$LWDISPLAY
290
     1
  9
$INSUNITS
 70
     1
  9
$HYPERLINKBASE
  1

  9
$STYLESHEET
  1

  9
$XEDIT
290
     1
  9
$CEPSNTYPE
380
     0
  9
$PSTYLEMODE
290
     1
  9
$FINGERPRINTGUID
  2
{F1E15184-40DC-E9DA-D365-9C32850E79EB}
  9
$VERSIONGUID
  2
{FAEB1C32-E019-11D5-929B-00C0DF256EC4}
  9
$EXTNAMES
290
     1
  9
$PSVPSCALE
 40
0.0
  9
$OLESTARTUP
290
     0
  9
$SORTENTS
280
   127
  9
$INDEXCTL
280
     0
  9
$HIDETEXT
280
     1
  9
$XCLIPFRAME
290
     0
  9
$HALOGAP
280
     0
  9
$OBSCOLOR
 70
   257
  9
$OBSLTYPE
280
     0
  9
$INTERSECTIONDISPLAY
280
     0
  9
$INTERSECTIONCOLOR
 70
   257
  9
$DIMASSOC
280
     2
  9
$PROJECTNAME
  1

  9
$CAMERADISPLAY
290
     0
  9
$LENSLENGTH
 40
50.0
  9
$CAMERAHEIGHT
 40
0.0
  9
$STEPSPERSEC
 40
2.0
  9
$STEPSIZE
 40
6.0
  9
$3DDWFPREC
 40
2.0
  9
$PSOLWIDTH
 40
0.25
  9
$PSOLHEIGHT
 40
4.0
  9
$LOFTANG1
 40
1.570796326794897
  9
$LOFTANG2
 40
1.570796326794897
  9
$LOFTMAG1
 40
0.0
  9
$LOFTMAG2
 40
0.0
  9
$LOFTPARAM
 70
     7
  9
$LOFTNORMALS
280
     1
  9
$LATITUDE
 40
37.795
  9
$LONGITUDE
 40
-122.394
  9
$NORTHDIRECTION
 40
0.0
  9
$TIMEZONE
 70
 -8000
  9
$LIGHTGLYPHDISPLAY
280
     1
  9
$TILEMODELIGHTSYNCH
280
     1
  9
$CMATERIAL
347
3C
  9
$SOLIDHIST
280
     1
  9
$SHOWHIST
280
     1
  9
$DWFFRAME
280
     2
  9
$DGNFRAME
280
     2
  9
$REALWORLDSCALE
290
     1
  9
$INTERFERECOLOR
 62
   256
  9
$CSHADOW
280
     0
  9
$SHADOWPLANELOCATION
 40
0.0
  0
ENDSEC
  0
SECTION
  2
CLASSES
  0
CLASS
  1
ACDBDICTIONARYWDFLT
  2
AcDbDictionaryWithDefault
  3
ObjectDBX Classes
 90
        0
 91
        4
280
     0
281
     0
  0
CLASS
  1
VISUALSTYLE
  2
AcDbVisualStyle
  3
ObjectDBX Classes
 90
     4095
 91
        4
280
     0
281
     0
  0
CLASS
  1
MATERIAL
  2
AcDbMaterial
  3
ObjectDBX Classes
 90
     1153
 91
        4
280
     0
281
     0
  0
CLASS
  1
SUN
  2
AcDbSun
  3
SCENEOE
 90
     1024
 91
        4
280
     0
281
     0
  0
ENDSEC
  0
SECTION
  2
TABLES
  0
TABLE
  2
VPORT
  5
8
330
0
100
AcDbSymbolTable
 70
     1
  0
VPORT
  5
29
330
8
100
AcDbSymbolTableRecord
100
AcDbViewportTableRecord
  2
*Active
 70
     0
 10
0.0
 20
0.0
 11
1.0
 21
1.0
 12
0.0
 22
0.0
 13
0.0
 23
0.0
 14
0.5
 24
0.5
 15
0.5
 25
0.5
 16
0.0
 26
0.0
 36
1.0
 17
105.0007777515277
 27
148.5000416295417
 37
0.0
 40
297.0000832590835
 41
0.7070757462376325
 42
50.0
 43
0.0
 44
0.0
 50
0.0
 51
0.0
 71
     0
 72
   100
 73
     1
 74
     3
 75
     0
 76
     0
 77
     0
 78
     0
281
     0
 65
     1
110
0.0
120
0.0
130
0.0
111
1.0
121
0.0
131
0.0
112
0.0
122
1.0
132
0.0
 79
     0
146
0.0
 60
     3
 61
     5
292
     1
282
     1
141
0.0
142
0.0
 63
   250
361
3F
  0
ENDTAB
  0
TABLE
  2
LTYPE
  5
5
330
0
100
AcDbSymbolTable
 70
     5
  0
LTYPE
  5
14
330
5
100
AcDbSymbolTableRecord
100
AcDbLinetypeTableRecord
  2
ByBlock
 70
     0
  3

 72
    65
 73
     0
 40
0.0
  0
LTYPE
  5
15
330
5
100
AcDbSymbolTableRecord
100
AcDbLinetypeTableRecord
  2
ByLayer
 70
     0
  3

 72
    65
 73
     0
 40
0.0
  0
LTYPE
  5
16
330
5
100
AcDbSymbolTableRecord
100
AcDbLinetypeTableRecord
  2
Continuous
 70
     0
  3
Solid line
 72
    65
 73
     0
 40
0.0
  0
LTYPE
  5
102
330
5
100
AcDbSymbolTableRecord
100
AcDbLinetypeTableRecord
  2
AI-Linetype-1
 70
     0
  3
Adobe Illustrator Linetype No. 1
 72
    65
 73
     2
 40
7.148193633093865
 49
3.574096816546933
 74
     0
 49
-3.574096816546933
 74
     0
  0
LTYPE
  5
10B
330
5
100
AcDbSymbolTableRecord
100
AcDbLinetypeTableRecord
  2
AI-Linetype-2
 70
     0
  3
Adobe Illustrator Linetype No. 2
 72
    65
 73
     4
 40
32.167028800552
 49
21.44473835091119
 74
     0
 49
-3.574096816546933
 74
     0
 49
3.574096816546933
 74
     0
 49
-3.574096816546933
 74
     0
  0
LTYPE
  5
124
330
5
100
AcDbSymbolTableRecord
100
AcDbLinetypeTableRecord
  2
AI-Linetype-3
 70
     0
  3
Adobe Illustrator Linetype No. 3
 72
    65
 73
     2
 40
7.148178829949202
 49
3.574089414974601
 74
     0
 49
-3.574089414974601
 74
     0
  0
LTYPE
  5
12D
330
5
100
AcDbSymbolTableRecord
100
AcDbLinetypeTableRecord
  2
AI-Linetype-4
 70
     0
  3
Adobe Illustrator Linetype No. 4
 72
    65
 73
     4
 40
32.16696353214144
 49
21.44469528721763
 74
     0
 49
-3.574089414974601
 74
     0
 49
3.574089414974601
 74
     0
 49
-3.574089414974601
 74
     0
  0
ENDTAB
  0
TABLE
  2
LAYER
  5
2
330
0
100
AcDbSymbolTable
 70
     1
  0
LAYER
  5
10
330
2
100
AcDbSymbolTableRecord
100
AcDbLayerTableRecord
  2
0
 70
     0
 62
     7
  6
Continuous
370
    -3
390
F
347
3E
  0
ENDTAB
  0
TABLE
  2
STYLE
  5
3
330
0
100
AcDbSymbolTable
 70
     1
  0
STYLE
  5
11
330
3
100
AcDbSymbolTableRecord
100
AcDbTextStyleTableRecord
  2
Standard
 70
     0
 40
0.0
 41
1.0
 50
0.0
 71
     0
 42
0.2
  3
txt
  4

  0
ENDTAB
  0
TABLE
  2
VIEW
  5
6
330
0
100
AcDbSymbolTable
 70
     0
  0
ENDTAB
  0
TABLE
  2
UCS
  5
7
330
0
100
AcDbSymbolTable
 70
     0
  0
ENDTAB
  0
TABLE
  2
APPID
  5
9
330
0
100
AcDbSymbolTable
 70
     1
  0
APPID
  5
12
330
9
100
AcDbSymbolTableRecord
100
AcDbRegAppTableRecord
  2
ACAD
 70
     0
  0
ENDTAB
  0
TABLE
  2
DIMSTYLE
  5
A
330
0
100
AcDbSymbolTable
 70
     1
100
AcDbDimStyleTable
  0
DIMSTYLE
105
27
330
A
100
AcDbSymbolTableRecord
100
AcDbDimStyleTableRecord
  2
Standard
 70
     0
178
     0
340
11
  0
ENDTAB
  0
TABLE
  2
BLOCK_RECORD
  5
1
330
0
100
AcDbSymbolTable
 70
    40
  0
BLOCK_RECORD
  5
1F
330
1
100
AcDbSymbolTableRecord
100
AcDbBlockTableRecord
  2
*Model_Space
340
22
 70
     0
280
     1
281
     0
  0
BLOCK_RECORD
  5
1B
330
1
100
AcDbSymbolTableRecord
100
AcDbBlockTableRecord
  2
*Paper_Space
340
1E
 70
     0
280
     1
281
     0
  0
BLOCK_RECORD
  5
23
330
1
100
AcDbSymbolTableRecord
100
AcDbBlockTableRecord
  2
*Paper_Space0
340
26
 70
     0
280
     1
281
     0
  0
BLOCK_RECORD
  5
40
330
1
100
AcDbSymbolTableRecord
100
AcDbBlockTableRecord
  2
block 2
340
0
102
{BLKREFS
331
41
102
}
 70
     0
280
     1
281
     0
  0
BLOCK_RECORD
  5
45
330
1
100
AcDbSymbolTableRecord
100
AcDbBlockTableRecord
  2
block 3
340
0
102
{BLKREFS
331
46
102
}
 70
     0
280
     1
281
     0
  0
BLOCK_RECORD
  5
4A
330
1
100
AcDbSymbolTableRecord
100
AcDbBlockTableRecord
  2
block 4
340
0
102
{BLKREFS
331
4B
102
}
 70
     0
280
     1
281
     0
  0
BLOCK_RECORD
  5
4F
330
1
100
AcDbSymbolTableRecord
100
AcDbBlockTableRecord
  2
block 5
340
0
102
{BLKREFS
331
50
102
}
 70
     0
280
     1
281
     0
  0
BLOCK_RECORD
  5
54
330
1
100
AcDbSymbolTableRecord
100
AcDbBlockTableRecord
  2
block 6
340
0
102
{BLKREFS
331
55
102
}
 70
     0
280
     1
281
     0
  0
BLOCK_RECORD
  5
59
330
1
100
AcDbSymbolTableRecord
100
AcDbBlockTableRecord
  2
block 7
340
0
102
{BLKREFS
331
5A
102
}
 70
     0
280
     1
281
     0
  0
BLOCK_RECORD
  5
61
330
1
100
AcDbSymbolTableRecord
100
AcDbBlockTableRecord
  2
block 8
340
0
102
{BLKREFS
331
62
102
}
 70
     0
280
     1
281
     0
  0
BLOCK_RECORD
  5
66
330
1
100
AcDbSymbolTableRecord
100
AcDbBlockTableRecord
  2
block 9
340
0
102
{BLKREFS
331
67
102
}
 70
     0
280
     1
281
     0
  0
BLOCK_RECORD
  5
6E
330
1
100
AcDbSymbolTableRecord
100
AcDbBlockTableRecord
  2
block 10
340
0
102
{BLKREFS
331
6F
102
}
 70
     0
280
     1
281
     0
  0
BLOCK_RECORD
  5
76
330
1
100
AcDbSymbolTableRecord
100
AcDbBlockTableRecord
  2
block 11
340
0
102
{BLKREFS
331
77
102
}
 70
     0
280
     1
281
     0
  0
BLOCK_RECORD
  5
7B
330
1
100
AcDbSymbolTableRecord
100
AcDbBlockTableRecord
  2
block 12
340
0
102
{BLKREFS
331
7C
102
}
 70
     0
280
     1
281
     0
  0
BLOCK_RECORD
  5
80
330
1
100
AcDbSymbolTableRecord
100
AcDbBlockTableRecord
  2
block 13
340
0
102
{BLKREFS
331
81
102
}
 70
     0
280
     1
281
     0
  0
BLOCK_RECORD
  5
88
330
1
100
AcDbSymbolTableRecord
100
AcDbBlockTableRecord
  2
block 14
340
0
102
{BLKREFS
331
89
102
}
 70
     0
280
     1
281
     0
  0
BLOCK_RECORD
  5
8D
330
1
100
AcDbSymbolTableRecord
100
AcDbBlockTableRecord
  2
block 15
340
0
102
{BLKREFS
331
8E
102
}
 70
     0
280
     1
281
     0
  0
BLOCK_RECORD
  5
92
330
1
100
AcDbSymbolTableRecord
100
AcDbBlockTableRecord
  2
block 16
340
0
102
{BLKREFS
331
93
102
}
 70
     0
280
     1
281
     0
  0
BLOCK_RECORD
  5
97
330
1
100
AcDbSymbolTableRecord
100
AcDbBlockTableRecord
  2
block 17
340
0
102
{BLKREFS
331
98
102
}
 70
     0
280
     1
281
     0
  0
BLOCK_RECORD
  5
9C
330
1
100
AcDbSymbolTableRecord
100
AcDbBlockTableRecord
  2
block 18
340
0
102
{BLKREFS
331
9D
102
}
 70
     0
280
     1
281
     0
  0
BLOCK_RECORD
  5
A1
330
1
100
AcDbSymbolTableRecord
100
AcDbBlockTableRecord
  2
block 19
340
0
102
{BLKREFS
331
A2
102
}
 70
     0
280
     1
281
     0
  0
BLOCK_RECORD
  5
A6
330
1
100
AcDbSymbolTableRecord
100
AcDbBlockTableRecord
  2
block 20
340
0
102
{BLKREFS
331
A7
102
}
 70
     0
280
     1
281
     0
  0
BLOCK_RECORD
  5
AB
330
1
100
AcDbSymbolTableRecord
100
AcDbBlockTableRecord
  2
block 21
340
0
102
{BLKREFS
331
AC
102
}
 70
     0
280
     1
281
     0
  0
BLOCK_RECORD
  5
B0
330
1
100
AcDbSymbolTableRecord
100
AcDbBlockTableRecord
  2
block 22
340
0
102
{BLKREFS
331
B1
102
}
 70
     0
280
     1
281
     0
  0
BLOCK_RECORD
  5
B5
330
1
100
AcDbSymbolTableRecord
100
AcDbBlockTableRecord
  2
block 23
340
0
102
{BLKREFS
331
B6
102
}
 70
     0
280
     1
281
     0
  0
BLOCK_RECORD
  5
BA
330
1
100
AcDbSymbolTableRecord
100
AcDbBlockTableRecord
  2
block 24
340
0
102
{BLKREFS
331
BB
102
}
 70
     0
280
     1
281
     0
  0
BLOCK_RECORD
  5
BF
330
1
100
AcDbSymbolTableRecord
100
AcDbBlockTableRecord
  2
block 25
340
0
102
{BLKREFS
331
C0
102
}
 70
     0
280
     1
281
     0
  0
BLOCK_RECORD
  5
C7
330
1
100
AcDbSymbolTableRecord
100
AcDbBlockTableRecord
  2
block 26
340
0
102
{BLKREFS
331
C8
102
}
 70
     0
280
     1
281
     0
  0
BLOCK_RECORD
  5
CF
330
1
100
AcDbSymbolTableRecord
100
AcDbBlockTableRecord
  2
block 27
340
0
102
{BLKREFS
331
D0
102
}
 70
     0
280
     1
281
     0
  0
BLOCK_RECORD
  5
D7
330
1
100
AcDbSymbolTableRecord
100
AcDbBlockTableRecord
  2
block 28
340
0
102
{BLKREFS
331
D8
102
}
 70
     0
280
     1
281
     0
  0
BLOCK_RECORD
  5
DF
330
1
100
AcDbSymbolTableRecord
100
AcDbBlockTableRecord
  2
block 29
340
0
102
{BLKREFS
331
E0
102
}
 70
     0
280
     1
281
     0
  0
BLOCK_RECORD
  5
E4
330
1
100
AcDbSymbolTableRecord
100
AcDbBlockTableRecord
  2
block 30
340
0
102
{BLKREFS
331
E5
102
}
 70
     0
280
     1
281
     0
  0
BLOCK_RECORD
  5
E9
330
1
100
AcDbSymbolTableRecord
100
AcDbBlockTableRecord
  2
block 31
340
0
102
{BLKREFS
331
EA
102
}
 70
     0
280
     1
281
     0
  0
BLOCK_RECORD
  5
EE
330
1
100
AcDbSymbolTableRecord
100
AcDbBlockTableRecord
  2
block 32
340
0
102
{BLKREFS
331
EF
102
}
 70
     0
280
     1
281
     0
  0
BLOCK_RECORD
  5
F3
330
1
100
AcDbSymbolTableRecord
100
AcDbBlockTableRecord
  2
block 33
340
0
102
{BLKREFS
331
F4
102
}
 70
     0
280
     1
281
     0
  0
BLOCK_RECORD
  5
FB
330
1
100
AcDbSymbolTableRecord
100
AcDbBlockTableRecord
  2
block 34
340
0
102
{BLKREFS
331
FC
102
}
 70
     0
280
     1
281
     0
  0
BLOCK_RECORD
  5
104
330
1
100
AcDbSymbolTableRecord
100
AcDbBlockTableRecord
  2
block 35
340
0
102
{BLKREFS
331
105
102
}
 70
     0
280
     1
281
     0
  0
BLOCK_RECORD
  5
10D
330
1
100
AcDbSymbolTableRecord
100
AcDbBlockTableRecord
  2
block 36
340
0
102
{BLKREFS
331
10E
102
}
 70
     0
280
     1
281
     0
  0
BLOCK_RECORD
  5
115
330
1
100
AcDbSymbolTableRecord
100
AcDbBlockTableRecord
  2
block 37
340
0
102
{BLKREFS
331
116
102
}
 70
     0
280
     1
281
     0
  0
BLOCK_RECORD
  5
11D
330
1
100
AcDbSymbolTableRecord
100
AcDbBlockTableRecord
  2
block 38
340
0
102
{BLKREFS
331
11E
102
}
 70
     0
280
     1
281
     0
  0
BLOCK_RECORD
  5
126
330
1
100
AcDbSymbolTableRecord
100
AcDbBlockTableRecord
  2
block 39
340
0
102
{BLKREFS
331
127
102
}
 70
     0
280
     1
281
     0
  0
BLOCK_RECORD
  5
12F
330
1
100
AcDbSymbolTableRecord
100
AcDbBlockTableRecord
  2
block 40
340
0
102
{BLKREFS
331
130
102
}
 70
     0
280
     1
281
     0
  0
ENDTAB
  0
ENDSEC
  0
SECTION
  2
BLOCKS
  0
BLOCK
  5
20
330
1F
100
AcDbEntity
  8
0
100
AcDbBlockBegin
  2
*Model_Space
 70
     0
 10
0.0
 20
0.0
 30
0.0
  3
*Model_Space
  1

  0
ENDBLK
  5
21
330
1F
100
AcDbEntity
  8
0
100
AcDbBlockEnd
  0
BLOCK
  5
1C
330
1B
100
AcDbEntity
 67
     1
  8
0
100
AcDbBlockBegin
  2
*Paper_Space
 70
     0
 10
0.0
 20
0.0
 30
0.0
  3
*Paper_Space
  1

  0
ENDBLK
  5
1D
330
1B
100
AcDbEntity
 67
     1
  8
0
100
AcDbBlockEnd
  0
BLOCK
  5
24
330
23
100
AcDbEntity
  8
0
100
AcDbBlockBegin
  2
*Paper_Space0
 70
     0
 10
0.0
 20
0.0
 30
0.0
  3
*Paper_Space0
  1

  0
ENDBLK
  5
25
330
23
100
AcDbEntity
  8
0
100
AcDbBlockEnd
  0
BLOCK
  5
42
330
40
100
AcDbEntity
  8
0
100
AcDbBlockBegin
  2
block 2
 70
     0
 10
0.0
 20
0.0
 30
0.0
  3
block 2
  1

  0
SPLINE
  5
44
330
40
100
AcDbEntity
  8
0
 62
   250
370
    25
100
AcDbSpline
210
0.0
220
0.0
230
1.0
 70
     8
 71
     3
 72
    35
 73
    31
 74
     0
 42
0.0000000001
 43
0.0000000001
 12
1.0
 22
0.0
 32
0.0
 13
1.0
 23
0.0
 33
0.0
 40
0.0
 40
0.0
 40
0.0
 40
0.0
 40
1.0
 40
1.0
 40
1.0
 40
2.0
 40
2.0
 40
2.0
 40
3.0
 40
3.0
 40
3.0
 40
4.0
 40
4.0
 40
4.0
 40
5.0
 40
5.0
 40
5.0
 40
6.0
 40
6.0
 40
6.0
 40
7.0
 40
7.0
 40
7.0
 40
8.0
 40
8.0
 40
8.0
 40
9.0
 40
9.0
 40
9.0
 40
10.0
 40
10.0
 40
10.0
 40
10.0
 10
893.7960011496922
 20
122.5194321971439
 30
0.0
 10
893.714050873239
 20
122.5168569194729
 30
0.0
 10
893.6393678188867
 20
122.5537574734928
 30
0.0
 10
893.574738931037
 20
122.6012060826491
 30
0.0
 10
893.4598039328873
 20
122.6855199680342
 30
0.0
 10
893.3765131009025
 20
122.8031360743011
 30
0.0
 10
893.3042994909458
 20
122.926008569206
 30
0.0
 10
893.1977253260022
 20
123.1074068950315
 30
0.0
 10
893.1153517162148
 20
123.3002704981639
 30
0.0
 10
893.0427147729497
 20
123.4967324344673
 30
0.0
 10
892.9445719967556
 20
123.7621271457226
 30
0.0
 10
892.8642444980438
 20
124.0340482455714
 30
0.0
 10
892.7923836658778
 20
124.3079801786721
 30
0.0
 10
892.701649222896
 20
124.6539493310245
 30
0.0
 10
892.6243908908085
 20
125.0030934832459
 30
0.0
 10
892.5548231141421
 20
125.353789857614
 30
0.0
 10
892.4712500599345
 20
125.7751123401851
 30
0.0
 10
892.3987542277679
 20
126.198692600434
 30
0.0
 10
892.3326083955047
 20
126.623154805083
 30
0.0
 10
892.1693781203577
 20
127.670305039536
 30
0.0
 10
892.0446006223706
 20
128.7229586070716
 30
0.0
 10
891.9382734018664
 20
129.7773407856626
 30
0.0
 10
891.808168959513
 20
131.0674137878278
 30
0.0
 10
891.7056517389475
 20
132.3600620676716
 30
0.0
 10
891.6199267403388
 20
133.6538039585692
 30
0.0
 10
891.5218545196881
 20
135.134729730604
 30
0.0
 10
891.4458309098043
 20
136.6170666137126
 30
0.0
 10
891.3852236885609
 20
138.0999679412397
 30
0.0
 10
891.2433364686239
 20
141.5711247420101
 30
0.0
 10
891.1859395251047
 20
145.045491820452
 30
0.0
 10
891.1842461918081
 20
148.5194355655732
 30
0.0
  0
ENDBLK
  5
43
330
40
100
AcDbEntity
  8
0
100
AcDbBlockEnd
  0
BLOCK
  5
47
330
45
100
AcDbEntity
  8
0
100
AcDbBlockBegin
  2
block 3
 70
     0
 10
0.0
 20
0.0
 30
0.0
  3
block 3
  1

  0
SPLINE
  5
49
330
45
100
AcDbEntity
  8
0
 62
   250
370
    25
100
AcDbSpline
210
0.0
220
0.0
230
1.0
 70
     8
 71
     3
 72
    14
 73
    10
 74
     0
 42
0.0000000001
 43
0.0000000001
 12
1.0
 22
0.0
 32
0.0
 13
1.0
 23
0.0
 33
0.0
 40
0.0
 40
0.0
 40
0.0
 40
0.0
 40
1.0
 40
1.0
 40
1.0
 40
2.0
 40
2.0
 40
2.0
 40
3.0
 40
3.0
 40
3.0
 40
3.0
 10
893.7960011496922
 20
174.51944843257
 30
0.0
 10
894.3776964180931
 20
174.51944843257
 30
0.0
 10
894.6963958573984
 20
173.2768945637181
 30
0.0
 10
894.8059333556268
 20
172.9317720692731
 30
0.0
 10
895.0046177968671
 20
172.3057326349136
 30
0.0
 10
895.1520436278241
 20
171.6699565340752
 30
0.0
 10
895.2842647368069
 20
171.0278657110795
 30
0.0
 10
895.5488127881005
 20
169.7432254540091
 30
0.0
 10
895.7403358405667
 20
168.4502243637439
 30
0.0
 10
895.9052594490116
 20
167.1502382736002
 30
0.0
  0
ENDBLK
  5
48
330
45
100
AcDbEntity
  8
0
100
AcDbBlockEnd
  0
BLOCK
  5
4C
330
4A
100
AcDbEntity
  8
0
100
AcDbBlockBegin
  2
block 4
 70
     0
 10
0.0
 20
0.0
 30
0.0
  3
block 4
  1

  0
SPLINE
  5
4E
330
4A
100
AcDbEntity
  8
0
 62
   250
370
    25
100
AcDbSpline
210
0.0
220
0.0
230
1.0
 70
     8
 71
     3
 72
     8
 73
     4
 74
     0
 42
0.0000000001
 43
0.0000000001
 12
1.0
 22
0.0
 32
0.0
 13
1.0
 23
0.0
 33
0.0
 40
0.0
 40
0.0
 40
0.0
 40
0.0
 40
1.0
 40
1.0
 40
1.0
 40
1.0
 10
895.9052594490116
 20
167.1502382736002
 30
0.0
 10
896.6920597141113
 20
160.947981706933
 30
0.0
 10
896.9030913773796
 20
154.7564143067689
 30
0.0
 10
896.90298554404
 20
148.5194355655732
 30
0.0
  0
ENDBLK
  5
4D
330
4A
100
AcDbEntity
  8
0
100
AcDbBlockEnd
  0
BLOCK
  5
51
330
4F
100
AcDbEntity
  8
0
100
AcDbBlockBegin
  2
block 5
 70
     0
 10
0.0
 20
0.0
 30
0.0
  3
block 5
  1

  0
SPLINE
  5
53
330
4F
100
AcDbEntity
  8
0
 62
   250
370
    25
100
AcDbSpline
210
0.0
220
0.0
230
1.0
 70
     8
 71
     3
 72
    35
 73
    31
 74
     0
 42
0.0000000001
 43
0.0000000001
 12
1.0
 22
0.0
 32
0.0
 13
1.0
 23
0.0
 33
0.0
 40
0.0
 40
0.0
 40
0.0
 40
0.0
 40
1.0
 40
1.0
 40
1.0
 40
2.0
 40
2.0
 40
2.0
 40
3.0
 40
3.0
 40
3.0
 40
4.0
 40
4.0
 40
4.0
 40
5.0
 40
5.0
 40
5.0
 40
6.0
 40
6.0
 40
6.0
 40
7.0
 40
7.0
 40
7.0
 40
8.0
 40
8.0
 40
8.0
 40
9.0
 40
9.0
 40
9.0
 40
10.0
 40
10.0
 40
10.0
 40
10.0
 10
896.90298554404
 20
148.5194355655732
 30
0.0
 10
896.9019272107311
 20
146.9310889646488
 30
0.0
 10
896.8844999887879
 20
145.3421779192923
 30
0.0
 10
896.8460824894099
 20
143.7540429850091
 30
0.0
 10
896.8053013789516
 20
142.0667069437262
 30
0.0
 10
896.740848879985
 20
140.3802528468691
 30
0.0
 10
896.6526897147397
 20
138.6947159721717
 30
0.0
 10
896.5092855503892
 20
135.952221641225
 30
0.0
 10
896.3031927759365
 20
133.2121614768508
 30
0.0
 10
895.9777552811781
 20
130.4854010341414
 30
0.0
 10
895.8465219499608
 20
129.3857574685356
 30
0.0
 10
895.6958858412797
 20
128.2882658472807
 30
0.0
 10
895.5076436220927
 20
127.196736170238
 30
0.0
 10
895.3542558467947
 20
126.3072070403909
 30
0.0
 10
895.1758914052143
 20
125.4216642992436
 30
0.0
 10
894.9352616868799
 20
124.5516437797063
 30
0.0
 10
894.85599252149
 20
124.2650118471254
 30
0.0
 10
894.7699853006585
 20
123.9800732478025
 30
0.0
 10
894.6670094689872
 20
123.7011671482359
 30
0.0
 10
894.5885164146949
 20
123.4886538237009
 30
0.0
 10
894.5001808605537
 20
123.2795977212389
 30
0.0
 10
894.3932891956168
 20
123.0794668961845
 30
0.0
 10
894.3178653079489
 20
122.938179402044
 30
0.0
 10
894.2331633648645
 20
122.8013016299323
 30
0.0
 10
894.1209447555614
 20
122.6867194124481
 30
0.0
 10
894.0726847563485
 20
122.637471636707
 30
0.0
 10
894.0193447572062
 20
122.5923160830247
 30
0.0
 10
893.958067258192
 20
122.5610952509763
 30
0.0
 10
893.9079375367739
 20
122.5355541409306
 30
0.0
 10
893.8525514265573
 20
122.5193263638171
 30
0.0
 10
893.7960011496922
 20
122.5194321971439
 30
0.0
  0
ENDBLK
  5
52
330
4F
100
AcDbEntity
  8
0
100
AcDbBlockEnd
  0
BLOCK
  5
56
330
54
100
AcDbEntity
  8
0
100
AcDbBlockBegin
  2
block 6
 70
     0
 10
0.0
 20
0.0
 30
0.0
  3
block 6
  1

  0
SPLINE
  5
58
330
54
100
AcDbEntity
  8
0
 62
   250
370
    25
100
AcDbSpline
210
0.0
220
0.0
230
1.0
 70
     8
 71
     3
 72
    35
 73
    31
 74
     0
 42
0.0000000001
 43
0.0000000001
 12
1.0
 22
0.0
 32
0.0
 13
1.0
 23
0.0
 33
0.0
 40
0.0
 40
0.0
 40
0.0
 40
0.0
 40
1.0
 40
1.0
 40
1.0
 40
2.0
 40
2.0
 40
2.0
 40
3.0
 40
3.0
 40
3.0
 40
4.0
 40
4.0
 40
4.0
 40
5.0
 40
5.0
 40
5.0
 40
6.0
 40
6.0
 40
6.0
 40
7.0
 40
7.0
 40
7.0
 40
8.0
 40
8.0
 40
8.0
 40
9.0
 40
9.0
 40
9.0
 40
10.0
 40
10.0
 40
10.0
 40
10.0
 10
891.1842461918081
 20
148.5194355655732
 30
0.0
 10
891.1842814695799
 20
150.2715416041732
 30
0.0
 10
891.2003681359928
 20
152.0236212952702
 30
0.0
 10
891.2337409132258
 20
153.7754098781413
 30
0.0
 10
891.2655261904905
 20
155.4452481845451
 30
0.0
 10
891.3130100786171
 20
157.1148395465121
 30
0.0
 10
891.3798614664242
 20
158.7836195196076
 30
0.0
 10
891.4406097987776
 20
160.2999642173862
 30
0.0
 10
891.5174095197605
 20
161.8156739151649
 30
0.0
 10
891.6168222959427
 20
163.3300077796406
 30
0.0
 10
891.7023709056683
 20
164.6331688697358
 30
0.0
 10
891.804711737352
 20
165.9353069042999
 30
0.0
 10
891.9353806241368
 20
167.2346932722403
 30
0.0
 10
892.0408964557714
 20
168.2842071442065
 30
0.0
 10
892.1649331204301
 20
169.3319218495301
 30
0.0
 10
892.3253058956334
 20
170.3745918327224
 30
0.0
 10
892.4435570048339
 20
171.1434709870017
 30
0.0
 10
892.5815636692747
 20
171.9096337524213
 30
0.0
 10
892.7743567217161
 20
172.6634140180411
 30
0.0
 10
892.8442419983643
 20
172.9366404025351
 30
0.0
 10
892.9213239415685
 20
173.208244009262
 30
0.0
 10
893.0160094956017
 20
173.4737445605378
 30
0.0
 10
893.0868825500139
 20
173.6724995573264
 30
0.0
 10
893.1676333820469
 20
173.8678678875226
 30
0.0
 10
893.2691275470753
 20
174.0535701067462
 30
0.0
 10
893.3392244903898
 20
174.181840104666
 30
0.0
 10
893.4191992113238
 20
174.3055239915597
 30
0.0
 10
893.5293364317693
 20
174.4021145455673
 30
0.0
 10
893.6043017083314
 20
174.4678370445095
 30
0.0
 10
893.6932369846886
 20
174.5210359325401
 30
0.0
 10
893.7960011496922
 20
174.51944843257
 30
0.0
  0
ENDBLK
  5
57
330
54
100
AcDbEntity
  8
0
100
AcDbBlockEnd
  0
BLOCK
  5
5B
330
59
100
AcDbEntity
  8
0
100
AcDbBlockBegin
  2
block 7
 70
     0
 10
0.0
 20
0.0
 30
0.0
  3
block 7
  1

  0
POLYLINE
  5
5D
330
59
100
AcDbEntity
  8
0
 62
   250
370
    25
100
AcDb2dPolyline
 66
     1
 10
0.0
 20
0.0
 30
0.0
  0
VERTEX
  5
5E
330
5D
100
AcDbEntity
  8
0
 62
   250
370
    25
100
AcDbVertex
100
AcDb2dVertex
 10
955.3041462691072
 20
-191.4805403886333
 30
0.0
  0
VERTEX
  5
5F
330
5D
100
AcDbEntity
  8
0
 62
   250
370
    25
100
AcDbVertex
100
AcDb2dVertex
 10
955.3041462691072
 20
488.5194292032689
 30
0.0
  0
SEQEND
  5
60
330
5D
100
AcDbEntity
  8
0
 62
   250
370
    25
  0
ENDBLK
  5
5C
330
59
100
AcDbEntity
  8
0
100
AcDbBlockEnd
  0
BLOCK
  5
63
330
61
100
AcDbEntity
  8
0
100
AcDbBlockBegin
  2
block 8
 70
     0
 10
0.0
 20
0.0
 30
0.0
  3
block 8
  1

  0
SPLINE
  5
65
330
61
100
AcDbEntity
  8
0
 62
   250
370
    25
100
AcDbSpline
210
0.0
220
0.0
230
1.0
 70
     8
 71
     3
 72
     8
 73
     4
 74
     0
 42
0.0000000001
 43
0.0000000001
 12
1.0
 22
0.0
 32
0.0
 13
1.0
 23
0.0
 33
0.0
 40
0.0
 40
0.0
 40
0.0
 40
0.0
 40
1.0
 40
1.0
 40
1.0
 40
1.0
 10
945.3041664303396
 20
-201.4805555051854
 30
0.0
 10
950.8270082857339
 20
-201.4805555051854
 30
0.0
 10
955.3041462691072
 20
-197.0034175218109
 30
0.0
 10
955.3041462691072
 20
-191.4805403886333
 30
0.0
  0
ENDBLK
  5
64
330
61
100
AcDbEntity
  8
0
100
AcDbBlockEnd
  0
BLOCK
  5
68
330
66
100
AcDbEntity
  8
0
100
AcDbBlockBegin
  2
block 9
 70
     0
 10
0.0
 20
0.0
 30
0.0
  3
block 9
  1

  0
POLYLINE
  5
6A
330
66
100
AcDbEntity
  8
0
 62
   250
370
    25
100
AcDb2dPolyline
 66
     1
 10
0.0
 20
0.0
 30
0.0
  0
VERTEX
  5
6B
330
6A
100
AcDbEntity
  8
0
 62
   250
370
    25
100
AcDbVertex
100
AcDb2dVertex
 10
-734.6957978718738
 20
-201.4805555051854
 30
0.0
  0
VERTEX
  5
6C
330
6A
100
AcDbEntity
  8
0
 62
   250
370
    25
100
AcDbVertex
100
AcDb2dVertex
 10
945.3041664303403
 20
-201.4805555051854
 30
0.0
  0
SEQEND
  5
6D
330
6A
100
AcDbEntity
  8
0
 62
   250
370
    25
  0
ENDBLK
  5
69
330
66
100
AcDbEntity
  8
0
100
AcDbBlockEnd
  0
BLOCK
  5
70
330
6E
100
AcDbEntity
  8
0
100
AcDbBlockBegin
  2
block 10
 70
     0
 10
0.0
 20
0.0
 30
0.0
  3
block 10
  1

  0
POLYLINE
  5
72
330
6E
100
AcDbEntity
  8
0
 62
   250
370
    25
100
AcDb2dPolyline
 66
     1
 10
0.0
 20
0.0
 30
0.0
  0
VERTEX
  5
73
330
72
100
AcDbEntity
  8
0
 62
   250
370
    25
100
AcDbVertex
100
AcDb2dVertex
 10
-744.6958129884262
 20
488.5194292032689
 30
0.0
  0
VERTEX
  5
74
330
72
100
AcDbEntity
  8
0
 62
   250
370
    25
100
AcDbVertex
100
AcDb2dVertex
 10
-744.6958129884262
 20
-191.4805403886333
 30
0.0
  0
SEQEND
  5
75
330
72
100
AcDbEntity
  8
0
 62
   250
370
    25
  0
ENDBLK
  5
71
330
6E
100
AcDbEntity
  8
0
100
AcDbBlockEnd
  0
BLOCK
  5
78
330
76
100
AcDbEntity
  8
0
100
AcDbBlockBegin
  2
block 11
 70
     0
 10
0.0
 20
0.0
 30
0.0
  3
block 11
  1

  0
SPLINE
  5
7A
330
76
100
AcDbEntity
  8
0
 62
   250
370
    25
100
AcDbSpline
210
0.0
220
0.0
230
1.0
 70
     8
 71
     3
 72
     8
 73
     4
 74
     0
 42
0.0000000001
 43
0.0000000001
 12
1.0
 22
0.0
 32
0.0
 13
1.0
 23
0.0
 33
0.0
 40
0.0
 40
0.0
 40
0.0
 40
0.0
 40
1.0
 40
1.0
 40
1.0
 40
1.0
 10
-744.6958129884262
 20
-191.4805403886333
 30
0.0
 10
-744.6958129884262
 20
-197.0034175218109
 30
0.0
 10
-740.2186750050527
 20
-201.4805555051854
 30
0.0
 10
-734.6957978718738
 20
-201.4805555051854
 30
0.0
  0
ENDBLK
  5
79
330
76
100
AcDbEntity
  8
0
100
AcDbBlockEnd
  0
BLOCK
  5
7D
330
7B
100
AcDbEntity
  8
0
100
AcDbBlockBegin
  2
block 12
 70
     0
 10
0.0
 20
0.0
 30
0.0
  3
block 12
  1

  0
SPLINE
  5
7F
330
7B
100
AcDbEntity
  8
0
 62
   250
370
    25
100
AcDbSpline
210
0.0
220
0.0
230
1.0
 70
     8
 71
     3
 72
     8
 73
     4
 74
     0
 42
0.0000000001
 43
0.0000000001
 12
1.0
 22
0.0
 32
0.0
 13
1.0
 23
0.0
 33
0.0
 40
0.0
 40
0.0
 40
0.0
 40
0.0
 40
1.0
 40
1.0
 40
1.0
 40
1.0
 10
-734.6957978718738
 20
498.5194443198146
 30
0.0
 10
-740.2186750050527
 20
498.5194443198146
 30
0.0
 10
-744.6958129884262
 20
494.0422710586632
 30
0.0
 10
-744.6958129884262
 20
488.5194292032689
 30
0.0
  0
ENDBLK
  5
7E
330
7B
100
AcDbEntity
  8
0
100
AcDbBlockEnd
  0
BLOCK
  5
82
330
80
100
AcDbEntity
  8
0
100
AcDbBlockBegin
  2
block 13
 70
     0
 10
0.0
 20
0.0
 30
0.0
  3
block 13
  1

  0
POLYLINE
  5
84
330
80
100
AcDbEntity
  8
0
 62
   250
370
    25
100
AcDb2dPolyline
 66
     1
 10
0.0
 20
0.0
 30
0.0
  0
VERTEX
  5
85
330
84
100
AcDbEntity
  8
0
 62
   250
370
    25
100
AcDbVertex
100
AcDb2dVertex
 10
945.3041664303396
 20
498.5194443198146
 30
0.0
  0
VERTEX
  5
86
330
84
100
AcDbEntity
  8
0
 62
   250
370
    25
100
AcDbVertex
100
AcDb2dVertex
 10
-734.6957978718744
 20
498.5194443198146
 30
0.0
  0
SEQEND
  5
87
330
84
100
AcDbEntity
  8
0
 62
   250
370
    25
  0
ENDBLK
  5
83
330
80
100
AcDbEntity
  8
0
100
AcDbBlockEnd
  0
BLOCK
  5
8A
330
88
100
AcDbEntity
  8
0
100
AcDbBlockBegin
  2
block 14
 70
     0
 10
0.0
 20
0.0
 30
0.0
  3
block 14
  1

  0
SPLINE
  5
8C
330
88
100
AcDbEntity
  8
0
 62
   250
370
    25
100
AcDbSpline
210
0.0
220
0.0
230
1.0
 70
     8
 71
     3
 72
     8
 73
     4
 74
     0
 42
0.0000000001
 43
0.0000000001
 12
1.0
 22
0.0
 32
0.0
 13
1.0
 23
0.0
 33
0.0
 40
0.0
 40
0.0
 40
0.0
 40
0.0
 40
1.0
 40
1.0
 40
1.0
 40
1.0
 10
955.3041462691072
 20
488.5194292032689
 30
0.0
 10
955.3041462691072
 20
494.0422710586632
 30
0.0
 10
950.8270082857339
 20
498.5194443198146
 30
0.0
 10
945.3041664303396
 20
498.5194443198146
 30
0.0
  0
ENDBLK
  5
8B
330
88
100
AcDbEntity
  8
0
100
AcDbBlockEnd
  0
BLOCK
  5
8F
330
8D
100
AcDbEntity
  8
0
100
AcDbBlockBegin
  2
block 15
 70
     0
 10
0.0
 20
0.0
 30
0.0
  3
block 15
  1

  0
SPLINE
  5
91
330
8D
100
AcDbEntity
  8
0
 62
   250
370
    25
100
AcDbSpline
210
0.0
220
0.0
230
1.0
 70
     8
 71
     3
 72
    68
 73
    64
 74
     0
 42
0.0000000001
 43
0.0000000001
 12
1.0
 22
0.0
 32
0.0
 13
1.0
 23
0.0
 33
0.0
 40
0.0
 40
0.0
 40
0.0
 40
0.0
 40
1.0
 40
1.0
 40
1.0
 40
2.0
 40
2.0
 40
2.0
 40
3.0
 40
3.0
 40
3.0
 40
4.0
 40
4.0
 40
4.0
 40
5.0
 40
5.0
 40
5.0
 40
6.0
 40
6.0
 40
6.0
 40
7.0
 40
7.0
 40
7.0
 40
8.0
 40
8.0
 40
8.0
 40
9.0
 40
9.0
 40
9.0
 40
10.0
 40
10.0
 40
10.0
 40
11.0
 40
11.0
 40
11.0
 40
12.0
 40
12.0
 40
12.0
 40
13.0
 40
13.0
 40
13.0
 40
14.0
 40
14.0
 40
14.0
 40
15.0
 40
15.0
 40
15.0
 40
16.0
 40
16.0
 40
16.0
 40
17.0
 40
17.0
 40
17.0
 40
18.0
 40
18.0
 40
18.0
 40
19.0
 40
19.0
 40
19.0
 40
20.0
 40
20.0
 40
20.0
 40
21.0
 40
21.0
 40
21.0
 40
21.0
 10
105.3041666403342
 20
433.8705539732629
 30
0.0
 10
218.9160717530112
 20
433.8664970288847
 30
0.0
 10
332.5279415879164
 20
433.731100919956
 30
0.0
 10
446.1395292005988
 20
433.4632367576064
 30
0.0
 10
500.2931044385983
 20
433.3355664818909
 30
0.0
 10
554.4466091210293
 20
433.177839539992
 30
0.0
 10
608.6000079701333
 20
432.9899853763474
 30
0.0
 10
647.9452776135456
 20
432.8534956563258
 30
0.0
 10
687.290511979186
 20
432.7011309365649
 30
0.0
 10
726.6356405114869
 20
432.5320798281804
 30
0.0
 10
729.6003143525762
 20
432.5193445506017
 30
0.0
 10
732.5649529158952
 20
432.5065034397027
 30
0.0
 10
735.5296267569859
 20
432.4918631621605
 30
0.0
 10
736.7210278488827
 20
432.4860070511461
 30
0.0
 10
737.9124289407797
 20
432.4798334401252
 30
0.0
 10
739.103759477133
 20
432.4715784402709
 30
0.0
 10
741.1457783330958
 20
432.4574673293768
 30
0.0
 10
743.1876208001768
 20
432.4373589963703
 30
0.0
 10
745.2294632672564
 20
432.4022576080433
 30
0.0
 10
751.1437473385608
 20
432.3005870541331
 30
0.0
 10
757.0578550209955
 20
432.0733981689073
 30
0.0
 10
762.9527715926207
 20
431.5879759545086
 30
0.0
 10
767.728994571157
 20
431.1946992941843
 30
0.0
 10
772.4926586610228
 20
430.631877636592
 30
0.0
 10
777.2237260847415
 20
429.8662087600492
 30
0.0
 10
781.7630587893407
 20
429.1315490496709
 30
0.0
 10
786.2724053832985
 20
428.2101287867478
 30
0.0
 10
790.7318692002904
 20
427.0891068603868
 30
0.0
 10
795.610044954973
 20
425.8628160468177
 30
0.0
 10
800.4285659883932
 20
424.3976946815498
 30
0.0
 10
805.160409523211
 20
422.6905324868545
 30
0.0
 10
814.507609372499
 20
419.3181886523366
 30
0.0
 10
823.516601171704
 20
415.0013881663815
 30
0.0
 10
831.9695093687503
 20
409.7790776950208
 30
0.0
 10
840.589387285316
 20
404.4536502808909
 30
0.0
 10
848.630991877884
 20
398.1865531597074
 30
0.0
 10
855.8748248166509
 20
391.1016466072719
 30
0.0
 10
863.0000185906683
 20
384.1327686640732
 30
0.0
 10
869.3533345993375
 20
376.3726454558599
 30
0.0
 10
874.7552089566847
 20
367.9968544797902
 30
0.0
 10
877.2835672492571
 20
364.076611487438
 30
0.0
 10
879.6034691562951
 20
360.0215015528121
 30
0.0
 10
881.708070789032
 20
355.8583005088356
 30
0.0
 10
884.0179538073393
 20
351.2891228047271
 30
0.0
 10
886.0685098853911
 20
346.5897348249384
 30
0.0
 10
887.8647837453196
 20
341.7954496244571
 30
0.0
 10
889.5472514959766
 20
337.3049060857517
 30
0.0
 10
891.006587305773
 20
332.7310717150491
 30
0.0
 10
892.2645222854954
 20
328.1035092896554
 30
0.0
 10
893.5944944862786
 20
323.2109402018758
 30
0.0
 10
894.6992886351281
 20
318.2582577817298
 30
0.0
 10
895.626847231287
 20
313.2740017509747
 30
0.0
 10
896.6741386032907
 20
307.646349619496
 30
0.0
 10
897.495475812272
 20
301.9784102664225
 30
0.0
 10
898.2191288561522
 20
296.2994995246669
 30
0.0
 10
898.7124180148684
 20
292.4281868092946
 30
0.0
 10
899.1603399520885
 20
288.5517940940192
 30
0.0
 10
899.5909757784871
 20
284.6733552676694
 30
0.0
 10
900.1135807700595
 20
279.9663472879955
 30
0.0
 10
900.6107857620425
 20
275.2563759750556
 30
0.0
 10
901.0807563100166
 20
270.5436529954845
 30
0.0
 10
905.123907078157
 20
230.0028900380011
 30
0.0
 10
907.1554837120792
 20
189.2613259726596
 30
0.0
 10
907.1552720454129
 20
148.5194355655732
 30
0.0
  0
ENDBLK
  5
90
330
8D
100
AcDbEntity
  8
0
100
AcDbBlockEnd
  0
BLOCK
  5
94
330
92
100
AcDbEntity
  8
0
100
AcDbBlockBegin
  2
block 16
 70
     0
 10
0.0
 20
0.0
 30
0.0
  3
block 16
  1

  0
SPLINE
  5
96
330
92
100
AcDbEntity
  8
0
 62
   250
370
    25
100
AcDbSpline
210
0.0
220
0.0
230
1.0
 70
     8
 71
     3
 72
    83
 73
    79
 74
     0
 42
0.0000000001
 43
0.0000000001
 12
1.0
 22
0.0
 32
0.0
 13
1.0
 23
0.0
 33
0.0
 40
0.0
 40
0.0
 40
0.0
 40
0.0
 40
1.0
 40
1.0
 40
1.0
 40
2.0
 40
2.0
 40
2.0
 40
3.0
 40
3.0
 40
3.0
 40
4.0
 40
4.0
 40
4.0
 40
5.0
 40
5.0
 40
5.0
 40
6.0
 40
6.0
 40
6.0
 40
7.0
 40
7.0
 40
7.0
 40
8.0
 40
8.0
 40
8.0
 40
9.0
 40
9.0
 40
9.0
 40
10.0
 40
10.0
 40
10.0
 40
11.0
 40
11.0
 40
11.0
 40
12.0
 40
12.0
 40
12.0
 40
13.0
 40
13.0
 40
13.0
 40
14.0
 40
14.0
 40
14.0
 40
15.0
 40
15.0
 40
15.0
 40
16.0
 40
16.0
 40
16.0
 40
17.0
 40
17.0
 40
17.0
 40
18.0
 40
18.0
 40
18.0
 40
19.0
 40
19.0
 40
19.0
 40
20.0
 40
20.0
 40
20.0
 40
21.0
 40
21.0
 40
21.0
 40
22.0
 40
22.0
 40
22.0
 40
23.0
 40
23.0
 40
23.0
 40
24.0
 40
24.0
 40
24.0
 40
25.0
 40
25.0
 40
25.0
 40
26.0
 40
26.0
 40
26.0
 40
26.0
 10
105.3041666403342
 20
433.8705539732629
 30
0.0
 10
-7.640282927548545
 20
433.8746461954186
 30
0.0
 10
-120.584732495432
 20
433.7488103641168
 30
0.0
 10
-233.528899841092
 20
433.4931875904625
 30
0.0
 10
-283.2003629291229
 20
433.3807573144923
 30
0.0
 10
-332.8717907393828
 20
433.2432445389329
 30
0.0
 10
-382.543147994093
 20
433.0804023193347
 30
0.0
 10
-424.1413976011818
 20
432.9440537104246
 30
0.0
 10
-465.739611930486
 20
432.789960379576
 30
0.0
 10
-507.3377557042468
 20
432.6192864934449
 30
0.0
 10
-509.6669003889186
 20
432.6097262158109
 30
0.0
 10
-511.9960097958052
 20
432.6001306604128
 30
0.0
 10
-514.3251544804764
 20
432.5910289938911
 30
0.0
 10
-516.4046030580632
 20
432.5829503829136
 30
0.0
 10
-518.4840869134218
 20
432.575259827485
 30
0.0
 10
-520.563535491008
 20
432.5682748275932
 30
0.0
 10
-522.3251312959314
 20
432.5623834387956
 30
0.0
 10
-524.086691823083
 20
432.5570212166639
 30
0.0
 10
-525.8482523502481
 20
432.5499303834519
 30
0.0
 10
-527.0968387189972
 20
432.5449209390794
 30
0.0
 10
-528.3454250877596
 20
432.5390648280651
 30
0.0
 10
-529.5939761787382
 20
432.5295751059938
 30
0.0
 10
-531.0619903217352
 20
432.5184626061759
 30
0.0
 10
-532.5299339091764
 20
432.5023759397689
 30
0.0
 10
-533.9978422188459
 20
432.4787398290387
 30
0.0
 10
-537.0834482802119
 20
432.4291039965033
 30
0.0
 10
-540.1686662860277
 20
432.3462012200551
 30
0.0
 10
-543.2514854029915
 20
432.2071362223048
 30
0.0
 10
-545.9591253593206
 20
432.084969279831
 30
0.0
 10
-548.6648955934843
 20
431.9194812269548
 30
0.0
 10
-551.366467772152
 20
431.699877063818
 30
0.0
 10
-556.4555693567638
 20
431.2861745704869
 30
0.0
 10
-561.5297484416235
 20
430.6804198580352
 30
0.0
 10
-566.5654041937663
 20
429.8379865382743
 30
0.0
 10
-571.1166607870476
 20
429.0765862727819
 30
0.0
 10
-575.6364496030588
 20
428.1218637881686
 30
0.0
 10
-580.1028984199419
 20
426.9616482513185
 30
0.0
 10
-584.5734394589738
 20
425.8003743811608
 30
0.0
 10
-588.9905346655368
 20
424.4332194031975
 30
0.0
 10
-593.331535706661
 20
422.8555972064108
 30
0.0
 10
-598.0459167417633
 20
421.1422966784791
 30
0.0
 10
-602.670551111637
 20
419.180711154549
 30
0.0
 10
-607.1757349278905
 20
416.9750034123269
 30
0.0
 10
-611.424731526045
 20
414.8947081680982
 30
0.0
 10
-615.5674714592559
 20
412.5972076495925
 30
0.0
 10
-619.5801069501148
 20
410.0910038011079
 30
0.0
 10
-628.0998665349675
 20
404.7696686091336
 30
0.0
 10
-636.0329919626162
 20
398.5072987100941
 30
0.0
 10
-643.1688043475688
 20
391.4374557685215
 30
0.0
 10
-646.6057770699299
 20
388.0322330456468
 30
0.0
 10
-649.8577531286109
 20
384.4397206035724
 30
0.0
 10
-652.9057178016985
 20
380.6822139974915
 30
0.0
 10
-656.0591630286236
 20
376.7947087823854
 30
0.0
 10
-658.9942035368649
 20
372.7306382923556
 30
0.0
 10
-661.6934826600066
 20
368.5153319714345
 30
0.0
 10
-664.3907156720741
 20
364.303200650453
 30
0.0
 10
-666.8525753546049
 20
359.9400804430383
 30
0.0
 10
-669.0732761521413
 20
355.4582505152928
 30
0.0
 10
-671.3923666702957
 20
350.7778772574113
 30
0.0
 10
-673.4484613593687
 20
345.968034557191
 30
0.0
 10
-675.2508029969787
 20
341.065552414006
 30
0.0
 10
-677.0108465797168
 20
336.2780758245277
 30
0.0
 10
-678.5289551663479
 20
331.4022636809203
 30
0.0
 10
-679.8338801453082
 20
326.4711359826526
 30
0.0
 10
-681.1337251243534
 20
321.5592699507238
 30
0.0
 10
-682.2221151068082
 20
316.5925116974682
 30
0.0
 10
-683.1460753696825
 20
311.596437611364
 30
0.0
 10
-684.1683547976456
 20
306.0689038115911
 30
0.0
 10
-684.989409784405
 20
300.5054925123927
 30
0.0
 10
-685.7067128283952
 20
294.9298045467331
 30
0.0
 10
-686.214042542437
 20
290.9860665547627
 30
0.0
 10
-686.6694786462085
 20
287.0361902295681
 30
0.0
 10
-687.1079108613696
 20
283.0843736266125
 30
0.0
 10
-687.6175689086963
 20
278.4899723117913
 30
0.0
 10
-688.1042258452994
 20
273.8929251637055
 30
0.0
 10
-688.5645655601035
 20
269.293267460073
 30
0.0
 10
-692.5800585509131
 20
229.1689233847807
 30
0.0
 10
-694.5911035184827
 20
188.8441309793824
 30
0.0
 10
-694.5917385184835
 20
148.5194355655732
 30
0.0
  0
ENDBLK
  5
95
330
92
100
AcDbEntity
  8
0
100
AcDbBlockEnd
  0
BLOCK
  5
99
330
97
100
AcDbEntity
  8
0
100
AcDbBlockBegin
  2
block 17
 70
     0
 10
0.0
 20
0.0
 30
0.0
  3
block 17
  1

  0
SPLINE
  5
9B
330
97
100
AcDbEntity
  8
0
 62
   250
370
    25
100
AcDbSpline
210
0.0
220
0.0
230
1.0
 70
     8
 71
     3
 72
    83
 73
    79
 74
     0
 42
0.0000000001
 43
0.0000000001
 12
1.0
 22
0.0
 32
0.0
 13
1.0
 23
0.0
 33
0.0
 40
0.0
 40
0.0
 40
0.0
 40
0.0
 40
1.0
 40
1.0
 40
1.0
 40
2.0
 40
2.0
 40
2.0
 40
3.0
 40
3.0
 40
3.0
 40
4.0
 40
4.0
 40
4.0
 40
5.0
 40
5.0
 40
5.0
 40
6.0
 40
6.0
 40
6.0
 40
7.0
 40
7.0
 40
7.0
 40
8.0
 40
8.0
 40
8.0
 40
9.0
 40
9.0
 40
9.0
 40
10.0
 40
10.0
 40
10.0
 40
11.0
 40
11.0
 40
11.0
 40
12.0
 40
12.0
 40
12.0
 40
13.0
 40
13.0
 40
13.0
 40
14.0
 40
14.0
 40
14.0
 40
15.0
 40
15.0
 40
15.0
 40
16.0
 40
16.0
 40
16.0
 40
17.0
 40
17.0
 40
17.0
 40
18.0
 40
18.0
 40
18.0
 40
19.0
 40
19.0
 40
19.0
 40
20.0
 40
20.0
 40
20.0
 40
21.0
 40
21.0
 40
21.0
 40
22.0
 40
22.0
 40
22.0
 40
23.0
 40
23.0
 40
23.0
 40
24.0
 40
24.0
 40
24.0
 40
25.0
 40
25.0
 40
25.0
 40
26.0
 40
26.0
 40
26.0
 40
26.0
 10
-694.5917385184835
 20
148.5194355655732
 30
0.0
 10
-694.5915621295815
 20
107.7500383639326
 30
0.0
 10
-692.5347618849846
 20
66.9807469956187
 30
0.0
 10
-688.4325913955588
 20
26.4183245076344
 30
0.0
 10
-687.9467105700544
 20
21.61373831759563
 30
0.0
 10
-687.4321136339112
 20
16.81204490518255
 30
0.0
 10
-686.8899294759872
 20
12.01349121490004
 30
0.0
 10
-686.490408649099
 20
8.477493861230002
 30
0.0
 10
-686.0759300446682
 20
4.943189840832124
 30
0.0
 10
-685.6172131076177
 20
1.414283320201574
 30
0.0
 10
-684.8985342303253
 20
-4.114626173201236
 30
0.0
 10
-684.0712703547803
 20
-9.63027122271105
 30
0.0
 10
-683.0435934268882
 20
-15.10996821815096
 30
0.0
 10
-682.0852373312308
 20
-20.22020106222286
 30
0.0
 10
-680.9526090161557
 20
-25.29917779647387
 30
0.0
 10
-679.5964607046842
 20
-30.31860564430494
 30
0.0
 10
-678.3217335030185
 20
-35.03672600458953
 30
0.0
 10
-676.8495213045323
 20
-39.7022119226234
 30
0.0
 10
-675.1549532762982
 20
-44.2862767329042
 30
0.0
 10
-673.4517421926473
 20
-48.89366015333801
 30
0.0
 10
-671.5238469459647
 20
-53.4188110771878
 30
0.0
 10
-669.3634358696771
 20
-57.83040283905197
 30
0.0
 10
-667.143969794345
 20
-62.36260931814384
 30
0.0
 10
-664.6790409452027
 20
-66.7749771910942
 30
0.0
 10
-661.9742937666019
 20
-71.0353684036692
 30
0.0
 10
-659.2675004769018
 20
-75.29900517167589
 30
0.0
 10
-656.3205008021937
 20
-79.41038305707296
 30
0.0
 10
-653.1502280755279
 20
-83.3418090054888
 30
0.0
 10
-649.8571534063943
 20
-87.42549383647703
 30
0.0
 10
-646.3232020744888
 20
-91.31500978662302
 30
0.0
 10
-642.5735624127192
 20
-94.98368685701787
 30
0.0
 10
-635.3851861397367
 20
-102.0168407326213
 30
0.0
 10
-627.4041534906273
 20
-108.2383588084627
 30
0.0
 10
-618.8404025175921
 20
-113.5113280346986
 30
0.0
 10
-614.6912773067124
 20
-116.066074040058
 30
0.0
 10
-610.405380153595
 20
-118.3981467213342
 30
0.0
 10
-606.0094163355758
 20
-120.4998202454767
 30
0.0
 10
-601.4340297426816
 20
-122.6872893216154
 30
0.0
 10
-596.7394395405919
 20
-124.6251681302967
 30
0.0
 10
-591.9557023955036
 20
-126.3090469494956
 30
0.0
 10
-587.6490266316074
 20
-127.8250035534284
 30
0.0
 10
-583.2700667022116
 20
-129.1350790547598
 30
0.0
 10
-578.8412592736133
 20
-130.2446356755009
 30
0.0
 10
-574.2529257364799
 20
-131.3941620168168
 30
0.0
 10
-569.6110405335442
 20
-132.3284233670436
 30
0.0
 10
-564.9382872755549
 20
-133.0628713922099
 30
0.0
 10
-560.0822659649543
 20
-133.8261060828387
 30
0.0
 10
-555.1929071548917
 20
-134.3734760602022
 30
0.0
 10
-550.2913422339171
 20
-134.7454802114579
 30
0.0
 10
-544.7305767680289
 20
-135.1675082495601
 30
0.0
 10
-539.1541126912708
 20
-135.3637585192087
 30
0.0
 10
-533.5780719478335
 20
-135.4468729602198
 30
0.0
 10
-532.3547444675619
 20
-135.4651115705717
 30
0.0
 10
-531.1314169872896
 20
-135.4778821256012
 30
0.0
 10
-529.9079836736778
 20
-135.4877246251935
 30
0.0
 10
-528.5926870282202
 20
-135.498272680317
 30
0.0
 10
-527.2772139938672
 20
-135.5054340688987
 30
0.0
 10
-525.9618115150829
 20
-135.5108668464634
 30
0.0
 10
-524.5849198706167
 20
-135.5165465684419
 30
0.0
 10
-523.2080987816933
 20
-135.5203918460626
 30
0.0
 10
-521.8312776927827
 20
-135.5247310125479
 30
0.0
 10
-519.2023777351704
 20
-135.5330212899808
 30
0.0
 10
-516.5733719442314
 20
-135.5432518451226
 30
0.0
 10
-513.9444367088289
 20
-135.5537646224614
 30
0.0
 10
-512.2554778471706
 20
-135.5605026777347
 30
0.0
 10
-510.5665189855252
 20
-135.5673465663361
 30
0.0
 10
-508.8775601238669
 20
-135.574190454949
 30
0.0
 10
-470.0921488047553
 20
-135.7311765595678
 30
0.0
 10
-431.3065610967611
 20
-135.8786729423451
 30
0.0
 10
-392.520973388767
 20
-136.0089184925116
 30
0.0
 10
-365.9645682613819
 20
-136.0981359888199
 30
0.0
 10
-339.4081631339968
 20
-136.1792395965784
 30
0.0
 10
-312.8517227288403
 20
-136.2533934823961
 30
0.0
 10
-277.4432060775077
 20
-136.3522770894149
 30
0.0
 10
-242.0346541483909
 20
-136.4387781969408
 30
0.0
 10
-206.6260316637315
 20
-136.5125087494513
 30
0.0
 10
-102.6494400068163
 20
-136.7290437404888
 30
0.0
 10
1.327363316752357
 20
-136.8355826249656
 30
0.0
 10
105.3041666403342
 20
-136.8316315140181
 30
0.0
  0
ENDBLK
  5
9A
330
97
100
AcDbEntity
  8
0
100
AcDbBlockEnd
  0
BLOCK
  5
9E
330
9C
100
AcDbEntity
  8
0
100
AcDbBlockBegin
  2
block 18
 70
     0
 10
0.0
 20
0.0
 30
0.0
  3
block 18
  1

  0
SPLINE
  5
A0
330
9C
100
AcDbEntity
  8
0
 62
   250
370
    25
100
AcDbSpline
210
0.0
220
0.0
230
1.0
 70
     8
 71
     3
 72
    68
 73
    64
 74
     0
 42
0.0000000001
 43
0.0000000001
 12
1.0
 22
0.0
 32
0.0
 13
1.0
 23
0.0
 33
0.0
 40
0.0
 40
0.0
 40
0.0
 40
0.0
 40
1.0
 40
1.0
 40
1.0
 40
2.0
 40
2.0
 40
2.0
 40
3.0
 40
3.0
 40
3.0
 40
4.0
 40
4.0
 40
4.0
 40
5.0
 40
5.0
 40
5.0
 40
6.0
 40
6.0
 40
6.0
 40
7.0
 40
7.0
 40
7.0
 40
8.0
 40
8.0
 40
8.0
 40
9.0
 40
9.0
 40
9.0
 40
10.0
 40
10.0
 40
10.0
 40
11.0
 40
11.0
 40
11.0
 40
12.0
 40
12.0
 40
12.0
 40
13.0
 40
13.0
 40
13.0
 40
14.0
 40
14.0
 40
14.0
 40
15.0
 40
15.0
 40
15.0
 40
16.0
 40
16.0
 40
16.0
 40
17.0
 40
17.0
 40
17.0
 40
18.0
 40
18.0
 40
18.0
 40
19.0
 40
19.0
 40
19.0
 40
20.0
 40
20.0
 40
20.0
 40
21.0
 40
21.0
 40
21.0
 40
21.0
 10
907.1552720454129
 20
148.5194355655732
 30
0.0
 10
907.1556248231906
 20
107.5807403153772
 30
0.0
 10
905.104080967372
 20
66.64250367628698
 30
0.0
 10
901.0219129776261
 20
25.90799619542785
 30
0.0
 10
900.5577632628947
 20
21.27623583155139
 30
0.0
 10
900.0673316041364
 20
16.64712130090996
 30
0.0
 10
899.5523113346595
 20
12.02075843680852
 30
0.0
 10
899.1261205082001
 20
8.192273039711354
 30
0.0
 10
898.6831021820135
 20
4.365692642500129
 30
0.0
 10
898.1945755232182
 20
0.5445097450960158
 30
0.0
 10
897.4739210903944
 20
-5.092526132727663
 30
0.0
 10
896.6542419369378
 20
-10.71788506658961
 30
0.0
 10
895.6131594537275
 20
-16.30419150207417
 30
0.0
 10
894.6932561352179
 20
-21.24025796445727
 30
0.0
 10
893.6004917084042
 20
-26.14587970587869
 30
0.0
 10
892.2853361740446
 20
-30.99184672754055
 30
0.0
 10
890.9745198062985
 20
-35.82183291653858
 30
0.0
 10
889.4428292754353
 20
-40.59255244132784
 30
0.0
 10
887.6693095818034
 20
-45.27232585877902
 30
0.0
 10
885.9494826650915
 20
-49.81038844872992
 30
0.0
 10
884.0022551964875
 20
-54.26290243113703
 30
0.0
 10
881.8208538427677
 20
-58.59815308504925
 30
0.0
 10
879.5628291569482
 20
-63.08562734378651
 30
0.0
 10
877.0538736418524
 20
-67.44740688549626
 30
0.0
 10
874.304570630618
 20
-71.65160060039695
 30
0.0
 10
868.8569057184535
 20
-79.98212997785859
 30
0.0
 10
862.4655602659443
 20
-87.69406354758787
 30
0.0
 10
855.3093926035459
 20
-94.61263520570576
 30
0.0
 10
848.1235563305147
 20
-101.5598524181889
 30
0.0
 10
840.1665831254625
 20
-107.7071460526821
 30
0.0
 10
831.6493988183448
 20
-112.9373586140068
 30
0.0
 10
822.9107406259056
 20
-118.3035317252573
 30
0.0
 10
813.5823791096487
 20
-122.7043637653444
 30
0.0
 10
803.9051203767801
 20
-126.0978741804665
 30
0.0
 10
799.4146473936239
 20
-127.6725682819614
 30
0.0
 10
794.8490680227949
 20
-129.0303393368679
 30
0.0
 10
790.2303603194783
 20
-130.1751737339336
 30
0.0
 10
785.6913803926569
 20
-131.3002172984865
 30
0.0
 10
781.1011418555677
 20
-132.219626704889
 30
0.0
 10
776.4814463744966
 20
-132.9460666748324
 30
0.0
 10
771.5043870102933
 20
-133.728739420209
 30
0.0
 10
766.4931434799731
 20
-134.2874688415269
 30
0.0
 10
761.4692705054275
 20
-134.6656818814336
 30
0.0
 10
755.964949483057
 20
-135.0800193642804
 30
0.0
 10
750.4454237387137
 20
-135.2776807449912
 30
0.0
 10
744.926250772148
 20
-135.3683093523476
 30
0.0
 10
742.847931083438
 20
-135.4024229620494
 30
0.0
 10
740.7696819502713
 20
-135.4213671279452
 30
0.0
 10
738.6911858726666
 20
-135.4352312940285
 30
0.0
 10
737.0920089540074
 20
-135.4458851824787
 30
0.0
 10
735.4926556464663
 20
-135.4535051821663
 30
0.0
 10
733.8933728944681
 20
-135.4608782374143
 30
0.0
 10
730.702744890357
 20
-135.4756243479234
 30
0.0
 10
727.5122579973581
 20
-135.4894179584516
 30
0.0
 10
724.3217358265739
 20
-135.5030704578941
 30
0.0
 10
685.427069231443
 20
-135.6697579509939
 30
0.0
 10
646.5319440252213
 20
-135.8197943336718
 30
0.0
 10
607.6368188189982
 20
-135.9543790503236
 30
0.0
 10
553.6477085783513
 20
-136.141210153701
 30
0.0
 10
499.6586336154883
 20
-136.2982668138749
 30
0.0
 10
445.6694880970697
 20
-136.425407919721
 30
0.0
 10
332.2146749263041
 20
-136.6925312419991
 30
0.0
 10
218.7595442555446
 20
-136.8273629030878
 30
0.0
 10
105.3043783070013
 20
-136.8316315140181
 30
0.0
  0
ENDBLK
  5
9F
330
9C
100
AcDbEntity
  8
0
100
AcDbBlockEnd
  0
BLOCK
  5
A3
330
A1
100
AcDbEntity
  8
0
100
AcDbBlockBegin
  2
block 19
 70
     0
 10
0.0
 20
0.0
 30
0.0
  3
block 19
  1

  0
SPLINE
  5
A5
330
A1
100
AcDbEntity
  8
0
 62
   250
370
    25
100
AcDbSpline
210
0.0
220
0.0
230
1.0
 70
     8
 71
     3
 72
   125
 73
   121
 74
     0
 42
0.0000000001
 43
0.0000000001
 12
1.0
 22
0.0
 32
0.0
 13
1.0
 23
0.0
 33
0.0
 40
0.0
 40
0.0
 40
0.0
 40
0.0
 40
1.0
 40
1.0
 40
1.0
 40
2.0
 40
2.0
 40
2.0
 40
3.0
 40
3.0
 40
3.0
 40
4.0
 40
4.0
 40
4.0
 40
5.0
 40
5.0
 40
5.0
 40
6.0
 40
6.0
 40
6.0
 40
7.0
 40
7.0
 40
7.0
 40
8.0
 40
8.0
 40
8.0
 40
9.0
 40
9.0
 40
9.0
 40
10.0
 40
10.0
 40
10.0
 40
11.0
 40
11.0
 40
11.0
 40
12.0
 40
12.0
 40
12.0
 40
13.0
 40
13.0
 40
13.0
 40
14.0
 40
14.0
 40
14.0
 40
15.0
 40
15.0
 40
15.0
 40
16.0
 40
16.0
 40
16.0
 40
17.0
 40
17.0
 40
17.0
 40
18.0
 40
18.0
 40
18.0
 40
19.0
 40
19.0
 40
19.0
 40
20.0
 40
20.0
 40
20.0
 40
21.0
 40
21.0
 40
21.0
 40
22.0
 40
22.0
 40
22.0
 40
23.0
 40
23.0
 40
23.0
 40
24.0
 40
24.0
 40
24.0
 40
25.0
 40
25.0
 40
25.0
 40
26.0
 40
26.0
 40
26.0
 40
27.0
 40
27.0
 40
27.0
 40
28.0
 40
28.0
 40
28.0
 40
29.0
 40
29.0
 40
29.0
 40
30.0
 40
30.0
 40
30.0
 40
31.0
 40
31.0
 40
31.0
 40
32.0
 40
32.0
 40
32.0
 40
33.0
 40
33.0
 40
33.0
 40
34.0
 40
34.0
 40
34.0
 40
35.0
 40
35.0
 40
35.0
 40
36.0
 40
36.0
 40
36.0
 40
37.0
 40
37.0
 40
37.0
 40
38.0
 40
38.0
 40
38.0
 40
39.0
 40
39.0
 40
39.0
 40
40.0
 40
40.0
 40
40.0
 40
40.0
 10
103.6718286110964
 20
292.0540659820009
 30
0.0
 10
170.2224733714342
 20
292.038367371144
 30
0.0
 10
236.7730122984449
 20
291.8531237630198
 30
0.0
 10
303.322880947684
 20
291.5361529347757
 30
0.0
 10
339.27548675691
 20
291.3649146042119
 30
0.0
 10
375.2278808994702
 20
291.1552587742644
 30
0.0
 10
411.1801339309185
 20
290.9224960002354
 30
0.0
 10
434.1229305054573
 20
290.7739412804132
 30
0.0
 10
457.0656918022109
 20
290.6159673940761
 30
0.0
 10
480.0083825434223
 20
290.4545362855645
 30
0.0
 10
504.0689554888269
 20
290.2852382327354
 30
0.0
 10
528.1294578786758
 20
290.112130179967
 30
0.0
 10
552.1898897129689
 20
289.9272040718424
 30
0.0
 10
576.3394332124902
 20
289.7415724081623
 30
0.0
 10
600.4889414342391
 20
289.5440168557994
 30
0.0
 10
624.6376382671185
 20
289.2711432490966
 30
0.0
 10
636.5174297422511
 20
289.1369113067971
 30
0.0
 10
648.3970095507044
 20
288.9844407537087
 30
0.0
 10
660.2762718591767
 20
288.8100979787361
 30
0.0
 10
665.6913048274354
 20
288.7306524244623
 30
0.0
 10
671.1062319623429
 20
288.6466560369341
 30
0.0
 10
676.5211238194909
 20
288.5576502050334
 30
0.0
 10
684.7679745198562
 20
288.4221482627715
 30
0.0
 10
693.0146135535687
 20
288.2751104873635
 30
0.0
 10
701.2615348094898
 20
288.1440182672574
 30
0.0
 10
704.7599261419637
 20
288.0884204903873
 30
0.0
 10
708.2583174744503
 20
288.0356802134494
 30
0.0
 10
711.756849918049
 20
287.9910538252799
 30
0.0
 10
715.8499540187117
 20
287.9388779927868
 30
0.0
 10
719.9431992304986
 20
287.8978146601187
 30
0.0
 10
724.0365502756136
 20
287.8704038272267
 30
0.0
 10
725.8027674693586
 20
287.8585857718713
 30
0.0
 10
727.568984663105
 20
287.8493077164542
 30
0.0
 10
729.3352371346352
 20
287.8441924387614
 30
0.0
 10
732.0024840360749
 20
287.8364313277642
 30
0.0
 10
734.6697662152869
 20
287.8381599388575
 30
0.0
 10
737.3370131167266
 20
287.8278235501322
 30
0.0
 10
738.5641505969387
 20
287.8230610502108
 30
0.0
 10
739.7912880771632
 20
287.8157585503387
 30
0.0
 10
741.018319724034
 20
287.798648828381
 30
0.0
 10
742.2627433150915
 20
287.7812568842147
 30
0.0
 10
743.5071316283658
 20
287.7538107735515
 30
0.0
 10
744.7508849416375
 20
287.708725774277
 30
0.0
 10
745.7165082594094
 20
287.6736949415056
 30
0.0
 10
746.68177879939
 20
287.628080775583
 30
0.0
 10
747.6457793394076
 20
287.5616527210977
 30
0.0
 10
748.4361779377681
 20
287.5072191108633
 30
0.0
 10
749.2257298694861
 20
287.4387802230742
 30
0.0
 10
750.0124948568014
 20
287.3456116134686
 30
0.0
 10
750.3488331847182
 20
287.3057830030053
 30
0.0
 10
750.6846423459614
 20
287.2614388370451
 30
0.0
 10
751.0193578961238
 20
287.209756893429
 30
0.0
 10
751.2820715029973
 20
287.1692227274216
 30
0.0
 10
751.5440795543391
 20
287.124137728147
 30
0.0
 10
751.8042531612472
 20
287.0689280068136
 30
0.0
 10
751.9200348260522
 20
287.0443746738795
 30
0.0
 10
752.0354284352949
 20
287.0178105076287
 30
0.0
 10
752.148352600142
 20
286.983026619309
 30
0.0
 10
752.2531628762328
 20
286.9507827309398
 30
0.0
 10
752.3558212079096
 20
286.9114480093463
 30
0.0
 10
752.4571389840548
 20
286.8691852322643
 30
0.0
 10
752.7615156458123
 20
286.7422205120793
 30
0.0
 10
753.05375675222
 20
286.588726903441
 30
0.0
 10
753.3395420253846
 20
286.424261906089
 30
0.0
 10
754.0184628477687
 20
286.0335958012774
 30
0.0
 10
754.6609770040793
 20
285.581123030797
 30
0.0
 10
755.2620750499426
 20
285.0788380389051
 30
0.0
 10
755.7777303194072
 20
284.6479552680806
 30
0.0
 10
756.2629055893555
 20
284.1803836089464
 30
0.0
 10
756.6930475268649
 20
283.6644813950437
 30
0.0
 10
756.9102175233716
 20
283.4040255658936
 30
0.0
 10
757.1133469645382
 20
283.1312225147394
 30
0.0
 10
757.3032825170359
 20
282.8497058526193
 30
0.0
 10
757.4708519587839
 20
282.6013855788377
 30
0.0
 10
757.628120289577
 20
282.3462919718443
 30
0.0
 10
757.771242231719
 20
282.0839311427363
 30
0.0
 10
758.1468800034261
 20
281.3954147649485
 30
0.0
 10
758.4251158322792
 20
280.6569450546365
 30
0.0
 10
758.6785866615318
 20
279.9133600666195
 30
0.0
 10
758.9190752687548
 20
279.2079456335596
 30
0.0
 10
759.1372683207984
 20
278.4979450894491
 30
0.0
 10
759.3339419287349
 20
277.7791956565882
 30
0.0
 10
759.4224185939747
 20
277.4558395506888
 30
0.0
 10
759.5065208148432
 20
277.1307195559365
 30
0.0
 10
759.585260813573
 20
276.8052467834065
 30
0.0
 10
759.616340535293
 20
276.676800396592
 30
0.0
 10
759.6465735903596
 20
276.5482834542212
 30
0.0
 10
759.6744430343562
 20
276.4190256785231
 30
0.0
 10
759.7039705338788
 20
276.2821831807296
 30
0.0
 10
759.7308874778944
 20
276.1445292940531
 30
0.0
 10
759.7557230330506
 20
276.006663740723
 30
0.0
 10
759.7776305326938
 20
275.8852376315829
 30
0.0
 10
759.7979858101512
 20
275.7636351335353
 30
0.0
 10
759.8174591431706
 20
275.6418209688342
 30
0.0
 10
759.8538658092441
 20
275.4142087502948
 30
0.0
 10
759.8873444198175
 20
275.1859262539704
 30
0.0
 10
759.9191296970814
 20
274.957502646541
 30
0.0
 10
759.9523260854314
 20
274.7187426503857
 30
0.0
 10
759.9836880293748
 20
274.479841543119
 30
0.0
 10
760.0137799733287
 20
274.2407287691994
 30
0.0
 10
760.04697636168
 20
273.9769921067894
 30
0.0
 10
760.0786205278448
 20
273.7130437776989
 30
0.0
 10
760.109312194016
 20
273.4489896153079
 30
0.0
 10
760.1846655261276
 20
272.8007251813104
 30
0.0
 10
760.2542333027806
 20
272.1518610251092
 30
0.0
 10
760.3202380239452
 20
271.502644091111
 30
0.0
 10
760.4814221880187
 20
269.9175430055691
 30
0.0
 10
760.6214044079793
 20
268.3303605311612
 30
0.0
 10
760.7572944057914
 20
266.7428958345313
 30
0.0
 10
760.9987707907798
 20
263.9217319911193
 30
0.0
 10
761.2273002315487
 20
261.0995450921893
 30
0.0
 10
761.448562450191
 20
258.2767937488011
 30
0.0
 10
761.8748238322183
 20
252.8388302253736
 30
0.0
 10
762.2741682702177
 20
247.3987147575322
 30
0.0
 10
762.6438440975959
 20
241.9565884563876
 30
0.0
 10
763.3868293633976
 20
231.0190311327278
 30
0.0
 10
764.0100112977867
 20
220.0733246425413
 30
0.0
 10
764.5071104564429
 20
209.1217973191109
 30
0.0
 10
765.4233801638956
 20
188.934618477926
 30
0.0
 10
765.9111307115791
 20
168.7276135259561
 30
0.0
 10
765.9098959893743
 20
148.5194355655732
 30
0.0
  0
ENDBLK
  5
A4
330
A1
100
AcDbEntity
  8
0
100
AcDbBlockEnd
  0
BLOCK
  5
A8
330
A6
100
AcDbEntity
  8
0
100
AcDbBlockBegin
  2
block 20
 70
     0
 10
0.0
 20
0.0
 30
0.0
  3
block 20
  1

  0
SPLINE
  5
AA
330
A6
100
AcDbEntity
  8
0
 62
   250
370
    25
100
AcDbSpline
210
0.0
220
0.0
230
1.0
 70
     8
 71
     3
 72
    38
 73
    34
 74
     0
 42
0.0000000001
 43
0.0000000001
 12
1.0
 22
0.0
 32
0.0
 13
1.0
 23
0.0
 33
0.0
 40
0.0
 40
0.0
 40
0.0
 40
0.0
 40
1.0
 40
1.0
 40
1.0
 40
2.0
 40
2.0
 40
2.0
 40
3.0
 40
3.0
 40
3.0
 40
4.0
 40
4.0
 40
4.0
 40
5.0
 40
5.0
 40
5.0
 40
6.0
 40
6.0
 40
6.0
 40
7.0
 40
7.0
 40
7.0
 40
8.0
 40
8.0
 40
8.0
 40
9.0
 40
9.0
 40
9.0
 40
10.0
 40
10.0
 40
10.0
 40
11.0
 40
11.0
 40
11.0
 40
11.0
 10
-399.566439386288
 20
289.405304635814
 30
0.0
 10
-398.7466543995046
 20
289.5188285228648
 30
0.0
 10
-397.9226008016761
 20
289.5971804660585
 30
0.0
 10
-397.0975947038782
 20
289.6618799094504
 30
0.0
 10
-396.5871958232114
 20
289.7019201865937
 30
0.0
 10
-396.0764088869951
 20
289.736704074914
 30
0.0
 10
-395.5653750063535
 20
289.7673604633006
 30
0.0
 10
-394.9763066825184
 20
289.8027087960658
 30
0.0
 10
-394.3868503031338
 20
289.8325890733662
 30
0.0
 10
-393.7972880904153
 20
289.8586946284983
 30
0.0
 10
-393.1888169891107
 20
289.885611572514
 30
0.0
 10
-392.5801694989358
 20
289.9085774054661
 30
0.0
 10
-391.9714161754085
 20
289.928015460726
 30
0.0
 10
-391.312497852704
 20
289.9490410159428
 30
0.0
 10
-390.6534031411043
 20
289.9659743489853
 30
0.0
 10
-389.9942731517393
 20
289.9809321265342
 30
0.0
 10
-389.5622614920309
 20
289.9907393485858
 30
0.0
 10
-389.130249832329
 20
289.9996999040026
 30
0.0
 10
-388.6982028948559
 20
290.0068260150121
 30
0.0
 10
-388.312158178855
 20
290.0132112926738
 30
0.0
 10
-387.9260781850759
 20
290.0181501814906
 30
0.0
 10
-387.5400334690814
 20
290.0239004591653
 30
0.0
 10
-387.0722501432801
 20
290.0308501812725
 30
0.0
 10
-386.6044668174924
 20
290.038964070041
 30
0.0
 10
-386.1366834917046
 20
290.0447143477285
 30
0.0
 10
-385.7486984979562
 20
290.0494768476494
 30
0.0
 10
-385.3607135042199
 20
290.0525812920454
 30
0.0
 10
-384.9726932326997
 20
290.0556857364421
 30
0.0
 10
-324.7734594810672
 20
290.537474339771
 30
0.0
 10
-264.5736260072316
 20
290.9428865554646
 30
0.0
 10
-204.3732986445062
 20
291.2598926614605
 30
0.0
 10
-101.6925303000299
 20
291.8005951527483
 30
0.0
 10
0.9896138777684219
 20
292.083981537073
 30
0.0
 10
103.6718286110964
 20
292.0540659820009
 30
0.0
  0
ENDBLK
  5
A9
330
A6
100
AcDbEntity
  8
0
100
AcDbBlockEnd
  0
BLOCK
  5
AD
330
AB
100
AcDbEntity
  8
0
100
AcDbBlockBegin
  2
block 21
 70
     0
 10
0.0
 20
0.0
 30
0.0
  3
block 21
  1

  0
SPLINE
  5
AF
330
AB
100
AcDbEntity
  8
0
 62
   250
370
    25
100
AcDbSpline
210
0.0
220
0.0
230
1.0
 70
     8
 71
     3
 72
    47
 73
    43
 74
     0
 42
0.0000000001
 43
0.0000000001
 12
1.0
 22
0.0
 32
0.0
 13
1.0
 23
0.0
 33
0.0
 40
0.0
 40
0.0
 40
0.0
 40
0.0
 40
1.0
 40
1.0
 40
1.0
 40
2.0
 40
2.0
 40
2.0
 40
3.0
 40
3.0
 40
3.0
 40
4.0
 40
4.0
 40
4.0
 40
5.0
 40
5.0
 40
5.0
 40
6.0
 40
6.0
 40
6.0
 40
7.0
 40
7.0
 40
7.0
 40
8.0
 40
8.0
 40
8.0
 40
9.0
 40
9.0
 40
9.0
 40
10.0
 40
10.0
 40
10.0
 40
11.0
 40
11.0
 40
11.0
 40
12.0
 40
12.0
 40
12.0
 40
13.0
 40
13.0
 40
13.0
 40
14.0
 40
14.0
 40
14.0
 40
14.0
 10
-412.4490369563527
 20
148.5194355655732
 30
0.0
 10
-412.4546461229417
 20
158.7700022976022
 30
0.0
 10
-412.3481425135409
 20
169.020595465666
 30
0.0
 10
-412.1294908504055
 20
179.2688250226466
 30
0.0
 10
-411.917330298272
 20
189.2132423623158
 30
0.0
 10
-411.5995128033925
 20
199.1554372020146
 30
0.0
 10
-411.1760030879958
 20
209.0930812084719
 30
0.0
 10
-410.7430389283123
 20
219.2517052113494
 30
0.0
 10
-410.1995494926223
 20
229.4056019920765
 30
0.0
 10
-409.5453583920676
 20
239.5523726618146
 30
0.0
 10
-409.2169222862529
 20
244.6464484130208
 30
0.0
 10
-408.860616736441
 20
249.7387249975902
 30
0.0
 10
-408.4759831315261
 20
254.8288496377264
 30
0.0
 10
-408.2726420236923
 20
257.5199090387978
 30
0.0
 10
-408.0613634159847
 20
260.2103687176412
 30
0.0
 10
-407.8436995306153
 20
262.9002992298236
 30
0.0
 10
-407.6679809223264
 20
265.0711525281504
 30
0.0
 10
-407.4880995363461
 20
267.2416883264968
 30
0.0
 10
-407.2895914839824
 20
269.410566069305
 30
0.0
 10
-407.1467517640702
 20
270.9710785441481
 30
0.0
 10
-406.9942459331979
 20
272.5307443523237
 30
0.0
 10
-406.8153523249702
 20
274.0875526605677
 30
0.0
 10
-406.6757581605462
 20
275.3020959743121
 30
0.0
 10
-406.520077329735
 20
276.5149106769881
 30
0.0
 10
-406.328765943923
 20
277.7225042686182
 30
0.0
 10
-406.200037334898
 20
278.5349867555109
 30
0.0
 10
-406.0551515038923
 20
279.3451409091244
 30
0.0
 10
-405.8623231736663
 20
280.1449233962288
 30
0.0
 10
-405.7104876205656
 20
280.7745964416333
 30
0.0
 10
-405.5289481790476
 20
281.3978842093633
 30
0.0
 10
-405.2963970716786
 20
282.0019103107274
 30
0.0
 10
-405.0539329089299
 20
282.6316891894587
 30
0.0
 10
-404.756047358175
 20
283.2405836240852
 30
0.0
 10
-404.4180156969487
 20
283.8252422257708
 30
0.0
 10
-404.0324648698369
 20
284.4920274928056
 30
0.0
 10
-403.5947029324481
 20
285.1273097047857
 30
0.0
 10
-403.123956273375
 20
285.7367333060724
 30
0.0
 10
-402.6076660039228
 20
286.4050355175213
 30
0.0
 10
-402.0516882351045
 20
287.0422580072553
 30
0.0
 10
-401.4648424112332
 20
287.649670775226
 30
0.0
 10
-400.8655435320053
 20
288.2699599318995
 30
0.0
 10
-400.2341065977486
 20
288.8591693668459
 30
0.0
 10
-399.566439386288
 20
289.405304635814
 30
0.0
  0
ENDBLK
  5
AE
330
AB
100
AcDbEntity
  8
0
100
AcDbBlockEnd
  0
BLOCK
  5
B2
330
B0
100
AcDbEntity
  8
0
100
AcDbBlockBegin
  2
block 22
 70
     0
 10
0.0
 20
0.0
 30
0.0
  3
block 22
  1

  0
SPLINE
  5
B4
330
B0
100
AcDbEntity
  8
0
 62
   250
370
    25
100
AcDbSpline
210
0.0
220
0.0
230
1.0
 70
     8
 71
     3
 72
    41
 73
    37
 74
     0
 42
0.0000000001
 43
0.0000000001
 12
1.0
 22
0.0
 32
0.0
 13
1.0
 23
0.0
 33
0.0
 40
0.0
 40
0.0
 40
0.0
 40
0.0
 40
1.0
 40
1.0
 40
1.0
 40
2.0
 40
2.0
 40
2.0
 40
3.0
 40
3.0
 40
3.0
 40
4.0
 40
4.0
 40
4.0
 40
5.0
 40
5.0
 40
5.0
 40
6.0
 40
6.0
 40
6.0
 40
7.0
 40
7.0
 40
7.0
 40
8.0
 40
8.0
 40
8.0
 40
9.0
 40
9.0
 40
9.0
 40
10.0
 40
10.0
 40
10.0
 40
11.0
 40
11.0
 40
11.0
 40
12.0
 40
12.0
 40
12.0
 40
12.0
 10
103.671793333325
 20
4.984817616893356
 30
0.0
 10
78.63508429255333
 20
4.978114839377701
 30
0.0
 10
53.59841052955309
 20
4.989968172235373
 30
0.0
 10
28.56173676655285
 20
5.018931226593846
 30
0.0
 10
3.444594393741395
 20
5.048000114279103
 30
0.0
 10
-21.6725479790829
 20
5.094319834577806
 30
0.0
 10
-46.78961979633867
 20
5.15820788749469
 30
0.0
 10
-99.97753643879518
 20
5.293533437435278
 30
0.0
 10
-153.16527669235
 20
5.507775373024501
 30
0.0
 10
-206.352664168152
 20
5.789785916897324
 30
0.0
 10
-265.8761520973388
 20
6.105345626064979
 30
0.0
 10
-325.399181415421
 20
6.505783665043988
 30
0.0
 10
-384.9216110112994
 20
6.982809756414384
 30
0.0
 10
-385.1880640625566
 20
6.984926423005232
 30
0.0
 10
-385.4545523915978
 20
6.987078367356275
 30
0.0
 10
-385.7210054428479
 20
6.989971145021749
 30
0.0
 10
-386.1822271020844
 20
6.994945311467826
 30
0.0
 10
-386.6434134835306
 20
7.00217725561868
 30
0.0
 10
-387.1046351427607
 20
7.008703644237111
 30
0.0
 10
-387.5490293022757
 20
7.014947810646937
 30
0.0
 10
-387.993388183994
 20
7.020556977081948
 30
0.0
 10
-388.4377823434962
 20
7.027647810134274
 30
0.0
 10
-388.9765445570364
 20
7.036255587534591
 30
0.0
 10
-389.5152714927934
 20
7.047085864880774
 30
0.0
 10
-390.0539631507651
 20
7.059362531045577
 30
0.0
 10
-390.8318381382263
 20
7.077071974750735
 30
0.0
 10
-391.6096778479028
 20
7.097780029448151
 30
0.0
 10
-392.3873058909259
 20
7.124661694999071
 30
0.0
 10
-392.8634147721363
 20
7.141101138753314
 30
0.0
 10
-393.3394530977976
 20
7.159833637982793
 30
0.0
 10
-393.8154208679031
 20
7.181000303784753
 30
0.0
 10
-394.9112544613417
 20
7.229718912871359
 30
0.0
 10
-396.0065941659039
 20
7.291278632542546
 30
0.0
 10
-397.100169981614
 20
7.377180017878223
 30
0.0
 10
-397.9242941349854
 20
7.441879459640194
 30
0.0
 10
-398.7474305106036
 20
7.520407789727774
 30
0.0
 10
-399.566439386288
 20
7.633543618379298
 30
0.0
  0
ENDBLK
  5
B3
330
B0
100
AcDbEntity
  8
0
100
AcDbBlockEnd
  0
BLOCK
  5
B7
330
B5
100
AcDbEntity
  8
0
100
AcDbBlockBegin
  2
block 23
 70
     0
 10
0.0
 20
0.0
 30
0.0
  3
block 23
  1

  0
SPLINE
  5
B9
330
B5
100
AcDbEntity
  8
0
 62
   250
370
    25
100
AcDbSpline
210
0.0
220
0.0
230
1.0
 70
     8
 71
     3
 72
    44
 73
    40
 74
     0
 42
0.0000000001
 43
0.0000000001
 12
1.0
 22
0.0
 32
0.0
 13
1.0
 23
0.0
 33
0.0
 40
0.0
 40
0.0
 40
0.0
 40
0.0
 40
1.0
 40
1.0
 40
1.0
 40
2.0
 40
2.0
 40
2.0
 40
3.0
 40
3.0
 40
3.0
 40
4.0
 40
4.0
 40
4.0
 40
5.0
 40
5.0
 40
5.0
 40
6.0
 40
6.0
 40
6.0
 40
7.0
 40
7.0
 40
7.0
 40
8.0
 40
8.0
 40
8.0
 40
9.0
 40
9.0
 40
9.0
 40
10.0
 40
10.0
 40
10.0
 40
11.0
 40
11.0
 40
11.0
 40
12.0
 40
12.0
 40
12.0
 40
13.0
 40
13.0
 40
13.0
 40
13.0
 10
-412.4490369563527
 20
148.5194355655732
 30
0.0
 10
-412.4599377895235
 20
128.264594459382
 30
0.0
 10
-412.0341702963853
 20
108.0094711309681
 30
0.0
 10
-411.1688769770061
 20
87.77311557956185
 30
0.0
 10
-410.7360186506494
 20
77.64976960963658
 30
0.0
 10
-410.193199492731
 20
67.53111558396164
 30
0.0
 10
-409.5410545032513
 20
57.4195171135416
 30
0.0
 10
-409.1956145088134
 20
52.06357455740732
 30
0.0
 10
-408.8195181259882
 20
46.70957227899363
 30
0.0
 10
-408.4116364658998
 20
41.3580394449126
 30
0.0
 10
-408.2076250802931
 20
38.6815498334615
 30
0.0
 10
-407.9956761948267
 20
36.00569522197365
 30
0.0
 10
-407.7780475872285
 20
33.33026394380578
 30
0.0
 10
-407.6208498119904
 20
31.39771207933549
 30
0.0
 10
-407.4607239812258
 20
29.46540715931746
 30
0.0
 10
-407.2832414840854
 20
27.53454862810522
 30
0.0
 10
-407.140084264173
 20
25.97707008145208
 30
0.0
 10
-406.9856734333371
 20
24.42050875698877
 30
0.0
 10
-406.8058978806707
 20
22.86684021017939
 30
0.0
 10
-406.6700431606432
 20
21.69272525876208
 30
0.0
 10
-406.5196892741855
 20
20.52019780728759
 30
0.0
 10
-406.3355392771471
 20
19.35250341116322
 30
0.0
 10
-406.2032123348369
 20
18.51317455701933
 30
0.0
 10
-406.0533523372555
 20
17.67635042497858
 30
0.0
 10
-405.8518809516136
 20
16.85088573691792
 30
0.0
 10
-405.7028323429022
 20
16.24029798440976
 30
0.0
 10
-405.525526234657
 20
15.63591912053968
 30
0.0
 10
-405.3010890160502
 20
15.04914386704669
 30
0.0
 10
-405.0658215198411
 20
14.43400528138546
 30
0.0
 10
-404.7787662466883
 20
13.83816363938633
 30
0.0
 10
-404.4516354186334
 20
13.26627560748934
 30
0.0
 10
-404.0812893134952
 20
12.61882257873813
 30
0.0
 10
-403.6595082091796
 20
12.00202593759188
 30
0.0
 10
-403.2067884942547
 20
11.40921818434391
 30
0.0
 10
-402.6751171139451
 20
10.71301126872151
 30
0.0
 10
-402.1006890676458
 20
10.04985962949198
 30
0.0
 10
-401.4932762996559
 20
9.41863437782989
 30
0.0
 10
-400.8857929761238
 20
8.787303292852569
 30
0.0
 10
-400.2452896531163
 20
8.187863317658103
 30
0.0
 10
-399.566439386288
 20
7.633543618379298
 30
0.0
  0
ENDBLK
  5
B8
330
B5
100
AcDbEntity
  8
0
100
AcDbBlockEnd
  0
BLOCK
  5
BC
330
BA
100
AcDbEntity
  8
0
100
AcDbBlockBegin
  2
block 24
 70
     0
 10
0.0
 20
0.0
 30
0.0
  3
block 24
  1

  0
SPLINE
  5
BE
330
BA
100
AcDbEntity
  8
0
 62
   250
370
    25
100
AcDbSpline
210
0.0
220
0.0
230
1.0
 70
     8
 71
     3
 72
   122
 73
   118
 74
     0
 42
0.0000000001
 43
0.0000000001
 12
1.0
 22
0.0
 32
0.0
 13
1.0
 23
0.0
 33
0.0
 40
0.0
 40
0.0
 40
0.0
 40
0.0
 40
1.0
 40
1.0
 40
1.0
 40
2.0
 40
2.0
 40
2.0
 40
3.0
 40
3.0
 40
3.0
 40
4.0
 40
4.0
 40
4.0
 40
5.0
 40
5.0
 40
5.0
 40
6.0
 40
6.0
 40
6.0
 40
7.0
 40
7.0
 40
7.0
 40
8.0
 40
8.0
 40
8.0
 40
9.0
 40
9.0
 40
9.0
 40
10.0
 40
10.0
 40
10.0
 40
11.0
 40
11.0
 40
11.0
 40
12.0
 40
12.0
 40
12.0
 40
13.0
 40
13.0
 40
13.0
 40
14.0
 40
14.0
 40
14.0
 40
15.0
 40
15.0
 40
15.0
 40
16.0
 40
16.0
 40
16.0
 40
17.0
 40
17.0
 40
17.0
 40
18.0
 40
18.0
 40
18.0
 40
19.0
 40
19.0
 40
19.0
 40
20.0
 40
20.0
 40
20.0
 40
21.0
 40
21.0
 40
21.0
 40
22.0
 40
22.0
 40
22.0
 40
23.0
 40
23.0
 40
23.0
 40
24.0
 40
24.0
 40
24.0
 40
25.0
 40
25.0
 40
25.0
 40
26.0
 40
26.0
 40
26.0
 40
27.0
 40
27.0
 40
27.0
 40
28.0
 40
28.0
 40
28.0
 40
29.0
 40
29.0
 40
29.0
 40
30.0
 40
30.0
 40
30.0
 40
31.0
 40
31.0
 40
31.0
 40
32.0
 40
32.0
 40
32.0
 40
33.0
 40
33.0
 40
33.0
 40
34.0
 40
34.0
 40
34.0
 40
35.0
 40
35.0
 40
35.0
 40
36.0
 40
36.0
 40
36.0
 40
37.0
 40
37.0
 40
37.0
 40
38.0
 40
38.0
 40
38.0
 40
39.0
 40
39.0
 40
39.0
 40
39.0
 10
765.9098959893743
 20
148.5194355655732
 30
0.0
 10
765.909649044936
 20
138.3321309871748
 30
0.0
 10
765.7869529358085
 20
128.1448264087904
 30
0.0
 10
765.5468876619061
 20
117.96037933026
 30
0.0
 10
765.3070693324297
 20
107.7861980846573
 30
0.0
 10
764.9500935048584
 20
97.61487433893424
 30
0.0
 10
764.4852735123553
 20
87.44848948190088
 30
0.0
 10
764.0117399088679
 20
77.09146352162578
 30
0.0
 10
763.4262699183115
 20
66.73958811672094
 30
0.0
 10
762.7328499294965
 20
56.39494465593871
 30
0.0
 10
762.3576354910979
 20
50.79720822093698
 30
0.0
 10
761.9507768865471
 20
45.20155317472869
 30
0.0
 10
761.5147435602388
 20
39.6082264617738
 30
0.0
 10
761.2788763418254
 20
36.58241630921948
 30
0.0
 10
761.0344366235395
 20
33.55727643441171
 30
0.0
 10
760.7777555165627
 20
30.53315961511544
 30
0.0
 10
760.6401016298997
 20
28.91126384890893
 30
0.0
 10
760.4989199655053
 20
27.28968558268405
 30
0.0
 10
760.3345960792648
 20
25.67025926082177
 30
0.0
 10
760.2643227470684
 20
24.97800345613011
 30
0.0
 10
760.1898513593825
 20
24.28613570698667
 30
0.0
 10
760.1098060828923
 20
23.5949382355962
 30
0.0
 10
760.0548080282258
 20
23.12031103301499
 30
0.0
 10
759.9971994180396
 20
22.64603660819871
 30
0.0
 10
759.9326763635302
 20
22.17257357224035
 30
0.0
 10
759.8835344198781
 20
21.81171719828676
 30
0.0
 10
759.8304060874035
 20
21.45135471319535
 30
0.0
 10
759.7653538662338
 20
21.09307361691277
 30
0.0
 10
759.7136719226164
 20
20.80827612868842
 30
0.0
 10
759.6544405346765
 20
20.52481919598286
 30
0.0
 10
759.5886827579628
 20
20.24291448542398
 30
0.0
 10
759.46581025994
 20
19.71607617389917
 30
0.0
 10
759.3200424845206
 20
19.19463536214425
 30
0.0
 10
759.1673602647523
 20
18.67566399473228
 30
0.0
 10
759.0118911005954
 20
18.14730873882097
 30
0.0
 10
758.8492252698925
 20
17.62149348280893
 30
0.0
 10
758.6714605505293
 20
17.09977044883129
 30
0.0
 10
758.4272324989098
 20
16.38299658960999
 30
0.0
 10
758.1545352810888
 20
15.67398384117604
 30
0.0
 10
757.79840612016
 20
15.007022202122
 30
0.0
 10
757.5005205694038
 20
14.44910416964787
 30
0.0
 10
757.1442855751476
 20
13.92064308040978
 30
0.0
 10
756.7413075260919
 20
13.43253976728072
 30
0.0
 10
756.3101778108286
 20
12.91028756666788
 30
0.0
 10
755.825531707529
 20
12.43428453081026
 30
0.0
 10
755.3081831047543
 20
11.99708704890343
 30
0.0
 10
754.7048625589208
 20
11.48725262556675
 30
0.0
 10
754.0570214582567
 20
11.03029958890612
 30
0.0
 10
753.3742553581616
 20
10.63345988312244
 30
0.0
 10
753.0878350849971
 20
10.46698405666466
 30
0.0
 10
752.7952412008239
 20
10.31109156312647
 30
0.0
 10
752.490088427968
 20
10.18158684626163
 30
0.0
 10
752.3859837074199
 20
10.13741907031396
 30
0.0
 10
752.2803973202423
 20
10.09628518311747
 30
0.0
 10
752.1725531553104
 20
10.06280657340463
 30
0.0
 10
752.0611106571057
 20
10.02819907482657
 30
0.0
 10
751.9472692700623
 20
10.00174074258406
 30
0.0
 10
751.8331103830104
 20
9.976975743623992
 30
0.0
 10
751.22206400397
 20
9.844542971324495
 30
0.0
 10
750.6020570695191
 20
9.761216863659827
 30
0.0
 10
749.9810270795311
 20
9.68970881106825
 30
0.0
 10
749.1669923704353
 20
9.595975759392767
 30
0.0
 10
748.3512643280288
 20
9.522527429092165
 30
0.0
 10
747.534125174537
 20
9.466541598084245
 30
0.0
 10
746.5383393572678
 20
9.398279100897403
 30
0.0
 10
745.5404721511267
 20
9.355910491534573
 30
0.0
 10
744.5426049449998
 20
9.322608270692005
 30
0.0
 10
743.3966769079142
 20
9.28436716118537
 30
0.0
 10
742.2507841486118
 20
9.258120495596431
 30
0.0
 10
741.1045386115459
 20
9.24083438519969
 30
0.0
 10
739.8236025210746
 20
9.221537441551718
 30
0.0
 10
738.5422430972949
 20
9.21349410855706
 30
0.0
 10
737.2610953401701
 20
9.20834355321376
 30
0.0
 10
736.7405717374565
 20
9.206262164406207
 30
0.0
 10
736.2200481347444
 20
9.204639386691648
 30
0.0
 10
735.699524532018
 20
9.203369386742015
 30
0.0
 10
733.3801165138563
 20
9.19772494253526
 30
0.0
 10
731.0604262734845
 20
9.198994942472059
 30
0.0
 10
728.7408771442114
 20
9.192397998310138
 30
0.0
 10
727.0654649490025
 20
9.187635498517627
 30
0.0
 10
725.3901585871205
 20
9.178780776652214
 30
0.0
 10
723.7148522252519
 20
9.167386054899088
 30
0.0
 10
719.4838120156893
 20
9.13866994497876
 30
0.0
 10
715.2528070838985
 20
9.094043557926554
 30
0.0
 10
711.0219785410037
 20
9.03883383800481
 30
0.0
 10
707.5392858193796
 20
8.993431339877977
 30
0.0
 10
704.0566989310837
 20
8.940832175386152
 30
0.0
 10
700.5741473205724
 20
8.885304955458391
 30
0.0
 10
692.2104213443077
 20
8.751954960972906
 30
0.0
 10
683.8469775902544
 20
8.601601078313402
 30
0.0
 10
675.4832868917752
 20
8.464617472874961
 30
0.0
 10
670.5872253040442
 20
8.384395809529334
 30
0.0
 10
665.6911284385408
 20
8.308795534878973
 30
0.0
 10
660.7949257397106
 20
8.236793593423943
 30
0.0
 10
648.8145220439749
 20
8.060581100699338
 30
0.0
 10
636.8337655704755
 20
7.905993884882522
 30
0.0
 10
624.8527974303084
 20
7.770209723824556
 30
0.0
 10
600.2307081050785
 20
7.491127235387668
 30
0.0
 10
575.607807390965
 20
7.291313910327125
 30
0.0
 10
550.984836121283
 20
7.102754195894228
 30
0.0
 10
526.4618773500005
 20
6.914970592561627
 30
0.0
 10
501.9388833009455
 20
6.738405322097763
 30
0.0
 10
477.4158539741067
 20
6.566038107006633
 30
0.0
 10
454.7752821169237
 20
6.406900058025204
 30
0.0
 10
432.1347102597285
 20
6.251360342239105
 30
0.0
 10
409.4940678469898
 20
6.105275070522774
 30
0.0
 10
390.5386125970543
 20
5.982967020024205
 30
0.0
 10
371.5831220693477
 20
5.867291191473416
 30
0.0
 10
352.6275962638564
 20
5.760328973688231
 30
0.0
 10
335.5232012618501
 20
5.66384425545735
 30
0.0
 10
318.4187357042874
 20
5.574450370267243
 30
0.0
 10
301.3142348689543
 20
5.493699540260749
 30
0.0
 10
267.5393615246194
 20
5.334173435755483
 30
0.0
 10
233.7643117913892
 20
5.208161218747634
 30
0.0
 10
199.9891915026161
 20
5.121695389005015
 30
0.0
 10
167.8834509091551
 20
5.0394981701799
 30
0.0
 10
135.7776044823417
 20
4.993002060986541
 30
0.0
 10
103.671793333325
 20
4.984817616893356
 30
0.0
  0
ENDBLK
  5
BD
330
BA
100
AcDbEntity
  8
0
100
AcDbBlockEnd
  0
BLOCK
  5
C1
330
BF
100
AcDbEntity
  8
0
100
AcDbBlockBegin
  2
block 25
 70
     0
 10
0.0
 20
0.0
 30
0.0
  3
block 25
  1

  0
POLYLINE
  5
C3
330
BF
100
AcDbEntity
  8
0
 62
   250
370
    25
100
AcDb2dPolyline
 66
     1
 10
0.0
 20
0.0
 30
0.0
  0
VERTEX
  5
C4
330
C3
100
AcDbEntity
  8
0
 62
   250
370
    25
100
AcDbVertex
100
AcDb2dVertex
 10
-403.123956273375
 20
285.7367333060724
 30
0.0
  0
VERTEX
  5
C5
330
C3
100
AcDbEntity
  8
0
 62
   250
370
    25
100
AcDbVertex
100
AcDb2dVertex
 10
-631.393233981103
 20
401.7959528000387
 30
0.0
  0
SEQEND
  5
C6
330
C3
100
AcDbEntity
  8
0
 62
   250
370
    25
  0
ENDBLK
  5
C2
330
BF
100
AcDbEntity
  8
0
100
AcDbBlockEnd
  0
BLOCK
  5
C9
330
C7
100
AcDbEntity
  8
0
100
AcDbBlockBegin
  2
block 26
 70
     0
 10
0.0
 20
0.0
 30
0.0
  3
block 26
  1

  0
POLYLINE
  5
CB
330
C7
100
AcDbEntity
  8
0
 62
   250
370
    25
100
AcDb2dPolyline
 66
     1
 10
0.0
 20
0.0
 30
0.0
  0
VERTEX
  5
CC
330
CB
100
AcDbEntity
  8
0
 62
   250
370
    25
100
AcDbVertex
100
AcDb2dVertex
 10
757.3032825170359
 20
282.8497058526193
 30
0.0
  0
VERTEX
  5
CD
330
CB
100
AcDbEntity
  8
0
 62
   250
370
    25
100
AcDbVertex
100
AcDb2dVertex
 10
843.5118994895419
 20
401.7959528000387
 30
0.0
  0
SEQEND
  5
CE
330
CB
100
AcDbEntity
  8
0
 62
   250
370
    25
  0
ENDBLK
  5
CA
330
C7
100
AcDbEntity
  8
0
100
AcDbBlockEnd
  0
BLOCK
  5
D1
330
CF
100
AcDbEntity
  8
0
100
AcDbBlockBegin
  2
block 27
 70
     0
 10
0.0
 20
0.0
 30
0.0
  3
block 27
  1

  0
POLYLINE
  5
D3
330
CF
100
AcDbEntity
  8
0
 62
   250
370
    25
100
AcDb2dPolyline
 66
     1
 10
0.0
 20
0.0
 30
0.0
  0
VERTEX
  5
D4
330
D3
100
AcDbEntity
  8
0
 62
   250
370
    25
100
AcDbVertex
100
AcDb2dVertex
 10
756.7413075260919
 20
13.43253976728072
 30
0.0
  0
VERTEX
  5
D5
330
D3
100
AcDbEntity
  8
0
 62
   250
370
    25
100
AcDbVertex
100
AcDb2dVertex
 10
855.3093926035459
 20
-94.61263520570576
 30
0.0
  0
SEQEND
  5
D6
330
D3
100
AcDbEntity
  8
0
 62
   250
370
    25
  0
ENDBLK
  5
D2
330
CF
100
AcDbEntity
  8
0
100
AcDbBlockEnd
  0
BLOCK
  5
D9
330
D7
100
AcDbEntity
  8
0
100
AcDbBlockBegin
  2
block 28
 70
     0
 10
0.0
 20
0.0
 30
0.0
  3
block 28
  1

  0
POLYLINE
  5
DB
330
D7
100
AcDbEntity
  8
0
 62
   250
370
    25
100
AcDb2dPolyline
 66
     1
 10
0.0
 20
0.0
 30
0.0
  0
VERTEX
  5
DC
330
DB
100
AcDbEntity
  8
0
 62
   250
370
    25
100
AcDbVertex
100
AcDb2dVertex
 10
-403.2067884942547
 20
11.40921818434391
 30
0.0
  0
VERTEX
  5
DD
330
DB
100
AcDbEntity
  8
0
 62
   250
370
    25
100
AcDbVertex
100
AcDb2dVertex
 10
-631.3932339811033
 20
-104.7717948212117
 30
0.0
  0
SEQEND
  5
DE
330
DB
100
AcDbEntity
  8
0
 62
   250
370
    25
  0
ENDBLK
  5
DA
330
D7
100
AcDbEntity
  8
0
100
AcDbBlockEnd
  0
BLOCK
  5
E1
330
DF
100
AcDbEntity
  8
0
100
AcDbBlockBegin
  2
block 29
 70
     0
 10
0.0
 20
0.0
 30
0.0
  3
block 29
  1

  0
SPLINE
  5
E3
330
DF
100
AcDbEntity
  8
0
 62
   250
370
    25
100
AcDbSpline
210
0.0
220
0.0
230
1.0
 70
     8
 71
     3
 72
    11
 73
     7
 74
     0
 42
0.0000000001
 43
0.0000000001
 12
1.0
 22
0.0
 32
0.0
 13
1.0
 23
0.0
 33
0.0
 40
0.0
 40
0.0
 40
0.0
 40
0.0
 40
1.0
 40
1.0
 40
1.0
 40
2.0
 40
2.0
 40
2.0
 40
2.0
 10
663.4282145147298
 20
125.9348692189056
 30
0.0
 10
650.8266416761561
 20
119.0505886291671
 30
0.0
 10
635.030243274451
 20
123.6853821615632
 30
0.0
 10
628.1459977885761
 20
136.2869194040324
 30
0.0
 10
621.2617170249177
 20
148.8884919242598
 30
0.0
 10
625.8965106744048
 20
164.6848991711618
 30
0.0
 10
638.4980835129797
 20
171.5691446570432
 30
0.0
  0
ENDBLK
  5
E2
330
DF
100
AcDbEntity
  8
0
100
AcDbBlockEnd
  0
BLOCK
  5
E6
330
E4
100
AcDbEntity
  8
0
100
AcDbBlockBegin
  2
block 30
 70
     0
 10
0.0
 20
0.0
 30
0.0
  3
block 30
  1

  0
SPLINE
  5
E8
330
E4
100
AcDbEntity
  8
0
 62
   250
370
    25
100
AcDbSpline
210
0.0
220
0.0
230
1.0
 70
     8
 71
     3
 72
    11
 73
     7
 74
     0
 42
0.0000000001
 43
0.0000000001
 12
1.0
 22
0.0
 32
0.0
 13
1.0
 23
0.0
 33
0.0
 40
0.0
 40
0.0
 40
0.0
 40
0.0
 40
1.0
 40
1.0
 40
1.0
 40
2.0
 40
2.0
 40
2.0
 40
2.0
 10
638.4980835129797
 20
171.5691446570432
 30
0.0
 10
651.0996210737823
 20
178.453425420695
 30
0.0
 10
666.8960194754868
 20
173.8186317712077
 30
0.0
 10
673.7802649613745
 20
161.2170589326331
 30
0.0
 10
680.6645457250199
 20
148.6155125335376
 30
0.0
 10
676.029752075533
 20
132.8191145308801
 30
0.0
 10
663.4282145147298
 20
125.9348692189056
 30
0.0
  0
ENDBLK
  5
E7
330
E4
100
AcDbEntity
  8
0
100
AcDbBlockEnd
  0
BLOCK
  5
EB
330
E9
100
AcDbEntity
  8
0
100
AcDbBlockBegin
  2
block 31
 70
     0
 10
0.0
 20
0.0
 30
0.0
  3
block 31
  1

  0
SPLINE
  5
ED
330
E9
100
AcDbEntity
  8
0
 62
   250
370
    25
100
AcDbSpline
210
0.0
220
0.0
230
1.0
 70
     8
 71
     3
 72
    11
 73
     7
 74
     0
 42
0.0000000001
 43
0.0000000001
 12
1.0
 22
0.0
 32
0.0
 13
1.0
 23
0.0
 33
0.0
 40
0.0
 40
0.0
 40
0.0
 40
0.0
 40
1.0
 40
1.0
 40
1.0
 40
2.0
 40
2.0
 40
2.0
 40
2.0
 10
629.7315572388312
 20
187.616156349104
 30
0.0
 10
651.1956471684199
 20
199.3420290600962
 30
0.0
 10
678.1014039424305
 20
191.4476398585869
 30
0.0
 10
689.8272766534233
 20
169.9835852067758
 30
0.0
 10
701.5531493644282
 20
148.5194864413196
 30
0.0
 10
693.6587954406965
 20
121.6137303470092
 30
0.0
 10
672.1947055111071
 20
109.8878579322311
 30
0.0
  0
ENDBLK
  5
EC
330
E9
100
AcDbEntity
  8
0
100
AcDbBlockEnd
  0
BLOCK
  5
F0
330
EE
100
AcDbEntity
  8
0
100
AcDbBlockBegin
  2
block 32
 70
     0
 10
0.0
 20
0.0
 30
0.0
  3
block 32
  1

  0
SPLINE
  5
F2
330
EE
100
AcDbEntity
  8
0
 62
   250
370
    25
100
AcDbSpline
210
0.0
220
0.0
230
1.0
 70
     8
 71
     3
 72
    11
 73
     7
 74
     0
 42
0.0000000001
 43
0.0000000001
 12
1.0
 22
0.0
 32
0.0
 13
1.0
 23
0.0
 33
0.0
 40
0.0
 40
0.0
 40
0.0
 40
0.0
 40
1.0
 40
1.0
 40
1.0
 40
2.0
 40
2.0
 40
2.0
 40
2.0
 10
672.1947055111071
 20
109.8878579322311
 30
0.0
 10
650.7306508592903
 20
98.1619855174478
 30
0.0
 10
623.8248940852791
 20
106.0563392417652
 30
0.0
 10
612.0989860965152
 20
127.5204286291182
 30
0.0
 10
600.3731133855101
 20
148.984482738707
 30
0.0
 10
608.2675025870259
 20
175.890283638099
 30
0.0
 10
629.7315572388312
 20
187.616156349104
 30
0.0
  0
ENDBLK
  5
F1
330
EE
100
AcDbEntity
  8
0
100
AcDbBlockEnd
  0
BLOCK
  5
F5
330
F3
100
AcDbEntity
  8
0
100
AcDbBlockBegin
  2
block 33
 70
     0
 10
0.0
 20
0.0
 30
0.0
  3
block 33
  1

  0
POLYLINE
  5
F7
330
F3
100
AcDbEntity
  8
0
 62
     4
370
    25
100
AcDb2dPolyline
 66
     1
 10
0.0
 20
0.0
 30
0.0
  0
VERTEX
  5
F8
330
F7
100
AcDbEntity
  8
0
 62
     4
370
    25
100
AcDbVertex
100
AcDb2dVertex
 10
716.7163116903328
 20
149.125563310429
 30
0.0
  0
VERTEX
  5
F9
330
F7
100
AcDbEntity
  8
0
 62
     4
370
    25
100
AcDbVertex
100
AcDb2dVertex
 10
705.4662231921687
 20
149.125563310429
 30
0.0
  0
SEQEND
  5
FA
330
F7
100
AcDbEntity
  8
0
 62
     4
370
    25
  0
ENDBLK
  5
F6
330
F3
100
AcDbEntity
  8
0
100
AcDbBlockEnd
  0
BLOCK
  5
FD
330
FB
100
AcDbEntity
  8
0
100
AcDbBlockBegin
  2
block 34
 70
     0
 10
0.0
 20
0.0
 30
0.0
  3
block 34
  1

  0
POLYLINE
  5
FF
330
FB
100
AcDbEntity
  8
0
  6
AI-Linetype-1
 62
     4
370
    25
100
AcDb2dPolyline
 66
     1
 10
0.0
 20
0.0
 30
0.0
  0
VERTEX
  5
100
330
FF
100
AcDbEntity
  8
0
  6
AI-Linetype-1
 62
     4
370
    25
100
AcDbVertex
100
AcDb2dVertex
 10
701.8921088809964
 20
149.125563310429
 30
0.0
  0
VERTEX
  5
101
330
FF
100
AcDbEntity
  8
0
  6
AI-Linetype-1
 62
     4
370
    25
100
AcDbVertex
100
AcDb2dVertex
 10
696.5309804779313
 20
149.125563310429
 30
0.0
  0
SEQEND
  5
103
330
FF
100
AcDbEntity
  8
0
  6
AI-Linetype-1
 62
     4
370
    25
  0
ENDBLK
  5
FE
330
FB
100
AcDbEntity
  8
0
100
AcDbBlockEnd
  0
BLOCK
  5
106
330
104
100
AcDbEntity
  8
0
100
AcDbBlockBegin
  2
block 35
 70
     0
 10
0.0
 20
0.0
 30
0.0
  3
block 35
  1

  0
POLYLINE
  5
108
330
104
100
AcDbEntity
  8
0
  6
AI-Linetype-2
 62
     4
370
    25
100
AcDb2dPolyline
 66
     1
 10
0.0
 20
0.0
 30
0.0
  0
VERTEX
  5
109
330
108
100
AcDbEntity
  8
0
  6
AI-Linetype-2
 62
     4
370
    25
100
AcDbVertex
100
AcDb2dVertex
 10
694.743923322345
 20
149.125563310429
 30
0.0
  0
VERTEX
  5
10A
330
108
100
AcDbEntity
  8
0
  6
AI-Linetype-2
 62
     4
370
    25
100
AcDbVertex
100
AcDb2dVertex
 10
600.0298940762752
 20
149.125563310429
 30
0.0
  0
SEQEND
  5
10C
330
108
100
AcDbEntity
  8
0
  6
AI-Linetype-2
 62
     4
370
    25
  0
ENDBLK
  5
107
330
104
100
AcDbEntity
  8
0
100
AcDbBlockEnd
  0
BLOCK
  5
10F
330
10D
100
AcDbEntity
  8
0
100
AcDbBlockBegin
  2
block 36
 70
     0
 10
0.0
 20
0.0
 30
0.0
  3
block 36
  1

  0
POLYLINE
  5
111
330
10D
100
AcDbEntity
  8
0
 62
     4
370
    25
100
AcDb2dPolyline
 66
     1
 10
0.0
 20
0.0
 30
0.0
  0
VERTEX
  5
112
330
111
100
AcDbEntity
  8
0
 62
     4
370
    25
100
AcDbVertex
100
AcDb2dVertex
 10
598.242836920689
 20
149.125563310429
 30
0.0
  0
VERTEX
  5
113
330
111
100
AcDbEntity
  8
0
 62
     4
370
    25
100
AcDbVertex
100
AcDb2dVertex
 10
586.992748422525
 20
149.125563310429
 30
0.0
  0
SEQEND
  5
114
330
111
100
AcDbEntity
  8
0
 62
     4
370
    25
  0
ENDBLK
  5
110
330
10D
100
AcDbEntity
  8
0
100
AcDbBlockEnd
  0
BLOCK
  5
117
330
115
100
AcDbEntity
  8
0
100
AcDbBlockBegin
  2
block 37
 70
     0
 10
0.0
 20
0.0
 30
0.0
  3
block 37
  1

  0
POLYLINE
  5
119
330
115
100
AcDbEntity
  8
0
 62
     4
370
    25
100
AcDb2dPolyline
 66
     1
 10
0.0
 20
0.0
 30
0.0
  0
VERTEX
  5
11A
330
119
100
AcDbEntity
  8
0
 62
     4
370
    25
100
AcDbVertex
100
AcDb2dVertex
 10
650.6251692643643
 20
213.9286598959264
 30
0.0
  0
VERTEX
  5
11B
330
119
100
AcDbEntity
  8
0
 62
     4
370
    25
100
AcDbVertex
100
AcDb2dVertex
 10
650.6251692643643
 20
202.6785713977623
 30
0.0
  0
SEQEND
  5
11C
330
119
100
AcDbEntity
  8
0
 62
     4
370
    25
  0
ENDBLK
  5
118
330
115
100
AcDbEntity
  8
0
100
AcDbBlockEnd
  0
BLOCK
  5
11F
330
11D
100
AcDbEntity
  8
0
100
AcDbBlockBegin
  2
block 38
 70
     0
 10
0.0
 20
0.0
 30
0.0
  3
block 38
  1

  0
POLYLINE
  5
121
330
11D
100
AcDbEntity
  8
0
  6
AI-Linetype-3
 62
     4
370
    25
100
AcDb2dPolyline
 66
     1
 10
0.0
 20
0.0
 30
0.0
  0
VERTEX
  5
122
330
121
100
AcDbEntity
  8
0
  6
AI-Linetype-3
 62
     4
370
    25
100
AcDbVertex
100
AcDb2dVertex
 10
650.6251692643643
 20
199.1044893843601
 30
0.0
  0
VERTEX
  5
123
330
121
100
AcDbEntity
  8
0
  6
AI-Linetype-3
 62
     4
370
    25
100
AcDbVertex
100
AcDb2dVertex
 10
650.6251692643643
 20
193.7433502153716
 30
0.0
  0
SEQEND
  5
125
330
121
100
AcDbEntity
  8
0
  6
AI-Linetype-3
 62
     4
370
    25
  0
ENDBLK
  5
120
330
11D
100
AcDbEntity
  8
0
100
AcDbBlockEnd
  0
BLOCK
  5
128
330
126
100
AcDbEntity
  8
0
100
AcDbBlockBegin
  2
block 39
 70
     0
 10
0.0
 20
0.0
 30
0.0
  3
block 39
  1

  0
POLYLINE
  5
12A
330
126
100
AcDbEntity
  8
0
  6
AI-Linetype-4
 62
     4
370
    25
100
AcDb2dPolyline
 66
     1
 10
0.0
 20
0.0
 30
0.0
  0
VERTEX
  5
12B
330
12A
100
AcDbEntity
  8
0
  6
AI-Linetype-4
 62
     4
370
    25
100
AcDbVertex
100
AcDb2dVertex
 10
650.6251692643643
 20
191.9563038257087
 30
0.0
  0
VERTEX
  5
12C
330
12A
100
AcDbEntity
  8
0
  6
AI-Linetype-4
 62
     4
370
    25
100
AcDbVertex
100
AcDb2dVertex
 10
650.6251692643643
 20
97.24244683441324
 30
0.0
  0
SEQEND
  5
12E
330
12A
100
AcDbEntity
  8
0
  6
AI-Linetype-4
 62
     4
370
    25
  0
ENDBLK
  5
129
330
126
100
AcDbEntity
  8
0
100
AcDbBlockEnd
  0
BLOCK
  5
131
330
12F
100
AcDbEntity
  8
0
100
AcDbBlockBegin
  2
block 40
 70
     0
 10
0.0
 20
0.0
 30
0.0
  3
block 40
  1

  0
POLYLINE
  5
133
330
12F
100
AcDbEntity
  8
0
 62
     4
370
    25
100
AcDb2dPolyline
 66
     1
 10
0.0
 20
0.0
 30
0.0
  0
VERTEX
  5
134
330
133
100
AcDbEntity
  8
0
 62
     4
370
    25
100
AcDbVertex
100
AcDb2dVertex
 10
650.6251692643643
 20
95.45541121067382
 30
0.0
  0
VERTEX
  5
135
330
133
100
AcDbEntity
  8
0
 62
     4
370
    25
100
AcDbVertex
100
AcDb2dVertex
 10
650.6251692643643
 20
84.20532271250977
 30
0.0
  0
SEQEND
  5
136
330
133
100
AcDbEntity
  8
0
 62
     4
370
    25
  0
ENDBLK
  5
132
330
12F
100
AcDbEntity
  8
0
100
AcDbBlockEnd
  0
ENDSEC
  0
SECTION
  2
ENTITIES
  0
INSERT
  5
41
330
1F
100
AcDbEntity
  8
0
100
AcDbBlockReference
  2
block 2
 10
0.0
 20
0.0
 30
0.0
  0
INSERT
  5
46
330
1F
100
AcDbEntity
  8
0
100
AcDbBlockReference
  2
block 3
 10
0.0
 20
0.0
 30
0.0
  0
INSERT
  5
4B
330
1F
100
AcDbEntity
  8
0
100
AcDbBlockReference
  2
block 4
 10
0.0
 20
0.0
 30
0.0
  0
INSERT
  5
50
330
1F
100
AcDbEntity
  8
0
100
AcDbBlockReference
  2
block 5
 10
0.0
 20
0.0
 30
0.0
  0
INSERT
  5
55
330
1F
100
AcDbEntity
  8
0
100
AcDbBlockReference
  2
block 6
 10
0.0
 20
0.0
 30
0.0
  0
INSERT
  5
5A
330
1F
100
AcDbEntity
  8
0
100
AcDbBlockReference
  2
block 7
 10
0.0
 20
0.0
 30
0.0
  0
INSERT
  5
62
330
1F
100
AcDbEntity
  8
0
100
AcDbBlockReference
  2
block 8
 10
0.0
 20
0.0
 30
0.0
  0
INSERT
  5
67
330
1F
100
AcDbEntity
  8
0
100
AcDbBlockReference
  2
block 9
 10
0.0
 20
0.0
 30
0.0
  0
INSERT
  5
6F
330
1F
100
AcDbEntity
  8
0
100
AcDbBlockReference
  2
block 10
 10
0.0
 20
0.0
 30
0.0
  0
INSERT
  5
77
330
1F
100
AcDbEntity
  8
0
100
AcDbBlockReference
  2
block 11
 10
0.0
 20
0.0
 30
0.0
  0
INSERT
  5
7C
330
1F
100
AcDbEntity
  8
0
100
AcDbBlockReference
  2
block 12
 10
0.0
 20
0.0
 30
0.0
  0
INSERT
  5
81
330
1F
100
AcDbEntity
  8
0
100
AcDbBlockReference
  2
block 13
 10
0.0
 20
0.0
 30
0.0
  0
INSERT
  5
89
330
1F
100
AcDbEntity
  8
0
100
AcDbBlockReference
  2
block 14
 10
0.0
 20
0.0
 30
0.0
  0
INSERT
  5
8E
330
1F
100
AcDbEntity
  8
0
100
AcDbBlockReference
  2
block 15
 10
0.0
 20
0.0
 30
0.0
  0
INSERT
  5
93
330
1F
100
AcDbEntity
  8
0
100
AcDbBlockReference
  2
block 16
 10
0.0
 20
0.0
 30
0.0
  0
INSERT
  5
98
330
1F
100
AcDbEntity
  8
0
100
AcDbBlockReference
  2
block 17
 10
0.0
 20
0.0
 30
0.0
  0
INSERT
  5
9D
330
1F
100
AcDbEntity
  8
0
100
AcDbBlockReference
  2
block 18
 10
0.0
 20
0.0
 30
0.0
  0
INSERT
  5
A2
330
1F
100
AcDbEntity
  8
0
100
AcDbBlockReference
  2
block 19
 10
0.0
 20
0.0
 30
0.0
  0
INSERT
  5
A7
330
1F
100
AcDbEntity
  8
0
100
AcDbBlockReference
  2
block 20
 10
0.0
 20
0.0
 30
0.0
  0
INSERT
  5
AC
330
1F
100
AcDbEntity
  8
0
100
AcDbBlockReference
  2
block 21
 10
0.0
 20
0.0
 30
0.0
  0
INSERT
  5
B1
330
1F
100
AcDbEntity
  8
0
100
AcDbBlockReference
  2
block 22
 10
0.0
 20
0.0
 30
0.0
  0
INSERT
  5
B6
330
1F
100
AcDbEntity
  8
0
100
AcDbBlockReference
  2
block 23
 10
0.0
 20
0.0
 30
0.0
  0
INSERT
  5
BB
330
1F
100
AcDbEntity
  8
0
100
AcDbBlockReference
  2
block 24
 10
0.0
 20
0.0
 30
0.0
  0
INSERT
  5
C0
330
1F
100
AcDbEntity
  8
0
100
AcDbBlockReference
  2
block 25
 10
0.0
 20
0.0
 30
0.0
  0
INSERT
  5
C8
330
1F
100
AcDbEntity
  8
0
100
AcDbBlockReference
  2
block 26
 10
0.0
 20
0.0
 30
0.0
  0
INSERT
  5
D0
330
1F
100
AcDbEntity
  8
0
100
AcDbBlockReference
  2
block 27
 10
0.0
 20
0.0
 30
0.0
  0
INSERT
  5
D8
330
1F
100
AcDbEntity
  8
0
100
AcDbBlockReference
  2
block 28
 10
0.0
 20
0.0
 30
0.0
  0
INSERT
  5
E0
330
1F
100
AcDbEntity
  8
0
100
AcDbBlockReference
  2
block 29
 10
0.0
 20
0.0
 30
0.0
  0
INSERT
  5
E5
330
1F
100
AcDbEntity
  8
0
100
AcDbBlockReference
  2
block 30
 10
0.0
 20
0.0
 30
0.0
  0
INSERT
  5
EA
330
1F
100
AcDbEntity
  8
0
100
AcDbBlockReference
  2
block 31
 10
0.0
 20
0.0
 30
0.0
  0
INSERT
  5
EF
330
1F
100
AcDbEntity
  8
0
100
AcDbBlockReference
  2
block 32
 10
0.0
 20
0.0
 30
0.0
  0
INSERT
  5
F4
330
1F
100
AcDbEntity
  8
0
100
AcDbBlockReference
  2
block 33
 10
0.0
 20
0.0
 30
0.0
  0
INSERT
  5
FC
330
1F
100
AcDbEntity
  8
0
100
AcDbBlockReference
  2
block 34
 10
0.0
 20
0.0
 30
0.0
  0
INSERT
  5
105
330
1F
100
AcDbEntity
  8
0
100
AcDbBlockReference
  2
block 35
 10
0.0
 20
0.0
 30
0.0
  0
INSERT
  5
10E
330
1F
100
AcDbEntity
  8
0
100
AcDbBlockReference
  2
block 36
 10
0.0
 20
0.0
 30
0.0
  0
INSERT
  5
116
330
1F
100
AcDbEntity
  8
0
100
AcDbBlockReference
  2
block 37
 10
0.0
 20
0.0
 30
0.0
  0
INSERT
  5
11E
330
1F
100
AcDbEntity
  8
0
100
AcDbBlockReference
  2
block 38
 10
0.0
 20
0.0
 30
0.0
  0
INSERT
  5
127
330
1F
100
AcDbEntity
  8
0
100
AcDbBlockReference
  2
block 39
 10
0.0
 20
0.0
 30
0.0
  0
INSERT
  5
130
330
1F
100
AcDbEntity
  8
0
100
AcDbBlockReference
  2
block 40
 10
0.0
 20
0.0
 30
0.0
  0
ENDSEC
  0
SECTION
  2
OBJECTS
  0
DICTIONARY
  5
C
330
0
100
AcDbDictionary
281
     1
  3
ACAD_GROUP
350
D
  3
ACAD_LAYOUT
350
1A
  3
ACAD_MATERIAL
350
3B
  3
ACAD_MLEADERSTYLE
350
158
  3
ACAD_MLINESTYLE
350
17
  3
ACAD_PLOTSETTINGS
350
19
  3
ACAD_PLOTSTYLENAME
350
E
  3
ACAD_TABLESTYLE
350
157
  3
ACAD_VISUALSTYLE
350
2A
  0
SUN
  5
3F
330
29
100
AcDbSun
 90
        1
290
     0
 63
     7
421
 16777215
 40
1.0
291
     1
 91
  2455826
 92
 54000000
292
     0
 70
     2
 71
   256
280
     1
  0
DICTIONARY
  5
D
102
{ACAD_REACTORS
330
C
102
}
330
C
100
AcDbDictionary
281
     1
  0
DICTIONARY
  5
1A
102
{ACAD_REACTORS
330
C
102
}
330
C
100
AcDbDictionary
281
     1
  3
Layout1
350
1E
  3
Layout2
350
26
  3
Model
350
22
  0
DICTIONARY
  5
3B
102
{ACAD_REACTORS
330
C
102
}
330
C
100
AcDbDictionary
281
     1
  3
ByBlock
350
3D
  3
ByLayer
350
3C
  3
Global
350
3E
  0
DICTIONARY
  5
158
102
{ACAD_REACTORS
330
C
102
}
330
C
100
AcDbDictionary
281
     1
  0
DICTIONARY
  5
17
102
{ACAD_REACTORS
330
C
102
}
330
C
100
AcDbDictionary
281
     1
  3
Standard
350
18
  0
DICTIONARY
  5
19
102
{ACAD_REACTORS
330
C
102
}
330
C
100
AcDbDictionary
281
     1
  0
ACDBDICTIONARYWDFLT
  5
E
102
{ACAD_REACTORS
330
C
102
}
330
C
100
AcDbDictionary
281
     1
  3
Normal
350
F
100
AcDbDictionaryWithDefault
340
F
  0
DICTIONARY
  5
157
102
{ACAD_REACTORS
330
C
102
}
330
C
100
AcDbDictionary
281
     1
  0
DICTIONARY
  5
2A
102
{ACAD_REACTORS
330
C
102
}
330
C
100
AcDbDictionary
281
     1
  3
2dWireframe
350
2F
  3
3D Hidden
350
31
  3
3dWireframe
350
30
  3
Basic
350
32
  3
Brighten
350
36
  3
ColorChange
350
3A
  3
Conceptual
350
34
  3
Dim
350
35
  3
Facepattern
350
39
  3
Flat
350
2B
  3
FlatWithEdges
350
2C
  3
Gouraud
350
2D
  3
GouraudWithEdges
350
2E
  3
Linepattern
350
38
  3
Realistic
350
33
  3
Thicken
350
37
  0
LAYOUT
  5
1E
102
{ACAD_REACTORS
330
1A
102
}
330
1A
100
AcDbPlotSettings
  1

  2
none_device
  4

  6

 40
0.0
 41
0.0
 42
0.0
 43
0.0
 44
0.0
 45
0.0
 46
0.0
 47
0.0
 48
0.0
 49
0.0
140
0.0
141
0.0
142
1.0
143
1.0
 70
   688
 72
     0
 73
     0
 74
     5
  7

 75
    16
 76
     0
 77
     2
 78
   300
147
1.0
148
0.0
149
0.0
100
AcDbLayout
  1
Layout1
 70
     1
 71
     1
 10
0.0
 20
0.0
 11
12.0
 21
9.0
 12
0.0
 22
0.0
 32
0.0
 14
1.000000000000000E+20
 24
1.000000000000000E+20
 34
1.000000000000000E+20
 15
-1.000000000000000E+20
 25
-1.000000000000000E+20
 35
-1.000000000000000E+20
146
0.0
 13
0.0
 23
0.0
 33
0.0
 16
1.0
 26
0.0
 36
0.0
 17
0.0
 27
1.0
 37
0.0
 76
     0
330
1B
  0
LAYOUT
  5
26
102
{ACAD_REACTORS
330
1A
102
}
330
1A
100
AcDbPlotSettings
  1

  2
none_device
  4

  6

 40
0.0
 41
0.0
 42
0.0
 43
0.0
 44
0.0
 45
0.0
 46
0.0
 47
0.0
 48
0.0
 49
0.0
140
0.0
141
0.0
142
1.0
143
1.0
 70
   688
 72
     0
 73
     0
 74
     5
  7

 75
    16
 76
     0
 77
     2
 78
   300
147
1.0
148
0.0
149
0.0
100
AcDbLayout
  1
Layout2
 70
     1
 71
     2
 10
0.0
 20
0.0
 11
0.0
 21
0.0
 12
0.0
 22
0.0
 32
0.0
 14
0.0
 24
0.0
 34
0.0
 15
0.0
 25
0.0
 35
0.0
146
0.0
 13
0.0
 23
0.0
 33
0.0
 16
1.0
 26
0.0
 36
0.0
 17
0.0
 27
1.0
 37
0.0
 76
     0
330
23
  0
LAYOUT
  5
22
102
{ACAD_REACTORS
330
1A
102
}
330
1A
100
AcDbPlotSettings
  1

  2
none_device
  4

  6

 40
0.0
 41
0.0
 42
0.0
 43
0.0
 44
0.0
 45
0.0
 46
0.0
 47
0.0
 48
0.0
 49
0.0
140
0.0
141
0.0
142
1.0
143
1.0
 70
  1712
 72
     0
 73
     0
 74
     0
  7

 75
     0
 76
     0
 77
     2
 78
   300
147
1.0
148
0.0
149
0.0
100
AcDbLayout
  1
Model
 70
     1
 71
     0
 10
0.0
 20
0.0
 11
12.0
 21
9.0
 12
0.0
 22
0.0
 32
0.0
 14
1.000000000000000E+20
 24
1.000000000000000E+20
 34
1.000000000000000E+20
 15
-1.000000000000000E+20
 25
-1.000000000000000E+20
 35
-1.000000000000000E+20
146
0.0
 13
0.0
 23
0.0
 33
0.0
 16
1.0
 26
0.0
 36
0.0
 17
0.0
 27
1.0
 37
0.0
 76
     0
330
1F
331
29
  0
MATERIAL
  5
3D
102
{ACAD_REACTORS
330
3B
102
}
330
3B
100
AcDbMaterial
  1
ByBlock
 72
     1
 94
      127
  0
MATERIAL
  5
3C
102
{ACAD_REACTORS
330
3B
102
}
330
3B
100
AcDbMaterial
  1
ByLayer
 72
     1
 94
      127
  0
MATERIAL
  5
3E
102
{ACAD_REACTORS
330
3B
102
}
330
3B
100
AcDbMaterial
  1
Global
 72
     1
 94
      127
  0
MLINESTYLE
  5
18
102
{ACAD_REACTORS
330
17
102
}
330
17
100
AcDbMlineStyle
  2
Standard
 70
     0
  3

 62
   256
 51
90.0
 52
90.0
 71
     2
 49
0.5
 62
   256
  6
BYLAYER
 49
-0.5
 62
   256
  6
BYLAYER
  0
ACDBPLACEHOLDER
  5
F
102
{ACAD_REACTORS
330
E
102
}
330
E
  0
VISUALSTYLE
  5
2F
102
{ACAD_REACTORS
330
2A
102
}
102
{ACAD_XDICTIONARY
360
13F
102
}
330
2A
100
AcDbVisualStyle
  2
2dWireframe
 70
     4
 71
     0
 72
     2
 73
     0
 90
        0
 40
-0.6
 41
-30.0
 62
     5
 63
     7
421
 16777215
 74
     1
 91
        4
 64
     7
 65
   257
 75
     1
175
     1
 42
1.0
 92
        0
 66
   257
 43
1.0
 76
     1
 77
     6
 78
     2
 67
     7
 79
     5
170
     0
171
     0
290
     0
174
     0
 93
        1
 44
0.0
173
     0
291
     0
 45
0.0
  0
VISUALSTYLE
  5
31
102
{ACAD_REACTORS
330
2A
102
}
102
{ACAD_XDICTIONARY
360
143
102
}
330
2A
100
AcDbVisualStyle
  2
3D Hidden
 70
     6
 71
     1
 72
     2
 73
     2
 90
        0
 40
-0.6
 41
-30.0
 62
     5
 63
     7
421
 16777215
 74
     2
 91
        2
 64
     7
 65
   257
 75
     2
175
     1
 42
40.0
 92
        0
 66
   257
 43
1.0
 76
     1
 77
     6
 78
     2
 67
     7
 79
     3
170
     0
171
     0
290
     0
174
     0
 93
        1
 44
0.0
173
     0
291
     0
 45
0.0
  0
VISUALSTYLE
  5
30
102
{ACAD_REACTORS
330
2A
102
}
102
{ACAD_XDICTIONARY
360
141
102
}
330
2A
100
AcDbVisualStyle
  2
3dWireframe
 70
     5
 71
     0
 72
     2
 73
     0
 90
        0
 40
-0.6
 41
-30.0
 62
     5
 63
     7
421
 16777215
 74
     1
 91
        4
 64
     7
 65
   257
 75
     1
175
     1
 42
1.0
 92
        0
 66
   257
 43
1.0
 76
     1
 77
     6
 78
     2
 67
     7
 79
     5
170
     0
171
     0
290
     0
174
     0
 93
        1
 44
0.0
173
     0
291
     0
 45
0.0
  0
VISUALSTYLE
  5
32
102
{ACAD_REACTORS
330
2A
102
}
102
{ACAD_XDICTIONARY
360
145
102
}
330
2A
100
AcDbVisualStyle
  2
Basic
 70
     7
 71
     1
 72
     0
 73
     1
 90
        0
 40
-0.6
 41
-30.0
 62
     5
 63
     7
421
 16777215
 74
     0
 91
        4
 64
     7
 65
   257
 75
     1
175
     1
 42
1.0
 92
        8
 66
     7
 43
1.0
 76
     1
 77
     6
 78
     2
 67
     7
 79
     5
170
     0
171
     0
290
     0
174
     0
 93
        1
 44
0.0
173
     0
291
     1
 45
0.0
  0
VISUALSTYLE
  5
36
102
{ACAD_REACTORS
330
2A
102
}
102
{ACAD_XDICTIONARY
360
14D
102
}
330
2A
100
AcDbVisualStyle
  2
Brighten
 70
    12
 71
     2
 72
     2
 73
     0
 90
        0
 40
-0.6
 41
-30.0
 62
     5
 63
     7
421
 16777215
 74
     1
 91
        4
 64
     7
 65
   257
 75
     1
175
     1
 42
1.0
 92
        8
 66
     7
 43
1.0
 76
     1
 77
     6
 78
     2
 67
     7
 79
     5
170
     0
171
     0
290
     0
174
     0
 93
        1
 44
50.0
173
     0
291
     1
 45
0.0
  0
VISUALSTYLE
  5
3A
102
{ACAD_REACTORS
330
2A
102
}
102
{ACAD_XDICTIONARY
360
155
102
}
330
2A
100
AcDbVisualStyle
  2
ColorChange
 70
    16
 71
     2
 72
     2
 73
     3
 90
        0
 40
-0.6
 41
-30.0
 62
     5
 63
     8
421
  8421504
 74
     1
 91
        4
 64
     7
 65
   257
 75
     1
175
     1
 42
1.0
 92
        8
 66
     8
424
  8421504
 43
1.0
 76
     1
 77
     6
 78
     2
 67
     7
 79
     5
170
     0
171
     0
290
     0
174
     0
 93
        1
 44
0.0
173
     0
291
     1
 45
0.0
  0
VISUALSTYLE
  5
34
102
{ACAD_REACTORS
330
2A
102
}
102
{ACAD_XDICTIONARY
360
149
102
}
330
2A
100
AcDbVisualStyle
  2
Conceptual
 70
     9
 71
     3
 72
     2
 73
     0
 90
        0
 40
-0.6
 41
-30.0
 62
     5
 63
     7
421
 16777215
 74
     2
 91
        2
 64
     7
 65
   257
 75
     1
175
     1
 42
40.0
 92
        8
 66
     7
 43
1.0
 76
     1
 77
     6
 78
     2
 67
     7
 79
     3
170
     0
171
     0
290
     0
174
     0
 93
        1
 44
0.0
173
     0
291
     0
 45
0.0
  0
VISUALSTYLE
  5
35
102
{ACAD_REACTORS
330
2A
102
}
102
{ACAD_XDICTIONARY
360
14B
102
}
330
2A
100
AcDbVisualStyle
  2
Dim
 70
    11
 71
     2
 72
     2
 73
     0
 90
        0
 40
-0.6
 41
-30.0
 62
     5
 63
     7
421
 16777215
 74
     1
 91
        4
 64
     7
 65
   257
 75
     1
175
     1
 42
1.0
 92
        8
 66
     7
 43
1.0
 76
     1
 77
     6
 78
     2
 67
     7
 79
     5
170
     0
171
     0
290
     0
174
     0
 93
        1
 44
-50.0
173
     0
291
     1
 45
0.0
  0
VISUALSTYLE
  5
39
102
{ACAD_REACTORS
330
2A
102
}
102
{ACAD_XDICTIONARY
360
153
102
}
330
2A
100
AcDbVisualStyle
  2
Facepattern
 70
    15
 71
     2
 72
     2
 73
     0
 90
        0
 40
-0.6
 41
-30.0
 62
     5
 63
     7
421
 16777215
 74
     1
 91
        4
 64
     7
 65
   257
 75
     1
175
     1
 42
1.0
 92
        8
 66
     7
 43
1.0
 76
     1
 77
     6
 78
     2
 67
     7
 79
     5
170
     0
171
     0
290
     0
174
     0
 93
        1
 44
0.0
173
     0
291
     1
 45
0.0
  0
VISUALSTYLE
  5
2B
102
{ACAD_REACTORS
330
2A
102
}
102
{ACAD_XDICTIONARY
360
137
102
}
330
2A
100
AcDbVisualStyle
  2
Flat
 70
     0
 71
     2
 72
     1
 73
     1
 90
        2
 40
-0.6
 41
30.0
 62
     5
 63
     7
421
 16777215
 74
     0
 91
        4
 64
     7
 65
   257
 75
     1
175
     1
 42
1.0
 92
        8
 66
     7
 43
1.0
 76
     1
 77
     6
 78
     2
 67
     7
 79
     5
170
     0
171
     0
290
     0
174
     0
 93
       13
 44
0.0
173
     0
291
     1
 45
0.0
  0
VISUALSTYLE
  5
2C
102
{ACAD_REACTORS
330
2A
102
}
102
{ACAD_XDICTIONARY
360
139
102
}
330
2A
100
AcDbVisualStyle
  2
FlatWithEdges
 70
     1
 71
     2
 72
     1
 73
     1
 90
        2
 40
-0.6
 41
30.0
 62
     5
 63
     7
421
 16777215
 74
     1
 91
        4
 64
     7
 65
   257
 75
     1
175
     1
 42
1.0
 92
        0
 66
   257
 43
1.0
 76
     1
 77
     6
 78
     2
 67
     7
 79
     5
170
     0
171
     0
290
     0
174
     0
 93
       13
 44
0.0
173
     0
291
     1
 45
0.0
  0
VISUALSTYLE
  5
2D
102
{ACAD_REACTORS
330
2A
102
}
102
{ACAD_XDICTIONARY
360
13B
102
}
330
2A
100
AcDbVisualStyle
  2
Gouraud
 70
     2
 71
     2
 72
     2
 73
     1
 90
        2
 40
-0.6
 41
30.0
 62
     5
 63
     7
421
 16777215
 74
     0
 91
        4
 64
     7
 65
   257
 75
     1
175
     1
 42
1.0
 92
        0
 66
     7
 43
1.0
 76
     1
 77
     6
 78
     2
 67
     7
 79
     5
170
     0
171
     0
290
     0
174
     0
 93
       13
 44
0.0
173
     0
291
     1
 45
0.0
  0
VISUALSTYLE
  5
2E
102
{ACAD_REACTORS
330
2A
102
}
102
{ACAD_XDICTIONARY
360
13D
102
}
330
2A
100
AcDbVisualStyle
  2
GouraudWithEdges
 70
     3
 71
     2
 72
     2
 73
     1
 90
        2
 40
-0.6
 41
30.0
 62
     5
 63
     7
421
 16777215
 74
     1
 91
        4
 64
     7
 65
   257
 75
     1
175
     1
 42
1.0
 92
        0
 66
   257
 43
1.0
 76
     1
 77
     6
 78
     2
 67
     7
 79
     5
170
     0
171
     0
290
     0
174
     0
 93
       13
 44
0.0
173
     0
291
     1
 45
0.0
  0
VISUALSTYLE
  5
38
102
{ACAD_REACTORS
330
2A
102
}
102
{ACAD_XDICTIONARY
360
151
102
}
330
2A
100
AcDbVisualStyle
  2
Linepattern
 70
    14
 71
     2
 72
     2
 73
     0
 90
        0
 40
-0.6
 41
-30.0
 62
     5
 63
     7
421
 16777215
 74
     1
 91
        4
 64
     7
 65
   257
 75
     7
175
     7
 42
1.0
 92
        8
 66
     7
 43
1.0
 76
     1
 77
     6
 78
     2
 67
     7
 79
     5
170
     0
171
     0
290
     0
174
     0
 93
        1
 44
0.0
173
     0
291
     1
 45
0.0
  0
VISUALSTYLE
  5
33
102
{ACAD_REACTORS
330
2A
102
}
102
{ACAD_XDICTIONARY
360
147
102
}
330
2A
100
AcDbVisualStyle
  2
Realistic
 70
     8
 71
     2
 72
     2
 73
     0
 90
        0
 40
-0.6
 41
-30.0
 62
     5
 63
     7
421
 16777215
 74
     1
 91
        0
 64
     7
 65
   257
 75
     1
175
     1
 42
1.0
 92
        8
 66
     8
424
  7895160
 43
1.0
 76
     1
 77
     6
 78
     2
 67
     7
 79
     5
170
     0
171
     0
290
     0
174
     0
 93
       13
 44
0.0
173
     0
291
     0
 45
0.0
  0
VISUALSTYLE
  5
37
102
{ACAD_REACTORS
330
2A
102
}
102
{ACAD_XDICTIONARY
360
14F
102
}
330
2A
100
AcDbVisualStyle
  2
Thicken
 70
    13
 71
     2
 72
     2
 73
     0
 90
        0
 40
-0.6
 41
-30.0
 62
     5
 63
     7
421
 16777215
 74
     1
 91
        4
 64
     7
 65
   257
 75
     1
175
     1
 42
1.0
 92
       12
 66
     7
 43
1.0
 76
     1
 77
     6
 78
     2
 67
     7
 79
     5
170
     0
171
     0
290
     0
174
     0
 93
        1
 44
0.0
173
     0
291
     1
 45
0.0
  0
DICTIONARY
  5
13F
330
2F
100
AcDbDictionary
280
     1
281
     1
  3
ACAD_XREC_ROUNDTRIP
360
140
  0
DICTIONARY
  5
143
330
31
100
AcDbDictionary
280
     1
281
     1
  3
ACAD_XREC_ROUNDTRIP
360
144
  0
DICTIONARY
  5
141
330
30
100
AcDbDictionary
280
     1
281
     1
  3
ACAD_XREC_ROUNDTRIP
360
142
  0
DICTIONARY
  5
145
330
32
100
AcDbDictionary
280
     1
281
     1
  3
ACAD_XREC_ROUNDTRIP
360
146
  0
DICTIONARY
  5
14D
330
36
100
AcDbDictionary
280
     1
281
     1
  3
ACAD_XREC_ROUNDTRIP
360
14E
  0
DICTIONARY
  5
155
330
3A
100
AcDbDictionary
280
     1
281
     1
  3
ACAD_XREC_ROUNDTRIP
360
156
  0
DICTIONARY
  5
149
330
34
100
AcDbDictionary
280
     1
281
     1
  3
ACAD_XREC_ROUNDTRIP
360
14A
  0
DICTIONARY
  5
14B
330
35
100
AcDbDictionary
280
     1
281
     1
  3
ACAD_XREC_ROUNDTRIP
360
14C
  0
DICTIONARY
  5
153
330
39
100
AcDbDictionary
280
     1
281
     1
  3
ACAD_XREC_ROUNDTRIP
360
154
  0
DICTIONARY
  5
137
330
2B
100
AcDbDictionary
280
     1
281
     1
  3
ACAD_XREC_ROUNDTRIP
360
138
  0
DICTIONARY
  5
139
330
2C
100
AcDbDictionary
280
     1
281
     1
  3
ACAD_XREC_ROUNDTRIP
360
13A
  0
DICTIONARY
  5
13B
330
2D
100
AcDbDictionary
280
     1
281
     1
  3
ACAD_XREC_ROUNDTRIP
360
13C
  0
DICTIONARY
  5
13D
330
2E
100
AcDbDictionary
280
     1
281
     1
  3
ACAD_XREC_ROUNDTRIP
360
13E
  0
DICTIONARY
  5
151
330
38
100
AcDbDictionary
280
     1
281
     1
  3
ACAD_XREC_ROUNDTRIP
360
152
  0
DICTIONARY
  5
147
330
33
100
AcDbDictionary
280
     1
281
     1
  3
ACAD_XREC_ROUNDTRIP
360
148
  0
DICTIONARY
  5
14F
330
37
100
AcDbDictionary
280
     1
281
     1
  3
ACAD_XREC_ROUNDTRIP
360
150
  0
XRECORD
  5
140
102
{ACAD_REACTORS
330
13F
102
}
330
13F
100
AcDbXrecord
280
     1
102
RTVSPropertyOp0
 70
     1
102
RTVSPropertyOp1
 70
     1
102
RTVSPropertyOp2
 70
     1
102
RTVSPropertyOp3
 70
     1
102
RTVSPropertyOp4
 70
     1
102
RTVSPropertyOp5
 70
     1
102
RTVSPropertyOp6
 70
     1
102
RTVSPropertyOp7
 70
     1
102
RTVSPropertyOp8
 70
     1
102
RTVSPropertyOp9
 70
     1
102
RTVSPropertyOp10
 70
     1
102
RTVSPropertyOp11
 70
     1
102
RTVSPropertyOp12
 70
     1
102
RTVSPropertyOp13
 70
     1
102
RTVSPropertyOp14
 70
     1
102
RTVSPropertyOp15
 70
     1
102
RTVSPropertyOp16
 70
     1
102
RTVSPropertyOp17
 70
     1
102
RTVSPropertyOp18
 70
     1
102
RTVSPropertyOp19
 70
     1
102
RTVSPropertyOp20
 70
     1
102
RTVSPropertyOp21
 70
     1
102
RTVSPropertyOp22
 70
     1
102
RTVSPropertyOp23
 70
     1
102
RTVSPropertyOp24
 70
     1
102
RTVSPropertyOp25
 70
     1
102
RTVSPropertyOp26
 70
     1
102
RTVSPropertyOp27
 70
     1
102
RTVSPropertyOp28
 70
     1
102
RTVSPropertyOp29
 70
     1
102
RTVSPropertyOp30
 70
     1
102
RTVSPropertyOp31
 70
     1
102
RTVSPropertyOp32
 70
     1
  0
XRECORD
  5
144
102
{ACAD_REACTORS
330
143
102
}
330
143
100
AcDbXrecord
280
     1
102
RTVSPropertyOp0
 70
     1
102
RTVSPropertyOp1
 70
     1
102
RTVSPropertyOp2
 70
     1
102
RTVSPropertyOp3
 70
     1
102
RTVSPropertyOp4
 70
     1
102
RTVSPropertyOp5
 70
     1
102
RTVSPropertyOp6
 70
     1
102
RTVSPropertyOp7
 70
     1
102
RTVSPropertyOp8
 70
     1
102
RTVSPropertyOp9
 70
     1
102
RTVSPropertyOp10
 70
     1
102
RTVSPropertyOp11
 70
     1
102
RTVSPropertyOp12
 70
     1
102
RTVSPropertyOp13
 70
     1
102
RTVSPropertyOp14
 70
     1
102
RTVSPropertyOp15
 70
     1
102
RTVSPropertyOp16
 70
     1
102
RTVSPropertyOp17
 70
     1
102
RTVSPropertyOp18
 70
     1
102
RTVSPropertyOp19
 70
     1
102
RTVSPropertyOp20
 70
     1
102
RTVSPropertyOp21
 70
     1
102
RTVSPropertyOp22
 70
     1
102
RTVSPropertyOp23
 70
     1
102
RTVSPropertyOp24
 70
     1
102
RTVSPropertyOp25
 70
     1
102
RTVSPropertyOp26
 70
     1
102
RTVSPropertyOp27
 70
     1
102
RTVSPropertyOp28
 70
     1
102
RTVSPropertyOp29
 70
     1
102
RTVSPropertyOp30
 70
     1
102
RTVSPropertyOp31
 70
     1
102
RTVSPropertyOp32
 70
     1
  0
XRECORD
  5
142
102
{ACAD_REACTORS
330
141
102
}
330
141
100
AcDbXrecord
280
     1
102
RTVSPropertyOp0
 70
     1
102
RTVSPropertyOp1
 70
     1
102
RTVSPropertyOp2
 70
     1
102
RTVSPropertyOp3
 70
     1
102
RTVSPropertyOp4
 70
     1
102
RTVSPropertyOp5
 70
     1
102
RTVSPropertyOp6
 70
     1
102
RTVSPropertyOp7
 70
     1
102
RTVSPropertyOp8
 70
     1
102
RTVSPropertyOp9
 70
     1
102
RTVSPropertyOp10
 70
     1
102
RTVSPropertyOp11
 70
     1
102
RTVSPropertyOp12
 70
     1
102
RTVSPropertyOp13
 70
     1
102
RTVSPropertyOp14
 70
     1
102
RTVSPropertyOp15
 70
     1
102
RTVSPropertyOp16
 70
     1
102
RTVSPropertyOp17
 70
     1
102
RTVSPropertyOp18
 70
     1
102
RTVSPropertyOp19
 70
     1
102
RTVSPropertyOp20
 70
     1
102
RTVSPropertyOp21
 70
     1
102
RTVSPropertyOp22
 70
     1
102
RTVSPropertyOp23
 70
     1
102
RTVSPropertyOp24
 70
     1
102
RTVSPropertyOp25
 70
     1
102
RTVSPropertyOp26
 70
     1
102
RTVSPropertyOp27
 70
     1
102
RTVSPropertyOp28
 70
     1
102
RTVSPropertyOp29
 70
     1
102
RTVSPropertyOp30
 70
     1
102
RTVSPropertyOp31
 70
     1
102
RTVSPropertyOp32
 70
     1
  0
XRECORD
  5
146
102
{ACAD_REACTORS
330
145
102
}
330
145
100
AcDbXrecord
280
     1
102
RTVSPropertyOp0
 70
     1
102
RTVSPropertyOp1
 70
     1
102
RTVSPropertyOp2
 70
     1
102
RTVSPropertyOp3
 70
     1
102
RTVSPropertyOp4
 70
     1
102
RTVSPropertyOp5
 70
     1
102
RTVSPropertyOp6
 70
     1
102
RTVSPropertyOp7
 70
     1
102
RTVSPropertyOp8
 70
     1
102
RTVSPropertyOp9
 70
     1
102
RTVSPropertyOp10
 70
     1
102
RTVSPropertyOp11
 70
     1
102
RTVSPropertyOp12
 70
     1
102
RTVSPropertyOp13
 70
     1
102
RTVSPropertyOp14
 70
     1
102
RTVSPropertyOp15
 70
     1
102
RTVSPropertyOp16
 70
     1
102
RTVSPropertyOp17
 70
     1
102
RTVSPropertyOp18
 70
     1
102
RTVSPropertyOp19
 70
     1
102
RTVSPropertyOp20
 70
     1
102
RTVSPropertyOp21
 70
     1
102
RTVSPropertyOp22
 70
     1
102
RTVSPropertyOp23
 70
     1
102
RTVSPropertyOp24
 70
     1
102
RTVSPropertyOp25
 70
     1
102
RTVSPropertyOp26
 70
     1
102
RTVSPropertyOp27
 70
     1
102
RTVSPropertyOp28
 70
     1
102
RTVSPropertyOp29
 70
     1
102
RTVSPropertyOp30
 70
     1
102
RTVSPropertyOp31
 70
     1
102
RTVSPropertyOp32
 70
     1
  0
XRECORD
  5
14E
102
{ACAD_REACTORS
330
14D
102
}
330
14D
100
AcDbXrecord
280
     1
102
RTVSPropertyOp0
 70
     1
102
RTVSPropertyOp1
 70
     1
102
RTVSPropertyOp2
 70
     1
102
RTVSPropertyOp3
 70
     1
102
RTVSPropertyOp4
 70
     1
102
RTVSPropertyOp5
 70
     1
102
RTVSPropertyOp6
 70
     1
102
RTVSPropertyOp7
 70
     1
102
RTVSPropertyOp8
 70
     1
102
RTVSPropertyOp9
 70
     1
102
RTVSPropertyOp10
 70
     1
102
RTVSPropertyOp11
 70
     1
102
RTVSPropertyOp12
 70
     1
102
RTVSPropertyOp13
 70
     1
102
RTVSPropertyOp14
 70
     1
102
RTVSPropertyOp15
 70
     1
102
RTVSPropertyOp16
 70
     1
102
RTVSPropertyOp17
 70
     1
102
RTVSPropertyOp18
 70
     1
102
RTVSPropertyOp19
 70
     1
102
RTVSPropertyOp20
 70
     1
102
RTVSPropertyOp21
 70
     1
102
RTVSPropertyOp22
 70
     1
102
RTVSPropertyOp23
 70
     1
102
RTVSPropertyOp24
 70
     1
102
RTVSPropertyOp25
 70
     1
102
RTVSPropertyOp26
 70
     1
102
RTVSPropertyOp27
 70
     1
102
RTVSPropertyOp28
 70
     1
102
RTVSPropertyOp29
 70
     1
102
RTVSPropertyOp30
 70
     1
102
RTVSPropertyOp31
 70
     1
102
RTVSPropertyOp32
 70
     1
  0
XRECORD
  5
156
102
{ACAD_REACTORS
330
155
102
}
330
155
100
AcDbXrecord
280
     1
102
RTVSPropertyOp0
 70
     1
102
RTVSPropertyOp1
 70
     1
102
RTVSPropertyOp2
 70
     1
102
RTVSPropertyOp3
 70
     1
102
RTVSPropertyOp4
 70
     1
102
RTVSPropertyOp5
 70
     1
102
RTVSPropertyOp6
 70
     1
102
RTVSPropertyOp7
 70
     1
102
RTVSPropertyOp8
 70
     1
102
RTVSPropertyOp9
 70
     1
102
RTVSPropertyOp10
 70
     1
102
RTVSPropertyOp11
 70
     1
102
RTVSPropertyOp12
 70
     1
102
RTVSPropertyOp13
 70
     1
102
RTVSPropertyOp14
 70
     1
102
RTVSPropertyOp15
 70
     1
102
RTVSPropertyOp16
 70
     1
102
RTVSPropertyOp17
 70
     1
102
RTVSPropertyOp18
 70
     1
102
RTVSPropertyOp19
 70
     1
102
RTVSPropertyOp20
 70
     1
102
RTVSPropertyOp21
 70
     1
102
RTVSPropertyOp22
 70
     1
102
RTVSPropertyOp23
 70
     1
102
RTVSPropertyOp24
 70
     1
102
RTVSPropertyOp25
 70
     1
102
RTVSPropertyOp26
 70
     1
102
RTVSPropertyOp27
 70
     1
102
RTVSPropertyOp28
 70
     1
102
RTVSPropertyOp29
 70
     1
102
RTVSPropertyOp30
 70
     1
102
RTVSPropertyOp31
 70
     1
102
RTVSPropertyOp32
 70
     1
  0
XRECORD
  5
14A
102
{ACAD_REACTORS
330
149
102
}
330
149
100
AcDbXrecord
280
     1
102
RTVSPropertyOp0
 70
     1
102
RTVSPropertyOp1
 70
     1
102
RTVSPropertyOp2
 70
     1
102
RTVSPropertyOp3
 70
     1
102
RTVSPropertyOp4
 70
     1
102
RTVSPropertyOp5
 70
     1
102
RTVSPropertyOp6
 70
     1
102
RTVSPropertyOp7
 70
     1
102
RTVSPropertyOp8
 70
     1
102
RTVSPropertyOp9
 70
     1
102
RTVSPropertyOp10
 70
     1
102
RTVSPropertyOp11
 70
     1
102
RTVSPropertyOp12
 70
     1
102
RTVSPropertyOp13
 70
     1
102
RTVSPropertyOp14
 70
     1
102
RTVSPropertyOp15
 70
     1
102
RTVSPropertyOp16
 70
     1
102
RTVSPropertyOp17
 70
     1
102
RTVSPropertyOp18
 70
     1
102
RTVSPropertyOp19
 70
     1
102
RTVSPropertyOp20
 70
     1
102
RTVSPropertyOp21
 70
     1
102
RTVSPropertyOp22
 70
     1
102
RTVSPropertyOp23
 70
     1
102
RTVSPropertyOp24
 70
     1
102
RTVSPropertyOp25
 70
     1
102
RTVSPropertyOp26
 70
     1
102
RTVSPropertyOp27
 70
     1
102
RTVSPropertyOp28
 70
     1
102
RTVSPropertyOp29
 70
     1
102
RTVSPropertyOp30
 70
     1
102
RTVSPropertyOp31
 70
     1
102
RTVSPropertyOp32
 70
     1
  0
XRECORD
  5
14C
102
{ACAD_REACTORS
330
14B
102
}
330
14B
100
AcDbXrecord
280
     1
102
RTVSPropertyOp0
 70
     1
102
RTVSPropertyOp1
 70
     1
102
RTVSPropertyOp2
 70
     1
102
RTVSPropertyOp3
 70
     1
102
RTVSPropertyOp4
 70
     1
102
RTVSPropertyOp5
 70
     1
102
RTVSPropertyOp6
 70
     1
102
RTVSPropertyOp7
 70
     1
102
RTVSPropertyOp8
 70
     1
102
RTVSPropertyOp9
 70
     1
102
RTVSPropertyOp10
 70
     1
102
RTVSPropertyOp11
 70
     1
102
RTVSPropertyOp12
 70
     1
102
RTVSPropertyOp13
 70
     1
102
RTVSPropertyOp14
 70
     1
102
RTVSPropertyOp15
 70
     1
102
RTVSPropertyOp16
 70
     1
102
RTVSPropertyOp17
 70
     1
102
RTVSPropertyOp18
 70
     1
102
RTVSPropertyOp19
 70
     1
102
RTVSPropertyOp20
 70
     1
102
RTVSPropertyOp21
 70
     1
102
RTVSPropertyOp22
 70
     1
102
RTVSPropertyOp23
 70
     1
102
RTVSPropertyOp24
 70
     1
102
RTVSPropertyOp25
 70
     1
102
RTVSPropertyOp26
 70
     1
102
RTVSPropertyOp27
 70
     1
102
RTVSPropertyOp28
 70
     1
102
RTVSPropertyOp29
 70
     1
102
RTVSPropertyOp30
 70
     1
102
RTVSPropertyOp31
 70
     1
102
RTVSPropertyOp32
 70
     1
  0
XRECORD
  5
154
102
{ACAD_REACTORS
330
153
102
}
330
153
100
AcDbXrecord
280
     1
102
RTVSPropertyOp0
 70
     1
102
RTVSPropertyOp1
 70
     1
102
RTVSPropertyOp2
 70
     1
102
RTVSPropertyOp3
 70
     1
102
RTVSPropertyOp4
 70
     1
102
RTVSPropertyOp5
 70
     1
102
RTVSPropertyOp6
 70
     1
102
RTVSPropertyOp7
 70
     1
102
RTVSPropertyOp8
 70
     1
102
RTVSPropertyOp9
 70
     1
102
RTVSPropertyOp10
 70
     1
102
RTVSPropertyOp11
 70
     1
102
RTVSPropertyOp12
 70
     1
102
RTVSPropertyOp13
 70
     1
102
RTVSPropertyOp14
 70
     1
102
RTVSPropertyOp15
 70
     1
102
RTVSPropertyOp16
 70
     1
102
RTVSPropertyOp17
 70
     1
102
RTVSPropertyOp18
 70
     1
102
RTVSPropertyOp19
 70
     1
102
RTVSPropertyOp20
 70
     1
102
RTVSPropertyOp21
 70
     1
102
RTVSPropertyOp22
 70
     1
102
RTVSPropertyOp23
 70
     1
102
RTVSPropertyOp24
 70
     1
102
RTVSPropertyOp25
 70
     1
102
RTVSPropertyOp26
 70
     1
102
RTVSPropertyOp27
 70
     1
102
RTVSPropertyOp28
 70
     1
102
RTVSPropertyOp29
 70
     1
102
RTVSPropertyOp30
 70
     1
102
RTVSPropertyOp31
 70
     1
102
RTVSPropertyOp32
 70
     1
  0
XRECORD
  5
138
102
{ACAD_REACTORS
330
137
102
}
330
137
100
AcDbXrecord
280
     1
102
RTVSPropertyOp0
 70
     1
102
RTVSPropertyOp1
 70
     1
102
RTVSPropertyOp2
 70
     1
102
RTVSPropertyOp3
 70
     1
102
RTVSPropertyOp4
 70
     1
102
RTVSPropertyOp5
 70
     1
102
RTVSPropertyOp6
 70
     1
102
RTVSPropertyOp7
 70
     1
102
RTVSPropertyOp8
 70
     1
102
RTVSPropertyOp9
 70
     1
102
RTVSPropertyOp10
 70
     1
102
RTVSPropertyOp11
 70
     1
102
RTVSPropertyOp12
 70
     1
102
RTVSPropertyOp13
 70
     1
102
RTVSPropertyOp14
 70
     1
102
RTVSPropertyOp15
 70
     1
102
RTVSPropertyOp16
 70
     1
102
RTVSPropertyOp17
 70
     1
102
RTVSPropertyOp18
 70
     1
102
RTVSPropertyOp19
 70
     1
102
RTVSPropertyOp20
 70
     1
102
RTVSPropertyOp21
 70
     1
102
RTVSPropertyOp22
 70
     1
102
RTVSPropertyOp23
 70
     1
102
RTVSPropertyOp24
 70
     1
102
RTVSPropertyOp25
 70
     1
102
RTVSPropertyOp26
 70
     1
102
RTVSPropertyOp27
 70
     1
102
RTVSPropertyOp28
 70
     1
102
RTVSPropertyOp29
 70
     1
102
RTVSPropertyOp30
 70
     1
102
RTVSPropertyOp31
 70
     1
102
RTVSPropertyOp32
 70
     1
  0
XRECORD
  5
13A
102
{ACAD_REACTORS
330
139
102
}
330
139
100
AcDbXrecord
280
     1
102
RTVSPropertyOp0
 70
     1
102
RTVSPropertyOp1
 70
     1
102
RTVSPropertyOp2
 70
     1
102
RTVSPropertyOp3
 70
     1
102
RTVSPropertyOp4
 70
     1
102
RTVSPropertyOp5
 70
     1
102
RTVSPropertyOp6
 70
     1
102
RTVSPropertyOp7
 70
     1
102
RTVSPropertyOp8
 70
     1
102
RTVSPropertyOp9
 70
     1
102
RTVSPropertyOp10
 70
     1
102
RTVSPropertyOp11
 70
     1
102
RTVSPropertyOp12
 70
     1
102
RTVSPropertyOp13
 70
     1
102
RTVSPropertyOp14
 70
     1
102
RTVSPropertyOp15
 70
     1
102
RTVSPropertyOp16
 70
     1
102
RTVSPropertyOp17
 70
     1
102
RTVSPropertyOp18
 70
     1
102
RTVSPropertyOp19
 70
     1
102
RTVSPropertyOp20
 70
     1
102
RTVSPropertyOp21
 70
     1
102
RTVSPropertyOp22
 70
     1
102
RTVSPropertyOp23
 70
     1
102
RTVSPropertyOp24
 70
     1
102
RTVSPropertyOp25
 70
     1
102
RTVSPropertyOp26
 70
     1
102
RTVSPropertyOp27
 70
     1
102
RTVSPropertyOp28
 70
     1
102
RTVSPropertyOp29
 70
     1
102
RTVSPropertyOp30
 70
     1
102
RTVSPropertyOp31
 70
     1
102
RTVSPropertyOp32
 70
     1
  0
XRECORD
  5
13C
102
{ACAD_REACTORS
330
13B
102
}
330
13B
100
AcDbXrecord
280
     1
102
RTVSPropertyOp0
 70
     1
102
RTVSPropertyOp1
 70
     1
102
RTVSPropertyOp2
 70
     1
102
RTVSPropertyOp3
 70
     1
102
RTVSPropertyOp4
 70
     1
102
RTVSPropertyOp5
 70
     1
102
RTVSPropertyOp6
 70
     1
102
RTVSPropertyOp7
 70
     1
102
RTVSPropertyOp8
 70
     1
102
RTVSPropertyOp9
 70
     1
102
RTVSPropertyOp10
 70
     1
102
RTVSPropertyOp11
 70
     1
102
RTVSPropertyOp12
 70
     1
102
RTVSPropertyOp13
 70
     1
102
RTVSPropertyOp14
 70
     1
102
RTVSPropertyOp15
 70
     1
102
RTVSPropertyOp16
 70
     1
102
RTVSPropertyOp17
 70
     1
102
RTVSPropertyOp18
 70
     1
102
RTVSPropertyOp19
 70
     1
102
RTVSPropertyOp20
 70
     1
102
RTVSPropertyOp21
 70
     1
102
RTVSPropertyOp22
 70
     1
102
RTVSPropertyOp23
 70
     1
102
RTVSPropertyOp24
 70
     1
102
RTVSPropertyOp25
 70
     1
102
RTVSPropertyOp26
 70
     1
102
RTVSPropertyOp27
 70
     1
102
RTVSPropertyOp28
 70
     1
102
RTVSPropertyOp29
 70
     1
102
RTVSPropertyOp30
 70
     1
102
RTVSPropertyOp31
 70
     1
102
RTVSPropertyOp32
 70
     1
  0
XRECORD
  5
13E
102
{ACAD_REACTORS
330
13D
102
}
330
13D
100
AcDbXrecord
280
     1
102
RTVSPropertyOp0
 70
     1
102
RTVSPropertyOp1
 70
     1
102
RTVSPropertyOp2
 70
     1
102
RTVSPropertyOp3
 70
     1
102
RTVSPropertyOp4
 70
     1
102
RTVSPropertyOp5
 70
     1
102
RTVSPropertyOp6
 70
     1
102
RTVSPropertyOp7
 70
     1
102
RTVSPropertyOp8
 70
     1
102
RTVSPropertyOp9
 70
     1
102
RTVSPropertyOp10
 70
     1
102
RTVSPropertyOp11
 70
     1
102
RTVSPropertyOp12
 70
     1
102
RTVSPropertyOp13
 70
     1
102
RTVSPropertyOp14
 70
     1
102
RTVSPropertyOp15
 70
     1
102
RTVSPropertyOp16
 70
     1
102
RTVSPropertyOp17
 70
     1
102
RTVSPropertyOp18
 70
     1
102
RTVSPropertyOp19
 70
     1
102
RTVSPropertyOp20
 70
     1
102
RTVSPropertyOp21
 70
     1
102
RTVSPropertyOp22
 70
     1
102
RTVSPropertyOp23
 70
     1
102
RTVSPropertyOp24
 70
     1
102
RTVSPropertyOp25
 70
     1
102
RTVSPropertyOp26
 70
     1
102
RTVSPropertyOp27
 70
     1
102
RTVSPropertyOp28
 70
     1
102
RTVSPropertyOp29
 70
     1
102
RTVSPropertyOp30
 70
     1
102
RTVSPropertyOp31
 70
     1
102
RTVSPropertyOp32
 70
     1
  0
XRECORD
  5
152
102
{ACAD_REACTORS
330
151
102
}
330
151
100
AcDbXrecord
280
     1
102
RTVSPropertyOp0
 70
     1
102
RTVSPropertyOp1
 70
     1
102
RTVSPropertyOp2
 70
     1
102
RTVSPropertyOp3
 70
     1
102
RTVSPropertyOp4
 70
     1
102
RTVSPropertyOp5
 70
     1
102
RTVSPropertyOp6
 70
     1
102
RTVSPropertyOp7
 70
     1
102
RTVSPropertyOp8
 70
     1
102
RTVSPropertyOp9
 70
     1
102
RTVSPropertyOp10
 70
     1
102
RTVSPropertyOp11
 70
     1
102
RTVSPropertyOp12
 70
     1
102
RTVSPropertyOp13
 70
     1
102
RTVSPropertyOp14
 70
     1
102
RTVSPropertyOp15
 70
     1
102
RTVSPropertyOp16
 70
     1
102
RTVSPropertyOp17
 70
     1
102
RTVSPropertyOp18
 70
     1
102
RTVSPropertyOp19
 70
     1
102
RTVSPropertyOp20
 70
     1
102
RTVSPropertyOp21
 70
     1
102
RTVSPropertyOp22
 70
     1
102
RTVSPropertyOp23
 70
     1
102
RTVSPropertyOp24
 70
     1
102
RTVSPropertyOp25
 70
     1
102
RTVSPropertyOp26
 70
     1
102
RTVSPropertyOp27
 70
     1
102
RTVSPropertyOp28
 70
     1
102
RTVSPropertyOp29
 70
     1
102
RTVSPropertyOp30
 70
     1
102
RTVSPropertyOp31
 70
     1
102
RTVSPropertyOp32
 70
     1
  0
XRECORD
  5
148
102
{ACAD_REACTORS
330
147
102
}
330
147
100
AcDbXrecord
280
     1
102
RTVSPropertyOp0
 70
     1
102
RTVSPropertyOp1
 70
     1
102
RTVSPropertyOp2
 70
     1
102
RTVSPropertyOp3
 70
     1
102
RTVSPropertyOp4
 70
     1
102
RTVSPropertyOp5
 70
     1
102
RTVSPropertyOp6
 70
     1
102
RTVSPropertyOp7
 70
     1
102
RTVSPropertyOp8
 70
     1
102
RTVSPropertyOp9
 70
     1
102
RTVSPropertyOp10
 70
     1
102
RTVSPropertyOp11
 70
     1
102
RTVSPropertyOp12
 70
     1
102
RTVSPropertyOp13
 70
     1
102
RTVSPropertyOp14
 70
     1
102
RTVSPropertyOp15
 70
     1
102
RTVSPropertyOp16
 70
     1
102
RTVSPropertyOp17
 70
     1
102
RTVSPropertyOp18
 70
     1
102
RTVSPropertyOp19
 70
     1
102
RTVSPropertyOp20
 70
     1
102
RTVSPropertyOp21
 70
     1
102
RTVSPropertyOp22
 70
     1
102
RTVSPropertyOp23
 70
     1
102
RTVSPropertyOp24
 70
     1
102
RTVSPropertyOp25
 70
     1
102
RTVSPropertyOp26
 70
     1
102
RTVSPropertyOp27
 70
     1
102
RTVSPropertyOp28
 70
     1
102
RTVSPropertyOp29
 70
     1
102
RTVSPropertyOp30
 70
     1
102
RTVSPropertyOp31
 70
     1
102
RTVSPropertyOp32
 70
     1
  0
XRECORD
  5
150
102
{ACAD_REACTORS
330
14F
102
}
330
14F
100
AcDbXrecord
280
     1
102
RTVSPropertyOp0
 70
     1
102
RTVSPropertyOp1
 70
     1
102
RTVSPropertyOp2
 70
     1
102
RTVSPropertyOp3
 70
     1
102
RTVSPropertyOp4
 70
     1
102
RTVSPropertyOp5
 70
     1
102
RTVSPropertyOp6
 70
     1
102
RTVSPropertyOp7
 70
     1
102
RTVSPropertyOp8
 70
     1
102
RTVSPropertyOp9
 70
     1
102
RTVSPropertyOp10
 70
     1
102
RTVSPropertyOp11
 70
     1
102
RTVSPropertyOp12
 70
     1
102
RTVSPropertyOp13
 70
     1
102
RTVSPropertyOp14
 70
     1
102
RTVSPropertyOp15
 70
     1
102
RTVSPropertyOp16
 70
     1
102
RTVSPropertyOp17
 70
     1
102
RTVSPropertyOp18
 70
     1
102
RTVSPropertyOp19
 70
     1
102
RTVSPropertyOp20
 70
     1
102
RTVSPropertyOp21
 70
     1
102
RTVSPropertyOp22
 70
     1
102
RTVSPropertyOp23
 70
     1
102
RTVSPropertyOp24
 70
     1
102
RTVSPropertyOp25
 70
     1
102
RTVSPropertyOp26
 70
     1
102
RTVSPropertyOp27
 70
     1
102
RTVSPropertyOp28
 70
     1
102
RTVSPropertyOp29
 70
     1
102
RTVSPropertyOp30
 70
     1
102
RTVSPropertyOp31
 70
     1
102
RTVSPropertyOp32
 70
     1
  0
ENDSEC
  0
EOF
